999
dxflib 2.2.0.0
  0
SECTION
  2
HEADER
  9
$ACADVER
  1
AC1015
  9
$HANDSEED
  5
FFFF
  9
$DIMASZ
 40
2.5
  9
$PLIMMIN
 10
0.0
 20
0.0
  9
$DIMEXE
 40
1.25
  9
$DIMGAP
 40
0.625
  9
$PLIMMAX
 10
210.0
 20
297.0
  9
$INSUNITS
 70
4
  9
$DIMSTYLE
  2
Standard
  9
$CLAYER
  8
holes
  9
$DIMEXO
 40
0.625
  9
$DIMTXT
 40
2.5
  9
$CLAYER
  8
holes
  0
ENDSEC
  0
SECTION
  2
TABLES
  0
TABLE
  2
VPORT
  5
8
100
AcDbSymbolTable
 70
1
  0
VPORT
  5
30
100
AcDbSymbolTableRecord
100
AcDbViewportTableRecord
  2
*Active
 70
0
 10
0.0
 20
0.0
 11
1.0
 21
1.0
 12
286.3055555555554861
 22
148.5
 13
0.0
 23
0.0
 14
10.0
 24
10.0
 15
10.0
 25
10.0
 16
0.0
 26
0.0
 36
1.0
 17
0.0
 27
0.0
 37
0.0
 40
297.0
 41
1.92798353909465
 42
50.0
 43
0.0
 44
0.0
 50
0.0
 51
0.0
 71
0
 72
100
 73
1
 74
3
 75
1
 76
1
 77
0
 78
0
281
0
 65
1
110
0.0
120
0.0
130
0.0
111
1.0
121
0.0
131
0.0
112
0.0
122
1.0
132
0.0
 79
0
146
0.0
  0
ENDTAB
  0
TABLE
  2
LTYPE
  5
5
100
AcDbSymbolTable
 70
21
  0
LTYPE
  5
14
100
AcDbSymbolTableRecord
100
AcDbLinetypeTableRecord
  2
ByBlock
 70
0
  3

 72
65
 73
0
 40
0.0
  0
LTYPE
  5
15
100
AcDbSymbolTableRecord
100
AcDbLinetypeTableRecord
  2
ByLayer
 70
0
  3

 72
65
 73
0
 40
0.0
  0
LTYPE
  5
16
100
AcDbSymbolTableRecord
100
AcDbLinetypeTableRecord
  2
CONTINUOUS
 70
0
  3
Solid line
 72
65
 73
0
 40
0.0
  0
LTYPE
  5
31
100
AcDbSymbolTableRecord
100
AcDbLinetypeTableRecord
  2
DOT
 70
0
  3
Dot . . . . . . . . . . . . . . . . . . . . . .
 72
65
 73
2
 40
6.3499999999999996
 49
0.0
 74
0
 49
-6.3499999999999996
 74
0
  0
LTYPE
  5
32
100
AcDbSymbolTableRecord
100
AcDbLinetypeTableRecord
  2
DOT2
 70
0
  3
Dot (.5x) .....................................
 72
65
 73
2
 40
3.1749999999999998
 49
0.0
 74
0
 49
-3.1749999999999998
 74
0
  0
LTYPE
  5
33
100
AcDbSymbolTableRecord
100
AcDbLinetypeTableRecord
  2
DOTX2
 70
0
  3
Dot (2x) .  .  .  .  .  .  .  .  .  .  .  .  .
 72
65
 73
2
 40
12.6999999999999993
 49
0.0
 74
0
 49
-12.6999999999999993
 74
0
  0
LTYPE
  5
34
100
AcDbSymbolTableRecord
100
AcDbLinetypeTableRecord
  2
DASHED
 70
0
  3
Dashed __ __ __ __ __ __ __ __ __ __ __ __ __ _
 72
65
 73
2
 40
19.0500000000000007
 49
12.6999999999999993
 74
0
 49
-6.3499999999999996
 74
0
  0
LTYPE
  5
35
100
AcDbSymbolTableRecord
100
AcDbLinetypeTableRecord
  2
DASHED2
 70
0
  3
Dashed (.5x) _ _ _ _ _ _ _ _ _ _ _ _ _ _ _ _ _
 72
65
 73
2
 40
9.5250000000000004
 49
6.3499999999999996
 74
0
 49
-3.1749999999999998
 74
0
  0
LTYPE
  5
36
100
AcDbSymbolTableRecord
100
AcDbLinetypeTableRecord
  2
DASHEDX2
 70
0
  3
Dashed (2x) ____  ____  ____  ____  ____  ___
 72
65
 73
2
 40
38.1000000000000014
 49
25.3999999999999986
 74
0
 49
-12.6999999999999993
 74
0
  0
LTYPE
  5
37
100
AcDbSymbolTableRecord
100
AcDbLinetypeTableRecord
  2
DASHDOT
 70
0
  3
Dash dot __ . __ . __ . __ . __ . __ . __ . __
 72
65
 73
4
 40
25.3999999999999986
 49
12.6999999999999993
 74
0
 49
-6.3499999999999996
 74
0
 49
0.0
 74
0
 49
-6.3499999999999996
 74
0
  0
LTYPE
  5
38
100
AcDbSymbolTableRecord
100
AcDbLinetypeTableRecord
  2
DASHDOT2
 70
0
  3
Dash dot (.5x) _._._._._._._._._._._._._._._.
 72
65
 73
4
 40
12.6999999999999993
 49
6.3499999999999996
 74
0
 49
-3.1749999999999998
 74
0
 49
0.0
 74
0
 49
-3.1749999999999998
 74
0
  0
LTYPE
  5
39
100
AcDbSymbolTableRecord
100
AcDbLinetypeTableRecord
  2
DASHDOTX2
 70
0
  3
Dash dot (2x) ____  .  ____  .  ____  .  ___
 72
65
 73
4
 40
50.7999999999999972
 49
25.3999999999999986
 74
0
 49
-12.6999999999999993
 74
0
 49
0.0
 74
0
 49
-12.6999999999999993
 74
0
  0
LTYPE
  5
3A
100
AcDbSymbolTableRecord
100
AcDbLinetypeTableRecord
  2
DIVIDE
 70
0
  3
Divide ____ . . ____ . . ____ . . ____ . . ____
 72
65
 73
6
 40
31.75
 49
12.6999999999999993
 74
0
 49
-6.3499999999999996
 74
0
 49
0.0
 74
0
 49
-6.3499999999999996
 74
0
 49
0.0
 74
0
 49
-6.3499999999999996
 74
0
  0
LTYPE
  5
3B
100
AcDbSymbolTableRecord
100
AcDbLinetypeTableRecord
  2
DIVIDE2
 70
0
  3
Divide (.5x) __..__..__..__..__..__..__..__.._
 72
65
 73
6
 40
15.875
 49
6.3499999999999996
 74
0
 49
-3.1749999999999998
 74
0
 49
0.0
 74
0
 49
-3.1749999999999998
 74
0
 49
0.0
 74
0
 49
-3.1749999999999998
 74
0
  0
LTYPE
  5
3C
100
AcDbSymbolTableRecord
100
AcDbLinetypeTableRecord
  2
DIVIDEX2
 70
0
  3
Divide (2x) ________  .  .  ________  .  .  _
 72
65
 73
6
 40
63.5
 49
25.3999999999999986
 74
0
 49
-12.6999999999999993
 74
0
 49
0.0
 74
0
 49
-12.6999999999999993
 74
0
 49
0.0
 74
0
 49
-12.6999999999999993
 74
0
  0
LTYPE
  5
3D
100
AcDbSymbolTableRecord
100
AcDbLinetypeTableRecord
  2
CENTER
 70
0
  3
Center ____ _ ____ _ ____ _ ____ _ ____ _ ____
 72
65
 73
4
 40
50.7999999999999972
 49
31.75
 74
0
 49
-6.3499999999999996
 74
0
 49
6.3499999999999996
 74
0
 49
-6.3499999999999996
 74
0
  0
LTYPE
  5
3E
100
AcDbSymbolTableRecord
100
AcDbLinetypeTableRecord
  2
CENTER2
 70
0
  3
Center (.5x) ___ _ ___ _ ___ _ ___ _ ___ _ ___
 72
65
 73
4
 40
28.5749999999999993
 49
19.0500000000000007
 74
0
 49
-3.1749999999999998
 74
0
 49
3.1749999999999998
 74
0
 49
-3.1749999999999998
 74
0
  0
LTYPE
  5
3F
100
AcDbSymbolTableRecord
100
AcDbLinetypeTableRecord
  2
CENTERX2
 70
0
  3
Center (2x) ________  __  ________  __  _____
 72
65
 73
4
 40
101.5999999999999943
 49
63.5
 74
0
 49
-12.6999999999999993
 74
0
 49
12.6999999999999993
 74
0
 49
-12.6999999999999993
 74
0
  0
LTYPE
  5
40
100
AcDbSymbolTableRecord
100
AcDbLinetypeTableRecord
  2
BORDER
 70
0
  3
Border __ __ . __ __ . __ __ . __ __ . __ __ .
 72
65
 73
6
 40
44.4500000000000028
 49
12.6999999999999993
 74
0
 49
-6.3499999999999996
 74
0
 49
12.6999999999999993
 74
0
 49
-6.3499999999999996
 74
0
 49
0.0
 74
0
 49
-6.3499999999999996
 74
0
  0
LTYPE
  5
41
100
AcDbSymbolTableRecord
100
AcDbLinetypeTableRecord
  2
BORDER2
 70
0
  3
Border (.5x) __.__.__.__.__.__.__.__.__.__.__.
 72
65
 73
6
 40
22.2250000000000014
 49
6.3499999999999996
 74
0
 49
-3.1749999999999998
 74
0
 49
6.3499999999999996
 74
0
 49
-3.1749999999999998
 74
0
 49
0.0
 74
0
 49
-3.1749999999999998
 74
0
  0
LTYPE
  5
42
100
AcDbSymbolTableRecord
100
AcDbLinetypeTableRecord
  2
BORDERX2
 70
0
  3
Border (2x) ____  ____  .  ____  ____  .  ___
 72
65
 73
6
 40
88.9000000000000057
 49
25.3999999999999986
 74
0
 49
-12.6999999999999993
 74
0
 49
25.3999999999999986
 74
0
 49
-12.6999999999999993
 74
0
 49
0.0
 74
0
 49
-12.6999999999999993
 74
0
  0
ENDTAB
  0
TABLE
  2
LAYER
  5
2
100
AcDbSymbolTable
 70
3
  0
LAYER
  5
10
100
AcDbSymbolTableRecord
100
AcDbLayerTableRecord
  2
0
 70
0
 62
7
420
0
  6
CONTINUOUS
370
25
390
F
  0
LAYER
  5
43
100
AcDbSymbolTableRecord
100
AcDbLayerTableRecord
  2
first
 70
0
 62
7
420
0
  6
CONTINUOUS
370
0
390
F
  0
LAYER
  5
44
100
AcDbSymbolTableRecord
100
AcDbLayerTableRecord
  2
holes
 70
0
 62
7
420
0
  6
CONTINUOUS
370
0
390
F
  0
ENDTAB
  0
TABLE
  2
STYLE
  5
3
100
AcDbSymbolTable
 70
1
  0
STYLE
  5
11
100
AcDbSymbolTableRecord
100
AcDbTextStyleTableRecord
  2
Standard
 70
0
 40
0.0
 41
0.75
 50
0.0
 71
0
 42
2.5
  3
txt
  4

  0
ENDTAB
  0
TABLE
  2
VIEW
  5
6
100
AcDbSymbolTable
 70
0
  0
ENDTAB
  0
TABLE
  2
UCS
  5
7
100
AcDbSymbolTable
 70
0
  0
ENDTAB
  0
TABLE
  2
APPID
  5
9
100
AcDbSymbolTable
 70
1
  0
APPID
  5
12
100
AcDbSymbolTableRecord
100
AcDbRegAppTableRecord
  2
ACAD
 70
0
  0
ENDTAB
  0
TABLE
  2
DIMSTYLE
  5
A
100
AcDbSymbolTable
 70
1
100
AcDbDimStyleTable
 71
0
  0
DIMSTYLE
105
27
100
AcDbSymbolTableRecord
100
AcDbDimStyleTableRecord
  2
Standard
 41
2.5
 42
0.625
 43
3.75
 44
1.25
 70
0
 73
0
 74
0
 77
1
 78
8
140
2.5
141
2.5
143
0.03937007874016
147
0.625
171
3
172
1
271
2
272
2
274
3
278
44
283
0
284
8
340
11
  0
ENDTAB
  0
TABLE
  2
BLOCK_RECORD
  5
1
100
AcDbSymbolTable
 70
1
  0
BLOCK_RECORD
  5
1F
100
AcDbSymbolTableRecord
100
AcDbBlockTableRecord
  2
*Model_Space
340
22
  0
BLOCK_RECORD
  5
1B
100
AcDbSymbolTableRecord
100
AcDbBlockTableRecord
  2
*Paper_Space
340
1E
  0
BLOCK_RECORD
  5
23
100
AcDbSymbolTableRecord
100
AcDbBlockTableRecord
  2
*Paper_Space0
340
26
  0
ENDTAB
  0
ENDSEC
  0
SECTION
  2
BLOCKS
  0
BLOCK
  5
20
100
AcDbEntity
  8
0
100
AcDbBlockBegin
  2
*Model_Space
 70
0
 10
0.0
 20
0.0
 30
0.0
  3
*Model_Space
  1

  0
ENDBLK
  5
21
100
AcDbEntity
  8
0
100
AcDbBlockEnd
  0
BLOCK
  5
1C
100
AcDbEntity
 67
1
  8
0
100
AcDbBlockBegin
  2
*Paper_Space
 70
0
 10
0.0
 20
0.0
 30
0.0
  3
*Paper_Space
  1

  0
ENDBLK
  5
1D
100
AcDbEntity
 67
1
  8
0
100
AcDbBlockEnd
  0
BLOCK
  5
24
100
AcDbEntity
  8
0
100
AcDbBlockBegin
  2
*Paper_Space0
 70
0
 10
0.0
 20
0.0
 30
0.0
  3
*Paper_Space0
  1

  0
ENDBLK
  5
25
100
AcDbEntity
  8
0
100
AcDbBlockEnd
  0
ENDSEC
  0
SECTION
  2
ENTITIES
  0
LINE
  5
45
100
AcDbEntity
100
AcDbLine
  8
first
 62
2
420
16776960
370
-1
  6
ByLayer
 10
3.9999999999999432
 20
140.9999999999999147
 30
0.0
 11
73.9999999999999147
 21
141.0000000000000568
 31
0.0
  0
LINE
  5
46
100
AcDbEntity
100
AcDbLine
  8
first
 62
2
420
16776960
370
-1
  6
ByLayer
 10
73.9999999999999289
 20
194.8700576850889377
 30
0.0
 11
3.9999999999999432
 21
194.8700576850889377
 31
0.0
  0
LWPOLYLINE
  5
47
  8
0
 62
3
420
65280
370
-1
  6
ByLayer
100
AcDbEntity
100
AcDbPolyline
 90
209
 70
0
 10
3.9999999999998579
 20
102.9999999999999858
 10
3.9999999999997442
 20
43.0000000000000853
 10
-0.0000000000001137
 20
43.0000000000000284
 10
-0.0000000000001421
 20
38.0000000000001137
 10
3.9999999999998579
 20
38.0000000000001279
 10
3.9999999999999432
 20
34.4999999999999858
 10
10.9999999999998579
 20
34.5000000000000568
 10
10.9999999999999147
 20
36.0
 10
12.999999999999801
 20
36.0000000000001137
 10
12.9999999999998295
 20
34.5000000000001421
 10
14.9999999999998579
 20
34.5000000000000568
 10
14.9999999999998295
 20
31.5000000000001137
 10
12.9999999999998295
 20
31.5000000000001421
 10
12.9999999999998295
 20
30.0000000000000711
 10
10.9999999999998579
 20
30.0000000000000853
 10
10.9999999999998579
 20
31.5000000000000853
 10
3.9999999999999716
 20
31.5000000000000142
 10
3.9999999999998295
 20
28.0000000000000853
 10
-0.0000000000001705
 20
28.0000000000001563
 10
-0.0000000000001421
 20
23.0000000000001279
 10
3.9999999999998295
 20
23.0000000000000568
 10
4.0
 20
0.0
 10
74.0000000000000284
 20
0.0000000000000568
 10
74.0000000000000142
 20
23.0000000000000711
 10
77.9999999999999432
 20
23.0000000000001279
 10
77.9999999999999574
 20
28.0000000000000853
 10
73.9999999999999574
 20
28.0000000000000853
 10
74.0
 20
31.5000000000000853
 10
66.9999999999999858
 20
31.5000000000000711
 10
66.9999999999999289
 20
30.0000000000001563
 10
65.0000000000000711
 20
30.0000000000000426
 10
65.0000000000000284
 20
31.5000000000000995
 10
62.9999999999999574
 20
31.5000000000000995
 10
62.9999999999999716
 20
34.5000000000000711
 10
64.9999999999999858
 20
34.5000000000000853
 10
64.9999999999999858
 20
36.0000000000000568
 10
67.0
 20
36.0000000000000711
 10
66.9999999999999432
 20
34.5000000000000995
 10
73.9999999999999716
 20
34.5000000000000995
 10
73.9999999999999574
 20
38.0000000000001279
 10
77.9999999999999432
 20
38.0000000000001137
 10
77.9999999999999005
 20
43.0000000000001137
 10
73.9999999999999289
 20
43.0000000000001137
 10
73.9999999999998863
 20
103.0000000000001563
 10
77.9999999999999147
 20
103.0000000000001279
 10
77.9999999999999289
 20
108.0000000000000711
 10
73.9999999999999147
 20
108.0000000000001137
 10
73.9999999999999574
 20
111.4999999999999716
 10
66.9999999999999432
 20
111.5000000000001137
 10
66.9999999999999289
 20
110.0000000000000568
 10
64.9999999999999574
 20
110.0000000000001137
 10
64.9999999999999574
 20
111.5000000000000568
 10
62.9999999999999574
 20
111.5000000000001137
 10
62.9999999999999432
 20
114.5000000000000568
 10
64.9999999999999574
 20
114.5000000000001421
 10
64.9999999999999574
 20
116.0000000000000853
 10
66.9999999999999005
 20
116.0000000000001137
 10
66.9999999999999289
 20
114.5000000000000568
 10
73.9999999999999574
 20
114.5
 10
73.9999999999999432
 20
118.0000000000000568
 10
77.9999999999999147
 20
118.0000000000001705
 10
77.9999999999999005
 20
123.0000000000000853
 10
73.9999999999998863
 20
123.0000000000001421
 10
73.9999999999999147
 20
141.0000000000000568
 10
73.9999999999999147
 20
156.8700576850889377
 10
77.9999999999999147
 20
156.8700576850888524
 10
77.9999999999999147
 20
161.8700576850888808
 10
73.9999999999999147
 20
161.8700576850889377
 10
73.9999999999999147
 20
165.3700576850888808
 10
66.9999999999999147
 20
165.3700576850888808
 10
66.9999999999999147
 20
163.8700576850888808
 10
64.9999999999999432
 20
163.8700576850889092
 10
64.9999999999999432
 20
165.3700576850888808
 10
62.9999999999999432
 20
165.3700576850889377
 10
62.9999999999999432
 20
168.3700576850889092
 10
64.9999999999999432
 20
168.3700576850889661
 10
64.9999999999999574
 20
169.8700576850889661
 10
66.9999999999999147
 20
169.8700576850889661
 10
66.9999999999999289
 20
168.3700576850889377
 10
73.9999999999999147
 20
168.3700576850888808
 10
73.9999999999999147
 20
171.8700576850889661
 10
77.9999999999999147
 20
171.8700576850889377
 10
77.9999999999999289
 20
176.8700576850889377
 10
73.9999999999998863
 20
176.8700576850888808
 10
73.9999999999999289
 20
194.8700576850889377
 10
73.9999999999999005
 20
209.8700576850889092
 10
77.9999999999999147
 20
209.8700576850889377
 10
77.9999999999999005
 20
214.8700576850888808
 10
73.9999999999999005
 20
214.8700576850888808
 10
73.9999999999998721
 20
218.3700576850889377
 10
66.9999999999998863
 20
218.3700576850889377
 10
66.9999999999999147
 20
216.8700576850889377
 10
64.9999999999999574
 20
216.8700576850889377
 10
64.9999999999999005
 20
218.3700576850888808
 10
62.9999999999999432
 20
218.3700576850889377
 10
62.9999999999999005
 20
221.3700576850889377
 10
64.9999999999999432
 20
221.3700576850889377
 10
64.9999999999999432
 20
222.8700576850889377
 10
66.9999999999999005
 20
222.8700576850889377
 10
66.9999999999998721
 20
221.3700576850889377
 10
73.9999999999998863
 20
221.3700576850889377
 10
73.9999999999998721
 20
224.8700576850889092
 10
77.9999999999998579
 20
224.8700576850888808
 10
77.9999999999998579
 20
229.8700576850888808
 10
73.9999999999999147
 20
229.8700576850889377
 10
74.0000000000000142
 20
249.8700576850889377
 10
77.9999999999998295
 20
249.8700576850889377
 10
77.9999999999998863
 20
254.8700576850889377
 10
73.9999999999998579
 20
254.8700576850888808
 10
73.9999999999998579
 20
258.3700576850889092
 10
66.9999999999998579
 20
258.3700576850890229
 10
66.9999999999999574
 20
256.8700576850890229
 10
64.9999999999999574
 20
256.8700576850889092
 10
64.9999999999999289
 20
258.3700576850889092
 10
62.9999999999999147
 20
258.3700576850889092
 10
62.9999999999998721
 20
261.3700576850890229
 10
64.9999999999999574
 20
261.3700576850890229
 10
64.9999999999999147
 20
262.8700576850889092
 10
66.9999999999998579
 20
262.8700576850889092
 10
66.9999999999998579
 20
261.3700576850889092
 10
73.9999999999999574
 20
261.3700576850889092
 10
73.9999999999998579
 20
264.8700576850889092
 10
77.9999999999999005
 20
264.8700576850890229
 10
77.9999999999998721
 20
269.8700576850890229
 10
73.9999999999999716
 20
269.8700576850890229
 10
73.9999999999998437
 20
284.8700576850890229
 10
3.9999999999998295
 20
284.8700576850887956
 10
3.9999999999998295
 20
269.8700576850887956
 10
-0.0000000000000284
 20
269.8700576850890229
 10
-0.0000000000000568
 20
264.8700576850889092
 10
3.9999999999998579
 20
264.8700576850889092
 10
3.9999999999999716
 20
261.3700576850889092
 10
10.9999999999999147
 20
261.3700576850890229
 10
10.9999999999998863
 20
262.8700576850889092
 10
12.9999999999998579
 20
262.8700576850889092
 10
12.9999999999998579
 20
261.3700576850887956
 10
14.9999999999999716
 20
261.3700576850889092
 10
14.9999999999998579
 20
258.3700576850889092
 10
12.9999999999999147
 20
258.3700576850890229
 10
12.9999999999999147
 20
256.8700576850890229
 10
10.9999999999999432
 20
256.8700576850889092
 10
10.9999999999998579
 20
258.3700576850889092
 10
3.9999999999999716
 20
258.3700576850889092
 10
3.9999999999999716
 20
254.8700576850889377
 10
-0.0000000000000284
 20
254.8700576850889945
 10
-0.0000000000000568
 20
249.8700576850888808
 10
3.9999999999999716
 20
249.8700576850889377
 10
3.9999999999999716
 20
229.8700576850889945
 10
-0.000000000000199
 20
229.8700576850888808
 10
-0.0000000000000568
 20
224.8700576850889377
 10
3.9999999999998579
 20
224.8700576850889092
 10
3.9999999999998579
 20
221.3700576850888524
 10
10.9999999999998863
 20
221.3700576850889377
 10
10.9999999999999432
 20
222.8700576850889661
 10
12.9999999999999432
 20
222.8700576850890513
 10
12.9999999999998863
 20
221.3700576850888808
 10
14.9999999999998579
 20
221.3700576850888808
 10
14.9999999999999432
 20
218.3700576850889661
 10
12.9999999999999432
 20
218.3700576850889661
 10
12.9999999999999432
 20
216.8700576850888808
 10
10.9999999999999716
 20
216.8700576850889945
 10
10.9999999999998863
 20
218.3700576850889945
 10
3.9999999999999147
 20
218.3700576850888808
 10
3.9999999999998579
 20
214.8700576850889661
 10
-0.0000000000000568
 20
214.8700576850888808
 10
-0.0000000000000568
 20
209.8700576850889661
 10
3.9999999999999432
 20
209.8700576850888524
 10
3.9999999999999432
 20
194.8700576850889377
 10
3.9999999999999432
 20
176.8700576850889377
 10
-0.0000000000000568
 20
176.8700576850887956
 10
-0.0000000000000568
 20
171.8700576850887103
 10
3.9999999999999716
 20
171.8700576850889092
 10
3.9999999999999432
 20
168.3700576850888524
 10
10.9999999999998863
 20
168.3700576850889377
 10
10.9999999999999432
 20
169.8700576850888808
 10
12.9999999999998863
 20
169.8700576850889377
 10
12.9999999999998863
 20
168.3700576850890513
 10
14.9999999999999432
 20
168.3700576850889945
 10
14.9999999999999432
 20
165.3700576850889092
 10
12.9999999999999432
 20
165.3700576850888808
 10
12.9999999999999432
 20
163.8700576850891366
 10
10.9999999999999432
 20
163.8700576850887956
 10
10.9999999999998863
 20
165.3700576850888524
 10
3.9999999999999432
 20
165.3700576850889661
 10
3.9999999999999432
 20
161.8700576850889377
 10
-0.0000000000000568
 20
161.8700576850889945
 10
-0.0000000000000568
 20
156.8700576850885398
 10
3.9999999999999432
 20
156.8700576850887671
 10
3.9999999999999432
 20
140.9999999999999147
 10
3.9999999999998579
 20
123.0000000000000853
 10
-0.0000000000001705
 20
123.0000000000000568
 10
-0.0000000000001421
 20
117.9999999999999716
 10
3.9999999999998295
 20
118.0000000000000568
 10
3.9999999999998295
 20
114.5
 10
10.9999999999998295
 20
114.5000000000001421
 10
10.9999999999998295
 20
116.000000000000199
 10
12.9999999999998579
 20
116.0000000000000284
 10
12.9999999999998295
 20
114.5000000000001421
 10
14.9999999999998295
 20
114.5000000000001421
 10
14.9999999999998579
 20
111.5000000000001137
 10
12.9999999999998295
 20
111.5000000000002274
 10
12.9999999999998863
 20
109.9999999999998863
 10
10.9999999999999432
 20
109.9999999999999716
 10
10.9999999999998295
 20
111.5
 10
3.9999999999998295
 20
111.5000000000000284
 10
3.9999999999998295
 20
107.9999999999999716
 10
-0.0000000000001705
 20
108.0000000000000711
 10
-0.0000000000001137
 20
102.9999999999999147
 10
3.9999999999998579
 20
102.9999999999999858
  0
CIRCLE
  5
48
100
AcDbEntity
100
AcDbCircle
  8
holes
 62
5
420
255
370
-1
  6
ByLayer
 10
115.0000000000001705
 20
168.9999999999999432
 30
0.0
 40
1.5
  0
LWPOLYLINE
  5
49
  8
0
 62
3
420
65280
370
-1
  6
ByLayer
100
AcDbEntity
100
AcDbPolyline
 90
6
 70
0
 10
90.0000000000000568
 20
149.9999999999999432
 10
90.0
 20
0.0
 10
180.0
 20
-0.0000000000000568
 10
180.0000000000002274
 20
149.9999999999999432
 10
130.0000000000001705
 20
189.9999999999999432
 10
90.0000000000000568
 20
149.9999999999999432
  0
LWPOLYLINE
  5
4A
  8
holes
 62
5
420
255
370
-1
  6
ByLayer
100
AcDbEntity
100
AcDbPolyline
 90
5
 70
0
 10
93.5000000000000284
 20
30.0
 10
93.5000000000000426
 20
25.0
 10
96.5000000000000711
 20
25.0
 10
96.5000000000000711
 20
30.0
 10
93.5000000000000284
 20
30.0
  0
LWPOLYLINE
  5
4B
  8
holes
 62
5
420
255
370
-1
  6
ByLayer
100
AcDbEntity
100
AcDbPolyline
 90
5
 70
0
 10
96.5000000000000853
 20
45.0
 10
93.5000000000000284
 20
45.0
 10
93.5000000000000284
 20
40.0
 10
96.5000000000000853
 20
40.0
 10
96.5000000000000853
 20
45.0
  0
CIRCLE
  5
4C
100
AcDbEntity
100
AcDbCircle
  8
holes
 62
5
420
255
370
-1
  6
ByLayer
 10
95.0000000000000568
 20
35.0000000000000426
 30
0.0
 40
1.5
  0
LWPOLYLINE
  5
4D
  8
holes
 62
5
420
255
370
-1
  6
ByLayer
100
AcDbEntity
100
AcDbPolyline
 90
5
 70
0
 10
93.5000000000000284
 20
109.9999999999999716
 10
93.5000000000000426
 20
104.9999999999999716
 10
96.5000000000000711
 20
104.9999999999999716
 10
96.5000000000000711
 20
109.9999999999999716
 10
93.5000000000000284
 20
109.9999999999999716
  0
LWPOLYLINE
  5
4E
  8
holes
 62
5
420
255
370
-1
  6
ByLayer
100
AcDbEntity
100
AcDbPolyline
 90
5
 70
0
 10
96.5000000000000853
 20
124.9999999999999716
 10
93.5000000000000284
 20
124.9999999999999716
 10
93.5000000000000284
 20
119.9999999999999716
 10
96.5000000000000853
 20
119.9999999999999716
 10
96.5000000000000853
 20
124.9999999999999716
  0
CIRCLE
  5
4F
100
AcDbEntity
100
AcDbCircle
  8
holes
 62
5
420
255
370
-1
  6
ByLayer
 10
95.0000000000000568
 20
115.0000000000000142
 30
0.0
 40
1.5
  0
LWPOLYLINE
  5
50
  8
holes
 62
5
420
255
370
-1
  6
ByLayer
100
AcDbEntity
100
AcDbPolyline
 90
5
 70
0
 10
110.0
 20
6.5000000000000284
 10
105.0
 20
6.5000000000000231
 10
105.0
 20
3.499999999999984
 10
110.0
 20
3.4999999999999876
 10
110.0
 20
6.5000000000000284
  0
LWPOLYLINE
  5
51
  8
holes
 62
5
420
255
370
-1
  6
ByLayer
100
AcDbEntity
100
AcDbPolyline
 90
5
 70
0
 10
125.0
 20
3.4999999999999716
 10
125.0
 20
6.500000000000024
 10
120.0
 20
6.5000000000000284
 10
120.0
 20
3.4999999999999716
 10
125.0
 20
3.4999999999999716
  0
CIRCLE
  5
52
100
AcDbEntity
100
AcDbCircle
  8
holes
 62
5
420
255
370
-1
  6
ByLayer
 10
115.0000000000000426
 20
5.0
 30
0.0
 40
1.5
  0
LWPOLYLINE
  5
53
  8
holes
 62
5
420
255
370
-1
  6
ByLayer
100
AcDbEntity
100
AcDbPolyline
 90
5
 70
0
 10
150.0
 20
6.5000000000000284
 10
145.0
 20
6.5000000000000231
 10
145.0
 20
3.499999999999984
 10
150.0
 20
3.4999999999999876
 10
150.0
 20
6.5000000000000284
  0
LWPOLYLINE
  5
54
  8
holes
 62
5
420
255
370
-1
  6
ByLayer
100
AcDbEntity
100
AcDbPolyline
 90
5
 70
0
 10
165.0
 20
3.4999999999999716
 10
165.0
 20
6.500000000000024
 10
160.0
 20
6.5000000000000284
 10
160.0
 20
3.4999999999999716
 10
165.0
 20
3.4999999999999716
  0
CIRCLE
  5
55
100
AcDbEntity
100
AcDbCircle
  8
holes
 62
5
420
255
370
-1
  6
ByLayer
 10
155.0000000000000284
 20
5.0
 30
0.0
 40
1.5
  0
LWPOLYLINE
  5
56
  8
holes
 62
5
420
255
370
-1
  6
ByLayer
100
AcDbEntity
100
AcDbPolyline
 90
5
 70
0
 10
110.4038059222875887
 20
166.5251262658470353
 10
106.8682720163548652
 20
162.9895923599142975
 10
108.9895923599145249
 20
160.8682720163546378
 10
112.5251262658472626
 20
164.4038059222873756
 10
110.4038059222875887
 20
166.5251262658470353
  0
LWPOLYLINE
  5
57
  8
holes
 62
5
420
255
370
-1
  6
ByLayer
100
AcDbEntity
100
AcDbPolyline
 90
5
 70
0
 10
123.1317279836454901
 20
175.0104076400855888
 10
121.010407640085802
 20
177.1317279836452485
 10
117.4748737341530642
 20
173.5961940777125108
 10
119.5961940777127523
 20
171.4748737341528511
 10
123.1317279836454901
 20
175.0104076400855888
  0
CIRCLE
  5
58
100
AcDbEntity
100
AcDbCircle
  8
holes
 62
5
420
255
370
-1
  6
ByLayer
 10
225.0000000000001421
 20
168.9999999999999432
 30
0.0
 40
1.5
  0
LWPOLYLINE
  5
59
  8
0
 62
3
420
65280
370
-1
  6
ByLayer
100
AcDbEntity
100
AcDbPolyline
 90
6
 70
0
 10
200.0000000000000284
 20
149.9999999999999432
 10
200.0
 20
0.0
 10
289.9999999999998863
 20
-0.0000000000000568
 10
290.0000000000002274
 20
149.9999999999999432
 10
240.0000000000001421
 20
189.9999999999999432
 10
200.0000000000000284
 20
149.9999999999999432
  0
LWPOLYLINE
  5
5A
  8
holes
 62
5
420
255
370
-1
  6
ByLayer
100
AcDbEntity
100
AcDbPolyline
 90
5
 70
0
 10
203.4999999999999716
 20
30.0000000000000284
 10
203.5000000000000284
 20
25.0000000000000142
 10
206.4999999999999716
 20
25.0000000000000426
 10
206.5
 20
30.0000000000000568
 10
203.4999999999999716
 20
30.0000000000000284
  0
LWPOLYLINE
  5
5B
  8
holes
 62
5
420
255
370
-1
  6
ByLayer
100
AcDbEntity
100
AcDbPolyline
 90
5
 70
0
 10
206.5000000000000284
 20
45.0000000000000142
 10
203.4999999999999716
 20
45.0000000000000142
 10
203.4999999999999716
 20
40.0000000000000426
 10
206.5000000000000284
 20
40.0000000000000426
 10
206.5000000000000284
 20
45.0000000000000142
  0
CIRCLE
  5
5C
100
AcDbEntity
100
AcDbCircle
  8
holes
 62
5
420
255
370
-1
  6
ByLayer
 10
205.0000000000000284
 20
35.0000000000000497
 30
0.0
 40
1.5
  0
LWPOLYLINE
  5
5D
  8
holes
 62
5
420
255
370
-1
  6
ByLayer
100
AcDbEntity
100
AcDbPolyline
 90
5
 70
0
 10
203.5
 20
109.9999999999999858
 10
203.5000000000000284
 20
105.0000000000000142
 10
206.5000000000000284
 20
104.9999999999999858
 10
206.5000000000000284
 20
109.9999999999999858
 10
203.5
 20
109.9999999999999858
  0
LWPOLYLINE
  5
5E
  8
holes
 62
5
420
255
370
-1
  6
ByLayer
100
AcDbEntity
100
AcDbPolyline
 90
5
 70
0
 10
206.5000000000000568
 20
124.9999999999999858
 10
203.5
 20
124.9999999999999858
 10
203.5
 20
119.9999999999999858
 10
206.5000000000000568
 20
119.9999999999999858
 10
206.5000000000000568
 20
124.9999999999999858
  0
CIRCLE
  5
5F
100
AcDbEntity
100
AcDbCircle
  8
holes
 62
5
420
255
370
-1
  6
ByLayer
 10
205.0000000000000284
 20
115.0000000000000142
 30
0.0
 40
1.5
  0
LWPOLYLINE
  5
60
  8
holes
 62
5
420
255
370
-1
  6
ByLayer
100
AcDbEntity
100
AcDbPolyline
 90
5
 70
0
 10
219.9999999999999147
 20
6.5000000000000568
 10
215.0
 20
6.5000000000000284
 10
214.9999999999999147
 20
3.5000000000000142
 10
219.9999999999998863
 20
3.5000000000000284
 10
219.9999999999999147
 20
6.5000000000000568
  0
LWPOLYLINE
  5
61
  8
holes
 62
5
420
255
370
-1
  6
ByLayer
100
AcDbEntity
100
AcDbPolyline
 90
5
 70
0
 10
234.9999999999999432
 20
3.4999999999999858
 10
234.9999999999999432
 20
6.5000000000000568
 10
229.9999999999999147
 20
6.5000000000000426
 10
229.9999999999999147
 20
3.5
 10
234.9999999999999432
 20
3.4999999999999858
  0
CIRCLE
  5
62
100
AcDbEntity
100
AcDbCircle
  8
holes
 62
5
420
255
370
-1
  6
ByLayer
 10
225.0
 20
5.0000000000000142
 30
0.0
 40
1.5
  0
LWPOLYLINE
  5
63
  8
holes
 62
5
420
255
370
-1
  6
ByLayer
100
AcDbEntity
100
AcDbPolyline
 90
5
 70
0
 10
260.0
 20
6.5000000000000426
 10
254.9999999999999716
 20
6.5000000000000426
 10
254.9999999999999716
 20
3.5
 10
260.0
 20
3.4999999999999858
 10
260.0
 20
6.5000000000000426
  0
LWPOLYLINE
  5
64
  8
holes
 62
5
420
255
370
-1
  6
ByLayer
100
AcDbEntity
100
AcDbPolyline
 90
5
 70
0
 10
275.0
 20
3.4999999999999858
 10
275.0
 20
6.5000000000000426
 10
270.0
 20
6.5000000000000426
 10
269.9999999999998863
 20
3.4999999999999716
 10
275.0
 20
3.4999999999999858
  0
CIRCLE
  5
65
100
AcDbEntity
100
AcDbCircle
  8
holes
 62
5
420
255
370
-1
  6
ByLayer
 10
265.0
 20
5.0
 30
0.0
 40
1.5
  0
LWPOLYLINE
  5
66
  8
holes
 62
5
420
255
370
-1
  6
ByLayer
100
AcDbEntity
100
AcDbPolyline
 90
5
 70
0
 10
220.4038059222875745
 20
166.5251262658470637
 10
216.8682720163548368
 20
162.9895923599142975
 10
218.9895923599144965
 20
160.8682720163546378
 10
222.5251262658472342
 20
164.403805922287404
 10
220.4038059222875745
 20
166.5251262658470637
  0
LWPOLYLINE
  5
67
  8
holes
 62
5
420
255
370
-1
  6
ByLayer
100
AcDbEntity
100
AcDbPolyline
 90
5
 70
0
 10
233.1317279836454759
 20
175.0104076400855888
 10
231.0104076400857593
 20
177.1317279836452485
 10
227.47487373415305
 20
173.5961940777125392
 10
229.5961940777127097
 20
171.4748737341528795
 10
233.1317279836454759
 20
175.0104076400855888
  0
ENDSEC
  0
SECTION
  2
OBJECTS
  0
DICTIONARY
  5
C
100
AcDbDictionary
280
0
281
1
  3
ACAD_GROUP
350
D
  3
ACAD_LAYOUT
350
1A
  3
ACAD_MLINESTYLE
350
17
  3
ACAD_PLOTSETTINGS
350
19
  3
ACAD_PLOTSTYLENAME
350
E
  3
AcDbVariableDictionary
350
68
  0
DICTIONARY
  5
D
100
AcDbDictionary
280
0
281
1
  0
ACDBDICTIONARYWDFLT
  5
E
100
AcDbDictionary
281
1
  3
Normal
350
F
100
AcDbDictionaryWithDefault
340
F
  0
ACDBPLACEHOLDER
  5
F
  0
DICTIONARY
  5
17
100
AcDbDictionary
280
0
281
1
  3
Standard
350
18
  0
MLINESTYLE
  5
18
100
AcDbMlineStyle
  2
STANDARD
 70
0
  3

 62
256
 51
90.0
 52
90.0
 71
2
 49
0.5
 62
256
  6
BYLAYER
 49
-0.5
 62
256
  6
BYLAYER
  0
DICTIONARY
  5
19
100
AcDbDictionary
280
0
281
1
  0
DICTIONARY
  5
1A
100
AcDbDictionary
281
1
  3
Layout1
350
1E
  3
Layout2
350
26
  3
Model
350
22
  0
LAYOUT
  5
1E
100
AcDbPlotSettings
  1

  2
C:\Program Files\AutoCAD 2002\plotters\DWF ePlot (optimized for plotting).pc3
  4

  6

 40
0.0
 41
0.0
 42
0.0
 43
0.0
 44
0.0
 45
0.0
 46
0.0
 47
0.0
 48
0.0
 49
0.0
140
0.0
141
0.0
142
1.0
143
1.0
 70
688
 72
0
 73
0
 74
5
  7

 75
16
147
1.0
148
0.0
149
0.0
100
AcDbLayout
  1
Layout1
 70
1
 71
1
 10
0.0
 20
0.0
 11
420.0
 21
297.0
 12
0.0
 22
0.0
 32
0.0
 14
100000000000000000000.0
 24
100000000000000000000.0
 34
100000000000000000000.0
 15
-100000000000000000000.0
 25
-100000000000000000000.0
 35
-100000000000000000000.0
146
0.0
 13
0.0
 23
0.0
 33
0.0
 16
1.0
 26
0.0
 36
0.0
 17
0.0
 27
1.0
 37
0.0
 76
0
330
1B
  0
LAYOUT
  5
22
100
AcDbPlotSettings
  1

  2
C:\Program Files\AutoCAD 2002\plotters\DWF ePlot (optimized for plotting).pc3
  4

  6

 40
0.0
 41
0.0
 42
0.0
 43
0.0
 44
0.0
 45
0.0
 46
0.0
 47
0.0
 48
0.0
 49
0.0
140
0.0
141
0.0
142
1.0
143
1.0
 70
1712
 72
0
 73
0
 74
0
  7

 75
0
147
1.0
148
0.0
149
0.0
100
AcDbLayout
  1
Model
 70
1
 71
0
 10
0.0
 20
0.0
 11
12.0
 21
9.0
 12
0.0
 22
0.0
 32
0.0
 14
0.0
 24
0.0
 34
0.0
 15
0.0
 25
0.0
 35
0.0
146
0.0
 13
0.0
 23
0.0
 33
0.0
 16
1.0
 26
0.0
 36
0.0
 17
0.0
 27
1.0
 37
0.0
 76
0
330
1F
  0
LAYOUT
  5
26
100
AcDbPlotSettings
  1

  2
C:\Program Files\AutoCAD 2002\plotters\DWF ePlot (optimized for plotting).pc3
  4

  6

 40
0.0
 41
0.0
 42
0.0
 43
0.0
 44
0.0
 45
0.0
 46
0.0
 47
0.0
 48
0.0
 49
0.0
140
0.0
141
0.0
142
1.0
143
1.0
 70
688
 72
0
 73
0
 74
5
  7

 75
16
147
1.0
148
0.0
149
0.0
100
AcDbLayout
  1
Layout2
 70
1
 71
2
 10
0.0
 20
0.0
 11
12.0
 21
9.0
 12
0.0
 22
0.0
 32
0.0
 14
0.0
 24
0.0
 34
0.0
 15
0.0
 25
0.0
 35
0.0
146
0.0
 13
0.0
 23
0.0
 33
0.0
 16
1.0
 26
0.0
 36
0.0
 17
0.0
 27
1.0
 37
0.0
 76
0
330
23
  0
DICTIONARY
  5
68
100
AcDbDictionary
281
1
  3
DIMASSOC
350
6A
  3
HIDETEXT
350
69
  0
DICTIONARYVAR
  5
69
100
DictionaryVariables
280
0
  1
2
  0
DICTIONARYVAR
  5
6A
100
DictionaryVariables
280
0
  1
1
  0
ENDSEC
  0
EOF
