  0
SECTION
  2
HEADER
  9
$ACADVER
  1
AC1012
  9
$DWGCODEPAGE
  3
ascii
  9
$INSBASE
 10
0.0
 20
0.0
 30
0.0
  9
$EXTMIN
 10
1.000000000000000E+20
 20
1.000000000000000E+20
 30
1.000000000000000E+20
  9
$EXTMAX
 10
-1.000000000000000E+20
 20
-1.000000000000000E+20
 30
-1.000000000000000E+20
  9
$LIMMIN
 10
0.0
 20
0.0
  9
$LIMMAX
 10
12.0
 20
9.0
  9
$ORTHOMODE
 70
     0
  9
$REGENMODE
 70
     1
  9
$FILLMODE
 70
     1
  9
$QTEXTMODE
 70
     0
  9
$MIRRTEXT
 70
     1
  9
$DRAGMODE
 70
     2
  9
$LTSCALE
 40
1.0
  9
$OSMODE
 70
    37
  9
$ATTMODE
 70
     1
  9
$TEXTSIZE
 40
0.2
  9
$TRACEWID
 40
0.05
  9
$TEXTSTYLE
  7
STANDARD
  9
$CLAYER
  8
0
  9
$CELTYPE
  6
BYLAYER
  9
$CECOLOR
 62
   256
  9
$CELTSCALE
 40
1.0
  9
$DELOBJ
 70
     1
  9
$DISPSILH
 70
     0
  9
$DIMSCALE
 40
1.0
  9
$DIMASZ
 40
0.18
  9
$DIMEXO
 40
0.0625
  9
$DIMDLI
 40
0.38
  9
$DIMRND
 40
0.0
  9
$DIMDLE
 40
0.0
  9
$DIMEXE
 40
0.18
  9
$DIMTP
 40
0.0
  9
$DIMTM
 40
0.0
  9
$DIMTXT
 40
0.18
  9
$DIMCEN
 40
0.09
  9
$DIMTSZ
 40
0.0
  9
$DIMTOL
 70
     0
  9
$DIMLIM
 70
     0
  9
$DIMTIH
 70
     1
  9
$DIMTOH
 70
     1
  9
$DIMSE1
 70
     0
  9
$DIMSE2
 70
     0
  9
$DIMTAD
 70
     0
  9
$DIMZIN
 70
     0
  9
$DIMBLK
  1

  9
$DIMASO
 70
     1
  9
$DIMSHO
 70
     1
  9
$DIMPOST
  1

  9
$DIMAPOST
  1

  9
$DIMALT
 70
     0
  9
$DIMALTD
 70
     2
  9
$DIMALTF
 40
25.4
  9
$DIMLFAC
 40
1.0
  9
$DIMTOFL
 70
     0
  9
$DIMTVP
 40
0.0
  9
$DIMTIX
 70
     0
  9
$DIMSOXD
 70
     0
  9
$DIMSAH
 70
     0
  9
$DIMBLK1
  1

  9
$DIMBLK2
  1

  9
$DIMSTYLE
  2
STANDARD
  9
$DIMCLRD
 70
     0
  9
$DIMCLRE
 70
     0
  9
$DIMCLRT
 70
     0
  9
$DIMTFAC
 40
1.0
  9
$DIMGAP
 40
0.09
  9
$DIMJUST
 70
     0
  9
$DIMSD1
 70
     0
  9
$DIMSD2
 70
     0
  9
$DIMTOLJ
 70
     1
  9
$DIMTZIN
 70
     0
  9
$DIMALTZ
 70
     0
  9
$DIMALTTZ
 70
     0
  9
$DIMFIT
 70
     3
  9
$DIMUPT
 70
     0
  9
$DIMUNIT
 70
     2
  9
$DIMDEC
 70
     4
  9
$DIMTDEC
 70
     4
  9
$DIMALTU
 70
     2
  9
$DIMALTTD
 70
     2
  9
$DIMTXSTY
  7
STANDARD
  9
$DIMAUNIT
 70
     0
  9
$LUNITS
 70
     2
  9
$LUPREC
 70
     4
  9
$SKETCHINC
 40
0.1
  9
$FILLETRAD
 40
0.5
  9
$AUNITS
 70
     0
  9
$AUPREC
 70
     0
  9
$MENU
  1
.
  9
$ELEVATION
 40
0.0
  9
$PELEVATION
 40
0.0
  9
$THICKNESS
 40
0.0
  9
$LIMCHECK
 70
     0
  9
$CHAMFERA
 40
0.5
  9
$CHAMFERB
 40
0.5
  9
$CHAMFERC
 40
1.0
  9
$CHAMFERD
 40
0.0
  9
$SKPOLY
 70
     0
  9
$TDCREATE
 40
2455163.113180741
  9
$TDUPDATE
 40
2455163.113180752
  9
$TDINDWG
 40
0.0000000116
  9
$TDUSRTIMER
 40
0.0000000116
  9
$USRTIMER
 70
     1
  9
$ANGBASE
 50
0.0
  9
$ANGDIR
 70
     0
  9
$PDMODE
 70
     0
  9
$PDSIZE
 40
0.0
  9
$PLINEWID
 40
0.0
  9
$COORDS
 70
     1
  9
$SPLFRAME
 70
     0
  9
$SPLINETYPE
 70
     6
  9
$SPLINESEGS
 70
     8
  9
$ATTDIA
 70
     0
  9
$ATTREQ
 70
     1
  9
$HANDLING
 70
     1
  9
$HANDSEED
  5
148
  9
$SURFTAB1
 70
     6
  9
$SURFTAB2
 70
     6
  9
$SURFTYPE
 70
     6
  9
$SURFU
 70
     6
  9
$SURFV
 70
     6
  9
$UCSNAME
  2

  9
$UCSORG
 10
0.0
 20
0.0
 30
0.0
  9
$UCSXDIR
 10
1.0
 20
0.0
 30
0.0
  9
$UCSYDIR
 10
0.0
 20
1.0
 30
0.0
  9
$PUCSNAME
  2

  9
$PUCSORG
 10
0.0
 20
0.0
 30
0.0
  9
$PUCSXDIR
 10
1.0
 20
0.0
 30
0.0
  9
$PUCSYDIR
 10
0.0
 20
1.0
 30
0.0
  9
$USERI1
 70
     0
  9
$USERI2
 70
     0
  9
$USERI3
 70
     0
  9
$USERI4
 70
     0
  9
$USERI5
 70
     0
  9
$USERR1
 40
0.0
  9
$USERR2
 40
0.0
  9
$USERR3
 40
0.0
  9
$USERR4
 40
0.0
  9
$USERR5
 40
0.0
  9
$WORLDVIEW
 70
     1
  9
$SHADEDGE
 70
     3
  9
$SHADEDIF
 70
    70
  9
$TILEMODE
 70
     1
  9
$MAXACTVP
 70
    64
  9
$PINSBASE
 10
0.0
 20
0.0
 30
0.0
  9
$PLIMCHECK
 70
     0
  9
$PEXTMIN
 10
1.000000000000000E+20
 20
1.000000000000000E+20
 30
1.000000000000000E+20
  9
$PEXTMAX
 10
-1.000000000000000E+20
 20
-1.000000000000000E+20
 30
-1.000000000000000E+20
  9
$PLIMMIN
 10
0.0
 20
0.0
  9
$PLIMMAX
 10
12.0
 20
9.0
  9
$UNITMODE
 70
     0
  9
$VISRETAIN
 70
     1
  9
$PLINEGEN
 70
     0
  9
$PSLTSCALE
 70
     1
  9
$TREEDEPTH
 70
  3020
  9
$PICKSTYLE
 70
     1
  9
$CMLSTYLE
  2
STANDARD
  9
$CMLJUST
 70
     0
  9
$CMLSCALE
 40
1.0
  9
$SAVEIMAGES
 70
     1
  0
ENDSEC
  0
SECTION
  2
CLASSES
  0
CLASS
  1
ACDBDICTIONARYWDFLT
  2
AcDbDictionaryWithDefault
  3
ObjectDBX Classes
 90
    32768
280
     0
281
     0
  0
CLASS
  1
VISUALSTYLE
  2
AcDbVisualStyle
  3
ObjectDBX Classes
 90
     4095
280
     0
281
     0
  0
CLASS
  1
XRECORD
  2
AcDbXrecord
  3
AutoCAD 2000
 90
    32768
280
     0
281
     0
  0
CLASS
  1
LWPOLYLINE
  2
AcDbPolyline
  3
AutoCAD 2000
 90
    32768
280
     0
281
     1
  0
CLASS
  1
HATCH
  2
AcDbHatch
  3
AutoCAD 2000
 90
    32768
280
     0
281
     1
  0
CLASS
  1
ACDBPLACEHOLDER
  2
AcDbPlaceHolder
  3
ObjectDBX Classes
 90
        0
280
     0
281
     0
  0
CLASS
  1
LAYOUT
  2
AcDbLayout
  3
ObjectDBX Classes
 90
        0
280
     0
281
     0
  0
ENDSEC
  0
SECTION
  2
TABLES
  0
TABLE
  2
VPORT
  5
8
330
0
100
AcDbSymbolTable
 70
     1
  0
VPORT
  5
29
330
8
100
AcDbSymbolTableRecord
100
AcDbViewportTableRecord
  2
*ACTIVE
 70
     0
 10
0.0
 20
0.0
 11
1.0
 21
1.0
 12
0.0
 22
0.0
 13
0.0
 23
0.0
 14
0.5
 24
0.5
 15
0.5
 25
0.5
 16
0.0
 26
0.0
 36
1.0
 17
4.301431737379915
 27
5.651811724017648
 37
0.0
 40
8.761660237463586
 41
0.4504005128585707
 42
50.0
 43
0.0
 44
0.0
 50
0.0
 51
0.0
 71
     0
 72
   100
 73
     1
 74
     3
 75
     0
 76
     0
 77
     0
 78
     0
  0
ENDTAB
  0
TABLE
  2
LTYPE
  5
5
330
0
100
AcDbSymbolTable
 70
     1
  0
LTYPE
  5
14
330
5
100
AcDbSymbolTableRecord
100
AcDbLinetypeTableRecord
  2
BYBLOCK
 70
     0
  3

 72
    65
 73
     0
 40
0.0
  0
LTYPE
  5
15
330
5
100
AcDbSymbolTableRecord
100
AcDbLinetypeTableRecord
  2
BYLAYER
 70
     0
  3

 72
    65
 73
     0
 40
0.0
  0
LTYPE
  5
16
330
5
100
AcDbSymbolTableRecord
100
AcDbLinetypeTableRecord
  2
CONTINUOUS
 70
     0
  3
Solid line
 72
    65
 73
     0
 40
0.0
  0
ENDTAB
  0
TABLE
  2
LAYER
  5
2
330
0
100
AcDbSymbolTable
 70
     2
  0
LAYER
  5
10
330
2
100
AcDbSymbolTableRecord
100
AcDbLayerTableRecord
  2
0
 70
     0
 62
     7
  6
CONTINUOUS
  0
LAYER
  5
3B
330
2
100
AcDbSymbolTableRecord
100
AcDbLayerTableRecord
  2
LAYER_1
 70
     0
 62
     7
  6
CONTINUOUS
  0
ENDTAB
  0
TABLE
  2
STYLE
  5
3
330
0
100
AcDbSymbolTable
 70
     1
  0
STYLE
  5
11
330
3
100
AcDbSymbolTableRecord
100
AcDbTextStyleTableRecord
  2
STANDARD
 70
     0
 40
0.0
 41
1.0
 50
0.0
 71
     0
 42
0.2
  3
txt
  4

  0
ENDTAB
  0
TABLE
  2
VIEW
  5
6
330
0
100
AcDbSymbolTable
 70
     0
  0
ENDTAB
  0
TABLE
  2
UCS
  5
7
330
0
100
AcDbSymbolTable
 70
     0
  0
ENDTAB
  0
TABLE
  2
APPID
  5
9
330
0
100
AcDbSymbolTable
 70
     1
  0
APPID
  5
12
330
9
100
AcDbSymbolTableRecord
100
AcDbRegAppTableRecord
  2
ACAD
 70
     0
  0
ENDTAB
  0
TABLE
  2
DIMSTYLE
  5
A
330
0
100
AcDbSymbolTable
 70
     1
  0
DIMSTYLE
105
27
330
A
100
AcDbSymbolTableRecord
100
AcDbDimStyleTableRecord
  2
STANDARD
 70
     0
  3

  4

  5

  6

  7

 40
1.0
 41
0.18
 42
0.0625
 43
0.38
 44
0.18
 45
0.0
 46
0.0
 47
0.0
 48
0.0
140
0.18
141
0.09
142
0.0
143
25.4
144
1.0
145
0.0
146
1.0
147
0.09
 71
     0
 72
     0
 73
     1
 74
     1
 75
     0
 76
     0
 77
     0
 78
     0
170
     0
171
     2
172
     0
173
     0
174
     0
175
     0
176
     0
177
     0
178
     0
270
     2
271
     4
272
     4
273
     2
274
     2
340
11
275
     0
280
     0
281
     0
282
     0
283
     1
284
     0
285
     0
286
     0
287
     3
288
     0
  0
ENDTAB
  0
TABLE
  2
BLOCK_RECORD
  5
1
330
0
100
AcDbSymbolTable
 70
     4
  0
BLOCK_RECORD
  5
1F
330
1
100
AcDbSymbolTableRecord
100
AcDbBlockTableRecord
  2
*MODEL_SPACE
  0
BLOCK_RECORD
  5
1B
330
1
100
AcDbSymbolTableRecord
100
AcDbBlockTableRecord
  2
*PAPER_SPACE
  0
BLOCK_RECORD
  5
3C
330
1
100
AcDbSymbolTableRecord
100
AcDbBlockTableRecord
  2
BLOCK_2
  0
BLOCK_RECORD
  5
75
330
1
100
AcDbSymbolTableRecord
100
AcDbBlockTableRecord
  2
BLOCK_3
  0
BLOCK_RECORD
  5
DC
330
1
100
AcDbSymbolTableRecord
100
AcDbBlockTableRecord
  2
BLOCK_4
  0
ENDTAB
  0
ENDSEC
  0
SECTION
  2
BLOCKS
  0
BLOCK
  5
20
330
1F
100
AcDbEntity
  8
0
100
AcDbBlockBegin
  2
*MODEL_SPACE
 70
     0
 71
     0
 10
0.0
 20
0.0
 30
0.0
  3
*MODEL_SPACE
  1

  0
ENDBLK
  5
21
330
1F
100
AcDbEntity
  8
0
100
AcDbBlockEnd
  0
BLOCK
  5
1C
330
1B
100
AcDbEntity
 67
     1
  8
0
100
AcDbBlockBegin
  2
*PAPER_SPACE
 70
     0
 71
     0
 10
0.0
 20
0.0
 30
0.0
  3
*PAPER_SPACE
  1

  0
ENDBLK
  5
1D
330
1B
100
AcDbEntity
 67
     1
  8
0
100
AcDbBlockEnd
  0
BLOCK
  5
3E
330
3C
100
AcDbEntity
  8
0
100
AcDbBlockBegin
  2
BLOCK_2
 70
     0
 71
     0
 10
0.0
 20
0.0
 30
0.0
  3
BLOCK_2
  1

  0
SPLINE
  5
40
330
3C
100
AcDbEntity
  8
LAYER_1
 62
     7
100
AcDbSpline
210
0.0
220
0.0
230
1.0
 70
    11
 71
     3
 72
    74
 73
    70
 74
     0
 42
0.0000000001
 43
0.0000000001
 40
0.0
 40
0.0
 40
0.0
 40
0.0
 40
1.0
 40
1.0
 40
1.0
 40
2.0
 40
2.0
 40
2.0
 40
3.0
 40
3.0
 40
3.0
 40
4.0
 40
4.0
 40
4.0
 40
5.0
 40
5.0
 40
5.0
 40
6.0
 40
6.0
 40
6.0
 40
7.0
 40
7.0
 40
7.0
 40
8.0
 40
8.0
 40
8.0
 40
9.0
 40
9.0
 40
9.0
 40
10.0
 40
10.0
 40
10.0
 40
11.0
 40
11.0
 40
11.0
 40
12.0
 40
12.0
 40
12.0
 40
13.0
 40
13.0
 40
13.0
 40
14.0
 40
14.0
 40
14.0
 40
15.0
 40
15.0
 40
15.0
 40
16.0
 40
16.0
 40
16.0
 40
17.0
 40
17.0
 40
17.0
 40
18.0
 40
18.0
 40
18.0
 40
19.0
 40
19.0
 40
19.0
 40
20.0
 40
20.0
 40
20.0
 40
21.0
 40
21.0
 40
21.0
 40
22.0
 40
22.0
 40
22.0
 40
23.0
 40
23.0
 40
23.0
 40
23.0
 10
3.927248683552327
 20
8.104958686783869
 30
0.0
 10
3.927248683552327
 20
8.104958686783869
 30
0.0
 10
3.927248683552327
 20
7.97438405640632
 30
0.0
 10
3.927248683552327
 20
7.97438405640632
 30
0.0
 10
3.927248683552327
 20
7.861726647045573
 30
0.0
 10
3.844674844377245
 20
7.769644880593597
 30
0.0
 10
3.740019827446409
 20
7.761520417770687
 30
0.0
 10
3.740019827446409
 20
7.761520417770687
 30
0.0
 10
3.740019827446409
 20
7.730175453524036
 30
0.0
 10
3.740019827446409
 20
7.730175453524036
 30
0.0
 10
3.846424520010225
 20
7.723990553612104
 30
0.0
 10
3.930992175604285
 20
7.631108547917138
 30
0.0
 10
3.930992175604285
 20
7.517108364233406
 30
0.0
 10
3.930992175604285
 20
7.517108364233406
 30
0.0
 10
3.930992175604285
 20
7.386547297232857
 30
0.0
 10
3.930992175604285
 20
7.386547297232857
 30
0.0
 10
3.930992175604285
 20
7.272533550172125
 30
0.0
 10
3.846424520010225
 20
7.179651544477158
 30
0.0
 10
3.740019827446409
 20
7.173466644565226
 30
0.0
 10
3.740019827446409
 20
7.173466644565226
 30
0.0
 10
3.740019827446409
 20
7.135028034147655
 30
0.0
 10
3.740019827446409
 20
7.135028034147655
 30
0.0
 10
3.848201322397206
 20
7.130836950654701
 30
0.0
 10
3.934722104279244
 20
7.037107233897244
 30
0.0
 10
3.934722104279244
 20
6.921771057579026
 30
0.0
 10
3.934722104279244
 20
6.921771057579026
 30
0.0
 10
3.934722104279244
 20
6.791196427201478
 30
0.0
 10
3.934722104279244
 20
6.791196427201478
 30
0.0
 10
3.934722104279244
 20
6.67586025088326
 30
0.0
 10
3.848201322397206
 20
6.582116970748803
 30
0.0
 10
3.740019827446409
 20
6.577932668944349
 30
0.0
 10
3.740019827446409
 20
6.577932668944349
 30
0.0
 10
3.740019827446409
 20
6.531620518178364
 30
0.0
 10
3.740019827446409
 20
6.531620518178364
 30
0.0
 10
3.844674844377245
 20
6.523496055355455
 30
0.0
 10
3.927248683552327
 20
6.431427852280478
 30
0.0
 10
3.927248683552327
 20
6.318756879542732
 30
0.0
 10
3.927248683552327
 20
6.318756879542732
 30
0.0
 10
3.927248683552327
 20
6.247413516523525
 30
0.0
 10
3.927248683552327
 20
6.247413516523525
 30
0.0
 10
4.023901308053252
 20
6.228946978738231
 30
0.0
 10
4.132082803004049
 20
6.218943988200841
 30
0.0
 10
4.2443468744318
 20
6.218943988200841
 30
0.0
 10
4.2443468744318
 20
6.218943988200841
 30
0.0
 10
4.252281449976712
 20
6.218943988200841
 30
0.0
 10
4.252281449976712
 20
6.218943988200841
 30
0.0
 10
4.252281449976712
 20
6.218943988200841
 30
0.0
 10
4.260216025521624
 20
6.218442143251847
 30
0.0
 10
4.260216025521624
 20
6.218442143251847
 30
0.0
 10
4.260216025521624
 20
6.218442143251847
 30
0.0
 10
4.721981195481488
 20
6.190182847272662
 30
0.0
 10
4.721981195481488
 20
6.190182847272662
 30
0.0
 10
4.969607769367735
 20
6.196720394986589
 30
0.0
 10
5.081098728306495
 20
6.493053055679294
 30
0.0
 10
5.081098728306495
 20
6.863353592840675
 30
0.0
 10
5.081098728306495
 20
6.863353592840675
 30
0.0
 10
5.081098728306495
 20
7.815556911738087
 30
0.0
 10
5.081098728306495
 20
7.815556911738087
 30
0.0
 10
5.081098728306495
 20
8.12816562483061
 30
0.0
 10
4.848120601580086
 20
8.33492574381631
 30
0.0
 10
4.561729896228271
 20
8.33492574381631
 30
0.0
 10
4.561729896228271
 20
8.33492574381631
 30
0.0
 10
3.975018897345795
 20
8.33492574381631
 30
0.0
 10
3.975018897345795
 20
8.33492574381631
 30
0.0
 10
3.912993574325485
 20
8.33492574381631
 30
0.0
 10
3.853463912673147
 20
8.323980098577433
 30
0.0
 10
3.798274531660761
 20
8.303960554125656
 30
0.0
 10
3.873700471156922
 20
8.27292754755
 30
0.0
 10
3.927248683552327
 20
8.19564342540486
 30
0.0
 10
3.927248683552327
 20
8.104958686783869
 30
0.0
  0
SPLINE
  5
41
330
3C
100
AcDbEntity
  8
LAYER_1
 62
     7
100
AcDbSpline
210
0.0
220
0.0
230
1.0
 70
    11
 71
     3
 72
   287
 73
   283
 74
     0
 42
0.0000000001
 43
0.0000000001
 40
0.0
 40
0.0
 40
0.0
 40
0.0
 40
1.0
 40
1.0
 40
1.0
 40
2.0
 40
2.0
 40
2.0
 40
3.0
 40
3.0
 40
3.0
 40
4.0
 40
4.0
 40
4.0
 40
5.0
 40
5.0
 40
5.0
 40
6.0
 40
6.0
 40
6.0
 40
7.0
 40
7.0
 40
7.0
 40
8.0
 40
8.0
 40
8.0
 40
9.0
 40
9.0
 40
9.0
 40
10.0
 40
10.0
 40
10.0
 40
11.0
 40
11.0
 40
11.0
 40
12.0
 40
12.0
 40
12.0
 40
13.0
 40
13.0
 40
13.0
 40
14.0
 40
14.0
 40
14.0
 40
15.0
 40
15.0
 40
15.0
 40
16.0
 40
16.0
 40
16.0
 40
17.0
 40
17.0
 40
17.0
 40
18.0
 40
18.0
 40
18.0
 40
19.0
 40
19.0
 40
19.0
 40
20.0
 40
20.0
 40
20.0
 40
21.0
 40
21.0
 40
21.0
 40
22.0
 40
22.0
 40
22.0
 40
23.0
 40
23.0
 40
23.0
 40
24.0
 40
24.0
 40
24.0
 40
25.0
 40
25.0
 40
25.0
 40
26.0
 40
26.0
 40
26.0
 40
27.0
 40
27.0
 40
27.0
 40
28.0
 40
28.0
 40
28.0
 40
29.0
 40
29.0
 40
29.0
 40
30.0
 40
30.0
 40
30.0
 40
31.0
 40
31.0
 40
31.0
 40
32.0
 40
32.0
 40
32.0
 40
33.0
 40
33.0
 40
33.0
 40
34.0
 40
34.0
 40
34.0
 40
35.0
 40
35.0
 40
35.0
 40
36.0
 40
36.0
 40
36.0
 40
37.0
 40
37.0
 40
37.0
 40
38.0
 40
38.0
 40
38.0
 40
39.0
 40
39.0
 40
39.0
 40
40.0
 40
40.0
 40
40.0
 40
41.0
 40
41.0
 40
41.0
 40
42.0
 40
42.0
 40
42.0
 40
43.0
 40
43.0
 40
43.0
 40
44.0
 40
44.0
 40
44.0
 40
45.0
 40
45.0
 40
45.0
 40
46.0
 40
46.0
 40
46.0
 40
47.0
 40
47.0
 40
47.0
 40
48.0
 40
48.0
 40
48.0
 40
49.0
 40
49.0
 40
49.0
 40
50.0
 40
50.0
 40
50.0
 40
51.0
 40
51.0
 40
51.0
 40
52.0
 40
52.0
 40
52.0
 40
53.0
 40
53.0
 40
53.0
 40
54.0
 40
54.0
 40
54.0
 40
55.0
 40
55.0
 40
55.0
 40
56.0
 40
56.0
 40
56.0
 40
57.0
 40
57.0
 40
57.0
 40
58.0
 40
58.0
 40
58.0
 40
59.0
 40
59.0
 40
59.0
 40
60.0
 40
60.0
 40
60.0
 40
61.0
 40
61.0
 40
61.0
 40
62.0
 40
62.0
 40
62.0
 40
63.0
 40
63.0
 40
63.0
 40
64.0
 40
64.0
 40
64.0
 40
65.0
 40
65.0
 40
65.0
 40
66.0
 40
66.0
 40
66.0
 40
67.0
 40
67.0
 40
67.0
 40
68.0
 40
68.0
 40
68.0
 40
69.0
 40
69.0
 40
69.0
 40
70.0
 40
70.0
 40
70.0
 40
71.0
 40
71.0
 40
71.0
 40
72.0
 40
72.0
 40
72.0
 40
73.0
 40
73.0
 40
73.0
 40
74.0
 40
74.0
 40
74.0
 40
75.0
 40
75.0
 40
75.0
 40
76.0
 40
76.0
 40
76.0
 40
77.0
 40
77.0
 40
77.0
 40
78.0
 40
78.0
 40
78.0
 40
79.0
 40
79.0
 40
79.0
 40
80.0
 40
80.0
 40
80.0
 40
81.0
 40
81.0
 40
81.0
 40
82.0
 40
82.0
 40
82.0
 40
83.0
 40
83.0
 40
83.0
 40
84.0
 40
84.0
 40
84.0
 40
85.0
 40
85.0
 40
85.0
 40
86.0
 40
86.0
 40
86.0
 40
87.0
 40
87.0
 40
87.0
 40
88.0
 40
88.0
 40
88.0
 40
89.0
 40
89.0
 40
89.0
 40
90.0
 40
90.0
 40
90.0
 40
91.0
 40
91.0
 40
91.0
 40
92.0
 40
92.0
 40
92.0
 40
93.0
 40
93.0
 40
93.0
 40
94.0
 40
94.0
 40
94.0
 40
94.0
 10
4.256241956060668
 20
5.010799745316277
 30
0.0
 10
4.256241956060668
 20
5.010799745316277
 30
0.0
 10
4.248320943892756
 20
5.010799745316277
 30
0.0
 10
4.248320943892756
 20
5.010799745316277
 30
0.0
 10
4.136979182100994
 20
5.010799745316277
 30
0.0
 10
4.029652179901188
 20
5.000952733614387
 30
0.0
 10
3.933609907365256
 20
4.982777808434588
 30
0.0
 10
3.92332886759937
 20
4.877851523963756
 30
0.0
 10
3.841161929734284
 20
4.79564389596767
 30
0.0
 10
3.740019827446409
 20
4.791724080014713
 30
0.0
 10
3.740019827446409
 20
4.791724080014713
 30
0.0
 10
3.740019827446409
 20
4.751291653178162
 30
0.0
 10
3.740019827446409
 20
4.751291653178162
 30
0.0
 10
3.814848978354576
 20
4.739518641942293
 30
0.0
 10
3.876169005770895
 20
4.684573401715904
 30
0.0
 10
3.900637337878623
 20
4.611059898376722
 30
0.0
 10
3.900637337878623
 20
4.611059898376722
 30
0.0
 10
3.947430988528102
 20
4.614722010166681
 30
0.0
 10
3.947430988528102
 20
4.614722010166681
 30
0.0
 10
3.951133790449061
 20
4.616268235144664
 30
0.0
 10
3.962120125818939
 20
4.620771276308615
 30
0.0
 10
3.975832699965786
 20
4.625572711766561
 30
0.0
 10
3.967599730126878
 20
4.630387710601507
 30
0.0
 10
3.941449539271169
 20
4.646053411036333
 30
0.0
 10
3.930992175604285
 20
4.656510774703217
 30
0.0
 10
3.918513868764424
 20
4.669002644920078
 30
0.0
 10
3.943470482444146
 20
4.666506983552106
 30
0.0
 10
3.933487836972257
 20
4.673993967656022
 30
0.0
 10
3.923491628123368
 20
4.681480951759939
 30
0.0
 10
3.925987289491341
 20
4.696454919967772
 30
0.0
 10
3.933487836972257
 20
4.696454919967772
 30
0.0
 10
3.940106764948184
 20
4.696454919967772
 30
0.0
 10
3.999202398536526
 20
4.647843776800313
 30
0.0
 10
4.012942099437374
 20
4.636477666874439
 30
0.0
 10
4.024728674050243
 20
4.63909539863541
 30
0.0
 10
4.035674319289121
 20
4.640465299712395
 30
0.0
 10
4.043310500540036
 20
4.639081835258411
 30
0.0
 10
4.051177259199949
 20
4.625084430194566
 30
0.0
 10
4.056846750785885
 20
4.605824434854781
 30
0.0
 10
4.059884947233852
 20
4.584624876604016
 30
0.0
 10
4.059884947233852
 20
4.584624876604016
 30
0.0
 10
4.187502761425432
 20
4.591162424317943
 30
0.0
 10
4.187502761425432
 20
4.591162424317943
 30
0.0
 10
4.19848909679531
 20
4.609350912874741
 30
0.0
 10
4.218020359675093
 20
4.621598642305605
 30
0.0
 10
4.240508438740843
 20
4.621598642305605
 30
0.0
 10
4.262304785579601
 20
4.621598642305605
 30
0.0
 10
4.281442710526388
 20
4.610164715494732
 30
0.0
 10
4.292591806420264
 20
4.592884973196925
 30
0.0
 10
4.292591806420264
 20
4.592884973196925
 30
0.0
 10
4.30915268973708
 20
4.592884973196925
 30
0.0
 10
4.30915268973708
 20
4.592884973196925
 30
0.0
 10
4.30915268973708
 20
4.592884973196925
 30
0.0
 10
4.30915268973708
 20
4.529232044936633
 30
0.0
 10
4.30915268973708
 20
4.529232044936633
 30
0.0
 10
4.30915268973708
 20
4.529232044936633
 30
0.0
 10
4.295914833785226
 20
4.529232044936633
 30
0.0
 10
4.295914833785226
 20
4.529232044936633
 30
0.0
 10
4.285593103888342
 20
4.508575021765862
 30
0.0
 10
4.264786883570573
 20
4.494292785785021
 30
0.0
 10
4.240508438740843
 20
4.494292785785021
 30
0.0
 10
4.218345880723089
 20
4.494292785785021
 30
0.0
 10
4.198990941744305
 20
4.506160740659888
 30
0.0
 10
4.187923226112428
 20
4.523928764529691
 30
0.0
 10
4.187923226112428
 20
4.523928764529691
 30
0.0
 10
4.157256430715769
 20
4.522436793059708
 30
0.0
 10
4.157256430715769
 20
4.522436793059708
 30
0.0
 10
4.155886529638784
 20
4.511843795622825
 30
0.0
 10
4.152726262797819
 20
4.501779769888937
 30
0.0
 10
4.145646180003898
 20
4.501779769888937
 30
0.0
 10
4.138118505768982
 20
4.501779769888937
 30
0.0
 10
4.131228310253058
 20
4.509985612973846
 30
0.0
 10
4.126236987517114
 20
4.518137202550756
 30
0.0
 10
4.126236987517114
 20
4.518137202550756
 30
0.0
 10
4.120689566324176
 20
4.50427543125691
 30
0.0
 10
4.120689566324176
 20
4.50427543125691
 30
0.0
 10
4.120689566324176
 20
4.50427543125691
 30
0.0
 10
4.106258133196336
 20
4.510704471954838
 30
0.0
 10
4.09601778356145
 20
4.519452850119741
 30
0.0
 10
4.09601778356145
 20
4.519452850119741
 30
0.0
 10
4.060346102051846
 20
4.51771673786376
 30
0.0
 10
4.060346102051846
 20
4.51771673786376
 30
0.0
 10
4.057891130814874
 20
4.499216291635966
 30
0.0
 10
4.053184638995926
 20
4.481597464913162
 30
0.0
 10
4.045806161908009
 20
4.466826947360326
 30
0.0
 10
4.035769262928119
 20
4.462527356851374
 30
0.0
 10
4.024294645986248
 20
4.461157455774389
 30
0.0
 10
4.013037043076372
 20
4.461320216298388
 30
0.0
 10
4.004695566221465
 20
4.453263570360477
 30
0.0
 10
3.993207385902593
 20
4.443308051642588
 30
0.0
 10
3.985910289076674
 20
4.441843206926604
 30
0.0
 10
3.973418418859813
 20
4.439347545558632
 30
0.0
 10
3.945966143812119
 20
4.434356222822688
 30
0.0
 10
3.945966143812119
 20
4.434356222822688
 30
0.0
 10
3.945966143812119
 20
4.434356222822688
 30
0.0
 10
3.911894940788498
 20
4.401994005301047
 30
0.0
 10
3.911894940788498
 20
4.401994005301047
 30
0.0
 10
3.908395589522536
 20
4.298261298006201
 30
0.0
 10
3.835099100215352
 20
4.213544445265143
 30
0.0
 10
3.740019827446409
 20
4.198597603811309
 30
0.0
 10
3.740019827446409
 20
4.198597603811309
 30
0.0
 10
3.740019827446409
 20
4.157744712287763
 30
0.0
 10
3.740019827446409
 20
4.157744712287763
 30
0.0
 10
3.79836947529976
 20
4.153214544369813
 30
0.0
 10
3.849747547375189
 20
4.122642692612153
 30
0.0
 10
3.883873003906809
 20
4.076839168483663
 30
0.0
 10
3.907500406640546
 20
4.073706028396698
 30
0.0
 10
3.932267133042271
 20
4.068796085922752
 30
0.0
 10
3.94408083440914
 20
4.061200594802837
 30
0.0
 10
3.970312405526848
 20
4.044354880569024
 30
0.0
 10
3.983401064331702
 20
4.03125265838717
 30
0.0
 10
4.005875580020453
 20
4.021880364880274
 30
0.0
 10
4.020849548228286
 20
3.990047119061628
 30
0.0
 10
4.052682794046932
 20
3.909562039944523
 30
0.0
 10
4.052682794046932
 20
3.909562039944523
 30
0.0
 10
4.052682794046932
 20
3.909562039944523
 30
0.0
 10
4.07888723841064
 20
3.903946801866586
 30
0.0
 10
4.07888723841064
 20
3.903946801866586
 30
0.0
 10
4.07888723841064
 20
3.903946801866586
 30
0.0
 10
4.089520925978522
 20
3.884035764430807
 30
0.0
 10
4.097360557884435
 20
3.872181372932939
 30
0.0
 10
4.107926428567318
 20
3.869509387663969
 30
0.0
 10
4.122005213893161
 20
3.866918782656998
 30
0.0
 10
4.127552635086099
 20
3.870241810021961
 30
0.0
 10
4.136924928592995
 20
3.875857048099898
 30
0.0
 10
4.142526603293932
 20
3.885215778229794
 30
0.0
 10
4.153770642826808
 20
3.892702762333711
 30
0.0
 10
4.165001118982683
 20
3.900189746437627
 30
0.0
 10
4.206193094931225
 20
3.896446254385669
 30
0.0
 10
4.219295317113079
 20
3.890831016307732
 30
0.0
 10
4.232397539294933
 20
3.885215778229794
 30
0.0
 10
4.234269285320912
 20
3.877728794125877
 30
0.0
 10
4.243628015450808
 20
3.873985302073919
 30
0.0
 10
4.252986745580705
 20
3.870241810021961
 30
0.0
 10
4.2623590390876
 20
3.875857048099898
 30
0.0
 10
4.271717769217496
 20
3.87209999267094
 30
0.0
 10
4.281076499347392
 20
3.868356500618982
 30
0.0
 10
4.30915268973708
 20
3.838408564203315
 30
0.0
 10
4.30915268973708
 20
3.838408564203315
 30
0.0
 10
4.30915268973708
 20
3.838408564203315
 30
0.0
 10
4.331627205425829
 20
3.836536818177335
 30
0.0
 10
4.337242443503767
 20
3.829049834073419
 30
0.0
 10
4.342857681581705
 20
3.821562849969502
 30
0.0
 10
4.344729427607684
 20
3.789743167527856
 30
0.0
 10
4.340999498932725
 20
3.761653413761168
 30
0.0
 10
4.337242443503767
 20
3.733563659994481
 30
0.0
 10
4.316653237217996
 20
3.709230961656751
 30
0.0
 10
4.266088967762559
 20
3.677411279215105
 30
0.0
 10
4.238026340749871
 20
3.664309057033251
 30
0.0
 10
4.223038809165037
 20
3.668052549085209
 30
0.0
 10
4.187475634671433
 20
3.679283025241084
 30
0.0
 10
4.151898896800828
 20
3.690513501396959
 30
0.0
 10
4.150040714151849
 20
3.701743977552834
 30
0.0
 10
4.136924928592995
 20
3.71297445370871
 30
0.0
 10
4.127634015348098
 20
3.720949719384621
 30
0.0
 10
4.102392570751379
 20
3.739219588203418
 30
0.0
 10
4.088462982572534
 20
3.749202233675307
 30
0.0
 10
4.088462982572534
 20
3.749202233675307
 30
0.0
 10
4.069528508280745
 20
3.746679445553335
 30
0.0
 10
4.069528508280745
 20
3.746679445553335
 30
0.0
 10
4.069528508280745
 20
3.746679445553335
 30
0.0
 10
4.063926833579806
 20
3.726076675890564
 30
0.0
 10
4.063926833579806
 20
3.71297445370871
 30
0.0
 10
4.043310500540036
 20
3.709230961656751
 30
0.0
 10
3.981529318305723
 20
3.610014858902855
 30
0.0
 10
3.981529318305723
 20
3.610014858902855
 30
0.0
 10
3.981529318305723
 20
3.610014858902855
 30
0.0
 10
3.930992175604285
 20
3.5519771687205
 30
0.0
 10
3.906645913889556
 20
3.542618438590604
 30
0.0
 10
3.890207100965739
 20
3.536297904908674
 30
0.0
 10
3.840470197507292
 20
3.537654242608659
 30
0.0
 10
3.809925472503632
 20
3.539214030963642
 30
0.0
 10
3.864775769091021
 20
3.501005997955067
 30
0.0
 10
3.901030675811618
 20
3.435386380029796
 30
0.0
 10
3.901030675811618
 20
3.360774243153626
 30
0.0
 10
3.901030675811618
 20
3.360774243153626
 30
0.0
 10
3.901030675811618
 20
3.325306012299021
 30
0.0
 10
3.901030675811618
 20
3.325306012299021
 30
0.0
 10
3.901030675811618
 20
3.325306012299021
 30
0.0
 10
3.945966143812119
 20
3.27864799541954
 30
0.0
 10
3.945966143812119
 20
3.27864799541954
 30
0.0
 10
3.945966143812119
 20
3.27864799541954
 30
0.0
 10
3.966555350097889
 20
3.284263233497477
 30
0.0
 10
3.966555350097889
 20
3.284263233497477
 30
0.0
 10
3.966555350097889
 20
3.284263233497477
 30
0.0
 10
3.965049815250906
 20
3.207453829547331
 30
0.0
 10
3.965049815250906
 20
3.207453829547331
 30
0.0
 10
3.965049815250906
 20
3.207453829547331
 30
0.0
 10
4.026939504501218
 20
3.199722704657417
 30
0.0
 10
4.026939504501218
 20
3.199722704657417
 30
0.0
 10
4.023033251925262
 20
3.225235416794134
 30
0.0
 10
4.020157816001293
 20
3.249378227853865
 30
0.0
 10
4.020849548228286
 20
3.261802281185727
 30
0.0
 10
4.022707730877265
 20
3.295493709653352
 30
0.0
 10
4.024593040280244
 20
3.32356990004304
 30
0.0
 10
4.028336532332203
 20
3.329185138120978
 30
0.0
 10
4.032080024384161
 20
3.334800376198915
 30
0.0
 10
4.045195809943015
 20
3.332928630172936
 30
0.0
 10
4.045195809943015
 20
3.332928630172936
 30
0.0
 10
4.045195809943015
 20
3.332928630172936
 30
0.0
 10
4.050661850873954
 20
3.238636033269985
 30
0.0
 10
4.050661850873954
 20
3.238636033269985
 30
0.0
 10
4.057443539373879
 20
3.238825920547982
 30
0.0
 10
4.064076030726805
 20
3.238636033269985
 30
0.0
 10
4.070355874277735
 20
3.237835794026994
 30
0.0
 10
4.070355874277735
 20
3.237835794026994
 30
0.0
 10
4.082630730462599
 20
3.329185138120978
 30
0.0
 10
4.082630730462599
 20
3.329185138120978
 30
0.0
 10
4.082630730462599
 20
3.329185138120978
 30
0.0
 10
4.088259531917537
 20
3.332928630172936
 30
0.0
 10
4.095732952644453
 20
3.329185138120978
 30
0.0
 10
4.10323350012537
 20
3.325441646069019
 30
0.0
 10
4.110720484229287
 20
3.319826407991082
 30
0.0
 10
4.110720484229287
 20
3.280519741445519
 30
0.0
 10
4.110720484229287
 20
3.264582773470696
 30
0.0
 10
4.106705724637331
 20
3.2462179610129
 30
0.0
 10
4.101944979310383
 20
3.229969035367081
 30
0.0
 10
4.119075524461193
 20
3.22374344532415
 30
0.0
 10
4.132543957822044
 20
3.215768179648239
 30
0.0
 10
4.140668420644953
 20
3.211238011730289
 30
0.0
 10
4.157514134878766
 20
3.201879281600393
 30
0.0
 10
4.234269285320912
 20
3.141983408769059
 30
0.0
 10
4.243628015450808
 20
3.11763714705433
 30
0.0
 10
4.228938878159972
 20
3.107030586240448
 30
0.0
 10
4.204660433330242
 20
3.083972845340704
 30
0.0
 10
4.181928213478495
 20
3.061335569127956
 30
0.0
 10
4.182267297903491
 20
3.048477487732099
 30
0.0
 10
4.182959030130483
 20
3.037247011576224
 30
0.0
 10
4.184342494584468
 20
3.03401892785026
 30
0.0
 10
4.188099550013426
 20
3.025284113062357
 30
0.0
 10
4.208064840957204
 20
3.015301467590468
 30
0.0
 10
4.209312671641189
 20
3.005318822118579
 30
0.0
 10
4.210560502325176
 20
2.99532261326969
 30
0.0
 10
4.185590325268453
 20
2.970352436212968
 30
0.0
 10
4.16437720364069
 20
2.977852983693885
 30
0.0
 10
4.146242968591891
 20
2.984254897637813
 30
0.0
 10
4.096302614478446
 20
3.016183087095458
 30
0.0
 10
4.075130182981682
 20
3.049481177630088
 30
0.0
 10
4.053225329126926
 20
3.076499424613787
 30
0.0
 10
4.031876573729163
 20
3.115534823619353
 30
0.0
 10
4.028811250527197
 20
3.166804388678783
 30
0.0
 10
4.028811250527197
 20
3.166804388678783
 30
0.0
 10
3.952503691526046
 20
3.16805221936277
 30
0.0
 10
3.952503691526046
 20
3.16805221936277
 30
0.0
 10
3.952503691526046
 20
3.16805221936277
 30
0.0
 10
3.895415437733681
 20
3.07082993302785
 30
0.0
 10
3.895415437733681
 20
3.07082993302785
 30
0.0
 10
3.895415437733681
 20
3.07082993302785
 30
0.0
 10
3.882313215551827
 20
3.089547393287642
 30
0.0
 10
3.882313215551827
 20
3.089547393287642
 30
0.0
 10
3.882313215551827
 20
3.089547393287642
 30
0.0
 10
3.854603236341135
 20
3.093996180943593
 30
0.0
 10
3.854603236341135
 20
3.093996180943593
 30
0.0
 10
3.824546792909469
 20
3.055666077542019
 30
0.0
 10
3.782025606014942
 20
3.028810591082318
 30
0.0
 10
3.73364504025648
 20
3.019926579147417
 30
0.0
 10
3.732356519441494
 20
3.012154764126503
 30
0.0
 10
3.730823857840511
 20
3.004532146252588
 30
0.0
 10
3.729169125846529
 20
2.996990908640672
 30
0.0
 10
3.792225265518828
 20
2.991972459150727
 30
0.0
 10
3.847089125483218
 20
2.956355031149124
 30
0.0
 10
3.880780553950844
 20
2.904244536715703
 30
0.0
 10
3.912600236392489
 20
2.898127453688771
 30
0.0
 10
3.945410045355125
 20
2.894831553077808
 30
0.0
 10
3.978992966806751
 20
2.894831553077808
 30
0.0
 10
3.978992966806751
 20
2.894831553077808
 30
0.0
 10
4.565703965689226
 20
2.894831553077808
 30
0.0
 10
4.565703965689226
 20
2.894831553077808
 30
0.0
 10
4.852094671041042
 20
2.894831553077808
 30
0.0
 10
5.085072797767451
 20
3.101591672063508
 30
0.0
 10
5.085072797767451
 20
3.414186821779032
 30
0.0
 10
5.085072797767451
 20
3.414186821779032
 30
0.0
 10
5.085072797767451
 20
4.366390140676443
 30
0.0
 10
5.085072797767451
 20
4.366390140676443
 30
0.0
 10
5.085072797767451
 20
4.736683896149326
 30
0.0
 10
4.973581838828691
 20
5.03301655684203
 30
0.0
 10
4.725955264942445
 20
5.039554104555958
 30
0.0
 10
4.725955264942445
 20
5.039554104555958
 30
0.0
 10
4.264190094982579
 20
5.011301590265272
 30
0.0
 10
4.264190094982579
 20
5.011301590265272
 30
0.0
 10
4.264190094982579
 20
5.011301590265272
 30
0.0
 10
4.256241956060668
 20
5.010799745316277
 30
0.0
 10
4.256241956060668
 20
5.010799745316277
 30
0.0
  0
SPLINE
  5
42
330
3C
100
AcDbEntity
  8
LAYER_1
 62
     7
100
AcDbSpline
210
0.0
220
0.0
230
1.0
 70
    11
 71
     3
 72
    17
 73
    13
 74
     0
 42
0.0000000001
 43
0.0000000001
 40
0.0
 40
0.0
 40
0.0
 40
0.0
 40
1.0
 40
1.0
 40
1.0
 40
2.0
 40
2.0
 40
2.0
 40
3.0
 40
3.0
 40
3.0
 40
4.0
 40
4.0
 40
4.0
 40
4.0
 10
4.306005986273115
 20
8.594664413363422
 30
0.0
 10
4.337147499864768
 20
8.594664413363422
 30
0.0
 10
4.362416071215487
 20
8.619892294583142
 30
0.0
 10
4.362429634592488
 20
8.651060934928795
 30
0.0
 10
4.362416071215487
 20
8.68220244852045
 30
0.0
 10
4.337147499864768
 20
8.707471019871168
 30
0.0
 10
4.306019549650115
 20
8.707484583248167
 30
0.0
 10
4.274850909304461
 20
8.707471019871168
 30
0.0
 10
4.249609464707742
 20
8.682216011897449
 30
0.0
 10
4.249609464707742
 20
8.651060934928795
 30
0.0
 10
4.249609464707742
 20
8.619892294583142
 30
0.0
 10
4.274850909304461
 20
8.594664413363422
 30
0.0
 10
4.306005986273115
 20
8.594664413363422
 30
0.0
  0
SPLINE
  5
43
330
3C
100
AcDbEntity
  8
LAYER_1
 62
     7
100
AcDbSpline
210
0.0
220
0.0
230
1.0
 70
    11
 71
     3
 72
    17
 73
    13
 74
     0
 42
0.0000000001
 43
0.0000000001
 40
0.0
 40
0.0
 40
0.0
 40
0.0
 40
1.0
 40
1.0
 40
1.0
 40
2.0
 40
2.0
 40
2.0
 40
3.0
 40
3.0
 40
3.0
 40
4.0
 40
4.0
 40
4.0
 40
4.0
 10
4.306005986273115
 20
2.525202403077918
 30
0.0
 10
4.337147499864768
 20
2.525202403077918
 30
0.0
 10
4.362416071215487
 20
2.550430284297638
 30
0.0
 10
4.362429634592488
 20
2.581598924643291
 30
0.0
 10
4.362416071215487
 20
2.612740438234945
 30
0.0
 10
4.337147499864768
 20
2.638022572962663
 30
0.0
 10
4.306019549650115
 20
2.638022572962663
 30
0.0
 10
4.274850909304461
 20
2.638022572962663
 30
0.0
 10
4.249609464707742
 20
2.612767564988944
 30
0.0
 10
4.249609464707742
 20
2.581598924643291
 30
0.0
 10
4.249609464707742
 20
2.550430284297638
 30
0.0
 10
4.274850909304461
 20
2.525202403077918
 30
0.0
 10
4.306005986273115
 20
2.525202403077918
 30
0.0
  0
SPLINE
  5
44
330
3C
100
AcDbEntity
  8
LAYER_1
 62
     7
100
AcDbSpline
210
0.0
220
0.0
230
1.0
 70
    11
 71
     3
 72
   134
 73
   130
 74
     0
 42
0.0000000001
 43
0.0000000001
 40
0.0
 40
0.0
 40
0.0
 40
0.0
 40
1.0
 40
1.0
 40
1.0
 40
2.0
 40
2.0
 40
2.0
 40
3.0
 40
3.0
 40
3.0
 40
4.0
 40
4.0
 40
4.0
 40
5.0
 40
5.0
 40
5.0
 40
6.0
 40
6.0
 40
6.0
 40
7.0
 40
7.0
 40
7.0
 40
8.0
 40
8.0
 40
8.0
 40
9.0
 40
9.0
 40
9.0
 40
10.0
 40
10.0
 40
10.0
 40
11.0
 40
11.0
 40
11.0
 40
12.0
 40
12.0
 40
12.0
 40
13.0
 40
13.0
 40
13.0
 40
14.0
 40
14.0
 40
14.0
 40
15.0
 40
15.0
 40
15.0
 40
16.0
 40
16.0
 40
16.0
 40
17.0
 40
17.0
 40
17.0
 40
18.0
 40
18.0
 40
18.0
 40
19.0
 40
19.0
 40
19.0
 40
20.0
 40
20.0
 40
20.0
 40
21.0
 40
21.0
 40
21.0
 40
22.0
 40
22.0
 40
22.0
 40
23.0
 40
23.0
 40
23.0
 40
24.0
 40
24.0
 40
24.0
 40
25.0
 40
25.0
 40
25.0
 40
26.0
 40
26.0
 40
26.0
 40
27.0
 40
27.0
 40
27.0
 40
28.0
 40
28.0
 40
28.0
 40
29.0
 40
29.0
 40
29.0
 40
30.0
 40
30.0
 40
30.0
 40
31.0
 40
31.0
 40
31.0
 40
32.0
 40
32.0
 40
32.0
 40
33.0
 40
33.0
 40
33.0
 40
34.0
 40
34.0
 40
34.0
 40
35.0
 40
35.0
 40
35.0
 40
36.0
 40
36.0
 40
36.0
 40
37.0
 40
37.0
 40
37.0
 40
38.0
 40
38.0
 40
38.0
 40
39.0
 40
39.0
 40
39.0
 40
40.0
 40
40.0
 40
40.0
 40
41.0
 40
41.0
 40
41.0
 40
42.0
 40
42.0
 40
42.0
 40
43.0
 40
43.0
 40
43.0
 40
43.0
 10
4.652875789667258
 20
2.526694374547902
 30
0.0
 10
4.652875789667258
 20
2.526694374547902
 30
0.0
 10
4.49981308022396
 20
2.526694374547902
 30
0.0
 10
4.49981308022396
 20
2.526694374547902
 30
0.0
 10
4.49981308022396
 20
2.526694374547902
 30
0.0
 10
4.49981308022396
 20
2.63653060149268
 30
0.0
 10
4.49981308022396
 20
2.63653060149268
 30
0.0
 10
4.49981308022396
 20
2.63653060149268
 30
0.0
 10
4.666696870830104
 20
2.63653060149268
 30
0.0
 10
4.666696870830104
 20
2.63653060149268
 30
0.0
 10
4.666696870830104
 20
2.63653060149268
 30
0.0
 10
4.666696870830104
 20
2.641861008653621
 30
0.0
 10
4.666696870830104
 20
2.641861008653621
 30
0.0
 10
5.04921122897985
 20
2.69140802483407
 30
0.0
 10
5.344770777183563
 20
3.018176903514436
 30
0.0
 10
5.344770777183563
 20
3.414200385156032
 30
0.0
 10
5.344770777183563
 20
3.414200385156032
 30
0.0
 10
5.344770777183563
 20
4.366403704053443
 30
0.0
 10
5.344770777183563
 20
4.366403704053443
 30
0.0
 10
5.344770777183563
 20
4.706559635832661
 30
0.0
 10
5.222808891200919
 20
5.091745979251376
 30
0.0
 10
4.959177532454851
 20
5.238257577603748
 30
0.0
 10
4.959177532454851
 20
5.238257577603748
 30
0.0
 10
4.959326729601849
 20
5.238420338127746
 30
0.0
 10
4.959326729601849
 20
5.238420338127746
 30
0.0
 10
4.959326729601849
 20
5.238420338127746
 30
0.0
 10
4.854251247984018
 20
5.308977025280961
 30
0.0
 10
4.854251247984018
 20
5.491716403599929
 30
0.0
 10
4.854251247984018
 20
5.491716403599929
 30
0.0
 10
4.854251247984018
 20
5.780643460450716
 30
0.0
 10
4.854251247984018
 20
5.780643460450716
 30
0.0
 10
4.854251247984018
 20
5.784787072124169
 30
0.0
 10
4.85406136070602
 20
5.788889993666624
 30
0.0
 10
4.853871473428022
 20
5.792992915209078
 30
0.0
 10
4.871897201460822
 20
5.93489974707
 30
0.0
 10
4.955352660140893
 20
5.991330177077873
 30
0.0
 10
4.955352660140893
 20
5.991330177077873
 30
0.0
 10
4.955352660140893
 20
5.991330177077873
 30
0.0
 10
4.955203462993895
 20
5.991479374224872
 30
0.0
 10
4.955203462993895
 20
5.991479374224872
 30
0.0
 10
5.218834821739963
 20
6.137990972577242
 30
0.0
 10
5.340796707722607
 20
6.523184097684458
 30
0.0
 10
5.340796707722607
 20
6.863346811152176
 30
0.0
 10
5.340796707722607
 20
6.863346811152176
 30
0.0
 10
5.340796707722607
 20
7.815543348361087
 30
0.0
 10
5.340796707722607
 20
7.815543348361087
 30
0.0
 10
5.340796707722607
 20
8.211566830002683
 30
0.0
 10
5.045250722895894
 20
8.538335708683048
 30
0.0
 10
4.662722801369148
 20
8.587882724863498
 30
0.0
 10
4.662722801369148
 20
8.587882724863498
 30
0.0
 10
4.662722801369148
 20
8.596156384833405
 30
0.0
 10
4.662722801369148
 20
8.596156384833405
 30
0.0
 10
4.662722801369148
 20
8.596156384833405
 30
0.0
 10
4.499826643600959
 20
8.596156384833405
 30
0.0
 10
4.499826643600959
 20
8.596156384833405
 30
0.0
 10
4.499826643600959
 20
8.596156384833405
 30
0.0
 10
4.499826643600959
 20
8.705992611778184
 30
0.0
 10
4.499826643600959
 20
8.705992611778184
 30
0.0
 10
4.499826643600959
 20
8.705992611778184
 30
0.0
 10
4.648074354209311
 20
8.705992611778184
 30
0.0
 10
4.648074354209311
 20
8.705992611778184
 30
0.0
 10
4.604129012729799
 20
8.85562378684052
 30
0.0
 10
4.465877510970337
 20
8.964917478705305
 30
0.0
 10
4.302031916812159
 20
8.964917478705305
 30
0.0
 10
4.138186322653981
 20
8.964917478705305
 30
0.0
 10
3.999948384271518
 20
8.85562378684052
 30
0.0
 10
3.956003042792007
 20
8.705992611778184
 30
0.0
 10
3.956003042792007
 20
8.705992611778184
 30
0.0
 10
4.11221245569927
 20
8.705992611778184
 30
0.0
 10
4.11221245569927
 20
8.705992611778184
 30
0.0
 10
4.11221245569927
 20
8.705992611778184
 30
0.0
 10
4.11221245569927
 20
8.596156384833405
 30
0.0
 10
4.11221245569927
 20
8.596156384833405
 30
0.0
 10
4.11221245569927
 20
8.596156384833405
 30
0.0
 10
3.945328665093125
 20
8.596156384833405
 30
0.0
 10
3.945328665093125
 20
8.596156384833405
 30
0.0
 10
3.945328665093125
 20
8.596156384833405
 30
0.0
 10
3.94135459563217
 20
8.593769230481433
 30
0.0
 10
3.94135459563217
 20
8.593769230481433
 30
0.0
 10
3.526722160746781
 20
8.576123277004628
 30
0.0
 10
3.195952085851459
 20
8.234516063886428
 30
0.0
 10
3.195952085851459
 20
7.815543348361087
 30
0.0
 10
3.195952085851459
 20
7.815543348361087
 30
0.0
 10
3.276125207297568
 20
6.518830253667507
 30
0.0
 10
3.276125207297568
 20
6.518830253667507
 30
0.0
 10
3.276125207297568
 20
6.088559245101291
 30
0.0
 10
3.814062302488586
 20
5.95924600878473
 30
0.0
 10
4.244333311054801
 20
5.95924600878473
 30
0.0
 10
4.244333311054801
 20
5.95924600878473
 30
0.0
 10
4.435305659212677
 20
5.947554377810859
 30
0.0
 10
4.435305659212677
 20
5.947554377810859
 30
0.0
 10
4.489762617867071
 20
5.890594976099993
 30
0.0
 10
4.523250595679698
 20
5.813439706036351
 30
0.0
 10
4.523250595679698
 20
5.728410895624297
 30
0.0
 10
4.523250595679698
 20
5.728410895624297
 30
0.0
 10
4.523250595679698
 20
5.497575782463864
 30
0.0
 10
4.523250595679698
 20
5.497575782463864
 30
0.0
 10
4.523250595679698
 20
5.414323774438789
 30
0.0
 10
4.490983321797057
 20
5.33876220117263
 30
0.0
 10
4.438547306315641
 20
5.282148665575259
 30
0.0
 10
4.438547306315641
 20
5.282148665575259
 30
0.0
 10
4.248307380515756
 20
5.270497724732389
 30
0.0
 10
4.248307380515756
 20
5.270497724732389
 30
0.0
 10
3.818036371949541
 20
5.270497724732389
 30
0.0
 10
3.280099276758524
 20
5.141198051792827
 30
0.0
 10
3.280099276758524
 20
4.710913479849612
 30
0.0
 10
3.280099276758524
 20
4.710913479849612
 30
0.0
 10
3.199912591935415
 20
3.414200385156032
 30
0.0
 10
3.199912591935415
 20
3.414200385156032
 30
0.0
 10
3.199912591935415
 20
2.995227669630691
 30
0.0
 10
3.530696230207737
 20
2.65362045651249
 30
0.0
 10
3.945328665093125
 20
2.635988066412686
 30
0.0
 10
3.945328665093125
 20
2.635988066412686
 30
0.0
 10
3.945328665093125
 20
2.63653060149268
 30
0.0
 10
3.945328665093125
 20
2.63653060149268
 30
0.0
 10
3.945328665093125
 20
2.63653060149268
 30
0.0
 10
4.11221245569927
 20
2.63653060149268
 30
0.0
 10
4.11221245569927
 20
2.63653060149268
 30
0.0
 10
4.11221245569927
 20
2.63653060149268
 30
0.0
 10
4.11221245569927
 20
2.526694374547902
 30
0.0
 10
4.11221245569927
 20
2.526694374547902
 30
0.0
 10
4.11221245569927
 20
2.526694374547902
 30
0.0
 10
3.959149746255972
 20
2.526694374547902
 30
0.0
 10
3.959149746255972
 20
2.526694374547902
 30
0.0
 10
4.002118524591494
 20
2.375571228015582
 30
0.0
 10
4.141088885331949
 20
2.264839818188813
 30
0.0
 10
4.306005986273115
 20
2.264839818188813
 30
0.0
 10
4.470909523837281
 20
2.264839818188813
 30
0.0
 10
4.609893447954735
 20
2.375557664638583
 30
0.0
 10
4.652875789667258
 20
2.526694374547902
 30
0.0
  0
POLYLINE
  5
45
330
3C
100
AcDbEntity
  8
LAYER_1
 62
     7
100
AcDb2dPolyline
 66
     1
 10
0.0
 20
0.0
 30
0.0
  0
VERTEX
  5
46
330
45
100
AcDbEntity
  8
LAYER_1
 62
     7
100
AcDbVertex
100
AcDb2dVertex
 10
4.082630730462599
 20
3.329185138120978
 30
0.0
  0
VERTEX
  5
47
330
45
100
AcDbEntity
  8
LAYER_1
 62
     7
100
AcDbVertex
100
AcDb2dVertex
 10
4.187475634671433
 20
3.679283025241084
 30
0.0
  0
SEQEND
  5
48
330
45
100
AcDbEntity
  8
LAYER_1
  0
POLYLINE
  5
49
330
3C
100
AcDbEntity
  8
LAYER_1
 62
     7
100
AcDb2dPolyline
 66
     1
 10
0.0
 20
0.0
 30
0.0
  0
VERTEX
  5
4A
330
49
100
AcDbEntity
  8
LAYER_1
 62
     7
100
AcDbVertex
100
AcDb2dVertex
 10
4.16437720364069
 20
2.977852983693885
 30
0.0
  0
VERTEX
  5
4B
330
49
100
AcDbEntity
  8
LAYER_1
 62
     7
100
AcDbVertex
100
AcDb2dVertex
 10
4.16437720364069
 20
2.894831553077808
 30
0.0
  0
SEQEND
  5
4C
330
49
100
AcDbEntity
  8
LAYER_1
  0
POLYLINE
  5
4D
330
3C
100
AcDbEntity
  8
LAYER_1
 62
     7
100
AcDb2dPolyline
 66
     1
 10
0.0
 20
0.0
 30
0.0
  0
VERTEX
  5
4E
330
4D
100
AcDbEntity
  8
LAYER_1
 62
     7
100
AcDbVertex
100
AcDb2dVertex
 10
4.045195809943015
 20
3.332928630172936
 30
0.0
  0
VERTEX
  5
4F
330
4D
100
AcDbEntity
  8
LAYER_1
 62
     7
100
AcDbVertex
100
AcDb2dVertex
 10
4.082630730462599
 20
3.329185138120978
 30
0.0
  0
SEQEND
  5
50
330
4D
100
AcDbEntity
  8
LAYER_1
  0
POLYLINE
  5
51
330
3C
100
AcDbEntity
  8
LAYER_1
 62
     7
100
AcDb2dPolyline
 66
     1
 10
0.0
 20
0.0
 30
0.0
  0
VERTEX
  5
52
330
51
100
AcDbEntity
  8
LAYER_1
 62
     7
100
AcDbVertex
100
AcDb2dVertex
 10
3.966555350097889
 20
3.284263233497477
 30
0.0
  0
VERTEX
  5
53
330
51
100
AcDbEntity
  8
LAYER_1
 62
     7
100
AcDbVertex
100
AcDb2dVertex
 10
4.028336532332203
 20
3.329185138120978
 30
0.0
  0
SEQEND
  5
54
330
51
100
AcDbEntity
  8
LAYER_1
  0
POLYLINE
  5
55
330
3C
100
AcDbEntity
  8
LAYER_1
 62
     7
100
AcDb2dPolyline
 66
     1
 10
0.0
 20
0.0
 30
0.0
  0
VERTEX
  5
56
330
55
100
AcDbEntity
  8
LAYER_1
 62
     7
100
AcDbVertex
100
AcDb2dVertex
 10
3.895415437733681
 20
3.07082993302785
 30
0.0
  0
VERTEX
  5
57
330
55
100
AcDbEntity
  8
LAYER_1
 62
     7
100
AcDbVertex
100
AcDb2dVertex
 10
4.16437720364069
 20
2.977852983693885
 30
0.0
  0
SEQEND
  5
58
330
55
100
AcDbEntity
  8
LAYER_1
  0
POLYLINE
  5
59
330
3C
100
AcDbEntity
  8
LAYER_1
 62
     7
100
AcDb2dPolyline
 66
     1
 10
0.0
 20
0.0
 30
0.0
  0
VERTEX
  5
5A
330
59
100
AcDbEntity
  8
LAYER_1
 62
     7
100
AcDbVertex
100
AcDb2dVertex
 10
3.933487836972257
 20
4.696454919967772
 30
0.0
  0
VERTEX
  5
5B
330
59
100
AcDbEntity
  8
LAYER_1
 62
     7
100
AcDbVertex
100
AcDb2dVertex
 10
3.866057508217507
 20
4.675702953158003
 30
0.0
  0
SEQEND
  5
5C
330
59
100
AcDbEntity
  8
LAYER_1
  0
POLYLINE
  5
5D
330
3C
100
AcDbEntity
  8
LAYER_1
 62
     7
100
AcDb2dPolyline
 66
     1
 10
0.0
 20
0.0
 30
0.0
  0
VERTEX
  5
5E
330
5D
100
AcDbEntity
  8
LAYER_1
 62
     7
100
AcDbVertex
100
AcDb2dVertex
 10
3.956003042792007
 20
8.705992611778184
 30
0.0
  0
VERTEX
  5
5F
330
5D
100
AcDbEntity
  8
LAYER_1
 62
     7
100
AcDbVertex
100
AcDb2dVertex
 10
3.956003042792007
 20
8.596156384833405
 30
0.0
  0
SEQEND
  5
60
330
5D
100
AcDbEntity
  8
LAYER_1
  0
POLYLINE
  5
61
330
3C
100
AcDbEntity
  8
LAYER_1
 62
     7
100
AcDb2dPolyline
 66
     1
 10
0.0
 20
0.0
 30
0.0
  0
VERTEX
  5
62
330
61
100
AcDbEntity
  8
LAYER_1
 62
     7
100
AcDbVertex
100
AcDb2dVertex
 10
4.648074354209311
 20
8.705992611778184
 30
0.0
  0
VERTEX
  5
63
330
61
100
AcDbEntity
  8
LAYER_1
 62
     7
100
AcDbVertex
100
AcDb2dVertex
 10
4.648074354209311
 20
8.596156384833405
 30
0.0
  0
SEQEND
  5
64
330
61
100
AcDbEntity
  8
LAYER_1
  0
POLYLINE
  5
65
330
3C
100
AcDbEntity
  8
LAYER_1
 62
     7
100
AcDb2dPolyline
 66
     1
 10
0.0
 20
0.0
 30
0.0
  0
VERTEX
  5
66
330
65
100
AcDbEntity
  8
LAYER_1
 62
     7
100
AcDbVertex
100
AcDb2dVertex
 10
3.959149746255972
 20
2.526694374547902
 30
0.0
  0
VERTEX
  5
67
330
65
100
AcDbEntity
  8
LAYER_1
 62
     7
100
AcDbVertex
100
AcDb2dVertex
 10
3.959149746255972
 20
2.63653060149268
 30
0.0
  0
SEQEND
  5
68
330
65
100
AcDbEntity
  8
LAYER_1
  0
POLYLINE
  5
69
330
3C
100
AcDbEntity
  8
LAYER_1
 62
     7
100
AcDb2dPolyline
 66
     1
 10
0.0
 20
0.0
 30
0.0
  0
VERTEX
  5
6A
330
69
100
AcDbEntity
  8
LAYER_1
 62
     7
100
AcDbVertex
100
AcDb2dVertex
 10
4.652875789667258
 20
2.526694374547902
 30
0.0
  0
VERTEX
  5
6B
330
69
100
AcDbEntity
  8
LAYER_1
 62
     7
100
AcDbVertex
100
AcDb2dVertex
 10
4.652875789667258
 20
2.63653060149268
 30
0.0
  0
SEQEND
  5
6C
330
69
100
AcDbEntity
  8
LAYER_1
  0
POLYLINE
  5
6D
330
3C
100
AcDbEntity
  8
LAYER_1
 62
     7
100
AcDb2dPolyline
 66
     1
 10
0.0
 20
0.0
 30
0.0
  0
VERTEX
  5
6E
330
6D
100
AcDbEntity
  8
LAYER_1
 62
     7
100
AcDbVertex
100
AcDb2dVertex
 10
4.30915268973708
 20
4.592884973196925
 30
0.0
  0
VERTEX
  5
6F
330
6D
100
AcDbEntity
  8
LAYER_1
 62
     7
100
AcDbVertex
100
AcDb2dVertex
 10
4.475697395918227
 20
5.024241051923127
 30
0.0
  0
SEQEND
  5
70
330
6D
100
AcDbEntity
  8
LAYER_1
  0
POLYLINE
  5
71
330
3C
100
AcDbEntity
  8
LAYER_1
 62
     7
100
AcDb2dPolyline
 66
     1
 10
0.0
 20
0.0
 30
0.0
  0
VERTEX
  5
72
330
71
100
AcDbEntity
  8
LAYER_1
 62
     7
100
AcDbVertex
100
AcDb2dVertex
 10
4.240508438740843
 20
4.494292785785021
 30
0.0
  0
VERTEX
  5
73
330
71
100
AcDbEntity
  8
LAYER_1
 62
     7
100
AcDbVertex
100
AcDb2dVertex
 10
4.271717769217496
 20
3.87209999267094
 30
0.0
  0
SEQEND
  5
74
330
71
100
AcDbEntity
  8
LAYER_1
  0
ENDBLK
  5
3F
330
3C
100
AcDbEntity
  8
0
100
AcDbBlockEnd
  0
BLOCK
  5
77
330
75
100
AcDbEntity
  8
0
100
AcDbBlockBegin
  2
BLOCK_3
 70
     0
 71
     0
 10
0.0
 20
0.0
 30
0.0
  3
BLOCK_3
  1

  0
POLYLINE
  5
79
330
75
100
AcDbEntity
  8
LAYER_1
 62
     7
100
AcDb2dPolyline
 66
     1
 10
0.0
 20
0.0
 30
0.0
  0
VERTEX
  5
7A
330
79
100
AcDbEntity
  8
LAYER_1
 62
     7
100
AcDbVertex
100
AcDb2dVertex
 10
2.796022351633907
 20
4.185753085792452
 30
0.0
  0
VERTEX
  5
7B
330
79
100
AcDbEntity
  8
LAYER_1
 62
     7
100
AcDbVertex
100
AcDb2dVertex
 10
2.80291932883833
 20
4.244156987153803
 30
0.0
  0
SEQEND
  5
7C
330
79
100
AcDbEntity
  8
LAYER_1
  0
POLYLINE
  5
7D
330
75
100
AcDbEntity
  8
LAYER_1
 62
     7
100
AcDb2dPolyline
 66
     1
 10
0.0
 20
0.0
 30
0.0
  0
VERTEX
  5
7E
330
7D
100
AcDbEntity
  8
LAYER_1
 62
     7
100
AcDbVertex
100
AcDb2dVertex
 10
2.686972800555119
 20
4.198665420696308
 30
0.0
  0
VERTEX
  5
7F
330
7D
100
AcDbEntity
  8
LAYER_1
 62
     7
100
AcDbVertex
100
AcDb2dVertex
 10
2.693869777759542
 20
4.257028631926659
 30
0.0
  0
SEQEND
  5
80
330
7D
100
AcDbEntity
  8
LAYER_1
  0
POLYLINE
  5
81
330
75
100
AcDbEntity
  8
LAYER_1
 62
     7
100
AcDb2dPolyline
 66
     1
 10
0.0
 20
0.0
 30
0.0
  0
VERTEX
  5
82
330
81
100
AcDbEntity
  8
LAYER_1
 62
     7
100
AcDbVertex
100
AcDb2dVertex
 10
2.824186703974093
 20
4.463883694551359
 30
0.0
  0
VERTEX
  5
83
330
81
100
AcDbEntity
  8
LAYER_1
 62
     7
100
AcDbVertex
100
AcDb2dVertex
 10
2.828825378908042
 20
4.463341159471365
 30
0.0
  0
SEQEND
  5
84
330
81
100
AcDbEntity
  8
LAYER_1
  0
POLYLINE
  5
85
330
75
100
AcDbEntity
  8
LAYER_1
 62
     7
100
AcDb2dPolyline
 66
     1
 10
0.0
 20
0.0
 30
0.0
  0
VERTEX
  5
86
330
85
100
AcDbEntity
  8
LAYER_1
 62
     7
100
AcDbVertex
100
AcDb2dVertex
 10
2.724441629517202
 20
4.475670269164228
 30
0.0
  0
VERTEX
  5
87
330
85
100
AcDbEntity
  8
LAYER_1
 62
     7
100
AcDbVertex
100
AcDb2dVertex
 10
2.719775827829254
 20
4.476226367621222
 30
0.0
  0
SEQEND
  5
88
330
85
100
AcDbEntity
  8
LAYER_1
  0
POLYLINE
  5
89
330
75
100
AcDbEntity
  8
LAYER_1
 62
     7
100
AcDb2dPolyline
 66
     1
 10
0.0
 20
0.0
 30
0.0
  0
VERTEX
  5
8A
330
89
100
AcDbEntity
  8
LAYER_1
 62
     7
100
AcDbVertex
100
AcDb2dVertex
 10
2.817825480161164
 20
4.370038689089403
 30
0.0
  0
VERTEX
  5
8B
330
89
100
AcDbEntity
  8
LAYER_1
 62
     7
100
AcDbVertex
100
AcDb2dVertex
 10
2.828825378908042
 20
4.463341159471365
 30
0.0
  0
SEQEND
  5
8C
330
89
100
AcDbEntity
  8
LAYER_1
  0
POLYLINE
  5
8D
330
75
100
AcDbEntity
  8
LAYER_1
 62
     7
100
AcDb2dPolyline
 66
     1
 10
0.0
 20
0.0
 30
0.0
  0
VERTEX
  5
8E
330
8D
100
AcDbEntity
  8
LAYER_1
 62
     7
100
AcDbVertex
100
AcDb2dVertex
 10
2.708748802328377
 20
4.38292389723926
 30
0.0
  0
VERTEX
  5
8F
330
8D
100
AcDbEntity
  8
LAYER_1
 62
     7
100
AcDbVertex
100
AcDb2dVertex
 10
2.719775827829254
 20
4.476226367621222
 30
0.0
  0
SEQEND
  5
90
330
8D
100
AcDbEntity
  8
LAYER_1
  0
POLYLINE
  5
91
330
75
100
AcDbEntity
  8
LAYER_1
 62
     7
100
AcDb2dPolyline
 66
     1
 10
0.0
 20
0.0
 30
0.0
  0
VERTEX
  5
92
330
91
100
AcDbEntity
  8
LAYER_1
 62
     7
100
AcDbVertex
100
AcDb2dVertex
 10
2.824186703974093
 20
4.463883694551359
 30
0.0
  0
VERTEX
  5
93
330
91
100
AcDbEntity
  8
LAYER_1
 62
     7
100
AcDbVertex
100
AcDb2dVertex
 10
2.724441629517202
 20
4.475670269164228
 30
0.0
  0
SEQEND
  5
94
330
91
100
AcDbEntity
  8
LAYER_1
  0
POLYLINE
  5
95
330
75
100
AcDbEntity
  8
LAYER_1
 62
     7
100
AcDb2dPolyline
 66
     1
 10
0.0
 20
0.0
 30
0.0
  0
VERTEX
  5
96
330
95
100
AcDbEntity
  8
LAYER_1
 62
     7
100
AcDbVertex
100
AcDb2dVertex
 10
2.817825480161164
 20
4.370038689089403
 30
0.0
  0
VERTEX
  5
97
330
95
100
AcDbEntity
  8
LAYER_1
 62
     7
100
AcDbVertex
100
AcDb2dVertex
 10
2.886198463617404
 20
4.361954916397493
 30
0.0
  0
SEQEND
  5
98
330
95
100
AcDbEntity
  8
LAYER_1
  0
POLYLINE
  5
99
330
75
100
AcDbEntity
  8
LAYER_1
 62
     7
100
AcDb2dPolyline
 66
     1
 10
0.0
 20
0.0
 30
0.0
  0
VERTEX
  5
9A
330
99
100
AcDbEntity
  8
LAYER_1
 62
     7
100
AcDbVertex
100
AcDb2dVertex
 10
2.80291932883833
 20
4.244156987153803
 30
0.0
  0
VERTEX
  5
9B
330
99
100
AcDbEntity
  8
LAYER_1
 62
     7
100
AcDbVertex
100
AcDb2dVertex
 10
2.871319439048569
 20
4.236059651084893
 30
0.0
  0
SEQEND
  5
9C
330
99
100
AcDbEntity
  8
LAYER_1
  0
POLYLINE
  5
9D
330
75
100
AcDbEntity
  8
LAYER_1
 62
     7
100
AcDb2dPolyline
 66
     1
 10
0.0
 20
0.0
 30
0.0
  0
VERTEX
  5
9E
330
9D
100
AcDbEntity
  8
LAYER_1
 62
     7
100
AcDbVertex
100
AcDb2dVertex
 10
2.625469667549303
 20
4.265112404618569
 30
0.0
  0
VERTEX
  5
9F
330
9D
100
AcDbEntity
  8
LAYER_1
 62
     7
100
AcDbVertex
100
AcDb2dVertex
 10
2.693869777759542
 20
4.257028631926659
 30
0.0
  0
SEQEND
  5
A0
330
9D
100
AcDbEntity
  8
LAYER_1
  0
POLYLINE
  5
A1
330
75
100
AcDbEntity
  8
LAYER_1
 62
     7
100
AcDb2dPolyline
 66
     1
 10
0.0
 20
0.0
 30
0.0
  0
VERTEX
  5
A2
330
A1
100
AcDbEntity
  8
LAYER_1
 62
     7
100
AcDbVertex
100
AcDb2dVertex
 10
2.886198463617404
 20
4.361954916397493
 30
0.0
  0
VERTEX
  5
A3
330
A1
100
AcDbEntity
  8
LAYER_1
 62
     7
100
AcDbVertex
100
AcDb2dVertex
 10
2.871319439048569
 20
4.236059651084893
 30
0.0
  0
SEQEND
  5
A4
330
A1
100
AcDbEntity
  8
LAYER_1
  0
POLYLINE
  5
A5
330
75
100
AcDbEntity
  8
LAYER_1
 62
     7
100
AcDb2dPolyline
 66
     1
 10
0.0
 20
0.0
 30
0.0
  0
VERTEX
  5
A6
330
A5
100
AcDbEntity
  8
LAYER_1
 62
     7
100
AcDbVertex
100
AcDb2dVertex
 10
2.640321565364138
 20
4.391007669931169
 30
0.0
  0
VERTEX
  5
A7
330
A5
100
AcDbEntity
  8
LAYER_1
 62
     7
100
AcDbVertex
100
AcDb2dVertex
 10
2.708748802328377
 20
4.38292389723926
 30
0.0
  0
SEQEND
  5
A8
330
A5
100
AcDbEntity
  8
LAYER_1
  0
POLYLINE
  5
A9
330
75
100
AcDbEntity
  8
LAYER_1
 62
     7
100
AcDb2dPolyline
 66
     1
 10
0.0
 20
0.0
 30
0.0
  0
VERTEX
  5
AA
330
A9
100
AcDbEntity
  8
LAYER_1
 62
     7
100
AcDbVertex
100
AcDb2dVertex
 10
2.640321565364138
 20
4.391007669931169
 30
0.0
  0
VERTEX
  5
AB
330
A9
100
AcDbEntity
  8
LAYER_1
 62
     7
100
AcDbVertex
100
AcDb2dVertex
 10
2.625469667549303
 20
4.265112404618569
 30
0.0
  0
SEQEND
  5
AC
330
A9
100
AcDbEntity
  8
LAYER_1
  0
POLYLINE
  5
AD
330
75
100
AcDbEntity
  8
LAYER_1
 62
     7
100
AcDb2dPolyline
 66
     1
 10
0.0
 20
0.0
 30
0.0
  0
VERTEX
  5
AE
330
AD
100
AcDbEntity
  8
LAYER_1
 62
     7
100
AcDbVertex
100
AcDb2dVertex
 10
2.686972800555119
 20
4.198665420696308
 30
0.0
  0
VERTEX
  5
143
330
AD
100
AcDbEntity
  8
0
100
AcDbVertex
100
AcDb2dVertex
 10
2.686972800555119
 20
4.198665420696308
 30
0.0
  0
SEQEND
  5
AF
330
AD
100
AcDbEntity
  8
LAYER_1
  0
POLYLINE
  5
B0
330
75
100
AcDbEntity
  8
LAYER_1
 62
     7
100
AcDb2dPolyline
 66
     1
 10
0.0
 20
0.0
 30
0.0
  0
VERTEX
  5
B1
330
B0
100
AcDbEntity
  8
LAYER_1
 62
     7
100
AcDbVertex
100
AcDb2dVertex
 10
2.550538791313636
 20
4.214778712572129
 30
0.0
  0
VERTEX
  5
B2
330
B0
100
AcDbEntity
  8
LAYER_1
 62
     7
100
AcDbVertex
100
AcDb2dVertex
 10
2.53763323809828
 20
4.105715598116342
 30
0.0
  0
SEQEND
  5
B3
330
B0
100
AcDbEntity
  8
LAYER_1
  0
SPLINE
  5
B4
330
75
100
AcDbEntity
  8
LAYER_1
 62
     7
100
AcDbSpline
210
0.0
220
0.0
230
1.0
 70
     8
 71
     3
 72
    26
 73
    22
 74
     0
 42
0.0000000001
 43
0.0000000001
 40
0.0
 40
0.0
 40
0.0
 40
0.0
 40
1.0
 40
1.0
 40
1.0
 40
2.0
 40
2.0
 40
2.0
 40
3.0
 40
3.0
 40
3.0
 40
4.0
 40
4.0
 40
4.0
 40
5.0
 40
5.0
 40
5.0
 40
6.0
 40
6.0
 40
6.0
 40
7.0
 40
7.0
 40
7.0
 40
7.0
 10
3.097264954800556
 20
4.150149221167847
 30
0.0
 10
3.127918186820215
 20
4.53123942473261
 30
0.0
 10
3.224218163519145
 20
5.788279641701631
 30
0.0
 10
3.177621181836163
 20
5.995046542375832
 30
0.0
 10
3.122580997970775
 20
6.239302617077615
 30
0.0
 10
2.894682355930809
 20
7.210264086365817
 30
0.0
 10
3.044333876058645
 20
7.884865768207316
 30
0.0
 10
3.193992177874981
 20
8.559453886671815
 30
0.0
 10
3.574743297014747
 20
8.94101880843157
 30
0.0
 10
3.651857876947389
 20
9.001836990898894
 30
0.0
 10
3.728965675191532
 20
9.062648391677717
 30
0.0
 10
4.264013771081582
 20
9.6847055510218
 30
0.0
 10
4.240935685116338
 20
9.785332244983682
 30
0.0
 10
4.217871162528095
 20
9.885958938945562
 30
0.0
 10
4.058874475647363
 20
9.96068636452623
 30
0.0
 10
3.958254563373982
 20
9.937615060249488
 30
0.0
 10
3.857634651100601
 20
9.914543755972744
 30
0.0
 10
3.005786758625074
 20
8.6236561317006
 30
0.0
 10
2.823454281616101
 20
7.945934873149136
 30
0.0
 10
2.641128586295629
 20
7.268200051220673
 30
0.0
 10
2.38480110606398
 20
4.234364228959912
 30
0.0
 10
2.38480110606398
 20
4.234364228959912
 30
0.0
  0
POLYLINE
  5
B5
330
75
100
AcDbEntity
  8
LAYER_1
 62
     7
100
AcDb2dPolyline
 66
     1
 10
0.0
 20
0.0
 30
0.0
  0
VERTEX
  5
B6
330
B5
100
AcDbEntity
  8
LAYER_1
 62
     7
100
AcDbVertex
100
AcDb2dVertex
 10
2.922568659042499
 20
4.060224031658848
 30
0.0
  0
VERTEX
  5
B7
330
B5
100
AcDbEntity
  8
LAYER_1
 62
     7
100
AcDbVertex
100
AcDb2dVertex
 10
2.935453867192356
 20
4.169273582737635
 30
0.0
  0
SEQEND
  5
B8
330
B5
100
AcDbEntity
  8
LAYER_1
  0
POLYLINE
  5
B9
330
75
100
AcDbEntity
  8
LAYER_1
 62
     7
100
AcDb2dPolyline
 66
     1
 10
0.0
 20
0.0
 30
0.0
  0
VERTEX
  5
BA
330
B9
100
AcDbEntity
  8
LAYER_1
 62
     7
100
AcDbVertex
100
AcDb2dVertex
 10
2.796022351633907
 20
4.185753085792452
 30
0.0
  0
VERTEX
  5
144
330
B9
100
AcDbEntity
  8
0
100
AcDbVertex
100
AcDb2dVertex
 10
2.796022351633907
 20
4.185753085792452
 30
0.0
  0
SEQEND
  5
BB
330
B9
100
AcDbEntity
  8
LAYER_1
  0
POLYLINE
  5
BC
330
75
100
AcDbEntity
  8
LAYER_1
 62
     7
100
AcDb2dPolyline
 66
     1
 10
0.0
 20
0.0
 30
0.0
  0
VERTEX
  5
BD
330
BC
100
AcDbEntity
  8
LAYER_1
 62
     7
100
AcDbVertex
100
AcDb2dVertex
 10
2.922568659042499
 20
4.060224031658848
 30
0.0
  0
VERTEX
  5
BE
330
BC
100
AcDbEntity
  8
LAYER_1
 62
     7
100
AcDbVertex
100
AcDb2dVertex
 10
3.0843797466507
 20
4.041099670089061
 30
0.0
  0
SEQEND
  5
BF
330
BC
100
AcDbEntity
  8
LAYER_1
  0
POLYLINE
  5
C0
330
75
100
AcDbEntity
  8
LAYER_1
 62
     7
100
AcDb2dPolyline
 66
     1
 10
0.0
 20
0.0
 30
0.0
  0
VERTEX
  5
C1
330
C0
100
AcDbEntity
  8
LAYER_1
 62
     7
100
AcDbVertex
100
AcDb2dVertex
 10
3.097264954800556
 20
4.150149221167847
 30
0.0
  0
VERTEX
  5
C2
330
C0
100
AcDbEntity
  8
LAYER_1
 62
     7
100
AcDbVertex
100
AcDb2dVertex
 10
3.0843797466507
 20
4.041099670089061
 30
0.0
  0
SEQEND
  5
C3
330
C0
100
AcDbEntity
  8
LAYER_1
  0
POLYLINE
  5
C4
330
75
100
AcDbEntity
  8
LAYER_1
 62
     7
100
AcDb2dPolyline
 66
     1
 10
0.0
 20
0.0
 30
0.0
  0
VERTEX
  5
C5
330
C4
100
AcDbEntity
  8
LAYER_1
 62
     7
100
AcDbVertex
100
AcDb2dVertex
 10
2.935453867192356
 20
4.169273582737635
 30
0.0
  0
VERTEX
  5
C6
330
C4
100
AcDbEntity
  8
LAYER_1
 62
     7
100
AcDbVertex
100
AcDb2dVertex
 10
2.796022351633907
 20
4.185753085792452
 30
0.0
  0
SEQEND
  5
C7
330
C4
100
AcDbEntity
  8
LAYER_1
  0
POLYLINE
  5
C8
330
75
100
AcDbEntity
  8
LAYER_1
 62
     7
100
AcDb2dPolyline
 66
     1
 10
0.0
 20
0.0
 30
0.0
  0
VERTEX
  5
C9
330
C8
100
AcDbEntity
  8
LAYER_1
 62
     7
100
AcDbVertex
100
AcDb2dVertex
 10
2.53763323809828
 20
4.105715598116342
 30
0.0
  0
VERTEX
  5
CA
330
C8
100
AcDbEntity
  8
LAYER_1
 62
     7
100
AcDbVertex
100
AcDb2dVertex
 10
2.371915897914123
 20
4.125287551127125
 30
0.0
  0
SEQEND
  5
CB
330
C8
100
AcDbEntity
  8
LAYER_1
  0
POLYLINE
  5
CC
330
75
100
AcDbEntity
  8
LAYER_1
 62
     7
100
AcDb2dPolyline
 66
     1
 10
0.0
 20
0.0
 30
0.0
  0
VERTEX
  5
CD
330
CC
100
AcDbEntity
  8
LAYER_1
 62
     7
100
AcDbVertex
100
AcDb2dVertex
 10
2.38480110606398
 20
4.234364228959912
 30
0.0
  0
VERTEX
  5
CE
330
CC
100
AcDbEntity
  8
LAYER_1
 62
     7
100
AcDbVertex
100
AcDb2dVertex
 10
2.371915897914123
 20
4.125287551127125
 30
0.0
  0
SEQEND
  5
CF
330
CC
100
AcDbEntity
  8
LAYER_1
  0
POLYLINE
  5
D0
330
75
100
AcDbEntity
  8
LAYER_1
 62
     7
100
AcDb2dPolyline
 66
     1
 10
0.0
 20
0.0
 30
0.0
  0
VERTEX
  5
D1
330
D0
100
AcDbEntity
  8
LAYER_1
 62
     7
100
AcDbVertex
100
AcDb2dVertex
 10
2.550538791313636
 20
4.214778712572129
 30
0.0
  0
VERTEX
  5
D2
330
D0
100
AcDbEntity
  8
LAYER_1
 62
     7
100
AcDbVertex
100
AcDb2dVertex
 10
2.686972800555119
 20
4.198665420696308
 30
0.0
  0
SEQEND
  5
D3
330
D0
100
AcDbEntity
  8
LAYER_1
  0
POLYLINE
  5
D4
330
75
100
AcDbEntity
  8
LAYER_1
 62
     7
100
AcDb2dPolyline
 66
     1
 10
0.0
 20
0.0
 30
0.0
  0
VERTEX
  5
D5
330
D4
100
AcDbEntity
  8
LAYER_1
 62
     7
100
AcDbVertex
100
AcDb2dVertex
 10
2.686972800555119
 20
4.198665420696308
 30
0.0
  0
VERTEX
  5
D6
330
D4
100
AcDbEntity
  8
LAYER_1
 62
     7
100
AcDbVertex
100
AcDb2dVertex
 10
2.796022351633907
 20
4.185753085792452
 30
0.0
  0
SEQEND
  5
D7
330
D4
100
AcDbEntity
  8
LAYER_1
  0
POLYLINE
  5
D8
330
75
100
AcDbEntity
  8
LAYER_1
 62
     7
100
AcDb2dPolyline
 66
     1
 10
0.0
 20
0.0
 30
0.0
  0
VERTEX
  5
D9
330
D8
100
AcDbEntity
  8
LAYER_1
 62
     7
100
AcDbVertex
100
AcDb2dVertex
 10
2.53763323809828
 20
4.105715598116342
 30
0.0
  0
VERTEX
  5
DA
330
D8
100
AcDbEntity
  8
LAYER_1
 62
     7
100
AcDbVertex
100
AcDb2dVertex
 10
2.922568659042499
 20
4.060224031658848
 30
0.0
  0
SEQEND
  5
DB
330
D8
100
AcDbEntity
  8
LAYER_1
  0
ENDBLK
  5
78
330
75
100
AcDbEntity
  8
0
100
AcDbBlockEnd
  0
BLOCK
  5
DE
330
DC
100
AcDbEntity
  8
0
100
AcDbBlockBegin
  2
BLOCK_4
 70
     0
 71
     0
 10
0.0
 20
0.0
 30
0.0
  3
BLOCK_4
  1

  0
POLYLINE
  5
E0
330
DC
100
AcDbEntity
  8
LAYER_1
 62
     7
100
AcDb2dPolyline
 66
     1
 10
0.0
 20
0.0
 30
0.0
  0
VERTEX
  5
E1
330
E0
100
AcDbEntity
  8
LAYER_1
 62
     7
100
AcDbVertex
100
AcDb2dVertex
 10
5.806847904814425
 20
7.118141629782842
 30
0.0
  0
VERTEX
  5
E2
330
E0
100
AcDbEntity
  8
LAYER_1
 62
     7
100
AcDbVertex
100
AcDb2dVertex
 10
5.799971272675501
 20
7.059751291798491
 30
0.0
  0
SEQEND
  5
E3
330
E0
100
AcDbEntity
  8
LAYER_1
  0
POLYLINE
  5
E4
330
DC
100
AcDbEntity
  8
LAYER_1
 62
     7
100
AcDb2dPolyline
 66
     1
 10
0.0
 20
0.0
 30
0.0
  0
VERTEX
  5
E5
330
E4
100
AcDbEntity
  8
LAYER_1
 62
     7
100
AcDbVertex
100
AcDb2dVertex
 10
5.915911019270212
 20
7.105263203321485
 30
0.0
  0
VERTEX
  5
E6
330
E4
100
AcDbEntity
  8
LAYER_1
 62
     7
100
AcDbVertex
100
AcDb2dVertex
 10
5.909020823754288
 20
7.046893210402635
 30
0.0
  0
SEQEND
  5
E7
330
E4
100
AcDbEntity
  8
LAYER_1
  0
POLYLINE
  5
E8
330
DC
100
AcDbEntity
  8
LAYER_1
 62
     7
100
AcDb2dPolyline
 66
     1
 10
0.0
 20
0.0
 30
0.0
  0
VERTEX
  5
E9
330
E8
100
AcDbEntity
  8
LAYER_1
 62
     7
100
AcDbVertex
100
AcDb2dVertex
 10
5.778744587670737
 20
6.840004239335435
 30
0.0
  0
VERTEX
  5
EA
330
E8
100
AcDbEntity
  8
LAYER_1
 62
     7
100
AcDbVertex
100
AcDb2dVertex
 10
5.774119476113788
 20
6.840553556103929
 30
0.0
  0
SEQEND
  5
EB
330
E8
100
AcDbEntity
  8
LAYER_1
  0
POLYLINE
  5
EC
330
DC
100
AcDbEntity
  8
LAYER_1
 62
     7
100
AcDb2dPolyline
 66
     1
 10
0.0
 20
0.0
 30
0.0
  0
VERTEX
  5
ED
330
EC
100
AcDbEntity
  8
LAYER_1
 62
     7
100
AcDbVertex
100
AcDb2dVertex
 10
5.878503225504628
 20
6.828251573165065
 30
0.0
  0
VERTEX
  5
EE
330
EC
100
AcDbEntity
  8
LAYER_1
 62
     7
100
AcDbVertex
100
AcDb2dVertex
 10
5.883169027192576
 20
6.827688693019572
 30
0.0
  0
SEQEND
  5
EF
330
EC
100
AcDbEntity
  8
LAYER_1
  0
POLYLINE
  5
F0
330
DC
100
AcDbEntity
  8
LAYER_1
 62
     7
100
AcDb2dPolyline
 66
     1
 10
0.0
 20
0.0
 30
0.0
  0
VERTEX
  5
F1
330
F0
100
AcDbEntity
  8
LAYER_1
 62
     7
100
AcDbVertex
100
AcDb2dVertex
 10
5.785092248106666
 20
6.933862808174391
 30
0.0
  0
VERTEX
  5
F2
330
F0
100
AcDbEntity
  8
LAYER_1
 62
     7
100
AcDbVertex
100
AcDb2dVertex
 10
5.774119476113788
 20
6.840553556103929
 30
0.0
  0
SEQEND
  5
F3
330
F0
100
AcDbEntity
  8
LAYER_1
  0
POLYLINE
  5
F4
330
DC
100
AcDbEntity
  8
LAYER_1
 62
     7
100
AcDb2dPolyline
 66
     1
 10
0.0
 20
0.0
 30
0.0
  0
VERTEX
  5
F5
330
F4
100
AcDbEntity
  8
LAYER_1
 62
     7
100
AcDbVertex
100
AcDb2dVertex
 10
5.894168925939454
 20
6.920997945090035
 30
0.0
  0
VERTEX
  5
F6
330
F4
100
AcDbEntity
  8
LAYER_1
 62
     7
100
AcDbVertex
100
AcDb2dVertex
 10
5.883169027192576
 20
6.827688693019572
 30
0.0
  0
SEQEND
  5
F7
330
F4
100
AcDbEntity
  8
LAYER_1
  0
POLYLINE
  5
F8
330
DC
100
AcDbEntity
  8
LAYER_1
 62
     7
100
AcDb2dPolyline
 66
     1
 10
0.0
 20
0.0
 30
0.0
  0
VERTEX
  5
F9
330
F8
100
AcDbEntity
  8
LAYER_1
 62
     7
100
AcDbVertex
100
AcDb2dVertex
 10
5.778744587670737
 20
6.840004239335435
 30
0.0
  0
VERTEX
  5
FA
330
F8
100
AcDbEntity
  8
LAYER_1
 62
     7
100
AcDbVertex
100
AcDb2dVertex
 10
5.878503225504628
 20
6.828251573165065
 30
0.0
  0
SEQEND
  5
FB
330
F8
100
AcDbEntity
  8
LAYER_1
  0
POLYLINE
  5
FC
330
DC
100
AcDbEntity
  8
LAYER_1
 62
     7
100
AcDb2dPolyline
 66
     1
 10
0.0
 20
0.0
 30
0.0
  0
VERTEX
  5
FD
330
FC
100
AcDbEntity
  8
LAYER_1
 62
     7
100
AcDbVertex
100
AcDb2dVertex
 10
5.785092248106666
 20
6.933862808174391
 30
0.0
  0
VERTEX
  5
FE
330
FC
100
AcDbEntity
  8
LAYER_1
 62
     7
100
AcDbVertex
100
AcDb2dVertex
 10
5.716719264650426
 20
6.941926235800802
 30
0.0
  0
SEQEND
  5
FF
330
FC
100
AcDbEntity
  8
LAYER_1
  0
POLYLINE
  5
100
330
DC
100
AcDbEntity
  8
LAYER_1
 62
     7
100
AcDb2dPolyline
 66
     1
 10
0.0
 20
0.0
 30
0.0
  0
VERTEX
  5
101
330
100
100
AcDbEntity
  8
LAYER_1
 62
     7
100
AcDbVertex
100
AcDb2dVertex
 10
5.799971272675501
 20
7.059751291798491
 30
0.0
  0
VERTEX
  5
102
330
100
100
AcDbEntity
  8
LAYER_1
 62
     7
100
AcDbVertex
100
AcDb2dVertex
 10
5.731571162465261
 20
7.067814719424901
 30
0.0
  0
SEQEND
  5
103
330
100
100
AcDbEntity
  8
LAYER_1
  0
POLYLINE
  5
104
330
DC
100
AcDbEntity
  8
LAYER_1
 62
     7
100
AcDb2dPolyline
 66
     1
 10
0.0
 20
0.0
 30
0.0
  0
VERTEX
  5
105
330
104
100
AcDbEntity
  8
LAYER_1
 62
     7
100
AcDbVertex
100
AcDb2dVertex
 10
5.977420933964527
 20
7.038829782776224
 30
0.0
  0
VERTEX
  5
106
330
104
100
AcDbEntity
  8
LAYER_1
 62
     7
100
AcDbVertex
100
AcDb2dVertex
 10
5.909020823754288
 20
7.046893210402635
 30
0.0
  0
SEQEND
  5
107
330
104
100
AcDbEntity
  8
LAYER_1
  0
POLYLINE
  5
108
330
DC
100
AcDbEntity
  8
LAYER_1
 62
     7
100
AcDb2dPolyline
 66
     1
 10
0.0
 20
0.0
 30
0.0
  0
VERTEX
  5
109
330
108
100
AcDbEntity
  8
LAYER_1
 62
     7
100
AcDbVertex
100
AcDb2dVertex
 10
5.716719264650426
 20
6.941926235800802
 30
0.0
  0
VERTEX
  5
10A
330
108
100
AcDbEntity
  8
LAYER_1
 62
     7
100
AcDbVertex
100
AcDb2dVertex
 10
5.731571162465261
 20
7.067814719424901
 30
0.0
  0
SEQEND
  5
10B
330
108
100
AcDbEntity
  8
LAYER_1
  0
POLYLINE
  5
10C
330
DC
100
AcDbEntity
  8
LAYER_1
 62
     7
100
AcDb2dPolyline
 66
     1
 10
0.0
 20
0.0
 30
0.0
  0
VERTEX
  5
10D
330
10C
100
AcDbEntity
  8
LAYER_1
 62
     7
100
AcDbVertex
100
AcDb2dVertex
 10
5.962596162903693
 20
6.912920954086625
 30
0.0
  0
VERTEX
  5
10E
330
10C
100
AcDbEntity
  8
LAYER_1
 62
     7
100
AcDbVertex
100
AcDb2dVertex
 10
5.894168925939454
 20
6.920997945090035
 30
0.0
  0
SEQEND
  5
10F
330
10C
100
AcDbEntity
  8
LAYER_1
  0
POLYLINE
  5
110
330
DC
100
AcDbEntity
  8
LAYER_1
 62
     7
100
AcDb2dPolyline
 66
     1
 10
0.0
 20
0.0
 30
0.0
  0
VERTEX
  5
111
330
110
100
AcDbEntity
  8
LAYER_1
 62
     7
100
AcDbVertex
100
AcDb2dVertex
 10
5.962596162903693
 20
6.912920954086625
 30
0.0
  0
VERTEX
  5
112
330
110
100
AcDbEntity
  8
LAYER_1
 62
     7
100
AcDbVertex
100
AcDb2dVertex
 10
5.977420933964527
 20
7.038829782776224
 30
0.0
  0
SEQEND
  5
113
330
110
100
AcDbEntity
  8
LAYER_1
  0
POLYLINE
  5
114
330
DC
100
AcDbEntity
  8
LAYER_1
 62
     7
100
AcDb2dPolyline
 66
     1
 10
0.0
 20
0.0
 30
0.0
  0
VERTEX
  5
115
330
114
100
AcDbEntity
  8
LAYER_1
 62
     7
100
AcDbVertex
100
AcDb2dVertex
 10
5.915911019270212
 20
7.105263203321485
 30
0.0
  0
VERTEX
  5
145
330
114
100
AcDbEntity
  8
0
100
AcDbVertex
100
AcDb2dVertex
 10
5.915911019270212
 20
7.105263203321485
 30
0.0
  0
SEQEND
  5
116
330
114
100
AcDbEntity
  8
LAYER_1
  0
POLYLINE
  5
117
330
DC
100
AcDbEntity
  8
LAYER_1
 62
     7
100
AcDb2dPolyline
 66
     1
 10
0.0
 20
0.0
 30
0.0
  0
VERTEX
  5
118
330
117
100
AcDbEntity
  8
LAYER_1
 62
     7
100
AcDbVertex
100
AcDb2dVertex
 10
6.052345028511694
 20
7.089170256511165
 30
0.0
  0
VERTEX
  5
119
330
117
100
AcDbEntity
  8
LAYER_1
 62
     7
100
AcDbVertex
100
AcDb2dVertex
 10
6.065216673284551
 20
7.198253716032451
 30
0.0
  0
SEQEND
  5
11A
330
117
100
AcDbEntity
  8
LAYER_1
  0
SPLINE
  5
11B
330
DC
100
AcDbEntity
  8
LAYER_1
 62
     7
100
AcDbSpline
210
0.0
220
0.0
230
1.0
 70
     8
 71
     3
 72
    26
 73
    22
 74
     0
 42
0.0000000001
 43
0.0000000001
 40
0.0
 40
0.0
 40
0.0
 40
0.0
 40
1.0
 40
1.0
 40
1.0
 40
2.0
 40
2.0
 40
2.0
 40
3.0
 40
3.0
 40
3.0
 40
4.0
 40
4.0
 40
4.0
 40
5.0
 40
5.0
 40
5.0
 40
6.0
 40
6.0
 40
6.0
 40
7.0
 40
7.0
 40
7.0
 40
7.0
 10
5.505605301647774
 20
7.153670895833947
 30
0.0
 10
5.475019886513114
 20
6.772587473957685
 30
0.0
 10
5.379018304108182
 20
5.515526911923164
 30
0.0
 10
5.425662757610663
 20
5.308760011248963
 30
0.0
 10
5.480757194984051
 20
5.064524281612679
 30
0.0
 10
5.708879632744514
 20
4.093603502455477
 30
0.0
 10
5.559370528075177
 20
3.418988257236979
 30
0.0
 10
5.40986142340584
 20
2.744359448641481
 30
0.0
 10
5.029218811282072
 20
2.362699583242725
 30
0.0
 10
4.952111013037929
 20
2.301881400775402
 30
0.0
 10
4.875016778170787
 20
2.241036091554078
 30
0.0
 10
4.340104316050735
 20
1.618856861816997
 30
0.0
 10
4.363216310458478
 20
1.518230167855116
 30
0.0
 10
4.386301178112221
 20
1.417630600647235
 30
0.0
 10
4.545304646681453
 20
1.342909956755066
 30
0.0
 10
4.645931340643335
 20
1.366021951162809
 30
0.0
 10
4.746558034605216
 20
1.389106818816552
 30
0.0
 10
5.598093969409746
 20
2.680191112055195
 30
0.0
 10
5.78026368589472
 20
3.357966624114658
 30
0.0
 10
5.962446965756694
 20
4.035728572797121
 30
0.0
 10
6.218075932072852
 20
7.069638993631381
 30
0.0
 10
6.218075932072852
 20
7.069638993631381
 30
0.0
  0
POLYLINE
  5
11C
330
DC
100
AcDbEntity
  8
LAYER_1
 62
     7
100
AcDb2dPolyline
 66
     1
 10
0.0
 20
0.0
 30
0.0
  0
VERTEX
  5
11D
330
11C
100
AcDbEntity
  8
LAYER_1
 62
     7
100
AcDbVertex
100
AcDb2dVertex
 10
5.680274470651832
 20
7.243657120539447
 30
0.0
  0
VERTEX
  5
11E
330
11C
100
AcDbEntity
  8
LAYER_1
 62
     7
100
AcDbVertex
100
AcDb2dVertex
 10
5.667416389255975
 20
7.134587224395159
 30
0.0
  0
SEQEND
  5
11F
330
11C
100
AcDbEntity
  8
LAYER_1
  0
POLYLINE
  5
120
330
DC
100
AcDbEntity
  8
LAYER_1
 62
     7
100
AcDb2dPolyline
 66
     1
 10
0.0
 20
0.0
 30
0.0
  0
VERTEX
  5
121
330
120
100
AcDbEntity
  8
LAYER_1
 62
     7
100
AcDbVertex
100
AcDb2dVertex
 10
5.806847904814425
 20
7.118141629782842
 30
0.0
  0
VERTEX
  5
146
330
120
100
AcDbEntity
  8
0
100
AcDbVertex
100
AcDb2dVertex
 10
5.806847904814425
 20
7.118141629782842
 30
0.0
  0
SEQEND
  5
122
330
120
100
AcDbEntity
  8
LAYER_1
  0
POLYLINE
  5
123
330
DC
100
AcDbEntity
  8
LAYER_1
 62
     7
100
AcDb2dPolyline
 66
     1
 10
0.0
 20
0.0
 30
0.0
  0
VERTEX
  5
124
330
123
100
AcDbEntity
  8
LAYER_1
 62
     7
100
AcDbVertex
100
AcDb2dVertex
 10
5.680274470651832
 20
7.243657120539447
 30
0.0
  0
VERTEX
  5
125
330
123
100
AcDbEntity
  8
LAYER_1
 62
     7
100
AcDbVertex
100
AcDb2dVertex
 10
5.518449819666632
 20
7.262740791978234
 30
0.0
  0
SEQEND
  5
126
330
123
100
AcDbEntity
  8
LAYER_1
  0
POLYLINE
  5
127
330
DC
100
AcDbEntity
  8
LAYER_1
 62
     7
100
AcDb2dPolyline
 66
     1
 10
0.0
 20
0.0
 30
0.0
  0
VERTEX
  5
128
330
127
100
AcDbEntity
  8
LAYER_1
 62
     7
100
AcDbVertex
100
AcDb2dVertex
 10
5.505605301647774
 20
7.153670895833947
 30
0.0
  0
VERTEX
  5
129
330
127
100
AcDbEntity
  8
LAYER_1
 62
     7
100
AcDbVertex
100
AcDb2dVertex
 10
5.518449819666632
 20
7.262740791978234
 30
0.0
  0
SEQEND
  5
12A
330
127
100
AcDbEntity
  8
LAYER_1
  0
POLYLINE
  5
12B
330
DC
100
AcDbEntity
  8
LAYER_1
 62
     7
100
AcDb2dPolyline
 66
     1
 10
0.0
 20
0.0
 30
0.0
  0
VERTEX
  5
12C
330
12B
100
AcDbEntity
  8
LAYER_1
 62
     7
100
AcDbVertex
100
AcDb2dVertex
 10
5.667416389255975
 20
7.134587224395159
 30
0.0
  0
VERTEX
  5
12D
330
12B
100
AcDbEntity
  8
LAYER_1
 62
     7
100
AcDbVertex
100
AcDb2dVertex
 10
5.806847904814425
 20
7.118141629782842
 30
0.0
  0
SEQEND
  5
12E
330
12B
100
AcDbEntity
  8
LAYER_1
  0
POLYLINE
  5
12F
330
DC
100
AcDbEntity
  8
LAYER_1
 62
     7
100
AcDb2dPolyline
 66
     1
 10
0.0
 20
0.0
 30
0.0
  0
VERTEX
  5
130
330
12F
100
AcDbEntity
  8
LAYER_1
 62
     7
100
AcDbVertex
100
AcDb2dVertex
 10
6.065216673284551
 20
7.198253716032451
 30
0.0
  0
VERTEX
  5
131
330
12F
100
AcDbEntity
  8
LAYER_1
 62
     7
100
AcDbVertex
100
AcDb2dVertex
 10
6.230947576845709
 20
7.178702108087169
 30
0.0
  0
SEQEND
  5
132
330
12F
100
AcDbEntity
  8
LAYER_1
  0
POLYLINE
  5
133
330
DC
100
AcDbEntity
  8
LAYER_1
 62
     7
100
AcDb2dPolyline
 66
     1
 10
0.0
 20
0.0
 30
0.0
  0
VERTEX
  5
134
330
133
100
AcDbEntity
  8
LAYER_1
 62
     7
100
AcDbVertex
100
AcDb2dVertex
 10
6.218075932072852
 20
7.069638993631381
 30
0.0
  0
VERTEX
  5
135
330
133
100
AcDbEntity
  8
LAYER_1
 62
     7
100
AcDbVertex
100
AcDb2dVertex
 10
6.230947576845709
 20
7.178702108087169
 30
0.0
  0
SEQEND
  5
136
330
133
100
AcDbEntity
  8
LAYER_1
  0
POLYLINE
  5
137
330
DC
100
AcDbEntity
  8
LAYER_1
 62
     7
100
AcDb2dPolyline
 66
     1
 10
0.0
 20
0.0
 30
0.0
  0
VERTEX
  5
138
330
137
100
AcDbEntity
  8
LAYER_1
 62
     7
100
AcDbVertex
100
AcDb2dVertex
 10
6.052345028511694
 20
7.089170256511165
 30
0.0
  0
VERTEX
  5
139
330
137
100
AcDbEntity
  8
LAYER_1
 62
     7
100
AcDbVertex
100
AcDb2dVertex
 10
5.915911019270212
 20
7.105263203321485
 30
0.0
  0
SEQEND
  5
13A
330
137
100
AcDbEntity
  8
LAYER_1
  0
POLYLINE
  5
13B
330
DC
100
AcDbEntity
  8
LAYER_1
 62
     7
100
AcDb2dPolyline
 66
     1
 10
0.0
 20
0.0
 30
0.0
  0
VERTEX
  5
13C
330
13B
100
AcDbEntity
  8
LAYER_1
 62
     7
100
AcDbVertex
100
AcDb2dVertex
 10
5.680274470651832
 20
7.243657120539447
 30
0.0
  0
VERTEX
  5
13D
330
13B
100
AcDbEntity
  8
LAYER_1
 62
     7
100
AcDbVertex
100
AcDb2dVertex
 10
6.065216673284551
 20
7.198253716032451
 30
0.0
  0
SEQEND
  5
13E
330
13B
100
AcDbEntity
  8
LAYER_1
  0
POLYLINE
  5
13F
330
DC
100
AcDbEntity
  8
LAYER_1
 62
     7
100
AcDb2dPolyline
 66
     1
 10
0.0
 20
0.0
 30
0.0
  0
VERTEX
  5
140
330
13F
100
AcDbEntity
  8
LAYER_1
 62
     7
100
AcDbVertex
100
AcDb2dVertex
 10
5.806847904814425
 20
7.118141629782842
 30
0.0
  0
VERTEX
  5
141
330
13F
100
AcDbEntity
  8
LAYER_1
 62
     7
100
AcDbVertex
100
AcDb2dVertex
 10
5.915911019270212
 20
7.105263203321485
 30
0.0
  0
SEQEND
  5
142
330
13F
100
AcDbEntity
  8
LAYER_1
  0
ENDBLK
  5
DF
330
DC
100
AcDbEntity
  8
0
100
AcDbBlockEnd
  0
ENDSEC
  0
SECTION
  2
ENTITIES
  0
INSERT
  5
3D
330
1F
100
AcDbEntity
  8
LAYER_1
100
AcDbBlockReference
  2
BLOCK_2
 10
0.0
 20
0.0
 30
0.0
  0
INSERT
  5
76
330
1F
100
AcDbEntity
  8
LAYER_1
100
AcDbBlockReference
  2
BLOCK_3
 10
0.0
 20
0.0
 30
0.0
  0
INSERT
  5
DD
330
1F
100
AcDbEntity
  8
LAYER_1
100
AcDbBlockReference
  2
BLOCK_4
 10
0.0
 20
0.0
 30
0.0
  0
ENDSEC
  0
SECTION
  2
OBJECTS
  0
DICTIONARY
  5
C
330
0
100
AcDbDictionary
  3
ACAD_GROUP
350
D
  3
ACAD_LAYOUT
350
1A
  3
ACAD_MLINESTYLE
350
17
  3
ACAD_PLOTSETTINGS
350
19
  3
ACAD_TABLESTYLE
350
147
  3
ACAD_VISUALSTYLE
350
2A
1001
ACAD
1000
TREAT_AS_HARD
1070
     0
  0
DICTIONARY
  5
D
102
{ACAD_REACTORS
330
C
102
}
330
C
100
AcDbDictionary
1001
ACAD
1000
TREAT_AS_HARD
1070
     0
  0
DICTIONARY
  5
1A
102
{ACAD_REACTORS
330
C
102
}
330
C
100
AcDbDictionary
1001
ACAD
1000
TREAT_AS_HARD
1070
     0
  0
DICTIONARY
  5
17
102
{ACAD_REACTORS
330
C
102
}
330
C
100
AcDbDictionary
  3
STANDARD
350
18
1001
ACAD
1000
TREAT_AS_HARD
1070
     0
  0
DICTIONARY
  5
19
102
{ACAD_REACTORS
330
C
102
}
330
C
100
AcDbDictionary
1001
ACAD
1000
TREAT_AS_HARD
1070
     0
  0
DICTIONARY
  5
147
102
{ACAD_REACTORS
330
C
102
}
330
C
100
AcDbDictionary
1001
ACAD
1000
TREAT_AS_HARD
1070
     0
  0
DICTIONARY
  5
2A
102
{ACAD_REACTORS
330
C
102
}
330
C
100
AcDbDictionary
  3
2DWIREFRAME
350
2F
  3
3D_HIDDEN
350
31
  3
3DWIREFRAME
350
30
  3
BASIC
350
32
  3
BRIGHTEN
350
36
  3
COLORCHANGE
350
3A
  3
CONCEPTUAL
350
34
  3
DIM
350
35
  3
FACEPATTERN
350
39
  3
FLAT
350
2B
  3
FLATWITHEDGES
350
2C
  3
GOURAUD
350
2D
  3
GOURAUDWITHEDGES
350
2E
  3
LINEPATTERN
350
38
  3
REALISTIC
350
33
  3
THICKEN
350
37
1001
ACAD
1000
TREAT_AS_HARD
1070
     0
  0
MLINESTYLE
  5
18
102
{ACAD_REACTORS
330
17
102
}
330
17
100
AcDbMlineStyle
  2
Standard
 70
     0
  3

 62
   256
 51
90.0
 52
90.0
 71
     2
 49
0.5
 62
   256
  6
BYLAYER
 49
-0.5
 62
   256
  6
BYLAYER
  0
VISUALSTYLE
  5
2F
102
{ACAD_REACTORS
330
2A
102
}
330
2A
100
AcDbVisualStyle
  2
2dWireframe
 70
     4
 71
     0
 72
     2
 73
     0
 90
        0
 40
-0.6
 41
-30.0
 62
     5
 63
     7
 74
     1
 91
        4
 64
     7
 65
   257
 75
     1
175
     1
 42
1.0
 92
        0
 66
   257
 43
1.0
 76
     1
 77
     6
 78
     2
 67
     7
 79
     5
170
     0
171
     0
290
     0
174
     0
 93
        1
 44
0.0
173
     0
291
     0
 45
0.0
1001
ACAD
1000
AcDbSavedByObjectVersion
1070
     0
  0
VISUALSTYLE
  5
31
102
{ACAD_REACTORS
330
2A
102
}
330
2A
100
AcDbVisualStyle
  2
3D Hidden
 70
     6
 71
     1
 72
     2
 73
     2
 90
        0
 40
-0.6
 41
-30.0
 62
     5
 63
     7
 74
     2
 91
        2
 64
     7
 65
   257
 75
     2
175
     1
 42
40.0
 92
        0
 66
   257
 43
1.0
 76
     1
 77
     6
 78
     2
 67
     7
 79
     3
170
     0
171
     0
290
     0
174
     0
 93
        1
 44
0.0
173
     0
291
     0
 45
0.0
1001
ACAD
1000
AcDbSavedByObjectVersion
1070
     0
  0
VISUALSTYLE
  5
30
102
{ACAD_REACTORS
330
2A
102
}
330
2A
100
AcDbVisualStyle
  2
3dWireframe
 70
     5
 71
     0
 72
     2
 73
     0
 90
        0
 40
-0.6
 41
-30.0
 62
     5
 63
     7
 74
     1
 91
        4
 64
     7
 65
   257
 75
     1
175
     1
 42
1.0
 92
        0
 66
   257
 43
1.0
 76
     1
 77
     6
 78
     2
 67
     7
 79
     5
170
     0
171
     0
290
     0
174
     0
 93
        1
 44
0.0
173
     0
291
     0
 45
0.0
1001
ACAD
1000
AcDbSavedByObjectVersion
1070
     0
  0
VISUALSTYLE
  5
32
102
{ACAD_REACTORS
330
2A
102
}
330
2A
100
AcDbVisualStyle
  2
Basic
 70
     7
 71
     1
 72
     0
 73
     1
 90
        0
 40
-0.6
 41
-30.0
 62
     5
 63
     7
 74
     0
 91
        4
 64
     7
 65
   257
 75
     1
175
     1
 42
1.0
 92
        8
 66
     7
 43
1.0
 76
     1
 77
     6
 78
     2
 67
     7
 79
     5
170
     0
171
     0
290
     0
174
     0
 93
        1
 44
0.0
173
     0
291
     1
 45
0.0
1001
ACAD
1000
AcDbSavedByObjectVersion
1070
     0
  0
VISUALSTYLE
  5
36
102
{ACAD_REACTORS
330
2A
102
}
330
2A
100
AcDbVisualStyle
  2
Brighten
 70
    12
 71
     2
 72
     2
 73
     0
 90
        0
 40
-0.6
 41
-30.0
 62
     5
 63
     7
 74
     1
 91
        4
 64
     7
 65
   257
 75
     1
175
     1
 42
1.0
 92
        8
 66
     7
 43
1.0
 76
     1
 77
     6
 78
     2
 67
     7
 79
     5
170
     0
171
     0
290
     0
174
     0
 93
        1
 44
50.0
173
     0
291
     1
 45
0.0
1001
ACAD
1000
AcDbSavedByObjectVersion
1070
     0
  0
VISUALSTYLE
  5
3A
102
{ACAD_REACTORS
330
2A
102
}
330
2A
100
AcDbVisualStyle
  2
ColorChange
 70
    16
 71
     2
 72
     2
 73
     3
 90
        0
 40
-0.6
 41
-30.0
 62
     5
 63
     8
 74
     1
 91
        4
 64
     7
 65
   257
 75
     1
175
     1
 42
1.0
 92
        8
 66
     8
 43
1.0
 76
     1
 77
     6
 78
     2
 67
     7
 79
     5
170
     0
171
     0
290
     0
174
     0
 93
        1
 44
0.0
173
     0
291
     1
 45
0.0
1001
ACAD
1000
AcDbSavedByObjectVersion
1070
     0
  0
VISUALSTYLE
  5
34
102
{ACAD_REACTORS
330
2A
102
}
330
2A
100
AcDbVisualStyle
  2
Conceptual
 70
     9
 71
     3
 72
     2
 73
     0
 90
        0
 40
-0.6
 41
-30.0
 62
     5
 63
     7
 74
     2
 91
        2
 64
     7
 65
   257
 75
     1
175
     1
 42
40.0
 92
        8
 66
     7
 43
1.0
 76
     1
 77
     6
 78
     2
 67
     7
 79
     3
170
     0
171
     0
290
     0
174
     0
 93
        1
 44
0.0
173
     0
291
     0
 45
0.0
1001
ACAD
1000
AcDbSavedByObjectVersion
1070
     0
  0
VISUALSTYLE
  5
35
102
{ACAD_REACTORS
330
2A
102
}
330
2A
100
AcDbVisualStyle
  2
Dim
 70
    11
 71
     2
 72
     2
 73
     0
 90
        0
 40
-0.6
 41
-30.0
 62
     5
 63
     7
 74
     1
 91
        4
 64
     7
 65
   257
 75
     1
175
     1
 42
1.0
 92
        8
 66
     7
 43
1.0
 76
     1
 77
     6
 78
     2
 67
     7
 79
     5
170
     0
171
     0
290
     0
174
     0
 93
        1
 44
-50.0
173
     0
291
     1
 45
0.0
1001
ACAD
1000
AcDbSavedByObjectVersion
1070
     0
  0
VISUALSTYLE
  5
39
102
{ACAD_REACTORS
330
2A
102
}
330
2A
100
AcDbVisualStyle
  2
Facepattern
 70
    15
 71
     2
 72
     2
 73
     0
 90
        0
 40
-0.6
 41
-30.0
 62
     5
 63
     7
 74
     1
 91
        4
 64
     7
 65
   257
 75
     1
175
     1
 42
1.0
 92
        8
 66
     7
 43
1.0
 76
     1
 77
     6
 78
     2
 67
     7
 79
     5
170
     0
171
     0
290
     0
174
     0
 93
        1
 44
0.0
173
     0
291
     1
 45
0.0
1001
ACAD
1000
AcDbSavedByObjectVersion
1070
     0
  0
VISUALSTYLE
  5
2B
102
{ACAD_REACTORS
330
2A
102
}
330
2A
100
AcDbVisualStyle
  2
Flat
 70
     0
 71
     2
 72
     1
 73
     1
 90
        2
 40
-0.6
 41
30.0
 62
     5
 63
     7
 74
     0
 91
        4
 64
     7
 65
   257
 75
     1
175
     1
 42
1.0
 92
        8
 66
     7
 43
1.0
 76
     1
 77
     6
 78
     2
 67
     7
 79
     5
170
     0
171
     0
290
     0
174
     0
 93
       13
 44
0.0
173
     0
291
     1
 45
0.0
1001
ACAD
1000
AcDbSavedByObjectVersion
1070
     0
  0
VISUALSTYLE
  5
2C
102
{ACAD_REACTORS
330
2A
102
}
330
2A
100
AcDbVisualStyle
  2
FlatWithEdges
 70
     1
 71
     2
 72
     1
 73
     1
 90
        2
 40
-0.6
 41
30.0
 62
     5
 63
     7
 74
     1
 91
        4
 64
     7
 65
   257
 75
     1
175
     1
 42
1.0
 92
        0
 66
   257
 43
1.0
 76
     1
 77
     6
 78
     2
 67
     7
 79
     5
170
     0
171
     0
290
     0
174
     0
 93
       13
 44
0.0
173
     0
291
     1
 45
0.0
1001
ACAD
1000
AcDbSavedByObjectVersion
1070
     0
  0
VISUALSTYLE
  5
2D
102
{ACAD_REACTORS
330
2A
102
}
330
2A
100
AcDbVisualStyle
  2
Gouraud
 70
     2
 71
     2
 72
     2
 73
     1
 90
        2
 40
-0.6
 41
30.0
 62
     5
 63
     7
 74
     0
 91
        4
 64
     7
 65
   257
 75
     1
175
     1
 42
1.0
 92
        0
 66
     7
 43
1.0
 76
     1
 77
     6
 78
     2
 67
     7
 79
     5
170
     0
171
     0
290
     0
174
     0
 93
       13
 44
0.0
173
     0
291
     1
 45
0.0
1001
ACAD
1000
AcDbSavedByObjectVersion
1070
     0
  0
VISUALSTYLE
  5
2E
102
{ACAD_REACTORS
330
2A
102
}
330
2A
100
AcDbVisualStyle
  2
GouraudWithEdges
 70
     3
 71
     2
 72
     2
 73
     1
 90
        2
 40
-0.6
 41
30.0
 62
     5
 63
     7
 74
     1
 91
        4
 64
     7
 65
   257
 75
     1
175
     1
 42
1.0
 92
        0
 66
   257
 43
1.0
 76
     1
 77
     6
 78
     2
 67
     7
 79
     5
170
     0
171
     0
290
     0
174
     0
 93
       13
 44
0.0
173
     0
291
     1
 45
0.0
1001
ACAD
1000
AcDbSavedByObjectVersion
1070
     0
  0
VISUALSTYLE
  5
38
102
{ACAD_REACTORS
330
2A
102
}
330
2A
100
AcDbVisualStyle
  2
Linepattern
 70
    14
 71
     2
 72
     2
 73
     0
 90
        0
 40
-0.6
 41
-30.0
 62
     5
 63
     7
 74
     1
 91
        4
 64
     7
 65
   257
 75
     7
175
     7
 42
1.0
 92
        8
 66
     7
 43
1.0
 76
     1
 77
     6
 78
     2
 67
     7
 79
     5
170
     0
171
     0
290
     0
174
     0
 93
        1
 44
0.0
173
     0
291
     1
 45
0.0
1001
ACAD
1000
AcDbSavedByObjectVersion
1070
     0
  0
VISUALSTYLE
  5
33
102
{ACAD_REACTORS
330
2A
102
}
330
2A
100
AcDbVisualStyle
  2
Realistic
 70
     8
 71
     2
 72
     2
 73
     0
 90
        0
 40
-0.6
 41
-30.0
 62
     5
 63
     7
 74
     1
 91
        0
 64
     7
 65
   257
 75
     1
175
     1
 42
1.0
 92
        8
 66
     8
 43
1.0
 76
     1
 77
     6
 78
     2
 67
     7
 79
     5
170
     0
171
     0
290
     0
174
     0
 93
       13
 44
0.0
173
     0
291
     0
 45
0.0
1001
ACAD
1000
AcDbSavedByObjectVersion
1070
     0
  0
VISUALSTYLE
  5
37
102
{ACAD_REACTORS
330
2A
102
}
330
2A
100
AcDbVisualStyle
  2
Thicken
 70
    13
 71
     2
 72
     2
 73
     0
 90
        0
 40
-0.6
 41
-30.0
 62
     5
 63
     7
 74
     1
 91
        4
 64
     7
 65
   257
 75
     1
175
     1
 42
1.0
 92
       12
 66
     7
 43
1.0
 76
     1
 77
     6
 78
     2
 67
     7
 79
     5
170
     0
171
     0
290
     0
174
     0
 93
        1
 44
0.0
173
     0
291
     1
 45
0.0
1001
ACAD
1000
AcDbSavedByObjectVersion
1070
     0
  0
ENDSEC
  0
EOF
