  0
SECTION
  2
HEADER
  9
$ACADVER
  1
AC1021
  9
$ACADMAINTVER
 70
    25
  9
$DWGCODEPAGE
  3
ANSI_1254
  9
$INSBASE
 10
0.0
 20
0.0
 30
0.0
  9
$EXTMIN
 10
-9.061354330708662
 20
-7.568295275590551
 30
0.0
  9
$EXTMAX
 10
9.068574803149607
 20
7.576216535433071
 30
0.0
  9
$LIMMIN
 10
0.0
 20
0.0
  9
$LIMMAX
 10
12.0
 20
9.0
  9
$ORTHOMODE
 70
     0
  9
$REGENMODE
 70
     1
  9
$FILLMODE
 70
     1
  9
$QTEXTMODE
 70
     0
  9
$MIRRTEXT
 70
     1
  9
$LTSCALE
 40
1.0
  9
$ATTMODE
 70
     1
  9
$TEXTSIZE
 40
0.2
  9
$TRACEWID
 40
0.05
  9
$TEXTSTYLE
  7
Standard
  9
$CLAYER
  8
0
  9
$CELTYPE
  6
ByLayer
  9
$CECOLOR
 62
   256
  9
$CELTSCALE
 40
1.0
  9
$DISPSILH
 70
     0
  9
$DIMSCALE
 40
1.0
  9
$DIMASZ
 40
0.18
  9
$DIMEXO
 40
0.0625
  9
$DIMDLI
 40
0.38
  9
$DIMRND
 40
0.0
  9
$DIMDLE
 40
0.0
  9
$DIMEXE
 40
0.18
  9
$DIMTP
 40
0.0
  9
$DIMTM
 40
0.0
  9
$DIMTXT
 40
0.18
  9
$DIMCEN
 40
0.09
  9
$DIMTSZ
 40
0.0
  9
$DIMTOL
 70
     0
  9
$DIMLIM
 70
     0
  9
$DIMTIH
 70
     1
  9
$DIMTOH
 70
     1
  9
$DIMSE1
 70
     0
  9
$DIMSE2
 70
     0
  9
$DIMTAD
 70
     0
  9
$DIMZIN
 70
     0
  9
$DIMBLK
  1

  9
$DIMASO
 70
     1
  9
$DIMSHO
 70
     1
  9
$DIMPOST
  1

  9
$DIMAPOST
  1

  9
$DIMALT
 70
     0
  9
$DIMALTD
 70
     2
  9
$DIMALTF
 40
25.4
  9
$DIMLFAC
 40
1.0
  9
$DIMTOFL
 70
     0
  9
$DIMTVP
 40
0.0
  9
$DIMTIX
 70
     0
  9
$DIMSOXD
 70
     0
  9
$DIMSAH
 70
     0
  9
$DIMBLK1
  1

  9
$DIMBLK2
  1

  9
$DIMSTYLE
  2
Standard
  9
$DIMCLRD
 70
     0
  9
$DIMCLRE
 70
     0
  9
$DIMCLRT
 70
     0
  9
$DIMTFAC
 40
1.0
  9
$DIMGAP
 40
0.09
  9
$DIMJUST
 70
     0
  9
$DIMSD1
 70
     0
  9
$DIMSD2
 70
     0
  9
$DIMTOLJ
 70
     1
  9
$DIMTZIN
 70
     0
  9
$DIMALTZ
 70
     0
  9
$DIMALTTZ
 70
     0
  9
$DIMUPT
 70
     0
  9
$DIMDEC
 70
     4
  9
$DIMTDEC
 70
     4
  9
$DIMALTU
 70
     2
  9
$DIMALTTD
 70
     2
  9
$DIMTXSTY
  7
Standard
  9
$DIMAUNIT
 70
     0
  9
$DIMADEC
 70
     0
  9
$DIMALTRND
 40
0.0
  9
$DIMAZIN
 70
     0
  9
$DIMDSEP
 70
    46
  9
$DIMATFIT
 70
     3
  9
$DIMFRAC
 70
     0
  9
$DIMLDRBLK
  1

  9
$DIMLUNIT
 70
     2
  9
$DIMLWD
 70
    -2
  9
$DIMLWE
 70
    -2
  9
$DIMTMOVE
 70
     0
  9
$DIMFXL
 40
1.0
  9
$DIMFXLON
 70
     0
  9
$DIMJOGANG
 40
0.7853981633974483
  9
$DIMTFILL
 70
     0
  9
$DIMTFILLCLR
 70
     0
  9
$DIMARCSYM
 70
     0
  9
$DIMLTYPE
  6

  9
$DIMLTEX1
  6

  9
$DIMLTEX2
  6

  9
$LUNITS
 70
     2
  9
$LUPREC
 70
     4
  9
$SKETCHINC
 40
0.1
  9
$FILLETRAD
 40
0.5
  9
$AUNITS
 70
     0
  9
$AUPREC
 70
     0
  9
$MENU
  1
.
  9
$ELEVATION
 40
0.0
  9
$PELEVATION
 40
0.0
  9
$THICKNESS
 40
0.0
  9
$LIMCHECK
 70
     0
  9
$CHAMFERA
 40
0.0
  9
$CHAMFERB
 40
0.0
  9
$CHAMFERC
 40
0.0
  9
$CHAMFERD
 40
0.0
  9
$SKPOLY
 70
     0
  9
$TDCREATE
 40
2457531.247719734
  9
$TDUCREATE
 40
2457531.122719734
  9
$TDUPDATE
 40
2457531.247719919
  9
$TDUUPDATE
 40
2457531.122719919
  9
$TDINDWG
 40
0.0000000116
  9
$TDUSRTIMER
 40
0.0000000116
  9
$USRTIMER
 70
     1
  9
$ANGBASE
 50
0.0
  9
$ANGDIR
 70
     0
  9
$PDMODE
 70
     0
  9
$PDSIZE
 40
0.0
  9
$PLINEWID
 40
0.0
  9
$SPLFRAME
 70
     0
  9
$SPLINETYPE
 70
     6
  9
$SPLINESEGS
 70
     8
  9
$HANDSEED
  5
F3
  9
$SURFTAB1
 70
     6
  9
$SURFTAB2
 70
     6
  9
$SURFTYPE
 70
     6
  9
$SURFU
 70
     6
  9
$SURFV
 70
     6
  9
$UCSBASE
  2

  9
$UCSNAME
  2

  9
$UCSORG
 10
0.0
 20
0.0
 30
0.0
  9
$UCSXDIR
 10
1.0
 20
0.0
 30
0.0
  9
$UCSYDIR
 10
0.0
 20
1.0
 30
0.0
  9
$UCSORTHOREF
  2

  9
$UCSORTHOVIEW
 70
     0
  9
$UCSORGTOP
 10
0.0
 20
0.0
 30
0.0
  9
$UCSORGBOTTOM
 10
0.0
 20
0.0
 30
0.0
  9
$UCSORGLEFT
 10
0.0
 20
0.0
 30
0.0
  9
$UCSORGRIGHT
 10
0.0
 20
0.0
 30
0.0
  9
$UCSORGFRONT
 10
0.0
 20
0.0
 30
0.0
  9
$UCSORGBACK
 10
0.0
 20
0.0
 30
0.0
  9
$PUCSBASE
  2

  9
$PUCSNAME
  2

  9
$PUCSORG
 10
0.0
 20
0.0
 30
0.0
  9
$PUCSXDIR
 10
1.0
 20
0.0
 30
0.0
  9
$PUCSYDIR
 10
0.0
 20
1.0
 30
0.0
  9
$PUCSORTHOREF
  2

  9
$PUCSORTHOVIEW
 70
     0
  9
$PUCSORGTOP
 10
0.0
 20
0.0
 30
0.0
  9
$PUCSORGBOTTOM
 10
0.0
 20
0.0
 30
0.0
  9
$PUCSORGLEFT
 10
0.0
 20
0.0
 30
0.0
  9
$PUCSORGRIGHT
 10
0.0
 20
0.0
 30
0.0
  9
$PUCSORGFRONT
 10
0.0
 20
0.0
 30
0.0
  9
$PUCSORGBACK
 10
0.0
 20
0.0
 30
0.0
  9
$USERI1
 70
     0
  9
$USERI2
 70
     0
  9
$USERI3
 70
     0
  9
$USERI4
 70
     0
  9
$USERI5
 70
     0
  9
$USERR1
 40
0.0
  9
$USERR2
 40
0.0
  9
$USERR3
 40
0.0
  9
$USERR4
 40
0.0
  9
$USERR5
 40
0.0
  9
$WORLDVIEW
 70
     1
  9
$SHADEDGE
 70
     3
  9
$SHADEDIF
 70
    70
  9
$TILEMODE
 70
     1
  9
$MAXACTVP
 70
    64
  9
$PINSBASE
 10
0.0
 20
0.0
 30
0.0
  9
$PLIMCHECK
 70
     0
  9
$PEXTMIN
 10
1.000000000000000E+20
 20
1.000000000000000E+20
 30
1.000000000000000E+20
  9
$PEXTMAX
 10
-1.000000000000000E+20
 20
-1.000000000000000E+20
 30
-1.000000000000000E+20
  9
$PLIMMIN
 10
0.0
 20
0.0
  9
$PLIMMAX
 10
12.0
 20
9.0
  9
$UNITMODE
 70
     0
  9
$VISRETAIN
 70
     1
  9
$PLINEGEN
 70
     0
  9
$PSLTSCALE
 70
     1
  9
$TREEDEPTH
 70
  3020
  9
$CMLSTYLE
  2
Standard
  9
$CMLJUST
 70
     0
  9
$CMLSCALE
 40
1.0
  9
$PROXYGRAPHICS
 70
     1
  9
$MEASUREMENT
 70
     0
  9
$CELWEIGHT
370
    -1
  9
$ENDCAPS
280
     0
  9
$JOINSTYLE
280
     0
  9
$LWDISPLAY
290
     0
  9
$INSUNITS
 70
     1
  9
$HYPERLINKBASE
  1

  9
$STYLESHEET
  1

  9
$XEDIT
290
     1
  9
$CEPSNTYPE
380
     0
  9
$PSTYLEMODE
290
     1
  9
$FINGERPRINTGUID
  2
{BB824C89-009E-4212-BC51-7FA4FA731894}
  9
$VERSIONGUID
  2
{FAEB1C32-E019-11D5-929B-00C0DF256EC4}
  9
$EXTNAMES
290
     1
  9
$PSVPSCALE
 40
0.0
  9
$OLESTARTUP
290
     0
  9
$SORTENTS
280
   127
  9
$INDEXCTL
280
     0
  9
$HIDETEXT
280
     1
  9
$XCLIPFRAME
290
     0
  9
$HALOGAP
280
     0
  9
$OBSCOLOR
 70
   257
  9
$OBSLTYPE
280
     0
  9
$INTERSECTIONDISPLAY
280
     0
  9
$INTERSECTIONCOLOR
 70
   257
  9
$DIMASSOC
280
     2
  9
$PROJECTNAME
  1

  9
$CAMERADISPLAY
290
     0
  9
$LENSLENGTH
 40
50.0
  9
$CAMERAHEIGHT
 40
0.0
  9
$STEPSPERSEC
 40
2.0
  9
$STEPSIZE
 40
6.0
  9
$3DDWFPREC
 40
2.0
  9
$PSOLWIDTH
 40
0.25
  9
$PSOLHEIGHT
 40
4.0
  9
$LOFTANG1
 40
1.570796326794897
  9
$LOFTANG2
 40
1.570796326794897
  9
$LOFTMAG1
 40
0.0
  9
$LOFTMAG2
 40
0.0
  9
$LOFTPARAM
 70
     7
  9
$LOFTNORMALS
280
     1
  9
$LATITUDE
 40
37.795
  9
$LONGITUDE
 40
-122.394
  9
$NORTHDIRECTION
 40
0.0
  9
$TIMEZONE
 70
 -8000
  9
$LIGHTGLYPHDISPLAY
280
     1
  9
$TILEMODELIGHTSYNCH
280
     1
  9
$CMATERIAL
347
44
  9
$SOLIDHIST
280
     1
  9
$SHOWHIST
280
     1
  9
$DWFFRAME
280
     2
  9
$DGNFRAME
280
     2
  9
$REALWORLDSCALE
290
     1
  9
$INTERFERECOLOR
 62
   256
  9
$CSHADOW
280
     0
  9
$SHADOWPLANELOCATION
 40
0.0
  0
ENDSEC
  0
SECTION
  2
CLASSES
  0
CLASS
  1
ACDBDICTIONARYWDFLT
  2
AcDbDictionaryWithDefault
  3
ObjectDBX Classes
 90
        0
 91
        4
280
     0
281
     0
  0
CLASS
  1
VISUALSTYLE
  2
AcDbVisualStyle
  3
ObjectDBX Classes
 90
     4095
 91
        4
280
     0
281
     0
  0
CLASS
  1
MATERIAL
  2
AcDbMaterial
  3
ObjectDBX Classes
 90
     1153
 91
        4
280
     0
281
     0
  0
CLASS
  1
SCALE
  2
AcDbScale
  3
ObjectDBX Classes
 90
     1153
 91
        4
280
     0
281
     0
  0
CLASS
  1
SUN
  2
AcDbSun
  3
SCENEOE
 90
     1153
 91
        4
280
     0
281
     0
  0
CLASS
  1
DICTIONARYVAR
  2
AcDbDictionaryVar
  3
ObjectDBX Classes
 90
        0
 91
        4
280
     0
281
     0
  0
ENDSEC
  0
SECTION
  2
TABLES
  0
TABLE
  2
VPORT
  5
8
330
0
100
AcDbSymbolTable
 70
     1
  0
VPORT
  5
29
330
8
100
AcDbSymbolTableRecord
100
AcDbViewportTableRecord
  2
*Active
 70
     0
 10
0.0
 20
0.0
 11
1.0
 21
1.0
 12
10.42990654205607
 22
4.5
 13
0.0
 23
0.0
 14
0.5
 24
0.5
 15
0.5
 25
0.5
 16
0.0
 26
0.0
 36
1.0
 17
0.0
 27
0.0
 37
0.0
 40
9.0
 41
1.972972972850329
 42
50.0
 43
0.0
 44
0.0
 50
0.0
 51
0.0
 71
     0
 72
   100
 73
     1
 74
     3
 75
     0
 76
     0
 77
     0
 78
     0
281
     0
 65
     1
110
0.0
120
0.0
130
0.0
111
1.0
121
0.0
131
0.0
112
0.0
122
1.0
132
0.0
 79
     0
146
0.0
 60
     3
 61
     5
292
     1
282
     1
141
0.0
142
0.0
 63
   250
361
69
  0
ENDTAB
  0
TABLE
  2
LTYPE
  5
5
330
0
100
AcDbSymbolTable
 70
     1
  0
LTYPE
  5
14
330
5
100
AcDbSymbolTableRecord
100
AcDbLinetypeTableRecord
  2
ByBlock
 70
     0
  3

 72
    65
 73
     0
 40
0.0
  0
LTYPE
  5
15
330
5
100
AcDbSymbolTableRecord
100
AcDbLinetypeTableRecord
  2
ByLayer
 70
     0
  3

 72
    65
 73
     0
 40
0.0
  0
LTYPE
  5
16
330
5
100
AcDbSymbolTableRecord
100
AcDbLinetypeTableRecord
  2
Continuous
 70
     0
  3
Solid line
 72
    65
 73
     0
 40
0.0
  0
ENDTAB
  0
TABLE
  2
LAYER
  5
2
330
0
100
AcDbSymbolTable
 70
     2
  0
LAYER
  5
10
330
2
100
AcDbSymbolTableRecord
100
AcDbLayerTableRecord
  2
0
 70
     0
 62
     7
  6
Continuous
370
    -3
390
F
347
46
  0
LAYER
  5
6B
330
2
100
AcDbSymbolTableRecord
100
AcDbLayerTableRecord
  2
Katman 1
 70
     0
 62
     7
  6
Continuous
370
    -3
390
F
347
46
  0
ENDTAB
  0
TABLE
  2
STYLE
  5
3
330
0
100
AcDbSymbolTable
 70
     1
  0
STYLE
  5
11
330
3
100
AcDbSymbolTableRecord
100
AcDbTextStyleTableRecord
  2
Standard
 70
     0
 40
0.0
 41
1.0
 50
0.0
 71
     0
 42
0.2
  3
txt
  4

  0
ENDTAB
  0
TABLE
  2
VIEW
  5
6
330
0
100
AcDbSymbolTable
 70
     0
  0
ENDTAB
  0
TABLE
  2
UCS
  5
7
330
0
100
AcDbSymbolTable
 70
     0
  0
ENDTAB
  0
TABLE
  2
APPID
  5
9
330
0
100
AcDbSymbolTable
 70
     2
  0
APPID
  5
12
330
9
100
AcDbSymbolTableRecord
100
AcDbRegAppTableRecord
  2
ACAD
 70
     0
  0
APPID
  5
6A
330
9
100
AcDbSymbolTableRecord
100
AcDbRegAppTableRecord
  2
ODA
 70
     0
  0
ENDTAB
  0
TABLE
  2
DIMSTYLE
  5
A
330
0
100
AcDbSymbolTable
 70
     1
100
AcDbDimStyleTable
  0
DIMSTYLE
105
27
330
A
100
AcDbSymbolTableRecord
100
AcDbDimStyleTableRecord
  2
Standard
 70
     0
178
     0
340
11
  0
ENDTAB
  0
TABLE
  2
BLOCK_RECORD
  5
1
330
0
100
AcDbSymbolTable
 70
     1
  0
BLOCK_RECORD
  5
1F
330
1
100
AcDbSymbolTableRecord
100
AcDbBlockTableRecord
  2
*Model_Space
340
22
 70
     0
280
     1
281
     0
  0
BLOCK_RECORD
  5
1B
330
1
100
AcDbSymbolTableRecord
100
AcDbBlockTableRecord
  2
*Paper_Space
340
1E
 70
     0
280
     1
281
     0
  0
BLOCK_RECORD
  5
23
330
1
100
AcDbSymbolTableRecord
100
AcDbBlockTableRecord
  2
*Paper_Space0
340
26
 70
     0
280
     1
281
     0
  0
ENDTAB
  0
ENDSEC
  0
SECTION
  2
BLOCKS
  0
BLOCK
  5
20
330
1F
100
AcDbEntity
  8
0
100
AcDbBlockBegin
  2
*Model_Space
 70
     0
 10
0.0
 20
0.0
 30
0.0
  3
*Model_Space
  1
*Model_Space
  0
ENDBLK
  5
21
330
1F
100
AcDbEntity
  8
0
100
AcDbBlockEnd
  0
BLOCK
  5
1C
330
1B
100
AcDbEntity
 67
     1
  8
0
100
AcDbBlockBegin
  2
*Paper_Space
 70
     0
 10
0.0
 20
0.0
 30
0.0
  3
*Paper_Space
  1
*Paper_Space
  0
ENDBLK
  5
1D
330
1B
100
AcDbEntity
 67
     1
  8
0
100
AcDbBlockEnd
  0
BLOCK
  5
24
330
23
100
AcDbEntity
  8
0
100
AcDbBlockBegin
  2
*Paper_Space0
 70
     0
 10
0.0
 20
0.0
 30
0.0
  3
*Paper_Space0
  1
*Paper_Space0
  0
ENDBLK
  5
25
330
23
100
AcDbEntity
  8
0
100
AcDbBlockEnd
  0
ENDSEC
  0
SECTION
  2
ENTITIES
  0
SPLINE
  5
6C
330
1F
100
AcDbEntity
  8
Katman 1
370
   100
100
AcDbSpline
210
0.0
220
0.0
230
1.0
 70
    11
 71
     3
 72
    28
 73
    24
 74
     0
 42
0.000000001
 43
0.0000000001
 40
0.0
 40
0.0
 40
0.0
 40
0.0
 40
0.1428571428571428
 40
0.1428571428571428
 40
0.1428571428571428
 40
0.1428571428571428
 40
0.2857142857142857
 40
0.2857142857142857
 40
0.2857142857142857
 40
0.2857142857142857
 40
0.4285714285714285
 40
0.4285714285714285
 40
0.4285714285714285
 40
0.4285714285714285
 40
0.5714285714285714
 40
0.5714285714285714
 40
0.5714285714285714
 40
0.5714285714285714
 40
0.7142857142857143
 40
0.7142857142857143
 40
0.7142857142857143
 40
0.7142857142857143
 40
1.0
 40
1.0
 40
1.0
 40
1.0
 10
-4.653543307086614
 20
-6.394976377952756
 30
0.0
 10
-4.653543307086614
 20
-6.394976377952756
 30
0.0
 10
-4.53446062992126
 20
-6.394996062992126
 30
0.0
 10
-4.53446062992126
 20
-6.394996062992126
 30
0.0
 10
-4.53446062992126
 20
-6.394996062992126
 30
0.0
 10
-4.53446062992126
 20
-6.394996062992126
 30
0.0
 10
-4.53446062992126
 20
-5.591566929133858
 30
0.0
 10
-4.53446062992126
 20
-5.591566929133858
 30
0.0
 10
-4.53446062992126
 20
-5.591566929133858
 30
0.0
 10
-4.53446062992126
 20
-5.591566929133858
 30
0.0
 10
-4.534165354330709
 20
-5.591566929133858
 30
0.0
 10
-4.534165354330709
 20
-5.591566929133858
 30
0.0
 10
-4.534165354330709
 20
-5.591566929133858
 30
0.0
 10
-4.534165354330709
 20
-5.591566929133858
 30
0.0
 10
-4.534165354330709
 20
-5.59153937007874
 30
0.0
 10
-4.534165354330709
 20
-5.59153937007874
 30
0.0
 10
-4.534165354330709
 20
-5.59153937007874
 30
0.0
 10
-4.534165354330709
 20
-5.59153937007874
 30
0.0
 10
-4.653543307086614
 20
-5.59153937007874
 30
0.0
 10
-4.653543307086614
 20
-5.59153937007874
 30
0.0
 10
-4.653543307086614
 20
-5.59153937007874
 30
0.0
 10
-4.653543307086614
 20
-5.59153937007874
 30
0.0
 10
-4.653543307086614
 20
-6.394976377952756
 30
0.0
 10
-4.653543307086614
 20
-6.394976377952756
 30
0.0
  0
SPLINE
  5
6D
330
1F
100
AcDbEntity
  8
Katman 1
370
   100
100
AcDbSpline
210
0.0
220
0.0
230
1.0
 70
    11
 71
     3
 72
    40
 73
    36
 74
     0
 42
0.000000001
 43
0.0000000001
 40
0.0
 40
0.0
 40
0.0
 40
0.0
 40
0.1
 40
0.1
 40
0.1
 40
0.1
 40
0.2
 40
0.2
 40
0.2
 40
0.2
 40
0.3
 40
0.3
 40
0.3
 40
0.3
 40
0.4
 40
0.4
 40
0.4
 40
0.4
 40
0.5
 40
0.5
 40
0.5
 40
0.5
 40
0.6
 40
0.6
 40
0.6
 40
0.6
 40
0.7
 40
0.7
 40
0.7
 40
0.7
 40
0.8
 40
0.8
 40
0.8
 40
0.8
 40
1.0
 40
1.0
 40
1.0
 40
1.0
 10
0.2326929133858268
 20
-1.74303937007874
 30
0.0
 10
0.2326929133858268
 20
-1.74303937007874
 30
0.0
 10
-0.812263779527559
 20
-1.74303937007874
 30
0.0
 10
-0.812263779527559
 20
-1.74303937007874
 30
0.0
 10
-0.812263779527559
 20
-1.74303937007874
 30
0.0
 10
-0.812263779527559
 20
-1.74303937007874
 30
0.0
 10
-0.8121653543307087
 20
-4.032082677165354
 30
0.0
 10
-0.8121653543307087
 20
-4.032082677165354
 30
0.0
 10
-0.8121653543307087
 20
-4.032082677165354
 30
0.0
 10
-0.8121653543307087
 20
-4.032082677165354
 30
0.0
 10
0.2327204724409449
 20
-4.032082677165354
 30
0.0
 10
0.2327204724409449
 20
-4.032082677165354
 30
0.0
 10
0.2327204724409449
 20
-4.032082677165354
 30
0.0
 10
0.2327204724409449
 20
-4.032082677165354
 30
0.0
 10
0.2327204724409449
 20
-7.490641732283464
 30
0.0
 10
0.2327204724409449
 20
-7.490641732283464
 30
0.0
 10
0.2327204724409449
 20
-7.490641732283464
 30
0.0
 10
0.2327204724409449
 20
-7.490641732283464
 30
0.0
 10
-3.009933070866142
 20
-7.489629921259843
 30
0.0
 10
-3.009933070866142
 20
-7.489629921259843
 30
0.0
 10
-3.009933070866142
 20
-7.489629921259843
 30
0.0
 10
-3.009933070866142
 20
-7.489629921259843
 30
0.0
 10
-3.009933070866142
 20
-0.1819448818897638
 30
0.0
 10
-3.009933070866142
 20
-0.1819448818897638
 30
0.0
 10
-3.009933070866142
 20
-0.1819448818897638
 30
0.0
 10
-3.009933070866142
 20
-0.1819448818897638
 30
0.0
 10
0.2326929133858268
 20
-0.1819448818897638
 30
0.0
 10
0.2326929133858268
 20
-0.1819448818897638
 30
0.0
 10
0.2326929133858268
 20
-0.1819448818897638
 30
0.0
 10
0.2326929133858268
 20
-0.1819448818897638
 30
0.0
 10
0.2326929133858268
 20
-1.743055118110236
 30
0.0
 10
0.2326929133858268
 20
-1.743055118110236
 30
0.0
 10
0.2326929133858268
 20
-1.743055118110236
 30
0.0
 10
0.2326929133858268
 20
-1.743055118110236
 30
0.0
 10
0.2326929133858268
 20
-1.74303937007874
 30
0.0
 10
0.2326929133858268
 20
-1.74303937007874
 30
0.0
  0
SPLINE
  5
6E
330
1F
100
AcDbEntity
  8
Katman 1
370
   100
100
AcDbSpline
210
0.0
220
0.0
230
1.0
 70
    11
 71
     3
 72
    20
 73
    16
 74
     0
 42
0.000000001
 43
0.0000000001
 40
0.0
 40
0.0
 40
0.0
 40
0.0
 40
0.2
 40
0.2
 40
0.2
 40
0.2
 40
0.4
 40
0.4
 40
0.4
 40
0.4
 40
0.6
 40
0.6
 40
0.6
 40
0.6
 40
1.0
 40
1.0
 40
1.0
 40
1.0
 10
-2.011015748031496
 20
-0.3645944881889764
 30
0.0
 10
-2.011015748031496
 20
-0.3645944881889764
 30
0.0
 10
-2.011015748031496
 20
-0.482248031496063
 30
0.0
 10
-2.011015748031496
 20
-0.482248031496063
 30
0.0
 10
-2.011015748031496
 20
-0.482248031496063
 30
0.0
 10
-2.011015748031496
 20
-0.482248031496063
 30
0.0
 10
-1.451625984251969
 20
-0.482248031496063
 30
0.0
 10
-1.451625984251969
 20
-0.482248031496063
 30
0.0
 10
-1.451625984251969
 20
-0.482248031496063
 30
0.0
 10
-1.451625984251969
 20
-0.482248031496063
 30
0.0
 10
-1.451625984251969
 20
-0.3645944881889764
 30
0.0
 10
-1.451625984251969
 20
-0.3645944881889764
 30
0.0
 10
-1.451625984251969
 20
-0.3645944881889764
 30
0.0
 10
-1.451625984251969
 20
-0.3645944881889764
 30
0.0
 10
-2.011015748031496
 20
-0.3645944881889764
 30
0.0
 10
-2.011015748031496
 20
-0.3645944881889764
 30
0.0
  0
SPLINE
  5
6F
330
1F
100
AcDbEntity
  8
Katman 1
370
   100
100
AcDbSpline
210
0.0
220
0.0
230
1.0
 70
    11
 71
     3
 72
    28
 73
    24
 74
     0
 42
0.000000001
 43
0.0000000001
 40
0.0
 40
0.0
 40
0.0
 40
0.0
 40
0.1428571428571428
 40
0.1428571428571428
 40
0.1428571428571428
 40
0.1428571428571428
 40
0.2857142857142857
 40
0.2857142857142857
 40
0.2857142857142857
 40
0.2857142857142857
 40
0.4285714285714285
 40
0.4285714285714285
 40
0.4285714285714285
 40
0.4285714285714285
 40
0.5714285714285714
 40
0.5714285714285714
 40
0.5714285714285714
 40
0.5714285714285714
 40
0.7142857142857143
 40
0.7142857142857143
 40
0.7142857142857143
 40
0.7142857142857143
 40
1.0
 40
1.0
 40
1.0
 40
1.0
 10
-2.011015748031496
 20
-7.195255905511811
 30
0.0
 10
-2.011015748031496
 20
-7.195255905511811
 30
0.0
 10
-2.011015748031496
 20
-7.312850393700788
 30
0.0
 10
-2.011015748031496
 20
-7.312850393700788
 30
0.0
 10
-2.011015748031496
 20
-7.312850393700788
 30
0.0
 10
-2.011015748031496
 20
-7.312850393700788
 30
0.0
 10
-1.454488188976378
 20
-7.312992125984252
 30
0.0
 10
-1.454488188976378
 20
-7.312992125984252
 30
0.0
 10
-1.454488188976378
 20
-7.312992125984252
 30
0.0
 10
-1.454488188976378
 20
-7.312992125984252
 30
0.0
 10
-1.454488188976378
 20
-7.312874015748031
 30
0.0
 10
-1.454488188976378
 20
-7.312874015748031
 30
0.0
 10
-1.454488188976378
 20
-7.312874015748031
 30
0.0
 10
-1.454488188976378
 20
-7.312874015748031
 30
0.0
 10
-1.451625984251969
 20
-7.312874015748031
 30
0.0
 10
-1.451625984251969
 20
-7.312874015748031
 30
0.0
 10
-1.451625984251969
 20
-7.312874015748031
 30
0.0
 10
-1.451625984251969
 20
-7.312874015748031
 30
0.0
 10
-1.451625984251969
 20
-7.195409448818897
 30
0.0
 10
-1.451625984251969
 20
-7.195409448818897
 30
0.0
 10
-1.451625984251969
 20
-7.195409448818897
 30
0.0
 10
-1.451625984251969
 20
-7.195409448818897
 30
0.0
 10
-2.011015748031496
 20
-7.195255905511811
 30
0.0
 10
-2.011015748031496
 20
-7.195255905511811
 30
0.0
  0
SPLINE
  5
70
330
1F
100
AcDbEntity
  8
Katman 1
370
   100
100
AcDbSpline
210
0.0
220
0.0
230
1.0
 70
    11
 71
     3
 72
    20
 73
    16
 74
     0
 42
0.000000001
 43
0.0000000001
 40
0.0
 40
0.0
 40
0.0
 40
0.0
 40
0.2
 40
0.2
 40
0.2
 40
0.2
 40
0.4
 40
0.4
 40
0.4
 40
0.4
 40
0.6
 40
0.6
 40
0.6
 40
0.6
 40
1.0
 40
1.0
 40
1.0
 40
1.0
 10
-1.397165354330709
 20
-1.567803149606299
 30
0.0
 10
-1.397165354330709
 20
-1.567803149606299
 30
0.0
 10
-2.340472440944882
 20
-2.028818897637795
 30
0.0
 10
-2.340472440944882
 20
-2.028818897637795
 30
0.0
 10
-2.340472440944882
 20
-2.028818897637795
 30
0.0
 10
-2.340472440944882
 20
-2.028818897637795
 30
0.0
 10
-2.340472440944882
 20
-3.756984251968504
 30
0.0
 10
-2.340472440944882
 20
-3.756984251968504
 30
0.0
 10
-2.340472440944882
 20
-3.756984251968504
 30
0.0
 10
-2.340472440944882
 20
-3.756984251968504
 30
0.0
 10
-1.39809842519685
 20
-4.217165354330708
 30
0.0
 10
-1.39809842519685
 20
-4.217165354330708
 30
0.0
 10
-1.39809842519685
 20
-4.217165354330708
 30
0.0
 10
-1.39809842519685
 20
-4.217165354330708
 30
0.0
 10
-1.397165354330709
 20
-1.567803149606299
 30
0.0
 10
-1.397165354330709
 20
-1.567803149606299
 30
0.0
  0
SPLINE
  5
71
330
1F
100
AcDbEntity
  8
Katman 1
370
   100
100
AcDbSpline
210
0.0
220
0.0
230
1.0
 70
    11
 71
     3
 72
    60
 73
    56
 74
     0
 42
0.000000001
 43
0.0000000001
 40
0.0
 40
0.0
 40
0.0
 40
0.0
 40
0.0666666666666667
 40
0.0666666666666667
 40
0.0666666666666667
 40
0.0666666666666667
 40
0.1333333333333333
 40
0.1333333333333333
 40
0.1333333333333333
 40
0.1333333333333333
 40
0.2
 40
0.2
 40
0.2
 40
0.2
 40
0.2666666666666667
 40
0.2666666666666667
 40
0.2666666666666667
 40
0.2666666666666667
 40
0.3333333333333333
 40
0.3333333333333333
 40
0.3333333333333333
 40
0.3333333333333333
 40
0.4
 40
0.4
 40
0.4
 40
0.4
 40
0.4666666666666667
 40
0.4666666666666667
 40
0.4666666666666667
 40
0.4666666666666667
 40
0.5333333333333333
 40
0.5333333333333333
 40
0.5333333333333333
 40
0.5333333333333333
 40
0.6
 40
0.6
 40
0.6
 40
0.6
 40
0.6666666666666666
 40
0.6666666666666666
 40
0.6666666666666666
 40
0.6666666666666666
 40
0.7333333333333333
 40
0.7333333333333333
 40
0.7333333333333333
 40
0.7333333333333333
 40
0.8
 40
0.8
 40
0.8
 40
0.8
 40
0.8666666666666667
 40
0.8666666666666667
 40
0.8666666666666667
 40
0.8666666666666667
 40
1.0
 40
1.0
 40
1.0
 40
1.0
 10
0.4430393700787402
 20
-2.928110236220472
 30
0.0
 10
0.4430393700787402
 20
-2.928110236220472
 30
0.0
 10
0.382511811023622
 20
-2.886720472440945
 30
0.0
 10
0.382511811023622
 20
-2.886720472440945
 30
0.0
 10
0.382511811023622
 20
-2.886720472440945
 30
0.0
 10
0.382511811023622
 20
-2.886720472440945
 30
0.0
 10
1.778125984251969
 20
-0.8661653543307086
 30
0.0
 10
1.778125984251969
 20
-0.8661653543307086
 30
0.0
 10
1.778125984251969
 20
-0.8661653543307086
 30
0.0
 10
1.778125984251969
 20
-0.8661653543307086
 30
0.0
 10
1.859917322834646
 20
-0.8661653543307086
 30
0.0
 10
1.859917322834646
 20
-0.8661653543307086
 30
0.0
 10
1.859917322834646
 20
-0.8661653543307086
 30
0.0
 10
1.859917322834646
 20
-0.8661653543307086
 30
0.0
 10
3.255511811023622
 20
-2.886720472440945
 30
0.0
 10
3.255511811023622
 20
-2.886720472440945
 30
0.0
 10
3.255511811023622
 20
-2.886720472440945
 30
0.0
 10
3.255511811023622
 20
-2.886720472440945
 30
0.0
 10
3.195
 20
-2.928110236220472
 30
0.0
 10
3.195
 20
-2.928110236220472
 30
0.0
 10
3.195
 20
-2.928110236220472
 30
0.0
 10
3.195
 20
-2.928110236220472
 30
0.0
 10
3.13090157480315
 20
-2.937874015748032
 30
0.0
 10
3.13090157480315
 20
-2.937874015748032
 30
0.0
 10
3.13090157480315
 20
-2.937874015748032
 30
0.0
 10
3.13090157480315
 20
-2.937874015748032
 30
0.0
 10
3.063692913385827
 20
-2.91990157480315
 30
0.0
 10
3.063692913385827
 20
-2.91990157480315
 30
0.0
 10
3.063692913385827
 20
-2.91990157480315
 30
0.0
 10
3.063692913385827
 20
-2.91990157480315
 30
0.0
 10
2.993775590551181
 20
-2.878094488188976
 30
0.0
 10
2.993775590551181
 20
-2.878094488188976
 30
0.0
 10
2.993775590551181
 20
-2.878094488188976
 30
0.0
 10
2.993775590551181
 20
-2.878094488188976
 30
0.0
 10
1.819027559055118
 20
-1.181874015748031
 30
0.0
 10
1.819027559055118
 20
-1.181874015748031
 30
0.0
 10
1.819027559055118
 20
-1.181874015748031
 30
0.0
 10
1.819027559055118
 20
-1.181874015748031
 30
0.0
 10
1.655972440944882
 20
-1.412681102362205
 30
0.0
 10
1.655972440944882
 20
-1.412681102362205
 30
0.0
 10
1.655972440944882
 20
-1.412681102362205
 30
0.0
 10
1.655972440944882
 20
-1.412681102362205
 30
0.0
 10
0.644248031496063
 20
-2.878094488188976
 30
0.0
 10
0.644248031496063
 20
-2.878094488188976
 30
0.0
 10
0.644248031496063
 20
-2.878094488188976
 30
0.0
 10
0.644248031496063
 20
-2.878094488188976
 30
0.0
 10
0.5743346456692914
 20
-2.91990157480315
 30
0.0
 10
0.5743346456692914
 20
-2.91990157480315
 30
0.0
 10
0.5743346456692914
 20
-2.91990157480315
 30
0.0
 10
0.5743346456692914
 20
-2.91990157480315
 30
0.0
 10
0.5071259842519685
 20
-2.937874015748032
 30
0.0
 10
0.5071259842519685
 20
-2.937874015748032
 30
0.0
 10
0.5071259842519685
 20
-2.937874015748032
 30
0.0
 10
0.5071259842519685
 20
-2.937874015748032
 30
0.0
 10
0.4430393700787402
 20
-2.928110236220472
 30
0.0
 10
0.4430393700787402
 20
-2.928110236220472
 30
0.0
  0
SPLINE
  5
72
330
1F
100
AcDbEntity
  8
Katman 1
370
   100
100
AcDbSpline
210
0.0
220
0.0
230
1.0
 70
    11
 71
     3
 72
    24
 73
    20
 74
     0
 42
0.000000001
 43
0.0000000001
 40
0.0
 40
0.0
 40
0.0
 40
0.0
 40
0.1666666666666667
 40
0.1666666666666667
 40
0.1666666666666667
 40
0.1666666666666667
 40
0.3333333333333333
 40
0.3333333333333333
 40
0.3333333333333333
 40
0.3333333333333333
 40
0.5
 40
0.5
 40
0.5
 40
0.5
 40
0.6666666666666666
 40
0.6666666666666666
 40
0.6666666666666666
 40
0.6666666666666666
 40
1.0
 40
1.0
 40
1.0
 40
1.0
 10
-0.5412086614173228
 20
-1.988889763779528
 30
0.0
 10
-0.5412086614173228
 20
-1.988889763779528
 30
0.0
 10
-0.2636102362204724
 20
-2.265748031496063
 30
0.0
 10
-0.2636102362204724
 20
-2.265748031496063
 30
0.0
 10
-0.2636102362204724
 20
-2.265748031496063
 30
0.0
 10
-0.2636102362204724
 20
-2.265748031496063
 30
0.0
 10
0.0139566929133858
 20
-1.988889763779528
 30
0.0
 10
0.0139566929133858
 20
-1.988889763779528
 30
0.0
 10
0.0139566929133858
 20
-1.988889763779528
 30
0.0
 10
0.0139566929133858
 20
-1.988889763779528
 30
0.0
 10
0.0139566929133858
 20
-2.803763779527559
 30
0.0
 10
0.0139566929133858
 20
-2.803763779527559
 30
0.0
 10
0.0139566929133858
 20
-2.803763779527559
 30
0.0
 10
0.0139566929133858
 20
-2.803763779527559
 30
0.0
 10
-0.5412086614173228
 20
-2.803763779527559
 30
0.0
 10
-0.5412086614173228
 20
-2.803763779527559
 30
0.0
 10
-0.5412086614173228
 20
-2.803763779527559
 30
0.0
 10
-0.5412086614173228
 20
-2.803763779527559
 30
0.0
 10
-0.5412086614173228
 20
-1.988889763779528
 30
0.0
 10
-0.5412086614173228
 20
-1.988889763779528
 30
0.0
  0
SPLINE
  5
73
330
1F
100
AcDbEntity
  8
Katman 1
370
   100
100
AcDbSpline
210
0.0
220
0.0
230
1.0
 70
    11
 71
     3
 72
    24
 73
    20
 74
     0
 42
0.000000001
 43
0.0000000001
 40
0.0
 40
0.0
 40
0.0
 40
0.0
 40
0.1666666666666667
 40
0.1666666666666667
 40
0.1666666666666667
 40
0.1666666666666667
 40
0.3333333333333333
 40
0.3333333333333333
 40
0.3333333333333333
 40
0.3333333333333333
 40
0.5
 40
0.5
 40
0.5
 40
0.5
 40
0.6666666666666666
 40
0.6666666666666666
 40
0.6666666666666666
 40
0.6666666666666666
 40
1.0
 40
1.0
 40
1.0
 40
1.0
 10
-0.2636102362204724
 20
-3.235401574803149
 30
0.0
 10
-0.2636102362204724
 20
-3.235401574803149
 30
0.0
 10
0.0139566929133858
 20
-2.958527559055118
 30
0.0
 10
0.0139566929133858
 20
-2.958527559055118
 30
0.0
 10
0.0139566929133858
 20
-2.958527559055118
 30
0.0
 10
0.0139566929133858
 20
-2.958527559055118
 30
0.0
 10
0.0139566929133858
 20
-3.773417322834645
 30
0.0
 10
0.0139566929133858
 20
-3.773417322834645
 30
0.0
 10
0.0139566929133858
 20
-3.773417322834645
 30
0.0
 10
0.0139566929133858
 20
-3.773417322834645
 30
0.0
 10
-0.5412086614173228
 20
-3.773417322834645
 30
0.0
 10
-0.5412086614173228
 20
-3.773417322834645
 30
0.0
 10
-0.5412086614173228
 20
-3.773417322834645
 30
0.0
 10
-0.5412086614173228
 20
-3.773417322834645
 30
0.0
 10
-0.5412086614173228
 20
-2.958527559055118
 30
0.0
 10
-0.5412086614173228
 20
-2.958527559055118
 30
0.0
 10
-0.5412086614173228
 20
-2.958527559055118
 30
0.0
 10
-0.5412086614173228
 20
-2.958527559055118
 30
0.0
 10
-0.2636102362204724
 20
-3.235401574803149
 30
0.0
 10
-0.2636102362204724
 20
-3.235401574803149
 30
0.0
  0
SPLINE
  5
74
330
1F
100
AcDbEntity
  8
Katman 1
370
   100
100
AcDbSpline
210
0.0
220
0.0
230
1.0
 70
    11
 71
     3
 72
    68
 73
    64
 74
     0
 42
0.000000001
 43
0.0000000001
 40
0.0
 40
0.0
 40
0.0
 40
0.0
 40
0.0588235294117647
 40
0.0588235294117647
 40
0.0588235294117647
 40
0.0588235294117647
 40
0.1176470588235294
 40
0.1176470588235294
 40
0.1176470588235294
 40
0.1176470588235294
 40
0.1764705882352941
 40
0.1764705882352941
 40
0.1764705882352941
 40
0.1764705882352941
 40
0.2352941176470588
 40
0.2352941176470588
 40
0.2352941176470588
 40
0.2352941176470588
 40
0.2941176470588235
 40
0.2941176470588235
 40
0.2941176470588235
 40
0.2941176470588235
 40
0.3529411764705883
 40
0.3529411764705883
 40
0.3529411764705883
 40
0.3529411764705883
 40
0.4117647058823529
 40
0.4117647058823529
 40
0.4117647058823529
 40
0.4117647058823529
 40
0.4705882352941176
 40
0.4705882352941176
 40
0.4705882352941176
 40
0.4705882352941176
 40
0.5294117647058824
 40
0.5294117647058824
 40
0.5294117647058824
 40
0.5294117647058824
 40
0.5882352941176471
 40
0.5882352941176471
 40
0.5882352941176471
 40
0.5882352941176471
 40
0.6470588235294118
 40
0.6470588235294118
 40
0.6470588235294118
 40
0.6470588235294118
 40
0.7058823529411765
 40
0.7058823529411765
 40
0.7058823529411765
 40
0.7058823529411765
 40
0.7647058823529411
 40
0.7647058823529411
 40
0.7647058823529411
 40
0.7647058823529411
 40
0.8235294117647058
 40
0.8235294117647058
 40
0.8235294117647058
 40
0.8235294117647058
 40
0.8823529411764706
 40
0.8823529411764706
 40
0.8823529411764706
 40
0.8823529411764706
 40
1.0
 40
1.0
 40
1.0
 40
1.0
 10
4.770192913385827
 20
6.371110236220472
 30
0.0
 10
4.770192913385827
 20
6.371110236220472
 30
0.0
 10
4.770192913385827
 20
7.392917322834646
 30
0.0
 10
4.770192913385827
 20
7.392917322834646
 30
0.0
 10
4.770192913385827
 20
7.392917322834646
 30
0.0
 10
4.770192913385827
 20
7.392917322834646
 30
0.0
 10
5.350834645669291
 20
7.392917322834646
 30
0.0
 10
5.350834645669291
 20
7.392917322834646
 30
0.0
 10
5.350834645669291
 20
7.392917322834646
 30
0.0
 10
5.350834645669291
 20
7.392917322834646
 30
0.0
 10
5.350834645669291
 20
7.000834645669292
 30
0.0
 10
5.350834645669291
 20
7.000834645669292
 30
0.0
 10
5.350834645669291
 20
7.000834645669292
 30
0.0
 10
5.350834645669291
 20
7.000834645669292
 30
0.0
 10
5.47
 20
7.000834645669292
 30
0.0
 10
5.47
 20
7.000834645669292
 30
0.0
 10
5.47
 20
7.000834645669292
 30
0.0
 10
5.47
 20
7.000834645669292
 30
0.0
 10
5.47
 20
6.415555118110237
 30
0.0
 10
5.47
 20
6.415555118110237
 30
0.0
 10
5.47
 20
6.415555118110237
 30
0.0
 10
5.47
 20
6.415555118110237
 30
0.0
 10
5.350834645669291
 20
6.415555118110237
 30
0.0
 10
5.350834645669291
 20
6.415555118110237
 30
0.0
 10
5.350834645669291
 20
6.415555118110237
 30
0.0
 10
5.350834645669291
 20
6.415555118110237
 30
0.0
 10
5.350834645669291
 20
5.629791338582677
 30
0.0
 10
5.350834645669291
 20
5.629791338582677
 30
0.0
 10
5.350834645669291
 20
5.629791338582677
 30
0.0
 10
5.350834645669291
 20
5.629791338582677
 30
0.0
 10
5.47
 20
5.629791338582677
 30
0.0
 10
5.47
 20
5.629791338582677
 30
0.0
 10
5.47
 20
5.629791338582677
 30
0.0
 10
5.47
 20
5.629791338582677
 30
0.0
 10
5.47
 20
5.045736220472441
 30
0.0
 10
5.47
 20
5.045736220472441
 30
0.0
 10
5.47
 20
5.045736220472441
 30
0.0
 10
5.47
 20
5.045736220472441
 30
0.0
 10
5.350834645669291
 20
5.045736220472441
 30
0.0
 10
5.350834645669291
 20
5.045736220472441
 30
0.0
 10
5.350834645669291
 20
5.045736220472441
 30
0.0
 10
5.350834645669291
 20
5.045736220472441
 30
0.0
 10
5.350834645669291
 20
3.874555118110236
 30
0.0
 10
5.350834645669291
 20
3.874555118110236
 30
0.0
 10
5.350834645669291
 20
3.874555118110236
 30
0.0
 10
5.350834645669291
 20
3.874555118110236
 30
0.0
 10
4.770192913385827
 20
3.874555118110236
 30
0.0
 10
4.770192913385827
 20
3.874555118110236
 30
0.0
 10
4.770192913385827
 20
3.874555118110236
 30
0.0
 10
4.770192913385827
 20
3.874555118110236
 30
0.0
 10
4.770192913385827
 20
5.058570866141732
 30
0.0
 10
4.770192913385827
 20
5.058570866141732
 30
0.0
 10
4.770192913385827
 20
5.058570866141732
 30
0.0
 10
4.770192913385827
 20
5.058570866141732
 30
0.0
 10
4.651110236220473
 20
5.058570866141732
 30
0.0
 10
4.651110236220473
 20
5.058570866141732
 30
0.0
 10
4.651110236220473
 20
5.058570866141732
 30
0.0
 10
4.651110236220473
 20
5.058570866141732
 30
0.0
 10
4.651110236220473
 20
6.371110236220472
 30
0.0
 10
4.651110236220473
 20
6.371110236220472
 30
0.0
 10
4.651110236220473
 20
6.371110236220472
 30
0.0
 10
4.651110236220473
 20
6.371110236220472
 30
0.0
 10
4.770192913385827
 20
6.371110236220472
 30
0.0
 10
4.770192913385827
 20
6.371110236220472
 30
0.0
  0
SPLINE
  5
75
330
1F
100
AcDbEntity
  8
Katman 1
370
   100
100
AcDbSpline
210
0.0
220
0.0
230
1.0
 70
    11
 71
     3
 72
    68
 73
    64
 74
     0
 42
0.000000001
 43
0.0000000001
 40
0.0
 40
0.0
 40
0.0
 40
0.0
 40
0.0588235294117647
 40
0.0588235294117647
 40
0.0588235294117647
 40
0.0588235294117647
 40
0.1176470588235294
 40
0.1176470588235294
 40
0.1176470588235294
 40
0.1176470588235294
 40
0.1764705882352941
 40
0.1764705882352941
 40
0.1764705882352941
 40
0.1764705882352941
 40
0.2352941176470588
 40
0.2352941176470588
 40
0.2352941176470588
 40
0.2352941176470588
 40
0.2941176470588235
 40
0.2941176470588235
 40
0.2941176470588235
 40
0.2941176470588235
 40
0.3529411764705883
 40
0.3529411764705883
 40
0.3529411764705883
 40
0.3529411764705883
 40
0.4117647058823529
 40
0.4117647058823529
 40
0.4117647058823529
 40
0.4117647058823529
 40
0.4705882352941176
 40
0.4705882352941176
 40
0.4705882352941176
 40
0.4705882352941176
 40
0.5294117647058824
 40
0.5294117647058824
 40
0.5294117647058824
 40
0.5294117647058824
 40
0.5882352941176471
 40
0.5882352941176471
 40
0.5882352941176471
 40
0.5882352941176471
 40
0.6470588235294118
 40
0.6470588235294118
 40
0.6470588235294118
 40
0.6470588235294118
 40
0.7058823529411765
 40
0.7058823529411765
 40
0.7058823529411765
 40
0.7058823529411765
 40
0.7647058823529411
 40
0.7647058823529411
 40
0.7647058823529411
 40
0.7647058823529411
 40
0.8235294117647058
 40
0.8235294117647058
 40
0.8235294117647058
 40
0.8235294117647058
 40
0.8823529411764706
 40
0.8823529411764706
 40
0.8823529411764706
 40
0.8823529411764706
 40
1.0
 40
1.0
 40
1.0
 40
1.0
 10
6.728055118110237
 20
5.069889763779527
 30
0.0
 10
6.728055118110237
 20
5.069889763779527
 30
0.0
 10
6.728055118110237
 20
6.38236220472441
 30
0.0
 10
6.728055118110237
 20
6.38236220472441
 30
0.0
 10
6.728055118110237
 20
6.38236220472441
 30
0.0
 10
6.728055118110237
 20
6.38236220472441
 30
0.0
 10
6.847220472440945
 20
6.38236220472441
 30
0.0
 10
6.847220472440945
 20
6.38236220472441
 30
0.0
 10
6.847220472440945
 20
6.38236220472441
 30
0.0
 10
6.847220472440945
 20
6.38236220472441
 30
0.0
 10
6.847220472440945
 20
7.404169291338583
 30
0.0
 10
6.847220472440945
 20
7.404169291338583
 30
0.0
 10
6.847220472440945
 20
7.404169291338583
 30
0.0
 10
6.847220472440945
 20
7.404169291338583
 30
0.0
 10
7.427917322834646
 20
7.404169291338583
 30
0.0
 10
7.427917322834646
 20
7.404169291338583
 30
0.0
 10
7.427917322834646
 20
7.404169291338583
 30
0.0
 10
7.427917322834646
 20
7.404169291338583
 30
0.0
 10
7.427917322834646
 20
7.012224409448819
 30
0.0
 10
7.427917322834646
 20
7.012224409448819
 30
0.0
 10
7.427917322834646
 20
7.012224409448819
 30
0.0
 10
7.427917322834646
 20
7.012224409448819
 30
0.0
 10
7.546944881889764
 20
7.012224409448819
 30
0.0
 10
7.546944881889764
 20
7.012224409448819
 30
0.0
 10
7.546944881889764
 20
7.012224409448819
 30
0.0
 10
7.546944881889764
 20
7.012224409448819
 30
0.0
 10
7.546944881889764
 20
6.426944881889764
 30
0.0
 10
7.546944881889764
 20
6.426944881889764
 30
0.0
 10
7.546944881889764
 20
6.426944881889764
 30
0.0
 10
7.546944881889764
 20
6.426944881889764
 30
0.0
 10
7.427917322834646
 20
6.426944881889764
 30
0.0
 10
7.427917322834646
 20
6.426944881889764
 30
0.0
 10
7.427917322834646
 20
6.426944881889764
 30
0.0
 10
7.427917322834646
 20
6.426944881889764
 30
0.0
 10
7.427917322834646
 20
5.641098425196851
 30
0.0
 10
7.427917322834646
 20
5.641098425196851
 30
0.0
 10
7.427917322834646
 20
5.641098425196851
 30
0.0
 10
7.427917322834646
 20
5.641098425196851
 30
0.0
 10
7.546944881889764
 20
5.641098425196851
 30
0.0
 10
7.546944881889764
 20
5.641098425196851
 30
0.0
 10
7.546944881889764
 20
5.641098425196851
 30
0.0
 10
7.546944881889764
 20
5.641098425196851
 30
0.0
 10
7.546944881889764
 20
5.057043307086614
 30
0.0
 10
7.546944881889764
 20
5.057043307086614
 30
0.0
 10
7.546944881889764
 20
5.057043307086614
 30
0.0
 10
7.546944881889764
 20
5.057043307086614
 30
0.0
 10
7.427917322834646
 20
5.057043307086614
 30
0.0
 10
7.427917322834646
 20
5.057043307086614
 30
0.0
 10
7.427917322834646
 20
5.057043307086614
 30
0.0
 10
7.427917322834646
 20
5.057043307086614
 30
0.0
 10
7.427917322834646
 20
3.885862204724409
 30
0.0
 10
7.427917322834646
 20
3.885862204724409
 30
0.0
 10
7.427917322834646
 20
3.885862204724409
 30
0.0
 10
7.427917322834646
 20
3.885862204724409
 30
0.0
 10
6.847220472440945
 20
3.885862204724409
 30
0.0
 10
6.847220472440945
 20
3.885862204724409
 30
0.0
 10
6.847220472440945
 20
3.885862204724409
 30
0.0
 10
6.847220472440945
 20
3.885862204724409
 30
0.0
 10
6.847220472440945
 20
5.069889763779527
 30
0.0
 10
6.847220472440945
 20
5.069889763779527
 30
0.0
 10
6.847220472440945
 20
5.069889763779527
 30
0.0
 10
6.847220472440945
 20
5.069889763779527
 30
0.0
 10
6.728055118110237
 20
5.069889763779527
 30
0.0
 10
6.728055118110237
 20
5.069889763779527
 30
0.0
  0
SPLINE
  5
76
330
1F
100
AcDbEntity
  8
Katman 1
370
   100
100
AcDbSpline
210
0.0
220
0.0
230
1.0
 70
    11
 71
     3
 72
    68
 73
    64
 74
     0
 42
0.000000001
 43
0.0000000001
 40
0.0
 40
0.0
 40
0.0
 40
0.0
 40
0.0588235294117647
 40
0.0588235294117647
 40
0.0588235294117647
 40
0.0588235294117647
 40
0.1176470588235294
 40
0.1176470588235294
 40
0.1176470588235294
 40
0.1176470588235294
 40
0.1764705882352941
 40
0.1764705882352941
 40
0.1764705882352941
 40
0.1764705882352941
 40
0.2352941176470588
 40
0.2352941176470588
 40
0.2352941176470588
 40
0.2352941176470588
 40
0.2941176470588235
 40
0.2941176470588235
 40
0.2941176470588235
 40
0.2941176470588235
 40
0.3529411764705883
 40
0.3529411764705883
 40
0.3529411764705883
 40
0.3529411764705883
 40
0.4117647058823529
 40
0.4117647058823529
 40
0.4117647058823529
 40
0.4117647058823529
 40
0.4705882352941176
 40
0.4705882352941176
 40
0.4705882352941176
 40
0.4705882352941176
 40
0.5294117647058824
 40
0.5294117647058824
 40
0.5294117647058824
 40
0.5294117647058824
 40
0.5882352941176471
 40
0.5882352941176471
 40
0.5882352941176471
 40
0.5882352941176471
 40
0.6470588235294118
 40
0.6470588235294118
 40
0.6470588235294118
 40
0.6470588235294118
 40
0.7058823529411765
 40
0.7058823529411765
 40
0.7058823529411765
 40
0.7058823529411765
 40
0.7647058823529411
 40
0.7647058823529411
 40
0.7647058823529411
 40
0.7647058823529411
 40
0.8235294117647058
 40
0.8235294117647058
 40
0.8235294117647058
 40
0.8235294117647058
 40
0.8823529411764706
 40
0.8823529411764706
 40
0.8823529411764706
 40
0.8823529411764706
 40
1.0
 40
1.0
 40
1.0
 40
1.0
 10
6.423889763779528
 20
5.063543307086614
 30
0.0
 10
6.423889763779528
 20
5.063543307086614
 30
0.0
 10
6.423889763779528
 20
3.892389763779528
 30
0.0
 10
6.423889763779528
 20
3.892389763779528
 30
0.0
 10
6.423889763779528
 20
3.892389763779528
 30
0.0
 10
6.423889763779528
 20
3.892389763779528
 30
0.0
 10
5.843192913385827
 20
3.892389763779528
 30
0.0
 10
5.843192913385827
 20
3.892389763779528
 30
0.0
 10
5.843192913385827
 20
3.892389763779528
 30
0.0
 10
5.843192913385827
 20
3.892389763779528
 30
0.0
 10
5.843192913385827
 20
5.076405511811024
 30
0.0
 10
5.843192913385827
 20
5.076405511811024
 30
0.0
 10
5.843192913385827
 20
5.076405511811024
 30
0.0
 10
5.843192913385827
 20
5.076405511811024
 30
0.0
 10
5.724165354330709
 20
5.076405511811024
 30
0.0
 10
5.724165354330709
 20
5.076405511811024
 30
0.0
 10
5.724165354330709
 20
5.076405511811024
 30
0.0
 10
5.724165354330709
 20
5.076405511811024
 30
0.0
 10
5.724165354330709
 20
6.388889763779527
 30
0.0
 10
5.724165354330709
 20
6.388889763779527
 30
0.0
 10
5.724165354330709
 20
6.388889763779527
 30
0.0
 10
5.724165354330709
 20
6.388889763779527
 30
0.0
 10
5.843192913385827
 20
6.388889763779527
 30
0.0
 10
5.843192913385827
 20
6.388889763779527
 30
0.0
 10
5.843192913385827
 20
6.388889763779527
 30
0.0
 10
5.843192913385827
 20
6.388889763779527
 30
0.0
 10
5.843192913385827
 20
7.410696850393701
 30
0.0
 10
5.843192913385827
 20
7.410696850393701
 30
0.0
 10
5.843192913385827
 20
7.410696850393701
 30
0.0
 10
5.843192913385827
 20
7.410696850393701
 30
0.0
 10
6.423889763779528
 20
7.410696850393701
 30
0.0
 10
6.423889763779528
 20
7.410696850393701
 30
0.0
 10
6.423889763779528
 20
7.410696850393701
 30
0.0
 10
6.423889763779528
 20
7.410696850393701
 30
0.0
 10
6.423889763779528
 20
7.018751968503937
 30
0.0
 10
6.423889763779528
 20
7.018751968503937
 30
0.0
 10
6.423889763779528
 20
7.018751968503937
 30
0.0
 10
6.423889763779528
 20
7.018751968503937
 30
0.0
 10
6.542917322834645
 20
7.018751968503937
 30
0.0
 10
6.542917322834645
 20
7.018751968503937
 30
0.0
 10
6.542917322834645
 20
7.018751968503937
 30
0.0
 10
6.542917322834645
 20
7.018751968503937
 30
0.0
 10
6.542917322834645
 20
6.433472440944882
 30
0.0
 10
6.542917322834645
 20
6.433472440944882
 30
0.0
 10
6.542917322834645
 20
6.433472440944882
 30
0.0
 10
6.542917322834645
 20
6.433472440944882
 30
0.0
 10
6.423889763779528
 20
6.433472440944882
 30
0.0
 10
6.423889763779528
 20
6.433472440944882
 30
0.0
 10
6.423889763779528
 20
6.433472440944882
 30
0.0
 10
6.423889763779528
 20
6.433472440944882
 30
0.0
 10
6.423889763779528
 20
5.647610236220473
 30
0.0
 10
6.423889763779528
 20
5.647610236220473
 30
0.0
 10
6.423889763779528
 20
5.647610236220473
 30
0.0
 10
6.423889763779528
 20
5.647610236220473
 30
0.0
 10
6.542917322834645
 20
5.647610236220473
 30
0.0
 10
6.542917322834645
 20
5.647610236220473
 30
0.0
 10
6.542917322834645
 20
5.647610236220473
 30
0.0
 10
6.542917322834645
 20
5.647610236220473
 30
0.0
 10
6.542917322834645
 20
5.063543307086614
 30
0.0
 10
6.542917322834645
 20
5.063543307086614
 30
0.0
 10
6.542917322834645
 20
5.063543307086614
 30
0.0
 10
6.542917322834645
 20
5.063543307086614
 30
0.0
 10
6.423889763779528
 20
5.063543307086614
 30
0.0
 10
6.423889763779528
 20
5.063543307086614
 30
0.0
  0
SPLINE
  5
77
330
1F
100
AcDbEntity
  8
Katman 1
370
   100
100
AcDbSpline
210
0.0
220
0.0
230
1.0
 70
    11
 71
     3
 72
    68
 73
    64
 74
     0
 42
0.000000001
 43
0.0000000001
 40
0.0
 40
0.0
 40
0.0
 40
0.0
 40
0.0588235294117647
 40
0.0588235294117647
 40
0.0588235294117647
 40
0.0588235294117647
 40
0.1176470588235294
 40
0.1176470588235294
 40
0.1176470588235294
 40
0.1176470588235294
 40
0.1764705882352941
 40
0.1764705882352941
 40
0.1764705882352941
 40
0.1764705882352941
 40
0.2352941176470588
 40
0.2352941176470588
 40
0.2352941176470588
 40
0.2352941176470588
 40
0.2941176470588235
 40
0.2941176470588235
 40
0.2941176470588235
 40
0.2941176470588235
 40
0.3529411764705883
 40
0.3529411764705883
 40
0.3529411764705883
 40
0.3529411764705883
 40
0.4117647058823529
 40
0.4117647058823529
 40
0.4117647058823529
 40
0.4117647058823529
 40
0.4705882352941176
 40
0.4705882352941176
 40
0.4705882352941176
 40
0.4705882352941176
 40
0.5294117647058824
 40
0.5294117647058824
 40
0.5294117647058824
 40
0.5294117647058824
 40
0.5882352941176471
 40
0.5882352941176471
 40
0.5882352941176471
 40
0.5882352941176471
 40
0.6470588235294118
 40
0.6470588235294118
 40
0.6470588235294118
 40
0.6470588235294118
 40
0.7058823529411765
 40
0.7058823529411765
 40
0.7058823529411765
 40
0.7058823529411765
 40
0.7647058823529411
 40
0.7647058823529411
 40
0.7647058823529411
 40
0.7647058823529411
 40
0.8235294117647058
 40
0.8235294117647058
 40
0.8235294117647058
 40
0.8235294117647058
 40
0.8823529411764706
 40
0.8823529411764706
 40
0.8823529411764706
 40
0.8823529411764706
 40
1.0
 40
1.0
 40
1.0
 40
1.0
 10
8.573334645669291
 20
6.434169291338582
 30
0.0
 10
8.573334645669291
 20
6.434169291338582
 30
0.0
 10
8.454303149606298
 20
6.434169291338582
 30
0.0
 10
8.454303149606298
 20
6.434169291338582
 30
0.0
 10
8.454303149606298
 20
6.434169291338582
 30
0.0
 10
8.454303149606298
 20
6.434169291338582
 30
0.0
 10
8.454303149606298
 20
5.648279527559055
 30
0.0
 10
8.454303149606298
 20
5.648279527559055
 30
0.0
 10
8.454303149606298
 20
5.648279527559055
 30
0.0
 10
8.454303149606298
 20
5.648279527559055
 30
0.0
 10
8.573334645669291
 20
5.648279527559055
 30
0.0
 10
8.573334645669291
 20
5.648279527559055
 30
0.0
 10
8.573334645669291
 20
5.648279527559055
 30
0.0
 10
8.573334645669291
 20
5.648279527559055
 30
0.0
 10
8.573334645669291
 20
5.064224409448819
 30
0.0
 10
8.573334645669291
 20
5.064224409448819
 30
0.0
 10
8.573334645669291
 20
5.064224409448819
 30
0.0
 10
8.573334645669291
 20
5.064224409448819
 30
0.0
 10
8.454303149606298
 20
5.064224409448819
 30
0.0
 10
8.454303149606298
 20
5.064224409448819
 30
0.0
 10
8.454303149606298
 20
5.064224409448819
 30
0.0
 10
8.454303149606298
 20
5.064224409448819
 30
0.0
 10
8.454303149606298
 20
3.893055118110236
 30
0.0
 10
8.454303149606298
 20
3.893055118110236
 30
0.0
 10
8.454303149606298
 20
3.893055118110236
 30
0.0
 10
8.454303149606298
 20
3.893055118110236
 30
0.0
 10
7.873610236220473
 20
3.893055118110236
 30
0.0
 10
7.873610236220473
 20
3.893055118110236
 30
0.0
 10
7.873610236220473
 20
3.893055118110236
 30
0.0
 10
7.873610236220473
 20
3.893055118110236
 30
0.0
 10
7.873610236220473
 20
5.077070866141733
 30
0.0
 10
7.873610236220473
 20
5.077070866141733
 30
0.0
 10
7.873610236220473
 20
5.077070866141733
 30
0.0
 10
7.873610236220473
 20
5.077070866141733
 30
0.0
 10
7.754582677165354
 20
5.077070866141733
 30
0.0
 10
7.754582677165354
 20
5.077070866141733
 30
0.0
 10
7.754582677165354
 20
5.077070866141733
 30
0.0
 10
7.754582677165354
 20
5.077070866141733
 30
0.0
 10
7.754582677165354
 20
6.389582677165355
 30
0.0
 10
7.754582677165354
 20
6.389582677165355
 30
0.0
 10
7.754582677165354
 20
6.389582677165355
 30
0.0
 10
7.754582677165354
 20
6.389582677165355
 30
0.0
 10
7.873610236220473
 20
6.389582677165355
 30
0.0
 10
7.873610236220473
 20
6.389582677165355
 30
0.0
 10
7.873610236220473
 20
6.389582677165355
 30
0.0
 10
7.873610236220473
 20
6.389582677165355
 30
0.0
 10
7.873610236220473
 20
7.411389763779527
 30
0.0
 10
7.873610236220473
 20
7.411389763779527
 30
0.0
 10
7.873610236220473
 20
7.411389763779527
 30
0.0
 10
7.873610236220473
 20
7.411389763779527
 30
0.0
 10
8.454303149606298
 20
7.411389763779527
 30
0.0
 10
8.454303149606298
 20
7.411389763779527
 30
0.0
 10
8.454303149606298
 20
7.411389763779527
 30
0.0
 10
8.454303149606298
 20
7.411389763779527
 30
0.0
 10
8.454303149606298
 20
7.019444881889764
 30
0.0
 10
8.454303149606298
 20
7.019444881889764
 30
0.0
 10
8.454303149606298
 20
7.019444881889764
 30
0.0
 10
8.454303149606298
 20
7.019444881889764
 30
0.0
 10
8.573334645669291
 20
7.019444881889764
 30
0.0
 10
8.573334645669291
 20
7.019444881889764
 30
0.0
 10
8.573334645669291
 20
7.019444881889764
 30
0.0
 10
8.573334645669291
 20
7.019444881889764
 30
0.0
 10
8.573334645669291
 20
6.434169291338582
 30
0.0
 10
8.573334645669291
 20
6.434169291338582
 30
0.0
  0
SPLINE
  5
78
330
1F
100
AcDbEntity
  8
Katman 1
370
   100
100
AcDbSpline
210
0.0
220
0.0
230
1.0
 70
    11
 71
     3
 72
   216
 73
   212
 74
     0
 42
0.000000001
 43
0.0000000001
 40
0.0
 40
0.0
 40
0.0
 40
0.0
 40
0.0185185185185185
 40
0.0185185185185185
 40
0.0185185185185185
 40
0.0185185185185185
 40
0.037037037037037
 40
0.037037037037037
 40
0.037037037037037
 40
0.037037037037037
 40
0.0555555555555556
 40
0.0555555555555556
 40
0.0555555555555556
 40
0.0555555555555556
 40
0.0740740740740741
 40
0.0740740740740741
 40
0.0740740740740741
 40
0.0740740740740741
 40
0.0925925925925926
 40
0.0925925925925926
 40
0.0925925925925926
 40
0.0925925925925926
 40
0.1111111111111111
 40
0.1111111111111111
 40
0.1111111111111111
 40
0.1111111111111111
 40
0.1296296296296296
 40
0.1296296296296296
 40
0.1296296296296296
 40
0.1296296296296296
 40
0.1481481481481481
 40
0.1481481481481481
 40
0.1481481481481481
 40
0.1481481481481481
 40
0.1666666666666667
 40
0.1666666666666667
 40
0.1666666666666667
 40
0.1666666666666667
 40
0.1851851851851852
 40
0.1851851851851852
 40
0.1851851851851852
 40
0.1851851851851852
 40
0.2037037037037037
 40
0.2037037037037037
 40
0.2037037037037037
 40
0.2037037037037037
 40
0.2222222222222222
 40
0.2222222222222222
 40
0.2222222222222222
 40
0.2222222222222222
 40
0.2407407407407407
 40
0.2407407407407407
 40
0.2407407407407407
 40
0.2407407407407407
 40
0.2592592592592592
 40
0.2592592592592592
 40
0.2592592592592592
 40
0.2592592592592592
 40
0.2777777777777778
 40
0.2777777777777778
 40
0.2777777777777778
 40
0.2777777777777778
 40
0.2962962962962963
 40
0.2962962962962963
 40
0.2962962962962963
 40
0.2962962962962963
 40
0.3148148148148148
 40
0.3148148148148148
 40
0.3148148148148148
 40
0.3148148148148148
 40
0.3333333333333333
 40
0.3333333333333333
 40
0.3333333333333333
 40
0.3333333333333333
 40
0.3518518518518519
 40
0.3518518518518519
 40
0.3518518518518519
 40
0.3518518518518519
 40
0.3703703703703703
 40
0.3703703703703703
 40
0.3703703703703703
 40
0.3703703703703703
 40
0.3888888888888889
 40
0.3888888888888889
 40
0.3888888888888889
 40
0.3888888888888889
 40
0.4074074074074074
 40
0.4074074074074074
 40
0.4074074074074074
 40
0.4074074074074074
 40
0.4259259259259259
 40
0.4259259259259259
 40
0.4259259259259259
 40
0.4259259259259259
 40
0.4444444444444444
 40
0.4444444444444444
 40
0.4444444444444444
 40
0.4444444444444444
 40
0.462962962962963
 40
0.462962962962963
 40
0.462962962962963
 40
0.462962962962963
 40
0.4814814814814815
 40
0.4814814814814815
 40
0.4814814814814815
 40
0.4814814814814815
 40
0.5
 40
0.5
 40
0.5
 40
0.5
 40
0.5185185185185185
 40
0.5185185185185185
 40
0.5185185185185185
 40
0.5185185185185185
 40
0.5370370370370371
 40
0.5370370370370371
 40
0.5370370370370371
 40
0.5370370370370371
 40
0.5555555555555556
 40
0.5555555555555556
 40
0.5555555555555556
 40
0.5555555555555556
 40
0.5740740740740741
 40
0.5740740740740741
 40
0.5740740740740741
 40
0.5740740740740741
 40
0.5925925925925926
 40
0.5925925925925926
 40
0.5925925925925926
 40
0.5925925925925926
 40
0.6111111111111112
 40
0.6111111111111112
 40
0.6111111111111112
 40
0.6111111111111112
 40
0.6296296296296297
 40
0.6296296296296297
 40
0.6296296296296297
 40
0.6296296296296297
 40
0.6481481481481481
 40
0.6481481481481481
 40
0.6481481481481481
 40
0.6481481481481481
 40
0.6666666666666666
 40
0.6666666666666666
 40
0.6666666666666666
 40
0.6666666666666666
 40
0.6851851851851852
 40
0.6851851851851852
 40
0.6851851851851852
 40
0.6851851851851852
 40
0.7037037037037037
 40
0.7037037037037037
 40
0.7037037037037037
 40
0.7037037037037037
 40
0.7222222222222222
 40
0.7222222222222222
 40
0.7222222222222222
 40
0.7222222222222222
 40
0.7407407407407407
 40
0.7407407407407407
 40
0.7407407407407407
 40
0.7407407407407407
 40
0.7592592592592593
 40
0.7592592592592593
 40
0.7592592592592593
 40
0.7592592592592593
 40
0.7777777777777778
 40
0.7777777777777778
 40
0.7777777777777778
 40
0.7777777777777778
 40
0.7962962962962963
 40
0.7962962962962963
 40
0.7962962962962963
 40
0.7962962962962963
 40
0.8148148148148148
 40
0.8148148148148148
 40
0.8148148148148148
 40
0.8148148148148148
 40
0.8333333333333334
 40
0.8333333333333334
 40
0.8333333333333334
 40
0.8333333333333334
 40
0.8518518518518519
 40
0.8518518518518519
 40
0.8518518518518519
 40
0.8518518518518519
 40
0.8703703703703703
 40
0.8703703703703703
 40
0.8703703703703703
 40
0.8703703703703703
 40
0.8888888888888888
 40
0.8888888888888888
 40
0.8888888888888888
 40
0.8888888888888888
 40
0.9074074074074074
 40
0.9074074074074074
 40
0.9074074074074074
 40
0.9074074074074074
 40
0.9259259259259259
 40
0.9259259259259259
 40
0.9259259259259259
 40
0.9259259259259259
 40
0.9444444444444444
 40
0.9444444444444444
 40
0.9444444444444444
 40
0.9444444444444444
 40
0.9629629629629629
 40
0.9629629629629629
 40
0.9629629629629629
 40
0.9629629629629629
 40
1.0
 40
1.0
 40
1.0
 40
1.0
 10
-9.041669291338582
 20
-7.031086614173228
 30
0.0
 10
-9.041669291338582
 20
-7.031086614173228
 30
0.0
 10
-9.041669291338582
 20
-0.4939842519685039
 30
0.0
 10
-9.041669291338582
 20
-0.4939842519685039
 30
0.0
 10
-9.041669291338582
 20
-0.4939842519685039
 30
0.0
 10
-9.041669291338582
 20
-0.4939842519685039
 30
0.0
 10
-9.03713779527559
 20
-0.4265551181102362
 30
0.0
 10
-9.03713779527559
 20
-0.4265551181102362
 30
0.0
 10
-9.03713779527559
 20
-0.4265551181102362
 30
0.0
 10
-9.03713779527559
 20
-0.4265551181102362
 30
0.0
 10
-9.02388188976378
 20
-0.3603031496062992
 30
0.0
 10
-9.02388188976378
 20
-0.3603031496062992
 30
0.0
 10
-9.02388188976378
 20
-0.3603031496062992
 30
0.0
 10
-9.02388188976378
 20
-0.3603031496062992
 30
0.0
 10
-9.002125984251968
 20
-0.2963307086614173
 30
0.0
 10
-9.002125984251968
 20
-0.2963307086614173
 30
0.0
 10
-9.002125984251968
 20
-0.2963307086614173
 30
0.0
 10
-9.002125984251968
 20
-0.2963307086614173
 30
0.0
 10
-8.972240157480314
 20
-0.2357362204724409
 30
0.0
 10
-8.972240157480314
 20
-0.2357362204724409
 30
0.0
 10
-8.972240157480314
 20
-0.2357362204724409
 30
0.0
 10
-8.972240157480314
 20
-0.2357362204724409
 30
0.0
 10
-8.934704724409448
 20
-0.1795393700787402
 30
0.0
 10
-8.934704724409448
 20
-0.1795393700787402
 30
0.0
 10
-8.934704724409448
 20
-0.1795393700787402
 30
0.0
 10
-8.934704724409448
 20
-0.1795393700787402
 30
0.0
 10
-8.890181102362204
 20
-0.1287086614173228
 30
0.0
 10
-8.890181102362204
 20
-0.1287086614173228
 30
0.0
 10
-8.890181102362204
 20
-0.1287086614173228
 30
0.0
 10
-8.890181102362204
 20
-0.1287086614173228
 30
0.0
 10
-8.839448818897639
 20
-0.0840944881889764
 30
0.0
 10
-8.839448818897639
 20
-0.0840944881889764
 30
0.0
 10
-8.839448818897639
 20
-0.0840944881889764
 30
0.0
 10
-8.839448818897639
 20
-0.0840944881889764
 30
0.0
 10
-8.783338582677166
 20
-0.0464448818897638
 30
0.0
 10
-8.783338582677166
 20
-0.0464448818897638
 30
0.0
 10
-8.783338582677166
 20
-0.0464448818897638
 30
0.0
 10
-8.783338582677166
 20
-0.0464448818897638
 30
0.0
 10
-8.722787401574804
 20
-0.0164173228346457
 30
0.0
 10
-8.722787401574804
 20
-0.0164173228346457
 30
0.0
 10
-8.722787401574804
 20
-0.0164173228346457
 30
0.0
 10
-8.722787401574804
 20
-0.0164173228346457
 30
0.0
 10
-8.65888188976378
 20
0.0054724409448819
 30
0.0
 10
-8.65888188976378
 20
0.0054724409448819
 30
0.0
 10
-8.65888188976378
 20
0.0054724409448819
 30
0.0
 10
-8.65888188976378
 20
0.0054724409448819
 30
0.0
 10
-8.592637795275591
 20
0.0188622047244094
 30
0.0
 10
-8.592637795275591
 20
0.0188622047244094
 30
0.0
 10
-8.592637795275591
 20
0.0188622047244094
 30
0.0
 10
-8.592637795275591
 20
0.0188622047244094
 30
0.0
 10
-8.525232283464566
 20
0.0235433070866142
 30
0.0
 10
-8.525232283464566
 20
0.0235433070866142
 30
0.0
 10
-8.525232283464566
 20
0.0235433070866142
 30
0.0
 10
-8.525232283464566
 20
0.0235433070866142
 30
0.0
 10
-3.987236220472441
 20
0.0235433070866142
 30
0.0
 10
-3.987236220472441
 20
0.0235433070866142
 30
0.0
 10
-3.987236220472441
 20
0.0235433070866142
 30
0.0
 10
-3.987236220472441
 20
0.0235433070866142
 30
0.0
 10
-3.919834645669291
 20
0.0188622047244094
 30
0.0
 10
-3.919834645669291
 20
0.0188622047244094
 30
0.0
 10
-3.919834645669291
 20
0.0188622047244094
 30
0.0
 10
-3.919834645669291
 20
0.0188622047244094
 30
0.0
 10
-3.85359842519685
 20
0.0054724409448819
 30
0.0
 10
-3.85359842519685
 20
0.0054724409448819
 30
0.0
 10
-3.85359842519685
 20
0.0054724409448819
 30
0.0
 10
-3.85359842519685
 20
0.0054724409448819
 30
0.0
 10
-3.789653543307087
 20
-0.0164173228346457
 30
0.0
 10
-3.789653543307087
 20
-0.0164173228346457
 30
0.0
 10
-3.789653543307087
 20
-0.0164173228346457
 30
0.0
 10
-3.789653543307087
 20
-0.0164173228346457
 30
0.0
 10
-3.72913779527559
 20
-0.0464448818897638
 30
0.0
 10
-3.72913779527559
 20
-0.0464448818897638
 30
0.0
 10
-3.72913779527559
 20
-0.0464448818897638
 30
0.0
 10
-3.72913779527559
 20
-0.0464448818897638
 30
0.0
 10
-3.673015748031496
 20
-0.0840944881889764
 30
0.0
 10
-3.673015748031496
 20
-0.0840944881889764
 30
0.0
 10
-3.673015748031496
 20
-0.0840944881889764
 30
0.0
 10
-3.673015748031496
 20
-0.0840944881889764
 30
0.0
 10
-3.622291338582677
 20
-0.1287086614173228
 30
0.0
 10
-3.622291338582677
 20
-0.1287086614173228
 30
0.0
 10
-3.622291338582677
 20
-0.1287086614173228
 30
0.0
 10
-3.622291338582677
 20
-0.1287086614173228
 30
0.0
 10
-3.577763779527559
 20
-0.1795551181102362
 30
0.0
 10
-3.577763779527559
 20
-0.1795551181102362
 30
0.0
 10
-3.577763779527559
 20
-0.1795551181102362
 30
0.0
 10
-3.577763779527559
 20
-0.1795551181102362
 30
0.0
 10
-3.540236220472441
 20
-0.235748031496063
 30
0.0
 10
-3.540236220472441
 20
-0.235748031496063
 30
0.0
 10
-3.540236220472441
 20
-0.235748031496063
 30
0.0
 10
-3.540236220472441
 20
-0.235748031496063
 30
0.0
 10
-3.510334645669291
 20
-0.2963307086614173
 30
0.0
 10
-3.510334645669291
 20
-0.2963307086614173
 30
0.0
 10
-3.510334645669291
 20
-0.2963307086614173
 30
0.0
 10
-3.510334645669291
 20
-0.2963307086614173
 30
0.0
 10
-3.488582677165355
 20
-0.3603031496062992
 30
0.0
 10
-3.488582677165355
 20
-0.3603031496062992
 30
0.0
 10
-3.488582677165355
 20
-0.3603031496062992
 30
0.0
 10
-3.488582677165355
 20
-0.3603031496062992
 30
0.0
 10
-3.475307086614173
 20
-0.4265551181102362
 30
0.0
 10
-3.475307086614173
 20
-0.4265551181102362
 30
0.0
 10
-3.475307086614173
 20
-0.4265551181102362
 30
0.0
 10
-3.475307086614173
 20
-0.4265551181102362
 30
0.0
 10
-3.470779527559055
 20
-0.4939842519685039
 30
0.0
 10
-3.470779527559055
 20
-0.4939842519685039
 30
0.0
 10
-3.470779527559055
 20
-0.4939842519685039
 30
0.0
 10
-3.470779527559055
 20
-0.4939842519685039
 30
0.0
 10
-3.470779527559055
 20
-7.031086614173228
 30
0.0
 10
-3.470779527559055
 20
-7.031086614173228
 30
0.0
 10
-3.470779527559055
 20
-7.031086614173228
 30
0.0
 10
-3.470779527559055
 20
-7.031086614173228
 30
0.0
 10
-3.475307086614173
 20
-7.098511811023622
 30
0.0
 10
-3.475307086614173
 20
-7.098511811023622
 30
0.0
 10
-3.475307086614173
 20
-7.098511811023622
 30
0.0
 10
-3.475307086614173
 20
-7.098511811023622
 30
0.0
 10
-3.488582677165355
 20
-7.164771653543307
 30
0.0
 10
-3.488582677165355
 20
-7.164771653543307
 30
0.0
 10
-3.488582677165355
 20
-7.164771653543307
 30
0.0
 10
-3.488582677165355
 20
-7.164771653543307
 30
0.0
 10
-3.510334645669291
 20
-7.228736220472441
 30
0.0
 10
-3.510334645669291
 20
-7.228736220472441
 30
0.0
 10
-3.510334645669291
 20
-7.228736220472441
 30
0.0
 10
-3.510334645669291
 20
-7.228736220472441
 30
0.0
 10
-3.540236220472441
 20
-7.289326771653544
 30
0.0
 10
-3.540236220472441
 20
-7.289326771653544
 30
0.0
 10
-3.540236220472441
 20
-7.289326771653544
 30
0.0
 10
-3.540236220472441
 20
-7.289326771653544
 30
0.0
 10
-3.577763779527559
 20
-7.345515748031496
 30
0.0
 10
-3.577763779527559
 20
-7.345515748031496
 30
0.0
 10
-3.577763779527559
 20
-7.345515748031496
 30
0.0
 10
-3.577763779527559
 20
-7.345515748031496
 30
0.0
 10
-3.622263779527559
 20
-7.396358267716535
 30
0.0
 10
-3.622263779527559
 20
-7.396358267716535
 30
0.0
 10
-3.622263779527559
 20
-7.396358267716535
 30
0.0
 10
-3.622263779527559
 20
-7.396358267716535
 30
0.0
 10
-3.673015748031496
 20
-7.440976377952756
 30
0.0
 10
-3.673015748031496
 20
-7.440976377952756
 30
0.0
 10
-3.673015748031496
 20
-7.440976377952756
 30
0.0
 10
-3.673015748031496
 20
-7.440976377952756
 30
0.0
 10
-3.72913779527559
 20
-7.478606299212599
 30
0.0
 10
-3.72913779527559
 20
-7.478606299212599
 30
0.0
 10
-3.72913779527559
 20
-7.478606299212599
 30
0.0
 10
-3.72913779527559
 20
-7.478606299212599
 30
0.0
 10
-3.789653543307087
 20
-7.508653543307086
 30
0.0
 10
-3.789653543307087
 20
-7.508653543307086
 30
0.0
 10
-3.789653543307087
 20
-7.508653543307086
 30
0.0
 10
-3.789653543307087
 20
-7.508653543307086
 30
0.0
 10
-3.85359842519685
 20
-7.530543307086615
 30
0.0
 10
-3.85359842519685
 20
-7.530543307086615
 30
0.0
 10
-3.85359842519685
 20
-7.530543307086615
 30
0.0
 10
-3.85359842519685
 20
-7.530543307086615
 30
0.0
 10
-3.919818897637795
 20
-7.543948818897638
 30
0.0
 10
-3.919818897637795
 20
-7.543948818897638
 30
0.0
 10
-3.919818897637795
 20
-7.543948818897638
 30
0.0
 10
-3.919818897637795
 20
-7.543948818897638
 30
0.0
 10
-3.987224409448819
 20
-7.548610236220473
 30
0.0
 10
-3.987224409448819
 20
-7.548610236220473
 30
0.0
 10
-3.987224409448819
 20
-7.548610236220473
 30
0.0
 10
-3.987224409448819
 20
-7.548610236220473
 30
0.0
 10
-8.525232283464566
 20
-7.548610236220473
 30
0.0
 10
-8.525232283464566
 20
-7.548610236220473
 30
0.0
 10
-8.525232283464566
 20
-7.548610236220473
 30
0.0
 10
-8.525232283464566
 20
-7.548610236220473
 30
0.0
 10
-8.592637795275591
 20
-7.543948818897638
 30
0.0
 10
-8.592637795275591
 20
-7.543948818897638
 30
0.0
 10
-8.592637795275591
 20
-7.543948818897638
 30
0.0
 10
-8.592637795275591
 20
-7.543948818897638
 30
0.0
 10
-8.658862204724409
 20
-7.530543307086615
 30
0.0
 10
-8.658862204724409
 20
-7.530543307086615
 30
0.0
 10
-8.658862204724409
 20
-7.530543307086615
 30
0.0
 10
-8.658862204724409
 20
-7.530543307086615
 30
0.0
 10
-8.722787401574804
 20
-7.508653543307086
 30
0.0
 10
-8.722787401574804
 20
-7.508653543307086
 30
0.0
 10
-8.722787401574804
 20
-7.508653543307086
 30
0.0
 10
-8.722787401574804
 20
-7.508653543307086
 30
0.0
 10
-8.783318897637795
 20
-7.478629921259842
 30
0.0
 10
-8.783318897637795
 20
-7.478629921259842
 30
0.0
 10
-8.783318897637795
 20
-7.478629921259842
 30
0.0
 10
-8.783318897637795
 20
-7.478629921259842
 30
0.0
 10
-8.839437007874016
 20
-7.441
 30
0.0
 10
-8.839437007874016
 20
-7.441
 30
0.0
 10
-8.839437007874016
 20
-7.441
 30
0.0
 10
-8.839437007874016
 20
-7.441
 30
0.0
 10
-8.890181102362204
 20
-7.39638188976378
 30
0.0
 10
-8.890181102362204
 20
-7.39638188976378
 30
0.0
 10
-8.890181102362204
 20
-7.39638188976378
 30
0.0
 10
-8.890181102362204
 20
-7.39638188976378
 30
0.0
 10
-8.934685039370079
 20
-7.345535433070866
 30
0.0
 10
-8.934685039370079
 20
-7.345535433070866
 30
0.0
 10
-8.934685039370079
 20
-7.345535433070866
 30
0.0
 10
-8.934685039370079
 20
-7.345535433070866
 30
0.0
 10
-8.972216535433072
 20
-7.289342519685039
 30
0.0
 10
-8.972216535433072
 20
-7.289342519685039
 30
0.0
 10
-8.972216535433072
 20
-7.289342519685039
 30
0.0
 10
-8.972216535433072
 20
-7.289342519685039
 30
0.0
 10
-9.002110236220473
 20
-7.228759842519685
 30
0.0
 10
-9.002110236220473
 20
-7.228759842519685
 30
0.0
 10
-9.002110236220473
 20
-7.228759842519685
 30
0.0
 10
-9.002110236220473
 20
-7.228759842519685
 30
0.0
 10
-9.02388188976378
 20
-7.164787401574803
 30
0.0
 10
-9.02388188976378
 20
-7.164787401574803
 30
0.0
 10
-9.02388188976378
 20
-7.164787401574803
 30
0.0
 10
-9.02388188976378
 20
-7.164787401574803
 30
0.0
 10
-9.03713779527559
 20
-7.098527559055118
 30
0.0
 10
-9.03713779527559
 20
-7.098527559055118
 30
0.0
 10
-9.03713779527559
 20
-7.098527559055118
 30
0.0
 10
-9.03713779527559
 20
-7.098527559055118
 30
0.0
 10
-9.041669291338582
 20
-7.031106299212598
 30
0.0
 10
-9.041669291338582
 20
-7.031106299212598
 30
0.0
 10
-9.041669291338582
 20
-7.031106299212598
 30
0.0
 10
-9.041669291338582
 20
-7.031106299212598
 30
0.0
 10
-9.041669291338582
 20
-7.031086614173228
 30
0.0
 10
-9.041669291338582
 20
-7.031086614173228
 30
0.0
  0
SPLINE
  5
79
330
1F
100
AcDbEntity
  8
Katman 1
370
   100
100
AcDbSpline
210
0.0
220
0.0
230
1.0
 70
    11
 71
     3
 72
    20
 73
    16
 74
     0
 42
0.000000001
 43
0.0000000001
 40
0.0
 40
0.0
 40
0.0
 40
0.0
 40
0.2
 40
0.2
 40
0.2
 40
0.2
 40
0.4
 40
0.4
 40
0.4
 40
0.4
 40
0.6
 40
0.6
 40
0.6
 40
0.6
 40
1.0
 40
1.0
 40
1.0
 40
1.0
 10
-6.638374015748031
 20
-7.268846456692914
 30
0.0
 10
-6.638374015748031
 20
-7.268846456692914
 30
0.0
 10
-5.857779527559055
 20
-7.268846456692914
 30
0.0
 10
-5.857779527559055
 20
-7.268846456692914
 30
0.0
 10
-5.857779527559055
 20
-7.268846456692914
 30
0.0
 10
-5.857779527559055
 20
-7.268846456692914
 30
0.0
 10
-5.857779527559055
 20
-7.158988188976378
 30
0.0
 10
-5.857779527559055
 20
-7.158988188976378
 30
0.0
 10
-5.857779527559055
 20
-7.158988188976378
 30
0.0
 10
-5.857779527559055
 20
-7.158988188976378
 30
0.0
 10
-6.638374015748031
 20
-7.158988188976378
 30
0.0
 10
-6.638374015748031
 20
-7.158988188976378
 30
0.0
 10
-6.638374015748031
 20
-7.158988188976378
 30
0.0
 10
-6.638374015748031
 20
-7.158988188976378
 30
0.0
 10
-6.638374015748031
 20
-7.268846456692914
 30
0.0
 10
-6.638374015748031
 20
-7.268846456692914
 30
0.0
  0
SPLINE
  5
7A
330
1F
100
AcDbEntity
  8
Katman 1
370
   100
100
AcDbSpline
210
0.0
220
0.0
230
1.0
 70
    11
 71
     3
 72
    20
 73
    16
 74
     0
 42
0.000000001
 43
0.0000000001
 40
0.0
 40
0.0
 40
0.0
 40
0.0
 40
0.2
 40
0.2
 40
0.2
 40
0.2
 40
0.4
 40
0.4
 40
0.4
 40
0.4
 40
0.6
 40
0.6
 40
0.6
 40
0.6
 40
1.0
 40
1.0
 40
1.0
 40
1.0
 10
-6.638374015748031
 20
-0.3283464566929134
 30
0.0
 10
-6.638374015748031
 20
-0.3283464566929134
 30
0.0
 10
-6.638374015748031
 20
-0.4382086614173228
 30
0.0
 10
-6.638374015748031
 20
-0.4382086614173228
 30
0.0
 10
-6.638374015748031
 20
-0.4382086614173228
 30
0.0
 10
-6.638374015748031
 20
-0.4382086614173228
 30
0.0
 10
-5.857779527559055
 20
-0.4382086614173228
 30
0.0
 10
-5.857779527559055
 20
-0.4382086614173228
 30
0.0
 10
-5.857779527559055
 20
-0.4382086614173228
 30
0.0
 10
-5.857779527559055
 20
-0.4382086614173228
 30
0.0
 10
-5.857779527559055
 20
-0.3283464566929134
 30
0.0
 10
-5.857779527559055
 20
-0.3283464566929134
 30
0.0
 10
-5.857779527559055
 20
-0.3283464566929134
 30
0.0
 10
-5.857779527559055
 20
-0.3283464566929134
 30
0.0
 10
-6.638374015748031
 20
-0.3283464566929134
 30
0.0
 10
-6.638374015748031
 20
-0.3283464566929134
 30
0.0
  0
SPLINE
  5
7B
330
1F
100
AcDbEntity
  8
Katman 1
370
   100
100
AcDbSpline
210
0.0
220
0.0
230
1.0
 70
    11
 71
     3
 72
    20
 73
    16
 74
     0
 42
0.000000001
 43
0.0000000001
 40
0.0
 40
0.0
 40
0.0
 40
0.0
 40
0.2
 40
0.2
 40
0.2
 40
0.2
 40
0.4
 40
0.4
 40
0.4
 40
0.4
 40
0.6
 40
0.6
 40
0.6
 40
0.6
 40
1.0
 40
1.0
 40
1.0
 40
1.0
 10
-4.53446062992126
 20
-1.161929133858268
 30
0.0
 10
-4.53446062992126
 20
-1.161929133858268
 30
0.0
 10
-4.653543307086614
 20
-1.161929133858268
 30
0.0
 10
-4.653543307086614
 20
-1.161929133858268
 30
0.0
 10
-4.653543307086614
 20
-1.161929133858268
 30
0.0
 10
-4.653543307086614
 20
-1.161929133858268
 30
0.0
 10
-4.653543307086614
 20
-1.965374015748031
 30
0.0
 10
-4.653543307086614
 20
-1.965374015748031
 30
0.0
 10
-4.653543307086614
 20
-1.965374015748031
 30
0.0
 10
-4.653543307086614
 20
-1.965374015748031
 30
0.0
 10
-4.53446062992126
 20
-1.965374015748031
 30
0.0
 10
-4.53446062992126
 20
-1.965374015748031
 30
0.0
 10
-4.53446062992126
 20
-1.965374015748031
 30
0.0
 10
-4.53446062992126
 20
-1.965374015748031
 30
0.0
 10
-4.53446062992126
 20
-1.161929133858268
 30
0.0
 10
-4.53446062992126
 20
-1.161929133858268
 30
0.0
  0
SPLINE
  5
7C
330
1F
100
AcDbEntity
  8
Katman 1
370
   100
100
AcDbSpline
210
0.0
220
0.0
230
1.0
 70
    11
 71
     3
 72
    20
 73
    16
 74
     0
 42
0.000000001
 43
0.0000000001
 40
0.0
 40
0.0
 40
0.0
 40
0.0
 40
0.2
 40
0.2
 40
0.2
 40
0.2
 40
0.4
 40
0.4
 40
0.4
 40
0.4
 40
0.6
 40
0.6
 40
0.6
 40
0.6
 40
1.0
 40
1.0
 40
1.0
 40
1.0
 10
-3.834696850393701
 20
-5.141527559055118
 30
0.0
 10
-3.834696850393701
 20
-5.141527559055118
 30
0.0
 10
-3.834696850393701
 20
-4.338066929133858
 30
0.0
 10
-3.834696850393701
 20
-4.338066929133858
 30
0.0
 10
-3.834696850393701
 20
-4.338066929133858
 30
0.0
 10
-3.834696850393701
 20
-4.338066929133858
 30
0.0
 10
-3.956027559055118
 20
-4.338066929133858
 30
0.0
 10
-3.956027559055118
 20
-4.338066929133858
 30
0.0
 10
-3.956027559055118
 20
-4.338066929133858
 30
0.0
 10
-3.956027559055118
 20
-4.338066929133858
 30
0.0
 10
-3.956027559055118
 20
-5.141527559055118
 30
0.0
 10
-3.956027559055118
 20
-5.141527559055118
 30
0.0
 10
-3.956027559055118
 20
-5.141527559055118
 30
0.0
 10
-3.956027559055118
 20
-5.141527559055118
 30
0.0
 10
-3.834696850393701
 20
-5.141527559055118
 30
0.0
 10
-3.834696850393701
 20
-5.141527559055118
 30
0.0
  0
SPLINE
  5
7D
330
1F
100
AcDbEntity
  8
Katman 1
370
   100
100
AcDbSpline
210
0.0
220
0.0
230
1.0
 70
    11
 71
     3
 72
    20
 73
    16
 74
     0
 42
0.000000001
 43
0.0000000001
 40
0.0
 40
0.0
 40
0.0
 40
0.0
 40
0.2
 40
0.2
 40
0.2
 40
0.2
 40
0.4
 40
0.4
 40
0.4
 40
0.4
 40
0.6
 40
0.6
 40
0.6
 40
0.6
 40
1.0
 40
1.0
 40
1.0
 40
1.0
 10
-7.831228346456693
 20
-6.394976377952756
 30
0.0
 10
-7.831228346456693
 20
-6.394976377952756
 30
0.0
 10
-7.831228346456693
 20
-5.59153937007874
 30
0.0
 10
-7.831228346456693
 20
-5.59153937007874
 30
0.0
 10
-7.831228346456693
 20
-5.59153937007874
 30
0.0
 10
-7.831228346456693
 20
-5.59153937007874
 30
0.0
 10
-7.950318897637795
 20
-5.59153937007874
 30
0.0
 10
-7.950318897637795
 20
-5.59153937007874
 30
0.0
 10
-7.950318897637795
 20
-5.59153937007874
 30
0.0
 10
-7.950318897637795
 20
-5.59153937007874
 30
0.0
 10
-7.950318897637795
 20
-6.394976377952756
 30
0.0
 10
-7.950318897637795
 20
-6.394976377952756
 30
0.0
 10
-7.950318897637795
 20
-6.394976377952756
 30
0.0
 10
-7.950318897637795
 20
-6.394976377952756
 30
0.0
 10
-7.831228346456693
 20
-6.394976377952756
 30
0.0
 10
-7.831228346456693
 20
-6.394976377952756
 30
0.0
  0
SPLINE
  5
7E
330
1F
100
AcDbEntity
  8
Katman 1
370
   100
100
AcDbSpline
210
0.0
220
0.0
230
1.0
 70
    11
 71
     3
 72
    20
 73
    16
 74
     0
 42
0.000000001
 43
0.0000000001
 40
0.0
 40
0.0
 40
0.0
 40
0.0
 40
0.2
 40
0.2
 40
0.2
 40
0.2
 40
0.4
 40
0.4
 40
0.4
 40
0.4
 40
0.6
 40
0.6
 40
0.6
 40
0.6
 40
1.0
 40
1.0
 40
1.0
 40
1.0
 10
-8.665566929133858
 20
-5.14153937007874
 30
0.0
 10
-8.665566929133858
 20
-5.14153937007874
 30
0.0
 10
-8.544240157480315
 20
-5.14153937007874
 30
0.0
 10
-8.544240157480315
 20
-5.14153937007874
 30
0.0
 10
-8.544240157480315
 20
-5.14153937007874
 30
0.0
 10
-8.544240157480315
 20
-5.14153937007874
 30
0.0
 10
-8.544240157480315
 20
-4.338110236220473
 30
0.0
 10
-8.544240157480315
 20
-4.338110236220473
 30
0.0
 10
-8.544240157480315
 20
-4.338110236220473
 30
0.0
 10
-8.544240157480315
 20
-4.338110236220473
 30
0.0
 10
-8.665566929133858
 20
-4.338110236220473
 30
0.0
 10
-8.665566929133858
 20
-4.338110236220473
 30
0.0
 10
-8.665566929133858
 20
-4.338110236220473
 30
0.0
 10
-8.665566929133858
 20
-4.338110236220473
 30
0.0
 10
-8.665566929133858
 20
-5.14153937007874
 30
0.0
 10
-8.665566929133858
 20
-5.14153937007874
 30
0.0
  0
SPLINE
  5
7F
330
1F
100
AcDbEntity
  8
Katman 1
370
   100
100
AcDbSpline
210
0.0
220
0.0
230
1.0
 70
    11
 71
     3
 72
    20
 73
    16
 74
     0
 42
0.000000001
 43
0.0000000001
 40
0.0
 40
0.0
 40
0.0
 40
0.0
 40
0.2
 40
0.2
 40
0.2
 40
0.2
 40
0.4
 40
0.4
 40
0.4
 40
0.4
 40
0.6
 40
0.6
 40
0.6
 40
0.6
 40
1.0
 40
1.0
 40
1.0
 40
1.0
 10
-7.952535433070866
 20
-1.965389763779527
 30
0.0
 10
-7.952535433070866
 20
-1.965389763779527
 30
0.0
 10
-7.831228346456693
 20
-1.965389763779527
 30
0.0
 10
-7.831228346456693
 20
-1.965389763779527
 30
0.0
 10
-7.831228346456693
 20
-1.965389763779527
 30
0.0
 10
-7.831228346456693
 20
-1.965389763779527
 30
0.0
 10
-7.831228346456693
 20
-1.161956692913386
 30
0.0
 10
-7.831228346456693
 20
-1.161956692913386
 30
0.0
 10
-7.831228346456693
 20
-1.161956692913386
 30
0.0
 10
-7.831228346456693
 20
-1.161956692913386
 30
0.0
 10
-7.952535433070866
 20
-1.161956692913386
 30
0.0
 10
-7.952535433070866
 20
-1.161956692913386
 30
0.0
 10
-7.952535433070866
 20
-1.161956692913386
 30
0.0
 10
-7.952535433070866
 20
-1.161956692913386
 30
0.0
 10
-7.952535433070866
 20
-1.965389763779527
 30
0.0
 10
-7.952535433070866
 20
-1.965389763779527
 30
0.0
  0
SPLINE
  5
80
330
1F
100
AcDbEntity
  8
Katman 1
370
   100
100
AcDbSpline
210
0.0
220
0.0
230
1.0
 70
    11
 71
     3
 72
    20
 73
    16
 74
     0
 42
0.000000001
 43
0.0000000001
 40
0.0
 40
0.0
 40
0.0
 40
0.0
 40
0.2
 40
0.2
 40
0.2
 40
0.2
 40
0.4
 40
0.4
 40
0.4
 40
0.4
 40
0.6
 40
0.6
 40
0.6
 40
0.6
 40
1.0
 40
1.0
 40
1.0
 40
1.0
 10
2.212874015748032
 20
-6.064165354330709
 30
0.0
 10
2.212874015748032
 20
-6.064165354330709
 30
0.0
 10
2.212874015748032
 20
-5.601763779527559
 30
0.0
 10
2.212874015748032
 20
-5.601763779527559
 30
0.0
 10
2.212874015748032
 20
-5.601763779527559
 30
0.0
 10
2.212874015748032
 20
-5.601763779527559
 30
0.0
 10
1.418566929133858
 20
-5.601763779527559
 30
0.0
 10
1.418566929133858
 20
-5.601763779527559
 30
0.0
 10
1.418566929133858
 20
-5.601763779527559
 30
0.0
 10
1.418566929133858
 20
-5.601763779527559
 30
0.0
 10
1.418566929133858
 20
-6.064165354330709
 30
0.0
 10
1.418566929133858
 20
-6.064165354330709
 30
0.0
 10
1.418566929133858
 20
-6.064165354330709
 30
0.0
 10
1.418566929133858
 20
-6.064165354330709
 30
0.0
 10
2.212874015748032
 20
-6.064165354330709
 30
0.0
 10
2.212874015748032
 20
-6.064165354330709
 30
0.0
  0
SPLINE
  5
81
330
1F
100
AcDbEntity
  8
Katman 1
370
   100
100
AcDbSpline
210
0.0
220
0.0
230
1.0
 70
    11
 71
     3
 72
    20
 73
    16
 74
     0
 42
0.000000001
 43
0.0000000001
 40
0.0
 40
0.0
 40
0.0
 40
0.0
 40
0.2
 40
0.2
 40
0.2
 40
0.2
 40
0.4
 40
0.4
 40
0.4
 40
0.4
 40
0.6
 40
0.6
 40
0.6
 40
0.6
 40
1.0
 40
1.0
 40
1.0
 40
1.0
 10
1.418566929133858
 20
-6.622610236220472
 30
0.0
 10
1.418566929133858
 20
-6.622610236220472
 30
0.0
 10
2.212874015748032
 20
-6.622610236220472
 30
0.0
 10
2.212874015748032
 20
-6.622610236220472
 30
0.0
 10
2.212874015748032
 20
-6.622610236220472
 30
0.0
 10
2.212874015748032
 20
-6.622610236220472
 30
0.0
 10
2.212874015748032
 20
-6.160236220472441
 30
0.0
 10
2.212874015748032
 20
-6.160236220472441
 30
0.0
 10
2.212874015748032
 20
-6.160236220472441
 30
0.0
 10
2.212874015748032
 20
-6.160236220472441
 30
0.0
 10
1.418566929133858
 20
-6.160236220472441
 30
0.0
 10
1.418566929133858
 20
-6.160236220472441
 30
0.0
 10
1.418566929133858
 20
-6.160236220472441
 30
0.0
 10
1.418566929133858
 20
-6.160236220472441
 30
0.0
 10
1.418566929133858
 20
-6.622610236220472
 30
0.0
 10
1.418566929133858
 20
-6.622610236220472
 30
0.0
  0
SPLINE
  5
82
330
1F
100
AcDbEntity
  8
Katman 1
370
   100
100
AcDbSpline
210
0.0
220
0.0
230
1.0
 70
    11
 71
     3
 72
    20
 73
    16
 74
     0
 42
0.000000001
 43
0.0000000001
 40
0.0
 40
0.0
 40
0.0
 40
0.0
 40
0.2
 40
0.2
 40
0.2
 40
0.2
 40
0.4
 40
0.4
 40
0.4
 40
0.4
 40
0.6
 40
0.6
 40
0.6
 40
0.6
 40
1.0
 40
1.0
 40
1.0
 40
1.0
 10
2.212972440944882
 20
-4.3993031496063
 30
0.0
 10
2.212972440944882
 20
-4.3993031496063
 30
0.0
 10
1.418665354330709
 20
-4.3993031496063
 30
0.0
 10
1.418665354330709
 20
-4.3993031496063
 30
0.0
 10
1.418665354330709
 20
-4.3993031496063
 30
0.0
 10
1.418665354330709
 20
-4.3993031496063
 30
0.0
 10
1.418665354330709
 20
-4.861681102362205
 30
0.0
 10
1.418665354330709
 20
-4.861681102362205
 30
0.0
 10
1.418665354330709
 20
-4.861681102362205
 30
0.0
 10
1.418665354330709
 20
-4.861681102362205
 30
0.0
 10
2.212972440944882
 20
-4.861681102362205
 30
0.0
 10
2.212972440944882
 20
-4.861681102362205
 30
0.0
 10
2.212972440944882
 20
-4.861681102362205
 30
0.0
 10
2.212972440944882
 20
-4.861681102362205
 30
0.0
 10
2.212972440944882
 20
-4.3993031496063
 30
0.0
 10
2.212972440944882
 20
-4.3993031496063
 30
0.0
  0
SPLINE
  5
83
330
1F
100
AcDbEntity
  8
Katman 1
370
   100
100
AcDbSpline
210
0.0
220
0.0
230
1.0
 70
    11
 71
     3
 72
    20
 73
    16
 74
     0
 42
0.000000001
 43
0.0000000001
 40
0.0
 40
0.0
 40
0.0
 40
0.0
 40
0.2
 40
0.2
 40
0.2
 40
0.2
 40
0.4
 40
0.4
 40
0.4
 40
0.4
 40
0.6
 40
0.6
 40
0.6
 40
0.6
 40
1.0
 40
1.0
 40
1.0
 40
1.0
 10
2.212972440944882
 20
-3.840858267716535
 30
0.0
 10
2.212972440944882
 20
-3.840858267716535
 30
0.0
 10
1.418665354330709
 20
-3.840858267716535
 30
0.0
 10
1.418665354330709
 20
-3.840858267716535
 30
0.0
 10
1.418665354330709
 20
-3.840858267716535
 30
0.0
 10
1.418665354330709
 20
-3.840858267716535
 30
0.0
 10
1.418665354330709
 20
-4.303236220472441
 30
0.0
 10
1.418665354330709
 20
-4.303236220472441
 30
0.0
 10
1.418665354330709
 20
-4.303236220472441
 30
0.0
 10
1.418665354330709
 20
-4.303236220472441
 30
0.0
 10
2.212972440944882
 20
-4.303236220472441
 30
0.0
 10
2.212972440944882
 20
-4.303236220472441
 30
0.0
 10
2.212972440944882
 20
-4.303236220472441
 30
0.0
 10
2.212972440944882
 20
-4.303236220472441
 30
0.0
 10
2.212972440944882
 20
-3.840858267716535
 30
0.0
 10
2.212972440944882
 20
-3.840858267716535
 30
0.0
  0
SPLINE
  5
84
330
1F
100
AcDbEntity
  8
Katman 1
370
   100
100
AcDbSpline
210
0.0
220
0.0
230
1.0
 70
    11
 71
     3
 72
   168
 73
   164
 74
     0
 42
0.000000001
 43
0.0000000001
 40
0.0
 40
0.0
 40
0.0
 40
0.0
 40
0.0238095238095238
 40
0.0238095238095238
 40
0.0238095238095238
 40
0.0238095238095238
 40
0.0476190476190476
 40
0.0476190476190476
 40
0.0476190476190476
 40
0.0476190476190476
 40
0.0714285714285714
 40
0.0714285714285714
 40
0.0714285714285714
 40
0.0714285714285714
 40
0.0952380952380952
 40
0.0952380952380952
 40
0.0952380952380952
 40
0.0952380952380952
 40
0.119047619047619
 40
0.119047619047619
 40
0.119047619047619
 40
0.119047619047619
 40
0.1428571428571428
 40
0.1428571428571428
 40
0.1428571428571428
 40
0.1428571428571428
 40
0.1666666666666667
 40
0.1666666666666667
 40
0.1666666666666667
 40
0.1666666666666667
 40
0.1904761904761905
 40
0.1904761904761905
 40
0.1904761904761905
 40
0.1904761904761905
 40
0.2142857142857143
 40
0.2142857142857143
 40
0.2142857142857143
 40
0.2142857142857143
 40
0.2380952380952381
 40
0.2380952380952381
 40
0.2380952380952381
 40
0.2380952380952381
 40
0.2619047619047619
 40
0.2619047619047619
 40
0.2619047619047619
 40
0.2619047619047619
 40
0.2857142857142857
 40
0.2857142857142857
 40
0.2857142857142857
 40
0.2857142857142857
 40
0.3095238095238095
 40
0.3095238095238095
 40
0.3095238095238095
 40
0.3095238095238095
 40
0.3333333333333333
 40
0.3333333333333333
 40
0.3333333333333333
 40
0.3333333333333333
 40
0.3571428571428572
 40
0.3571428571428572
 40
0.3571428571428572
 40
0.3571428571428572
 40
0.3809523809523809
 40
0.3809523809523809
 40
0.3809523809523809
 40
0.3809523809523809
 40
0.4047619047619048
 40
0.4047619047619048
 40
0.4047619047619048
 40
0.4047619047619048
 40
0.4285714285714285
 40
0.4285714285714285
 40
0.4285714285714285
 40
0.4285714285714285
 40
0.4523809523809524
 40
0.4523809523809524
 40
0.4523809523809524
 40
0.4523809523809524
 40
0.4761904761904762
 40
0.4761904761904762
 40
0.4761904761904762
 40
0.4761904761904762
 40
0.5
 40
0.5
 40
0.5
 40
0.5
 40
0.5238095238095238
 40
0.5238095238095238
 40
0.5238095238095238
 40
0.5238095238095238
 40
0.5476190476190477
 40
0.5476190476190477
 40
0.5476190476190477
 40
0.5476190476190477
 40
0.5714285714285714
 40
0.5714285714285714
 40
0.5714285714285714
 40
0.5714285714285714
 40
0.5952380952380952
 40
0.5952380952380952
 40
0.5952380952380952
 40
0.5952380952380952
 40
0.6190476190476191
 40
0.6190476190476191
 40
0.6190476190476191
 40
0.6190476190476191
 40
0.6428571428571429
 40
0.6428571428571429
 40
0.6428571428571429
 40
0.6428571428571429
 40
0.6666666666666666
 40
0.6666666666666666
 40
0.6666666666666666
 40
0.6666666666666666
 40
0.6904761904761905
 40
0.6904761904761905
 40
0.6904761904761905
 40
0.6904761904761905
 40
0.7142857142857143
 40
0.7142857142857143
 40
0.7142857142857143
 40
0.7142857142857143
 40
0.7380952380952381
 40
0.7380952380952381
 40
0.7380952380952381
 40
0.7380952380952381
 40
0.7619047619047619
 40
0.7619047619047619
 40
0.7619047619047619
 40
0.7619047619047619
 40
0.7857142857142857
 40
0.7857142857142857
 40
0.7857142857142857
 40
0.7857142857142857
 40
0.8095238095238095
 40
0.8095238095238095
 40
0.8095238095238095
 40
0.8095238095238095
 40
0.8333333333333334
 40
0.8333333333333334
 40
0.8333333333333334
 40
0.8333333333333334
 40
0.8571428571428571
 40
0.8571428571428571
 40
0.8571428571428571
 40
0.8571428571428571
 40
0.8809523809523809
 40
0.8809523809523809
 40
0.8809523809523809
 40
0.8809523809523809
 40
0.9047619047619048
 40
0.9047619047619048
 40
0.9047619047619048
 40
0.9047619047619048
 40
0.9285714285714286
 40
0.9285714285714286
 40
0.9285714285714286
 40
0.9285714285714286
 40
0.9523809523809523
 40
0.9523809523809523
 40
0.9523809523809523
 40
0.9523809523809523
 40
1.0
 40
1.0
 40
1.0
 40
1.0
 10
2.836775590551181
 20
-6.320448818897638
 30
0.0
 10
2.836775590551181
 20
-6.320448818897638
 30
0.0
 10
2.836775590551181
 20
-6.320464566929134
 30
0.0
 10
2.836775590551181
 20
-6.320464566929134
 30
0.0
 10
2.836775590551181
 20
-6.320464566929134
 30
0.0
 10
2.836775590551181
 20
-6.320464566929134
 30
0.0
 10
2.836665354330709
 20
-6.320484251968504
 30
0.0
 10
2.836665354330709
 20
-6.320484251968504
 30
0.0
 10
2.836665354330709
 20
-6.320484251968504
 30
0.0
 10
2.836665354330709
 20
-6.320484251968504
 30
0.0
 10
2.836665354330709
 20
-6.322775590551181
 30
0.0
 10
2.836665354330709
 20
-6.322775590551181
 30
0.0
 10
2.836665354330709
 20
-6.322775590551181
 30
0.0
 10
2.836665354330709
 20
-6.322775590551181
 30
0.0
 10
2.836153543307087
 20
-6.899468503937008
 30
0.0
 10
2.836153543307087
 20
-6.899468503937008
 30
0.0
 10
2.836153543307087
 20
-6.899468503937008
 30
0.0
 10
2.836153543307087
 20
-6.899468503937008
 30
0.0
 10
2.955625984251968
 20
-6.899437007874016
 30
0.0
 10
2.955625984251968
 20
-6.899437007874016
 30
0.0
 10
2.955625984251968
 20
-6.899437007874016
 30
0.0
 10
2.955625984251968
 20
-6.899437007874016
 30
0.0
 10
2.955625984251968
 20
-7.291409448818897
 30
0.0
 10
2.955625984251968
 20
-7.291409448818897
 30
0.0
 10
2.955625984251968
 20
-7.291409448818897
 30
0.0
 10
2.955625984251968
 20
-7.291409448818897
 30
0.0
 10
2.220389763779528
 20
-7.291409448818897
 30
0.0
 10
2.220389763779528
 20
-7.291409448818897
 30
0.0
 10
2.220389763779528
 20
-7.291409448818897
 30
0.0
 10
2.220389763779528
 20
-7.291409448818897
 30
0.0
 10
2.220389763779528
 20
-7.412830708661417
 30
0.0
 10
2.220389763779528
 20
-7.412830708661417
 30
0.0
 10
2.220389763779528
 20
-7.412830708661417
 30
0.0
 10
2.220389763779528
 20
-7.412830708661417
 30
0.0
 10
1.418665354330709
 20
-7.412830708661417
 30
0.0
 10
1.418665354330709
 20
-7.412830708661417
 30
0.0
 10
1.418665354330709
 20
-7.412830708661417
 30
0.0
 10
1.418665354330709
 20
-7.412830708661417
 30
0.0
 10
1.418665354330709
 20
-7.291409448818897
 30
0.0
 10
1.418665354330709
 20
-7.291409448818897
 30
0.0
 10
1.418665354330709
 20
-7.291409448818897
 30
0.0
 10
1.418665354330709
 20
-7.291409448818897
 30
0.0
 10
0.6840275590551181
 20
-7.291409448818897
 30
0.0
 10
0.6840275590551181
 20
-7.291409448818897
 30
0.0
 10
0.6840275590551181
 20
-7.291409448818897
 30
0.0
 10
0.6840275590551181
 20
-7.291409448818897
 30
0.0
 10
0.6840275590551181
 20
-6.899870078740157
 30
0.0
 10
0.6840275590551181
 20
-6.899870078740157
 30
0.0
 10
0.6840275590551181
 20
-6.899870078740157
 30
0.0
 10
0.6840275590551181
 20
-6.899870078740157
 30
0.0
 10
0.8031929133858268
 20
-6.899889763779528
 30
0.0
 10
0.8031929133858268
 20
-6.899889763779528
 30
0.0
 10
0.8031929133858268
 20
-6.899889763779528
 30
0.0
 10
0.8031929133858268
 20
-6.899889763779528
 30
0.0
 10
0.8031929133858268
 20
-6.31455905511811
 30
0.0
 10
0.8031929133858268
 20
-6.31455905511811
 30
0.0
 10
0.8031929133858268
 20
-6.31455905511811
 30
0.0
 10
0.8031929133858268
 20
-6.31455905511811
 30
0.0
 10
0.6841102362204724
 20
-6.31455905511811
 30
0.0
 10
0.6841102362204724
 20
-6.31455905511811
 30
0.0
 10
0.6841102362204724
 20
-6.31455905511811
 30
0.0
 10
0.6841102362204724
 20
-6.31455905511811
 30
0.0
 10
0.6841102362204724
 20
-5.528748031496063
 30
0.0
 10
0.6841102362204724
 20
-5.528748031496063
 30
0.0
 10
0.6841102362204724
 20
-5.528748031496063
 30
0.0
 10
0.6841102362204724
 20
-5.528748031496063
 30
0.0
 10
0.8032204724409449
 20
-5.528748031496063
 30
0.0
 10
0.8032204724409449
 20
-5.528748031496063
 30
0.0
 10
0.8032204724409449
 20
-5.528748031496063
 30
0.0
 10
0.8032204724409449
 20
-5.528748031496063
 30
0.0
 10
0.8032204724409449
 20
-4.944681102362205
 30
0.0
 10
0.8032204724409449
 20
-4.944681102362205
 30
0.0
 10
0.8032204724409449
 20
-4.944681102362205
 30
0.0
 10
0.8032204724409449
 20
-4.944681102362205
 30
0.0
 10
0.6840551181102362
 20
-4.944681102362205
 30
0.0
 10
0.6840551181102362
 20
-4.944681102362205
 30
0.0
 10
0.6840551181102362
 20
-4.944681102362205
 30
0.0
 10
0.6840551181102362
 20
-4.944681102362205
 30
0.0
 10
0.6840551181102362
 20
-3.773637795275591
 30
0.0
 10
0.6840551181102362
 20
-3.773637795275591
 30
0.0
 10
0.6840551181102362
 20
-3.773637795275591
 30
0.0
 10
0.6840551181102362
 20
-3.773637795275591
 30
0.0
 10
1.055775590551181
 20
-3.235484251968504
 30
0.0
 10
1.055775590551181
 20
-3.235484251968504
 30
0.0
 10
1.055775590551181
 20
-3.235484251968504
 30
0.0
 10
1.055775590551181
 20
-3.235484251968504
 30
0.0
 10
0.9577755905511811
 20
-3.167830708661417
 30
0.0
 10
0.9577755905511811
 20
-3.167830708661417
 30
0.0
 10
0.9577755905511811
 20
-3.167830708661417
 30
0.0
 10
0.9577755905511811
 20
-3.167830708661417
 30
0.0
 10
1.274653543307087
 20
-2.708594488188977
 30
0.0
 10
1.274653543307087
 20
-2.708594488188977
 30
0.0
 10
1.274653543307087
 20
-2.708594488188977
 30
0.0
 10
1.274653543307087
 20
-2.708594488188977
 30
0.0
 10
1.372692913385827
 20
-2.776665354330709
 30
0.0
 10
1.372692913385827
 20
-2.776665354330709
 30
0.0
 10
1.372692913385827
 20
-2.776665354330709
 30
0.0
 10
1.372692913385827
 20
-2.776665354330709
 30
0.0
 10
1.819484251968504
 20
-2.129472440944882
 30
0.0
 10
1.819484251968504
 20
-2.129472440944882
 30
0.0
 10
1.819484251968504
 20
-2.129472440944882
 30
0.0
 10
1.819484251968504
 20
-2.129472440944882
 30
0.0
 10
2.266291338582677
 20
-2.776346456692913
 30
0.0
 10
2.266291338582677
 20
-2.776346456692913
 30
0.0
 10
2.266291338582677
 20
-2.776346456692913
 30
0.0
 10
2.266291338582677
 20
-2.776346456692913
 30
0.0
 10
2.364275590551181
 20
-2.708665354330709
 30
0.0
 10
2.364275590551181
 20
-2.708665354330709
 30
0.0
 10
2.364275590551181
 20
-2.708665354330709
 30
0.0
 10
2.364275590551181
 20
-2.708665354330709
 30
0.0
 10
2.681374015748032
 20
-3.167830708661417
 30
0.0
 10
2.681374015748032
 20
-3.167830708661417
 30
0.0
 10
2.681374015748032
 20
-3.167830708661417
 30
0.0
 10
2.681374015748032
 20
-3.167830708661417
 30
0.0
 10
2.583374015748031
 20
-3.235484251968504
 30
0.0
 10
2.583374015748031
 20
-3.235484251968504
 30
0.0
 10
2.583374015748031
 20
-3.235484251968504
 30
0.0
 10
2.583374015748031
 20
-3.235484251968504
 30
0.0
 10
2.954862204724409
 20
-3.773708661417323
 30
0.0
 10
2.954862204724409
 20
-3.773708661417323
 30
0.0
 10
2.954862204724409
 20
-3.773708661417323
 30
0.0
 10
2.954862204724409
 20
-3.773708661417323
 30
0.0
 10
2.954862204724409
 20
-4.944248031496063
 30
0.0
 10
2.954862204724409
 20
-4.944248031496063
 30
0.0
 10
2.954862204724409
 20
-4.944248031496063
 30
0.0
 10
2.954862204724409
 20
-4.944248031496063
 30
0.0
 10
2.836511811023622
 20
-4.944248031496063
 30
0.0
 10
2.836511811023622
 20
-4.944248031496063
 30
0.0
 10
2.836511811023622
 20
-4.944248031496063
 30
0.0
 10
2.836511811023622
 20
-4.944248031496063
 30
0.0
 10
2.836511811023622
 20
-5.528318897637796
 30
0.0
 10
2.836511811023622
 20
-5.528318897637796
 30
0.0
 10
2.836511811023622
 20
-5.528318897637796
 30
0.0
 10
2.836511811023622
 20
-5.528318897637796
 30
0.0
 10
2.954610236220472
 20
-5.528318897637796
 30
0.0
 10
2.954610236220472
 20
-5.528318897637796
 30
0.0
 10
2.954610236220472
 20
-5.528318897637796
 30
0.0
 10
2.954610236220472
 20
-5.528318897637796
 30
0.0
 10
2.954610236220472
 20
-6.314141732283464
 30
0.0
 10
2.954610236220472
 20
-6.314141732283464
 30
0.0
 10
2.954610236220472
 20
-6.314141732283464
 30
0.0
 10
2.954610236220472
 20
-6.314141732283464
 30
0.0
 10
2.836748031496063
 20
-6.314141732283464
 30
0.0
 10
2.836748031496063
 20
-6.314141732283464
 30
0.0
 10
2.836748031496063
 20
-6.314141732283464
 30
0.0
 10
2.836748031496063
 20
-6.314141732283464
 30
0.0
 10
2.836748031496063
 20
-6.320370078740157
 30
0.0
 10
2.836748031496063
 20
-6.320370078740157
 30
0.0
 10
2.836748031496063
 20
-6.320370078740157
 30
0.0
 10
2.836748031496063
 20
-6.320370078740157
 30
0.0
 10
2.836417322834646
 20
-6.320370078740157
 30
0.0
 10
2.836417322834646
 20
-6.320370078740157
 30
0.0
 10
2.836417322834646
 20
-6.320370078740157
 30
0.0
 10
2.836417322834646
 20
-6.320370078740157
 30
0.0
 10
2.837275590551181
 20
-6.320448818897638
 30
0.0
 10
2.837275590551181
 20
-6.320448818897638
 30
0.0
 10
2.837275590551181
 20
-6.320448818897638
 30
0.0
 10
2.837275590551181
 20
-6.320448818897638
 30
0.0
 10
2.836748031496063
 20
-6.320448818897638
 30
0.0
 10
2.836748031496063
 20
-6.320448818897638
 30
0.0
 10
2.836748031496063
 20
-6.320448818897638
 30
0.0
 10
2.836748031496063
 20
-6.320448818897638
 30
0.0
 10
2.836775590551181
 20
-6.320448818897638
 30
0.0
 10
2.836775590551181
 20
-6.320448818897638
 30
0.0
  0
SPLINE
  5
85
330
1F
100
AcDbEntity
  8
Katman 1
370
   100
100
AcDbSpline
210
0.0
220
0.0
230
1.0
 70
    11
 71
     3
 72
    20
 73
    16
 74
     0
 42
0.000000001
 43
0.0000000001
 40
0.0
 40
0.0
 40
0.0
 40
0.0
 40
0.2
 40
0.2
 40
0.2
 40
0.2
 40
0.4
 40
0.4
 40
0.4
 40
0.4
 40
0.6
 40
0.6
 40
0.6
 40
0.6
 40
1.0
 40
1.0
 40
1.0
 40
1.0
 10
2.325011811023622
 20
-6.774877952755905
 30
0.0
 10
2.325011811023622
 20
-6.774877952755905
 30
0.0
 10
2.325011811023622
 20
-5.449555118110236
 30
0.0
 10
2.325011811023622
 20
-5.449555118110236
 30
0.0
 10
2.325011811023622
 20
-5.449555118110236
 30
0.0
 10
2.325011811023622
 20
-5.449555118110236
 30
0.0
 10
1.306389763779528
 20
-5.449555118110236
 30
0.0
 10
1.306389763779528
 20
-5.449555118110236
 30
0.0
 10
1.306389763779528
 20
-5.449555118110236
 30
0.0
 10
1.306389763779528
 20
-5.449555118110236
 30
0.0
 10
1.306389763779528
 20
-6.774877952755905
 30
0.0
 10
1.306389763779528
 20
-6.774877952755905
 30
0.0
 10
1.306389763779528
 20
-6.774877952755905
 30
0.0
 10
1.306389763779528
 20
-6.774877952755905
 30
0.0
 10
2.325011811023622
 20
-6.774877952755905
 30
0.0
 10
2.325011811023622
 20
-6.774877952755905
 30
0.0
  0
SPLINE
  5
86
330
1F
100
AcDbEntity
  8
Katman 1
370
   100
100
AcDbSpline
210
0.0
220
0.0
230
1.0
 70
    11
 71
     3
 72
    20
 73
    16
 74
     0
 42
0.000000001
 43
0.0000000001
 40
0.0
 40
0.0
 40
0.0
 40
0.0
 40
0.2
 40
0.2
 40
0.2
 40
0.2
 40
0.4
 40
0.4
 40
0.4
 40
0.4
 40
0.6
 40
0.6
 40
0.6
 40
0.6
 40
1.0
 40
1.0
 40
1.0
 40
1.0
 10
2.325011811023622
 20
-5.013889763779527
 30
0.0
 10
2.325011811023622
 20
-5.013889763779527
 30
0.0
 10
2.325011811023622
 20
-3.688555118110236
 30
0.0
 10
2.325011811023622
 20
-3.688555118110236
 30
0.0
 10
2.325011811023622
 20
-3.688555118110236
 30
0.0
 10
2.325011811023622
 20
-3.688555118110236
 30
0.0
 10
1.306389763779528
 20
-3.688555118110236
 30
0.0
 10
1.306389763779528
 20
-3.688555118110236
 30
0.0
 10
1.306389763779528
 20
-3.688555118110236
 30
0.0
 10
1.306389763779528
 20
-3.688555118110236
 30
0.0
 10
1.306389763779528
 20
-5.013889763779527
 30
0.0
 10
1.306389763779528
 20
-5.013889763779527
 30
0.0
 10
1.306389763779528
 20
-5.013889763779527
 30
0.0
 10
1.306389763779528
 20
-5.013889763779527
 30
0.0
 10
2.325011811023622
 20
-5.013889763779527
 30
0.0
 10
2.325011811023622
 20
-5.013889763779527
 30
0.0
  0
SPLINE
  5
87
330
1F
100
AcDbEntity
  8
Katman 1
370
   100
100
AcDbSpline
210
0.0
220
0.0
230
1.0
 70
    11
 71
     3
 72
    20
 73
    16
 74
     0
 42
0.000000001
 43
0.0000000001
 40
0.0
 40
0.0
 40
0.0
 40
0.0
 40
0.2
 40
0.2
 40
0.2
 40
0.2
 40
0.4
 40
0.4
 40
0.4
 40
0.4
 40
0.6
 40
0.6
 40
0.6
 40
0.6
 40
1.0
 40
1.0
 40
1.0
 40
1.0
 10
5.138334645669292
 20
-6.064165354330709
 30
0.0
 10
5.138334645669292
 20
-6.064165354330709
 30
0.0
 10
5.138334645669292
 20
-5.601763779527559
 30
0.0
 10
5.138334645669292
 20
-5.601763779527559
 30
0.0
 10
5.138334645669292
 20
-5.601763779527559
 30
0.0
 10
5.138334645669292
 20
-5.601763779527559
 30
0.0
 10
4.344027559055118
 20
-5.601763779527559
 30
0.0
 10
4.344027559055118
 20
-5.601763779527559
 30
0.0
 10
4.344027559055118
 20
-5.601763779527559
 30
0.0
 10
4.344027559055118
 20
-5.601763779527559
 30
0.0
 10
4.344027559055118
 20
-6.064165354330709
 30
0.0
 10
4.344027559055118
 20
-6.064165354330709
 30
0.0
 10
4.344027559055118
 20
-6.064165354330709
 30
0.0
 10
4.344027559055118
 20
-6.064165354330709
 30
0.0
 10
5.138334645669292
 20
-6.064165354330709
 30
0.0
 10
5.138334645669292
 20
-6.064165354330709
 30
0.0
  0
SPLINE
  5
88
330
1F
100
AcDbEntity
  8
Katman 1
370
   100
100
AcDbSpline
210
0.0
220
0.0
230
1.0
 70
    11
 71
     3
 72
    20
 73
    16
 74
     0
 42
0.000000001
 43
0.0000000001
 40
0.0
 40
0.0
 40
0.0
 40
0.0
 40
0.2
 40
0.2
 40
0.2
 40
0.2
 40
0.4
 40
0.4
 40
0.4
 40
0.4
 40
0.6
 40
0.6
 40
0.6
 40
0.6
 40
1.0
 40
1.0
 40
1.0
 40
1.0
 10
4.344027559055118
 20
-6.622610236220472
 30
0.0
 10
4.344027559055118
 20
-6.622610236220472
 30
0.0
 10
5.138334645669292
 20
-6.622610236220472
 30
0.0
 10
5.138334645669292
 20
-6.622610236220472
 30
0.0
 10
5.138334645669292
 20
-6.622610236220472
 30
0.0
 10
5.138334645669292
 20
-6.622610236220472
 30
0.0
 10
5.138334645669292
 20
-6.160236220472441
 30
0.0
 10
5.138334645669292
 20
-6.160236220472441
 30
0.0
 10
5.138334645669292
 20
-6.160236220472441
 30
0.0
 10
5.138334645669292
 20
-6.160236220472441
 30
0.0
 10
4.344027559055118
 20
-6.160236220472441
 30
0.0
 10
4.344027559055118
 20
-6.160236220472441
 30
0.0
 10
4.344027559055118
 20
-6.160236220472441
 30
0.0
 10
4.344027559055118
 20
-6.160236220472441
 30
0.0
 10
4.344027559055118
 20
-6.622610236220472
 30
0.0
 10
4.344027559055118
 20
-6.622610236220472
 30
0.0
  0
SPLINE
  5
89
330
1F
100
AcDbEntity
  8
Katman 1
370
   100
100
AcDbSpline
210
0.0
220
0.0
230
1.0
 70
    11
 71
     3
 72
   168
 73
   164
 74
     0
 42
0.000000001
 43
0.0000000001
 40
0.0
 40
0.0
 40
0.0
 40
0.0
 40
0.0238095238095238
 40
0.0238095238095238
 40
0.0238095238095238
 40
0.0238095238095238
 40
0.0476190476190476
 40
0.0476190476190476
 40
0.0476190476190476
 40
0.0476190476190476
 40
0.0714285714285714
 40
0.0714285714285714
 40
0.0714285714285714
 40
0.0714285714285714
 40
0.0952380952380952
 40
0.0952380952380952
 40
0.0952380952380952
 40
0.0952380952380952
 40
0.119047619047619
 40
0.119047619047619
 40
0.119047619047619
 40
0.119047619047619
 40
0.1428571428571428
 40
0.1428571428571428
 40
0.1428571428571428
 40
0.1428571428571428
 40
0.1666666666666667
 40
0.1666666666666667
 40
0.1666666666666667
 40
0.1666666666666667
 40
0.1904761904761905
 40
0.1904761904761905
 40
0.1904761904761905
 40
0.1904761904761905
 40
0.2142857142857143
 40
0.2142857142857143
 40
0.2142857142857143
 40
0.2142857142857143
 40
0.2380952380952381
 40
0.2380952380952381
 40
0.2380952380952381
 40
0.2380952380952381
 40
0.2619047619047619
 40
0.2619047619047619
 40
0.2619047619047619
 40
0.2619047619047619
 40
0.2857142857142857
 40
0.2857142857142857
 40
0.2857142857142857
 40
0.2857142857142857
 40
0.3095238095238095
 40
0.3095238095238095
 40
0.3095238095238095
 40
0.3095238095238095
 40
0.3333333333333333
 40
0.3333333333333333
 40
0.3333333333333333
 40
0.3333333333333333
 40
0.3571428571428572
 40
0.3571428571428572
 40
0.3571428571428572
 40
0.3571428571428572
 40
0.3809523809523809
 40
0.3809523809523809
 40
0.3809523809523809
 40
0.3809523809523809
 40
0.4047619047619048
 40
0.4047619047619048
 40
0.4047619047619048
 40
0.4047619047619048
 40
0.4285714285714285
 40
0.4285714285714285
 40
0.4285714285714285
 40
0.4285714285714285
 40
0.4523809523809524
 40
0.4523809523809524
 40
0.4523809523809524
 40
0.4523809523809524
 40
0.4761904761904762
 40
0.4761904761904762
 40
0.4761904761904762
 40
0.4761904761904762
 40
0.5
 40
0.5
 40
0.5
 40
0.5
 40
0.5238095238095238
 40
0.5238095238095238
 40
0.5238095238095238
 40
0.5238095238095238
 40
0.5476190476190477
 40
0.5476190476190477
 40
0.5476190476190477
 40
0.5476190476190477
 40
0.5714285714285714
 40
0.5714285714285714
 40
0.5714285714285714
 40
0.5714285714285714
 40
0.5952380952380952
 40
0.5952380952380952
 40
0.5952380952380952
 40
0.5952380952380952
 40
0.6190476190476191
 40
0.6190476190476191
 40
0.6190476190476191
 40
0.6190476190476191
 40
0.6428571428571429
 40
0.6428571428571429
 40
0.6428571428571429
 40
0.6428571428571429
 40
0.6666666666666666
 40
0.6666666666666666
 40
0.6666666666666666
 40
0.6666666666666666
 40
0.6904761904761905
 40
0.6904761904761905
 40
0.6904761904761905
 40
0.6904761904761905
 40
0.7142857142857143
 40
0.7142857142857143
 40
0.7142857142857143
 40
0.7142857142857143
 40
0.7380952380952381
 40
0.7380952380952381
 40
0.7380952380952381
 40
0.7380952380952381
 40
0.7619047619047619
 40
0.7619047619047619
 40
0.7619047619047619
 40
0.7619047619047619
 40
0.7857142857142857
 40
0.7857142857142857
 40
0.7857142857142857
 40
0.7857142857142857
 40
0.8095238095238095
 40
0.8095238095238095
 40
0.8095238095238095
 40
0.8095238095238095
 40
0.8333333333333334
 40
0.8333333333333334
 40
0.8333333333333334
 40
0.8333333333333334
 40
0.8571428571428571
 40
0.8571428571428571
 40
0.8571428571428571
 40
0.8571428571428571
 40
0.8809523809523809
 40
0.8809523809523809
 40
0.8809523809523809
 40
0.8809523809523809
 40
0.9047619047619048
 40
0.9047619047619048
 40
0.9047619047619048
 40
0.9047619047619048
 40
0.9285714285714286
 40
0.9285714285714286
 40
0.9285714285714286
 40
0.9285714285714286
 40
0.9523809523809523
 40
0.9523809523809523
 40
0.9523809523809523
 40
0.9523809523809523
 40
1.0
 40
1.0
 40
1.0
 40
1.0
 10
5.880137795275591
 20
-6.314141732283464
 30
0.0
 10
5.880137795275591
 20
-6.314141732283464
 30
0.0
 10
5.762220472440945
 20
-6.314141732283464
 30
0.0
 10
5.762220472440945
 20
-6.314141732283464
 30
0.0
 10
5.762220472440945
 20
-6.314141732283464
 30
0.0
 10
5.762220472440945
 20
-6.314141732283464
 30
0.0
 10
5.762220472440945
 20
-6.320370078740157
 30
0.0
 10
5.762220472440945
 20
-6.320370078740157
 30
0.0
 10
5.762220472440945
 20
-6.320370078740157
 30
0.0
 10
5.762220472440945
 20
-6.320370078740157
 30
0.0
 10
5.761944881889764
 20
-6.320370078740157
 30
0.0
 10
5.761944881889764
 20
-6.320370078740157
 30
0.0
 10
5.761944881889764
 20
-6.320370078740157
 30
0.0
 10
5.761944881889764
 20
-6.320370078740157
 30
0.0
 10
5.762775590551181
 20
-6.320448818897638
 30
0.0
 10
5.762775590551181
 20
-6.320448818897638
 30
0.0
 10
5.762775590551181
 20
-6.320448818897638
 30
0.0
 10
5.762775590551181
 20
-6.320448818897638
 30
0.0
 10
5.762220472440945
 20
-6.320448818897638
 30
0.0
 10
5.762220472440945
 20
-6.320448818897638
 30
0.0
 10
5.762220472440945
 20
-6.320448818897638
 30
0.0
 10
5.762220472440945
 20
-6.320448818897638
 30
0.0
 10
5.762220472440945
 20
-6.320464566929134
 30
0.0
 10
5.762220472440945
 20
-6.320464566929134
 30
0.0
 10
5.762220472440945
 20
-6.320464566929134
 30
0.0
 10
5.762220472440945
 20
-6.320464566929134
 30
0.0
 10
5.762082677165354
 20
-6.320484251968504
 30
0.0
 10
5.762082677165354
 20
-6.320484251968504
 30
0.0
 10
5.762082677165354
 20
-6.320484251968504
 30
0.0
 10
5.762082677165354
 20
-6.320484251968504
 30
0.0
 10
5.762082677165354
 20
-6.322775590551181
 30
0.0
 10
5.762082677165354
 20
-6.322775590551181
 30
0.0
 10
5.762082677165354
 20
-6.322775590551181
 30
0.0
 10
5.762082677165354
 20
-6.322775590551181
 30
0.0
 10
5.761665354330709
 20
-6.899468503937008
 30
0.0
 10
5.761665354330709
 20
-6.899468503937008
 30
0.0
 10
5.761665354330709
 20
-6.899468503937008
 30
0.0
 10
5.761665354330709
 20
-6.899468503937008
 30
0.0
 10
5.881110236220472
 20
-6.899437007874016
 30
0.0
 10
5.881110236220472
 20
-6.899437007874016
 30
0.0
 10
5.881110236220472
 20
-6.899437007874016
 30
0.0
 10
5.881110236220472
 20
-6.899437007874016
 30
0.0
 10
5.881110236220472
 20
-7.291409448818897
 30
0.0
 10
5.881110236220472
 20
-7.291409448818897
 30
0.0
 10
5.881110236220472
 20
-7.291409448818897
 30
0.0
 10
5.881110236220472
 20
-7.291409448818897
 30
0.0
 10
5.145834645669291
 20
-7.291409448818897
 30
0.0
 10
5.145834645669291
 20
-7.291409448818897
 30
0.0
 10
5.145834645669291
 20
-7.291409448818897
 30
0.0
 10
5.145834645669291
 20
-7.291409448818897
 30
0.0
 10
5.145834645669291
 20
-7.412830708661417
 30
0.0
 10
5.145834645669291
 20
-7.412830708661417
 30
0.0
 10
5.145834645669291
 20
-7.412830708661417
 30
0.0
 10
5.145834645669291
 20
-7.412830708661417
 30
0.0
 10
4.344125984251969
 20
-7.412830708661417
 30
0.0
 10
4.344125984251969
 20
-7.412830708661417
 30
0.0
 10
4.344125984251969
 20
-7.412830708661417
 30
0.0
 10
4.344125984251969
 20
-7.412830708661417
 30
0.0
 10
4.344125984251969
 20
-7.291409448818897
 30
0.0
 10
4.344125984251969
 20
-7.291409448818897
 30
0.0
 10
4.344125984251969
 20
-7.291409448818897
 30
0.0
 10
4.344125984251969
 20
-7.291409448818897
 30
0.0
 10
3.609472440944882
 20
-7.291409448818897
 30
0.0
 10
3.609472440944882
 20
-7.291409448818897
 30
0.0
 10
3.609472440944882
 20
-7.291409448818897
 30
0.0
 10
3.609472440944882
 20
-7.291409448818897
 30
0.0
 10
3.609472440944882
 20
-6.899870078740157
 30
0.0
 10
3.609472440944882
 20
-6.899870078740157
 30
0.0
 10
3.609472440944882
 20
-6.899870078740157
 30
0.0
 10
3.609472440944882
 20
-6.899870078740157
 30
0.0
 10
3.728665354330709
 20
-6.899889763779528
 30
0.0
 10
3.728665354330709
 20
-6.899889763779528
 30
0.0
 10
3.728665354330709
 20
-6.899889763779528
 30
0.0
 10
3.728665354330709
 20
-6.899889763779528
 30
0.0
 10
3.728665354330709
 20
-6.31455905511811
 30
0.0
 10
3.728665354330709
 20
-6.31455905511811
 30
0.0
 10
3.728665354330709
 20
-6.31455905511811
 30
0.0
 10
3.728665354330709
 20
-6.31455905511811
 30
0.0
 10
3.609555118110236
 20
-6.31455905511811
 30
0.0
 10
3.609555118110236
 20
-6.31455905511811
 30
0.0
 10
3.609555118110236
 20
-6.31455905511811
 30
0.0
 10
3.609555118110236
 20
-6.31455905511811
 30
0.0
 10
3.609555118110236
 20
-5.528748031496063
 30
0.0
 10
3.609555118110236
 20
-5.528748031496063
 30
0.0
 10
3.609555118110236
 20
-5.528748031496063
 30
0.0
 10
3.609555118110236
 20
-5.528748031496063
 30
0.0
 10
3.728665354330709
 20
-5.528748031496063
 30
0.0
 10
3.728665354330709
 20
-5.528748031496063
 30
0.0
 10
3.728665354330709
 20
-5.528748031496063
 30
0.0
 10
3.728665354330709
 20
-5.528748031496063
 30
0.0
 10
3.728665354330709
 20
-4.944681102362205
 30
0.0
 10
3.728665354330709
 20
-4.944681102362205
 30
0.0
 10
3.728665354330709
 20
-4.944681102362205
 30
0.0
 10
3.728665354330709
 20
-4.944681102362205
 30
0.0
 10
3.6095
 20
-4.944681102362205
 30
0.0
 10
3.6095
 20
-4.944681102362205
 30
0.0
 10
3.6095
 20
-4.944681102362205
 30
0.0
 10
3.6095
 20
-4.944681102362205
 30
0.0
 10
3.6095
 20
-3.773637795275591
 30
0.0
 10
3.6095
 20
-3.773637795275591
 30
0.0
 10
3.6095
 20
-3.773637795275591
 30
0.0
 10
3.6095
 20
-3.773637795275591
 30
0.0
 10
3.981208661417323
 20
-3.235484251968504
 30
0.0
 10
3.981208661417323
 20
-3.235484251968504
 30
0.0
 10
3.981208661417323
 20
-3.235484251968504
 30
0.0
 10
3.981208661417323
 20
-3.235484251968504
 30
0.0
 10
3.883220472440945
 20
-3.167830708661417
 30
0.0
 10
3.883220472440945
 20
-3.167830708661417
 30
0.0
 10
3.883220472440945
 20
-3.167830708661417
 30
0.0
 10
3.883220472440945
 20
-3.167830708661417
 30
0.0
 10
4.200098425196851
 20
-2.708594488188977
 30
0.0
 10
4.200098425196851
 20
-2.708594488188977
 30
0.0
 10
4.200098425196851
 20
-2.708594488188977
 30
0.0
 10
4.200098425196851
 20
-2.708594488188977
 30
0.0
 10
4.298137795275591
 20
-2.776665354330709
 30
0.0
 10
4.298137795275591
 20
-2.776665354330709
 30
0.0
 10
4.298137795275591
 20
-2.776665354330709
 30
0.0
 10
4.298137795275591
 20
-2.776665354330709
 30
0.0
 10
4.744929133858268
 20
-2.129472440944882
 30
0.0
 10
4.744929133858268
 20
-2.129472440944882
 30
0.0
 10
4.744929133858268
 20
-2.129472440944882
 30
0.0
 10
4.744929133858268
 20
-2.129472440944882
 30
0.0
 10
5.191665354330708
 20
-2.776346456692913
 30
0.0
 10
5.191665354330708
 20
-2.776346456692913
 30
0.0
 10
5.191665354330708
 20
-2.776346456692913
 30
0.0
 10
5.191665354330708
 20
-2.776346456692913
 30
0.0
 10
5.289720472440945
 20
-2.708665354330709
 30
0.0
 10
5.289720472440945
 20
-2.708665354330709
 30
0.0
 10
5.289720472440945
 20
-2.708665354330709
 30
0.0
 10
5.289720472440945
 20
-2.708665354330709
 30
0.0
 10
5.606803149606299
 20
-3.167830708661417
 30
0.0
 10
5.606803149606299
 20
-3.167830708661417
 30
0.0
 10
5.606803149606299
 20
-3.167830708661417
 30
0.0
 10
5.606803149606299
 20
-3.167830708661417
 30
0.0
 10
5.508889763779528
 20
-3.235484251968504
 30
0.0
 10
5.508889763779528
 20
-3.235484251968504
 30
0.0
 10
5.508889763779528
 20
-3.235484251968504
 30
0.0
 10
5.508889763779528
 20
-3.235484251968504
 30
0.0
 10
5.880275590551181
 20
-3.773708661417323
 30
0.0
 10
5.880275590551181
 20
-3.773708661417323
 30
0.0
 10
5.880275590551181
 20
-3.773708661417323
 30
0.0
 10
5.880275590551181
 20
-3.773708661417323
 30
0.0
 10
5.880275590551181
 20
-4.944248031496063
 30
0.0
 10
5.880275590551181
 20
-4.944248031496063
 30
0.0
 10
5.880275590551181
 20
-4.944248031496063
 30
0.0
 10
5.880275590551181
 20
-4.944248031496063
 30
0.0
 10
5.761944881889764
 20
-4.944248031496063
 30
0.0
 10
5.761944881889764
 20
-4.944248031496063
 30
0.0
 10
5.761944881889764
 20
-4.944248031496063
 30
0.0
 10
5.761944881889764
 20
-4.944248031496063
 30
0.0
 10
5.761944881889764
 20
-5.528318897637796
 30
0.0
 10
5.761944881889764
 20
-5.528318897637796
 30
0.0
 10
5.761944881889764
 20
-5.528318897637796
 30
0.0
 10
5.761944881889764
 20
-5.528318897637796
 30
0.0
 10
5.88
 20
-5.528318897637796
 30
0.0
 10
5.88
 20
-5.528318897637796
 30
0.0
 10
5.88
 20
-5.528318897637796
 30
0.0
 10
5.88
 20
-5.528318897637796
 30
0.0
 10
5.88
 20
-6.314141732283464
 30
0.0
 10
5.88
 20
-6.314141732283464
 30
0.0
 10
5.88
 20
-6.314141732283464
 30
0.0
 10
5.88
 20
-6.314141732283464
 30
0.0
 10
5.880137795275591
 20
-6.314141732283464
 30
0.0
 10
5.880137795275591
 20
-6.314141732283464
 30
0.0
  0
SPLINE
  5
8A
330
1F
100
AcDbEntity
  8
Katman 1
370
   100
100
AcDbSpline
210
0.0
220
0.0
230
1.0
 70
    11
 71
     3
 72
    20
 73
    16
 74
     0
 42
0.000000001
 43
0.0000000001
 40
0.0
 40
0.0
 40
0.0
 40
0.0
 40
0.2
 40
0.2
 40
0.2
 40
0.2
 40
0.4
 40
0.4
 40
0.4
 40
0.4
 40
0.6
 40
0.6
 40
0.6
 40
0.6
 40
1.0
 40
1.0
 40
1.0
 40
1.0
 10
5.250417322834646
 20
-5.449555118110236
 30
0.0
 10
5.250417322834646
 20
-5.449555118110236
 30
0.0
 10
4.231834645669291
 20
-5.449555118110236
 30
0.0
 10
4.231834645669291
 20
-5.449555118110236
 30
0.0
 10
4.231834645669291
 20
-5.449555118110236
 30
0.0
 10
4.231834645669291
 20
-5.449555118110236
 30
0.0
 10
4.231834645669291
 20
-6.774877952755905
 30
0.0
 10
4.231834645669291
 20
-6.774877952755905
 30
0.0
 10
4.231834645669291
 20
-6.774877952755905
 30
0.0
 10
4.231834645669291
 20
-6.774877952755905
 30
0.0
 10
5.250417322834646
 20
-6.774877952755905
 30
0.0
 10
5.250417322834646
 20
-6.774877952755905
 30
0.0
 10
5.250417322834646
 20
-6.774877952755905
 30
0.0
 10
5.250417322834646
 20
-6.774877952755905
 30
0.0
 10
5.250417322834646
 20
-5.449555118110236
 30
0.0
 10
5.250417322834646
 20
-5.449555118110236
 30
0.0
  0
SPLINE
  5
8B
330
1F
100
AcDbEntity
  8
Katman 1
370
   100
100
AcDbSpline
210
0.0
220
0.0
230
1.0
 70
    11
 71
     3
 72
    20
 73
    16
 74
     0
 42
0.000000001
 43
0.0000000001
 40
0.0
 40
0.0
 40
0.0
 40
0.0
 40
0.2
 40
0.2
 40
0.2
 40
0.2
 40
0.4
 40
0.4
 40
0.4
 40
0.4
 40
0.6
 40
0.6
 40
0.6
 40
0.6
 40
1.0
 40
1.0
 40
1.0
 40
1.0
 10
4.231834645669291
 20
-5.013889763779527
 30
0.0
 10
4.231834645669291
 20
-5.013889763779527
 30
0.0
 10
4.231834645669291
 20
-3.688555118110236
 30
0.0
 10
4.231834645669291
 20
-3.688555118110236
 30
0.0
 10
4.231834645669291
 20
-3.688555118110236
 30
0.0
 10
4.231834645669291
 20
-3.688555118110236
 30
0.0
 10
5.250417322834646
 20
-3.688555118110236
 30
0.0
 10
5.250417322834646
 20
-3.688555118110236
 30
0.0
 10
5.250417322834646
 20
-3.688555118110236
 30
0.0
 10
5.250417322834646
 20
-3.688555118110236
 30
0.0
 10
5.250417322834646
 20
-5.013889763779527
 30
0.0
 10
5.250417322834646
 20
-5.013889763779527
 30
0.0
 10
5.250417322834646
 20
-5.013889763779527
 30
0.0
 10
5.250417322834646
 20
-5.013889763779527
 30
0.0
 10
4.231834645669291
 20
-5.013889763779527
 30
0.0
 10
4.231834645669291
 20
-5.013889763779527
 30
0.0
  0
SPLINE
  5
8C
330
1F
100
AcDbEntity
  8
Katman 1
370
   100
100
AcDbSpline
210
0.0
220
0.0
230
1.0
 70
    11
 71
     3
 72
    20
 73
    16
 74
     0
 42
0.000000001
 43
0.0000000001
 40
0.0
 40
0.0
 40
0.0
 40
0.0
 40
0.2
 40
0.2
 40
0.2
 40
0.2
 40
0.4
 40
0.4
 40
0.4
 40
0.4
 40
0.6
 40
0.6
 40
0.6
 40
0.6
 40
1.0
 40
1.0
 40
1.0
 40
1.0
 10
5.138472440944882
 20
-4.3993031496063
 30
0.0
 10
5.138472440944882
 20
-4.3993031496063
 30
0.0
 10
4.344125984251969
 20
-4.3993031496063
 30
0.0
 10
4.344125984251969
 20
-4.3993031496063
 30
0.0
 10
4.344125984251969
 20
-4.3993031496063
 30
0.0
 10
4.344125984251969
 20
-4.3993031496063
 30
0.0
 10
4.344125984251969
 20
-4.861681102362205
 30
0.0
 10
4.344125984251969
 20
-4.861681102362205
 30
0.0
 10
4.344125984251969
 20
-4.861681102362205
 30
0.0
 10
4.344125984251969
 20
-4.861681102362205
 30
0.0
 10
5.138472440944882
 20
-4.861681102362205
 30
0.0
 10
5.138472440944882
 20
-4.861681102362205
 30
0.0
 10
5.138472440944882
 20
-4.861681102362205
 30
0.0
 10
5.138472440944882
 20
-4.861681102362205
 30
0.0
 10
5.138472440944882
 20
-4.3993031496063
 30
0.0
 10
5.138472440944882
 20
-4.3993031496063
 30
0.0
  0
SPLINE
  5
8D
330
1F
100
AcDbEntity
  8
Katman 1
370
   100
100
AcDbSpline
210
0.0
220
0.0
230
1.0
 70
    11
 71
     3
 72
    20
 73
    16
 74
     0
 42
0.000000001
 43
0.0000000001
 40
0.0
 40
0.0
 40
0.0
 40
0.0
 40
0.2
 40
0.2
 40
0.2
 40
0.2
 40
0.4
 40
0.4
 40
0.4
 40
0.4
 40
0.6
 40
0.6
 40
0.6
 40
0.6
 40
1.0
 40
1.0
 40
1.0
 40
1.0
 10
5.138472440944882
 20
-3.840858267716535
 30
0.0
 10
5.138472440944882
 20
-3.840858267716535
 30
0.0
 10
4.344125984251969
 20
-3.840858267716535
 30
0.0
 10
4.344125984251969
 20
-3.840858267716535
 30
0.0
 10
4.344125984251969
 20
-3.840858267716535
 30
0.0
 10
4.344125984251969
 20
-3.840858267716535
 30
0.0
 10
4.344125984251969
 20
-4.303236220472441
 30
0.0
 10
4.344125984251969
 20
-4.303236220472441
 30
0.0
 10
4.344125984251969
 20
-4.303236220472441
 30
0.0
 10
4.344125984251969
 20
-4.303236220472441
 30
0.0
 10
5.138472440944882
 20
-4.303236220472441
 30
0.0
 10
5.138472440944882
 20
-4.303236220472441
 30
0.0
 10
5.138472440944882
 20
-4.303236220472441
 30
0.0
 10
5.138472440944882
 20
-4.303236220472441
 30
0.0
 10
5.138472440944882
 20
-3.840858267716535
 30
0.0
 10
5.138472440944882
 20
-3.840858267716535
 30
0.0
  0
SPLINE
  5
8E
330
1F
100
AcDbEntity
  8
Katman 1
370
   100
100
AcDbSpline
210
0.0
220
0.0
230
1.0
 70
    11
 71
     3
 72
    20
 73
    16
 74
     0
 42
0.000000001
 43
0.0000000001
 40
0.0
 40
0.0
 40
0.0
 40
0.0
 40
0.2
 40
0.2
 40
0.2
 40
0.2
 40
0.4
 40
0.4
 40
0.4
 40
0.4
 40
0.6
 40
0.6
 40
0.6
 40
0.6
 40
1.0
 40
1.0
 40
1.0
 40
1.0
 10
-2.801110236220473
 20
4.703834645669291
 30
0.0
 10
-2.801110236220473
 20
4.703834645669291
 30
0.0
 10
-2.801110236220473
 20
5.518724409448819
 30
0.0
 10
-2.801110236220473
 20
5.518724409448819
 30
0.0
 10
-2.801110236220473
 20
5.518724409448819
 30
0.0
 10
-2.801110236220473
 20
5.518724409448819
 30
0.0
 10
-2.046307086614173
 20
5.518724409448819
 30
0.0
 10
-2.046307086614173
 20
5.518724409448819
 30
0.0
 10
-2.046307086614173
 20
5.518724409448819
 30
0.0
 10
-2.046307086614173
 20
5.518724409448819
 30
0.0
 10
-2.046307086614173
 20
4.703834645669291
 30
0.0
 10
-2.046307086614173
 20
4.703834645669291
 30
0.0
 10
-2.046307086614173
 20
4.703834645669291
 30
0.0
 10
-2.046307086614173
 20
4.703834645669291
 30
0.0
 10
-2.801110236220473
 20
4.703834645669291
 30
0.0
 10
-2.801110236220473
 20
4.703834645669291
 30
0.0
  0
SPLINE
  5
8F
330
1F
100
AcDbEntity
  8
Katman 1
370
   100
100
AcDbSpline
210
0.0
220
0.0
230
1.0
 70
    11
 71
     3
 72
    20
 73
    16
 74
     0
 42
0.000000001
 43
0.0000000001
 40
0.0
 40
0.0
 40
0.0
 40
0.0
 40
0.2
 40
0.2
 40
0.2
 40
0.2
 40
0.4
 40
0.4
 40
0.4
 40
0.4
 40
0.6
 40
0.6
 40
0.6
 40
0.6
 40
1.0
 40
1.0
 40
1.0
 40
1.0
 10
-2.046307086614173
 20
3.778751968503937
 30
0.0
 10
-2.046307086614173
 20
3.778751968503937
 30
0.0
 10
-2.801110236220473
 20
3.778751968503937
 30
0.0
 10
-2.801110236220473
 20
3.778751968503937
 30
0.0
 10
-2.801110236220473
 20
3.778751968503937
 30
0.0
 10
-2.801110236220473
 20
3.778751968503937
 30
0.0
 10
-2.801110236220473
 20
4.593625984251968
 30
0.0
 10
-2.801110236220473
 20
4.593625984251968
 30
0.0
 10
-2.801110236220473
 20
4.593625984251968
 30
0.0
 10
-2.801110236220473
 20
4.593625984251968
 30
0.0
 10
-2.046307086614173
 20
4.593625984251968
 30
0.0
 10
-2.046307086614173
 20
4.593625984251968
 30
0.0
 10
-2.046307086614173
 20
4.593625984251968
 30
0.0
 10
-2.046307086614173
 20
4.593625984251968
 30
0.0
 10
-2.046307086614173
 20
3.778751968503937
 30
0.0
 10
-2.046307086614173
 20
3.778751968503937
 30
0.0
  0
SPLINE
  5
90
330
1F
100
AcDbEntity
  8
Katman 1
370
   100
100
AcDbSpline
210
0.0
220
0.0
230
1.0
 70
    11
 71
     3
 72
    20
 73
    16
 74
     0
 42
0.000000001
 43
0.0000000001
 40
0.0
 40
0.0
 40
0.0
 40
0.0
 40
0.2
 40
0.2
 40
0.2
 40
0.2
 40
0.4
 40
0.4
 40
0.4
 40
0.4
 40
0.6
 40
0.6
 40
0.6
 40
0.6
 40
1.0
 40
1.0
 40
1.0
 40
1.0
 10
-7.646724409448819
 20
6.115263779527559
 30
0.0
 10
-7.646724409448819
 20
6.115263779527559
 30
0.0
 10
-7.184318897637795
 20
6.115263779527559
 30
0.0
 10
-7.184318897637795
 20
6.115263779527559
 30
0.0
 10
-7.184318897637795
 20
6.115263779527559
 30
0.0
 10
-7.184318897637795
 20
6.115263779527559
 30
0.0
 10
-7.184318897637795
 20
6.909582677165354
 30
0.0
 10
-7.184318897637795
 20
6.909582677165354
 30
0.0
 10
-7.184318897637795
 20
6.909582677165354
 30
0.0
 10
-7.184318897637795
 20
6.909582677165354
 30
0.0
 10
-7.646724409448819
 20
6.909582677165354
 30
0.0
 10
-7.646724409448819
 20
6.909582677165354
 30
0.0
 10
-7.646724409448819
 20
6.909582677165354
 30
0.0
 10
-7.646724409448819
 20
6.909582677165354
 30
0.0
 10
-7.646724409448819
 20
6.115263779527559
 30
0.0
 10
-7.646724409448819
 20
6.115263779527559
 30
0.0
  0
SPLINE
  5
91
330
1F
100
AcDbEntity
  8
Katman 1
370
   100
100
AcDbSpline
210
0.0
220
0.0
230
1.0
 70
    11
 71
     3
 72
    20
 73
    16
 74
     0
 42
0.000000001
 43
0.0000000001
 40
0.0
 40
0.0
 40
0.0
 40
0.0
 40
0.2
 40
0.2
 40
0.2
 40
0.2
 40
0.4
 40
0.4
 40
0.4
 40
0.4
 40
0.6
 40
0.6
 40
0.6
 40
0.6
 40
1.0
 40
1.0
 40
1.0
 40
1.0
 10
-8.20517716535433
 20
6.909582677165354
 30
0.0
 10
-8.20517716535433
 20
6.909582677165354
 30
0.0
 10
-8.20517716535433
 20
6.115263779527559
 30
0.0
 10
-8.20517716535433
 20
6.115263779527559
 30
0.0
 10
-8.20517716535433
 20
6.115263779527559
 30
0.0
 10
-8.20517716535433
 20
6.115263779527559
 30
0.0
 10
-7.742795275590551
 20
6.115263779527559
 30
0.0
 10
-7.742795275590551
 20
6.115263779527559
 30
0.0
 10
-7.742795275590551
 20
6.115263779527559
 30
0.0
 10
-7.742795275590551
 20
6.115263779527559
 30
0.0
 10
-7.742795275590551
 20
6.909582677165354
 30
0.0
 10
-7.742795275590551
 20
6.909582677165354
 30
0.0
 10
-7.742795275590551
 20
6.909582677165354
 30
0.0
 10
-7.742795275590551
 20
6.909582677165354
 30
0.0
 10
-8.20517716535433
 20
6.909582677165354
 30
0.0
 10
-8.20517716535433
 20
6.909582677165354
 30
0.0
  0
SPLINE
  5
92
330
1F
100
AcDbEntity
  8
Katman 1
370
   100
100
AcDbSpline
210
0.0
220
0.0
230
1.0
 70
    11
 71
     3
 72
    20
 73
    16
 74
     0
 42
0.000000001
 43
0.0000000001
 40
0.0
 40
0.0
 40
0.0
 40
0.0
 40
0.2
 40
0.2
 40
0.2
 40
0.2
 40
0.4
 40
0.4
 40
0.4
 40
0.4
 40
0.6
 40
0.6
 40
0.6
 40
0.6
 40
1.0
 40
1.0
 40
1.0
 40
1.0
 10
-7.64636220472441
 20
0.6785433070866141
 30
0.0
 10
-7.64636220472441
 20
0.6785433070866141
 30
0.0
 10
-7.183972440944882
 20
0.6785433070866141
 30
0.0
 10
-7.183972440944882
 20
0.6785433070866141
 30
0.0
 10
-7.183972440944882
 20
0.6785433070866141
 30
0.0
 10
-7.183972440944882
 20
0.6785433070866141
 30
0.0
 10
-7.183972440944882
 20
1.472818897637795
 30
0.0
 10
-7.183972440944882
 20
1.472818897637795
 30
0.0
 10
-7.183972440944882
 20
1.472818897637795
 30
0.0
 10
-7.183972440944882
 20
1.472818897637795
 30
0.0
 10
-7.64636220472441
 20
1.472818897637795
 30
0.0
 10
-7.64636220472441
 20
1.472818897637795
 30
0.0
 10
-7.64636220472441
 20
1.472818897637795
 30
0.0
 10
-7.64636220472441
 20
1.472818897637795
 30
0.0
 10
-7.64636220472441
 20
0.6785433070866141
 30
0.0
 10
-7.64636220472441
 20
0.6785433070866141
 30
0.0
  0
SPLINE
  5
93
330
1F
100
AcDbEntity
  8
Katman 1
370
   100
100
AcDbSpline
210
0.0
220
0.0
230
1.0
 70
    11
 71
     3
 72
    20
 73
    16
 74
     0
 42
0.000000001
 43
0.0000000001
 40
0.0
 40
0.0
 40
0.0
 40
0.0
 40
0.2
 40
0.2
 40
0.2
 40
0.2
 40
0.4
 40
0.4
 40
0.4
 40
0.4
 40
0.6
 40
0.6
 40
0.6
 40
0.6
 40
1.0
 40
1.0
 40
1.0
 40
1.0
 10
-8.204830708661417
 20
1.472818897637795
 30
0.0
 10
-8.204830708661417
 20
1.472818897637795
 30
0.0
 10
-8.204830708661417
 20
0.6785433070866141
 30
0.0
 10
-8.204830708661417
 20
0.6785433070866141
 30
0.0
 10
-8.204830708661417
 20
0.6785433070866141
 30
0.0
 10
-8.204830708661417
 20
0.6785433070866141
 30
0.0
 10
-7.742452755905512
 20
0.6785433070866141
 30
0.0
 10
-7.742452755905512
 20
0.6785433070866141
 30
0.0
 10
-7.742452755905512
 20
0.6785433070866141
 30
0.0
 10
-7.742452755905512
 20
0.6785433070866141
 30
0.0
 10
-7.742452755905512
 20
1.472818897637795
 30
0.0
 10
-7.742452755905512
 20
1.472818897637795
 30
0.0
 10
-7.742452755905512
 20
1.472818897637795
 30
0.0
 10
-7.742452755905512
 20
1.472818897637795
 30
0.0
 10
-8.204830708661417
 20
1.472818897637795
 30
0.0
 10
-8.204830708661417
 20
1.472818897637795
 30
0.0
  0
SPLINE
  5
94
330
1F
100
AcDbEntity
  8
Katman 1
370
   100
100
AcDbSpline
210
0.0
220
0.0
230
1.0
 70
    11
 71
     3
 72
    84
 73
    80
 74
     0
 42
0.000000001
 43
0.0000000001
 40
0.0
 40
0.0
 40
0.0
 40
0.0
 40
0.0476190476190476
 40
0.0476190476190476
 40
0.0476190476190476
 40
0.0476190476190476
 40
0.0952380952380952
 40
0.0952380952380952
 40
0.0952380952380952
 40
0.0952380952380952
 40
0.1428571428571428
 40
0.1428571428571428
 40
0.1428571428571428
 40
0.1428571428571428
 40
0.1904761904761905
 40
0.1904761904761905
 40
0.1904761904761905
 40
0.1904761904761905
 40
0.2380952380952381
 40
0.2380952380952381
 40
0.2380952380952381
 40
0.2380952380952381
 40
0.2857142857142857
 40
0.2857142857142857
 40
0.2857142857142857
 40
0.2857142857142857
 40
0.3333333333333333
 40
0.3333333333333333
 40
0.3333333333333333
 40
0.3333333333333333
 40
0.3809523809523809
 40
0.3809523809523809
 40
0.3809523809523809
 40
0.3809523809523809
 40
0.4285714285714285
 40
0.4285714285714285
 40
0.4285714285714285
 40
0.4285714285714285
 40
0.4761904761904762
 40
0.4761904761904762
 40
0.4761904761904762
 40
0.4761904761904762
 40
0.5238095238095238
 40
0.5238095238095238
 40
0.5238095238095238
 40
0.5238095238095238
 40
0.5714285714285714
 40
0.5714285714285714
 40
0.5714285714285714
 40
0.5714285714285714
 40
0.6190476190476191
 40
0.6190476190476191
 40
0.6190476190476191
 40
0.6190476190476191
 40
0.6666666666666666
 40
0.6666666666666666
 40
0.6666666666666666
 40
0.6666666666666666
 40
0.7142857142857143
 40
0.7142857142857143
 40
0.7142857142857143
 40
0.7142857142857143
 40
0.7619047619047619
 40
0.7619047619047619
 40
0.7619047619047619
 40
0.7619047619047619
 40
0.8095238095238095
 40
0.8095238095238095
 40
0.8095238095238095
 40
0.8095238095238095
 40
0.8571428571428571
 40
0.8571428571428571
 40
0.8571428571428571
 40
0.8571428571428571
 40
0.9047619047619048
 40
0.9047619047619048
 40
0.9047619047619048
 40
0.9047619047619048
 40
1.0
 40
1.0
 40
1.0
 40
1.0
 10
-6.126169291338583
 20
7.143889763779527
 30
0.0
 10
-6.126169291338583
 20
7.143889763779527
 30
0.0
 10
-6.125988188976378
 20
0.4329606299212598
 30
0.0
 10
-6.125988188976378
 20
0.4329606299212598
 30
0.0
 10
-6.125988188976378
 20
0.4329606299212598
 30
0.0
 10
-6.125988188976378
 20
0.4329606299212598
 30
0.0
 10
-6.930791338582678
 20
0.4322795275590551
 30
0.0
 10
-6.930791338582678
 20
0.4322795275590551
 30
0.0
 10
-6.930791338582678
 20
0.4322795275590551
 30
0.0
 10
-6.930791338582678
 20
0.4322795275590551
 30
0.0
 10
-6.930791338582678
 20
0.3132086614173228
 30
0.0
 10
-6.930791338582678
 20
0.3132086614173228
 30
0.0
 10
-6.930791338582678
 20
0.3132086614173228
 30
0.0
 10
-6.930791338582678
 20
0.3132086614173228
 30
0.0
 10
-7.833161417322835
 20
0.3132086614173228
 30
0.0
 10
-7.833161417322835
 20
0.3132086614173228
 30
0.0
 10
-7.833161417322835
 20
0.3132086614173228
 30
0.0
 10
-7.833161417322835
 20
0.3132086614173228
 30
0.0
 10
-7.833161417322835
 20
0.4322795275590551
 30
0.0
 10
-7.833161417322835
 20
0.4322795275590551
 30
0.0
 10
-7.833161417322835
 20
0.4322795275590551
 30
0.0
 10
-7.833161417322835
 20
0.4322795275590551
 30
0.0
 10
-8.89486220472441
 20
0.4314055118110236
 30
0.0
 10
-8.89486220472441
 20
0.4314055118110236
 30
0.0
 10
-8.89486220472441
 20
0.4314055118110236
 30
0.0
 10
-8.89486220472441
 20
0.4314055118110236
 30
0.0
 10
-8.894708661417322
 20
1.156027559055118
 30
0.0
 10
-8.894708661417322
 20
1.156027559055118
 30
0.0
 10
-8.894708661417322
 20
1.156027559055118
 30
0.0
 10
-8.894708661417322
 20
1.156027559055118
 30
0.0
 10
-9.016299212598426
 20
1.156027559055118
 30
0.0
 10
-9.016299212598426
 20
1.156027559055118
 30
0.0
 10
-9.016299212598426
 20
1.156027559055118
 30
0.0
 10
-9.016299212598426
 20
1.156027559055118
 30
0.0
 10
-9.016299212598426
 20
1.95946062992126
 30
0.0
 10
-9.016299212598426
 20
1.95946062992126
 30
0.0
 10
-9.016299212598426
 20
1.95946062992126
 30
0.0
 10
-9.016299212598426
 20
1.95946062992126
 30
0.0
 10
-8.894708661417322
 20
1.95946062992126
 30
0.0
 10
-8.894708661417322
 20
1.95946062992126
 30
0.0
 10
-8.894708661417322
 20
1.95946062992126
 30
0.0
 10
-8.894708661417322
 20
1.95946062992126
 30
0.0
 10
-8.894976377952755
 20
5.585641732283465
 30
0.0
 10
-8.894976377952755
 20
5.585641732283465
 30
0.0
 10
-8.894976377952755
 20
5.585641732283465
 30
0.0
 10
-8.894976377952755
 20
5.585641732283465
 30
0.0
 10
-9.016299212598426
 20
5.585641732283465
 30
0.0
 10
-9.016299212598426
 20
5.585641732283465
 30
0.0
 10
-9.016299212598426
 20
5.585641732283465
 30
0.0
 10
-9.016299212598426
 20
5.585641732283465
 30
0.0
 10
-9.016299212598426
 20
6.389027559055118
 30
0.0
 10
-9.016299212598426
 20
6.389027559055118
 30
0.0
 10
-9.016299212598426
 20
6.389027559055118
 30
0.0
 10
-9.016299212598426
 20
6.389027559055118
 30
0.0
 10
-8.894877952755905
 20
6.389027559055118
 30
0.0
 10
-8.894877952755905
 20
6.389027559055118
 30
0.0
 10
-8.894877952755905
 20
6.389027559055118
 30
0.0
 10
-8.894877952755905
 20
6.389027559055118
 30
0.0
 10
-8.894877952755905
 20
7.143889763779527
 30
0.0
 10
-8.894877952755905
 20
7.143889763779527
 30
0.0
 10
-8.894877952755905
 20
7.143889763779527
 30
0.0
 10
-8.894877952755905
 20
7.143889763779527
 30
0.0
 10
-7.833161417322835
 20
7.143889763779527
 30
0.0
 10
-7.833161417322835
 20
7.143889763779527
 30
0.0
 10
-7.833161417322835
 20
7.143889763779527
 30
0.0
 10
-7.833161417322835
 20
7.143889763779527
 30
0.0
 10
-7.833161417322835
 20
7.262917322834646
 30
0.0
 10
-7.833161417322835
 20
7.262917322834646
 30
0.0
 10
-7.833161417322835
 20
7.262917322834646
 30
0.0
 10
-7.833161417322835
 20
7.262917322834646
 30
0.0
 10
-6.930791338582678
 20
7.262917322834646
 30
0.0
 10
-6.930791338582678
 20
7.262917322834646
 30
0.0
 10
-6.930791338582678
 20
7.262917322834646
 30
0.0
 10
-6.930791338582678
 20
7.262917322834646
 30
0.0
 10
-6.930972440944882
 20
7.143889763779527
 30
0.0
 10
-6.930972440944882
 20
7.143889763779527
 30
0.0
 10
-6.930972440944882
 20
7.143889763779527
 30
0.0
 10
-6.930972440944882
 20
7.143889763779527
 30
0.0
 10
-6.126169291338583
 20
7.143889763779527
 30
0.0
 10
-6.126169291338583
 20
7.143889763779527
 30
0.0
  0
SPLINE
  5
95
330
1F
100
AcDbEntity
  8
Katman 1
370
   100
100
AcDbSpline
210
0.0
220
0.0
230
1.0
 70
    11
 71
     3
 72
    20
 73
    16
 74
     0
 42
0.000000001
 43
0.0000000001
 40
0.0
 40
0.0
 40
0.0
 40
0.0
 40
0.2
 40
0.2
 40
0.2
 40
0.2
 40
0.4
 40
0.4
 40
0.4
 40
0.4
 40
0.6
 40
0.6
 40
0.6
 40
0.6
 40
1.0
 40
1.0
 40
1.0
 40
1.0
 10
-7.87942125984252
 20
3.599334645669291
 30
0.0
 10
-7.87942125984252
 20
3.599334645669291
 30
0.0
 10
-6.566889763779527
 20
3.599334645669291
 30
0.0
 10
-6.566889763779527
 20
3.599334645669291
 30
0.0
 10
-6.566889763779527
 20
3.599334645669291
 30
0.0
 10
-6.566889763779527
 20
3.599334645669291
 30
0.0
 10
-6.566889763779527
 20
3.718417322834646
 30
0.0
 10
-6.566889763779527
 20
3.718417322834646
 30
0.0
 10
-6.566889763779527
 20
3.718417322834646
 30
0.0
 10
-6.566889763779527
 20
3.718417322834646
 30
0.0
 10
-7.87942125984252
 20
3.718417322834646
 30
0.0
 10
-7.87942125984252
 20
3.718417322834646
 30
0.0
 10
-7.87942125984252
 20
3.718417322834646
 30
0.0
 10
-7.87942125984252
 20
3.718417322834646
 30
0.0
 10
-7.87942125984252
 20
3.599334645669291
 30
0.0
 10
-7.87942125984252
 20
3.599334645669291
 30
0.0
  0
SPLINE
  5
96
330
1F
100
AcDbEntity
  8
Katman 1
370
   100
100
AcDbSpline
210
0.0
220
0.0
230
1.0
 70
    11
 71
     3
 72
    24
 73
    20
 74
     0
 42
0.000000001
 43
0.0000000001
 40
0.0
 40
0.0
 40
0.0
 40
0.0
 40
0.1666666666666667
 40
0.1666666666666667
 40
0.1666666666666667
 40
0.1666666666666667
 40
0.3333333333333333
 40
0.3333333333333333
 40
0.3333333333333333
 40
0.3333333333333333
 40
0.5
 40
0.5
 40
0.5
 40
0.5
 40
0.6666666666666666
 40
0.6666666666666666
 40
0.6666666666666666
 40
0.6666666666666666
 40
1.0
 40
1.0
 40
1.0
 40
1.0
 10
-8.357437007874015
 20
6.991669291338583
 30
0.0
 10
-8.357437007874015
 20
6.991669291338583
 30
0.0
 10
-8.357437007874015
 20
6.003110236220472
 30
0.0
 10
-8.357437007874015
 20
6.003110236220472
 30
0.0
 10
-8.357437007874015
 20
6.003110236220472
 30
0.0
 10
-8.357437007874015
 20
6.003110236220472
 30
0.0
 10
-7.032110236220473
 20
6.003110236220472
 30
0.0
 10
-7.032110236220473
 20
6.003110236220472
 30
0.0
 10
-7.032110236220473
 20
6.003110236220472
 30
0.0
 10
-7.032110236220473
 20
6.003110236220472
 30
0.0
 10
-7.032110236220473
 20
7.021669291338583
 30
0.0
 10
-7.032110236220473
 20
7.021669291338583
 30
0.0
 10
-7.032110236220473
 20
7.021669291338583
 30
0.0
 10
-7.032110236220473
 20
7.021669291338583
 30
0.0
 10
-8.357437007874015
 20
7.021669291338583
 30
0.0
 10
-8.357437007874015
 20
7.021669291338583
 30
0.0
 10
-8.357437007874015
 20
7.021669291338583
 30
0.0
 10
-8.357437007874015
 20
7.021669291338583
 30
0.0
 10
-8.357437007874015
 20
6.991669291338583
 30
0.0
 10
-8.357437007874015
 20
6.991669291338583
 30
0.0
  0
SPLINE
  5
97
330
1F
100
AcDbEntity
  8
Katman 1
370
   100
100
AcDbSpline
210
0.0
220
0.0
230
1.0
 70
    11
 71
     3
 72
    20
 73
    16
 74
     0
 42
0.000000001
 43
0.0000000001
 40
0.0
 40
0.0
 40
0.0
 40
0.0
 40
0.2
 40
0.2
 40
0.2
 40
0.2
 40
0.4
 40
0.4
 40
0.4
 40
0.4
 40
0.6
 40
0.6
 40
0.6
 40
0.6
 40
1.0
 40
1.0
 40
1.0
 40
1.0
 10
-6.515181102362205
 20
3.988169291338583
 30
0.0
 10
-6.515181102362205
 20
3.988169291338583
 30
0.0
 10
-6.515181102362205
 20
5.619846456692914
 30
0.0
 10
-6.515181102362205
 20
5.619846456692914
 30
0.0
 10
-6.515181102362205
 20
5.619846456692914
 30
0.0
 10
-6.515181102362205
 20
5.619846456692914
 30
0.0
 10
-8.270417322834646
 20
5.619846456692914
 30
0.0
 10
-8.270417322834646
 20
5.619846456692914
 30
0.0
 10
-8.270417322834646
 20
5.619846456692914
 30
0.0
 10
-8.270417322834646
 20
5.619846456692914
 30
0.0
 10
-8.270417322834646
 20
3.988169291338583
 30
0.0
 10
-8.270417322834646
 20
3.988169291338583
 30
0.0
 10
-8.270417322834646
 20
3.988169291338583
 30
0.0
 10
-8.270417322834646
 20
3.988169291338583
 30
0.0
 10
-6.515181102362205
 20
3.988169291338583
 30
0.0
 10
-6.515181102362205
 20
3.988169291338583
 30
0.0
  0
SPLINE
  5
98
330
1F
100
AcDbEntity
  8
Katman 1
370
   100
100
AcDbSpline
210
0.0
220
0.0
230
1.0
 70
    11
 71
     3
 72
    20
 73
    16
 74
     0
 42
0.000000001
 43
0.0000000001
 40
0.0
 40
0.0
 40
0.0
 40
0.0
 40
0.2
 40
0.2
 40
0.2
 40
0.2
 40
0.4
 40
0.4
 40
0.4
 40
0.4
 40
0.6
 40
0.6
 40
0.6
 40
0.6
 40
1.0
 40
1.0
 40
1.0
 40
1.0
 10
-7.873098425196851
 20
5.751736220472441
 30
0.0
 10
-7.873098425196851
 20
5.751736220472441
 30
0.0
 10
-6.560570866141732
 20
5.751736220472441
 30
0.0
 10
-6.560570866141732
 20
5.751736220472441
 30
0.0
 10
-6.560570866141732
 20
5.751736220472441
 30
0.0
 10
-6.560570866141732
 20
5.751736220472441
 30
0.0
 10
-6.560570866141732
 20
5.870818897637795
 30
0.0
 10
-6.560570866141732
 20
5.870818897637795
 30
0.0
 10
-6.560570866141732
 20
5.870818897637795
 30
0.0
 10
-6.560570866141732
 20
5.870818897637795
 30
0.0
 10
-7.873098425196851
 20
5.870818897637795
 30
0.0
 10
-7.873098425196851
 20
5.870818897637795
 30
0.0
 10
-7.873098425196851
 20
5.870818897637795
 30
0.0
 10
-7.873098425196851
 20
5.870818897637795
 30
0.0
 10
-7.873098425196851
 20
5.751736220472441
 30
0.0
 10
-7.873098425196851
 20
5.751736220472441
 30
0.0
  0
SPLINE
  5
99
330
1F
100
AcDbEntity
  8
Katman 1
370
   100
100
AcDbSpline
210
0.0
220
0.0
230
1.0
 70
    11
 71
     3
 72
    20
 73
    16
 74
     0
 42
0.000000001
 43
0.0000000001
 40
0.0
 40
0.0
 40
0.0
 40
0.0
 40
0.2
 40
0.2
 40
0.2
 40
0.2
 40
0.4
 40
0.4
 40
0.4
 40
0.4
 40
0.6
 40
0.6
 40
0.6
 40
0.6
 40
1.0
 40
1.0
 40
1.0
 40
1.0
 10
-8.35709842519685
 20
1.585015748031496
 30
0.0
 10
-8.35709842519685
 20
1.585015748031496
 30
0.0
 10
-8.35709842519685
 20
0.5664055118110236
 30
0.0
 10
-8.35709842519685
 20
0.5664055118110236
 30
0.0
 10
-8.35709842519685
 20
0.5664055118110236
 30
0.0
 10
-8.35709842519685
 20
0.5664055118110236
 30
0.0
 10
-7.031763779527559
 20
0.5664055118110236
 30
0.0
 10
-7.031763779527559
 20
0.5664055118110236
 30
0.0
 10
-7.031763779527559
 20
0.5664055118110236
 30
0.0
 10
-7.031763779527559
 20
0.5664055118110236
 30
0.0
 10
-7.031763779527559
 20
1.585015748031496
 30
0.0
 10
-7.031763779527559
 20
1.585015748031496
 30
0.0
 10
-7.031763779527559
 20
1.585015748031496
 30
0.0
 10
-7.031763779527559
 20
1.585015748031496
 30
0.0
 10
-8.35709842519685
 20
1.585015748031496
 30
0.0
 10
-8.35709842519685
 20
1.585015748031496
 30
0.0
  0
SPLINE
  5
9A
330
1F
100
AcDbEntity
  8
Katman 1
370
   100
100
AcDbSpline
210
0.0
220
0.0
230
1.0
 70
    11
 71
     3
 72
    20
 73
    16
 74
     0
 42
0.000000001
 43
0.0000000001
 40
0.0
 40
0.0
 40
0.0
 40
0.0
 40
0.2
 40
0.2
 40
0.2
 40
0.2
 40
0.4
 40
0.4
 40
0.4
 40
0.4
 40
0.6
 40
0.6
 40
0.6
 40
0.6
 40
1.0
 40
1.0
 40
1.0
 40
1.0
 10
-6.793724409448819
 20
2.969862204724409
 30
0.0
 10
-6.793724409448819
 20
2.969862204724409
 30
0.0
 10
-6.793724409448819
 20
1.951263779527559
 30
0.0
 10
-6.793724409448819
 20
1.951263779527559
 30
0.0
 10
-6.793724409448819
 20
1.951263779527559
 30
0.0
 10
-6.793724409448819
 20
1.951263779527559
 30
0.0
 10
-8.739389763779528
 20
1.951263779527559
 30
0.0
 10
-8.739389763779528
 20
1.951263779527559
 30
0.0
 10
-8.739389763779528
 20
1.951263779527559
 30
0.0
 10
-8.739389763779528
 20
1.951263779527559
 30
0.0
 10
-8.739389763779528
 20
2.969862204724409
 30
0.0
 10
-8.739389763779528
 20
2.969862204724409
 30
0.0
 10
-8.739389763779528
 20
2.969862204724409
 30
0.0
 10
-8.739389763779528
 20
2.969862204724409
 30
0.0
 10
-6.793724409448819
 20
2.969862204724409
 30
0.0
 10
-6.793724409448819
 20
2.969862204724409
 30
0.0
  0
SPLINE
  5
9B
330
1F
100
AcDbEntity
  8
Katman 1
370
   100
100
AcDbSpline
210
0.0
220
0.0
230
1.0
 70
    11
 71
     3
 72
    20
 73
    16
 74
     0
 42
0.000000001
 43
0.0000000001
 40
0.0
 40
0.0
 40
0.0
 40
0.0
 40
0.2
 40
0.2
 40
0.2
 40
0.2
 40
0.4
 40
0.4
 40
0.4
 40
0.4
 40
0.6
 40
0.6
 40
0.6
 40
0.6
 40
1.0
 40
1.0
 40
1.0
 40
1.0
 10
-7.487263779527559
 20
2.857681102362205
 30
0.0
 10
-7.487263779527559
 20
2.857681102362205
 30
0.0
 10
-7.93255905511811
 20
2.857681102362205
 30
0.0
 10
-7.93255905511811
 20
2.857681102362205
 30
0.0
 10
-7.93255905511811
 20
2.857681102362205
 30
0.0
 10
-7.93255905511811
 20
2.857681102362205
 30
0.0
 10
-7.93255905511811
 20
2.508570866141732
 30
0.0
 10
-7.93255905511811
 20
2.508570866141732
 30
0.0
 10
-7.93255905511811
 20
2.508570866141732
 30
0.0
 10
-7.93255905511811
 20
2.508570866141732
 30
0.0
 10
-7.487263779527559
 20
2.508570866141732
 30
0.0
 10
-7.487263779527559
 20
2.508570866141732
 30
0.0
 10
-7.487263779527559
 20
2.508570866141732
 30
0.0
 10
-7.487263779527559
 20
2.508570866141732
 30
0.0
 10
-7.487263779527559
 20
2.857681102362205
 30
0.0
 10
-7.487263779527559
 20
2.857681102362205
 30
0.0
  0
SPLINE
  5
9C
330
1F
100
AcDbEntity
  8
Katman 1
370
   100
100
AcDbSpline
210
0.0
220
0.0
230
1.0
 70
    11
 71
     3
 72
    20
 73
    16
 74
     0
 42
0.000000001
 43
0.0000000001
 40
0.0
 40
0.0
 40
0.0
 40
0.0
 40
0.2
 40
0.2
 40
0.2
 40
0.2
 40
0.4
 40
0.4
 40
0.4
 40
0.4
 40
0.6
 40
0.6
 40
0.6
 40
0.6
 40
1.0
 40
1.0
 40
1.0
 40
1.0
 10
-7.93255905511811
 20
2.063405511811024
 30
0.0
 10
-7.93255905511811
 20
2.063405511811024
 30
0.0
 10
-7.487263779527559
 20
2.063405511811024
 30
0.0
 10
-7.487263779527559
 20
2.063405511811024
 30
0.0
 10
-7.487263779527559
 20
2.063405511811024
 30
0.0
 10
-7.487263779527559
 20
2.063405511811024
 30
0.0
 10
-7.487263779527559
 20
2.4125
 30
0.0
 10
-7.487263779527559
 20
2.4125
 30
0.0
 10
-7.487263779527559
 20
2.4125
 30
0.0
 10
-7.487263779527559
 20
2.4125
 30
0.0
 10
-7.93255905511811
 20
2.4125
 30
0.0
 10
-7.93255905511811
 20
2.4125
 30
0.0
 10
-7.93255905511811
 20
2.4125
 30
0.0
 10
-7.93255905511811
 20
2.4125
 30
0.0
 10
-7.93255905511811
 20
2.063405511811024
 30
0.0
 10
-7.93255905511811
 20
2.063405511811024
 30
0.0
  0
SPLINE
  5
9D
330
1F
100
AcDbEntity
  8
Katman 1
370
   100
100
AcDbSpline
210
0.0
220
0.0
230
1.0
 70
    11
 71
     3
 72
    20
 73
    16
 74
     0
 42
0.000000001
 43
0.0000000001
 40
0.0
 40
0.0
 40
0.0
 40
0.0
 40
0.2
 40
0.2
 40
0.2
 40
0.2
 40
0.4
 40
0.4
 40
0.4
 40
0.4
 40
0.6
 40
0.6
 40
0.6
 40
0.6
 40
1.0
 40
1.0
 40
1.0
 40
1.0
 10
-6.945933070866142
 20
2.508570866141732
 30
0.0
 10
-6.945933070866142
 20
2.508570866141732
 30
0.0
 10
-6.945933070866142
 20
2.857681102362205
 30
0.0
 10
-6.945933070866142
 20
2.857681102362205
 30
0.0
 10
-6.945933070866142
 20
2.857681102362205
 30
0.0
 10
-6.945933070866142
 20
2.857681102362205
 30
0.0
 10
-7.391196850393701
 20
2.857681102362205
 30
0.0
 10
-7.391196850393701
 20
2.857681102362205
 30
0.0
 10
-7.391196850393701
 20
2.857681102362205
 30
0.0
 10
-7.391196850393701
 20
2.857681102362205
 30
0.0
 10
-7.391196850393701
 20
2.508570866141732
 30
0.0
 10
-7.391196850393701
 20
2.508570866141732
 30
0.0
 10
-7.391196850393701
 20
2.508570866141732
 30
0.0
 10
-7.391196850393701
 20
2.508570866141732
 30
0.0
 10
-6.945933070866142
 20
2.508570866141732
 30
0.0
 10
-6.945933070866142
 20
2.508570866141732
 30
0.0
  0
SPLINE
  5
9E
330
1F
100
AcDbEntity
  8
Katman 1
370
   100
100
AcDbSpline
210
0.0
220
0.0
230
1.0
 70
    11
 71
     3
 72
    20
 73
    16
 74
     0
 42
0.000000001
 43
0.0000000001
 40
0.0
 40
0.0
 40
0.0
 40
0.0
 40
0.2
 40
0.2
 40
0.2
 40
0.2
 40
0.4
 40
0.4
 40
0.4
 40
0.4
 40
0.6
 40
0.6
 40
0.6
 40
0.6
 40
1.0
 40
1.0
 40
1.0
 40
1.0
 10
-6.945933070866142
 20
2.4125
 30
0.0
 10
-6.945933070866142
 20
2.4125
 30
0.0
 10
-7.391196850393701
 20
2.4125
 30
0.0
 10
-7.391196850393701
 20
2.4125
 30
0.0
 10
-7.391196850393701
 20
2.4125
 30
0.0
 10
-7.391196850393701
 20
2.4125
 30
0.0
 10
-7.391196850393701
 20
2.063405511811024
 30
0.0
 10
-7.391196850393701
 20
2.063405511811024
 30
0.0
 10
-7.391196850393701
 20
2.063405511811024
 30
0.0
 10
-7.391196850393701
 20
2.063405511811024
 30
0.0
 10
-6.945933070866142
 20
2.063405511811024
 30
0.0
 10
-6.945933070866142
 20
2.063405511811024
 30
0.0
 10
-6.945933070866142
 20
2.063405511811024
 30
0.0
 10
-6.945933070866142
 20
2.063405511811024
 30
0.0
 10
-6.945933070866142
 20
2.4125
 30
0.0
 10
-6.945933070866142
 20
2.4125
 30
0.0
  0
SPLINE
  5
9F
330
1F
100
AcDbEntity
  8
Katman 1
370
   100
100
AcDbSpline
210
0.0
220
0.0
230
1.0
 70
    11
 71
     3
 72
    20
 73
    16
 74
     0
 42
0.000000001
 43
0.0000000001
 40
0.0
 40
0.0
 40
0.0
 40
0.0
 40
0.2
 40
0.2
 40
0.2
 40
0.2
 40
0.4
 40
0.4
 40
0.4
 40
0.4
 40
0.6
 40
0.6
 40
0.6
 40
0.6
 40
1.0
 40
1.0
 40
1.0
 40
1.0
 10
-8.028629921259842
 20
2.063405511811024
 30
0.0
 10
-8.028629921259842
 20
2.063405511811024
 30
0.0
 10
-8.028629921259842
 20
2.857681102362205
 30
0.0
 10
-8.028629921259842
 20
2.857681102362205
 30
0.0
 10
-8.028629921259842
 20
2.857681102362205
 30
0.0
 10
-8.028629921259842
 20
2.857681102362205
 30
0.0
 10
-8.587098425196851
 20
2.857681102362205
 30
0.0
 10
-8.587098425196851
 20
2.857681102362205
 30
0.0
 10
-8.587098425196851
 20
2.857681102362205
 30
0.0
 10
-8.587098425196851
 20
2.857681102362205
 30
0.0
 10
-8.587098425196851
 20
2.063405511811024
 30
0.0
 10
-8.587098425196851
 20
2.063405511811024
 30
0.0
 10
-8.587098425196851
 20
2.063405511811024
 30
0.0
 10
-8.587098425196851
 20
2.063405511811024
 30
0.0
 10
-8.028629921259842
 20
2.063405511811024
 30
0.0
 10
-8.028629921259842
 20
2.063405511811024
 30
0.0
  0
SPLINE
  5
A0
330
1F
100
AcDbEntity
  8
Katman 1
370
   100
100
AcDbSpline
210
0.0
220
0.0
230
1.0
 70
    11
 71
     3
 72
    20
 73
    16
 74
     0
 42
0.000000001
 43
0.0000000001
 40
0.0
 40
0.0
 40
0.0
 40
0.0
 40
0.2
 40
0.2
 40
0.2
 40
0.2
 40
0.4
 40
0.4
 40
0.4
 40
0.4
 40
0.6
 40
0.6
 40
0.6
 40
0.6
 40
1.0
 40
1.0
 40
1.0
 40
1.0
 10
-4.382196850393701
 20
2.864082677165354
 30
0.0
 10
-4.382196850393701
 20
2.864082677165354
 30
0.0
 10
-4.827472440944882
 20
2.864082677165354
 30
0.0
 10
-4.827472440944882
 20
2.864082677165354
 30
0.0
 10
-4.827472440944882
 20
2.864082677165354
 30
0.0
 10
-4.827472440944882
 20
2.864082677165354
 30
0.0
 10
-4.827472440944882
 20
2.514972440944882
 30
0.0
 10
-4.827472440944882
 20
2.514972440944882
 30
0.0
 10
-4.827472440944882
 20
2.514972440944882
 30
0.0
 10
-4.827472440944882
 20
2.514972440944882
 30
0.0
 10
-4.382196850393701
 20
2.514972440944882
 30
0.0
 10
-4.382196850393701
 20
2.514972440944882
 30
0.0
 10
-4.382196850393701
 20
2.514972440944882
 30
0.0
 10
-4.382196850393701
 20
2.514972440944882
 30
0.0
 10
-4.382196850393701
 20
2.864082677165354
 30
0.0
 10
-4.382196850393701
 20
2.864082677165354
 30
0.0
  0
SPLINE
  5
A1
330
1F
100
AcDbEntity
  8
Katman 1
370
   100
100
AcDbSpline
210
0.0
220
0.0
230
1.0
 70
    11
 71
     3
 72
    20
 73
    16
 74
     0
 42
0.000000001
 43
0.0000000001
 40
0.0
 40
0.0
 40
0.0
 40
0.0
 40
0.2
 40
0.2
 40
0.2
 40
0.2
 40
0.4
 40
0.4
 40
0.4
 40
0.4
 40
0.6
 40
0.6
 40
0.6
 40
0.6
 40
1.0
 40
1.0
 40
1.0
 40
1.0
 10
-4.827472440944882
 20
2.069779527559055
 30
0.0
 10
-4.827472440944882
 20
2.069779527559055
 30
0.0
 10
-4.382196850393701
 20
2.069779527559055
 30
0.0
 10
-4.382196850393701
 20
2.069779527559055
 30
0.0
 10
-4.382196850393701
 20
2.069779527559055
 30
0.0
 10
-4.382196850393701
 20
2.069779527559055
 30
0.0
 10
-4.382196850393701
 20
2.418905511811023
 30
0.0
 10
-4.382196850393701
 20
2.418905511811023
 30
0.0
 10
-4.382196850393701
 20
2.418905511811023
 30
0.0
 10
-4.382196850393701
 20
2.418905511811023
 30
0.0
 10
-4.827472440944882
 20
2.418905511811023
 30
0.0
 10
-4.827472440944882
 20
2.418905511811023
 30
0.0
 10
-4.827472440944882
 20
2.418905511811023
 30
0.0
 10
-4.827472440944882
 20
2.418905511811023
 30
0.0
 10
-4.827472440944882
 20
2.069779527559055
 30
0.0
 10
-4.827472440944882
 20
2.069779527559055
 30
0.0
  0
SPLINE
  5
A2
330
1F
100
AcDbEntity
  8
Katman 1
370
   100
100
AcDbSpline
210
0.0
220
0.0
230
1.0
 70
    11
 71
     3
 72
    20
 73
    16
 74
     0
 42
0.000000001
 43
0.0000000001
 40
0.0
 40
0.0
 40
0.0
 40
0.0
 40
0.2
 40
0.2
 40
0.2
 40
0.2
 40
0.4
 40
0.4
 40
0.4
 40
0.4
 40
0.6
 40
0.6
 40
0.6
 40
0.6
 40
1.0
 40
1.0
 40
1.0
 40
1.0
 10
-3.840818897637795
 20
2.514972440944882
 30
0.0
 10
-3.840818897637795
 20
2.514972440944882
 30
0.0
 10
-3.840818897637795
 20
2.864082677165354
 30
0.0
 10
-3.840818897637795
 20
2.864082677165354
 30
0.0
 10
-3.840818897637795
 20
2.864082677165354
 30
0.0
 10
-3.840818897637795
 20
2.864082677165354
 30
0.0
 10
-4.286110236220472
 20
2.864082677165354
 30
0.0
 10
-4.286110236220472
 20
2.864082677165354
 30
0.0
 10
-4.286110236220472
 20
2.864082677165354
 30
0.0
 10
-4.286110236220472
 20
2.864082677165354
 30
0.0
 10
-4.286110236220472
 20
2.514972440944882
 30
0.0
 10
-4.286110236220472
 20
2.514972440944882
 30
0.0
 10
-4.286110236220472
 20
2.514972440944882
 30
0.0
 10
-4.286110236220472
 20
2.514972440944882
 30
0.0
 10
-3.840818897637795
 20
2.514972440944882
 30
0.0
 10
-3.840818897637795
 20
2.514972440944882
 30
0.0
  0
SPLINE
  5
A3
330
1F
100
AcDbEntity
  8
Katman 1
370
   100
100
AcDbSpline
210
0.0
220
0.0
230
1.0
 70
    11
 71
     3
 72
    20
 73
    16
 74
     0
 42
0.000000001
 43
0.0000000001
 40
0.0
 40
0.0
 40
0.0
 40
0.0
 40
0.2
 40
0.2
 40
0.2
 40
0.2
 40
0.4
 40
0.4
 40
0.4
 40
0.4
 40
0.6
 40
0.6
 40
0.6
 40
0.6
 40
1.0
 40
1.0
 40
1.0
 40
1.0
 10
-3.840818897637795
 20
2.418905511811023
 30
0.0
 10
-3.840818897637795
 20
2.418905511811023
 30
0.0
 10
-4.286110236220472
 20
2.418905511811023
 30
0.0
 10
-4.286110236220472
 20
2.418905511811023
 30
0.0
 10
-4.286110236220472
 20
2.418905511811023
 30
0.0
 10
-4.286110236220472
 20
2.418905511811023
 30
0.0
 10
-4.286110236220472
 20
2.069779527559055
 30
0.0
 10
-4.286110236220472
 20
2.069779527559055
 30
0.0
 10
-4.286110236220472
 20
2.069779527559055
 30
0.0
 10
-4.286110236220472
 20
2.069779527559055
 30
0.0
 10
-3.840818897637795
 20
2.069779527559055
 30
0.0
 10
-3.840818897637795
 20
2.069779527559055
 30
0.0
 10
-3.840818897637795
 20
2.069779527559055
 30
0.0
 10
-3.840818897637795
 20
2.069779527559055
 30
0.0
 10
-3.840818897637795
 20
2.418905511811023
 30
0.0
 10
-3.840818897637795
 20
2.418905511811023
 30
0.0
  0
SPLINE
  5
A4
330
1F
100
AcDbEntity
  8
Katman 1
370
   100
100
AcDbSpline
210
0.0
220
0.0
230
1.0
 70
    11
 71
     3
 72
    20
 73
    16
 74
     0
 42
0.000000001
 43
0.0000000001
 40
0.0
 40
0.0
 40
0.0
 40
0.0
 40
0.2
 40
0.2
 40
0.2
 40
0.2
 40
0.4
 40
0.4
 40
0.4
 40
0.4
 40
0.6
 40
0.6
 40
0.6
 40
0.6
 40
1.0
 40
1.0
 40
1.0
 40
1.0
 10
-4.923543307086614
 20
2.069779527559055
 30
0.0
 10
-4.923543307086614
 20
2.069779527559055
 30
0.0
 10
-4.923543307086614
 20
2.864082677165354
 30
0.0
 10
-4.923543307086614
 20
2.864082677165354
 30
0.0
 10
-4.923543307086614
 20
2.864082677165354
 30
0.0
 10
-4.923543307086614
 20
2.864082677165354
 30
0.0
 10
-5.482015748031496
 20
2.864082677165354
 30
0.0
 10
-5.482015748031496
 20
2.864082677165354
 30
0.0
 10
-5.482015748031496
 20
2.864082677165354
 30
0.0
 10
-5.482015748031496
 20
2.864082677165354
 30
0.0
 10
-5.482015748031496
 20
2.069779527559055
 30
0.0
 10
-5.482015748031496
 20
2.069779527559055
 30
0.0
 10
-5.482015748031496
 20
2.069779527559055
 30
0.0
 10
-5.482015748031496
 20
2.069779527559055
 30
0.0
 10
-4.923543307086614
 20
2.069779527559055
 30
0.0
 10
-4.923543307086614
 20
2.069779527559055
 30
0.0
  0
SPLINE
  5
A5
330
1F
100
AcDbEntity
  8
Katman 1
370
   100
100
AcDbSpline
210
0.0
220
0.0
230
1.0
 70
    11
 71
     3
 72
    20
 73
    16
 74
     0
 42
0.000000001
 43
0.0000000001
 40
0.0
 40
0.0
 40
0.0
 40
0.0
 40
0.2
 40
0.2
 40
0.2
 40
0.2
 40
0.4
 40
0.4
 40
0.4
 40
0.4
 40
0.6
 40
0.6
 40
0.6
 40
0.6
 40
1.0
 40
1.0
 40
1.0
 40
1.0
 10
-4.541263779527559
 20
0.6849448818897638
 30
0.0
 10
-4.541263779527559
 20
0.6849448818897638
 30
0.0
 10
-4.078889763779528
 20
0.6849448818897638
 30
0.0
 10
-4.078889763779528
 20
0.6849448818897638
 30
0.0
 10
-4.078889763779528
 20
0.6849448818897638
 30
0.0
 10
-4.078889763779528
 20
0.6849448818897638
 30
0.0
 10
-4.078889763779528
 20
1.479224409448819
 30
0.0
 10
-4.078889763779528
 20
1.479224409448819
 30
0.0
 10
-4.078889763779528
 20
1.479224409448819
 30
0.0
 10
-4.078889763779528
 20
1.479224409448819
 30
0.0
 10
-4.541263779527559
 20
1.479224409448819
 30
0.0
 10
-4.541263779527559
 20
1.479224409448819
 30
0.0
 10
-4.541263779527559
 20
1.479224409448819
 30
0.0
 10
-4.541263779527559
 20
1.479224409448819
 30
0.0
 10
-4.541263779527559
 20
0.6849448818897638
 30
0.0
 10
-4.541263779527559
 20
0.6849448818897638
 30
0.0
  0
SPLINE
  5
A6
330
1F
100
AcDbEntity
  8
Katman 1
370
   100
100
AcDbSpline
210
0.0
220
0.0
230
1.0
 70
    11
 71
     3
 72
    20
 73
    16
 74
     0
 42
0.000000001
 43
0.0000000001
 40
0.0
 40
0.0
 40
0.0
 40
0.0
 40
0.2
 40
0.2
 40
0.2
 40
0.2
 40
0.4
 40
0.4
 40
0.4
 40
0.4
 40
0.6
 40
0.6
 40
0.6
 40
0.6
 40
1.0
 40
1.0
 40
1.0
 40
1.0
 10
-5.099751968503937
 20
1.479224409448819
 30
0.0
 10
-5.099751968503937
 20
1.479224409448819
 30
0.0
 10
-5.099751968503937
 20
0.6849448818897638
 30
0.0
 10
-5.099751968503937
 20
0.6849448818897638
 30
0.0
 10
-5.099751968503937
 20
0.6849448818897638
 30
0.0
 10
-5.099751968503937
 20
0.6849448818897638
 30
0.0
 10
-4.637374015748032
 20
0.6849448818897638
 30
0.0
 10
-4.637374015748032
 20
0.6849448818897638
 30
0.0
 10
-4.637374015748032
 20
0.6849448818897638
 30
0.0
 10
-4.637374015748032
 20
0.6849448818897638
 30
0.0
 10
-4.637374015748032
 20
1.479224409448819
 30
0.0
 10
-4.637374015748032
 20
1.479224409448819
 30
0.0
 10
-4.637374015748032
 20
1.479224409448819
 30
0.0
 10
-4.637374015748032
 20
1.479224409448819
 30
0.0
 10
-5.099751968503937
 20
1.479224409448819
 30
0.0
 10
-5.099751968503937
 20
1.479224409448819
 30
0.0
  0
SPLINE
  5
A7
330
1F
100
AcDbEntity
  8
Katman 1
370
   100
100
AcDbSpline
210
0.0
220
0.0
230
1.0
 70
    11
 71
     3
 72
    20
 73
    16
 74
     0
 42
0.000000001
 43
0.0000000001
 40
0.0
 40
0.0
 40
0.0
 40
0.0
 40
0.2
 40
0.2
 40
0.2
 40
0.2
 40
0.4
 40
0.4
 40
0.4
 40
0.4
 40
0.6
 40
0.6
 40
0.6
 40
0.6
 40
1.0
 40
1.0
 40
1.0
 40
1.0
 10
-4.541610236220473
 20
6.121653543307087
 30
0.0
 10
-4.541610236220473
 20
6.121653543307087
 30
0.0
 10
-4.079236220472441
 20
6.121653543307087
 30
0.0
 10
-4.079236220472441
 20
6.121653543307087
 30
0.0
 10
-4.079236220472441
 20
6.121653543307087
 30
0.0
 10
-4.079236220472441
 20
6.121653543307087
 30
0.0
 10
-4.079236220472441
 20
6.915972440944882
 30
0.0
 10
-4.079236220472441
 20
6.915972440944882
 30
0.0
 10
-4.079236220472441
 20
6.915972440944882
 30
0.0
 10
-4.079236220472441
 20
6.915972440944882
 30
0.0
 10
-4.541610236220473
 20
6.915972440944882
 30
0.0
 10
-4.541610236220473
 20
6.915972440944882
 30
0.0
 10
-4.541610236220473
 20
6.915972440944882
 30
0.0
 10
-4.541610236220473
 20
6.915972440944882
 30
0.0
 10
-4.541610236220473
 20
6.121653543307087
 30
0.0
 10
-4.541610236220473
 20
6.121653543307087
 30
0.0
  0
SPLINE
  5
A8
330
1F
100
AcDbEntity
  8
Katman 1
370
   100
100
AcDbSpline
210
0.0
220
0.0
230
1.0
 70
    11
 71
     3
 72
    20
 73
    16
 74
     0
 42
0.000000001
 43
0.0000000001
 40
0.0
 40
0.0
 40
0.0
 40
0.0
 40
0.2
 40
0.2
 40
0.2
 40
0.2
 40
0.4
 40
0.4
 40
0.4
 40
0.4
 40
0.6
 40
0.6
 40
0.6
 40
0.6
 40
1.0
 40
1.0
 40
1.0
 40
1.0
 10
-5.100082677165354
 20
6.915972440944882
 30
0.0
 10
-5.100082677165354
 20
6.915972440944882
 30
0.0
 10
-5.100082677165354
 20
6.121653543307087
 30
0.0
 10
-5.100082677165354
 20
6.121653543307087
 30
0.0
 10
-5.100082677165354
 20
6.121653543307087
 30
0.0
 10
-5.100082677165354
 20
6.121653543307087
 30
0.0
 10
-4.637708661417323
 20
6.121653543307087
 30
0.0
 10
-4.637708661417323
 20
6.121653543307087
 30
0.0
 10
-4.637708661417323
 20
6.121653543307087
 30
0.0
 10
-4.637708661417323
 20
6.121653543307087
 30
0.0
 10
-4.637708661417323
 20
6.915972440944882
 30
0.0
 10
-4.637708661417323
 20
6.915972440944882
 30
0.0
 10
-4.637708661417323
 20
6.915972440944882
 30
0.0
 10
-4.637708661417323
 20
6.915972440944882
 30
0.0
 10
-5.100082677165354
 20
6.915972440944882
 30
0.0
 10
-5.100082677165354
 20
6.915972440944882
 30
0.0
  0
SPLINE
  5
A9
330
1F
100
AcDbEntity
  8
Katman 1
370
   100
100
AcDbSpline
210
0.0
220
0.0
230
1.0
 70
    11
 71
     3
 72
    84
 73
    80
 74
     0
 42
0.000000001
 43
0.0000000001
 40
0.0
 40
0.0
 40
0.0
 40
0.0
 40
0.0476190476190476
 40
0.0476190476190476
 40
0.0476190476190476
 40
0.0476190476190476
 40
0.0952380952380952
 40
0.0952380952380952
 40
0.0952380952380952
 40
0.0952380952380952
 40
0.1428571428571428
 40
0.1428571428571428
 40
0.1428571428571428
 40
0.1428571428571428
 40
0.1904761904761905
 40
0.1904761904761905
 40
0.1904761904761905
 40
0.1904761904761905
 40
0.2380952380952381
 40
0.2380952380952381
 40
0.2380952380952381
 40
0.2380952380952381
 40
0.2857142857142857
 40
0.2857142857142857
 40
0.2857142857142857
 40
0.2857142857142857
 40
0.3333333333333333
 40
0.3333333333333333
 40
0.3333333333333333
 40
0.3333333333333333
 40
0.3809523809523809
 40
0.3809523809523809
 40
0.3809523809523809
 40
0.3809523809523809
 40
0.4285714285714285
 40
0.4285714285714285
 40
0.4285714285714285
 40
0.4285714285714285
 40
0.4761904761904762
 40
0.4761904761904762
 40
0.4761904761904762
 40
0.4761904761904762
 40
0.5238095238095238
 40
0.5238095238095238
 40
0.5238095238095238
 40
0.5238095238095238
 40
0.5714285714285714
 40
0.5714285714285714
 40
0.5714285714285714
 40
0.5714285714285714
 40
0.6190476190476191
 40
0.6190476190476191
 40
0.6190476190476191
 40
0.6190476190476191
 40
0.6666666666666666
 40
0.6666666666666666
 40
0.6666666666666666
 40
0.6666666666666666
 40
0.7142857142857143
 40
0.7142857142857143
 40
0.7142857142857143
 40
0.7142857142857143
 40
0.7619047619047619
 40
0.7619047619047619
 40
0.7619047619047619
 40
0.7619047619047619
 40
0.8095238095238095
 40
0.8095238095238095
 40
0.8095238095238095
 40
0.8095238095238095
 40
0.8571428571428571
 40
0.8571428571428571
 40
0.8571428571428571
 40
0.8571428571428571
 40
0.9047619047619048
 40
0.9047619047619048
 40
0.9047619047619048
 40
0.9047619047619048
 40
1.0
 40
1.0
 40
1.0
 40
1.0
 10
-5.789625984251969
 20
1.965862204724409
 30
0.0
 10
-5.789625984251969
 20
1.965862204724409
 30
0.0
 10
-5.789889763779527
 20
5.592027559055119
 30
0.0
 10
-5.789889763779527
 20
5.592027559055119
 30
0.0
 10
-5.789889763779527
 20
5.592027559055119
 30
0.0
 10
-5.789889763779527
 20
5.592027559055119
 30
0.0
 10
-5.911208661417323
 20
5.592027559055119
 30
0.0
 10
-5.911208661417323
 20
5.592027559055119
 30
0.0
 10
-5.911208661417323
 20
5.592027559055119
 30
0.0
 10
-5.911208661417323
 20
5.592027559055119
 30
0.0
 10
-5.911208661417323
 20
6.395555118110236
 30
0.0
 10
-5.911208661417323
 20
6.395555118110236
 30
0.0
 10
-5.911208661417323
 20
6.395555118110236
 30
0.0
 10
-5.911208661417323
 20
6.395555118110236
 30
0.0
 10
-5.789791338582678
 20
6.395555118110236
 30
0.0
 10
-5.789791338582678
 20
6.395555118110236
 30
0.0
 10
-5.789791338582678
 20
6.395555118110236
 30
0.0
 10
-5.789791338582678
 20
6.395555118110236
 30
0.0
 10
-5.789791338582678
 20
7.150279527559055
 30
0.0
 10
-5.789791338582678
 20
7.150279527559055
 30
0.0
 10
-5.789791338582678
 20
7.150279527559055
 30
0.0
 10
-5.789791338582678
 20
7.150279527559055
 30
0.0
 10
-4.728070866141732
 20
7.150279527559055
 30
0.0
 10
-4.728070866141732
 20
7.150279527559055
 30
0.0
 10
-4.728070866141732
 20
7.150279527559055
 30
0.0
 10
-4.728070866141732
 20
7.150279527559055
 30
0.0
 10
-4.728070866141732
 20
7.269307086614173
 30
0.0
 10
-4.728070866141732
 20
7.269307086614173
 30
0.0
 10
-4.728070866141732
 20
7.269307086614173
 30
0.0
 10
-4.728070866141732
 20
7.269307086614173
 30
0.0
 10
-3.825708661417323
 20
7.269307086614173
 30
0.0
 10
-3.825708661417323
 20
7.269307086614173
 30
0.0
 10
-3.825708661417323
 20
7.269307086614173
 30
0.0
 10
-3.825708661417323
 20
7.269307086614173
 30
0.0
 10
-3.825874015748032
 20
7.150279527559055
 30
0.0
 10
-3.825874015748032
 20
7.150279527559055
 30
0.0
 10
-3.825874015748032
 20
7.150279527559055
 30
0.0
 10
-3.825874015748032
 20
7.150279527559055
 30
0.0
 10
-3.021070866141732
 20
7.150279527559055
 30
0.0
 10
-3.021070866141732
 20
7.150279527559055
 30
0.0
 10
-3.021070866141732
 20
7.150279527559055
 30
0.0
 10
-3.021070866141732
 20
7.150279527559055
 30
0.0
 10
-3.02090157480315
 20
0.4393346456692913
 30
0.0
 10
-3.02090157480315
 20
0.4393346456692913
 30
0.0
 10
-3.02090157480315
 20
0.4393346456692913
 30
0.0
 10
-3.02090157480315
 20
0.4393346456692913
 30
0.0
 10
-3.825708661417323
 20
0.4386811023622047
 30
0.0
 10
-3.825708661417323
 20
0.4386811023622047
 30
0.0
 10
-3.825708661417323
 20
0.4386811023622047
 30
0.0
 10
-3.825708661417323
 20
0.4386811023622047
 30
0.0
 10
-3.825708661417323
 20
0.3195984251968504
 30
0.0
 10
-3.825708661417323
 20
0.3195984251968504
 30
0.0
 10
-3.825708661417323
 20
0.3195984251968504
 30
0.0
 10
-3.825708661417323
 20
0.3195984251968504
 30
0.0
 10
-4.728070866141732
 20
0.3195984251968504
 30
0.0
 10
-4.728070866141732
 20
0.3195984251968504
 30
0.0
 10
-4.728070866141732
 20
0.3195984251968504
 30
0.0
 10
-4.728070866141732
 20
0.3195984251968504
 30
0.0
 10
-4.728070866141732
 20
0.4386811023622047
 30
0.0
 10
-4.728070866141732
 20
0.4386811023622047
 30
0.0
 10
-4.728070866141732
 20
0.4386811023622047
 30
0.0
 10
-4.728070866141732
 20
0.4386811023622047
 30
0.0
 10
-5.789779527559055
 20
0.4378070866141732
 30
0.0
 10
-5.789779527559055
 20
0.4378070866141732
 30
0.0
 10
-5.789779527559055
 20
0.4378070866141732
 30
0.0
 10
-5.789779527559055
 20
0.4378070866141732
 30
0.0
 10
-5.789625984251969
 20
1.162433070866142
 30
0.0
 10
-5.789625984251969
 20
1.162433070866142
 30
0.0
 10
-5.789625984251969
 20
1.162433070866142
 30
0.0
 10
-5.789625984251969
 20
1.162433070866142
 30
0.0
 10
-5.911208661417323
 20
1.162433070866142
 30
0.0
 10
-5.911208661417323
 20
1.162433070866142
 30
0.0
 10
-5.911208661417323
 20
1.162433070866142
 30
0.0
 10
-5.911208661417323
 20
1.162433070866142
 30
0.0
 10
-5.911208661417323
 20
1.965862204724409
 30
0.0
 10
-5.911208661417323
 20
1.965862204724409
 30
0.0
 10
-5.911208661417323
 20
1.965862204724409
 30
0.0
 10
-5.911208661417323
 20
1.965862204724409
 30
0.0
 10
-5.789625984251969
 20
1.965862204724409
 30
0.0
 10
-5.789625984251969
 20
1.965862204724409
 30
0.0
  0
SPLINE
  5
AA
330
1F
100
AcDbEntity
  8
Katman 1
370
   100
100
AcDbSpline
210
0.0
220
0.0
230
1.0
 70
    11
 71
     3
 72
    20
 73
    16
 74
     0
 42
0.000000001
 43
0.0000000001
 40
0.0
 40
0.0
 40
0.0
 40
0.0
 40
0.2
 40
0.2
 40
0.2
 40
0.2
 40
0.4
 40
0.4
 40
0.4
 40
0.4
 40
0.6
 40
0.6
 40
0.6
 40
0.6
 40
1.0
 40
1.0
 40
1.0
 40
1.0
 10
-4.774307086614173
 20
3.724818897637795
 30
0.0
 10
-4.774307086614173
 20
3.724818897637795
 30
0.0
 10
-4.774307086614173
 20
3.605724409448819
 30
0.0
 10
-4.774307086614173
 20
3.605724409448819
 30
0.0
 10
-4.774307086614173
 20
3.605724409448819
 30
0.0
 10
-4.774307086614173
 20
3.605724409448819
 30
0.0
 10
-3.461807086614173
 20
3.605724409448819
 30
0.0
 10
-3.461807086614173
 20
3.605724409448819
 30
0.0
 10
-3.461807086614173
 20
3.605724409448819
 30
0.0
 10
-3.461807086614173
 20
3.605724409448819
 30
0.0
 10
-3.461807086614173
 20
3.724818897637795
 30
0.0
 10
-3.461807086614173
 20
3.724818897637795
 30
0.0
 10
-3.461807086614173
 20
3.724818897637795
 30
0.0
 10
-3.461807086614173
 20
3.724818897637795
 30
0.0
 10
-4.774307086614173
 20
3.724818897637795
 30
0.0
 10
-4.774307086614173
 20
3.724818897637795
 30
0.0
  0
SPLINE
  5
AB
330
1F
100
AcDbEntity
  8
Katman 1
370
   100
100
AcDbSpline
210
0.0
220
0.0
230
1.0
 70
    11
 71
     3
 72
    20
 73
    16
 74
     0
 42
0.000000001
 43
0.0000000001
 40
0.0
 40
0.0
 40
0.0
 40
0.0
 40
0.2
 40
0.2
 40
0.2
 40
0.2
 40
0.4
 40
0.4
 40
0.4
 40
0.4
 40
0.6
 40
0.6
 40
0.6
 40
0.6
 40
1.0
 40
1.0
 40
1.0
 40
1.0
 10
-3.688610236220472
 20
2.976263779527559
 30
0.0
 10
-3.688610236220472
 20
2.976263779527559
 30
0.0
 10
-5.634279527559055
 20
2.976263779527559
 30
0.0
 10
-5.634279527559055
 20
2.976263779527559
 30
0.0
 10
-5.634279527559055
 20
2.976263779527559
 30
0.0
 10
-5.634279527559055
 20
2.976263779527559
 30
0.0
 10
-5.634279527559055
 20
1.957641732283464
 30
0.0
 10
-5.634279527559055
 20
1.957641732283464
 30
0.0
 10
-5.634279527559055
 20
1.957641732283464
 30
0.0
 10
-5.634279527559055
 20
1.957641732283464
 30
0.0
 10
-3.688610236220472
 20
1.957641732283464
 30
0.0
 10
-3.688610236220472
 20
1.957641732283464
 30
0.0
 10
-3.688610236220472
 20
1.957641732283464
 30
0.0
 10
-3.688610236220472
 20
1.957641732283464
 30
0.0
 10
-3.688610236220472
 20
2.976263779527559
 30
0.0
 10
-3.688610236220472
 20
2.976263779527559
 30
0.0
  0
SPLINE
  5
AC
330
1F
100
AcDbEntity
  8
Katman 1
370
   100
100
AcDbSpline
210
0.0
220
0.0
230
1.0
 70
    11
 71
     3
 72
    20
 73
    16
 74
     0
 42
0.000000001
 43
0.0000000001
 40
0.0
 40
0.0
 40
0.0
 40
0.0
 40
0.2
 40
0.2
 40
0.2
 40
0.2
 40
0.4
 40
0.4
 40
0.4
 40
0.4
 40
0.6
 40
0.6
 40
0.6
 40
0.6
 40
1.0
 40
1.0
 40
1.0
 40
1.0
 10
-3.926665354330709
 20
1.591405511811024
 30
0.0
 10
-3.926665354330709
 20
1.591405511811024
 30
0.0
 10
-5.252015748031496
 20
1.591405511811024
 30
0.0
 10
-5.252015748031496
 20
1.591405511811024
 30
0.0
 10
-5.252015748031496
 20
1.591405511811024
 30
0.0
 10
-5.252015748031496
 20
1.591405511811024
 30
0.0
 10
-5.252015748031496
 20
0.5727913385826772
 30
0.0
 10
-5.252015748031496
 20
0.5727913385826772
 30
0.0
 10
-5.252015748031496
 20
0.5727913385826772
 30
0.0
 10
-5.252015748031496
 20
0.5727913385826772
 30
0.0
 10
-3.926665354330709
 20
0.5727913385826772
 30
0.0
 10
-3.926665354330709
 20
0.5727913385826772
 30
0.0
 10
-3.926665354330709
 20
0.5727913385826772
 30
0.0
 10
-3.926665354330709
 20
0.5727913385826772
 30
0.0
 10
-3.926665354330709
 20
1.591405511811024
 30
0.0
 10
-3.926665354330709
 20
1.591405511811024
 30
0.0
  0
SPLINE
  5
AD
330
1F
100
AcDbEntity
  8
Katman 1
370
   100
100
AcDbSpline
210
0.0
220
0.0
230
1.0
 70
    11
 71
     3
 72
    20
 73
    16
 74
     0
 42
0.000000001
 43
0.0000000001
 40
0.0
 40
0.0
 40
0.0
 40
0.0
 40
0.2
 40
0.2
 40
0.2
 40
0.2
 40
0.4
 40
0.4
 40
0.4
 40
0.4
 40
0.6
 40
0.6
 40
0.6
 40
0.6
 40
1.0
 40
1.0
 40
1.0
 40
1.0
 10
-3.927015748031496
 20
7.028196850393701
 30
0.0
 10
-3.927015748031496
 20
7.028196850393701
 30
0.0
 10
-5.25236220472441
 20
7.028196850393701
 30
0.0
 10
-5.25236220472441
 20
7.028196850393701
 30
0.0
 10
-5.25236220472441
 20
7.028196850393701
 30
0.0
 10
-5.25236220472441
 20
7.028196850393701
 30
0.0
 10
-5.25236220472441
 20
6.0095
 30
0.0
 10
-5.25236220472441
 20
6.0095
 30
0.0
 10
-5.25236220472441
 20
6.0095
 30
0.0
 10
-5.25236220472441
 20
6.0095
 30
0.0
 10
-3.927015748031496
 20
6.0095
 30
0.0
 10
-3.927015748031496
 20
6.0095
 30
0.0
 10
-3.927015748031496
 20
6.0095
 30
0.0
 10
-3.927015748031496
 20
6.0095
 30
0.0
 10
-3.927015748031496
 20
7.028196850393701
 30
0.0
 10
-3.927015748031496
 20
7.028196850393701
 30
0.0
  0
SPLINE
  5
AE
330
1F
100
AcDbEntity
  8
Katman 1
370
   100
100
AcDbSpline
210
0.0
220
0.0
230
1.0
 70
    11
 71
     3
 72
    20
 73
    16
 74
     0
 42
0.000000001
 43
0.0000000001
 40
0.0
 40
0.0
 40
0.0
 40
0.0
 40
0.2
 40
0.2
 40
0.2
 40
0.2
 40
0.4
 40
0.4
 40
0.4
 40
0.4
 40
0.6
 40
0.6
 40
0.6
 40
0.6
 40
1.0
 40
1.0
 40
1.0
 40
1.0
 10
-3.41009842519685
 20
3.994570866141732
 30
0.0
 10
-3.41009842519685
 20
3.994570866141732
 30
0.0
 10
-3.41009842519685
 20
5.626236220472441
 30
0.0
 10
-3.41009842519685
 20
5.626236220472441
 30
0.0
 10
-3.41009842519685
 20
5.626236220472441
 30
0.0
 10
-3.41009842519685
 20
5.626236220472441
 30
0.0
 10
-5.165318897637795
 20
5.626236220472441
 30
0.0
 10
-5.165318897637795
 20
5.626236220472441
 30
0.0
 10
-5.165318897637795
 20
5.626236220472441
 30
0.0
 10
-5.165318897637795
 20
5.626236220472441
 30
0.0
 10
-5.165318897637795
 20
3.994570866141732
 30
0.0
 10
-5.165318897637795
 20
3.994570866141732
 30
0.0
 10
-5.165318897637795
 20
3.994570866141732
 30
0.0
 10
-5.165318897637795
 20
3.994570866141732
 30
0.0
 10
-3.41009842519685
 20
3.994570866141732
 30
0.0
 10
-3.41009842519685
 20
3.994570866141732
 30
0.0
  0
SPLINE
  5
AF
330
1F
100
AcDbEntity
  8
Katman 1
370
   100
100
AcDbSpline
210
0.0
220
0.0
230
1.0
 70
    11
 71
     3
 72
    20
 73
    16
 74
     0
 42
0.000000001
 43
0.0000000001
 40
0.0
 40
0.0
 40
0.0
 40
0.0
 40
0.2
 40
0.2
 40
0.2
 40
0.2
 40
0.4
 40
0.4
 40
0.4
 40
0.4
 40
0.6
 40
0.6
 40
0.6
 40
0.6
 40
1.0
 40
1.0
 40
1.0
 40
1.0
 10
-4.768015748031496
 20
5.877224409448819
 30
0.0
 10
-4.768015748031496
 20
5.877224409448819
 30
0.0
 10
-4.768015748031496
 20
5.758125984251969
 30
0.0
 10
-4.768015748031496
 20
5.758125984251969
 30
0.0
 10
-4.768015748031496
 20
5.758125984251969
 30
0.0
 10
-4.768015748031496
 20
5.758125984251969
 30
0.0
 10
-3.455488188976378
 20
5.758125984251969
 30
0.0
 10
-3.455488188976378
 20
5.758125984251969
 30
0.0
 10
-3.455488188976378
 20
5.758125984251969
 30
0.0
 10
-3.455488188976378
 20
5.758125984251969
 30
0.0
 10
-3.455488188976378
 20
5.877224409448819
 30
0.0
 10
-3.455488188976378
 20
5.877224409448819
 30
0.0
 10
-3.455488188976378
 20
5.877224409448819
 30
0.0
 10
-3.455488188976378
 20
5.877224409448819
 30
0.0
 10
-4.768015748031496
 20
5.877224409448819
 30
0.0
 10
-4.768015748031496
 20
5.877224409448819
 30
0.0
  0
SPLINE
  5
B0
330
1F
100
AcDbEntity
  8
Katman 1
370
   100
100
AcDbSpline
210
0.0
220
0.0
230
1.0
 70
    11
 71
     3
 72
    40
 73
    36
 74
     0
 42
0.000000001
 43
0.0000000001
 40
0.0
 40
0.0
 40
0.0
 40
0.0
 40
0.1
 40
0.1
 40
0.1
 40
0.1
 40
0.2
 40
0.2
 40
0.2
 40
0.2
 40
0.3
 40
0.3
 40
0.3
 40
0.3
 40
0.4
 40
0.4
 40
0.4
 40
0.4
 40
0.5
 40
0.5
 40
0.5
 40
0.5
 40
0.6
 40
0.6
 40
0.6
 40
0.6
 40
0.7
 40
0.7
 40
0.7
 40
0.7
 40
0.8
 40
0.8
 40
0.8
 40
0.8
 40
1.0
 40
1.0
 40
1.0
 40
1.0
 10
-1.756196850393701
 20
3.524125984251969
 30
0.0
 10
-1.756196850393701
 20
3.524125984251969
 30
0.0
 10
-1.75609842519685
 20
5.813141732283465
 30
0.0
 10
-1.75609842519685
 20
5.813141732283465
 30
0.0
 10
-1.75609842519685
 20
5.813141732283465
 30
0.0
 10
-1.75609842519685
 20
5.813141732283465
 30
0.0
 10
-2.801055118110236
 20
5.813141732283465
 30
0.0
 10
-2.801055118110236
 20
5.813141732283465
 30
0.0
 10
-2.801055118110236
 20
5.813141732283465
 30
0.0
 10
-2.801055118110236
 20
5.813141732283465
 30
0.0
 10
-2.801055118110236
 20
7.374307086614174
 30
0.0
 10
-2.801055118110236
 20
7.374307086614174
 30
0.0
 10
-2.801055118110236
 20
7.374307086614174
 30
0.0
 10
-2.801055118110236
 20
7.374307086614174
 30
0.0
 10
0.5606811023622047
 20
7.374307086614174
 30
0.0
 10
0.5606811023622047
 20
7.374307086614174
 30
0.0
 10
0.5606811023622047
 20
7.374307086614174
 30
0.0
 10
0.5606811023622047
 20
7.374307086614174
 30
0.0
 10
0.563263779527559
 20
0.0666102362204724
 30
0.0
 10
0.563263779527559
 20
0.0666102362204724
 30
0.0
 10
0.563263779527559
 20
0.0666102362204724
 30
0.0
 10
0.563263779527559
 20
0.0666102362204724
 30
0.0
 10
-2.80109842519685
 20
0.0655708661417323
 30
0.0
 10
-2.80109842519685
 20
0.0655708661417323
 30
0.0
 10
-2.80109842519685
 20
0.0655708661417323
 30
0.0
 10
-2.80109842519685
 20
0.0655708661417323
 30
0.0
 10
-2.80109842519685
 20
3.524110236220472
 30
0.0
 10
-2.80109842519685
 20
3.524110236220472
 30
0.0
 10
-2.80109842519685
 20
3.524110236220472
 30
0.0
 10
-2.80109842519685
 20
3.524110236220472
 30
0.0
 10
-1.756181102362205
 20
3.524110236220472
 30
0.0
 10
-1.756181102362205
 20
3.524110236220472
 30
0.0
 10
-1.756181102362205
 20
3.524110236220472
 30
0.0
 10
-1.756181102362205
 20
3.524110236220472
 30
0.0
 10
-1.756196850393701
 20
3.524125984251969
 30
0.0
 10
-1.756196850393701
 20
3.524125984251969
 30
0.0
  0
SPLINE
  5
B1
330
1F
100
AcDbEntity
  8
Katman 1
370
   100
100
AcDbSpline
210
0.0
220
0.0
230
1.0
 70
    11
 71
     3
 72
    20
 73
    16
 74
     0
 42
0.000000001
 43
0.0000000001
 40
0.0
 40
0.0
 40
0.0
 40
0.0
 40
0.2
 40
0.2
 40
0.2
 40
0.2
 40
0.4
 40
0.4
 40
0.4
 40
0.4
 40
0.6
 40
0.6
 40
0.6
 40
0.6
 40
1.0
 40
1.0
 40
1.0
 40
1.0
 10
-1.171208661417323
 20
5.988543307086614
 30
0.0
 10
-1.171208661417323
 20
5.988543307086614
 30
0.0
 10
-1.170279527559055
 20
3.339141732283465
 30
0.0
 10
-1.170279527559055
 20
3.339141732283465
 30
0.0
 10
-1.170279527559055
 20
3.339141732283465
 30
0.0
 10
-1.170279527559055
 20
3.339141732283465
 30
0.0
 10
-0.2279015748031496
 20
3.799346456692914
 30
0.0
 10
-0.2279015748031496
 20
3.799346456692914
 30
0.0
 10
-0.2279015748031496
 20
3.799346456692914
 30
0.0
 10
-0.2279015748031496
 20
3.799346456692914
 30
0.0
 10
-0.2279015748031496
 20
5.527488188976378
 30
0.0
 10
-0.2279015748031496
 20
5.527488188976378
 30
0.0
 10
-0.2279015748031496
 20
5.527488188976378
 30
0.0
 10
-0.2279015748031496
 20
5.527488188976378
 30
0.0
 10
-1.171208661417323
 20
5.988543307086614
 30
0.0
 10
-1.171208661417323
 20
5.988543307086614
 30
0.0
  0
SPLINE
  5
B2
330
1F
100
AcDbEntity
  8
Katman 1
370
   100
100
AcDbSpline
210
0.0
220
0.0
230
1.0
 70
    11
 71
     3
 72
    20
 73
    16
 74
     0
 42
0.000000001
 43
0.0000000001
 40
0.0
 40
0.0
 40
0.0
 40
0.0
 40
0.2
 40
0.2
 40
0.2
 40
0.2
 40
0.4
 40
0.4
 40
0.4
 40
0.4
 40
0.6
 40
0.6
 40
0.6
 40
0.6
 40
1.0
 40
1.0
 40
1.0
 40
1.0
 10
-0.5573740157480315
 20
7.0725
 30
0.0
 10
-0.5573740157480315
 20
7.0725
 30
0.0
 10
-0.5573740157480315
 20
7.191527559055118
 30
0.0
 10
-0.5573740157480315
 20
7.191527559055118
 30
0.0
 10
-0.5573740157480315
 20
7.191527559055118
 30
0.0
 10
-0.5573740157480315
 20
7.191527559055118
 30
0.0
 10
-1.116736220472441
 20
7.191527559055118
 30
0.0
 10
-1.116736220472441
 20
7.191527559055118
 30
0.0
 10
-1.116736220472441
 20
7.191527559055118
 30
0.0
 10
-1.116736220472441
 20
7.191527559055118
 30
0.0
 10
-1.116736220472441
 20
7.0725
 30
0.0
 10
-1.116736220472441
 20
7.0725
 30
0.0
 10
-1.116736220472441
 20
7.0725
 30
0.0
 10
-1.116736220472441
 20
7.0725
 30
0.0
 10
-0.5573740157480315
 20
7.0725
 30
0.0
 10
-0.5573740157480315
 20
7.0725
 30
0.0
  0
SPLINE
  5
B3
330
1F
100
AcDbEntity
  8
Katman 1
370
   100
100
AcDbSpline
210
0.0
220
0.0
230
1.0
 70
    11
 71
     3
 72
    20
 73
    16
 74
     0
 42
0.000000001
 43
0.0000000001
 40
0.0
 40
0.0
 40
0.0
 40
0.0
 40
0.2
 40
0.2
 40
0.2
 40
0.2
 40
0.4
 40
0.4
 40
0.4
 40
0.4
 40
0.6
 40
0.6
 40
0.6
 40
0.6
 40
1.0
 40
1.0
 40
1.0
 40
1.0
 10
-0.5573740157480315
 20
0.2418188976377953
 30
0.0
 10
-0.5573740157480315
 20
0.2418188976377953
 30
0.0
 10
-0.5573740157480315
 20
0.3609173228346457
 30
0.0
 10
-0.5573740157480315
 20
0.3609173228346457
 30
0.0
 10
-0.5573740157480315
 20
0.3609173228346457
 30
0.0
 10
-0.5573740157480315
 20
0.3609173228346457
 30
0.0
 10
-1.116736220472441
 20
0.3609173228346457
 30
0.0
 10
-1.116736220472441
 20
0.3609173228346457
 30
0.0
 10
-1.116736220472441
 20
0.3609173228346457
 30
0.0
 10
-1.116736220472441
 20
0.3609173228346457
 30
0.0
 10
-1.116736220472441
 20
0.2418188976377953
 30
0.0
 10
-1.116736220472441
 20
0.2418188976377953
 30
0.0
 10
-1.116736220472441
 20
0.2418188976377953
 30
0.0
 10
-1.116736220472441
 20
0.2418188976377953
 30
0.0
 10
-0.5573740157480315
 20
0.2418188976377953
 30
0.0
 10
-0.5573740157480315
 20
0.2418188976377953
 30
0.0
  0
SPLINE
  5
B4
330
1F
100
AcDbEntity
  8
Katman 1
370
   100
100
AcDbSpline
210
0.0
220
0.0
230
1.0
 70
    11
 71
     3
 72
   108
 73
   104
 74
     0
 42
0.000000001
 43
0.0000000001
 40
0.0
 40
0.0
 40
0.0
 40
0.0
 40
0.037037037037037
 40
0.037037037037037
 40
0.037037037037037
 40
0.037037037037037
 40
0.0740740740740741
 40
0.0740740740740741
 40
0.0740740740740741
 40
0.0740740740740741
 40
0.1111111111111111
 40
0.1111111111111111
 40
0.1111111111111111
 40
0.1111111111111111
 40
0.1481481481481481
 40
0.1481481481481481
 40
0.1481481481481481
 40
0.1481481481481481
 40
0.1851851851851852
 40
0.1851851851851852
 40
0.1851851851851852
 40
0.1851851851851852
 40
0.2222222222222222
 40
0.2222222222222222
 40
0.2222222222222222
 40
0.2222222222222222
 40
0.2592592592592592
 40
0.2592592592592592
 40
0.2592592592592592
 40
0.2592592592592592
 40
0.2962962962962963
 40
0.2962962962962963
 40
0.2962962962962963
 40
0.2962962962962963
 40
0.3333333333333333
 40
0.3333333333333333
 40
0.3333333333333333
 40
0.3333333333333333
 40
0.3703703703703703
 40
0.3703703703703703
 40
0.3703703703703703
 40
0.3703703703703703
 40
0.4074074074074074
 40
0.4074074074074074
 40
0.4074074074074074
 40
0.4074074074074074
 40
0.4444444444444444
 40
0.4444444444444444
 40
0.4444444444444444
 40
0.4444444444444444
 40
0.4814814814814815
 40
0.4814814814814815
 40
0.4814814814814815
 40
0.4814814814814815
 40
0.5185185185185185
 40
0.5185185185185185
 40
0.5185185185185185
 40
0.5185185185185185
 40
0.5555555555555556
 40
0.5555555555555556
 40
0.5555555555555556
 40
0.5555555555555556
 40
0.5925925925925926
 40
0.5925925925925926
 40
0.5925925925925926
 40
0.5925925925925926
 40
0.6296296296296297
 40
0.6296296296296297
 40
0.6296296296296297
 40
0.6296296296296297
 40
0.6666666666666666
 40
0.6666666666666666
 40
0.6666666666666666
 40
0.6666666666666666
 40
0.7037037037037037
 40
0.7037037037037037
 40
0.7037037037037037
 40
0.7037037037037037
 40
0.7407407407407407
 40
0.7407407407407407
 40
0.7407407407407407
 40
0.7407407407407407
 40
0.7777777777777778
 40
0.7777777777777778
 40
0.7777777777777778
 40
0.7777777777777778
 40
0.8148148148148148
 40
0.8148148148148148
 40
0.8148148148148148
 40
0.8148148148148148
 40
0.8518518518518519
 40
0.8518518518518519
 40
0.8518518518518519
 40
0.8518518518518519
 40
0.8888888888888888
 40
0.8888888888888888
 40
0.8888888888888888
 40
0.8888888888888888
 40
0.9259259259259259
 40
0.9259259259259259
 40
0.9259259259259259
 40
0.9259259259259259
 40
1.0
 40
1.0
 40
1.0
 40
1.0
 10
2.472610236220472
 20
1.323362204724409
 30
0.0
 10
2.472610236220472
 20
1.323362204724409
 30
0.0
 10
2.472610236220472
 20
2.248181102362205
 30
0.0
 10
2.472610236220472
 20
2.248181102362205
 30
0.0
 10
2.472610236220472
 20
2.248181102362205
 30
0.0
 10
2.472610236220472
 20
2.248181102362205
 30
0.0
 10
3.07390157480315
 20
2.850527559055118
 30
0.0
 10
3.07390157480315
 20
2.850527559055118
 30
0.0
 10
3.07390157480315
 20
2.850527559055118
 30
0.0
 10
3.07390157480315
 20
2.850527559055118
 30
0.0
 10
2.98963779527559
 20
2.934669291338583
 30
0.0
 10
2.98963779527559
 20
2.934669291338583
 30
0.0
 10
2.98963779527559
 20
2.934669291338583
 30
0.0
 10
2.98963779527559
 20
2.934669291338583
 30
0.0
 10
3.384818897637795
 20
3.330527559055118
 30
0.0
 10
3.384818897637795
 20
3.330527559055118
 30
0.0
 10
3.384818897637795
 20
3.330527559055118
 30
0.0
 10
3.384818897637795
 20
3.330527559055118
 30
0.0
 10
3.469110236220473
 20
3.246389763779527
 30
0.0
 10
3.469110236220473
 20
3.246389763779527
 30
0.0
 10
3.469110236220473
 20
3.246389763779527
 30
0.0
 10
3.469110236220473
 20
3.246389763779527
 30
0.0
 10
4.174846456692913
 20
3.953346456692914
 30
0.0
 10
4.174846456692913
 20
3.953346456692914
 30
0.0
 10
4.174846456692913
 20
3.953346456692914
 30
0.0
 10
4.174846456692913
 20
3.953346456692914
 30
0.0
 10
4.880555118110236
 20
3.246389763779527
 30
0.0
 10
4.880555118110236
 20
3.246389763779527
 30
0.0
 10
4.880555118110236
 20
3.246389763779527
 30
0.0
 10
4.880555118110236
 20
3.246389763779527
 30
0.0
 10
4.964862204724409
 20
3.330527559055118
 30
0.0
 10
4.964862204724409
 20
3.330527559055118
 30
0.0
 10
4.964862204724409
 20
3.330527559055118
 30
0.0
 10
4.964862204724409
 20
3.330527559055118
 30
0.0
 10
5.36013779527559
 20
2.934669291338583
 30
0.0
 10
5.36013779527559
 20
2.934669291338583
 30
0.0
 10
5.36013779527559
 20
2.934669291338583
 30
0.0
 10
5.36013779527559
 20
2.934669291338583
 30
0.0
 10
5.275834645669291
 20
2.850527559055118
 30
0.0
 10
5.275834645669291
 20
2.850527559055118
 30
0.0
 10
5.275834645669291
 20
2.850527559055118
 30
0.0
 10
5.275834645669291
 20
2.850527559055118
 30
0.0
 10
5.888472440944882
 20
2.236751968503937
 30
0.0
 10
5.888472440944882
 20
2.236751968503937
 30
0.0
 10
5.888472440944882
 20
2.236751968503937
 30
0.0
 10
5.888472440944882
 20
2.236751968503937
 30
0.0
 10
5.888472440944882
 20
1.323362204724409
 30
0.0
 10
5.888472440944882
 20
1.323362204724409
 30
0.0
 10
5.888472440944882
 20
1.323362204724409
 30
0.0
 10
5.888472440944882
 20
1.323362204724409
 30
0.0
 10
5.769444881889764
 20
1.323362204724409
 30
0.0
 10
5.769444881889764
 20
1.323362204724409
 30
0.0
 10
5.769444881889764
 20
1.323362204724409
 30
0.0
 10
5.769444881889764
 20
1.323362204724409
 30
0.0
 10
5.769444881889764
 20
0.420988188976378
 30
0.0
 10
5.769444881889764
 20
0.420988188976378
 30
0.0
 10
5.769444881889764
 20
0.420988188976378
 30
0.0
 10
5.769444881889764
 20
0.420988188976378
 30
0.0
 10
5.888472440944882
 20
0.420988188976378
 30
0.0
 10
5.888472440944882
 20
0.420988188976378
 30
0.0
 10
5.888472440944882
 20
0.420988188976378
 30
0.0
 10
5.888472440944882
 20
0.420988188976378
 30
0.0
 10
5.888472440944882
 20
-0.6408464566929134
 30
0.0
 10
5.888472440944882
 20
-0.6408464566929134
 30
0.0
 10
5.888472440944882
 20
-0.6408464566929134
 30
0.0
 10
5.888472440944882
 20
-0.6408464566929134
 30
0.0
 10
4.565153543307087
 20
-0.6408464566929134
 30
0.0
 10
4.565153543307087
 20
-0.6408464566929134
 30
0.0
 10
4.565153543307087
 20
-0.6408464566929134
 30
0.0
 10
4.565153543307087
 20
-0.6408464566929134
 30
0.0
 10
4.565153543307087
 20
-0.7618464566929134
 30
0.0
 10
4.565153543307087
 20
-0.7618464566929134
 30
0.0
 10
4.565153543307087
 20
-0.7618464566929134
 30
0.0
 10
4.565153543307087
 20
-0.7618464566929134
 30
0.0
 10
3.784555118110236
 20
-0.7618031496062992
 30
0.0
 10
3.784555118110236
 20
-0.7618031496062992
 30
0.0
 10
3.784555118110236
 20
-0.7618031496062992
 30
0.0
 10
3.784555118110236
 20
-0.7618031496062992
 30
0.0
 10
3.784555118110236
 20
-0.6408188976377953
 30
0.0
 10
3.784555118110236
 20
-0.6408188976377953
 30
0.0
 10
3.784555118110236
 20
-0.6408188976377953
 30
0.0
 10
3.784555118110236
 20
-0.6408188976377953
 30
0.0
 10
2.472625984251969
 20
-0.6408188976377953
 30
0.0
 10
2.472625984251969
 20
-0.6408188976377953
 30
0.0
 10
2.472625984251969
 20
-0.6408188976377953
 30
0.0
 10
2.472625984251969
 20
-0.6408188976377953
 30
0.0
 10
2.472625984251969
 20
0.4210157480314961
 30
0.0
 10
2.472625984251969
 20
0.4210157480314961
 30
0.0
 10
2.472625984251969
 20
0.4210157480314961
 30
0.0
 10
2.472625984251969
 20
0.4210157480314961
 30
0.0
 10
2.591736220472441
 20
0.4210157480314961
 30
0.0
 10
2.591736220472441
 20
0.4210157480314961
 30
0.0
 10
2.591736220472441
 20
0.4210157480314961
 30
0.0
 10
2.591736220472441
 20
0.4210157480314961
 30
0.0
 10
2.591736220472441
 20
1.323389763779528
 30
0.0
 10
2.591736220472441
 20
1.323389763779528
 30
0.0
 10
2.591736220472441
 20
1.323389763779528
 30
0.0
 10
2.591736220472441
 20
1.323389763779528
 30
0.0
 10
2.472625984251969
 20
1.323389763779528
 30
0.0
 10
2.472625984251969
 20
1.323389763779528
 30
0.0
 10
2.472625984251969
 20
1.323389763779528
 30
0.0
 10
2.472625984251969
 20
1.323389763779528
 30
0.0
 10
2.472610236220472
 20
1.323362204724409
 30
0.0
 10
2.472610236220472
 20
1.323362204724409
 30
0.0
  0
SPLINE
  5
B5
330
1F
100
AcDbEntity
  8
Katman 1
370
   100
100
AcDbSpline
210
0.0
220
0.0
230
1.0
 70
    11
 71
     3
 72
   108
 73
   104
 74
     0
 42
0.000000001
 43
0.0000000001
 40
0.0
 40
0.0
 40
0.0
 40
0.0
 40
0.037037037037037
 40
0.037037037037037
 40
0.037037037037037
 40
0.037037037037037
 40
0.0740740740740741
 40
0.0740740740740741
 40
0.0740740740740741
 40
0.0740740740740741
 40
0.1111111111111111
 40
0.1111111111111111
 40
0.1111111111111111
 40
0.1111111111111111
 40
0.1481481481481481
 40
0.1481481481481481
 40
0.1481481481481481
 40
0.1481481481481481
 40
0.1851851851851852
 40
0.1851851851851852
 40
0.1851851851851852
 40
0.1851851851851852
 40
0.2222222222222222
 40
0.2222222222222222
 40
0.2222222222222222
 40
0.2222222222222222
 40
0.2592592592592592
 40
0.2592592592592592
 40
0.2592592592592592
 40
0.2592592592592592
 40
0.2962962962962963
 40
0.2962962962962963
 40
0.2962962962962963
 40
0.2962962962962963
 40
0.3333333333333333
 40
0.3333333333333333
 40
0.3333333333333333
 40
0.3333333333333333
 40
0.3703703703703703
 40
0.3703703703703703
 40
0.3703703703703703
 40
0.3703703703703703
 40
0.4074074074074074
 40
0.4074074074074074
 40
0.4074074074074074
 40
0.4074074074074074
 40
0.4444444444444444
 40
0.4444444444444444
 40
0.4444444444444444
 40
0.4444444444444444
 40
0.4814814814814815
 40
0.4814814814814815
 40
0.4814814814814815
 40
0.4814814814814815
 40
0.5185185185185185
 40
0.5185185185185185
 40
0.5185185185185185
 40
0.5185185185185185
 40
0.5555555555555556
 40
0.5555555555555556
 40
0.5555555555555556
 40
0.5555555555555556
 40
0.5925925925925926
 40
0.5925925925925926
 40
0.5925925925925926
 40
0.5925925925925926
 40
0.6296296296296297
 40
0.6296296296296297
 40
0.6296296296296297
 40
0.6296296296296297
 40
0.6666666666666666
 40
0.6666666666666666
 40
0.6666666666666666
 40
0.6666666666666666
 40
0.7037037037037037
 40
0.7037037037037037
 40
0.7037037037037037
 40
0.7037037037037037
 40
0.7407407407407407
 40
0.7407407407407407
 40
0.7407407407407407
 40
0.7407407407407407
 40
0.7777777777777778
 40
0.7777777777777778
 40
0.7777777777777778
 40
0.7777777777777778
 40
0.8148148148148148
 40
0.8148148148148148
 40
0.8148148148148148
 40
0.8148148148148148
 40
0.8518518518518519
 40
0.8518518518518519
 40
0.8518518518518519
 40
0.8518518518518519
 40
0.8888888888888888
 40
0.8888888888888888
 40
0.8888888888888888
 40
0.8888888888888888
 40
0.9259259259259259
 40
0.9259259259259259
 40
0.9259259259259259
 40
0.9259259259259259
 40
1.0
 40
1.0
 40
1.0
 40
1.0
 10
4.249055118110237
 20
7.435417322834645
 30
0.0
 10
4.249055118110237
 20
7.435417322834645
 30
0.0
 10
4.249055118110237
 20
6.373610236220473
 30
0.0
 10
4.249055118110237
 20
6.373610236220473
 30
0.0
 10
4.249055118110237
 20
6.373610236220473
 30
0.0
 10
4.249055118110237
 20
6.373610236220473
 30
0.0
 10
4.129956692913386
 20
6.373610236220473
 30
0.0
 10
4.129956692913386
 20
6.373610236220473
 30
0.0
 10
4.129956692913386
 20
6.373610236220473
 30
0.0
 10
4.129956692913386
 20
6.373610236220473
 30
0.0
 10
4.129956692913386
 20
5.471236220472441
 30
0.0
 10
4.129956692913386
 20
5.471236220472441
 30
0.0
 10
4.129956692913386
 20
5.471236220472441
 30
0.0
 10
4.129956692913386
 20
5.471236220472441
 30
0.0
 10
4.249055118110237
 20
5.471236220472441
 30
0.0
 10
4.249055118110237
 20
5.471236220472441
 30
0.0
 10
4.249055118110237
 20
5.471236220472441
 30
0.0
 10
4.249055118110237
 20
5.471236220472441
 30
0.0
 10
4.249055118110237
 20
4.557846456692913
 30
0.0
 10
4.249055118110237
 20
4.557846456692913
 30
0.0
 10
4.249055118110237
 20
4.557846456692913
 30
0.0
 10
4.249055118110237
 20
4.557846456692913
 30
0.0
 10
3.636346456692913
 20
3.944082677165354
 30
0.0
 10
3.636346456692913
 20
3.944082677165354
 30
0.0
 10
3.636346456692913
 20
3.944082677165354
 30
0.0
 10
3.636346456692913
 20
3.944082677165354
 30
0.0
 10
3.720637795275591
 20
3.859944881889764
 30
0.0
 10
3.720637795275591
 20
3.859944881889764
 30
0.0
 10
3.720637795275591
 20
3.859944881889764
 30
0.0
 10
3.720637795275591
 20
3.859944881889764
 30
0.0
 10
3.325429133858268
 20
3.464082677165354
 30
0.0
 10
3.325429133858268
 20
3.464082677165354
 30
0.0
 10
3.325429133858268
 20
3.464082677165354
 30
0.0
 10
3.325429133858268
 20
3.464082677165354
 30
0.0
 10
3.241153543307087
 20
3.548208661417323
 30
0.0
 10
3.241153543307087
 20
3.548208661417323
 30
0.0
 10
3.241153543307087
 20
3.548208661417323
 30
0.0
 10
3.241153543307087
 20
3.548208661417323
 30
0.0
 10
2.535417322834645
 20
2.841263779527559
 30
0.0
 10
2.535417322834645
 20
2.841263779527559
 30
0.0
 10
2.535417322834645
 20
2.841263779527559
 30
0.0
 10
2.535417322834645
 20
2.841263779527559
 30
0.0
 10
1.829665354330709
 20
3.548208661417323
 30
0.0
 10
1.829665354330709
 20
3.548208661417323
 30
0.0
 10
1.829665354330709
 20
3.548208661417323
 30
0.0
 10
1.829665354330709
 20
3.548208661417323
 30
0.0
 10
1.745389763779527
 20
3.464082677165354
 30
0.0
 10
1.745389763779527
 20
3.464082677165354
 30
0.0
 10
1.745389763779527
 20
3.464082677165354
 30
0.0
 10
1.745389763779527
 20
3.464082677165354
 30
0.0
 10
1.350181102362205
 20
3.859944881889764
 30
0.0
 10
1.350181102362205
 20
3.859944881889764
 30
0.0
 10
1.350181102362205
 20
3.859944881889764
 30
0.0
 10
1.350181102362205
 20
3.859944881889764
 30
0.0
 10
1.434472440944882
 20
3.944082677165354
 30
0.0
 10
1.434472440944882
 20
3.944082677165354
 30
0.0
 10
1.434472440944882
 20
3.944082677165354
 30
0.0
 10
1.434472440944882
 20
3.944082677165354
 30
0.0
 10
0.8331653543307087
 20
4.546433070866142
 30
0.0
 10
0.8331653543307087
 20
4.546433070866142
 30
0.0
 10
0.8331653543307087
 20
4.546433070866142
 30
0.0
 10
0.8331653543307087
 20
4.546433070866142
 30
0.0
 10
0.8331811023622048
 20
5.471236220472441
 30
0.0
 10
0.8331811023622048
 20
5.471236220472441
 30
0.0
 10
0.8331811023622048
 20
5.471236220472441
 30
0.0
 10
0.8331811023622048
 20
5.471236220472441
 30
0.0
 10
0.952275590551181
 20
5.471236220472441
 30
0.0
 10
0.952275590551181
 20
5.471236220472441
 30
0.0
 10
0.952275590551181
 20
5.471236220472441
 30
0.0
 10
0.952275590551181
 20
5.471236220472441
 30
0.0
 10
0.952275590551181
 20
6.373610236220473
 30
0.0
 10
0.952275590551181
 20
6.373610236220473
 30
0.0
 10
0.952275590551181
 20
6.373610236220473
 30
0.0
 10
0.952275590551181
 20
6.373610236220473
 30
0.0
 10
0.8331811023622048
 20
6.373610236220473
 30
0.0
 10
0.8331811023622048
 20
6.373610236220473
 30
0.0
 10
0.8331811023622048
 20
6.373610236220473
 30
0.0
 10
0.8331811023622048
 20
6.373610236220473
 30
0.0
 10
0.8331811023622048
 20
7.435417322834645
 30
0.0
 10
0.8331811023622048
 20
7.435417322834645
 30
0.0
 10
0.8331811023622048
 20
7.435417322834645
 30
0.0
 10
0.8331811023622048
 20
7.435417322834645
 30
0.0
 10
2.145098425196851
 20
7.435417322834645
 30
0.0
 10
2.145098425196851
 20
7.435417322834645
 30
0.0
 10
2.145098425196851
 20
7.435417322834645
 30
0.0
 10
2.145098425196851
 20
7.435417322834645
 30
0.0
 10
2.145098425196851
 20
7.556389763779528
 30
0.0
 10
2.145098425196851
 20
7.556389763779528
 30
0.0
 10
2.145098425196851
 20
7.556389763779528
 30
0.0
 10
2.145098425196851
 20
7.556389763779528
 30
0.0
 10
2.925708661417323
 20
7.556527559055118
 30
0.0
 10
2.925708661417323
 20
7.556527559055118
 30
0.0
 10
2.925708661417323
 20
7.556527559055118
 30
0.0
 10
2.925708661417323
 20
7.556527559055118
 30
0.0
 10
2.925708661417323
 20
7.435417322834645
 30
0.0
 10
2.925708661417323
 20
7.435417322834645
 30
0.0
 10
2.925708661417323
 20
7.435417322834645
 30
0.0
 10
2.925708661417323
 20
7.435417322834645
 30
0.0
 10
4.249027559055119
 20
7.435417322834645
 30
0.0
 10
4.249027559055119
 20
7.435417322834645
 30
0.0
 10
4.249027559055119
 20
7.435417322834645
 30
0.0
 10
4.249027559055119
 20
7.435417322834645
 30
0.0
 10
4.249055118110237
 20
7.435417322834645
 30
0.0
 10
4.249055118110237
 20
7.435417322834645
 30
0.0
  0
SPLINE
  5
B6
330
1F
100
AcDbEntity
  8
Katman 1
370
   100
100
AcDbSpline
210
0.0
220
0.0
230
1.0
 70
    11
 71
     3
 72
    68
 73
    64
 74
     0
 42
0.000000001
 43
0.0000000001
 40
0.0
 40
0.0
 40
0.0
 40
0.0
 40
0.0588235294117647
 40
0.0588235294117647
 40
0.0588235294117647
 40
0.0588235294117647
 40
0.1176470588235294
 40
0.1176470588235294
 40
0.1176470588235294
 40
0.1176470588235294
 40
0.1764705882352941
 40
0.1764705882352941
 40
0.1764705882352941
 40
0.1764705882352941
 40
0.2352941176470588
 40
0.2352941176470588
 40
0.2352941176470588
 40
0.2352941176470588
 40
0.2941176470588235
 40
0.2941176470588235
 40
0.2941176470588235
 40
0.2941176470588235
 40
0.3529411764705883
 40
0.3529411764705883
 40
0.3529411764705883
 40
0.3529411764705883
 40
0.4117647058823529
 40
0.4117647058823529
 40
0.4117647058823529
 40
0.4117647058823529
 40
0.4705882352941176
 40
0.4705882352941176
 40
0.4705882352941176
 40
0.4705882352941176
 40
0.5294117647058824
 40
0.5294117647058824
 40
0.5294117647058824
 40
0.5294117647058824
 40
0.5882352941176471
 40
0.5882352941176471
 40
0.5882352941176471
 40
0.5882352941176471
 40
0.6470588235294118
 40
0.6470588235294118
 40
0.6470588235294118
 40
0.6470588235294118
 40
0.7058823529411765
 40
0.7058823529411765
 40
0.7058823529411765
 40
0.7058823529411765
 40
0.7647058823529411
 40
0.7647058823529411
 40
0.7647058823529411
 40
0.7647058823529411
 40
0.8235294117647058
 40
0.8235294117647058
 40
0.8235294117647058
 40
0.8235294117647058
 40
0.8823529411764706
 40
0.8823529411764706
 40
0.8823529411764706
 40
0.8823529411764706
 40
1.0
 40
1.0
 40
1.0
 40
1.0
 10
6.966665354330709
 20
2.106125984251968
 30
0.0
 10
6.966665354330709
 20
2.106125984251968
 30
0.0
 10
6.312775590551182
 20
2.645169291338583
 30
0.0
 10
6.312775590551182
 20
2.645169291338583
 30
0.0
 10
6.312775590551182
 20
2.645169291338583
 30
0.0
 10
6.312775590551182
 20
2.645169291338583
 30
0.0
 10
6.312775590551182
 20
3.434988188976378
 30
0.0
 10
6.312775590551182
 20
3.434988188976378
 30
0.0
 10
6.312775590551182
 20
3.434988188976378
 30
0.0
 10
6.312775590551182
 20
3.434988188976378
 30
0.0
 10
8.938472440944881
 20
3.434988188976378
 30
0.0
 10
8.938472440944881
 20
3.434988188976378
 30
0.0
 10
8.938472440944881
 20
3.434988188976378
 30
0.0
 10
8.938472440944881
 20
3.434988188976378
 30
0.0
 10
8.938472440944881
 20
-1.673346456692913
 30
0.0
 10
8.938472440944881
 20
-1.673346456692913
 30
0.0
 10
8.938472440944881
 20
-1.673346456692913
 30
0.0
 10
8.938472440944881
 20
-1.673346456692913
 30
0.0
 10
6.312775590551182
 20
-1.673346456692913
 30
0.0
 10
6.312775590551182
 20
-1.673346456692913
 30
0.0
 10
6.312775590551182
 20
-1.673346456692913
 30
0.0
 10
6.312775590551182
 20
-1.673346456692913
 30
0.0
 10
6.312775590551182
 20
-0.8835118110236221
 30
0.0
 10
6.312775590551182
 20
-0.8835118110236221
 30
0.0
 10
6.312775590551182
 20
-0.8835118110236221
 30
0.0
 10
6.312775590551182
 20
-0.8835118110236221
 30
0.0
 10
6.965692913385827
 20
-0.3453464566929134
 30
0.0
 10
6.965692913385827
 20
-0.3453464566929134
 30
0.0
 10
6.965692913385827
 20
-0.3453464566929134
 30
0.0
 10
6.965692913385827
 20
-0.3453464566929134
 30
0.0
 10
6.8175
 20
-0.165248031496063
 30
0.0
 10
6.8175
 20
-0.165248031496063
 30
0.0
 10
6.8175
 20
-0.165248031496063
 30
0.0
 10
6.8175
 20
-0.165248031496063
 30
0.0
 10
7.548889763779528
 20
0.4582244094488189
 30
0.0
 10
7.548889763779528
 20
0.4582244094488189
 30
0.0
 10
7.548889763779528
 20
0.4582244094488189
 30
0.0
 10
7.548889763779528
 20
0.4582244094488189
 30
0.0
 10
7.707082677165355
 20
0.2658464566929134
 30
0.0
 10
7.707082677165355
 20
0.2658464566929134
 30
0.0
 10
7.707082677165355
 20
0.2658464566929134
 30
0.0
 10
7.707082677165355
 20
0.2658464566929134
 30
0.0
 10
8.453192913385827
 20
0.8808346456692914
 30
0.0
 10
8.453192913385827
 20
0.8808346456692914
 30
0.0
 10
8.453192913385827
 20
0.8808346456692914
 30
0.0
 10
8.453192913385827
 20
0.8808346456692914
 30
0.0
 10
7.707082677165355
 20
1.495779527559055
 30
0.0
 10
7.707082677165355
 20
1.495779527559055
 30
0.0
 10
7.707082677165355
 20
1.495779527559055
 30
0.0
 10
7.707082677165355
 20
1.495779527559055
 30
0.0
 10
7.548748031496063
 20
1.303236220472441
 30
0.0
 10
7.548748031496063
 20
1.303236220472441
 30
0.0
 10
7.548748031496063
 20
1.303236220472441
 30
0.0
 10
7.548748031496063
 20
1.303236220472441
 30
0.0
 10
6.8175
 20
1.926889763779527
 30
0.0
 10
6.8175
 20
1.926889763779527
 30
0.0
 10
6.8175
 20
1.926889763779527
 30
0.0
 10
6.8175
 20
1.926889763779527
 30
0.0
 10
6.818610236220472
 20
1.926015748031496
 30
0.0
 10
6.818610236220472
 20
1.926015748031496
 30
0.0
 10
6.818610236220472
 20
1.926015748031496
 30
0.0
 10
6.818610236220472
 20
1.926015748031496
 30
0.0
 10
6.966665354330709
 20
2.106125984251968
 30
0.0
 10
6.966665354330709
 20
2.106125984251968
 30
0.0
  0
SPLINE
  5
B7
330
1F
100
AcDbEntity
  8
Katman 1
370
   100
100
AcDbSpline
210
0.0
220
0.0
230
1.0
 70
    11
 71
     3
 72
    20
 73
    16
 74
     0
 42
0.000000001
 43
0.0000000001
 40
0.0
 40
0.0
 40
0.0
 40
0.0
 40
0.2
 40
0.2
 40
0.2
 40
0.2
 40
0.4
 40
0.4
 40
0.4
 40
0.4
 40
0.6
 40
0.6
 40
0.6
 40
0.6
 40
1.0
 40
1.0
 40
1.0
 40
1.0
 10
7.594303149606299
 20
3.282807086614173
 30
0.0
 10
7.594303149606299
 20
3.282807086614173
 30
0.0
 10
7.594303149606299
 20
3.163708661417323
 30
0.0
 10
7.594303149606299
 20
3.163708661417323
 30
0.0
 10
7.594303149606299
 20
3.163708661417323
 30
0.0
 10
7.594303149606299
 20
3.163708661417323
 30
0.0
 10
8.15236220472441
 20
3.163708661417323
 30
0.0
 10
8.15236220472441
 20
3.163708661417323
 30
0.0
 10
8.15236220472441
 20
3.163708661417323
 30
0.0
 10
8.15236220472441
 20
3.163708661417323
 30
0.0
 10
8.15236220472441
 20
3.282807086614173
 30
0.0
 10
8.15236220472441
 20
3.282807086614173
 30
0.0
 10
8.15236220472441
 20
3.282807086614173
 30
0.0
 10
8.15236220472441
 20
3.282807086614173
 30
0.0
 10
7.594303149606299
 20
3.282807086614173
 30
0.0
 10
7.594303149606299
 20
3.282807086614173
 30
0.0
  0
SPLINE
  5
B8
330
1F
100
AcDbEntity
  8
Katman 1
370
   100
100
AcDbSpline
210
0.0
220
0.0
230
1.0
 70
    11
 71
     3
 72
    20
 73
    16
 74
     0
 42
0.000000001
 43
0.0000000001
 40
0.0
 40
0.0
 40
0.0
 40
0.0
 40
0.2
 40
0.2
 40
0.2
 40
0.2
 40
0.4
 40
0.4
 40
0.4
 40
0.4
 40
0.6
 40
0.6
 40
0.6
 40
0.6
 40
1.0
 40
1.0
 40
1.0
 40
1.0
 10
8.15236220472441
 20
-1.532555118110236
 30
0.0
 10
8.15236220472441
 20
-1.532555118110236
 30
0.0
 10
8.15236220472441
 20
-1.413472440944882
 30
0.0
 10
8.15236220472441
 20
-1.413472440944882
 30
0.0
 10
8.15236220472441
 20
-1.413472440944882
 30
0.0
 10
8.15236220472441
 20
-1.413472440944882
 30
0.0
 10
7.594303149606299
 20
-1.413472440944882
 30
0.0
 10
7.594303149606299
 20
-1.413472440944882
 30
0.0
 10
7.594303149606299
 20
-1.413472440944882
 30
0.0
 10
7.594303149606299
 20
-1.413472440944882
 30
0.0
 10
7.594303149606299
 20
-1.532555118110236
 30
0.0
 10
7.594303149606299
 20
-1.532555118110236
 30
0.0
 10
7.594303149606299
 20
-1.532555118110236
 30
0.0
 10
7.594303149606299
 20
-1.532555118110236
 30
0.0
 10
8.15236220472441
 20
-1.532555118110236
 30
0.0
 10
8.15236220472441
 20
-1.532555118110236
 30
0.0
  0
SPLINE
  5
B9
330
1F
100
AcDbEntity
  8
Katman 1
370
   100
100
AcDbSpline
210
0.0
220
0.0
230
1.0
 70
    11
 71
     3
 72
    60
 73
    56
 74
     0
 42
0.000000001
 43
0.0000000001
 40
0.0
 40
0.0
 40
0.0
 40
0.0
 40
0.0666666666666667
 40
0.0666666666666667
 40
0.0666666666666667
 40
0.0666666666666667
 40
0.1333333333333333
 40
0.1333333333333333
 40
0.1333333333333333
 40
0.1333333333333333
 40
0.2
 40
0.2
 40
0.2
 40
0.2
 40
0.2666666666666667
 40
0.2666666666666667
 40
0.2666666666666667
 40
0.2666666666666667
 40
0.3333333333333333
 40
0.3333333333333333
 40
0.3333333333333333
 40
0.3333333333333333
 40
0.4
 40
0.4
 40
0.4
 40
0.4
 40
0.4666666666666667
 40
0.4666666666666667
 40
0.4666666666666667
 40
0.4666666666666667
 40
0.5333333333333333
 40
0.5333333333333333
 40
0.5333333333333333
 40
0.5333333333333333
 40
0.6
 40
0.6
 40
0.6
 40
0.6
 40
0.6666666666666666
 40
0.6666666666666666
 40
0.6666666666666666
 40
0.6666666666666666
 40
0.7333333333333333
 40
0.7333333333333333
 40
0.7333333333333333
 40
0.7333333333333333
 40
0.8
 40
0.8
 40
0.8
 40
0.8
 40
0.8666666666666667
 40
0.8666666666666667
 40
0.8666666666666667
 40
0.8666666666666667
 40
1.0
 40
1.0
 40
1.0
 40
1.0
 10
4.755456692913386
 20
-1.118681102362205
 30
0.0
 10
4.755456692913386
 20
-1.118681102362205
 30
0.0
 10
4.592389763779527
 20
-1.349456692913386
 30
0.0
 10
4.592389763779527
 20
-1.349456692913386
 30
0.0
 10
4.592389763779527
 20
-1.349456692913386
 30
0.0
 10
4.592389763779527
 20
-1.349456692913386
 30
0.0
 10
3.580681102362205
 20
-2.814889763779528
 30
0.0
 10
3.580681102362205
 20
-2.814889763779528
 30
0.0
 10
3.580681102362205
 20
-2.814889763779528
 30
0.0
 10
3.580681102362205
 20
-2.814889763779528
 30
0.0
 10
3.510763779527559
 20
-2.856681102362205
 30
0.0
 10
3.510763779527559
 20
-2.856681102362205
 30
0.0
 10
3.510763779527559
 20
-2.856681102362205
 30
0.0
 10
3.510763779527559
 20
-2.856681102362205
 30
0.0
 10
3.443555118110236
 20
-2.874653543307087
 30
0.0
 10
3.443555118110236
 20
-2.874653543307087
 30
0.0
 10
3.443555118110236
 20
-2.874653543307087
 30
0.0
 10
3.443555118110236
 20
-2.874653543307087
 30
0.0
 10
3.379472440944882
 20
-2.864889763779527
 30
0.0
 10
3.379472440944882
 20
-2.864889763779527
 30
0.0
 10
3.379472440944882
 20
-2.864889763779527
 30
0.0
 10
3.379472440944882
 20
-2.864889763779527
 30
0.0
 10
3.318944881889764
 20
-2.823511811023622
 30
0.0
 10
3.318944881889764
 20
-2.823511811023622
 30
0.0
 10
3.318944881889764
 20
-2.823511811023622
 30
0.0
 10
3.318944881889764
 20
-2.823511811023622
 30
0.0
 10
4.714555118110236
 20
-0.8029724409448818
 30
0.0
 10
4.714555118110236
 20
-0.8029724409448818
 30
0.0
 10
4.714555118110236
 20
-0.8029724409448818
 30
0.0
 10
4.714555118110236
 20
-0.8029724409448818
 30
0.0
 10
4.796346456692913
 20
-0.8029724409448818
 30
0.0
 10
4.796346456692913
 20
-0.8029724409448818
 30
0.0
 10
4.796346456692913
 20
-0.8029724409448818
 30
0.0
 10
4.796346456692913
 20
-0.8029724409448818
 30
0.0
 10
6.191944881889764
 20
-2.823511811023622
 30
0.0
 10
6.191944881889764
 20
-2.823511811023622
 30
0.0
 10
6.191944881889764
 20
-2.823511811023622
 30
0.0
 10
6.191944881889764
 20
-2.823511811023622
 30
0.0
 10
6.131389763779527
 20
-2.86490157480315
 30
0.0
 10
6.131389763779527
 20
-2.86490157480315
 30
0.0
 10
6.131389763779527
 20
-2.86490157480315
 30
0.0
 10
6.131389763779527
 20
-2.86490157480315
 30
0.0
 10
6.067362204724409
 20
-2.874665354330709
 30
0.0
 10
6.067362204724409
 20
-2.874665354330709
 30
0.0
 10
6.067362204724409
 20
-2.874665354330709
 30
0.0
 10
6.067362204724409
 20
-2.874665354330709
 30
0.0
 10
6.000137795275591
 20
-2.856692913385827
 30
0.0
 10
6.000137795275591
 20
-2.856692913385827
 30
0.0
 10
6.000137795275591
 20
-2.856692913385827
 30
0.0
 10
6.000137795275591
 20
-2.856692913385827
 30
0.0
 10
5.930275590551181
 20
-2.814889763779528
 30
0.0
 10
5.930275590551181
 20
-2.814889763779528
 30
0.0
 10
5.930275590551181
 20
-2.814889763779528
 30
0.0
 10
5.930275590551181
 20
-2.814889763779528
 30
0.0
 10
4.755456692913386
 20
-1.118681102362205
 30
0.0
 10
4.755456692913386
 20
-1.118681102362205
 30
0.0
  0
SPLINE
  5
BA
330
1F
100
AcDbEntity
  8
Katman 1
370
   100
100
AcDbSpline
210
0.0
220
0.0
230
1.0
 70
    11
 71
     3
 72
    68
 73
    64
 74
     0
 42
0.000000001
 43
0.0000000001
 40
0.0
 40
0.0
 40
0.0
 40
0.0
 40
0.0588235294117647
 40
0.0588235294117647
 40
0.0588235294117647
 40
0.0588235294117647
 40
0.1176470588235294
 40
0.1176470588235294
 40
0.1176470588235294
 40
0.1176470588235294
 40
0.1764705882352941
 40
0.1764705882352941
 40
0.1764705882352941
 40
0.1764705882352941
 40
0.2352941176470588
 40
0.2352941176470588
 40
0.2352941176470588
 40
0.2352941176470588
 40
0.2941176470588235
 40
0.2941176470588235
 40
0.2941176470588235
 40
0.2941176470588235
 40
0.3529411764705883
 40
0.3529411764705883
 40
0.3529411764705883
 40
0.3529411764705883
 40
0.4117647058823529
 40
0.4117647058823529
 40
0.4117647058823529
 40
0.4117647058823529
 40
0.4705882352941176
 40
0.4705882352941176
 40
0.4705882352941176
 40
0.4705882352941176
 40
0.5294117647058824
 40
0.5294117647058824
 40
0.5294117647058824
 40
0.5294117647058824
 40
0.5882352941176471
 40
0.5882352941176471
 40
0.5882352941176471
 40
0.5882352941176471
 40
0.6470588235294118
 40
0.6470588235294118
 40
0.6470588235294118
 40
0.6470588235294118
 40
0.7058823529411765
 40
0.7058823529411765
 40
0.7058823529411765
 40
0.7058823529411765
 40
0.7647058823529411
 40
0.7647058823529411
 40
0.7647058823529411
 40
0.7647058823529411
 40
0.8235294117647058
 40
0.8235294117647058
 40
0.8235294117647058
 40
0.8235294117647058
 40
0.8823529411764706
 40
0.8823529411764706
 40
0.8823529411764706
 40
0.8823529411764706
 40
1.0
 40
1.0
 40
1.0
 40
1.0
 10
6.965692913385827
 20
-3.612791338582677
 30
0.0
 10
6.965692913385827
 20
-3.612791338582677
 30
0.0
 10
6.311803149606299
 20
-3.073736220472441
 30
0.0
 10
6.311803149606299
 20
-3.073736220472441
 30
0.0
 10
6.311803149606299
 20
-3.073736220472441
 30
0.0
 10
6.311803149606299
 20
-3.073736220472441
 30
0.0
 10
6.311803149606299
 20
-2.283929133858268
 30
0.0
 10
6.311803149606299
 20
-2.283929133858268
 30
0.0
 10
6.311803149606299
 20
-2.283929133858268
 30
0.0
 10
6.311803149606299
 20
-2.283929133858268
 30
0.0
 10
9.048889763779528
 20
-2.283929133858268
 30
0.0
 10
9.048889763779528
 20
-2.283929133858268
 30
0.0
 10
9.048889763779528
 20
-2.283929133858268
 30
0.0
 10
9.048889763779528
 20
-2.283929133858268
 30
0.0
 10
9.048889763779528
 20
-7.392255905511811
 30
0.0
 10
9.048889763779528
 20
-7.392255905511811
 30
0.0
 10
9.048889763779528
 20
-7.392255905511811
 30
0.0
 10
9.048889763779528
 20
-7.392255905511811
 30
0.0
 10
6.311803149606299
 20
-7.392255905511811
 30
0.0
 10
6.311803149606299
 20
-7.392255905511811
 30
0.0
 10
6.311803149606299
 20
-7.392255905511811
 30
0.0
 10
6.311803149606299
 20
-7.392255905511811
 30
0.0
 10
6.311803149606299
 20
-6.60244094488189
 30
0.0
 10
6.311803149606299
 20
-6.60244094488189
 30
0.0
 10
6.311803149606299
 20
-6.60244094488189
 30
0.0
 10
6.311803149606299
 20
-6.60244094488189
 30
0.0
 10
6.964720472440945
 20
-6.064263779527559
 30
0.0
 10
6.964720472440945
 20
-6.064263779527559
 30
0.0
 10
6.964720472440945
 20
-6.064263779527559
 30
0.0
 10
6.964720472440945
 20
-6.064263779527559
 30
0.0
 10
6.816527559055118
 20
-5.884165354330709
 30
0.0
 10
6.816527559055118
 20
-5.884165354330709
 30
0.0
 10
6.816527559055118
 20
-5.884165354330709
 30
0.0
 10
6.816527559055118
 20
-5.884165354330709
 30
0.0
 10
7.547917322834645
 20
-5.260692913385827
 30
0.0
 10
7.547917322834645
 20
-5.260692913385827
 30
0.0
 10
7.547917322834645
 20
-5.260692913385827
 30
0.0
 10
7.547917322834645
 20
-5.260692913385827
 30
0.0
 10
7.706110236220472
 20
-5.453066929133858
 30
0.0
 10
7.706110236220472
 20
-5.453066929133858
 30
0.0
 10
7.706110236220472
 20
-5.453066929133858
 30
0.0
 10
7.706110236220472
 20
-5.453066929133858
 30
0.0
 10
8.452220472440946
 20
-4.838094488188976
 30
0.0
 10
8.452220472440946
 20
-4.838094488188976
 30
0.0
 10
8.452220472440946
 20
-4.838094488188976
 30
0.0
 10
8.452220472440946
 20
-4.838094488188976
 30
0.0
 10
7.706110236220472
 20
-4.223125984251968
 30
0.0
 10
7.706110236220472
 20
-4.223125984251968
 30
0.0
 10
7.706110236220472
 20
-4.223125984251968
 30
0.0
 10
7.706110236220472
 20
-4.223125984251968
 30
0.0
 10
7.547775590551181
 20
-4.415681102362205
 30
0.0
 10
7.547775590551181
 20
-4.415681102362205
 30
0.0
 10
7.547775590551181
 20
-4.415681102362205
 30
0.0
 10
7.547775590551181
 20
-4.415681102362205
 30
0.0
 10
6.816527559055118
 20
-3.792011811023622
 30
0.0
 10
6.816527559055118
 20
-3.792011811023622
 30
0.0
 10
6.816527559055118
 20
-3.792011811023622
 30
0.0
 10
6.816527559055118
 20
-3.792011811023622
 30
0.0
 10
6.8175
 20
-3.792889763779527
 30
0.0
 10
6.8175
 20
-3.792889763779527
 30
0.0
 10
6.8175
 20
-3.792889763779527
 30
0.0
 10
6.8175
 20
-3.792889763779527
 30
0.0
 10
6.965692913385827
 20
-3.612791338582677
 30
0.0
 10
6.965692913385827
 20
-3.612791338582677
 30
0.0
  0
SPLINE
  5
BB
330
1F
100
AcDbEntity
  8
Katman 1
370
   100
100
AcDbSpline
210
0.0
220
0.0
230
1.0
 70
    11
 71
     3
 72
    20
 73
    16
 74
     0
 42
0.000000001
 43
0.0000000001
 40
0.0
 40
0.0
 40
0.0
 40
0.0
 40
0.2
 40
0.2
 40
0.2
 40
0.2
 40
0.4
 40
0.4
 40
0.4
 40
0.4
 40
0.6
 40
0.6
 40
0.6
 40
0.6
 40
1.0
 40
1.0
 40
1.0
 40
1.0
 10
8.151389763779527
 20
-2.436110236220472
 30
0.0
 10
8.151389763779527
 20
-2.436110236220472
 30
0.0
 10
7.593334645669291
 20
-2.436110236220472
 30
0.0
 10
7.593334645669291
 20
-2.436110236220472
 30
0.0
 10
7.593334645669291
 20
-2.436110236220472
 30
0.0
 10
7.593334645669291
 20
-2.436110236220472
 30
0.0
 10
7.593334645669291
 20
-2.555220472440945
 30
0.0
 10
7.593334645669291
 20
-2.555220472440945
 30
0.0
 10
7.593334645669291
 20
-2.555220472440945
 30
0.0
 10
7.593334645669291
 20
-2.555220472440945
 30
0.0
 10
8.151389763779527
 20
-2.555220472440945
 30
0.0
 10
8.151389763779527
 20
-2.555220472440945
 30
0.0
 10
8.151389763779527
 20
-2.555220472440945
 30
0.0
 10
8.151389763779527
 20
-2.555220472440945
 30
0.0
 10
8.151389763779527
 20
-2.436110236220472
 30
0.0
 10
8.151389763779527
 20
-2.436110236220472
 30
0.0
  0
SPLINE
  5
BC
330
1F
100
AcDbEntity
  8
Katman 1
370
   100
100
AcDbSpline
210
0.0
220
0.0
230
1.0
 70
    11
 71
     3
 72
    20
 73
    16
 74
     0
 42
0.000000001
 43
0.0000000001
 40
0.0
 40
0.0
 40
0.0
 40
0.0
 40
0.2
 40
0.2
 40
0.2
 40
0.2
 40
0.4
 40
0.4
 40
0.4
 40
0.4
 40
0.6
 40
0.6
 40
0.6
 40
0.6
 40
1.0
 40
1.0
 40
1.0
 40
1.0
 10
8.151389763779527
 20
-7.251492125984252
 30
0.0
 10
8.151389763779527
 20
-7.251492125984252
 30
0.0
 10
8.151389763779527
 20
-7.132377952755905
 30
0.0
 10
8.151389763779527
 20
-7.132377952755905
 30
0.0
 10
8.151389763779527
 20
-7.132377952755905
 30
0.0
 10
8.151389763779527
 20
-7.132377952755905
 30
0.0
 10
7.593334645669291
 20
-7.132377952755905
 30
0.0
 10
7.593334645669291
 20
-7.132377952755905
 30
0.0
 10
7.593334645669291
 20
-7.132377952755905
 30
0.0
 10
7.593334645669291
 20
-7.132377952755905
 30
0.0
 10
7.593334645669291
 20
-7.251492125984252
 30
0.0
 10
7.593334645669291
 20
-7.251492125984252
 30
0.0
 10
7.593334645669291
 20
-7.251492125984252
 30
0.0
 10
7.593334645669291
 20
-7.251492125984252
 30
0.0
 10
8.151389763779527
 20
-7.251492125984252
 30
0.0
 10
8.151389763779527
 20
-7.251492125984252
 30
0.0
  0
ENDSEC
  0
SECTION
  2
OBJECTS
  0
DICTIONARY
  5
C
330
0
100
AcDbDictionary
281
     1
  3
ACAD_DETAILVIEWSTYLE
350
F1
  3
ACAD_GROUP
350
D
  3
ACAD_LAYOUT
350
1A
  3
ACAD_MATERIAL
350
43
  3
ACAD_MLEADERSTYLE
350
F0
  3
ACAD_MLINESTYLE
350
17
  3
ACAD_PLOTSETTINGS
350
19
  3
ACAD_PLOTSTYLENAME
350
E
  3
ACAD_SCALELIST
350
47
  3
ACAD_SECTIONVIEWSTYLE
350
F2
  3
ACAD_TABLESTYLE
350
EF
  3
ACAD_VISUALSTYLE
350
2A
  3
AcDbVariableDictionary
350
BD
  0
SUN
  5
69
330
29
100
AcDbSun
 90
        1
290
     0
 63
     7
421
 16777215
 40
1.0
291
     1
 91
  2455826
 92
 54000000
292
     0
 70
     2
 71
   256
280
     1
  0
DICTIONARY
  5
F1
102
{ACAD_REACTORS
330
C
102
}
330
C
100
AcDbDictionary
281
     1
  0
DICTIONARY
  5
D
102
{ACAD_REACTORS
330
C
102
}
330
C
100
AcDbDictionary
281
     1
  0
DICTIONARY
  5
1A
102
{ACAD_REACTORS
330
C
102
}
330
C
100
AcDbDictionary
281
     1
  3
Layout1
350
1E
  3
Layout2
350
26
  3
Model
350
22
  0
DICTIONARY
  5
43
102
{ACAD_REACTORS
330
C
102
}
330
C
100
AcDbDictionary
281
     1
  3
ByBlock
350
45
  3
ByLayer
350
44
  3
Global
350
46
  0
DICTIONARY
  5
F0
102
{ACAD_REACTORS
330
C
102
}
330
C
100
AcDbDictionary
281
     1
  0
DICTIONARY
  5
17
102
{ACAD_REACTORS
330
C
102
}
330
C
100
AcDbDictionary
281
     1
  3
Standard
350
18
  0
DICTIONARY
  5
19
102
{ACAD_REACTORS
330
C
102
}
330
C
100
AcDbDictionary
281
     1
  0
ACDBDICTIONARYWDFLT
  5
E
102
{ACAD_REACTORS
330
C
102
}
330
C
100
AcDbDictionary
281
     1
  3
Normal
350
F
100
AcDbDictionaryWithDefault
340
F
  0
DICTIONARY
  5
47
102
{ACAD_REACTORS
330
C
102
}
330
C
100
AcDbDictionary
281
     1
  3
A0
350
48
  3
A1
350
49
  3
A2
350
4A
  3
A3
350
4B
  3
A4
350
4C
  3
A5
350
4D
  3
A6
350
4E
  3
A7
350
4F
  3
A8
350
50
  3
A9
350
51
  3
B0
350
52
  3
B1
350
53
  3
B2
350
54
  3
B3
350
55
  3
B4
350
56
  3
B5
350
57
  3
B6
350
58
  3
B7
350
59
  3
B8
350
5A
  3
B9
350
5B
  3
C0
350
5C
  3
C1
350
5D
  3
C2
350
5E
  3
C3
350
5F
  3
C4
350
60
  3
C5
350
61
  3
C6
350
62
  3
C7
350
63
  3
C8
350
64
  3
C9
350
65
  3
D0
350
66
  3
D1
350
67
  3
D2
350
68
  0
DICTIONARY
  5
F2
102
{ACAD_REACTORS
330
C
102
}
330
C
100
AcDbDictionary
281
     1
  0
DICTIONARY
  5
EF
102
{ACAD_REACTORS
330
C
102
}
330
C
100
AcDbDictionary
281
     1
  0
DICTIONARY
  5
2A
102
{ACAD_REACTORS
330
C
102
}
330
C
100
AcDbDictionary
281
     1
  3
2dWireframe
350
2F
  3
Basic
350
32
  3
Brighten
350
36
  3
ColorChange
350
3A
  3
Conceptual
350
34
  3
Dim
350
35
  3
EdgeColorOff
350
3D
  3
Facepattern
350
39
  3
Flat
350
2B
  3
FlatWithEdges
350
2C
  3
Gouraud
350
2D
  3
GouraudWithEdges
350
2E
  3
Hidden
350
31
  3
JitterOff
350
3B
  3
Linepattern
350
38
  3
OverhangOff
350
3C
  3
Realistic
350
33
  3
Shaded
350
42
  3
Shaded with edges
350
41
  3
Shades of Gray
350
3E
  3
Sketchy
350
3F
  3
Thicken
350
37
  3
Wireframe
350
30
  3
X-Ray
350
40
  0
DICTIONARY
  5
BD
102
{ACAD_REACTORS
330
C
102
}
330
C
100
AcDbDictionary
281
     1
  3
CANNOSCALE
350
BE
  0
LAYOUT
  5
1E
102
{ACAD_REACTORS
330
1A
102
}
330
1A
100
AcDbPlotSettings
  1

  2
none_device
  4

  6

 40
0.0
 41
0.0
 42
0.0
 43
0.0
 44
0.0
 45
0.0
 46
0.0
 47
0.0
 48
0.0
 49
0.0
140
0.0
141
0.0
142
1.0
143
1.0
 70
   688
 72
     0
 73
     0
 74
     5
  7

 75
    16
 76
     0
 77
     2
 78
   300
147
1.0
148
0.0
149
0.0
100
AcDbLayout
  1
Layout1
 70
     1
 71
     1
 10
0.0
 20
0.0
 11
12.0
 21
9.0
 12
0.0
 22
0.0
 32
0.0
 14
1.000000000000000E+20
 24
1.000000000000000E+20
 34
1.000000000000000E+20
 15
-1.000000000000000E+20
 25
-1.000000000000000E+20
 35
-1.000000000000000E+20
146
0.0
 13
0.0
 23
0.0
 33
0.0
 16
1.0
 26
0.0
 36
0.0
 17
0.0
 27
1.0
 37
0.0
 76
     0
330
1B
  0
LAYOUT
  5
26
102
{ACAD_REACTORS
330
1A
102
}
330
1A
100
AcDbPlotSettings
  1

  2
none_device
  4

  6

 40
0.0
 41
0.0
 42
0.0
 43
0.0
 44
0.0
 45
0.0
 46
0.0
 47
0.0
 48
0.0
 49
0.0
140
0.0
141
0.0
142
1.0
143
1.0
 70
   688
 72
     0
 73
     0
 74
     5
  7

 75
    16
 76
     0
 77
     2
 78
   300
147
1.0
148
0.0
149
0.0
100
AcDbLayout
  1
Layout2
 70
     1
 71
     2
 10
0.0
 20
0.0
 11
0.0
 21
0.0
 12
0.0
 22
0.0
 32
0.0
 14
0.0
 24
0.0
 34
0.0
 15
0.0
 25
0.0
 35
0.0
146
0.0
 13
0.0
 23
0.0
 33
0.0
 16
1.0
 26
0.0
 36
0.0
 17
0.0
 27
1.0
 37
0.0
 76
     0
330
23
  0
LAYOUT
  5
22
102
{ACAD_REACTORS
330
1A
102
}
330
1A
100
AcDbPlotSettings
  1

  2
none_device
  4
Letter_(8.50_x_11.00_Inches)
  6

 40
6.35
 41
6.35
 42
6.35000508
 43
6.35000508
 44
215.9
 45
279.4
 46
0.0
 47
0.0
 48
0.0
 49
0.0
140
0.0
141
0.0
142
1.0
143
1.0
 70
  1712
 72
     0
 73
     0
 74
     0
  7

 75
     0
 76
     0
 77
     2
 78
   300
147
1.0
148
0.0
149
0.0
100
AcDbLayout
  1
Model
 70
     1
 71
     0
 10
0.0
 20
0.0
 11
12.0
 21
9.0
 12
0.0
 22
0.0
 32
0.0
 14
-9.061354330708662
 24
-7.568295275590551
 34
0.0
 15
9.068574803149607
 25
7.576216535433071
 35
0.0
146
0.0
 13
0.0
 23
0.0
 33
0.0
 16
1.0
 26
0.0
 36
0.0
 17
0.0
 27
1.0
 37
0.0
 76
     0
330
1F
331
29
  0
MATERIAL
  5
45
102
{ACAD_REACTORS
330
43
102
}
330
43
100
AcDbMaterial
  1
ByBlock
 72
     1
 94
      127
  0
MATERIAL
  5
44
102
{ACAD_REACTORS
330
43
102
}
330
43
100
AcDbMaterial
  1
ByLayer
 72
     1
 94
      127
  0
MATERIAL
  5
46
102
{ACAD_REACTORS
330
43
102
}
330
43
100
AcDbMaterial
  1
Global
 72
     1
 94
      127
  0
MLINESTYLE
  5
18
102
{ACAD_REACTORS
330
17
102
}
330
17
100
AcDbMlineStyle
  2
Standard
 70
     0
  3

 62
   256
 51
90.0
 52
90.0
 71
     2
 49
0.5
 62
   256
  6
BYLAYER
 49
-0.5
 62
   256
  6
BYLAYER
  0
ACDBPLACEHOLDER
  5
F
102
{ACAD_REACTORS
330
E
102
}
330
E
  0
SCALE
  5
48
102
{ACAD_REACTORS
330
47
102
}
330
47
100
AcDbScale
 70
     0
300
1:1
140
1.0
141
1.0
290
     1
  0
SCALE
  5
49
102
{ACAD_REACTORS
330
47
102
}
330
47
100
AcDbScale
 70
     0
300
1:2
140
1.0
141
2.0
290
     0
  0
SCALE
  5
4A
102
{ACAD_REACTORS
330
47
102
}
330
47
100
AcDbScale
 70
     0
300
1:4
140
1.0
141
4.0
290
     0
  0
SCALE
  5
4B
102
{ACAD_REACTORS
330
47
102
}
330
47
100
AcDbScale
 70
     0
300
1:5
140
1.0
141
5.0
290
     0
  0
SCALE
  5
4C
102
{ACAD_REACTORS
330
47
102
}
330
47
100
AcDbScale
 70
     0
300
1:8
140
1.0
141
8.0
290
     0
  0
SCALE
  5
4D
102
{ACAD_REACTORS
330
47
102
}
330
47
100
AcDbScale
 70
     0
300
1:10
140
1.0
141
10.0
290
     0
  0
SCALE
  5
4E
102
{ACAD_REACTORS
330
47
102
}
330
47
100
AcDbScale
 70
     0
300
1:16
140
1.0
141
16.0
290
     0
  0
SCALE
  5
4F
102
{ACAD_REACTORS
330
47
102
}
330
47
100
AcDbScale
 70
     0
300
1:20
140
1.0
141
20.0
290
     0
  0
SCALE
  5
50
102
{ACAD_REACTORS
330
47
102
}
330
47
100
AcDbScale
 70
     0
300
1:30
140
1.0
141
30.0
290
     0
  0
SCALE
  5
51
102
{ACAD_REACTORS
330
47
102
}
330
47
100
AcDbScale
 70
     0
300
1:40
140
1.0
141
40.0
290
     0
  0
SCALE
  5
52
102
{ACAD_REACTORS
330
47
102
}
330
47
100
AcDbScale
 70
     0
300
1:50
140
1.0
141
50.0
290
     0
  0
SCALE
  5
53
102
{ACAD_REACTORS
330
47
102
}
330
47
100
AcDbScale
 70
     0
300
1:100
140
1.0
141
100.0
290
     0
  0
SCALE
  5
54
102
{ACAD_REACTORS
330
47
102
}
330
47
100
AcDbScale
 70
     0
300
2:1
140
2.0
141
1.0
290
     0
  0
SCALE
  5
55
102
{ACAD_REACTORS
330
47
102
}
330
47
100
AcDbScale
 70
     0
300
4:1
140
4.0
141
1.0
290
     0
  0
SCALE
  5
56
102
{ACAD_REACTORS
330
47
102
}
330
47
100
AcDbScale
 70
     0
300
8:1
140
8.0
141
1.0
290
     0
  0
SCALE
  5
57
102
{ACAD_REACTORS
330
47
102
}
330
47
100
AcDbScale
 70
     0
300
10:1
140
10.0
141
1.0
290
     0
  0
SCALE
  5
58
102
{ACAD_REACTORS
330
47
102
}
330
47
100
AcDbScale
 70
     0
300
100:1
140
100.0
141
1.0
290
     0
  0
SCALE
  5
59
102
{ACAD_REACTORS
330
47
102
}
330
47
100
AcDbScale
 70
     0
300
1/128" = 1'-0"
140
0.0078125
141
12.0
290
     0
  0
SCALE
  5
5A
102
{ACAD_REACTORS
330
47
102
}
330
47
100
AcDbScale
 70
     0
300
1/64" = 1'-0"
140
0.015625
141
12.0
290
     0
  0
SCALE
  5
5B
102
{ACAD_REACTORS
330
47
102
}
330
47
100
AcDbScale
 70
     0
300
1/32" = 1'-0"
140
0.03125
141
12.0
290
     0
  0
SCALE
  5
5C
102
{ACAD_REACTORS
330
47
102
}
330
47
100
AcDbScale
 70
     0
300
1/16" = 1'-0"
140
0.0625
141
12.0
290
     0
  0
SCALE
  5
5D
102
{ACAD_REACTORS
330
47
102
}
330
47
100
AcDbScale
 70
     0
300
3/32" = 1'-0"
140
0.09375
141
12.0
290
     0
  0
SCALE
  5
5E
102
{ACAD_REACTORS
330
47
102
}
330
47
100
AcDbScale
 70
     0
300
1/8" = 1'-0"
140
0.125
141
12.0
290
     0
  0
SCALE
  5
5F
102
{ACAD_REACTORS
330
47
102
}
330
47
100
AcDbScale
 70
     0
300
3/16" = 1'-0"
140
0.1875
141
12.0
290
     0
  0
SCALE
  5
60
102
{ACAD_REACTORS
330
47
102
}
330
47
100
AcDbScale
 70
     0
300
1/4" = 1'-0"
140
0.25
141
12.0
290
     0
  0
SCALE
  5
61
102
{ACAD_REACTORS
330
47
102
}
330
47
100
AcDbScale
 70
     0
300
3/8" = 1'-0"
140
0.375
141
12.0
290
     0
  0
SCALE
  5
62
102
{ACAD_REACTORS
330
47
102
}
330
47
100
AcDbScale
 70
     0
300
1/2" = 1'-0"
140
0.5
141
12.0
290
     0
  0
SCALE
  5
63
102
{ACAD_REACTORS
330
47
102
}
330
47
100
AcDbScale
 70
     0
300
3/4" = 1'-0"
140
0.75
141
12.0
290
     0
  0
SCALE
  5
64
102
{ACAD_REACTORS
330
47
102
}
330
47
100
AcDbScale
 70
     0
300
1" = 1'-0"
140
1.0
141
12.0
290
     0
  0
SCALE
  5
65
102
{ACAD_REACTORS
330
47
102
}
330
47
100
AcDbScale
 70
     0
300
1-1/2" = 1'-0"
140
1.5
141
12.0
290
     0
  0
SCALE
  5
66
102
{ACAD_REACTORS
330
47
102
}
330
47
100
AcDbScale
 70
     0
300
3" = 1'-0"
140
3.0
141
12.0
290
     0
  0
SCALE
  5
67
102
{ACAD_REACTORS
330
47
102
}
330
47
100
AcDbScale
 70
     0
300
6" = 1'-0"
140
6.0
141
12.0
290
     0
  0
SCALE
  5
68
102
{ACAD_REACTORS
330
47
102
}
330
47
100
AcDbScale
 70
     0
300
1'-0" = 1'-0"
140
12.0
141
12.0
290
     0
  0
VISUALSTYLE
  5
2F
102
{ACAD_REACTORS
330
2A
102
}
102
{ACAD_XDICTIONARY
360
C7
102
}
330
2A
100
AcDbVisualStyle
  2
2dWireframe
 70
     4
 71
     0
 72
     2
 73
     0
 90
        0
 40
0.6
 41
30.0
 62
     5
 63
     7
421
 16777215
 74
     1
 91
        4
 64
     7
 65
   257
 75
     1
175
     1
 42
1.0
 92
        0
 66
   257
 43
1.0
 76
     1
 77
     6
 78
     2
 67
     7
 79
     5
170
     0
171
     0
290
     0
174
     0
 93
        1
 44
0.0
173
     0
291
     0
 45
0.0
  0
VISUALSTYLE
  5
32
102
{ACAD_REACTORS
330
2A
102
}
102
{ACAD_XDICTIONARY
360
CD
102
}
330
2A
100
AcDbVisualStyle
  2
Basic
 70
     7
 71
     1
 72
     0
 73
     1
 90
        0
 40
0.6
 41
30.0
 62
     5
 63
     7
421
 16777215
 74
     0
 91
        4
 64
     7
 65
   257
 75
     1
175
     1
 42
1.0
 92
        8
 66
     7
 43
1.0
 76
     1
 77
     6
 78
     2
 67
     7
 79
     5
170
     0
171
     0
290
     0
174
     0
 93
        1
 44
0.0
173
     0
291
     1
 45
0.0
  0
VISUALSTYLE
  5
36
102
{ACAD_REACTORS
330
2A
102
}
102
{ACAD_XDICTIONARY
360
D5
102
}
330
2A
100
AcDbVisualStyle
  2
Brighten
 70
    12
 71
     2
 72
     2
 73
     0
 90
        0
 40
0.6
 41
30.0
 62
     5
 63
     7
421
 16777215
 74
     1
 91
        4
 64
     7
 65
   257
 75
     1
175
     1
 42
1.0
 92
        8
 66
     7
 43
1.0
 76
     1
 77
     6
 78
     2
 67
     7
 79
     5
170
     0
171
     0
290
     0
174
     0
 93
        1
 44
50.0
173
     0
291
     1
 45
0.0
  0
VISUALSTYLE
  5
3A
102
{ACAD_REACTORS
330
2A
102
}
102
{ACAD_XDICTIONARY
360
DD
102
}
330
2A
100
AcDbVisualStyle
  2
ColorChange
 70
    16
 71
     2
 72
     2
 73
     3
 90
        0
 40
0.6
 41
30.0
 62
     5
 63
     8
421
  8421504
 74
     1
 91
        4
 64
     7
 65
   257
 75
     1
175
     1
 42
1.0
 92
        8
 66
     8
424
  8421504
 43
1.0
 76
     1
 77
     6
 78
     2
 67
     7
 79
     5
170
     0
171
     0
290
     0
174
     0
 93
        1
 44
0.0
173
     0
291
     1
 45
0.0
  0
VISUALSTYLE
  5
34
102
{ACAD_REACTORS
330
2A
102
}
102
{ACAD_XDICTIONARY
360
D1
102
}
330
2A
100
AcDbVisualStyle
  2
Conceptual
 70
     9
 71
     3
 72
     2
 73
     0
 90
        0
 40
0.6
 41
30.0
 62
     5
 63
     7
421
 16777215
 74
     2
 91
        2
 64
     7
 65
   257
 75
     1
175
     1
 42
179.0
 92
        8
 66
     7
 43
1.0
 76
     1
 77
     6
 78
     2
 67
     7
 79
     3
170
     0
171
     0
290
     0
174
     0
 93
        1
 44
0.0
173
     0
291
     0
 45
0.0
  0
VISUALSTYLE
  5
35
102
{ACAD_REACTORS
330
2A
102
}
102
{ACAD_XDICTIONARY
360
D3
102
}
330
2A
100
AcDbVisualStyle
  2
Dim
 70
    11
 71
     2
 72
     2
 73
     0
 90
        0
 40
0.6
 41
30.0
 62
     5
 63
     7
421
 16777215
 74
     1
 91
        4
 64
     7
 65
   257
 75
     1
175
     1
 42
1.0
 92
        8
 66
     7
 43
1.0
 76
     1
 77
     6
 78
     2
 67
     7
 79
     5
170
     0
171
     0
290
     0
174
     0
 93
        1
 44
-50.0
173
     0
291
     1
 45
0.0
  0
VISUALSTYLE
  5
3D
102
{ACAD_REACTORS
330
2A
102
}
102
{ACAD_XDICTIONARY
360
E3
102
}
330
2A
100
AcDbVisualStyle
  2
EdgeColorOff
 70
    22
 71
     2
 72
     2
 73
     0
 90
        0
 40
0.6
 41
30.0
 62
     5
 63
     7
421
 16777215
 74
     1
 91
        4
 64
     7
 65
   257
 75
     1
175
     1
 42
1.0
 92
        8
 66
     7
 43
1.0
 76
     1
 77
     6
 78
     2
 67
     7
 79
     5
170
     0
171
     0
290
     0
174
     0
 93
        1
 44
0.0
173
     0
291
     1
 45
0.0
  0
VISUALSTYLE
  5
39
102
{ACAD_REACTORS
330
2A
102
}
102
{ACAD_XDICTIONARY
360
DB
102
}
330
2A
100
AcDbVisualStyle
  2
Facepattern
 70
    15
 71
     2
 72
     2
 73
     0
 90
        0
 40
0.6
 41
30.0
 62
     5
 63
     7
421
 16777215
 74
     1
 91
        4
 64
     7
 65
   257
 75
     1
175
     1
 42
1.0
 92
        8
 66
     7
 43
1.0
 76
     1
 77
     6
 78
     2
 67
     7
 79
     5
170
     0
171
     0
290
     0
174
     0
 93
        1
 44
0.0
173
     0
291
     1
 45
0.0
  0
VISUALSTYLE
  5
2B
102
{ACAD_REACTORS
330
2A
102
}
102
{ACAD_XDICTIONARY
360
BF
102
}
330
2A
100
AcDbVisualStyle
  2
Flat
 70
     0
 71
     2
 72
     1
 73
     1
 90
        2
 40
0.6
 41
30.0
 62
     5
 63
     7
421
 16777215
 74
     0
 91
        0
 64
     7
 65
   257
 75
     1
175
     1
 42
1.0
 92
        8
 66
     7
 43
1.0
 76
     1
 77
     6
 78
     2
 67
     7
 79
     5
170
     0
171
     0
290
     0
174
     0
 93
       13
 44
0.0
173
     0
291
     1
 45
0.0
  0
VISUALSTYLE
  5
2C
102
{ACAD_REACTORS
330
2A
102
}
102
{ACAD_XDICTIONARY
360
C1
102
}
330
2A
100
AcDbVisualStyle
  2
FlatWithEdges
 70
     1
 71
     2
 72
     1
 73
     1
 90
        2
 40
0.6
 41
30.0
 62
     5
 63
     7
421
 16777215
 74
     1
 91
        0
 64
     7
 65
   257
 75
     1
175
     1
 42
1.0
 92
        0
 66
   257
 43
1.0
 76
     1
 77
     6
 78
     2
 67
     7
 79
     5
170
     0
171
     0
290
     0
174
     0
 93
       13
 44
0.0
173
     0
291
     1
 45
0.0
  0
VISUALSTYLE
  5
2D
102
{ACAD_REACTORS
330
2A
102
}
102
{ACAD_XDICTIONARY
360
C3
102
}
330
2A
100
AcDbVisualStyle
  2
Gouraud
 70
     2
 71
     2
 72
     2
 73
     1
 90
        2
 40
0.6
 41
30.0
 62
     5
 63
     7
421
 16777215
 74
     0
 91
        0
 64
     7
 65
   257
 75
     1
175
     1
 42
1.0
 92
        0
 66
     7
 43
1.0
 76
     1
 77
     6
 78
     2
 67
     7
 79
     5
170
     0
171
     0
290
     0
174
     0
 93
       13
 44
0.0
173
     0
291
     1
 45
0.0
  0
VISUALSTYLE
  5
2E
102
{ACAD_REACTORS
330
2A
102
}
102
{ACAD_XDICTIONARY
360
C5
102
}
330
2A
100
AcDbVisualStyle
  2
GouraudWithEdges
 70
     3
 71
     2
 72
     2
 73
     1
 90
        2
 40
0.6
 41
30.0
 62
     5
 63
     7
421
 16777215
 74
     1
 91
        0
 64
     7
 65
   257
 75
     1
175
     1
 42
1.0
 92
        0
 66
   257
 43
1.0
 76
     1
 77
     6
 78
     2
 67
     7
 79
     5
170
     0
171
     0
290
     0
174
     0
 93
       13
 44
0.0
173
     0
291
     1
 45
0.0
  0
VISUALSTYLE
  5
31
102
{ACAD_REACTORS
330
2A
102
}
102
{ACAD_XDICTIONARY
360
CB
102
}
330
2A
100
AcDbVisualStyle
  2
Hidden
 70
     6
 71
     1
 72
     2
 73
     2
 90
        0
 40
0.6
 41
30.0
 62
     5
 63
     7
421
 16777215
 74
     2
 91
        2
 64
     7
 65
   257
 75
     2
175
     1
 42
40.0
 92
        0
 66
   257
 43
1.0
 76
     1
 77
     6
 78
     2
 67
     7
 79
     3
170
     0
171
     0
290
     0
174
     0
 93
        1
 44
0.0
173
     0
291
     0
 45
0.0
  0
VISUALSTYLE
  5
3B
102
{ACAD_REACTORS
330
2A
102
}
102
{ACAD_XDICTIONARY
360
DF
102
}
330
2A
100
AcDbVisualStyle
  2
JitterOff
 70
    20
 71
     2
 72
     2
 73
     0
 90
        0
 40
0.6
 41
30.0
 62
     5
 63
     7
421
 16777215
 74
     1
 91
        4
 64
     7
 65
   257
 75
     1
175
     1
 42
1.0
 92
       10
 66
     7
 43
1.0
 76
     1
 77
     6
 78
     2
 67
     7
 79
     5
170
     0
171
     0
290
     0
174
     0
 93
        1
 44
0.0
173
     0
291
     1
 45
0.0
  0
VISUALSTYLE
  5
38
102
{ACAD_REACTORS
330
2A
102
}
102
{ACAD_XDICTIONARY
360
D9
102
}
330
2A
100
AcDbVisualStyle
  2
Linepattern
 70
    14
 71
     2
 72
     2
 73
     0
 90
        0
 40
0.6
 41
30.0
 62
     5
 63
     7
421
 16777215
 74
     1
 91
        4
 64
     7
 65
   257
 75
     7
175
     7
 42
1.0
 92
        8
 66
     7
 43
1.0
 76
     1
 77
     6
 78
     2
 67
     7
 79
     5
170
     0
171
     0
290
     0
174
     0
 93
        1
 44
0.0
173
     0
291
     1
 45
0.0
  0
VISUALSTYLE
  5
3C
102
{ACAD_REACTORS
330
2A
102
}
102
{ACAD_XDICTIONARY
360
E1
102
}
330
2A
100
AcDbVisualStyle
  2
OverhangOff
 70
    21
 71
     2
 72
     2
 73
     0
 90
        0
 40
0.6
 41
30.0
 62
     5
 63
     7
421
 16777215
 74
     1
 91
        4
 64
     7
 65
   257
 75
     1
175
     1
 42
1.0
 92
        9
 66
     7
 43
1.0
 76
     1
 77
     6
 78
     2
 67
     7
 79
     5
170
     0
171
     0
290
     0
174
     0
 93
        1
 44
0.0
173
     0
291
     1
 45
0.0
  0
VISUALSTYLE
  5
33
102
{ACAD_REACTORS
330
2A
102
}
102
{ACAD_XDICTIONARY
360
CF
102
}
330
2A
100
AcDbVisualStyle
  2
Realistic
 70
     8
 71
     2
 72
     3
 73
     0
 90
        2
 40
0.6
 41
30.0
 62
     5
 63
     7
421
 16777215
 74
     0
 91
        0
 64
     7
 65
   257
 75
     1
175
     1
 42
1.0
 92
        8
 66
   257
 43
1.0
 76
     1
 77
     6
 78
     2
 67
     7
 79
     3
170
     0
171
     0
290
     0
174
     0
 93
       13
 44
0.0
173
     0
291
     0
 45
0.0
  0
VISUALSTYLE
  5
42
102
{ACAD_REACTORS
330
2A
102
}
102
{ACAD_XDICTIONARY
360
ED
102
}
330
2A
100
AcDbVisualStyle
  2
Shaded
 70
    27
 71
     2
 72
     2
 73
     1
 90
        2
 40
0.6
 41
30.0
 62
     5
 63
     7
421
 16777215
 74
     0
 91
        4
 64
     7
 65
   257
 75
     1
175
     1
 42
1.0
 92
        8
 66
   257
 43
1.0
 76
     1
 77
     6
 78
     2
 67
     8
425
  7895160
 79
     3
170
     0
171
     0
290
     0
174
     0
 93
        5
 44
0.0
173
     0
291
     0
 45
0.0
  0
VISUALSTYLE
  5
41
102
{ACAD_REACTORS
330
2A
102
}
102
{ACAD_XDICTIONARY
360
EB
102
}
330
2A
100
AcDbVisualStyle
  2
Shaded with edges
 70
    26
 71
     2
 72
     2
 73
     1
 90
        2
 40
0.6
 41
30.0
 62
     5
 63
     7
421
 16777215
 74
     1
 91
       10
 64
     7
 65
   257
 75
     2
175
     1
 42
1.0
 92
        8
 66
   257
 43
1.0
 76
     1
 77
     6
 78
     2
 67
     7
 79
     3
170
     0
171
     0
290
     0
174
     0
 93
        5
 44
0.0
173
     0
291
     0
 45
0.0
  0
VISUALSTYLE
  5
3E
102
{ACAD_REACTORS
330
2A
102
}
102
{ACAD_XDICTIONARY
360
E5
102
}
330
2A
100
AcDbVisualStyle
  2
Shades of Gray
 70
    23
 71
     2
 72
     2
 73
     3
 90
        0
 40
0.6
 41
30.0
 62
     5
 63
     7
421
 16777215
 74
     2
 91
        2
 64
     7
 65
     7
 75
     1
175
     1
 42
40.0
 92
        8
 66
     7
 43
1.0
 76
     1
 77
     6
 78
     2
 67
     7
 79
     3
170
     0
171
     0
290
     0
174
     0
 93
        1
 44
0.0
173
     0
291
     0
 45
0.0
  0
VISUALSTYLE
  5
3F
102
{ACAD_REACTORS
330
2A
102
}
102
{ACAD_XDICTIONARY
360
E7
102
}
330
2A
100
AcDbVisualStyle
  2
Sketchy
 70
    24
 71
     1
 72
     2
 73
     2
 90
        0
 40
0.6
 41
30.0
 62
     5
 63
     7
421
 16777215
 74
     2
 91
        2
 64
     7
 65
     7
 75
     1
175
     1
 42
40.0
 92
       11
 66
     7
 43
1.0
 76
     1
 77
     6
 78
     2
 67
     7
 79
     6
170
     0
171
     0
290
     0
174
     0
 93
        1
 44
0.0
173
     0
291
     0
 45
0.0
  0
VISUALSTYLE
  5
37
102
{ACAD_REACTORS
330
2A
102
}
102
{ACAD_XDICTIONARY
360
D7
102
}
330
2A
100
AcDbVisualStyle
  2
Thicken
 70
    13
 71
     2
 72
     2
 73
     0
 90
        0
 40
0.6
 41
30.0
 62
     5
 63
     7
421
 16777215
 74
     1
 91
        4
 64
     7
 65
   257
 75
     1
175
     1
 42
1.0
 92
       12
 66
     7
 43
1.0
 76
     1
 77
     6
 78
     2
 67
     7
 79
     5
170
     0
171
     0
290
     0
174
     0
 93
        1
 44
0.0
173
     0
291
     1
 45
0.0
  0
VISUALSTYLE
  5
30
102
{ACAD_REACTORS
330
2A
102
}
102
{ACAD_XDICTIONARY
360
C9
102
}
330
2A
100
AcDbVisualStyle
  2
Wireframe
 70
     5
 71
     0
 72
     2
 73
     0
 90
        0
 40
0.6
 41
30.0
 62
     5
 63
     7
421
 16777215
 74
     1
 91
        4
 64
     7
 65
   257
 75
     1
175
     1
 42
1.0
 92
        0
 66
   257
 43
1.0
 76
     1
 77
     6
 78
     2
 67
     7
 79
     3
170
     0
171
     0
290
     0
174
     0
 93
        1
 44
0.0
173
     0
291
     0
 45
0.0
  0
VISUALSTYLE
  5
40
102
{ACAD_REACTORS
330
2A
102
}
102
{ACAD_XDICTIONARY
360
E9
102
}
330
2A
100
AcDbVisualStyle
  2
X-Ray
 70
    25
 71
     2
 72
     2
 73
     1
 90
        1
 40
0.5
 41
30.0
 62
     5
 63
     7
421
 16777215
 74
     1
 91
        0
 64
     7
 65
   257
 75
     1
175
     1
 42
1.0
 92
        8
 66
     7
 43
1.0
 76
     1
 77
     6
 78
     2
 67
     7
 79
     3
170
     0
171
     0
290
     0
174
     0
 93
       13
 44
0.0
173
     0
291
     0
 45
0.0
  0
DICTIONARYVAR
  5
BE
102
{ACAD_REACTORS
330
BD
102
}
330
BD
100
DictionaryVariables
280
     0
  1
1:1
  0
DICTIONARY
  5
C7
330
2F
100
AcDbDictionary
280
     1
281
     1
  3
ACAD_XREC_ROUNDTRIP
360
C8
  0
DICTIONARY
  5
CD
330
32
100
AcDbDictionary
280
     1
281
     1
  3
ACAD_XREC_ROUNDTRIP
360
CE
  0
DICTIONARY
  5
D5
330
36
100
AcDbDictionary
280
     1
281
     1
  3
ACAD_XREC_ROUNDTRIP
360
D6
  0
DICTIONARY
  5
DD
330
3A
100
AcDbDictionary
280
     1
281
     1
  3
ACAD_XREC_ROUNDTRIP
360
DE
  0
DICTIONARY
  5
D1
330
34
100
AcDbDictionary
280
     1
281
     1
  3
ACAD_XREC_ROUNDTRIP
360
D2
  0
DICTIONARY
  5
D3
330
35
100
AcDbDictionary
280
     1
281
     1
  3
ACAD_XREC_ROUNDTRIP
360
D4
  0
DICTIONARY
  5
E3
330
3D
100
AcDbDictionary
280
     1
281
     1
  3
ACAD_XREC_ROUNDTRIP
360
E4
  0
DICTIONARY
  5
DB
330
39
100
AcDbDictionary
280
     1
281
     1
  3
ACAD_XREC_ROUNDTRIP
360
DC
  0
DICTIONARY
  5
BF
330
2B
100
AcDbDictionary
280
     1
281
     1
  3
ACAD_XREC_ROUNDTRIP
360
C0
  0
DICTIONARY
  5
C1
330
2C
100
AcDbDictionary
280
     1
281
     1
  3
ACAD_XREC_ROUNDTRIP
360
C2
  0
DICTIONARY
  5
C3
330
2D
100
AcDbDictionary
280
     1
281
     1
  3
ACAD_XREC_ROUNDTRIP
360
C4
  0
DICTIONARY
  5
C5
330
2E
100
AcDbDictionary
280
     1
281
     1
  3
ACAD_XREC_ROUNDTRIP
360
C6
  0
DICTIONARY
  5
CB
330
31
100
AcDbDictionary
280
     1
281
     1
  3
ACAD_XREC_ROUNDTRIP
360
CC
  0
DICTIONARY
  5
DF
330
3B
100
AcDbDictionary
280
     1
281
     1
  3
ACAD_XREC_ROUNDTRIP
360
E0
  0
DICTIONARY
  5
D9
330
38
100
AcDbDictionary
280
     1
281
     1
  3
ACAD_XREC_ROUNDTRIP
360
DA
  0
DICTIONARY
  5
E1
330
3C
100
AcDbDictionary
280
     1
281
     1
  3
ACAD_XREC_ROUNDTRIP
360
E2
  0
DICTIONARY
  5
CF
330
33
100
AcDbDictionary
280
     1
281
     1
  3
ACAD_XREC_ROUNDTRIP
360
D0
  0
DICTIONARY
  5
ED
330
42
100
AcDbDictionary
280
     1
281
     1
  3
ACAD_XREC_ROUNDTRIP
360
EE
  0
DICTIONARY
  5
EB
330
41
100
AcDbDictionary
280
     1
281
     1
  3
ACAD_XREC_ROUNDTRIP
360
EC
  0
DICTIONARY
  5
E5
330
3E
100
AcDbDictionary
280
     1
281
     1
  3
ACAD_XREC_ROUNDTRIP
360
E6
  0
DICTIONARY
  5
E7
330
3F
100
AcDbDictionary
280
     1
281
     1
  3
ACAD_XREC_ROUNDTRIP
360
E8
  0
DICTIONARY
  5
D7
330
37
100
AcDbDictionary
280
     1
281
     1
  3
ACAD_XREC_ROUNDTRIP
360
D8
  0
DICTIONARY
  5
C9
330
30
100
AcDbDictionary
280
     1
281
     1
  3
ACAD_XREC_ROUNDTRIP
360
CA
  0
DICTIONARY
  5
E9
330
40
100
AcDbDictionary
280
     1
281
     1
  3
ACAD_XREC_ROUNDTRIP
360
EA
  0
XRECORD
  5
C8
102
{ACAD_REACTORS
330
C7
102
}
330
C7
100
AcDbXrecord
280
     1
102
RTVSPropertyOp0
 70
     1
102
RTVSPropertyOp1
 70
     1
102
RTVSPropertyOp2
 70
     1
102
RTVSPropertyOp3
 70
     1
102
RTVSPropertyOp4
 70
     1
102
RTVSPropertyOp5
 70
     1
102
RTVSPropertyOp6
 70
     1
102
RTVSPropertyOp7
 70
     1
102
RTVSPropertyOp8
 70
     1
102
RTVSPropertyOp9
 70
     1
102
RTVSPropertyOp10
 70
     1
102
RTVSPropertyOp11
 70
     1
102
RTVSPropertyOp12
 70
     1
102
RTVSPropertyOp13
 70
     1
102
RTVSPropertyOp14
 70
     1
102
RTVSPropertyOp15
 70
     1
102
RTVSPropertyOp16
 70
     1
102
RTVSPropertyOp17
 70
     1
102
RTVSPropertyOp18
 70
     1
102
RTVSPropertyOp19
 70
     1
102
RTVSPropertyOp20
 70
     1
102
RTVSPropertyOp21
 70
     1
102
RTVSPropertyOp22
 70
     1
102
RTVSPropertyOp23
 70
     1
102
RTVSPropertyOp24
 70
     1
102
RTVSPropertyOp25
 70
     1
102
RTVSPropertyOp26
 70
     1
102
RTVSPropertyOp27
 70
     1
102
RTVSPropertyOp28
 70
     1
102
RTVSPropertyOp29
 70
     1
102
RTVSPropertyOp30
 70
     1
102
RTVSPropertyOp31
 70
     1
102
RTVSPropertyOp32
 70
     1
102
RTVSPropertyOp33
 70
     1
102
RTVSPropertyOp34
 70
     1
102
RTVSPropertyOp35
 70
     1
102
RTVSPropertyOp36
 70
     1
102
RTVSPropertyOp37
 70
     1
102
RTVSPropertyOp38
 70
     1
102
RTVSPropertyOp39
 70
     1
102
RTVSPropertyOp40
 70
     1
102
RTVSPropertyOp41
 70
     1
102
RTVSPropertyOp42
 70
     1
102
RTVSPropertyOp43
 70
     1
102
RTVSPropertyOp44
 70
     1
102
RTVSPropertyOp45
 70
     1
102
RTVSPropertyOp46
 70
     1
102
RTVSPropertyOp47
 70
     1
102
RTVSPropertyOp48
 70
     1
102
RTVSPropertyOp49
 70
     1
102
RTVSPropertyOp50
 70
     1
102
RTVSPropertyOp51
 70
     0
102
RTVSPropertyOp52
 70
     0
102
RTVSPropertyOp53
 70
     1
102
RTVSPropertyOp54
 70
     1
102
RTVSPropertyOp55
 70
     1
102
RTVSPropertyOp56
 70
     1
102
RTVSPropertyOp57
 70
     1
102
RTVSPost2010Prop28
280
     1
102
RTVSPost2010PropOp28
 70
     1
102
RTVSPost2010Prop29
280
     1
102
RTVSPost2010PropOp29
 70
     1
102
RTVSPost2010Prop30
280
     0
102
RTVSPost2010PropOp30
 70
     1
102
RTVSPost2010Prop31
280
     0
102
RTVSPost2010PropOp31
 70
     1
102
RTVSPost2010Prop32
280
     0
102
RTVSPost2010PropOp32
 70
     1
102
RTVSPost2010Prop33
280
     0
102
RTVSPost2010PropOp33
 70
     1
102
RTVSPost2010Prop34
280
     0
102
RTVSPost2010PropOp34
 70
     1
102
RTVSPost2010Prop35
280
     0
102
RTVSPost2010PropOp35
 70
     1
102
RTVSPost2010Prop36
280
     0
102
RTVSPost2010PropOp36
 70
     1
102
RTVSPost2010Prop37
 90
       50
102
RTVSPost2010PropOp37
 70
     1
102
RTVSPost2010Prop38
140
0.0
102
RTVSPost2010PropOp38
 70
     1
102
RTVSPost2010Prop39
140
1.0
102
RTVSPost2010PropOp39
 70
     1
102
RTVSPost2010Prop40
 90
        0
102
RTVSPost2010PropOp40
 70
     1
102
RTVSPost2010Prop41ColorIndex
 90
       18
102
RTVSPost2010Prop41ColorRGB
 90
        0
102
RTVSPost2010PropOp41
 70
     1
102
RTVSPost2010Prop42
 90
       50
102
RTVSPost2010PropOp42
 70
     1
102
RTVSPost2010Prop43
 90
        3
102
RTVSPost2010PropOp43
 70
     1
102
RTVSPost2010Prop44ColorIndex
 90
        5
102
RTVSPost2010Prop44ColorRGB
 90
      255
102
RTVSPost2010PropOp44
 70
     1
102
RTVSPost2010Prop45
280
     0
102
RTVSPost2010PropOp45
 70
     1
102
RTVSPost2010Prop46
 90
       50
102
RTVSPost2010PropOp46
 70
     1
102
RTVSPost2010Prop47
 90
       50
102
RTVSPost2010PropOp47
 70
     1
102
RTVSPost2010Prop48
 90
       50
102
RTVSPost2010PropOp48
 70
     1
102
RTVSPost2010Prop49
280
     0
102
RTVSPost2010PropOp49
 70
     1
102
RTVSPost2010Prop50
 90
       50
102
RTVSPost2010PropOp50
 70
     1
102
RTVSPost2010Prop51ColorIndex
 90
      256
102
RTVSPost2010Prop51ColorRGB
 90
-16777216
102
RTVSPost2010PropOp51
 70
     0
102
RTVSPost2010Prop52
140
1.0
102
RTVSPost2010PropOp52
 70
     0
102
RTVSPost2010Prop53
 90
        2
102
RTVSPost2010PropOp53
 70
     1
102
RTVSPost2010Prop54
  1
strokes_ogs.tif
102
RTVSPost2010PropOp54
 70
     1
102
RTVSPost2010Prop55
280
     0
102
RTVSPost2010PropOp55
 70
     1
102
RTVSPost2010Prop56
140
1.0
102
RTVSPost2010PropOp56
 70
     1
102
RTVSPost2010Prop57
140
1.0
102
RTVSPost2010PropOp57
 70
     1
  0
XRECORD
  5
CE
102
{ACAD_REACTORS
330
CD
102
}
330
CD
100
AcDbXrecord
280
     1
102
RTVSPropertyOp0
 70
     1
102
RTVSPropertyOp1
 70
     1
102
RTVSPropertyOp2
 70
     1
102
RTVSPropertyOp3
 70
     1
102
RTVSPropertyOp4
 70
     1
102
RTVSPropertyOp5
 70
     1
102
RTVSPropertyOp6
 70
     1
102
RTVSPropertyOp7
 70
     1
102
RTVSPropertyOp8
 70
     1
102
RTVSPropertyOp9
 70
     1
102
RTVSPropertyOp10
 70
     1
102
RTVSPropertyOp11
 70
     1
102
RTVSPropertyOp12
 70
     1
102
RTVSPropertyOp13
 70
     1
102
RTVSPropertyOp14
 70
     1
102
RTVSPropertyOp15
 70
     1
102
RTVSPropertyOp16
 70
     1
102
RTVSPropertyOp17
 70
     1
102
RTVSPropertyOp18
 70
     1
102
RTVSPropertyOp19
 70
     1
102
RTVSPropertyOp20
 70
     1
102
RTVSPropertyOp21
 70
     1
102
RTVSPropertyOp22
 70
     1
102
RTVSPropertyOp23
 70
     1
102
RTVSPropertyOp24
 70
     1
102
RTVSPropertyOp25
 70
     1
102
RTVSPropertyOp26
 70
     1
102
RTVSPropertyOp27
 70
     1
102
RTVSPropertyOp28
 70
     1
102
RTVSPropertyOp29
 70
     1
102
RTVSPropertyOp30
 70
     1
102
RTVSPropertyOp31
 70
     1
102
RTVSPropertyOp32
 70
     1
102
RTVSPropertyOp33
 70
     1
102
RTVSPropertyOp34
 70
     1
102
RTVSPropertyOp35
 70
     1
102
RTVSPropertyOp36
 70
     1
102
RTVSPropertyOp37
 70
     1
102
RTVSPropertyOp38
 70
     1
102
RTVSPropertyOp39
 70
     1
102
RTVSPropertyOp40
 70
     1
102
RTVSPropertyOp41
 70
     1
102
RTVSPropertyOp42
 70
     1
102
RTVSPropertyOp43
 70
     1
102
RTVSPropertyOp44
 70
     1
102
RTVSPropertyOp45
 70
     1
102
RTVSPropertyOp46
 70
     1
102
RTVSPropertyOp47
 70
     1
102
RTVSPropertyOp48
 70
     1
102
RTVSPropertyOp49
 70
     1
102
RTVSPropertyOp50
 70
     1
102
RTVSPropertyOp51
 70
     0
102
RTVSPropertyOp52
 70
     0
102
RTVSPropertyOp53
 70
     1
102
RTVSPropertyOp54
 70
     1
102
RTVSPropertyOp55
 70
     1
102
RTVSPropertyOp56
 70
     1
102
RTVSPropertyOp57
 70
     1
102
RTVSPost2010Prop28
280
     0
102
RTVSPost2010PropOp28
 70
     1
102
RTVSPost2010Prop29
280
     1
102
RTVSPost2010PropOp29
 70
     1
102
RTVSPost2010Prop30
280
     1
102
RTVSPost2010PropOp30
 70
     1
102
RTVSPost2010Prop31
280
     0
102
RTVSPost2010PropOp31
 70
     1
102
RTVSPost2010Prop32
280
     0
102
RTVSPost2010PropOp32
 70
     1
102
RTVSPost2010Prop33
280
     0
102
RTVSPost2010PropOp33
 70
     1
102
RTVSPost2010Prop34
280
     0
102
RTVSPost2010PropOp34
 70
     1
102
RTVSPost2010Prop35
280
     0
102
RTVSPost2010PropOp35
 70
     1
102
RTVSPost2010Prop36
280
     0
102
RTVSPost2010PropOp36
 70
     1
102
RTVSPost2010Prop37
 90
       50
102
RTVSPost2010PropOp37
 70
     1
102
RTVSPost2010Prop38
140
0.0
102
RTVSPost2010PropOp38
 70
     1
102
RTVSPost2010Prop39
140
1.0
102
RTVSPost2010PropOp39
 70
     1
102
RTVSPost2010Prop40
 90
        0
102
RTVSPost2010PropOp40
 70
     1
102
RTVSPost2010Prop41ColorIndex
 90
       18
102
RTVSPost2010Prop41ColorRGB
 90
        0
102
RTVSPost2010PropOp41
 70
     1
102
RTVSPost2010Prop42
 90
       50
102
RTVSPost2010PropOp42
 70
     1
102
RTVSPost2010Prop43
 90
        3
102
RTVSPost2010PropOp43
 70
     1
102
RTVSPost2010Prop44ColorIndex
 90
        5
102
RTVSPost2010Prop44ColorRGB
 90
      255
102
RTVSPost2010PropOp44
 70
     1
102
RTVSPost2010Prop45
280
     0
102
RTVSPost2010PropOp45
 70
     1
102
RTVSPost2010Prop46
 90
       50
102
RTVSPost2010PropOp46
 70
     1
102
RTVSPost2010Prop47
 90
       50
102
RTVSPost2010PropOp47
 70
     1
102
RTVSPost2010Prop48
 90
       50
102
RTVSPost2010PropOp48
 70
     1
102
RTVSPost2010Prop49
280
     0
102
RTVSPost2010PropOp49
 70
     1
102
RTVSPost2010Prop50
 90
       50
102
RTVSPost2010PropOp50
 70
     1
102
RTVSPost2010Prop51ColorIndex
 90
      256
102
RTVSPost2010Prop51ColorRGB
 90
-16777216
102
RTVSPost2010PropOp51
 70
     0
102
RTVSPost2010Prop52
140
1.0
102
RTVSPost2010PropOp52
 70
     0
102
RTVSPost2010Prop53
 90
        2
102
RTVSPost2010PropOp53
 70
     1
102
RTVSPost2010Prop54
  1
strokes_ogs.tif
102
RTVSPost2010PropOp54
 70
     1
102
RTVSPost2010Prop55
280
     0
102
RTVSPost2010PropOp55
 70
     1
102
RTVSPost2010Prop56
140
1.0
102
RTVSPost2010PropOp56
 70
     1
102
RTVSPost2010Prop57
140
1.0
102
RTVSPost2010PropOp57
 70
     1
  0
XRECORD
  5
D6
102
{ACAD_REACTORS
330
D5
102
}
330
D5
100
AcDbXrecord
280
     1
102
RTVSPropertyOp0
 70
     1
102
RTVSPropertyOp1
 70
     1
102
RTVSPropertyOp2
 70
     1
102
RTVSPropertyOp3
 70
     1
102
RTVSPropertyOp4
 70
     1
102
RTVSPropertyOp5
 70
     1
102
RTVSPropertyOp6
 70
     1
102
RTVSPropertyOp7
 70
     1
102
RTVSPropertyOp8
 70
     1
102
RTVSPropertyOp9
 70
     1
102
RTVSPropertyOp10
 70
     1
102
RTVSPropertyOp11
 70
     1
102
RTVSPropertyOp12
 70
     1
102
RTVSPropertyOp13
 70
     1
102
RTVSPropertyOp14
 70
     1
102
RTVSPropertyOp15
 70
     1
102
RTVSPropertyOp16
 70
     1
102
RTVSPropertyOp17
 70
     1
102
RTVSPropertyOp18
 70
     1
102
RTVSPropertyOp19
 70
     1
102
RTVSPropertyOp20
 70
     1
102
RTVSPropertyOp21
 70
     1
102
RTVSPropertyOp22
 70
     1
102
RTVSPropertyOp23
 70
     1
102
RTVSPropertyOp24
 70
     1
102
RTVSPropertyOp25
 70
     1
102
RTVSPropertyOp26
 70
     1
102
RTVSPropertyOp27
 70
     1
102
RTVSPropertyOp28
 70
     1
102
RTVSPropertyOp29
 70
     1
102
RTVSPropertyOp30
 70
     1
102
RTVSPropertyOp31
 70
     1
102
RTVSPropertyOp32
 70
     1
102
RTVSPropertyOp33
 70
     1
102
RTVSPropertyOp34
 70
     1
102
RTVSPropertyOp35
 70
     1
102
RTVSPropertyOp36
 70
     1
102
RTVSPropertyOp37
 70
     1
102
RTVSPropertyOp38
 70
     1
102
RTVSPropertyOp39
 70
     1
102
RTVSPropertyOp40
 70
     1
102
RTVSPropertyOp41
 70
     1
102
RTVSPropertyOp42
 70
     1
102
RTVSPropertyOp43
 70
     1
102
RTVSPropertyOp44
 70
     1
102
RTVSPropertyOp45
 70
     1
102
RTVSPropertyOp46
 70
     1
102
RTVSPropertyOp47
 70
     1
102
RTVSPropertyOp48
 70
     1
102
RTVSPropertyOp49
 70
     1
102
RTVSPropertyOp50
 70
     1
102
RTVSPropertyOp51
 70
     0
102
RTVSPropertyOp52
 70
     0
102
RTVSPropertyOp53
 70
     1
102
RTVSPropertyOp54
 70
     1
102
RTVSPropertyOp55
 70
     1
102
RTVSPropertyOp56
 70
     1
102
RTVSPropertyOp57
 70
     1
102
RTVSPost2010Prop28
280
     0
102
RTVSPost2010PropOp28
 70
     1
102
RTVSPost2010Prop29
280
     1
102
RTVSPost2010PropOp29
 70
     1
102
RTVSPost2010Prop30
280
     1
102
RTVSPost2010PropOp30
 70
     1
102
RTVSPost2010Prop31
280
     0
102
RTVSPost2010PropOp31
 70
     1
102
RTVSPost2010Prop32
280
     0
102
RTVSPost2010PropOp32
 70
     1
102
RTVSPost2010Prop33
280
     0
102
RTVSPost2010PropOp33
 70
     1
102
RTVSPost2010Prop34
280
     0
102
RTVSPost2010PropOp34
 70
     1
102
RTVSPost2010Prop35
280
     0
102
RTVSPost2010PropOp35
 70
     1
102
RTVSPost2010Prop36
280
     0
102
RTVSPost2010PropOp36
 70
     1
102
RTVSPost2010Prop37
 90
       50
102
RTVSPost2010PropOp37
 70
     1
102
RTVSPost2010Prop38
140
0.0
102
RTVSPost2010PropOp38
 70
     1
102
RTVSPost2010Prop39
140
1.0
102
RTVSPost2010PropOp39
 70
     1
102
RTVSPost2010Prop40
 90
        0
102
RTVSPost2010PropOp40
 70
     1
102
RTVSPost2010Prop41ColorIndex
 90
       18
102
RTVSPost2010Prop41ColorRGB
 90
        0
102
RTVSPost2010PropOp41
 70
     1
102
RTVSPost2010Prop42
 90
       50
102
RTVSPost2010PropOp42
 70
     1
102
RTVSPost2010Prop43
 90
        3
102
RTVSPost2010PropOp43
 70
     1
102
RTVSPost2010Prop44ColorIndex
 90
        5
102
RTVSPost2010Prop44ColorRGB
 90
      255
102
RTVSPost2010PropOp44
 70
     1
102
RTVSPost2010Prop45
280
     0
102
RTVSPost2010PropOp45
 70
     1
102
RTVSPost2010Prop46
 90
       50
102
RTVSPost2010PropOp46
 70
     1
102
RTVSPost2010Prop47
 90
       50
102
RTVSPost2010PropOp47
 70
     1
102
RTVSPost2010Prop48
 90
       50
102
RTVSPost2010PropOp48
 70
     1
102
RTVSPost2010Prop49
280
     0
102
RTVSPost2010PropOp49
 70
     1
102
RTVSPost2010Prop50
 90
       50
102
RTVSPost2010PropOp50
 70
     1
102
RTVSPost2010Prop51ColorIndex
 90
      256
102
RTVSPost2010Prop51ColorRGB
 90
-16777216
102
RTVSPost2010PropOp51
 70
     0
102
RTVSPost2010Prop52
140
1.0
102
RTVSPost2010PropOp52
 70
     0
102
RTVSPost2010Prop53
 90
        2
102
RTVSPost2010PropOp53
 70
     1
102
RTVSPost2010Prop54
  1
strokes_ogs.tif
102
RTVSPost2010PropOp54
 70
     1
102
RTVSPost2010Prop55
280
     0
102
RTVSPost2010PropOp55
 70
     1
102
RTVSPost2010Prop56
140
1.0
102
RTVSPost2010PropOp56
 70
     1
102
RTVSPost2010Prop57
140
1.0
102
RTVSPost2010PropOp57
 70
     1
  0
XRECORD
  5
DE
102
{ACAD_REACTORS
330
DD
102
}
330
DD
100
AcDbXrecord
280
     1
102
RTVSPropertyOp0
 70
     1
102
RTVSPropertyOp1
 70
     1
102
RTVSPropertyOp2
 70
     1
102
RTVSPropertyOp3
 70
     1
102
RTVSPropertyOp4
 70
     1
102
RTVSPropertyOp5
 70
     1
102
RTVSPropertyOp6
 70
     1
102
RTVSPropertyOp7
 70
     1
102
RTVSPropertyOp8
 70
     1
102
RTVSPropertyOp9
 70
     1
102
RTVSPropertyOp10
 70
     1
102
RTVSPropertyOp11
 70
     1
102
RTVSPropertyOp12
 70
     1
102
RTVSPropertyOp13
 70
     1
102
RTVSPropertyOp14
 70
     1
102
RTVSPropertyOp15
 70
     1
102
RTVSPropertyOp16
 70
     1
102
RTVSPropertyOp17
 70
     1
102
RTVSPropertyOp18
 70
     1
102
RTVSPropertyOp19
 70
     1
102
RTVSPropertyOp20
 70
     1
102
RTVSPropertyOp21
 70
     1
102
RTVSPropertyOp22
 70
     1
102
RTVSPropertyOp23
 70
     1
102
RTVSPropertyOp24
 70
     1
102
RTVSPropertyOp25
 70
     1
102
RTVSPropertyOp26
 70
     1
102
RTVSPropertyOp27
 70
     1
102
RTVSPropertyOp28
 70
     1
102
RTVSPropertyOp29
 70
     1
102
RTVSPropertyOp30
 70
     1
102
RTVSPropertyOp31
 70
     1
102
RTVSPropertyOp32
 70
     1
102
RTVSPropertyOp33
 70
     1
102
RTVSPropertyOp34
 70
     1
102
RTVSPropertyOp35
 70
     1
102
RTVSPropertyOp36
 70
     1
102
RTVSPropertyOp37
 70
     1
102
RTVSPropertyOp38
 70
     1
102
RTVSPropertyOp39
 70
     1
102
RTVSPropertyOp40
 70
     1
102
RTVSPropertyOp41
 70
     1
102
RTVSPropertyOp42
 70
     1
102
RTVSPropertyOp43
 70
     1
102
RTVSPropertyOp44
 70
     1
102
RTVSPropertyOp45
 70
     1
102
RTVSPropertyOp46
 70
     1
102
RTVSPropertyOp47
 70
     1
102
RTVSPropertyOp48
 70
     1
102
RTVSPropertyOp49
 70
     1
102
RTVSPropertyOp50
 70
     1
102
RTVSPropertyOp51
 70
     0
102
RTVSPropertyOp52
 70
     0
102
RTVSPropertyOp53
 70
     1
102
RTVSPropertyOp54
 70
     1
102
RTVSPropertyOp55
 70
     1
102
RTVSPropertyOp56
 70
     1
102
RTVSPropertyOp57
 70
     1
102
RTVSPost2010Prop28
280
     0
102
RTVSPost2010PropOp28
 70
     1
102
RTVSPost2010Prop29
280
     1
102
RTVSPost2010PropOp29
 70
     1
102
RTVSPost2010Prop30
280
     1
102
RTVSPost2010PropOp30
 70
     1
102
RTVSPost2010Prop31
280
     0
102
RTVSPost2010PropOp31
 70
     1
102
RTVSPost2010Prop32
280
     0
102
RTVSPost2010PropOp32
 70
     1
102
RTVSPost2010Prop33
280
     0
102
RTVSPost2010PropOp33
 70
     1
102
RTVSPost2010Prop34
280
     0
102
RTVSPost2010PropOp34
 70
     1
102
RTVSPost2010Prop35
280
     0
102
RTVSPost2010PropOp35
 70
     1
102
RTVSPost2010Prop36
280
     0
102
RTVSPost2010PropOp36
 70
     1
102
RTVSPost2010Prop37
 90
       50
102
RTVSPost2010PropOp37
 70
     1
102
RTVSPost2010Prop38
140
0.0
102
RTVSPost2010PropOp38
 70
     1
102
RTVSPost2010Prop39
140
1.0
102
RTVSPost2010PropOp39
 70
     1
102
RTVSPost2010Prop40
 90
        0
102
RTVSPost2010PropOp40
 70
     1
102
RTVSPost2010Prop41ColorIndex
 90
       18
102
RTVSPost2010Prop41ColorRGB
 90
        0
102
RTVSPost2010PropOp41
 70
     1
102
RTVSPost2010Prop42
 90
       50
102
RTVSPost2010PropOp42
 70
     1
102
RTVSPost2010Prop43
 90
        3
102
RTVSPost2010PropOp43
 70
     1
102
RTVSPost2010Prop44ColorIndex
 90
        5
102
RTVSPost2010Prop44ColorRGB
 90
      255
102
RTVSPost2010PropOp44
 70
     1
102
RTVSPost2010Prop45
280
     0
102
RTVSPost2010PropOp45
 70
     1
102
RTVSPost2010Prop46
 90
       50
102
RTVSPost2010PropOp46
 70
     1
102
RTVSPost2010Prop47
 90
       50
102
RTVSPost2010PropOp47
 70
     1
102
RTVSPost2010Prop48
 90
       50
102
RTVSPost2010PropOp48
 70
     1
102
RTVSPost2010Prop49
280
     0
102
RTVSPost2010PropOp49
 70
     1
102
RTVSPost2010Prop50
 90
       50
102
RTVSPost2010PropOp50
 70
     1
102
RTVSPost2010Prop51ColorIndex
 90
      256
102
RTVSPost2010Prop51ColorRGB
 90
-16777216
102
RTVSPost2010PropOp51
 70
     0
102
RTVSPost2010Prop52
140
1.0
102
RTVSPost2010PropOp52
 70
     0
102
RTVSPost2010Prop53
 90
        2
102
RTVSPost2010PropOp53
 70
     1
102
RTVSPost2010Prop54
  1
strokes_ogs.tif
102
RTVSPost2010PropOp54
 70
     1
102
RTVSPost2010Prop55
280
     0
102
RTVSPost2010PropOp55
 70
     1
102
RTVSPost2010Prop56
140
1.0
102
RTVSPost2010PropOp56
 70
     1
102
RTVSPost2010Prop57
140
1.0
102
RTVSPost2010PropOp57
 70
     1
  0
XRECORD
  5
D2
102
{ACAD_REACTORS
330
D1
102
}
330
D1
100
AcDbXrecord
280
     1
102
RTVSPropertyOp0
 70
     1
102
RTVSPropertyOp1
 70
     1
102
RTVSPropertyOp2
 70
     1
102
RTVSPropertyOp3
 70
     1
102
RTVSPropertyOp4
 70
     1
102
RTVSPropertyOp5
 70
     1
102
RTVSPropertyOp6
 70
     1
102
RTVSPropertyOp7
 70
     1
102
RTVSPropertyOp8
 70
     1
102
RTVSPropertyOp9
 70
     1
102
RTVSPropertyOp10
 70
     1
102
RTVSPropertyOp11
 70
     1
102
RTVSPropertyOp12
 70
     1
102
RTVSPropertyOp13
 70
     1
102
RTVSPropertyOp14
 70
     1
102
RTVSPropertyOp15
 70
     1
102
RTVSPropertyOp16
 70
     1
102
RTVSPropertyOp17
 70
     1
102
RTVSPropertyOp18
 70
     1
102
RTVSPropertyOp19
 70
     1
102
RTVSPropertyOp20
 70
     1
102
RTVSPropertyOp21
 70
     1
102
RTVSPropertyOp22
 70
     1
102
RTVSPropertyOp23
 70
     1
102
RTVSPropertyOp24
 70
     1
102
RTVSPropertyOp25
 70
     1
102
RTVSPropertyOp26
 70
     1
102
RTVSPropertyOp27
 70
     1
102
RTVSPropertyOp28
 70
     1
102
RTVSPropertyOp29
 70
     1
102
RTVSPropertyOp30
 70
     1
102
RTVSPropertyOp31
 70
     1
102
RTVSPropertyOp32
 70
     1
102
RTVSPropertyOp33
 70
     1
102
RTVSPropertyOp34
 70
     1
102
RTVSPropertyOp35
 70
     1
102
RTVSPropertyOp36
 70
     1
102
RTVSPropertyOp37
 70
     1
102
RTVSPropertyOp38
 70
     1
102
RTVSPropertyOp39
 70
     1
102
RTVSPropertyOp40
 70
     1
102
RTVSPropertyOp41
 70
     1
102
RTVSPropertyOp42
 70
     1
102
RTVSPropertyOp43
 70
     1
102
RTVSPropertyOp44
 70
     1
102
RTVSPropertyOp45
 70
     1
102
RTVSPropertyOp46
 70
     1
102
RTVSPropertyOp47
 70
     1
102
RTVSPropertyOp48
 70
     1
102
RTVSPropertyOp49
 70
     1
102
RTVSPropertyOp50
 70
     1
102
RTVSPropertyOp51
 70
     0
102
RTVSPropertyOp52
 70
     0
102
RTVSPropertyOp53
 70
     1
102
RTVSPropertyOp54
 70
     1
102
RTVSPropertyOp55
 70
     1
102
RTVSPropertyOp56
 70
     1
102
RTVSPropertyOp57
 70
     1
102
RTVSPost2010Prop28
280
     0
102
RTVSPost2010PropOp28
 70
     1
102
RTVSPost2010Prop29
280
     1
102
RTVSPost2010PropOp29
 70
     1
102
RTVSPost2010Prop30
280
     1
102
RTVSPost2010PropOp30
 70
     1
102
RTVSPost2010Prop31
280
     0
102
RTVSPost2010PropOp31
 70
     1
102
RTVSPost2010Prop32
280
     0
102
RTVSPost2010PropOp32
 70
     1
102
RTVSPost2010Prop33
280
     0
102
RTVSPost2010PropOp33
 70
     1
102
RTVSPost2010Prop34
280
     0
102
RTVSPost2010PropOp34
 70
     1
102
RTVSPost2010Prop35
280
     0
102
RTVSPost2010PropOp35
 70
     1
102
RTVSPost2010Prop36
280
     0
102
RTVSPost2010PropOp36
 70
     1
102
RTVSPost2010Prop37
 90
       50
102
RTVSPost2010PropOp37
 70
     1
102
RTVSPost2010Prop38
140
0.0
102
RTVSPost2010PropOp38
 70
     1
102
RTVSPost2010Prop39
140
1.0
102
RTVSPost2010PropOp39
 70
     1
102
RTVSPost2010Prop40
 90
        0
102
RTVSPost2010PropOp40
 70
     1
102
RTVSPost2010Prop41ColorIndex
 90
       18
102
RTVSPost2010Prop41ColorRGB
 90
        0
102
RTVSPost2010PropOp41
 70
     1
102
RTVSPost2010Prop42
 90
       50
102
RTVSPost2010PropOp42
 70
     1
102
RTVSPost2010Prop43
 90
        3
102
RTVSPost2010PropOp43
 70
     1
102
RTVSPost2010Prop44ColorIndex
 90
        5
102
RTVSPost2010Prop44ColorRGB
 90
      255
102
RTVSPost2010PropOp44
 70
     1
102
RTVSPost2010Prop45
280
     0
102
RTVSPost2010PropOp45
 70
     1
102
RTVSPost2010Prop46
 90
       50
102
RTVSPost2010PropOp46
 70
     1
102
RTVSPost2010Prop47
 90
       50
102
RTVSPost2010PropOp47
 70
     1
102
RTVSPost2010Prop48
 90
       50
102
RTVSPost2010PropOp48
 70
     1
102
RTVSPost2010Prop49
280
     0
102
RTVSPost2010PropOp49
 70
     1
102
RTVSPost2010Prop50
 90
       50
102
RTVSPost2010PropOp50
 70
     1
102
RTVSPost2010Prop51ColorIndex
 90
      256
102
RTVSPost2010Prop51ColorRGB
 90
-16777216
102
RTVSPost2010PropOp51
 70
     0
102
RTVSPost2010Prop52
140
1.0
102
RTVSPost2010PropOp52
 70
     0
102
RTVSPost2010Prop53
 90
        2
102
RTVSPost2010PropOp53
 70
     1
102
RTVSPost2010Prop54
  1
strokes_ogs.tif
102
RTVSPost2010PropOp54
 70
     1
102
RTVSPost2010Prop55
280
     0
102
RTVSPost2010PropOp55
 70
     1
102
RTVSPost2010Prop56
140
1.0
102
RTVSPost2010PropOp56
 70
     1
102
RTVSPost2010Prop57
140
1.0
102
RTVSPost2010PropOp57
 70
     1
  0
XRECORD
  5
D4
102
{ACAD_REACTORS
330
D3
102
}
330
D3
100
AcDbXrecord
280
     1
102
RTVSPropertyOp0
 70
     1
102
RTVSPropertyOp1
 70
     1
102
RTVSPropertyOp2
 70
     1
102
RTVSPropertyOp3
 70
     1
102
RTVSPropertyOp4
 70
     1
102
RTVSPropertyOp5
 70
     1
102
RTVSPropertyOp6
 70
     1
102
RTVSPropertyOp7
 70
     1
102
RTVSPropertyOp8
 70
     1
102
RTVSPropertyOp9
 70
     1
102
RTVSPropertyOp10
 70
     1
102
RTVSPropertyOp11
 70
     1
102
RTVSPropertyOp12
 70
     1
102
RTVSPropertyOp13
 70
     1
102
RTVSPropertyOp14
 70
     1
102
RTVSPropertyOp15
 70
     1
102
RTVSPropertyOp16
 70
     1
102
RTVSPropertyOp17
 70
     1
102
RTVSPropertyOp18
 70
     1
102
RTVSPropertyOp19
 70
     1
102
RTVSPropertyOp20
 70
     1
102
RTVSPropertyOp21
 70
     1
102
RTVSPropertyOp22
 70
     1
102
RTVSPropertyOp23
 70
     1
102
RTVSPropertyOp24
 70
     1
102
RTVSPropertyOp25
 70
     1
102
RTVSPropertyOp26
 70
     1
102
RTVSPropertyOp27
 70
     1
102
RTVSPropertyOp28
 70
     1
102
RTVSPropertyOp29
 70
     1
102
RTVSPropertyOp30
 70
     1
102
RTVSPropertyOp31
 70
     1
102
RTVSPropertyOp32
 70
     1
102
RTVSPropertyOp33
 70
     1
102
RTVSPropertyOp34
 70
     1
102
RTVSPropertyOp35
 70
     1
102
RTVSPropertyOp36
 70
     1
102
RTVSPropertyOp37
 70
     1
102
RTVSPropertyOp38
 70
     1
102
RTVSPropertyOp39
 70
     1
102
RTVSPropertyOp40
 70
     1
102
RTVSPropertyOp41
 70
     1
102
RTVSPropertyOp42
 70
     1
102
RTVSPropertyOp43
 70
     1
102
RTVSPropertyOp44
 70
     1
102
RTVSPropertyOp45
 70
     1
102
RTVSPropertyOp46
 70
     1
102
RTVSPropertyOp47
 70
     1
102
RTVSPropertyOp48
 70
     1
102
RTVSPropertyOp49
 70
     1
102
RTVSPropertyOp50
 70
     1
102
RTVSPropertyOp51
 70
     0
102
RTVSPropertyOp52
 70
     0
102
RTVSPropertyOp53
 70
     1
102
RTVSPropertyOp54
 70
     1
102
RTVSPropertyOp55
 70
     1
102
RTVSPropertyOp56
 70
     1
102
RTVSPropertyOp57
 70
     1
102
RTVSPost2010Prop28
280
     0
102
RTVSPost2010PropOp28
 70
     1
102
RTVSPost2010Prop29
280
     1
102
RTVSPost2010PropOp29
 70
     1
102
RTVSPost2010Prop30
280
     1
102
RTVSPost2010PropOp30
 70
     1
102
RTVSPost2010Prop31
280
     0
102
RTVSPost2010PropOp31
 70
     1
102
RTVSPost2010Prop32
280
     0
102
RTVSPost2010PropOp32
 70
     1
102
RTVSPost2010Prop33
280
     0
102
RTVSPost2010PropOp33
 70
     1
102
RTVSPost2010Prop34
280
     0
102
RTVSPost2010PropOp34
 70
     1
102
RTVSPost2010Prop35
280
     0
102
RTVSPost2010PropOp35
 70
     1
102
RTVSPost2010Prop36
280
     0
102
RTVSPost2010PropOp36
 70
     1
102
RTVSPost2010Prop37
 90
       50
102
RTVSPost2010PropOp37
 70
     1
102
RTVSPost2010Prop38
140
0.0
102
RTVSPost2010PropOp38
 70
     1
102
RTVSPost2010Prop39
140
1.0
102
RTVSPost2010PropOp39
 70
     1
102
RTVSPost2010Prop40
 90
        0
102
RTVSPost2010PropOp40
 70
     1
102
RTVSPost2010Prop41ColorIndex
 90
       18
102
RTVSPost2010Prop41ColorRGB
 90
        0
102
RTVSPost2010PropOp41
 70
     1
102
RTVSPost2010Prop42
 90
       50
102
RTVSPost2010PropOp42
 70
     1
102
RTVSPost2010Prop43
 90
        3
102
RTVSPost2010PropOp43
 70
     1
102
RTVSPost2010Prop44ColorIndex
 90
        5
102
RTVSPost2010Prop44ColorRGB
 90
      255
102
RTVSPost2010PropOp44
 70
     1
102
RTVSPost2010Prop45
280
     0
102
RTVSPost2010PropOp45
 70
     1
102
RTVSPost2010Prop46
 90
       50
102
RTVSPost2010PropOp46
 70
     1
102
RTVSPost2010Prop47
 90
       50
102
RTVSPost2010PropOp47
 70
     1
102
RTVSPost2010Prop48
 90
       50
102
RTVSPost2010PropOp48
 70
     1
102
RTVSPost2010Prop49
280
     0
102
RTVSPost2010PropOp49
 70
     1
102
RTVSPost2010Prop50
 90
       50
102
RTVSPost2010PropOp50
 70
     1
102
RTVSPost2010Prop51ColorIndex
 90
      256
102
RTVSPost2010Prop51ColorRGB
 90
-16777216
102
RTVSPost2010PropOp51
 70
     0
102
RTVSPost2010Prop52
140
1.0
102
RTVSPost2010PropOp52
 70
     0
102
RTVSPost2010Prop53
 90
        2
102
RTVSPost2010PropOp53
 70
     1
102
RTVSPost2010Prop54
  1
strokes_ogs.tif
102
RTVSPost2010PropOp54
 70
     1
102
RTVSPost2010Prop55
280
     0
102
RTVSPost2010PropOp55
 70
     1
102
RTVSPost2010Prop56
140
1.0
102
RTVSPost2010PropOp56
 70
     1
102
RTVSPost2010Prop57
140
1.0
102
RTVSPost2010PropOp57
 70
     1
  0
XRECORD
  5
E4
102
{ACAD_REACTORS
330
E3
102
}
330
E3
100
AcDbXrecord
280
     1
102
RTVSPropertyOp0
 70
     0
102
RTVSPropertyOp1
 70
     0
102
RTVSPropertyOp2
 70
     0
102
RTVSPropertyOp3
 70
     0
102
RTVSPropertyOp4
 70
     0
102
RTVSPropertyOp5
 70
     0
102
RTVSPropertyOp6
 70
     0
102
RTVSPropertyOp7
 70
     0
102
RTVSPropertyOp8
 70
     0
102
RTVSPropertyOp9
 70
     0
102
RTVSPropertyOp10
 70
     0
102
RTVSPropertyOp11
 70
     0
102
RTVSPropertyOp12
 70
     0
102
RTVSPropertyOp13
 70
     0
102
RTVSPropertyOp14
 70
     2
102
RTVSPropertyOp15
 70
     0
102
RTVSPropertyOp16
 70
     0
102
RTVSPropertyOp17
 70
     0
102
RTVSPropertyOp18
 70
     0
102
RTVSPropertyOp19
 70
     0
102
RTVSPropertyOp20
 70
     0
102
RTVSPropertyOp21
 70
     0
102
RTVSPropertyOp22
 70
     0
102
RTVSPropertyOp23
 70
     0
102
RTVSPropertyOp24
 70
     0
102
RTVSPropertyOp25
 70
     0
102
RTVSPropertyOp26
 70
     0
102
RTVSPropertyOp27
 70
     0
102
RTVSPropertyOp28
 70
     0
102
RTVSPropertyOp29
 70
     0
102
RTVSPropertyOp30
 70
     0
102
RTVSPropertyOp31
 70
     0
102
RTVSPropertyOp32
 70
     0
102
RTVSPropertyOp33
 70
     0
102
RTVSPropertyOp34
 70
     0
102
RTVSPropertyOp35
 70
     0
102
RTVSPropertyOp36
 70
     0
102
RTVSPropertyOp37
 70
     0
102
RTVSPropertyOp38
 70
     0
102
RTVSPropertyOp39
 70
     0
102
RTVSPropertyOp40
 70
     0
102
RTVSPropertyOp41
 70
     0
102
RTVSPropertyOp42
 70
     0
102
RTVSPropertyOp43
 70
     0
102
RTVSPropertyOp44
 70
     0
102
RTVSPropertyOp45
 70
     0
102
RTVSPropertyOp46
 70
     0
102
RTVSPropertyOp47
 70
     0
102
RTVSPropertyOp48
 70
     0
102
RTVSPropertyOp49
 70
     0
102
RTVSPropertyOp50
 70
     0
102
RTVSPropertyOp51
 70
     0
102
RTVSPropertyOp52
 70
     0
102
RTVSPropertyOp53
 70
     0
102
RTVSPropertyOp54
 70
     0
102
RTVSPropertyOp55
 70
     0
102
RTVSPropertyOp56
 70
     0
102
RTVSPropertyOp57
 70
     0
102
RTVSPost2010Prop28
280
     0
102
RTVSPost2010PropOp28
 70
     0
102
RTVSPost2010Prop29
280
     1
102
RTVSPost2010PropOp29
 70
     0
102
RTVSPost2010Prop30
280
     1
102
RTVSPost2010PropOp30
 70
     0
102
RTVSPost2010Prop31
280
     0
102
RTVSPost2010PropOp31
 70
     0
102
RTVSPost2010Prop32
280
     0
102
RTVSPost2010PropOp32
 70
     0
102
RTVSPost2010Prop33
280
     0
102
RTVSPost2010PropOp33
 70
     0
102
RTVSPost2010Prop34
280
     0
102
RTVSPost2010PropOp34
 70
     0
102
RTVSPost2010Prop35
280
     0
102
RTVSPost2010PropOp35
 70
     0
102
RTVSPost2010Prop36
280
     0
102
RTVSPost2010PropOp36
 70
     0
102
RTVSPost2010Prop37
 90
       50
102
RTVSPost2010PropOp37
 70
     0
102
RTVSPost2010Prop38
140
0.0
102
RTVSPost2010PropOp38
 70
     0
102
RTVSPost2010Prop39
140
1.0
102
RTVSPost2010PropOp39
 70
     0
102
RTVSPost2010Prop40
 90
        0
102
RTVSPost2010PropOp40
 70
     0
102
RTVSPost2010Prop41ColorIndex
 90
       18
102
RTVSPost2010Prop41ColorRGB
 90
        0
102
RTVSPost2010PropOp41
 70
     0
102
RTVSPost2010Prop42
 90
       50
102
RTVSPost2010PropOp42
 70
     0
102
RTVSPost2010Prop43
 90
        3
102
RTVSPost2010PropOp43
 70
     0
102
RTVSPost2010Prop44ColorIndex
 90
        5
102
RTVSPost2010Prop44ColorRGB
 90
      255
102
RTVSPost2010PropOp44
 70
     0
102
RTVSPost2010Prop45
280
     0
102
RTVSPost2010PropOp45
 70
     0
102
RTVSPost2010Prop46
 90
       50
102
RTVSPost2010PropOp46
 70
     0
102
RTVSPost2010Prop47
 90
       50
102
RTVSPost2010PropOp47
 70
     0
102
RTVSPost2010Prop48
 90
       50
102
RTVSPost2010PropOp48
 70
     0
102
RTVSPost2010Prop49
280
     0
102
RTVSPost2010PropOp49
 70
     0
102
RTVSPost2010Prop50
 90
       50
102
RTVSPost2010PropOp50
 70
     0
102
RTVSPost2010Prop51ColorIndex
 90
      256
102
RTVSPost2010Prop51ColorRGB
 90
-16777216
102
RTVSPost2010PropOp51
 70
     0
102
RTVSPost2010Prop52
140
1.0
102
RTVSPost2010PropOp52
 70
     0
102
RTVSPost2010Prop53
 90
        2
102
RTVSPost2010PropOp53
 70
     0
102
RTVSPost2010Prop54
  1
strokes_ogs.tif
102
RTVSPost2010PropOp54
 70
     0
102
RTVSPost2010Prop55
280
     0
102
RTVSPost2010PropOp55
 70
     0
102
RTVSPost2010Prop56
140
1.0
102
RTVSPost2010PropOp56
 70
     0
102
RTVSPost2010Prop57
140
1.0
102
RTVSPost2010PropOp57
 70
     0
  0
XRECORD
  5
DC
102
{ACAD_REACTORS
330
DB
102
}
330
DB
100
AcDbXrecord
280
     1
102
RTVSPropertyOp0
 70
     1
102
RTVSPropertyOp1
 70
     1
102
RTVSPropertyOp2
 70
     1
102
RTVSPropertyOp3
 70
     1
102
RTVSPropertyOp4
 70
     1
102
RTVSPropertyOp5
 70
     1
102
RTVSPropertyOp6
 70
     1
102
RTVSPropertyOp7
 70
     1
102
RTVSPropertyOp8
 70
     1
102
RTVSPropertyOp9
 70
     1
102
RTVSPropertyOp10
 70
     1
102
RTVSPropertyOp11
 70
     1
102
RTVSPropertyOp12
 70
     1
102
RTVSPropertyOp13
 70
     1
102
RTVSPropertyOp14
 70
     1
102
RTVSPropertyOp15
 70
     1
102
RTVSPropertyOp16
 70
     1
102
RTVSPropertyOp17
 70
     1
102
RTVSPropertyOp18
 70
     1
102
RTVSPropertyOp19
 70
     1
102
RTVSPropertyOp20
 70
     1
102
RTVSPropertyOp21
 70
     1
102
RTVSPropertyOp22
 70
     1
102
RTVSPropertyOp23
 70
     1
102
RTVSPropertyOp24
 70
     1
102
RTVSPropertyOp25
 70
     1
102
RTVSPropertyOp26
 70
     1
102
RTVSPropertyOp27
 70
     1
102
RTVSPropertyOp28
 70
     1
102
RTVSPropertyOp29
 70
     1
102
RTVSPropertyOp30
 70
     1
102
RTVSPropertyOp31
 70
     1
102
RTVSPropertyOp32
 70
     1
102
RTVSPropertyOp33
 70
     1
102
RTVSPropertyOp34
 70
     1
102
RTVSPropertyOp35
 70
     1
102
RTVSPropertyOp36
 70
     1
102
RTVSPropertyOp37
 70
     1
102
RTVSPropertyOp38
 70
     1
102
RTVSPropertyOp39
 70
     1
102
RTVSPropertyOp40
 70
     1
102
RTVSPropertyOp41
 70
     1
102
RTVSPropertyOp42
 70
     1
102
RTVSPropertyOp43
 70
     1
102
RTVSPropertyOp44
 70
     1
102
RTVSPropertyOp45
 70
     1
102
RTVSPropertyOp46
 70
     1
102
RTVSPropertyOp47
 70
     1
102
RTVSPropertyOp48
 70
     1
102
RTVSPropertyOp49
 70
     1
102
RTVSPropertyOp50
 70
     1
102
RTVSPropertyOp51
 70
     0
102
RTVSPropertyOp52
 70
     0
102
RTVSPropertyOp53
 70
     1
102
RTVSPropertyOp54
 70
     1
102
RTVSPropertyOp55
 70
     1
102
RTVSPropertyOp56
 70
     1
102
RTVSPropertyOp57
 70
     1
102
RTVSPost2010Prop28
280
     0
102
RTVSPost2010PropOp28
 70
     1
102
RTVSPost2010Prop29
280
     1
102
RTVSPost2010PropOp29
 70
     1
102
RTVSPost2010Prop30
280
     1
102
RTVSPost2010PropOp30
 70
     1
102
RTVSPost2010Prop31
280
     0
102
RTVSPost2010PropOp31
 70
     1
102
RTVSPost2010Prop32
280
     0
102
RTVSPost2010PropOp32
 70
     1
102
RTVSPost2010Prop33
280
     0
102
RTVSPost2010PropOp33
 70
     1
102
RTVSPost2010Prop34
280
     0
102
RTVSPost2010PropOp34
 70
     1
102
RTVSPost2010Prop35
280
     0
102
RTVSPost2010PropOp35
 70
     1
102
RTVSPost2010Prop36
280
     0
102
RTVSPost2010PropOp36
 70
     1
102
RTVSPost2010Prop37
 90
       50
102
RTVSPost2010PropOp37
 70
     1
102
RTVSPost2010Prop38
140
0.0
102
RTVSPost2010PropOp38
 70
     1
102
RTVSPost2010Prop39
140
1.0
102
RTVSPost2010PropOp39
 70
     1
102
RTVSPost2010Prop40
 90
        0
102
RTVSPost2010PropOp40
 70
     1
102
RTVSPost2010Prop41ColorIndex
 90
       18
102
RTVSPost2010Prop41ColorRGB
 90
        0
102
RTVSPost2010PropOp41
 70
     1
102
RTVSPost2010Prop42
 90
       50
102
RTVSPost2010PropOp42
 70
     1
102
RTVSPost2010Prop43
 90
        3
102
RTVSPost2010PropOp43
 70
     1
102
RTVSPost2010Prop44ColorIndex
 90
        5
102
RTVSPost2010Prop44ColorRGB
 90
      255
102
RTVSPost2010PropOp44
 70
     1
102
RTVSPost2010Prop45
280
     0
102
RTVSPost2010PropOp45
 70
     1
102
RTVSPost2010Prop46
 90
       50
102
RTVSPost2010PropOp46
 70
     1
102
RTVSPost2010Prop47
 90
       50
102
RTVSPost2010PropOp47
 70
     1
102
RTVSPost2010Prop48
 90
       50
102
RTVSPost2010PropOp48
 70
     1
102
RTVSPost2010Prop49
280
     0
102
RTVSPost2010PropOp49
 70
     1
102
RTVSPost2010Prop50
 90
       50
102
RTVSPost2010PropOp50
 70
     1
102
RTVSPost2010Prop51ColorIndex
 90
      256
102
RTVSPost2010Prop51ColorRGB
 90
-16777216
102
RTVSPost2010PropOp51
 70
     0
102
RTVSPost2010Prop52
140
1.0
102
RTVSPost2010PropOp52
 70
     0
102
RTVSPost2010Prop53
 90
        2
102
RTVSPost2010PropOp53
 70
     1
102
RTVSPost2010Prop54
  1
strokes_ogs.tif
102
RTVSPost2010PropOp54
 70
     1
102
RTVSPost2010Prop55
280
     0
102
RTVSPost2010PropOp55
 70
     1
102
RTVSPost2010Prop56
140
1.0
102
RTVSPost2010PropOp56
 70
     1
102
RTVSPost2010Prop57
140
1.0
102
RTVSPost2010PropOp57
 70
     1
  0
XRECORD
  5
C0
102
{ACAD_REACTORS
330
BF
102
}
330
BF
100
AcDbXrecord
280
     1
102
RTVSPropertyOp0
 70
     1
102
RTVSPropertyOp1
 70
     1
102
RTVSPropertyOp2
 70
     1
102
RTVSPropertyOp3
 70
     1
102
RTVSPropertyOp4
 70
     1
102
RTVSPropertyOp5
 70
     1
102
RTVSPropertyOp6
 70
     1
102
RTVSPropertyOp7
 70
     1
102
RTVSPropertyOp8
 70
     1
102
RTVSPropertyOp9
 70
     1
102
RTVSPropertyOp10
 70
     1
102
RTVSPropertyOp11
 70
     1
102
RTVSPropertyOp12
 70
     1
102
RTVSPropertyOp13
 70
     1
102
RTVSPropertyOp14
 70
     1
102
RTVSPropertyOp15
 70
     1
102
RTVSPropertyOp16
 70
     1
102
RTVSPropertyOp17
 70
     1
102
RTVSPropertyOp18
 70
     1
102
RTVSPropertyOp19
 70
     1
102
RTVSPropertyOp20
 70
     1
102
RTVSPropertyOp21
 70
     1
102
RTVSPropertyOp22
 70
     1
102
RTVSPropertyOp23
 70
     1
102
RTVSPropertyOp24
 70
     1
102
RTVSPropertyOp25
 70
     1
102
RTVSPropertyOp26
 70
     1
102
RTVSPropertyOp27
 70
     1
102
RTVSPropertyOp28
 70
     1
102
RTVSPropertyOp29
 70
     1
102
RTVSPropertyOp30
 70
     1
102
RTVSPropertyOp31
 70
     1
102
RTVSPropertyOp32
 70
     1
102
RTVSPropertyOp33
 70
     1
102
RTVSPropertyOp34
 70
     1
102
RTVSPropertyOp35
 70
     1
102
RTVSPropertyOp36
 70
     1
102
RTVSPropertyOp37
 70
     1
102
RTVSPropertyOp38
 70
     1
102
RTVSPropertyOp39
 70
     1
102
RTVSPropertyOp40
 70
     1
102
RTVSPropertyOp41
 70
     1
102
RTVSPropertyOp42
 70
     1
102
RTVSPropertyOp43
 70
     1
102
RTVSPropertyOp44
 70
     1
102
RTVSPropertyOp45
 70
     1
102
RTVSPropertyOp46
 70
     1
102
RTVSPropertyOp47
 70
     1
102
RTVSPropertyOp48
 70
     1
102
RTVSPropertyOp49
 70
     1
102
RTVSPropertyOp50
 70
     1
102
RTVSPropertyOp51
 70
     0
102
RTVSPropertyOp52
 70
     0
102
RTVSPropertyOp53
 70
     1
102
RTVSPropertyOp54
 70
     1
102
RTVSPropertyOp55
 70
     1
102
RTVSPropertyOp56
 70
     1
102
RTVSPropertyOp57
 70
     1
102
RTVSPost2010Prop28
280
     0
102
RTVSPost2010PropOp28
 70
     1
102
RTVSPost2010Prop29
280
     1
102
RTVSPost2010PropOp29
 70
     1
102
RTVSPost2010Prop30
280
     1
102
RTVSPost2010PropOp30
 70
     1
102
RTVSPost2010Prop31
280
     0
102
RTVSPost2010PropOp31
 70
     1
102
RTVSPost2010Prop32
280
     0
102
RTVSPost2010PropOp32
 70
     1
102
RTVSPost2010Prop33
280
     0
102
RTVSPost2010PropOp33
 70
     1
102
RTVSPost2010Prop34
280
     0
102
RTVSPost2010PropOp34
 70
     1
102
RTVSPost2010Prop35
280
     0
102
RTVSPost2010PropOp35
 70
     1
102
RTVSPost2010Prop36
280
     0
102
RTVSPost2010PropOp36
 70
     1
102
RTVSPost2010Prop37
 90
       50
102
RTVSPost2010PropOp37
 70
     1
102
RTVSPost2010Prop38
140
0.0
102
RTVSPost2010PropOp38
 70
     1
102
RTVSPost2010Prop39
140
1.0
102
RTVSPost2010PropOp39
 70
     1
102
RTVSPost2010Prop40
 90
        0
102
RTVSPost2010PropOp40
 70
     1
102
RTVSPost2010Prop41ColorIndex
 90
       18
102
RTVSPost2010Prop41ColorRGB
 90
        0
102
RTVSPost2010PropOp41
 70
     1
102
RTVSPost2010Prop42
 90
       50
102
RTVSPost2010PropOp42
 70
     1
102
RTVSPost2010Prop43
 90
        3
102
RTVSPost2010PropOp43
 70
     1
102
RTVSPost2010Prop44ColorIndex
 90
        5
102
RTVSPost2010Prop44ColorRGB
 90
      255
102
RTVSPost2010PropOp44
 70
     1
102
RTVSPost2010Prop45
280
     0
102
RTVSPost2010PropOp45
 70
     1
102
RTVSPost2010Prop46
 90
       50
102
RTVSPost2010PropOp46
 70
     1
102
RTVSPost2010Prop47
 90
       50
102
RTVSPost2010PropOp47
 70
     1
102
RTVSPost2010Prop48
 90
       50
102
RTVSPost2010PropOp48
 70
     1
102
RTVSPost2010Prop49
280
     0
102
RTVSPost2010PropOp49
 70
     1
102
RTVSPost2010Prop50
 90
       50
102
RTVSPost2010PropOp50
 70
     1
102
RTVSPost2010Prop51ColorIndex
 90
      256
102
RTVSPost2010Prop51ColorRGB
 90
-16777216
102
RTVSPost2010PropOp51
 70
     0
102
RTVSPost2010Prop52
140
1.0
102
RTVSPost2010PropOp52
 70
     0
102
RTVSPost2010Prop53
 90
        2
102
RTVSPost2010PropOp53
 70
     1
102
RTVSPost2010Prop54
  1
strokes_ogs.tif
102
RTVSPost2010PropOp54
 70
     1
102
RTVSPost2010Prop55
280
     0
102
RTVSPost2010PropOp55
 70
     1
102
RTVSPost2010Prop56
140
1.0
102
RTVSPost2010PropOp56
 70
     1
102
RTVSPost2010Prop57
140
1.0
102
RTVSPost2010PropOp57
 70
     1
  0
XRECORD
  5
C2
102
{ACAD_REACTORS
330
C1
102
}
330
C1
100
AcDbXrecord
280
     1
102
RTVSPropertyOp0
 70
     1
102
RTVSPropertyOp1
 70
     1
102
RTVSPropertyOp2
 70
     1
102
RTVSPropertyOp3
 70
     1
102
RTVSPropertyOp4
 70
     1
102
RTVSPropertyOp5
 70
     1
102
RTVSPropertyOp6
 70
     1
102
RTVSPropertyOp7
 70
     1
102
RTVSPropertyOp8
 70
     1
102
RTVSPropertyOp9
 70
     1
102
RTVSPropertyOp10
 70
     1
102
RTVSPropertyOp11
 70
     1
102
RTVSPropertyOp12
 70
     1
102
RTVSPropertyOp13
 70
     1
102
RTVSPropertyOp14
 70
     1
102
RTVSPropertyOp15
 70
     1
102
RTVSPropertyOp16
 70
     1
102
RTVSPropertyOp17
 70
     1
102
RTVSPropertyOp18
 70
     1
102
RTVSPropertyOp19
 70
     1
102
RTVSPropertyOp20
 70
     1
102
RTVSPropertyOp21
 70
     1
102
RTVSPropertyOp22
 70
     1
102
RTVSPropertyOp23
 70
     1
102
RTVSPropertyOp24
 70
     1
102
RTVSPropertyOp25
 70
     1
102
RTVSPropertyOp26
 70
     1
102
RTVSPropertyOp27
 70
     1
102
RTVSPropertyOp28
 70
     1
102
RTVSPropertyOp29
 70
     1
102
RTVSPropertyOp30
 70
     1
102
RTVSPropertyOp31
 70
     1
102
RTVSPropertyOp32
 70
     1
102
RTVSPropertyOp33
 70
     1
102
RTVSPropertyOp34
 70
     1
102
RTVSPropertyOp35
 70
     1
102
RTVSPropertyOp36
 70
     1
102
RTVSPropertyOp37
 70
     1
102
RTVSPropertyOp38
 70
     1
102
RTVSPropertyOp39
 70
     1
102
RTVSPropertyOp40
 70
     1
102
RTVSPropertyOp41
 70
     1
102
RTVSPropertyOp42
 70
     1
102
RTVSPropertyOp43
 70
     1
102
RTVSPropertyOp44
 70
     1
102
RTVSPropertyOp45
 70
     1
102
RTVSPropertyOp46
 70
     1
102
RTVSPropertyOp47
 70
     1
102
RTVSPropertyOp48
 70
     1
102
RTVSPropertyOp49
 70
     1
102
RTVSPropertyOp50
 70
     1
102
RTVSPropertyOp51
 70
     0
102
RTVSPropertyOp52
 70
     0
102
RTVSPropertyOp53
 70
     1
102
RTVSPropertyOp54
 70
     1
102
RTVSPropertyOp55
 70
     1
102
RTVSPropertyOp56
 70
     1
102
RTVSPropertyOp57
 70
     1
102
RTVSPost2010Prop28
280
     0
102
RTVSPost2010PropOp28
 70
     1
102
RTVSPost2010Prop29
280
     1
102
RTVSPost2010PropOp29
 70
     1
102
RTVSPost2010Prop30
280
     1
102
RTVSPost2010PropOp30
 70
     1
102
RTVSPost2010Prop31
280
     0
102
RTVSPost2010PropOp31
 70
     1
102
RTVSPost2010Prop32
280
     0
102
RTVSPost2010PropOp32
 70
     1
102
RTVSPost2010Prop33
280
     0
102
RTVSPost2010PropOp33
 70
     1
102
RTVSPost2010Prop34
280
     0
102
RTVSPost2010PropOp34
 70
     1
102
RTVSPost2010Prop35
280
     0
102
RTVSPost2010PropOp35
 70
     1
102
RTVSPost2010Prop36
280
     0
102
RTVSPost2010PropOp36
 70
     1
102
RTVSPost2010Prop37
 90
       50
102
RTVSPost2010PropOp37
 70
     1
102
RTVSPost2010Prop38
140
0.0
102
RTVSPost2010PropOp38
 70
     1
102
RTVSPost2010Prop39
140
1.0
102
RTVSPost2010PropOp39
 70
     1
102
RTVSPost2010Prop40
 90
        0
102
RTVSPost2010PropOp40
 70
     1
102
RTVSPost2010Prop41ColorIndex
 90
       18
102
RTVSPost2010Prop41ColorRGB
 90
        0
102
RTVSPost2010PropOp41
 70
     1
102
RTVSPost2010Prop42
 90
       50
102
RTVSPost2010PropOp42
 70
     1
102
RTVSPost2010Prop43
 90
        3
102
RTVSPost2010PropOp43
 70
     1
102
RTVSPost2010Prop44ColorIndex
 90
        5
102
RTVSPost2010Prop44ColorRGB
 90
      255
102
RTVSPost2010PropOp44
 70
     1
102
RTVSPost2010Prop45
280
     0
102
RTVSPost2010PropOp45
 70
     1
102
RTVSPost2010Prop46
 90
       50
102
RTVSPost2010PropOp46
 70
     1
102
RTVSPost2010Prop47
 90
       50
102
RTVSPost2010PropOp47
 70
     1
102
RTVSPost2010Prop48
 90
       50
102
RTVSPost2010PropOp48
 70
     1
102
RTVSPost2010Prop49
280
     0
102
RTVSPost2010PropOp49
 70
     1
102
RTVSPost2010Prop50
 90
       50
102
RTVSPost2010PropOp50
 70
     1
102
RTVSPost2010Prop51ColorIndex
 90
      256
102
RTVSPost2010Prop51ColorRGB
 90
-16777216
102
RTVSPost2010PropOp51
 70
     0
102
RTVSPost2010Prop52
140
1.0
102
RTVSPost2010PropOp52
 70
     0
102
RTVSPost2010Prop53
 90
        2
102
RTVSPost2010PropOp53
 70
     1
102
RTVSPost2010Prop54
  1
strokes_ogs.tif
102
RTVSPost2010PropOp54
 70
     1
102
RTVSPost2010Prop55
280
     0
102
RTVSPost2010PropOp55
 70
     1
102
RTVSPost2010Prop56
140
1.0
102
RTVSPost2010PropOp56
 70
     1
102
RTVSPost2010Prop57
140
1.0
102
RTVSPost2010PropOp57
 70
     1
  0
XRECORD
  5
C4
102
{ACAD_REACTORS
330
C3
102
}
330
C3
100
AcDbXrecord
280
     1
102
RTVSPropertyOp0
 70
     1
102
RTVSPropertyOp1
 70
     1
102
RTVSPropertyOp2
 70
     1
102
RTVSPropertyOp3
 70
     1
102
RTVSPropertyOp4
 70
     1
102
RTVSPropertyOp5
 70
     1
102
RTVSPropertyOp6
 70
     1
102
RTVSPropertyOp7
 70
     1
102
RTVSPropertyOp8
 70
     1
102
RTVSPropertyOp9
 70
     1
102
RTVSPropertyOp10
 70
     1
102
RTVSPropertyOp11
 70
     1
102
RTVSPropertyOp12
 70
     1
102
RTVSPropertyOp13
 70
     1
102
RTVSPropertyOp14
 70
     1
102
RTVSPropertyOp15
 70
     1
102
RTVSPropertyOp16
 70
     1
102
RTVSPropertyOp17
 70
     1
102
RTVSPropertyOp18
 70
     1
102
RTVSPropertyOp19
 70
     1
102
RTVSPropertyOp20
 70
     1
102
RTVSPropertyOp21
 70
     1
102
RTVSPropertyOp22
 70
     1
102
RTVSPropertyOp23
 70
     1
102
RTVSPropertyOp24
 70
     1
102
RTVSPropertyOp25
 70
     1
102
RTVSPropertyOp26
 70
     1
102
RTVSPropertyOp27
 70
     1
102
RTVSPropertyOp28
 70
     1
102
RTVSPropertyOp29
 70
     1
102
RTVSPropertyOp30
 70
     1
102
RTVSPropertyOp31
 70
     1
102
RTVSPropertyOp32
 70
     1
102
RTVSPropertyOp33
 70
     1
102
RTVSPropertyOp34
 70
     1
102
RTVSPropertyOp35
 70
     1
102
RTVSPropertyOp36
 70
     1
102
RTVSPropertyOp37
 70
     1
102
RTVSPropertyOp38
 70
     1
102
RTVSPropertyOp39
 70
     1
102
RTVSPropertyOp40
 70
     1
102
RTVSPropertyOp41
 70
     1
102
RTVSPropertyOp42
 70
     1
102
RTVSPropertyOp43
 70
     1
102
RTVSPropertyOp44
 70
     1
102
RTVSPropertyOp45
 70
     1
102
RTVSPropertyOp46
 70
     1
102
RTVSPropertyOp47
 70
     1
102
RTVSPropertyOp48
 70
     1
102
RTVSPropertyOp49
 70
     1
102
RTVSPropertyOp50
 70
     1
102
RTVSPropertyOp51
 70
     0
102
RTVSPropertyOp52
 70
     0
102
RTVSPropertyOp53
 70
     1
102
RTVSPropertyOp54
 70
     1
102
RTVSPropertyOp55
 70
     1
102
RTVSPropertyOp56
 70
     1
102
RTVSPropertyOp57
 70
     1
102
RTVSPost2010Prop28
280
     0
102
RTVSPost2010PropOp28
 70
     1
102
RTVSPost2010Prop29
280
     1
102
RTVSPost2010PropOp29
 70
     1
102
RTVSPost2010Prop30
280
     1
102
RTVSPost2010PropOp30
 70
     1
102
RTVSPost2010Prop31
280
     0
102
RTVSPost2010PropOp31
 70
     1
102
RTVSPost2010Prop32
280
     0
102
RTVSPost2010PropOp32
 70
     1
102
RTVSPost2010Prop33
280
     0
102
RTVSPost2010PropOp33
 70
     1
102
RTVSPost2010Prop34
280
     0
102
RTVSPost2010PropOp34
 70
     1
102
RTVSPost2010Prop35
280
     0
102
RTVSPost2010PropOp35
 70
     1
102
RTVSPost2010Prop36
280
     0
102
RTVSPost2010PropOp36
 70
     1
102
RTVSPost2010Prop37
 90
       50
102
RTVSPost2010PropOp37
 70
     1
102
RTVSPost2010Prop38
140
0.0
102
RTVSPost2010PropOp38
 70
     1
102
RTVSPost2010Prop39
140
1.0
102
RTVSPost2010PropOp39
 70
     1
102
RTVSPost2010Prop40
 90
        0
102
RTVSPost2010PropOp40
 70
     1
102
RTVSPost2010Prop41ColorIndex
 90
       18
102
RTVSPost2010Prop41ColorRGB
 90
        0
102
RTVSPost2010PropOp41
 70
     1
102
RTVSPost2010Prop42
 90
       50
102
RTVSPost2010PropOp42
 70
     1
102
RTVSPost2010Prop43
 90
        3
102
RTVSPost2010PropOp43
 70
     1
102
RTVSPost2010Prop44ColorIndex
 90
        5
102
RTVSPost2010Prop44ColorRGB
 90
      255
102
RTVSPost2010PropOp44
 70
     1
102
RTVSPost2010Prop45
280
     0
102
RTVSPost2010PropOp45
 70
     1
102
RTVSPost2010Prop46
 90
       50
102
RTVSPost2010PropOp46
 70
     1
102
RTVSPost2010Prop47
 90
       50
102
RTVSPost2010PropOp47
 70
     1
102
RTVSPost2010Prop48
 90
       50
102
RTVSPost2010PropOp48
 70
     1
102
RTVSPost2010Prop49
280
     0
102
RTVSPost2010PropOp49
 70
     1
102
RTVSPost2010Prop50
 90
       50
102
RTVSPost2010PropOp50
 70
     1
102
RTVSPost2010Prop51ColorIndex
 90
      256
102
RTVSPost2010Prop51ColorRGB
 90
-16777216
102
RTVSPost2010PropOp51
 70
     0
102
RTVSPost2010Prop52
140
1.0
102
RTVSPost2010PropOp52
 70
     0
102
RTVSPost2010Prop53
 90
        2
102
RTVSPost2010PropOp53
 70
     1
102
RTVSPost2010Prop54
  1
strokes_ogs.tif
102
RTVSPost2010PropOp54
 70
     1
102
RTVSPost2010Prop55
280
     0
102
RTVSPost2010PropOp55
 70
     1
102
RTVSPost2010Prop56
140
1.0
102
RTVSPost2010PropOp56
 70
     1
102
RTVSPost2010Prop57
140
1.0
102
RTVSPost2010PropOp57
 70
     1
  0
XRECORD
  5
C6
102
{ACAD_REACTORS
330
C5
102
}
330
C5
100
AcDbXrecord
280
     1
102
RTVSPropertyOp0
 70
     1
102
RTVSPropertyOp1
 70
     1
102
RTVSPropertyOp2
 70
     1
102
RTVSPropertyOp3
 70
     1
102
RTVSPropertyOp4
 70
     1
102
RTVSPropertyOp5
 70
     1
102
RTVSPropertyOp6
 70
     1
102
RTVSPropertyOp7
 70
     1
102
RTVSPropertyOp8
 70
     1
102
RTVSPropertyOp9
 70
     1
102
RTVSPropertyOp10
 70
     1
102
RTVSPropertyOp11
 70
     1
102
RTVSPropertyOp12
 70
     1
102
RTVSPropertyOp13
 70
     1
102
RTVSPropertyOp14
 70
     1
102
RTVSPropertyOp15
 70
     1
102
RTVSPropertyOp16
 70
     1
102
RTVSPropertyOp17
 70
     1
102
RTVSPropertyOp18
 70
     1
102
RTVSPropertyOp19
 70
     1
102
RTVSPropertyOp20
 70
     1
102
RTVSPropertyOp21
 70
     1
102
RTVSPropertyOp22
 70
     1
102
RTVSPropertyOp23
 70
     1
102
RTVSPropertyOp24
 70
     1
102
RTVSPropertyOp25
 70
     1
102
RTVSPropertyOp26
 70
     1
102
RTVSPropertyOp27
 70
     1
102
RTVSPropertyOp28
 70
     1
102
RTVSPropertyOp29
 70
     1
102
RTVSPropertyOp30
 70
     1
102
RTVSPropertyOp31
 70
     1
102
RTVSPropertyOp32
 70
     1
102
RTVSPropertyOp33
 70
     1
102
RTVSPropertyOp34
 70
     1
102
RTVSPropertyOp35
 70
     1
102
RTVSPropertyOp36
 70
     1
102
RTVSPropertyOp37
 70
     1
102
RTVSPropertyOp38
 70
     1
102
RTVSPropertyOp39
 70
     1
102
RTVSPropertyOp40
 70
     1
102
RTVSPropertyOp41
 70
     1
102
RTVSPropertyOp42
 70
     1
102
RTVSPropertyOp43
 70
     1
102
RTVSPropertyOp44
 70
     1
102
RTVSPropertyOp45
 70
     1
102
RTVSPropertyOp46
 70
     1
102
RTVSPropertyOp47
 70
     1
102
RTVSPropertyOp48
 70
     1
102
RTVSPropertyOp49
 70
     1
102
RTVSPropertyOp50
 70
     1
102
RTVSPropertyOp51
 70
     0
102
RTVSPropertyOp52
 70
     0
102
RTVSPropertyOp53
 70
     1
102
RTVSPropertyOp54
 70
     1
102
RTVSPropertyOp55
 70
     1
102
RTVSPropertyOp56
 70
     1
102
RTVSPropertyOp57
 70
     1
102
RTVSPost2010Prop28
280
     0
102
RTVSPost2010PropOp28
 70
     1
102
RTVSPost2010Prop29
280
     1
102
RTVSPost2010PropOp29
 70
     1
102
RTVSPost2010Prop30
280
     1
102
RTVSPost2010PropOp30
 70
     1
102
RTVSPost2010Prop31
280
     0
102
RTVSPost2010PropOp31
 70
     1
102
RTVSPost2010Prop32
280
     0
102
RTVSPost2010PropOp32
 70
     1
102
RTVSPost2010Prop33
280
     0
102
RTVSPost2010PropOp33
 70
     1
102
RTVSPost2010Prop34
280
     0
102
RTVSPost2010PropOp34
 70
     1
102
RTVSPost2010Prop35
280
     0
102
RTVSPost2010PropOp35
 70
     1
102
RTVSPost2010Prop36
280
     0
102
RTVSPost2010PropOp36
 70
     1
102
RTVSPost2010Prop37
 90
       50
102
RTVSPost2010PropOp37
 70
     1
102
RTVSPost2010Prop38
140
0.0
102
RTVSPost2010PropOp38
 70
     1
102
RTVSPost2010Prop39
140
1.0
102
RTVSPost2010PropOp39
 70
     1
102
RTVSPost2010Prop40
 90
        0
102
RTVSPost2010PropOp40
 70
     1
102
RTVSPost2010Prop41ColorIndex
 90
       18
102
RTVSPost2010Prop41ColorRGB
 90
        0
102
RTVSPost2010PropOp41
 70
     1
102
RTVSPost2010Prop42
 90
       50
102
RTVSPost2010PropOp42
 70
     1
102
RTVSPost2010Prop43
 90
        3
102
RTVSPost2010PropOp43
 70
     1
102
RTVSPost2010Prop44ColorIndex
 90
        5
102
RTVSPost2010Prop44ColorRGB
 90
      255
102
RTVSPost2010PropOp44
 70
     1
102
RTVSPost2010Prop45
280
     0
102
RTVSPost2010PropOp45
 70
     1
102
RTVSPost2010Prop46
 90
       50
102
RTVSPost2010PropOp46
 70
     1
102
RTVSPost2010Prop47
 90
       50
102
RTVSPost2010PropOp47
 70
     1
102
RTVSPost2010Prop48
 90
       50
102
RTVSPost2010PropOp48
 70
     1
102
RTVSPost2010Prop49
280
     0
102
RTVSPost2010PropOp49
 70
     1
102
RTVSPost2010Prop50
 90
       50
102
RTVSPost2010PropOp50
 70
     1
102
RTVSPost2010Prop51ColorIndex
 90
      256
102
RTVSPost2010Prop51ColorRGB
 90
-16777216
102
RTVSPost2010PropOp51
 70
     0
102
RTVSPost2010Prop52
140
1.0
102
RTVSPost2010PropOp52
 70
     0
102
RTVSPost2010Prop53
 90
        2
102
RTVSPost2010PropOp53
 70
     1
102
RTVSPost2010Prop54
  1
strokes_ogs.tif
102
RTVSPost2010PropOp54
 70
     1
102
RTVSPost2010Prop55
280
     0
102
RTVSPost2010PropOp55
 70
     1
102
RTVSPost2010Prop56
140
1.0
102
RTVSPost2010PropOp56
 70
     1
102
RTVSPost2010Prop57
140
1.0
102
RTVSPost2010PropOp57
 70
     1
  0
XRECORD
  5
CC
102
{ACAD_REACTORS
330
CB
102
}
330
CB
100
AcDbXrecord
280
     1
102
RTVSPropertyOp0
 70
     1
102
RTVSPropertyOp1
 70
     1
102
RTVSPropertyOp2
 70
     1
102
RTVSPropertyOp3
 70
     1
102
RTVSPropertyOp4
 70
     1
102
RTVSPropertyOp5
 70
     1
102
RTVSPropertyOp6
 70
     1
102
RTVSPropertyOp7
 70
     1
102
RTVSPropertyOp8
 70
     1
102
RTVSPropertyOp9
 70
     1
102
RTVSPropertyOp10
 70
     1
102
RTVSPropertyOp11
 70
     1
102
RTVSPropertyOp12
 70
     1
102
RTVSPropertyOp13
 70
     1
102
RTVSPropertyOp14
 70
     1
102
RTVSPropertyOp15
 70
     1
102
RTVSPropertyOp16
 70
     1
102
RTVSPropertyOp17
 70
     1
102
RTVSPropertyOp18
 70
     1
102
RTVSPropertyOp19
 70
     1
102
RTVSPropertyOp20
 70
     1
102
RTVSPropertyOp21
 70
     1
102
RTVSPropertyOp22
 70
     1
102
RTVSPropertyOp23
 70
     1
102
RTVSPropertyOp24
 70
     1
102
RTVSPropertyOp25
 70
     1
102
RTVSPropertyOp26
 70
     1
102
RTVSPropertyOp27
 70
     1
102
RTVSPropertyOp28
 70
     1
102
RTVSPropertyOp29
 70
     1
102
RTVSPropertyOp30
 70
     1
102
RTVSPropertyOp31
 70
     1
102
RTVSPropertyOp32
 70
     1
102
RTVSPropertyOp33
 70
     1
102
RTVSPropertyOp34
 70
     1
102
RTVSPropertyOp35
 70
     1
102
RTVSPropertyOp36
 70
     1
102
RTVSPropertyOp37
 70
     1
102
RTVSPropertyOp38
 70
     1
102
RTVSPropertyOp39
 70
     1
102
RTVSPropertyOp40
 70
     1
102
RTVSPropertyOp41
 70
     1
102
RTVSPropertyOp42
 70
     1
102
RTVSPropertyOp43
 70
     1
102
RTVSPropertyOp44
 70
     1
102
RTVSPropertyOp45
 70
     1
102
RTVSPropertyOp46
 70
     1
102
RTVSPropertyOp47
 70
     1
102
RTVSPropertyOp48
 70
     1
102
RTVSPropertyOp49
 70
     1
102
RTVSPropertyOp50
 70
     1
102
RTVSPropertyOp51
 70
     0
102
RTVSPropertyOp52
 70
     0
102
RTVSPropertyOp53
 70
     1
102
RTVSPropertyOp54
 70
     1
102
RTVSPropertyOp55
 70
     1
102
RTVSPropertyOp56
 70
     1
102
RTVSPropertyOp57
 70
     1
102
RTVSPost2010Prop28
280
     0
102
RTVSPost2010PropOp28
 70
     1
102
RTVSPost2010Prop29
280
     1
102
RTVSPost2010PropOp29
 70
     1
102
RTVSPost2010Prop30
280
     1
102
RTVSPost2010PropOp30
 70
     1
102
RTVSPost2010Prop31
280
     0
102
RTVSPost2010PropOp31
 70
     1
102
RTVSPost2010Prop32
280
     0
102
RTVSPost2010PropOp32
 70
     1
102
RTVSPost2010Prop33
280
     0
102
RTVSPost2010PropOp33
 70
     1
102
RTVSPost2010Prop34
280
     0
102
RTVSPost2010PropOp34
 70
     1
102
RTVSPost2010Prop35
280
     0
102
RTVSPost2010PropOp35
 70
     1
102
RTVSPost2010Prop36
280
     0
102
RTVSPost2010PropOp36
 70
     1
102
RTVSPost2010Prop37
 90
       50
102
RTVSPost2010PropOp37
 70
     1
102
RTVSPost2010Prop38
140
0.0
102
RTVSPost2010PropOp38
 70
     1
102
RTVSPost2010Prop39
140
1.0
102
RTVSPost2010PropOp39
 70
     1
102
RTVSPost2010Prop40
 90
        0
102
RTVSPost2010PropOp40
 70
     1
102
RTVSPost2010Prop41ColorIndex
 90
       18
102
RTVSPost2010Prop41ColorRGB
 90
        0
102
RTVSPost2010PropOp41
 70
     1
102
RTVSPost2010Prop42
 90
       50
102
RTVSPost2010PropOp42
 70
     1
102
RTVSPost2010Prop43
 90
        3
102
RTVSPost2010PropOp43
 70
     1
102
RTVSPost2010Prop44ColorIndex
 90
        5
102
RTVSPost2010Prop44ColorRGB
 90
      255
102
RTVSPost2010PropOp44
 70
     1
102
RTVSPost2010Prop45
280
     0
102
RTVSPost2010PropOp45
 70
     1
102
RTVSPost2010Prop46
 90
       50
102
RTVSPost2010PropOp46
 70
     1
102
RTVSPost2010Prop47
 90
       50
102
RTVSPost2010PropOp47
 70
     1
102
RTVSPost2010Prop48
 90
       50
102
RTVSPost2010PropOp48
 70
     1
102
RTVSPost2010Prop49
280
     0
102
RTVSPost2010PropOp49
 70
     1
102
RTVSPost2010Prop50
 90
       50
102
RTVSPost2010PropOp50
 70
     1
102
RTVSPost2010Prop51ColorIndex
 90
      256
102
RTVSPost2010Prop51ColorRGB
 90
-16777216
102
RTVSPost2010PropOp51
 70
     0
102
RTVSPost2010Prop52
140
1.0
102
RTVSPost2010PropOp52
 70
     0
102
RTVSPost2010Prop53
 90
        2
102
RTVSPost2010PropOp53
 70
     1
102
RTVSPost2010Prop54
  1
strokes_ogs.tif
102
RTVSPost2010PropOp54
 70
     1
102
RTVSPost2010Prop55
280
     0
102
RTVSPost2010PropOp55
 70
     1
102
RTVSPost2010Prop56
140
1.0
102
RTVSPost2010PropOp56
 70
     1
102
RTVSPost2010Prop57
140
1.0
102
RTVSPost2010PropOp57
 70
     1
  0
XRECORD
  5
E0
102
{ACAD_REACTORS
330
DF
102
}
330
DF
100
AcDbXrecord
280
     1
102
RTVSPropertyOp0
 70
     0
102
RTVSPropertyOp1
 70
     0
102
RTVSPropertyOp2
 70
     0
102
RTVSPropertyOp3
 70
     0
102
RTVSPropertyOp4
 70
     0
102
RTVSPropertyOp5
 70
     0
102
RTVSPropertyOp6
 70
     0
102
RTVSPropertyOp7
 70
     0
102
RTVSPropertyOp8
 70
     0
102
RTVSPropertyOp9
 70
     0
102
RTVSPropertyOp10
 70
     0
102
RTVSPropertyOp11
 70
     0
102
RTVSPropertyOp12
 70
     0
102
RTVSPropertyOp13
 70
     0
102
RTVSPropertyOp14
 70
     2
102
RTVSPropertyOp15
 70
     0
102
RTVSPropertyOp16
 70
     0
102
RTVSPropertyOp17
 70
     0
102
RTVSPropertyOp18
 70
     0
102
RTVSPropertyOp19
 70
     0
102
RTVSPropertyOp20
 70
     0
102
RTVSPropertyOp21
 70
     0
102
RTVSPropertyOp22
 70
     0
102
RTVSPropertyOp23
 70
     0
102
RTVSPropertyOp24
 70
     0
102
RTVSPropertyOp25
 70
     0
102
RTVSPropertyOp26
 70
     0
102
RTVSPropertyOp27
 70
     0
102
RTVSPropertyOp28
 70
     0
102
RTVSPropertyOp29
 70
     0
102
RTVSPropertyOp30
 70
     0
102
RTVSPropertyOp31
 70
     0
102
RTVSPropertyOp32
 70
     0
102
RTVSPropertyOp33
 70
     0
102
RTVSPropertyOp34
 70
     0
102
RTVSPropertyOp35
 70
     0
102
RTVSPropertyOp36
 70
     0
102
RTVSPropertyOp37
 70
     0
102
RTVSPropertyOp38
 70
     0
102
RTVSPropertyOp39
 70
     0
102
RTVSPropertyOp40
 70
     0
102
RTVSPropertyOp41
 70
     0
102
RTVSPropertyOp42
 70
     0
102
RTVSPropertyOp43
 70
     0
102
RTVSPropertyOp44
 70
     0
102
RTVSPropertyOp45
 70
     0
102
RTVSPropertyOp46
 70
     0
102
RTVSPropertyOp47
 70
     0
102
RTVSPropertyOp48
 70
     0
102
RTVSPropertyOp49
 70
     0
102
RTVSPropertyOp50
 70
     0
102
RTVSPropertyOp51
 70
     0
102
RTVSPropertyOp52
 70
     0
102
RTVSPropertyOp53
 70
     0
102
RTVSPropertyOp54
 70
     0
102
RTVSPropertyOp55
 70
     0
102
RTVSPropertyOp56
 70
     0
102
RTVSPropertyOp57
 70
     0
102
RTVSPost2010Prop28
280
     0
102
RTVSPost2010PropOp28
 70
     0
102
RTVSPost2010Prop29
280
     1
102
RTVSPost2010PropOp29
 70
     0
102
RTVSPost2010Prop30
280
     1
102
RTVSPost2010PropOp30
 70
     0
102
RTVSPost2010Prop31
280
     0
102
RTVSPost2010PropOp31
 70
     0
102
RTVSPost2010Prop32
280
     0
102
RTVSPost2010PropOp32
 70
     0
102
RTVSPost2010Prop33
280
     0
102
RTVSPost2010PropOp33
 70
     0
102
RTVSPost2010Prop34
280
     0
102
RTVSPost2010PropOp34
 70
     0
102
RTVSPost2010Prop35
280
     0
102
RTVSPost2010PropOp35
 70
     0
102
RTVSPost2010Prop36
280
     0
102
RTVSPost2010PropOp36
 70
     0
102
RTVSPost2010Prop37
 90
       50
102
RTVSPost2010PropOp37
 70
     0
102
RTVSPost2010Prop38
140
0.0
102
RTVSPost2010PropOp38
 70
     0
102
RTVSPost2010Prop39
140
1.0
102
RTVSPost2010PropOp39
 70
     0
102
RTVSPost2010Prop40
 90
        0
102
RTVSPost2010PropOp40
 70
     0
102
RTVSPost2010Prop41ColorIndex
 90
       18
102
RTVSPost2010Prop41ColorRGB
 90
        0
102
RTVSPost2010PropOp41
 70
     0
102
RTVSPost2010Prop42
 90
       50
102
RTVSPost2010PropOp42
 70
     0
102
RTVSPost2010Prop43
 90
        3
102
RTVSPost2010PropOp43
 70
     0
102
RTVSPost2010Prop44ColorIndex
 90
        5
102
RTVSPost2010Prop44ColorRGB
 90
      255
102
RTVSPost2010PropOp44
 70
     0
102
RTVSPost2010Prop45
280
     0
102
RTVSPost2010PropOp45
 70
     0
102
RTVSPost2010Prop46
 90
       50
102
RTVSPost2010PropOp46
 70
     0
102
RTVSPost2010Prop47
 90
       50
102
RTVSPost2010PropOp47
 70
     0
102
RTVSPost2010Prop48
 90
       50
102
RTVSPost2010PropOp48
 70
     0
102
RTVSPost2010Prop49
280
     0
102
RTVSPost2010PropOp49
 70
     0
102
RTVSPost2010Prop50
 90
       50
102
RTVSPost2010PropOp50
 70
     0
102
RTVSPost2010Prop51ColorIndex
 90
      256
102
RTVSPost2010Prop51ColorRGB
 90
-16777216
102
RTVSPost2010PropOp51
 70
     0
102
RTVSPost2010Prop52
140
1.0
102
RTVSPost2010PropOp52
 70
     0
102
RTVSPost2010Prop53
 90
        2
102
RTVSPost2010PropOp53
 70
     0
102
RTVSPost2010Prop54
  1
strokes_ogs.tif
102
RTVSPost2010PropOp54
 70
     0
102
RTVSPost2010Prop55
280
     0
102
RTVSPost2010PropOp55
 70
     0
102
RTVSPost2010Prop56
140
1.0
102
RTVSPost2010PropOp56
 70
     0
102
RTVSPost2010Prop57
140
1.0
102
RTVSPost2010PropOp57
 70
     0
  0
XRECORD
  5
DA
102
{ACAD_REACTORS
330
D9
102
}
330
D9
100
AcDbXrecord
280
     1
102
RTVSPropertyOp0
 70
     1
102
RTVSPropertyOp1
 70
     1
102
RTVSPropertyOp2
 70
     1
102
RTVSPropertyOp3
 70
     1
102
RTVSPropertyOp4
 70
     1
102
RTVSPropertyOp5
 70
     1
102
RTVSPropertyOp6
 70
     1
102
RTVSPropertyOp7
 70
     1
102
RTVSPropertyOp8
 70
     1
102
RTVSPropertyOp9
 70
     1
102
RTVSPropertyOp10
 70
     1
102
RTVSPropertyOp11
 70
     1
102
RTVSPropertyOp12
 70
     1
102
RTVSPropertyOp13
 70
     1
102
RTVSPropertyOp14
 70
     1
102
RTVSPropertyOp15
 70
     1
102
RTVSPropertyOp16
 70
     1
102
RTVSPropertyOp17
 70
     1
102
RTVSPropertyOp18
 70
     1
102
RTVSPropertyOp19
 70
     1
102
RTVSPropertyOp20
 70
     1
102
RTVSPropertyOp21
 70
     1
102
RTVSPropertyOp22
 70
     1
102
RTVSPropertyOp23
 70
     1
102
RTVSPropertyOp24
 70
     1
102
RTVSPropertyOp25
 70
     1
102
RTVSPropertyOp26
 70
     1
102
RTVSPropertyOp27
 70
     1
102
RTVSPropertyOp28
 70
     1
102
RTVSPropertyOp29
 70
     1
102
RTVSPropertyOp30
 70
     1
102
RTVSPropertyOp31
 70
     1
102
RTVSPropertyOp32
 70
     1
102
RTVSPropertyOp33
 70
     1
102
RTVSPropertyOp34
 70
     1
102
RTVSPropertyOp35
 70
     1
102
RTVSPropertyOp36
 70
     1
102
RTVSPropertyOp37
 70
     1
102
RTVSPropertyOp38
 70
     1
102
RTVSPropertyOp39
 70
     1
102
RTVSPropertyOp40
 70
     1
102
RTVSPropertyOp41
 70
     1
102
RTVSPropertyOp42
 70
     1
102
RTVSPropertyOp43
 70
     1
102
RTVSPropertyOp44
 70
     1
102
RTVSPropertyOp45
 70
     1
102
RTVSPropertyOp46
 70
     1
102
RTVSPropertyOp47
 70
     1
102
RTVSPropertyOp48
 70
     1
102
RTVSPropertyOp49
 70
     1
102
RTVSPropertyOp50
 70
     1
102
RTVSPropertyOp51
 70
     0
102
RTVSPropertyOp52
 70
     0
102
RTVSPropertyOp53
 70
     1
102
RTVSPropertyOp54
 70
     1
102
RTVSPropertyOp55
 70
     1
102
RTVSPropertyOp56
 70
     1
102
RTVSPropertyOp57
 70
     1
102
RTVSPost2010Prop28
280
     0
102
RTVSPost2010PropOp28
 70
     1
102
RTVSPost2010Prop29
280
     1
102
RTVSPost2010PropOp29
 70
     1
102
RTVSPost2010Prop30
280
     1
102
RTVSPost2010PropOp30
 70
     1
102
RTVSPost2010Prop31
280
     0
102
RTVSPost2010PropOp31
 70
     1
102
RTVSPost2010Prop32
280
     0
102
RTVSPost2010PropOp32
 70
     1
102
RTVSPost2010Prop33
280
     0
102
RTVSPost2010PropOp33
 70
     1
102
RTVSPost2010Prop34
280
     0
102
RTVSPost2010PropOp34
 70
     1
102
RTVSPost2010Prop35
280
     0
102
RTVSPost2010PropOp35
 70
     1
102
RTVSPost2010Prop36
280
     0
102
RTVSPost2010PropOp36
 70
     1
102
RTVSPost2010Prop37
 90
       50
102
RTVSPost2010PropOp37
 70
     1
102
RTVSPost2010Prop38
140
0.0
102
RTVSPost2010PropOp38
 70
     1
102
RTVSPost2010Prop39
140
1.0
102
RTVSPost2010PropOp39
 70
     1
102
RTVSPost2010Prop40
 90
        0
102
RTVSPost2010PropOp40
 70
     1
102
RTVSPost2010Prop41ColorIndex
 90
       18
102
RTVSPost2010Prop41ColorRGB
 90
        0
102
RTVSPost2010PropOp41
 70
     1
102
RTVSPost2010Prop42
 90
       50
102
RTVSPost2010PropOp42
 70
     1
102
RTVSPost2010Prop43
 90
        3
102
RTVSPost2010PropOp43
 70
     1
102
RTVSPost2010Prop44ColorIndex
 90
        5
102
RTVSPost2010Prop44ColorRGB
 90
      255
102
RTVSPost2010PropOp44
 70
     1
102
RTVSPost2010Prop45
280
     0
102
RTVSPost2010PropOp45
 70
     1
102
RTVSPost2010Prop46
 90
       50
102
RTVSPost2010PropOp46
 70
     1
102
RTVSPost2010Prop47
 90
       50
102
RTVSPost2010PropOp47
 70
     1
102
RTVSPost2010Prop48
 90
       50
102
RTVSPost2010PropOp48
 70
     1
102
RTVSPost2010Prop49
280
     0
102
RTVSPost2010PropOp49
 70
     1
102
RTVSPost2010Prop50
 90
       50
102
RTVSPost2010PropOp50
 70
     1
102
RTVSPost2010Prop51ColorIndex
 90
      256
102
RTVSPost2010Prop51ColorRGB
 90
-16777216
102
RTVSPost2010PropOp51
 70
     0
102
RTVSPost2010Prop52
140
1.0
102
RTVSPost2010PropOp52
 70
     0
102
RTVSPost2010Prop53
 90
        2
102
RTVSPost2010PropOp53
 70
     1
102
RTVSPost2010Prop54
  1
strokes_ogs.tif
102
RTVSPost2010PropOp54
 70
     1
102
RTVSPost2010Prop55
280
     0
102
RTVSPost2010PropOp55
 70
     1
102
RTVSPost2010Prop56
140
1.0
102
RTVSPost2010PropOp56
 70
     1
102
RTVSPost2010Prop57
140
1.0
102
RTVSPost2010PropOp57
 70
     1
  0
XRECORD
  5
E2
102
{ACAD_REACTORS
330
E1
102
}
330
E1
100
AcDbXrecord
280
     1
102
RTVSPropertyOp0
 70
     0
102
RTVSPropertyOp1
 70
     0
102
RTVSPropertyOp2
 70
     0
102
RTVSPropertyOp3
 70
     0
102
RTVSPropertyOp4
 70
     0
102
RTVSPropertyOp5
 70
     0
102
RTVSPropertyOp6
 70
     0
102
RTVSPropertyOp7
 70
     0
102
RTVSPropertyOp8
 70
     0
102
RTVSPropertyOp9
 70
     0
102
RTVSPropertyOp10
 70
     0
102
RTVSPropertyOp11
 70
     0
102
RTVSPropertyOp12
 70
     0
102
RTVSPropertyOp13
 70
     0
102
RTVSPropertyOp14
 70
     2
102
RTVSPropertyOp15
 70
     0
102
RTVSPropertyOp16
 70
     0
102
RTVSPropertyOp17
 70
     0
102
RTVSPropertyOp18
 70
     0
102
RTVSPropertyOp19
 70
     0
102
RTVSPropertyOp20
 70
     0
102
RTVSPropertyOp21
 70
     0
102
RTVSPropertyOp22
 70
     0
102
RTVSPropertyOp23
 70
     0
102
RTVSPropertyOp24
 70
     0
102
RTVSPropertyOp25
 70
     0
102
RTVSPropertyOp26
 70
     0
102
RTVSPropertyOp27
 70
     0
102
RTVSPropertyOp28
 70
     0
102
RTVSPropertyOp29
 70
     0
102
RTVSPropertyOp30
 70
     0
102
RTVSPropertyOp31
 70
     0
102
RTVSPropertyOp32
 70
     0
102
RTVSPropertyOp33
 70
     0
102
RTVSPropertyOp34
 70
     0
102
RTVSPropertyOp35
 70
     0
102
RTVSPropertyOp36
 70
     0
102
RTVSPropertyOp37
 70
     0
102
RTVSPropertyOp38
 70
     0
102
RTVSPropertyOp39
 70
     0
102
RTVSPropertyOp40
 70
     0
102
RTVSPropertyOp41
 70
     0
102
RTVSPropertyOp42
 70
     0
102
RTVSPropertyOp43
 70
     0
102
RTVSPropertyOp44
 70
     0
102
RTVSPropertyOp45
 70
     0
102
RTVSPropertyOp46
 70
     0
102
RTVSPropertyOp47
 70
     0
102
RTVSPropertyOp48
 70
     0
102
RTVSPropertyOp49
 70
     0
102
RTVSPropertyOp50
 70
     0
102
RTVSPropertyOp51
 70
     0
102
RTVSPropertyOp52
 70
     0
102
RTVSPropertyOp53
 70
     0
102
RTVSPropertyOp54
 70
     0
102
RTVSPropertyOp55
 70
     0
102
RTVSPropertyOp56
 70
     0
102
RTVSPropertyOp57
 70
     0
102
RTVSPost2010Prop28
280
     0
102
RTVSPost2010PropOp28
 70
     0
102
RTVSPost2010Prop29
280
     1
102
RTVSPost2010PropOp29
 70
     0
102
RTVSPost2010Prop30
280
     1
102
RTVSPost2010PropOp30
 70
     0
102
RTVSPost2010Prop31
280
     0
102
RTVSPost2010PropOp31
 70
     0
102
RTVSPost2010Prop32
280
     0
102
RTVSPost2010PropOp32
 70
     0
102
RTVSPost2010Prop33
280
     0
102
RTVSPost2010PropOp33
 70
     0
102
RTVSPost2010Prop34
280
     0
102
RTVSPost2010PropOp34
 70
     0
102
RTVSPost2010Prop35
280
     0
102
RTVSPost2010PropOp35
 70
     0
102
RTVSPost2010Prop36
280
     0
102
RTVSPost2010PropOp36
 70
     0
102
RTVSPost2010Prop37
 90
       50
102
RTVSPost2010PropOp37
 70
     0
102
RTVSPost2010Prop38
140
0.0
102
RTVSPost2010PropOp38
 70
     0
102
RTVSPost2010Prop39
140
1.0
102
RTVSPost2010PropOp39
 70
     0
102
RTVSPost2010Prop40
 90
        0
102
RTVSPost2010PropOp40
 70
     0
102
RTVSPost2010Prop41ColorIndex
 90
       18
102
RTVSPost2010Prop41ColorRGB
 90
        0
102
RTVSPost2010PropOp41
 70
     0
102
RTVSPost2010Prop42
 90
       50
102
RTVSPost2010PropOp42
 70
     0
102
RTVSPost2010Prop43
 90
        3
102
RTVSPost2010PropOp43
 70
     0
102
RTVSPost2010Prop44ColorIndex
 90
        5
102
RTVSPost2010Prop44ColorRGB
 90
      255
102
RTVSPost2010PropOp44
 70
     0
102
RTVSPost2010Prop45
280
     0
102
RTVSPost2010PropOp45
 70
     0
102
RTVSPost2010Prop46
 90
       50
102
RTVSPost2010PropOp46
 70
     0
102
RTVSPost2010Prop47
 90
       50
102
RTVSPost2010PropOp47
 70
     0
102
RTVSPost2010Prop48
 90
       50
102
RTVSPost2010PropOp48
 70
     0
102
RTVSPost2010Prop49
280
     0
102
RTVSPost2010PropOp49
 70
     0
102
RTVSPost2010Prop50
 90
       50
102
RTVSPost2010PropOp50
 70
     0
102
RTVSPost2010Prop51ColorIndex
 90
      256
102
RTVSPost2010Prop51ColorRGB
 90
-16777216
102
RTVSPost2010PropOp51
 70
     0
102
RTVSPost2010Prop52
140
1.0
102
RTVSPost2010PropOp52
 70
     0
102
RTVSPost2010Prop53
 90
        2
102
RTVSPost2010PropOp53
 70
     0
102
RTVSPost2010Prop54
  1
strokes_ogs.tif
102
RTVSPost2010PropOp54
 70
     0
102
RTVSPost2010Prop55
280
     0
102
RTVSPost2010PropOp55
 70
     0
102
RTVSPost2010Prop56
140
1.0
102
RTVSPost2010PropOp56
 70
     0
102
RTVSPost2010Prop57
140
1.0
102
RTVSPost2010PropOp57
 70
     0
  0
XRECORD
  5
D0
102
{ACAD_REACTORS
330
CF
102
}
330
CF
100
AcDbXrecord
280
     1
102
RTVSPropertyOp0
 70
     1
102
RTVSPropertyOp1
 70
     1
102
RTVSPropertyOp2
 70
     1
102
RTVSPropertyOp3
 70
     1
102
RTVSPropertyOp4
 70
     1
102
RTVSPropertyOp5
 70
     1
102
RTVSPropertyOp6
 70
     1
102
RTVSPropertyOp7
 70
     1
102
RTVSPropertyOp8
 70
     1
102
RTVSPropertyOp9
 70
     1
102
RTVSPropertyOp10
 70
     1
102
RTVSPropertyOp11
 70
     1
102
RTVSPropertyOp12
 70
     1
102
RTVSPropertyOp13
 70
     1
102
RTVSPropertyOp14
 70
     1
102
RTVSPropertyOp15
 70
     1
102
RTVSPropertyOp16
 70
     1
102
RTVSPropertyOp17
 70
     1
102
RTVSPropertyOp18
 70
     1
102
RTVSPropertyOp19
 70
     1
102
RTVSPropertyOp20
 70
     1
102
RTVSPropertyOp21
 70
     1
102
RTVSPropertyOp22
 70
     1
102
RTVSPropertyOp23
 70
     1
102
RTVSPropertyOp24
 70
     1
102
RTVSPropertyOp25
 70
     1
102
RTVSPropertyOp26
 70
     1
102
RTVSPropertyOp27
 70
     1
102
RTVSPropertyOp28
 70
     1
102
RTVSPropertyOp29
 70
     1
102
RTVSPropertyOp30
 70
     1
102
RTVSPropertyOp31
 70
     1
102
RTVSPropertyOp32
 70
     1
102
RTVSPropertyOp33
 70
     1
102
RTVSPropertyOp34
 70
     1
102
RTVSPropertyOp35
 70
     1
102
RTVSPropertyOp36
 70
     1
102
RTVSPropertyOp37
 70
     1
102
RTVSPropertyOp38
 70
     1
102
RTVSPropertyOp39
 70
     1
102
RTVSPropertyOp40
 70
     1
102
RTVSPropertyOp41
 70
     1
102
RTVSPropertyOp42
 70
     1
102
RTVSPropertyOp43
 70
     1
102
RTVSPropertyOp44
 70
     1
102
RTVSPropertyOp45
 70
     1
102
RTVSPropertyOp46
 70
     1
102
RTVSPropertyOp47
 70
     1
102
RTVSPropertyOp48
 70
     1
102
RTVSPropertyOp49
 70
     1
102
RTVSPropertyOp50
 70
     1
102
RTVSPropertyOp51
 70
     0
102
RTVSPropertyOp52
 70
     0
102
RTVSPropertyOp53
 70
     1
102
RTVSPropertyOp54
 70
     1
102
RTVSPropertyOp55
 70
     1
102
RTVSPropertyOp56
 70
     1
102
RTVSPropertyOp57
 70
     1
102
RTVSPost2010Prop28
280
     0
102
RTVSPost2010PropOp28
 70
     1
102
RTVSPost2010Prop29
280
     1
102
RTVSPost2010PropOp29
 70
     1
102
RTVSPost2010Prop30
280
     1
102
RTVSPost2010PropOp30
 70
     1
102
RTVSPost2010Prop31
280
     0
102
RTVSPost2010PropOp31
 70
     1
102
RTVSPost2010Prop32
280
     0
102
RTVSPost2010PropOp32
 70
     1
102
RTVSPost2010Prop33
280
     0
102
RTVSPost2010PropOp33
 70
     1
102
RTVSPost2010Prop34
280
     0
102
RTVSPost2010PropOp34
 70
     1
102
RTVSPost2010Prop35
280
     0
102
RTVSPost2010PropOp35
 70
     1
102
RTVSPost2010Prop36
280
     0
102
RTVSPost2010PropOp36
 70
     1
102
RTVSPost2010Prop37
 90
       50
102
RTVSPost2010PropOp37
 70
     1
102
RTVSPost2010Prop38
140
0.0
102
RTVSPost2010PropOp38
 70
     1
102
RTVSPost2010Prop39
140
1.0
102
RTVSPost2010PropOp39
 70
     1
102
RTVSPost2010Prop40
 90
        0
102
RTVSPost2010PropOp40
 70
     1
102
RTVSPost2010Prop41ColorIndex
 90
       18
102
RTVSPost2010Prop41ColorRGB
 90
        0
102
RTVSPost2010PropOp41
 70
     1
102
RTVSPost2010Prop42
 90
       50
102
RTVSPost2010PropOp42
 70
     1
102
RTVSPost2010Prop43
 90
        3
102
RTVSPost2010PropOp43
 70
     1
102
RTVSPost2010Prop44ColorIndex
 90
        5
102
RTVSPost2010Prop44ColorRGB
 90
      255
102
RTVSPost2010PropOp44
 70
     1
102
RTVSPost2010Prop45
280
     0
102
RTVSPost2010PropOp45
 70
     1
102
RTVSPost2010Prop46
 90
       50
102
RTVSPost2010PropOp46
 70
     1
102
RTVSPost2010Prop47
 90
       50
102
RTVSPost2010PropOp47
 70
     1
102
RTVSPost2010Prop48
 90
       50
102
RTVSPost2010PropOp48
 70
     1
102
RTVSPost2010Prop49
280
     0
102
RTVSPost2010PropOp49
 70
     1
102
RTVSPost2010Prop50
 90
       50
102
RTVSPost2010PropOp50
 70
     1
102
RTVSPost2010Prop51ColorIndex
 90
      256
102
RTVSPost2010Prop51ColorRGB
 90
-16777216
102
RTVSPost2010PropOp51
 70
     0
102
RTVSPost2010Prop52
140
1.0
102
RTVSPost2010PropOp52
 70
     0
102
RTVSPost2010Prop53
 90
        2
102
RTVSPost2010PropOp53
 70
     1
102
RTVSPost2010Prop54
  1
strokes_ogs.tif
102
RTVSPost2010PropOp54
 70
     1
102
RTVSPost2010Prop55
280
     0
102
RTVSPost2010PropOp55
 70
     1
102
RTVSPost2010Prop56
140
1.0
102
RTVSPost2010PropOp56
 70
     1
102
RTVSPost2010Prop57
140
1.0
102
RTVSPost2010PropOp57
 70
     1
  0
XRECORD
  5
EE
102
{ACAD_REACTORS
330
ED
102
}
330
ED
100
AcDbXrecord
280
     1
102
RTVSPropertyOp0
 70
     1
102
RTVSPropertyOp1
 70
     1
102
RTVSPropertyOp2
 70
     1
102
RTVSPropertyOp3
 70
     1
102
RTVSPropertyOp4
 70
     1
102
RTVSPropertyOp5
 70
     1
102
RTVSPropertyOp6
 70
     1
102
RTVSPropertyOp7
 70
     1
102
RTVSPropertyOp8
 70
     1
102
RTVSPropertyOp9
 70
     1
102
RTVSPropertyOp10
 70
     1
102
RTVSPropertyOp11
 70
     1
102
RTVSPropertyOp12
 70
     1
102
RTVSPropertyOp13
 70
     1
102
RTVSPropertyOp14
 70
     1
102
RTVSPropertyOp15
 70
     1
102
RTVSPropertyOp16
 70
     1
102
RTVSPropertyOp17
 70
     1
102
RTVSPropertyOp18
 70
     1
102
RTVSPropertyOp19
 70
     1
102
RTVSPropertyOp20
 70
     1
102
RTVSPropertyOp21
 70
     1
102
RTVSPropertyOp22
 70
     1
102
RTVSPropertyOp23
 70
     1
102
RTVSPropertyOp24
 70
     1
102
RTVSPropertyOp25
 70
     1
102
RTVSPropertyOp26
 70
     1
102
RTVSPropertyOp27
 70
     1
102
RTVSPropertyOp28
 70
     1
102
RTVSPropertyOp29
 70
     1
102
RTVSPropertyOp30
 70
     1
102
RTVSPropertyOp31
 70
     1
102
RTVSPropertyOp32
 70
     1
102
RTVSPropertyOp33
 70
     1
102
RTVSPropertyOp34
 70
     1
102
RTVSPropertyOp35
 70
     1
102
RTVSPropertyOp36
 70
     1
102
RTVSPropertyOp37
 70
     1
102
RTVSPropertyOp38
 70
     1
102
RTVSPropertyOp39
 70
     1
102
RTVSPropertyOp40
 70
     1
102
RTVSPropertyOp41
 70
     1
102
RTVSPropertyOp42
 70
     1
102
RTVSPropertyOp43
 70
     1
102
RTVSPropertyOp44
 70
     1
102
RTVSPropertyOp45
 70
     1
102
RTVSPropertyOp46
 70
     1
102
RTVSPropertyOp47
 70
     1
102
RTVSPropertyOp48
 70
     1
102
RTVSPropertyOp49
 70
     1
102
RTVSPropertyOp50
 70
     1
102
RTVSPropertyOp51
 70
     0
102
RTVSPropertyOp52
 70
     0
102
RTVSPropertyOp53
 70
     1
102
RTVSPropertyOp54
 70
     1
102
RTVSPropertyOp55
 70
     1
102
RTVSPropertyOp56
 70
     1
102
RTVSPropertyOp57
 70
     1
102
RTVSPost2010Prop28
280
     0
102
RTVSPost2010PropOp28
 70
     1
102
RTVSPost2010Prop29
280
     1
102
RTVSPost2010PropOp29
 70
     1
102
RTVSPost2010Prop30
280
     1
102
RTVSPost2010PropOp30
 70
     1
102
RTVSPost2010Prop31
280
     0
102
RTVSPost2010PropOp31
 70
     1
102
RTVSPost2010Prop32
280
     0
102
RTVSPost2010PropOp32
 70
     1
102
RTVSPost2010Prop33
280
     0
102
RTVSPost2010PropOp33
 70
     1
102
RTVSPost2010Prop34
280
     0
102
RTVSPost2010PropOp34
 70
     1
102
RTVSPost2010Prop35
280
     0
102
RTVSPost2010PropOp35
 70
     1
102
RTVSPost2010Prop36
280
     0
102
RTVSPost2010PropOp36
 70
     1
102
RTVSPost2010Prop37
 90
       50
102
RTVSPost2010PropOp37
 70
     1
102
RTVSPost2010Prop38
140
0.0
102
RTVSPost2010PropOp38
 70
     1
102
RTVSPost2010Prop39
140
1.0
102
RTVSPost2010PropOp39
 70
     1
102
RTVSPost2010Prop40
 90
        0
102
RTVSPost2010PropOp40
 70
     1
102
RTVSPost2010Prop41ColorIndex
 90
       18
102
RTVSPost2010Prop41ColorRGB
 90
        0
102
RTVSPost2010PropOp41
 70
     1
102
RTVSPost2010Prop42
 90
       50
102
RTVSPost2010PropOp42
 70
     1
102
RTVSPost2010Prop43
 90
        3
102
RTVSPost2010PropOp43
 70
     1
102
RTVSPost2010Prop44ColorIndex
 90
        5
102
RTVSPost2010Prop44ColorRGB
 90
      255
102
RTVSPost2010PropOp44
 70
     1
102
RTVSPost2010Prop45
280
     0
102
RTVSPost2010PropOp45
 70
     1
102
RTVSPost2010Prop46
 90
       50
102
RTVSPost2010PropOp46
 70
     1
102
RTVSPost2010Prop47
 90
       50
102
RTVSPost2010PropOp47
 70
     1
102
RTVSPost2010Prop48
 90
       50
102
RTVSPost2010PropOp48
 70
     1
102
RTVSPost2010Prop49
280
     0
102
RTVSPost2010PropOp49
 70
     1
102
RTVSPost2010Prop50
 90
       50
102
RTVSPost2010PropOp50
 70
     1
102
RTVSPost2010Prop51ColorIndex
 90
      256
102
RTVSPost2010Prop51ColorRGB
 90
-16777216
102
RTVSPost2010PropOp51
 70
     0
102
RTVSPost2010Prop52
140
1.0
102
RTVSPost2010PropOp52
 70
     0
102
RTVSPost2010Prop53
 90
        2
102
RTVSPost2010PropOp53
 70
     1
102
RTVSPost2010Prop54
  1
strokes_ogs.tif
102
RTVSPost2010PropOp54
 70
     1
102
RTVSPost2010Prop55
280
     0
102
RTVSPost2010PropOp55
 70
     1
102
RTVSPost2010Prop56
140
1.0
102
RTVSPost2010PropOp56
 70
     1
102
RTVSPost2010Prop57
140
1.0
102
RTVSPost2010PropOp57
 70
     1
  0
XRECORD
  5
EC
102
{ACAD_REACTORS
330
EB
102
}
330
EB
100
AcDbXrecord
280
     1
102
RTVSPropertyOp0
 70
     1
102
RTVSPropertyOp1
 70
     1
102
RTVSPropertyOp2
 70
     1
102
RTVSPropertyOp3
 70
     1
102
RTVSPropertyOp4
 70
     1
102
RTVSPropertyOp5
 70
     1
102
RTVSPropertyOp6
 70
     1
102
RTVSPropertyOp7
 70
     1
102
RTVSPropertyOp8
 70
     1
102
RTVSPropertyOp9
 70
     1
102
RTVSPropertyOp10
 70
     1
102
RTVSPropertyOp11
 70
     1
102
RTVSPropertyOp12
 70
     1
102
RTVSPropertyOp13
 70
     1
102
RTVSPropertyOp14
 70
     1
102
RTVSPropertyOp15
 70
     1
102
RTVSPropertyOp16
 70
     1
102
RTVSPropertyOp17
 70
     1
102
RTVSPropertyOp18
 70
     1
102
RTVSPropertyOp19
 70
     1
102
RTVSPropertyOp20
 70
     1
102
RTVSPropertyOp21
 70
     1
102
RTVSPropertyOp22
 70
     1
102
RTVSPropertyOp23
 70
     1
102
RTVSPropertyOp24
 70
     1
102
RTVSPropertyOp25
 70
     1
102
RTVSPropertyOp26
 70
     1
102
RTVSPropertyOp27
 70
     1
102
RTVSPropertyOp28
 70
     1
102
RTVSPropertyOp29
 70
     1
102
RTVSPropertyOp30
 70
     1
102
RTVSPropertyOp31
 70
     1
102
RTVSPropertyOp32
 70
     1
102
RTVSPropertyOp33
 70
     1
102
RTVSPropertyOp34
 70
     1
102
RTVSPropertyOp35
 70
     1
102
RTVSPropertyOp36
 70
     1
102
RTVSPropertyOp37
 70
     1
102
RTVSPropertyOp38
 70
     1
102
RTVSPropertyOp39
 70
     1
102
RTVSPropertyOp40
 70
     1
102
RTVSPropertyOp41
 70
     1
102
RTVSPropertyOp42
 70
     1
102
RTVSPropertyOp43
 70
     1
102
RTVSPropertyOp44
 70
     1
102
RTVSPropertyOp45
 70
     1
102
RTVSPropertyOp46
 70
     1
102
RTVSPropertyOp47
 70
     1
102
RTVSPropertyOp48
 70
     1
102
RTVSPropertyOp49
 70
     1
102
RTVSPropertyOp50
 70
     1
102
RTVSPropertyOp51
 70
     0
102
RTVSPropertyOp52
 70
     0
102
RTVSPropertyOp53
 70
     1
102
RTVSPropertyOp54
 70
     1
102
RTVSPropertyOp55
 70
     1
102
RTVSPropertyOp56
 70
     1
102
RTVSPropertyOp57
 70
     1
102
RTVSPost2010Prop28
280
     0
102
RTVSPost2010PropOp28
 70
     1
102
RTVSPost2010Prop29
280
     1
102
RTVSPost2010PropOp29
 70
     1
102
RTVSPost2010Prop30
280
     1
102
RTVSPost2010PropOp30
 70
     1
102
RTVSPost2010Prop31
280
     0
102
RTVSPost2010PropOp31
 70
     1
102
RTVSPost2010Prop32
280
     0
102
RTVSPost2010PropOp32
 70
     1
102
RTVSPost2010Prop33
280
     0
102
RTVSPost2010PropOp33
 70
     1
102
RTVSPost2010Prop34
280
     0
102
RTVSPost2010PropOp34
 70
     1
102
RTVSPost2010Prop35
280
     0
102
RTVSPost2010PropOp35
 70
     1
102
RTVSPost2010Prop36
280
     0
102
RTVSPost2010PropOp36
 70
     1
102
RTVSPost2010Prop37
 90
       50
102
RTVSPost2010PropOp37
 70
     1
102
RTVSPost2010Prop38
140
0.0
102
RTVSPost2010PropOp38
 70
     1
102
RTVSPost2010Prop39
140
1.0
102
RTVSPost2010PropOp39
 70
     1
102
RTVSPost2010Prop40
 90
        0
102
RTVSPost2010PropOp40
 70
     1
102
RTVSPost2010Prop41ColorIndex
 90
       18
102
RTVSPost2010Prop41ColorRGB
 90
        0
102
RTVSPost2010PropOp41
 70
     1
102
RTVSPost2010Prop42
 90
       50
102
RTVSPost2010PropOp42
 70
     1
102
RTVSPost2010Prop43
 90
        3
102
RTVSPost2010PropOp43
 70
     1
102
RTVSPost2010Prop44ColorIndex
 90
        5
102
RTVSPost2010Prop44ColorRGB
 90
      255
102
RTVSPost2010PropOp44
 70
     1
102
RTVSPost2010Prop45
280
     0
102
RTVSPost2010PropOp45
 70
     1
102
RTVSPost2010Prop46
 90
       50
102
RTVSPost2010PropOp46
 70
     1
102
RTVSPost2010Prop47
 90
       50
102
RTVSPost2010PropOp47
 70
     1
102
RTVSPost2010Prop48
 90
       50
102
RTVSPost2010PropOp48
 70
     1
102
RTVSPost2010Prop49
280
     0
102
RTVSPost2010PropOp49
 70
     1
102
RTVSPost2010Prop50
 90
       50
102
RTVSPost2010PropOp50
 70
     1
102
RTVSPost2010Prop51ColorIndex
 90
      256
102
RTVSPost2010Prop51ColorRGB
 90
-16777216
102
RTVSPost2010PropOp51
 70
     0
102
RTVSPost2010Prop52
140
1.0
102
RTVSPost2010PropOp52
 70
     0
102
RTVSPost2010Prop53
 90
        2
102
RTVSPost2010PropOp53
 70
     1
102
RTVSPost2010Prop54
  1
strokes_ogs.tif
102
RTVSPost2010PropOp54
 70
     1
102
RTVSPost2010Prop55
280
     0
102
RTVSPost2010PropOp55
 70
     1
102
RTVSPost2010Prop56
140
1.0
102
RTVSPost2010PropOp56
 70
     1
102
RTVSPost2010Prop57
140
1.0
102
RTVSPost2010PropOp57
 70
     1
  0
XRECORD
  5
E6
102
{ACAD_REACTORS
330
E5
102
}
330
E5
100
AcDbXrecord
280
     1
102
RTVSPropertyOp0
 70
     1
102
RTVSPropertyOp1
 70
     1
102
RTVSPropertyOp2
 70
     1
102
RTVSPropertyOp3
 70
     1
102
RTVSPropertyOp4
 70
     1
102
RTVSPropertyOp5
 70
     1
102
RTVSPropertyOp6
 70
     1
102
RTVSPropertyOp7
 70
     1
102
RTVSPropertyOp8
 70
     1
102
RTVSPropertyOp9
 70
     1
102
RTVSPropertyOp10
 70
     1
102
RTVSPropertyOp11
 70
     1
102
RTVSPropertyOp12
 70
     1
102
RTVSPropertyOp13
 70
     1
102
RTVSPropertyOp14
 70
     1
102
RTVSPropertyOp15
 70
     1
102
RTVSPropertyOp16
 70
     1
102
RTVSPropertyOp17
 70
     1
102
RTVSPropertyOp18
 70
     1
102
RTVSPropertyOp19
 70
     1
102
RTVSPropertyOp20
 70
     1
102
RTVSPropertyOp21
 70
     1
102
RTVSPropertyOp22
 70
     1
102
RTVSPropertyOp23
 70
     1
102
RTVSPropertyOp24
 70
     1
102
RTVSPropertyOp25
 70
     1
102
RTVSPropertyOp26
 70
     1
102
RTVSPropertyOp27
 70
     1
102
RTVSPropertyOp28
 70
     1
102
RTVSPropertyOp29
 70
     1
102
RTVSPropertyOp30
 70
     1
102
RTVSPropertyOp31
 70
     1
102
RTVSPropertyOp32
 70
     1
102
RTVSPropertyOp33
 70
     1
102
RTVSPropertyOp34
 70
     1
102
RTVSPropertyOp35
 70
     1
102
RTVSPropertyOp36
 70
     1
102
RTVSPropertyOp37
 70
     1
102
RTVSPropertyOp38
 70
     1
102
RTVSPropertyOp39
 70
     1
102
RTVSPropertyOp40
 70
     1
102
RTVSPropertyOp41
 70
     1
102
RTVSPropertyOp42
 70
     1
102
RTVSPropertyOp43
 70
     1
102
RTVSPropertyOp44
 70
     1
102
RTVSPropertyOp45
 70
     1
102
RTVSPropertyOp46
 70
     1
102
RTVSPropertyOp47
 70
     1
102
RTVSPropertyOp48
 70
     1
102
RTVSPropertyOp49
 70
     1
102
RTVSPropertyOp50
 70
     1
102
RTVSPropertyOp51
 70
     0
102
RTVSPropertyOp52
 70
     0
102
RTVSPropertyOp53
 70
     1
102
RTVSPropertyOp54
 70
     1
102
RTVSPropertyOp55
 70
     1
102
RTVSPropertyOp56
 70
     1
102
RTVSPropertyOp57
 70
     1
102
RTVSPost2010Prop28
280
     0
102
RTVSPost2010PropOp28
 70
     1
102
RTVSPost2010Prop29
280
     1
102
RTVSPost2010PropOp29
 70
     1
102
RTVSPost2010Prop30
280
     1
102
RTVSPost2010PropOp30
 70
     1
102
RTVSPost2010Prop31
280
     0
102
RTVSPost2010PropOp31
 70
     1
102
RTVSPost2010Prop32
280
     0
102
RTVSPost2010PropOp32
 70
     1
102
RTVSPost2010Prop33
280
     0
102
RTVSPost2010PropOp33
 70
     1
102
RTVSPost2010Prop34
280
     0
102
RTVSPost2010PropOp34
 70
     1
102
RTVSPost2010Prop35
280
     0
102
RTVSPost2010PropOp35
 70
     1
102
RTVSPost2010Prop36
280
     0
102
RTVSPost2010PropOp36
 70
     1
102
RTVSPost2010Prop37
 90
       50
102
RTVSPost2010PropOp37
 70
     1
102
RTVSPost2010Prop38
140
0.0
102
RTVSPost2010PropOp38
 70
     1
102
RTVSPost2010Prop39
140
1.0
102
RTVSPost2010PropOp39
 70
     1
102
RTVSPost2010Prop40
 90
        0
102
RTVSPost2010PropOp40
 70
     1
102
RTVSPost2010Prop41ColorIndex
 90
       18
102
RTVSPost2010Prop41ColorRGB
 90
        0
102
RTVSPost2010PropOp41
 70
     1
102
RTVSPost2010Prop42
 90
       50
102
RTVSPost2010PropOp42
 70
     1
102
RTVSPost2010Prop43
 90
        3
102
RTVSPost2010PropOp43
 70
     1
102
RTVSPost2010Prop44ColorIndex
 90
        5
102
RTVSPost2010Prop44ColorRGB
 90
      255
102
RTVSPost2010PropOp44
 70
     1
102
RTVSPost2010Prop45
280
     0
102
RTVSPost2010PropOp45
 70
     1
102
RTVSPost2010Prop46
 90
       50
102
RTVSPost2010PropOp46
 70
     1
102
RTVSPost2010Prop47
 90
       50
102
RTVSPost2010PropOp47
 70
     1
102
RTVSPost2010Prop48
 90
       50
102
RTVSPost2010PropOp48
 70
     1
102
RTVSPost2010Prop49
280
     0
102
RTVSPost2010PropOp49
 70
     1
102
RTVSPost2010Prop50
 90
       50
102
RTVSPost2010PropOp50
 70
     1
102
RTVSPost2010Prop51ColorIndex
 90
      256
102
RTVSPost2010Prop51ColorRGB
 90
-16777216
102
RTVSPost2010PropOp51
 70
     0
102
RTVSPost2010Prop52
140
1.0
102
RTVSPost2010PropOp52
 70
     0
102
RTVSPost2010Prop53
 90
        2
102
RTVSPost2010PropOp53
 70
     1
102
RTVSPost2010Prop54
  1
strokes_ogs.tif
102
RTVSPost2010PropOp54
 70
     1
102
RTVSPost2010Prop55
280
     0
102
RTVSPost2010PropOp55
 70
     1
102
RTVSPost2010Prop56
140
1.0
102
RTVSPost2010PropOp56
 70
     1
102
RTVSPost2010Prop57
140
1.0
102
RTVSPost2010PropOp57
 70
     1
  0
XRECORD
  5
E8
102
{ACAD_REACTORS
330
E7
102
}
330
E7
100
AcDbXrecord
280
     1
102
RTVSPropertyOp0
 70
     1
102
RTVSPropertyOp1
 70
     1
102
RTVSPropertyOp2
 70
     1
102
RTVSPropertyOp3
 70
     1
102
RTVSPropertyOp4
 70
     1
102
RTVSPropertyOp5
 70
     1
102
RTVSPropertyOp6
 70
     1
102
RTVSPropertyOp7
 70
     1
102
RTVSPropertyOp8
 70
     1
102
RTVSPropertyOp9
 70
     1
102
RTVSPropertyOp10
 70
     1
102
RTVSPropertyOp11
 70
     1
102
RTVSPropertyOp12
 70
     1
102
RTVSPropertyOp13
 70
     1
102
RTVSPropertyOp14
 70
     1
102
RTVSPropertyOp15
 70
     1
102
RTVSPropertyOp16
 70
     1
102
RTVSPropertyOp17
 70
     1
102
RTVSPropertyOp18
 70
     1
102
RTVSPropertyOp19
 70
     1
102
RTVSPropertyOp20
 70
     1
102
RTVSPropertyOp21
 70
     1
102
RTVSPropertyOp22
 70
     1
102
RTVSPropertyOp23
 70
     1
102
RTVSPropertyOp24
 70
     1
102
RTVSPropertyOp25
 70
     1
102
RTVSPropertyOp26
 70
     1
102
RTVSPropertyOp27
 70
     1
102
RTVSPropertyOp28
 70
     1
102
RTVSPropertyOp29
 70
     1
102
RTVSPropertyOp30
 70
     1
102
RTVSPropertyOp31
 70
     1
102
RTVSPropertyOp32
 70
     1
102
RTVSPropertyOp33
 70
     1
102
RTVSPropertyOp34
 70
     1
102
RTVSPropertyOp35
 70
     1
102
RTVSPropertyOp36
 70
     1
102
RTVSPropertyOp37
 70
     1
102
RTVSPropertyOp38
 70
     1
102
RTVSPropertyOp39
 70
     1
102
RTVSPropertyOp40
 70
     1
102
RTVSPropertyOp41
 70
     1
102
RTVSPropertyOp42
 70
     1
102
RTVSPropertyOp43
 70
     1
102
RTVSPropertyOp44
 70
     1
102
RTVSPropertyOp45
 70
     1
102
RTVSPropertyOp46
 70
     1
102
RTVSPropertyOp47
 70
     1
102
RTVSPropertyOp48
 70
     1
102
RTVSPropertyOp49
 70
     1
102
RTVSPropertyOp50
 70
     1
102
RTVSPropertyOp51
 70
     0
102
RTVSPropertyOp52
 70
     0
102
RTVSPropertyOp53
 70
     1
102
RTVSPropertyOp54
 70
     1
102
RTVSPropertyOp55
 70
     1
102
RTVSPropertyOp56
 70
     1
102
RTVSPropertyOp57
 70
     1
102
RTVSPost2010Prop28
280
     0
102
RTVSPost2010PropOp28
 70
     1
102
RTVSPost2010Prop29
280
     1
102
RTVSPost2010PropOp29
 70
     1
102
RTVSPost2010Prop30
280
     1
102
RTVSPost2010PropOp30
 70
     1
102
RTVSPost2010Prop31
280
     0
102
RTVSPost2010PropOp31
 70
     1
102
RTVSPost2010Prop32
280
     0
102
RTVSPost2010PropOp32
 70
     1
102
RTVSPost2010Prop33
280
     0
102
RTVSPost2010PropOp33
 70
     1
102
RTVSPost2010Prop34
280
     0
102
RTVSPost2010PropOp34
 70
     1
102
RTVSPost2010Prop35
280
     0
102
RTVSPost2010PropOp35
 70
     1
102
RTVSPost2010Prop36
280
     0
102
RTVSPost2010PropOp36
 70
     1
102
RTVSPost2010Prop37
 90
       50
102
RTVSPost2010PropOp37
 70
     1
102
RTVSPost2010Prop38
140
0.0
102
RTVSPost2010PropOp38
 70
     1
102
RTVSPost2010Prop39
140
1.0
102
RTVSPost2010PropOp39
 70
     1
102
RTVSPost2010Prop40
 90
        0
102
RTVSPost2010PropOp40
 70
     1
102
RTVSPost2010Prop41ColorIndex
 90
       18
102
RTVSPost2010Prop41ColorRGB
 90
        0
102
RTVSPost2010PropOp41
 70
     1
102
RTVSPost2010Prop42
 90
       50
102
RTVSPost2010PropOp42
 70
     1
102
RTVSPost2010Prop43
 90
        3
102
RTVSPost2010PropOp43
 70
     1
102
RTVSPost2010Prop44ColorIndex
 90
        5
102
RTVSPost2010Prop44ColorRGB
 90
      255
102
RTVSPost2010PropOp44
 70
     1
102
RTVSPost2010Prop45
280
     0
102
RTVSPost2010PropOp45
 70
     1
102
RTVSPost2010Prop46
 90
       50
102
RTVSPost2010PropOp46
 70
     1
102
RTVSPost2010Prop47
 90
       50
102
RTVSPost2010PropOp47
 70
     1
102
RTVSPost2010Prop48
 90
       50
102
RTVSPost2010PropOp48
 70
     1
102
RTVSPost2010Prop49
280
     0
102
RTVSPost2010PropOp49
 70
     1
102
RTVSPost2010Prop50
 90
       50
102
RTVSPost2010PropOp50
 70
     1
102
RTVSPost2010Prop51ColorIndex
 90
      256
102
RTVSPost2010Prop51ColorRGB
 90
-16777216
102
RTVSPost2010PropOp51
 70
     0
102
RTVSPost2010Prop52
140
1.0
102
RTVSPost2010PropOp52
 70
     0
102
RTVSPost2010Prop53
 90
        2
102
RTVSPost2010PropOp53
 70
     1
102
RTVSPost2010Prop54
  1
strokes_ogs.tif
102
RTVSPost2010PropOp54
 70
     1
102
RTVSPost2010Prop55
280
     0
102
RTVSPost2010PropOp55
 70
     1
102
RTVSPost2010Prop56
140
1.0
102
RTVSPost2010PropOp56
 70
     1
102
RTVSPost2010Prop57
140
1.0
102
RTVSPost2010PropOp57
 70
     1
  0
XRECORD
  5
D8
102
{ACAD_REACTORS
330
D7
102
}
330
D7
100
AcDbXrecord
280
     1
102
RTVSPropertyOp0
 70
     1
102
RTVSPropertyOp1
 70
     1
102
RTVSPropertyOp2
 70
     1
102
RTVSPropertyOp3
 70
     1
102
RTVSPropertyOp4
 70
     1
102
RTVSPropertyOp5
 70
     1
102
RTVSPropertyOp6
 70
     1
102
RTVSPropertyOp7
 70
     1
102
RTVSPropertyOp8
 70
     1
102
RTVSPropertyOp9
 70
     1
102
RTVSPropertyOp10
 70
     1
102
RTVSPropertyOp11
 70
     1
102
RTVSPropertyOp12
 70
     1
102
RTVSPropertyOp13
 70
     1
102
RTVSPropertyOp14
 70
     1
102
RTVSPropertyOp15
 70
     1
102
RTVSPropertyOp16
 70
     1
102
RTVSPropertyOp17
 70
     1
102
RTVSPropertyOp18
 70
     1
102
RTVSPropertyOp19
 70
     1
102
RTVSPropertyOp20
 70
     1
102
RTVSPropertyOp21
 70
     1
102
RTVSPropertyOp22
 70
     1
102
RTVSPropertyOp23
 70
     1
102
RTVSPropertyOp24
 70
     1
102
RTVSPropertyOp25
 70
     1
102
RTVSPropertyOp26
 70
     1
102
RTVSPropertyOp27
 70
     1
102
RTVSPropertyOp28
 70
     1
102
RTVSPropertyOp29
 70
     1
102
RTVSPropertyOp30
 70
     1
102
RTVSPropertyOp31
 70
     1
102
RTVSPropertyOp32
 70
     1
102
RTVSPropertyOp33
 70
     1
102
RTVSPropertyOp34
 70
     1
102
RTVSPropertyOp35
 70
     1
102
RTVSPropertyOp36
 70
     1
102
RTVSPropertyOp37
 70
     1
102
RTVSPropertyOp38
 70
     1
102
RTVSPropertyOp39
 70
     1
102
RTVSPropertyOp40
 70
     1
102
RTVSPropertyOp41
 70
     1
102
RTVSPropertyOp42
 70
     1
102
RTVSPropertyOp43
 70
     1
102
RTVSPropertyOp44
 70
     1
102
RTVSPropertyOp45
 70
     1
102
RTVSPropertyOp46
 70
     1
102
RTVSPropertyOp47
 70
     1
102
RTVSPropertyOp48
 70
     1
102
RTVSPropertyOp49
 70
     1
102
RTVSPropertyOp50
 70
     1
102
RTVSPropertyOp51
 70
     0
102
RTVSPropertyOp52
 70
     0
102
RTVSPropertyOp53
 70
     1
102
RTVSPropertyOp54
 70
     1
102
RTVSPropertyOp55
 70
     1
102
RTVSPropertyOp56
 70
     1
102
RTVSPropertyOp57
 70
     1
102
RTVSPost2010Prop28
280
     0
102
RTVSPost2010PropOp28
 70
     1
102
RTVSPost2010Prop29
280
     1
102
RTVSPost2010PropOp29
 70
     1
102
RTVSPost2010Prop30
280
     1
102
RTVSPost2010PropOp30
 70
     1
102
RTVSPost2010Prop31
280
     0
102
RTVSPost2010PropOp31
 70
     1
102
RTVSPost2010Prop32
280
     0
102
RTVSPost2010PropOp32
 70
     1
102
RTVSPost2010Prop33
280
     0
102
RTVSPost2010PropOp33
 70
     1
102
RTVSPost2010Prop34
280
     0
102
RTVSPost2010PropOp34
 70
     1
102
RTVSPost2010Prop35
280
     0
102
RTVSPost2010PropOp35
 70
     1
102
RTVSPost2010Prop36
280
     0
102
RTVSPost2010PropOp36
 70
     1
102
RTVSPost2010Prop37
 90
       50
102
RTVSPost2010PropOp37
 70
     1
102
RTVSPost2010Prop38
140
0.0
102
RTVSPost2010PropOp38
 70
     1
102
RTVSPost2010Prop39
140
1.0
102
RTVSPost2010PropOp39
 70
     1
102
RTVSPost2010Prop40
 90
        0
102
RTVSPost2010PropOp40
 70
     1
102
RTVSPost2010Prop41ColorIndex
 90
       18
102
RTVSPost2010Prop41ColorRGB
 90
        0
102
RTVSPost2010PropOp41
 70
     1
102
RTVSPost2010Prop42
 90
       50
102
RTVSPost2010PropOp42
 70
     1
102
RTVSPost2010Prop43
 90
        3
102
RTVSPost2010PropOp43
 70
     1
102
RTVSPost2010Prop44ColorIndex
 90
        5
102
RTVSPost2010Prop44ColorRGB
 90
      255
102
RTVSPost2010PropOp44
 70
     1
102
RTVSPost2010Prop45
280
     0
102
RTVSPost2010PropOp45
 70
     1
102
RTVSPost2010Prop46
 90
       50
102
RTVSPost2010PropOp46
 70
     1
102
RTVSPost2010Prop47
 90
       50
102
RTVSPost2010PropOp47
 70
     1
102
RTVSPost2010Prop48
 90
       50
102
RTVSPost2010PropOp48
 70
     1
102
RTVSPost2010Prop49
280
     0
102
RTVSPost2010PropOp49
 70
     1
102
RTVSPost2010Prop50
 90
       50
102
RTVSPost2010PropOp50
 70
     1
102
RTVSPost2010Prop51ColorIndex
 90
      256
102
RTVSPost2010Prop51ColorRGB
 90
-16777216
102
RTVSPost2010PropOp51
 70
     0
102
RTVSPost2010Prop52
140
1.0
102
RTVSPost2010PropOp52
 70
     0
102
RTVSPost2010Prop53
 90
        2
102
RTVSPost2010PropOp53
 70
     1
102
RTVSPost2010Prop54
  1
strokes_ogs.tif
102
RTVSPost2010PropOp54
 70
     1
102
RTVSPost2010Prop55
280
     0
102
RTVSPost2010PropOp55
 70
     1
102
RTVSPost2010Prop56
140
1.0
102
RTVSPost2010PropOp56
 70
     1
102
RTVSPost2010Prop57
140
1.0
102
RTVSPost2010PropOp57
 70
     1
  0
XRECORD
  5
CA
102
{ACAD_REACTORS
330
C9
102
}
330
C9
100
AcDbXrecord
280
     1
102
RTVSPropertyOp0
 70
     1
102
RTVSPropertyOp1
 70
     1
102
RTVSPropertyOp2
 70
     1
102
RTVSPropertyOp3
 70
     1
102
RTVSPropertyOp4
 70
     1
102
RTVSPropertyOp5
 70
     1
102
RTVSPropertyOp6
 70
     1
102
RTVSPropertyOp7
 70
     1
102
RTVSPropertyOp8
 70
     1
102
RTVSPropertyOp9
 70
     1
102
RTVSPropertyOp10
 70
     1
102
RTVSPropertyOp11
 70
     1
102
RTVSPropertyOp12
 70
     1
102
RTVSPropertyOp13
 70
     1
102
RTVSPropertyOp14
 70
     1
102
RTVSPropertyOp15
 70
     1
102
RTVSPropertyOp16
 70
     1
102
RTVSPropertyOp17
 70
     1
102
RTVSPropertyOp18
 70
     1
102
RTVSPropertyOp19
 70
     1
102
RTVSPropertyOp20
 70
     1
102
RTVSPropertyOp21
 70
     1
102
RTVSPropertyOp22
 70
     1
102
RTVSPropertyOp23
 70
     1
102
RTVSPropertyOp24
 70
     1
102
RTVSPropertyOp25
 70
     1
102
RTVSPropertyOp26
 70
     1
102
RTVSPropertyOp27
 70
     1
102
RTVSPropertyOp28
 70
     1
102
RTVSPropertyOp29
 70
     1
102
RTVSPropertyOp30
 70
     1
102
RTVSPropertyOp31
 70
     1
102
RTVSPropertyOp32
 70
     1
102
RTVSPropertyOp33
 70
     1
102
RTVSPropertyOp34
 70
     1
102
RTVSPropertyOp35
 70
     1
102
RTVSPropertyOp36
 70
     1
102
RTVSPropertyOp37
 70
     1
102
RTVSPropertyOp38
 70
     1
102
RTVSPropertyOp39
 70
     1
102
RTVSPropertyOp40
 70
     1
102
RTVSPropertyOp41
 70
     1
102
RTVSPropertyOp42
 70
     1
102
RTVSPropertyOp43
 70
     1
102
RTVSPropertyOp44
 70
     1
102
RTVSPropertyOp45
 70
     1
102
RTVSPropertyOp46
 70
     1
102
RTVSPropertyOp47
 70
     1
102
RTVSPropertyOp48
 70
     1
102
RTVSPropertyOp49
 70
     1
102
RTVSPropertyOp50
 70
     1
102
RTVSPropertyOp51
 70
     0
102
RTVSPropertyOp52
 70
     0
102
RTVSPropertyOp53
 70
     1
102
RTVSPropertyOp54
 70
     1
102
RTVSPropertyOp55
 70
     1
102
RTVSPropertyOp56
 70
     1
102
RTVSPropertyOp57
 70
     1
102
RTVSPost2010Prop28
280
     0
102
RTVSPost2010PropOp28
 70
     1
102
RTVSPost2010Prop29
280
     1
102
RTVSPost2010PropOp29
 70
     1
102
RTVSPost2010Prop30
280
     1
102
RTVSPost2010PropOp30
 70
     1
102
RTVSPost2010Prop31
280
     0
102
RTVSPost2010PropOp31
 70
     1
102
RTVSPost2010Prop32
280
     0
102
RTVSPost2010PropOp32
 70
     1
102
RTVSPost2010Prop33
280
     0
102
RTVSPost2010PropOp33
 70
     1
102
RTVSPost2010Prop34
280
     0
102
RTVSPost2010PropOp34
 70
     1
102
RTVSPost2010Prop35
280
     0
102
RTVSPost2010PropOp35
 70
     1
102
RTVSPost2010Prop36
280
     0
102
RTVSPost2010PropOp36
 70
     1
102
RTVSPost2010Prop37
 90
       50
102
RTVSPost2010PropOp37
 70
     1
102
RTVSPost2010Prop38
140
0.0
102
RTVSPost2010PropOp38
 70
     1
102
RTVSPost2010Prop39
140
1.0
102
RTVSPost2010PropOp39
 70
     1
102
RTVSPost2010Prop40
 90
        0
102
RTVSPost2010PropOp40
 70
     1
102
RTVSPost2010Prop41ColorIndex
 90
       18
102
RTVSPost2010Prop41ColorRGB
 90
        0
102
RTVSPost2010PropOp41
 70
     1
102
RTVSPost2010Prop42
 90
       50
102
RTVSPost2010PropOp42
 70
     1
102
RTVSPost2010Prop43
 90
        3
102
RTVSPost2010PropOp43
 70
     1
102
RTVSPost2010Prop44ColorIndex
 90
        5
102
RTVSPost2010Prop44ColorRGB
 90
      255
102
RTVSPost2010PropOp44
 70
     1
102
RTVSPost2010Prop45
280
     0
102
RTVSPost2010PropOp45
 70
     1
102
RTVSPost2010Prop46
 90
       50
102
RTVSPost2010PropOp46
 70
     1
102
RTVSPost2010Prop47
 90
       50
102
RTVSPost2010PropOp47
 70
     1
102
RTVSPost2010Prop48
 90
       50
102
RTVSPost2010PropOp48
 70
     1
102
RTVSPost2010Prop49
280
     0
102
RTVSPost2010PropOp49
 70
     1
102
RTVSPost2010Prop50
 90
       50
102
RTVSPost2010PropOp50
 70
     1
102
RTVSPost2010Prop51ColorIndex
 90
      256
102
RTVSPost2010Prop51ColorRGB
 90
-16777216
102
RTVSPost2010PropOp51
 70
     0
102
RTVSPost2010Prop52
140
1.0
102
RTVSPost2010PropOp52
 70
     0
102
RTVSPost2010Prop53
 90
        2
102
RTVSPost2010PropOp53
 70
     1
102
RTVSPost2010Prop54
  1
strokes_ogs.tif
102
RTVSPost2010PropOp54
 70
     1
102
RTVSPost2010Prop55
280
     0
102
RTVSPost2010PropOp55
 70
     1
102
RTVSPost2010Prop56
140
1.0
102
RTVSPost2010PropOp56
 70
     1
102
RTVSPost2010Prop57
140
1.0
102
RTVSPost2010PropOp57
 70
     1
  0
XRECORD
  5
EA
102
{ACAD_REACTORS
330
E9
102
}
330
E9
100
AcDbXrecord
280
     1
102
RTVSPropertyOp0
 70
     1
102
RTVSPropertyOp1
 70
     1
102
RTVSPropertyOp2
 70
     1
102
RTVSPropertyOp3
 70
     1
102
RTVSPropertyOp4
 70
     1
102
RTVSPropertyOp5
 70
     1
102
RTVSPropertyOp6
 70
     1
102
RTVSPropertyOp7
 70
     1
102
RTVSPropertyOp8
 70
     1
102
RTVSPropertyOp9
 70
     1
102
RTVSPropertyOp10
 70
     1
102
RTVSPropertyOp11
 70
     1
102
RTVSPropertyOp12
 70
     1
102
RTVSPropertyOp13
 70
     1
102
RTVSPropertyOp14
 70
     1
102
RTVSPropertyOp15
 70
     1
102
RTVSPropertyOp16
 70
     1
102
RTVSPropertyOp17
 70
     1
102
RTVSPropertyOp18
 70
     1
102
RTVSPropertyOp19
 70
     1
102
RTVSPropertyOp20
 70
     1
102
RTVSPropertyOp21
 70
     1
102
RTVSPropertyOp22
 70
     1
102
RTVSPropertyOp23
 70
     1
102
RTVSPropertyOp24
 70
     1
102
RTVSPropertyOp25
 70
     1
102
RTVSPropertyOp26
 70
     1
102
RTVSPropertyOp27
 70
     1
102
RTVSPropertyOp28
 70
     1
102
RTVSPropertyOp29
 70
     1
102
RTVSPropertyOp30
 70
     1
102
RTVSPropertyOp31
 70
     1
102
RTVSPropertyOp32
 70
     1
102
RTVSPropertyOp33
 70
     1
102
RTVSPropertyOp34
 70
     1
102
RTVSPropertyOp35
 70
     1
102
RTVSPropertyOp36
 70
     1
102
RTVSPropertyOp37
 70
     1
102
RTVSPropertyOp38
 70
     1
102
RTVSPropertyOp39
 70
     1
102
RTVSPropertyOp40
 70
     1
102
RTVSPropertyOp41
 70
     1
102
RTVSPropertyOp42
 70
     1
102
RTVSPropertyOp43
 70
     1
102
RTVSPropertyOp44
 70
     1
102
RTVSPropertyOp45
 70
     1
102
RTVSPropertyOp46
 70
     1
102
RTVSPropertyOp47
 70
     1
102
RTVSPropertyOp48
 70
     1
102
RTVSPropertyOp49
 70
     1
102
RTVSPropertyOp50
 70
     1
102
RTVSPropertyOp51
 70
     0
102
RTVSPropertyOp52
 70
     0
102
RTVSPropertyOp53
 70
     1
102
RTVSPropertyOp54
 70
     1
102
RTVSPropertyOp55
 70
     1
102
RTVSPropertyOp56
 70
     1
102
RTVSPropertyOp57
 70
     1
102
RTVSPost2010Prop28
280
     0
102
RTVSPost2010PropOp28
 70
     1
102
RTVSPost2010Prop29
280
     1
102
RTVSPost2010PropOp29
 70
     1
102
RTVSPost2010Prop30
280
     1
102
RTVSPost2010PropOp30
 70
     1
102
RTVSPost2010Prop31
280
     0
102
RTVSPost2010PropOp31
 70
     1
102
RTVSPost2010Prop32
280
     0
102
RTVSPost2010PropOp32
 70
     1
102
RTVSPost2010Prop33
280
     0
102
RTVSPost2010PropOp33
 70
     1
102
RTVSPost2010Prop34
280
     0
102
RTVSPost2010PropOp34
 70
     1
102
RTVSPost2010Prop35
280
     0
102
RTVSPost2010PropOp35
 70
     1
102
RTVSPost2010Prop36
280
     0
102
RTVSPost2010PropOp36
 70
     1
102
RTVSPost2010Prop37
 90
       50
102
RTVSPost2010PropOp37
 70
     1
102
RTVSPost2010Prop38
140
0.0
102
RTVSPost2010PropOp38
 70
     1
102
RTVSPost2010Prop39
140
1.0
102
RTVSPost2010PropOp39
 70
     1
102
RTVSPost2010Prop40
 90
        0
102
RTVSPost2010PropOp40
 70
     1
102
RTVSPost2010Prop41ColorIndex
 90
       18
102
RTVSPost2010Prop41ColorRGB
 90
        0
102
RTVSPost2010PropOp41
 70
     1
102
RTVSPost2010Prop42
 90
       50
102
RTVSPost2010PropOp42
 70
     1
102
RTVSPost2010Prop43
 90
        3
102
RTVSPost2010PropOp43
 70
     1
102
RTVSPost2010Prop44ColorIndex
 90
        5
102
RTVSPost2010Prop44ColorRGB
 90
      255
102
RTVSPost2010PropOp44
 70
     1
102
RTVSPost2010Prop45
280
     0
102
RTVSPost2010PropOp45
 70
     1
102
RTVSPost2010Prop46
 90
       50
102
RTVSPost2010PropOp46
 70
     1
102
RTVSPost2010Prop47
 90
       50
102
RTVSPost2010PropOp47
 70
     1
102
RTVSPost2010Prop48
 90
       50
102
RTVSPost2010PropOp48
 70
     1
102
RTVSPost2010Prop49
280
     0
102
RTVSPost2010PropOp49
 70
     1
102
RTVSPost2010Prop50
 90
       50
102
RTVSPost2010PropOp50
 70
     1
102
RTVSPost2010Prop51ColorIndex
 90
      256
102
RTVSPost2010Prop51ColorRGB
 90
-16777216
102
RTVSPost2010PropOp51
 70
     0
102
RTVSPost2010Prop52
140
1.0
102
RTVSPost2010PropOp52
 70
     0
102
RTVSPost2010Prop53
 90
        2
102
RTVSPost2010PropOp53
 70
     1
102
RTVSPost2010Prop54
  1
strokes_ogs.tif
102
RTVSPost2010PropOp54
 70
     1
102
RTVSPost2010Prop55
280
     0
102
RTVSPost2010PropOp55
 70
     1
102
RTVSPost2010Prop56
140
1.0
102
RTVSPost2010PropOp56
 70
     1
102
RTVSPost2010Prop57
140
1.0
102
RTVSPost2010PropOp57
 70
     1
  0
ENDSEC
  0
EOF
