  0
SECTION
  2
HEADER
  9
$ACADVER
  1
AC1015
  9
$ACADMAINTVER
 70
     6
  9
$DWGCODEPAGE
  3
ANSI_1252
  9
$INSBASE
 10
0.0
 20
0.0
 30
0.0
  9
$EXTMIN
 10
1.000000000000000E+20
 20
1.000000000000000E+20
 30
1.000000000000000E+20
  9
$EXTMAX
 10
-1.000000000000000E+20
 20
-1.000000000000000E+20
 30
-1.000000000000000E+20
  9
$LIMMIN
 10
0.0
 20
0.0
  9
$LIMMAX
 10
12.0
 20
9.0
  9
$ORTHOMODE
 70
     0
  9
$REGENMODE
 70
     1
  9
$FILLMODE
 70
     1
  9
$QTEXTMODE
 70
     0
  9
$MIRRTEXT
 70
     1
  9
$LTSCALE
 40
1.0
  9
$ATTMODE
 70
     1
  9
$TEXTSIZE
 40
0.2
  9
$TRACEWID
 40
0.05
  9
$TEXTSTYLE
  7
Standard
  9
$CLAYER
  8
0
  9
$CELTYPE
  6
ByLayer
  9
$CECOLOR
 62
   256
  9
$CELTSCALE
 40
1.0
  9
$DISPSILH
 70
     0
  9
$DIMSCALE
 40
1.0
  9
$DIMASZ
 40
0.18
  9
$DIMEXO
 40
0.0625
  9
$DIMDLI
 40
0.38
  9
$DIMRND
 40
0.0
  9
$DIMDLE
 40
0.0
  9
$DIMEXE
 40
0.18
  9
$DIMTP
 40
0.0
  9
$DIMTM
 40
0.0
  9
$DIMTXT
 40
0.18
  9
$DIMCEN
 40
0.09
  9
$DIMTSZ
 40
0.0
  9
$DIMTOL
 70
     0
  9
$DIMLIM
 70
     0
  9
$DIMTIH
 70
     1
  9
$DIMTOH
 70
     1
  9
$DIMSE1
 70
     0
  9
$DIMSE2
 70
     0
  9
$DIMTAD
 70
     0
  9
$DIMZIN
 70
     0
  9
$DIMBLK
  1

  9
$DIMASO
 70
     1
  9
$DIMSHO
 70
     1
  9
$DIMPOST
  1

  9
$DIMAPOST
  1

  9
$DIMALT
 70
     0
  9
$DIMALTD
 70
     2
  9
$DIMALTF
 40
25.4
  9
$DIMLFAC
 40
1.0
  9
$DIMTOFL
 70
     0
  9
$DIMTVP
 40
0.0
  9
$DIMTIX
 70
     0
  9
$DIMSOXD
 70
     0
  9
$DIMSAH
 70
     0
  9
$DIMBLK1
  1

  9
$DIMBLK2
  1

  9
$DIMSTYLE
  2
Standard
  9
$DIMCLRD
 70
     0
  9
$DIMCLRE
 70
     0
  9
$DIMCLRT
 70
     0
  9
$DIMTFAC
 40
1.0
  9
$DIMGAP
 40
0.09
  9
$DIMJUST
 70
     0
  9
$DIMSD1
 70
     0
  9
$DIMSD2
 70
     0
  9
$DIMTOLJ
 70
     1
  9
$DIMTZIN
 70
     0
  9
$DIMALTZ
 70
     0
  9
$DIMALTTZ
 70
     0
  9
$DIMUPT
 70
     0
  9
$DIMDEC
 70
     4
  9
$DIMTDEC
 70
     4
  9
$DIMALTU
 70
     2
  9
$DIMALTTD
 70
     2
  9
$DIMTXSTY
  7
Standard
  9
$DIMAUNIT
 70
     0
  9
$DIMADEC
 70
     0
  9
$DIMALTRND
 40
0.0
  9
$DIMAZIN
 70
     0
  9
$DIMDSEP
 70
    46
  9
$DIMATFIT
 70
     3
  9
$DIMFRAC
 70
     0
  9
$DIMLDRBLK
  1

  9
$DIMLUNIT
 70
     2
  9
$DIMLWD
 70
    -2
  9
$DIMLWE
 70
    -2
  9
$DIMTMOVE
 70
     0
  9
$LUNITS
 70
     2
  9
$LUPREC
 70
     4
  9
$SKETCHINC
 40
0.1
  9
$FILLETRAD
 40
0.5
  9
$AUNITS
 70
     0
  9
$AUPREC
 70
     0
  9
$MENU
  1
.
  9
$ELEVATION
 40
0.0
  9
$PELEVATION
 40
0.0
  9
$THICKNESS
 40
0.0
  9
$LIMCHECK
 70
     0
  9
$CHAMFERA
 40
0.5
  9
$CHAMFERB
 40
0.5
  9
$CHAMFERC
 40
1.0
  9
$CHAMFERD
 40
0.0
  9
$SKPOLY
 70
     0
  9
$TDCREATE
 40
2458449.49455765
  9
$TDUCREATE
 40
2458449.702890984
  9
$TDUPDATE
 40
2458449.494557662
  9
$TDUUPDATE
 40
2458449.702890995
  9
$TDINDWG
 40
0.0000000116
  9
$TDUSRTIMER
 40
0.0000000116
  9
$USRTIMER
 70
     1
  9
$ANGBASE
 50
0.0
  9
$ANGDIR
 70
     0
  9
$PDMODE
 70
     0
  9
$PDSIZE
 40
0.0
  9
$PLINEWID
 40
0.0
  9
$SPLFRAME
 70
     0
  9
$SPLINETYPE
 70
     6
  9
$SPLINESEGS
 70
     8
  9
$HANDSEED
  5
60
  9
$SURFTAB1
 70
     6
  9
$SURFTAB2
 70
     6
  9
$SURFTYPE
 70
     6
  9
$SURFU
 70
     6
  9
$SURFV
 70
     6
  9
$UCSBASE
  2

  9
$UCSNAME
  2

  9
$UCSORG
 10
0.0
 20
0.0
 30
0.0
  9
$UCSXDIR
 10
1.0
 20
0.0
 30
0.0
  9
$UCSYDIR
 10
0.0
 20
1.0
 30
0.0
  9
$UCSORTHOREF
  2

  9
$UCSORTHOVIEW
 70
     0
  9
$UCSORGTOP
 10
0.0
 20
0.0
 30
0.0
  9
$UCSORGBOTTOM
 10
0.0
 20
0.0
 30
0.0
  9
$UCSORGLEFT
 10
0.0
 20
0.0
 30
0.0
  9
$UCSORGRIGHT
 10
0.0
 20
0.0
 30
0.0
  9
$UCSORGFRONT
 10
0.0
 20
0.0
 30
0.0
  9
$UCSORGBACK
 10
0.0
 20
0.0
 30
0.0
  9
$PUCSBASE
  2

  9
$PUCSNAME
  2

  9
$PUCSORG
 10
0.0
 20
0.0
 30
0.0
  9
$PUCSXDIR
 10
1.0
 20
0.0
 30
0.0
  9
$PUCSYDIR
 10
0.0
 20
1.0
 30
0.0
  9
$PUCSORTHOREF
  2

  9
$PUCSORTHOVIEW
 70
     0
  9
$PUCSORGTOP
 10
0.0
 20
0.0
 30
0.0
  9
$PUCSORGBOTTOM
 10
0.0
 20
0.0
 30
0.0
  9
$PUCSORGLEFT
 10
0.0
 20
0.0
 30
0.0
  9
$PUCSORGRIGHT
 10
0.0
 20
0.0
 30
0.0
  9
$PUCSORGFRONT
 10
0.0
 20
0.0
 30
0.0
  9
$PUCSORGBACK
 10
0.0
 20
0.0
 30
0.0
  9
$USERI1
 70
     0
  9
$USERI2
 70
     0
  9
$USERI3
 70
     0
  9
$USERI4
 70
     0
  9
$USERI5
 70
     0
  9
$USERR1
 40
0.0
  9
$USERR2
 40
0.0
  9
$USERR3
 40
0.0
  9
$USERR4
 40
0.0
  9
$USERR5
 40
0.0
  9
$WORLDVIEW
 70
     1
  9
$SHADEDGE
 70
     3
  9
$SHADEDIF
 70
    70
  9
$TILEMODE
 70
     1
  9
$MAXACTVP
 70
    64
  9
$PINSBASE
 10
0.0
 20
0.0
 30
0.0
  9
$PLIMCHECK
 70
     0
  9
$PEXTMIN
 10
1.000000000000000E+20
 20
1.000000000000000E+20
 30
1.000000000000000E+20
  9
$PEXTMAX
 10
-1.000000000000000E+20
 20
-1.000000000000000E+20
 30
-1.000000000000000E+20
  9
$PLIMMIN
 10
0.0
 20
0.0
  9
$PLIMMAX
 10
12.0
 20
9.0
  9
$UNITMODE
 70
     0
  9
$VISRETAIN
 70
     1
  9
$PLINEGEN
 70
     0
  9
$PSLTSCALE
 70
     1
  9
$TREEDEPTH
 70
  3020
  9
$CMLSTYLE
  2
Standard
  9
$CMLJUST
 70
     0
  9
$CMLSCALE
 40
1.0
  9
$PROXYGRAPHICS
 70
     1
  9
$MEASUREMENT
 70
     0
  9
$CELWEIGHT
370
    -1
  9
$ENDCAPS
280
     0
  9
$JOINSTYLE
280
     0
  9
$LWDISPLAY
290
     1
  9
$INSUNITS
 70
     1
  9
$HYPERLINKBASE
  1

  9
$STYLESHEET
  1

  9
$XEDIT
290
     1
  9
$CEPSNTYPE
380
     0
  9
$PSTYLEMODE
290
     1
  9
$FINGERPRINTGUID
  2
{04A8B30A-8F34-4C9B-AA48-28F658689690}
  9
$VERSIONGUID
  2
{FAEB1C32-E019-11D5-929B-00C0DF256EC4}
  9
$EXTNAMES
290
     1
  9
$PSVPSCALE
 40
0.0
  9
$OLESTARTUP
290
     0
  0
ENDSEC
  0
SECTION
  2
CLASSES
  0
CLASS
  1
ACDBDICTIONARYWDFLT
  2
AcDbDictionaryWithDefault
  3
ObjectDBX Classes
 90
        0
280
     0
281
     0
  0
CLASS
  1
VISUALSTYLE
  2
AcDbVisualStyle
  3
ObjectDBX Classes
 90
     4095
280
     0
281
     0
  0
CLASS
  1
ACDBPLACEHOLDER
  2
AcDbPlaceHolder
  3
ObjectDBX Classes
 90
        0
280
     0
281
     0
  0
CLASS
  1
LAYOUT
  2
AcDbLayout
  3
ObjectDBX Classes
 90
        0
280
     0
281
     0
  0
ENDSEC
  0
SECTION
  2
TABLES
  0
TABLE
  2
VPORT
  5
8
330
0
100
AcDbSymbolTable
 70
     1
  0
VPORT
  5
29
330
8
100
AcDbSymbolTableRecord
100
AcDbViewportTableRecord
  2
*Active
 70
     0
 10
0.0
 20
0.0
 11
1.0
 21
1.0
 12
0.0
 22
0.0
 13
0.0
 23
0.0
 14
0.5
 24
0.5
 15
0.5
 25
0.5
 16
0.0
 26
0.0
 36
1.0
 17
500.0
 27
-500.0
 37
0.0
 40
1000.0
 41
1.0
 42
50.0
 43
0.0
 44
0.0
 50
0.0
 51
0.0
 71
     0
 72
   100
 73
     1
 74
     3
 75
     0
 76
     0
 77
     0
 78
     0
281
     0
 65
     1
110
0.0
120
0.0
130
0.0
111
1.0
121
0.0
131
0.0
112
0.0
122
1.0
132
0.0
 79
     0
146
0.0
  0
ENDTAB
  0
TABLE
  2
LTYPE
  5
5
330
0
100
AcDbSymbolTable
 70
     1
  0
LTYPE
  5
14
330
5
100
AcDbSymbolTableRecord
100
AcDbLinetypeTableRecord
  2
ByBlock
 70
     0
  3

 72
    65
 73
     0
 40
0.0
  0
LTYPE
  5
15
330
5
100
AcDbSymbolTableRecord
100
AcDbLinetypeTableRecord
  2
ByLayer
 70
     0
  3

 72
    65
 73
     0
 40
0.0
  0
LTYPE
  5
16
330
5
100
AcDbSymbolTableRecord
100
AcDbLinetypeTableRecord
  2
Continuous
 70
     0
  3
Solid line
 72
    65
 73
     0
 40
0.0
  0
ENDTAB
  0
TABLE
  2
LAYER
  5
2
330
0
100
AcDbSymbolTable
 70
     2
  0
LAYER
  5
10
330
2
100
AcDbSymbolTableRecord
100
AcDbLayerTableRecord
  2
0
 70
     0
 62
     7
  6
Continuous
370
    -3
390
F
  0
LAYER
  5
3B
330
2
100
AcDbSymbolTableRecord
100
AcDbLayerTableRecord
  2
Layer 1
 70
     0
 62
     7
  6
Continuous
370
    -3
390
F
  0
ENDTAB
  0
TABLE
  2
STYLE
  5
3
330
0
100
AcDbSymbolTable
 70
     1
  0
STYLE
  5
11
330
3
100
AcDbSymbolTableRecord
100
AcDbTextStyleTableRecord
  2
Standard
 70
     0
 40
0.0
 41
1.0
 50
0.0
 71
     0
 42
0.2
  3
txt
  4

  0
ENDTAB
  0
TABLE
  2
VIEW
  5
6
330
0
100
AcDbSymbolTable
 70
     0
  0
ENDTAB
  0
TABLE
  2
UCS
  5
7
330
0
100
AcDbSymbolTable
 70
     0
  0
ENDTAB
  0
TABLE
  2
APPID
  5
9
330
0
100
AcDbSymbolTable
 70
     1
  0
APPID
  5
12
330
9
100
AcDbSymbolTableRecord
100
AcDbRegAppTableRecord
  2
ACAD
 70
     0
  0
ENDTAB
  0
TABLE
  2
DIMSTYLE
  5
A
330
0
100
AcDbSymbolTable
 70
     1
100
AcDbDimStyleTable
  0
DIMSTYLE
105
27
330
A
100
AcDbSymbolTableRecord
100
AcDbDimStyleTableRecord
  2
Standard
 70
     0
340
11
  0
ENDTAB
  0
TABLE
  2
BLOCK_RECORD
  5
1
330
0
100
AcDbSymbolTable
 70
     2
  0
BLOCK_RECORD
  5
1F
330
1
100
AcDbSymbolTableRecord
100
AcDbBlockTableRecord
  2
*Model_Space
340
22
  0
BLOCK_RECORD
  5
1B
330
1
100
AcDbSymbolTableRecord
100
AcDbBlockTableRecord
  2
*Paper_Space
340
1E
  0
BLOCK_RECORD
  5
23
330
1
100
AcDbSymbolTableRecord
100
AcDbBlockTableRecord
  2
*Paper_Space0
340
26
  0
BLOCK_RECORD
  5
3C
330
1
100
AcDbSymbolTableRecord
100
AcDbBlockTableRecord
  2
block 2
340
0
102
{BLKREFS
331
3D
102
}
  0
ENDTAB
  0
ENDSEC
  0
SECTION
  2
BLOCKS
  0
BLOCK
  5
20
330
1F
100
AcDbEntity
  8
0
100
AcDbBlockBegin
  2
*Model_Space
 70
     0
 71
     0
 10
0.0
 20
0.0
 30
0.0
  3
*Model_Space
  1

  0
ENDBLK
  5
21
330
1F
100
AcDbEntity
  8
0
100
AcDbBlockEnd
  0
BLOCK
  5
1C
330
1B
100
AcDbEntity
 67
     1
  8
0
100
AcDbBlockBegin
  2
*Paper_Space
 70
     0
 71
     0
 10
0.0
 20
0.0
 30
0.0
  3
*Paper_Space
  1

  0
ENDBLK
  5
1D
330
1B
100
AcDbEntity
 67
     1
  8
0
100
AcDbBlockEnd
  0
BLOCK
  5
24
330
23
100
AcDbEntity
  8
0
100
AcDbBlockBegin
  2
*Paper_Space0
 70
     0
 71
     0
 10
0.0
 20
0.0
 30
0.0
  3
*Paper_Space0
  1

  0
ENDBLK
  5
25
330
23
100
AcDbEntity
  8
0
100
AcDbBlockEnd
  0
BLOCK
  5
3E
330
3C
100
AcDbEntity
  8
0
100
AcDbBlockBegin
  2
block 2
 70
     0
 71
     0
 10
0.0
 20
0.0
 30
0.0
  3
block 2
  1

  0
SPLINE
  5
40
330
3C
100
AcDbEntity
  8
Layer 1
370
     0
100
AcDbSpline
210
0.0
220
0.0
230
1.0
 70
    11
 71
     3
 72
    20
 73
    16
 74
     0
 42
0.0000000001
 43
0.0000000001
 40
0.0
 40
0.0
 40
0.0
 40
0.0
 40
1.0
 40
1.0
 40
1.0
 40
2.0
 40
2.0
 40
2.0
 40
3.0
 40
3.0
 40
3.0
 40
4.0
 40
4.0
 40
4.0
 40
5.0
 40
5.0
 40
5.0
 40
5.0
 10
658.9375
 20
-665.880859375
 30
0.0
 10
658.9375
 20
-665.880859375
 30
0.0
 10
594.869140625
 20
-665.880859375
 30
0.0
 10
594.869140625
 20
-665.880859375
 30
0.0
 10
594.869140625
 20
-665.880859375
 30
0.0
 10
595.314453125
 20
-667.44140625
 30
0.0
 10
595.314453125
 20
-667.44140625
 30
0.0
 10
597.78125
 20
-676.078125
 30
0.0
 10
600.3193359375
 20
-684.970703125
 30
0.0
 10
603.1650390625
 20
-693.720703125
 30
0.0
 10
605.9921875
 20
-692.220703125
 30
0.0
 10
608.814453125
 20
-690.70703125
 30
0.0
 10
611.6376953125
 20
-689.19921875
 30
0.0
 10
626.9521484375
 20
-681.01171875
 30
0.0
 10
642.63671875
 20
-672.62109375
 30
0.0
 10
658.9375
 20
-665.880859375
 30
0.0
  0
SPLINE
  5
41
330
3C
100
AcDbEntity
  8
Layer 1
370
     0
100
AcDbSpline
210
0.0
220
0.0
230
1.0
 70
    11
 71
     3
 72
    23
 73
    19
 74
     0
 42
0.0000000001
 43
0.0000000001
 40
0.0
 40
0.0
 40
0.0
 40
0.0
 40
1.0
 40
1.0
 40
1.0
 40
2.0
 40
2.0
 40
2.0
 40
3.0
 40
3.0
 40
3.0
 40
4.0
 40
4.0
 40
4.0
 40
5.0
 40
5.0
 40
5.0
 40
6.0
 40
6.0
 40
6.0
 40
6.0
 10
715.087890625
 20
-480.63720703125
 30
0.0
 10
716.1083984375
 20
-484.78369140625
 30
0.0
 10
716.92578125
 20
-488.978515625
 30
0.0
 10
717.529296875
 20
-493.19970703125
 30
0.0
 10
717.529296875
 20
-493.19970703125
 30
0.0
 10
722.0126953125
 20
-493.19970703125
 30
0.0
 10
722.0126953125
 20
-493.19970703125
 30
0.0
 10
723.1220703125
 20
-492.96728515625
 30
0.0
 10
724.224609375
 20
-492.7275390625
 30
0.0
 10
725.333984375
 20
-492.47265625
 30
0.0
 10
729.2626953125
 20
-490.59033203125
 30
0.0
 10
733.724609375
 20
-488.38623046875
 30
0.0
 10
738.1552734375
 20
-485.904296875
 30
0.0
 10
736.83203125
 20
-480.1796875
 30
0.0
 10
734.927734375
 20
-475.14892578125
 30
0.0
 10
732.3779296875
 20
-470.5751953125
 30
0.0
 10
726.8828125
 20
-474.18896484375
 30
0.0
 10
721.0712890625
 20
-477.49169921875
 30
0.0
 10
715.087890625
 20
-480.63720703125
 30
0.0
  0
SPLINE
  5
42
330
3C
100
AcDbEntity
  8
Layer 1
370
     0
100
AcDbSpline
210
0.0
220
0.0
230
1.0
 70
    11
 71
     3
 72
    14
 73
    10
 74
     0
 42
0.0000000001
 43
0.0000000001
 40
0.0
 40
0.0
 40
0.0
 40
0.0
 40
1.0
 40
1.0
 40
1.0
 40
2.0
 40
2.0
 40
2.0
 40
3.0
 40
3.0
 40
3.0
 40
3.0
 10
684.767578125
 20
-493.19970703125
 30
0.0
 10
684.767578125
 20
-493.19970703125
 30
0.0
 10
700.6064453125
 20
-493.19970703125
 30
0.0
 10
700.6064453125
 20
-493.19970703125
 30
0.0
 10
700.6435546875
 20
-491.41162109375
 30
0.0
 10
700.5498046875
 20
-489.57861328125
 30
0.0
 10
700.3740234375
 20
-487.71533203125
 30
0.0
 10
695.5791015625
 20
-489.67236328125
 30
0.0
 10
690.3603515625
 20
-491.494140625
 30
0.0
 10
684.767578125
 20
-493.19970703125
 30
0.0
  0
SPLINE
  5
43
330
3C
100
AcDbEntity
  8
Layer 1
370
     0
100
AcDbSpline
210
0.0
220
0.0
230
1.0
 70
    11
 71
     3
 72
    80
 73
    76
 74
     0
 42
0.0000000001
 43
0.0000000001
 40
0.0
 40
0.0
 40
0.0
 40
0.0
 40
1.0
 40
1.0
 40
1.0
 40
2.0
 40
2.0
 40
2.0
 40
3.0
 40
3.0
 40
3.0
 40
4.0
 40
4.0
 40
4.0
 40
5.0
 40
5.0
 40
5.0
 40
6.0
 40
6.0
 40
6.0
 40
7.0
 40
7.0
 40
7.0
 40
8.0
 40
8.0
 40
8.0
 40
9.0
 40
9.0
 40
9.0
 40
10.0
 40
10.0
 40
10.0
 40
11.0
 40
11.0
 40
11.0
 40
12.0
 40
12.0
 40
12.0
 40
13.0
 40
13.0
 40
13.0
 40
14.0
 40
14.0
 40
14.0
 40
15.0
 40
15.0
 40
15.0
 40
16.0
 40
16.0
 40
16.0
 40
17.0
 40
17.0
 40
17.0
 40
18.0
 40
18.0
 40
18.0
 40
19.0
 40
19.0
 40
19.0
 40
20.0
 40
20.0
 40
20.0
 40
21.0
 40
21.0
 40
21.0
 40
22.0
 40
22.0
 40
22.0
 40
23.0
 40
23.0
 40
23.0
 40
24.0
 40
24.0
 40
24.0
 40
25.0
 40
25.0
 40
25.0
 40
25.0
 10
783.603515625
 20
-743.400390625
 30
0.0
 10
789.826171875
 20
-735.482421875
 30
0.0
 10
795.6484375
 20
-726.927734375
 30
0.0
 10
801.279296875
 20
-718.658203125
 30
0.0
 10
813.23828125
 20
-701.076171875
 30
0.0
 10
825.60546875
 20
-682.900390625
 30
0.0
 10
842.7685546875
 20
-669.29296875
 30
0.0
 10
844.259765625
 20
-668.107421875
 30
0.0
 10
845.775390625
 20
-666.96875
 30
0.0
 10
847.3193359375
 20
-665.880859375
 30
0.0
 10
847.3193359375
 20
-665.880859375
 30
0.0
 10
766.8271484375
 20
-665.880859375
 30
0.0
 10
766.8271484375
 20
-665.880859375
 30
0.0
 10
767.783203125
 20
-666.6015625
 30
0.0
 10
768.712890625
 20
-667.34375
 30
0.0
 10
769.6162109375
 20
-668.115234375
 30
0.0
 10
787.6220703125
 20
-683.44140625
 30
0.0
 10
794.193359375
 20
-709.421875
 30
0.0
 10
785.96484375
 20
-732.77734375
 30
0.0
 10
778.34765625
 20
-754.416015625
 30
0.0
 10
757.7880859375
 20
-770.123046875
 30
0.0
 10
737.0869140625
 20
-770.123046875
 30
0.0
 10
734.1552734375
 20
-770.123046875
 30
0.0
 10
731.201171875
 20
-769.82421875
 30
0.0
 10
728.314453125
 20
-769.22265625
 30
0.0
 10
716.587890625
 20
-766.787109375
 30
0.0
 10
707.1748046875
 20
-759.162109375
 30
0.0
 10
702.4921875
 20
-748.2890625
 30
0.0
 10
697.783203125
 20
-737.357421875
 30
0.0
 10
698.7470703125
 20
-724.716796875
 30
0.0
 10
705.0712890625
 20
-714.466796875
 30
0.0
 10
707.658203125
 20
-710.267578125
 30
0.0
 10
711.5791015625
 20
-707.958984375
 30
0.0
 10
716.1083984375
 20
-707.958984375
 30
0.0
 10
721.904296875
 20
-707.958984375
 30
0.0
 10
727.580078125
 20
-711.8359375
 30
0.0
 10
729.9111328125
 20
-717.3828125
 30
0.0
 10
732.138671875
 20
-722.677734375
 30
0.0
 10
730.916015625
 20
-728.26953125
 30
0.0
 10
726.552734375
 20
-732.732421875
 30
0.0
 10
725.443359375
 20
-733.86328125
 30
0.0
 10
725.0419921875
 20
-735.078125
 30
0.0
 10
725.296875
 20
-736.541015625
 30
0.0
 10
725.806640625
 20
-739.486328125
 30
0.0
 10
728.73828125
 20
-742.576171875
 30
0.0
 10
731.1640625
 20
-743.75390625
 30
0.0
 10
734.470703125
 20
-745.365234375
 30
0.0
 10
738.8486328125
 20
-745.103515625
 30
0.0
 10
744.7607421875
 20
-742.943359375
 30
0.0
 10
752.7578125
 20
-740.02734375
 30
0.0
 10
758.9580078125
 20
-733.458984375
 30
0.0
 10
762.2265625
 20
-724.4609375
 30
0.0
 10
768.3076171875
 20
-707.7109375
 30
0.0
 10
761.830078125
 20
-690.076171875
 30
0.0
 10
746.470703125
 20
-681.58984375
 30
0.0
 10
737.814453125
 20
-676.8046875
 30
0.0
 10
727.625
 20
-674.376953125
 30
0.0
 10
716.1904296875
 20
-674.376953125
 30
0.0
 10
692.53515625
 20
-674.376953125
 30
0.0
 10
667.4248046875
 20
-684.236328125
 30
0.0
 10
643.822265625
 20
-694.890625
 30
0.0
 10
635.58203125
 20
-698.609375
 30
0.0
 10
626.5283203125
 20
-703.197265625
 30
0.0
 10
616.9423828125
 20
-708.056640625
 30
0.0
 10
614.5546875
 20
-709.263671875
 30
0.0
 10
612.1328125
 20
-710.494140625
 30
0.0
 10
609.6845703125
 20
-711.72265625
 30
0.0
 10
615.66796875
 20
-726.470703125
 30
0.0
 10
622.36328125
 20
-738.041015625
 30
0.0
 10
630.1044921875
 20
-747.0078125
 30
0.0
 10
650.341796875
 20
-770.474609375
 30
0.0
 10
677.546875
 20
-783.39453125
 30
0.0
 10
706.720703125
 20
-783.39453125
 30
0.0
 10
736.6669921875
 20
-783.296875
 30
0.0
 10
763.134765625
 20
-769.462890625
 30
0.0
 10
783.603515625
 20
-743.400390625
 30
0.0
  0
SPLINE
  5
44
330
3C
100
AcDbEntity
  8
Layer 1
370
     0
100
AcDbSpline
210
0.0
220
0.0
230
1.0
 70
    11
 71
     3
 72
   131
 73
   127
 74
     0
 42
0.0000000001
 43
0.0000000001
 40
0.0
 40
0.0
 40
0.0
 40
0.0
 40
1.0
 40
1.0
 40
1.0
 40
2.0
 40
2.0
 40
2.0
 40
3.0
 40
3.0
 40
3.0
 40
4.0
 40
4.0
 40
4.0
 40
5.0
 40
5.0
 40
5.0
 40
6.0
 40
6.0
 40
6.0
 40
7.0
 40
7.0
 40
7.0
 40
8.0
 40
8.0
 40
8.0
 40
9.0
 40
9.0
 40
9.0
 40
10.0
 40
10.0
 40
10.0
 40
11.0
 40
11.0
 40
11.0
 40
12.0
 40
12.0
 40
12.0
 40
13.0
 40
13.0
 40
13.0
 40
14.0
 40
14.0
 40
14.0
 40
15.0
 40
15.0
 40
15.0
 40
16.0
 40
16.0
 40
16.0
 40
17.0
 40
17.0
 40
17.0
 40
18.0
 40
18.0
 40
18.0
 40
19.0
 40
19.0
 40
19.0
 40
20.0
 40
20.0
 40
20.0
 40
21.0
 40
21.0
 40
21.0
 40
22.0
 40
22.0
 40
22.0
 40
23.0
 40
23.0
 40
23.0
 40
24.0
 40
24.0
 40
24.0
 40
25.0
 40
25.0
 40
25.0
 40
26.0
 40
26.0
 40
26.0
 40
27.0
 40
27.0
 40
27.0
 40
28.0
 40
28.0
 40
28.0
 40
29.0
 40
29.0
 40
29.0
 40
30.0
 40
30.0
 40
30.0
 40
31.0
 40
31.0
 40
31.0
 40
32.0
 40
32.0
 40
32.0
 40
33.0
 40
33.0
 40
33.0
 40
34.0
 40
34.0
 40
34.0
 40
35.0
 40
35.0
 40
35.0
 40
36.0
 40
36.0
 40
36.0
 40
37.0
 40
37.0
 40
37.0
 40
38.0
 40
38.0
 40
38.0
 40
39.0
 40
39.0
 40
39.0
 40
40.0
 40
40.0
 40
40.0
 40
41.0
 40
41.0
 40
41.0
 40
42.0
 40
42.0
 40
42.0
 40
42.0
 10
500.73046875
 20
-414.35302734375
 30
0.0
 10
505.9560546875
 20
-408.75244140625
 30
0.0
 10
512.4345703125
 20
-403.66845703125
 30
0.0
 10
520.0634765625
 20
-399.1923828125
 30
0.0
 10
508.873046875
 20
-392.51953125
 30
0.0
 10
499.662109375
 20
-384.83447265625
 30
0.0
 10
492.6171875
 20
-376.27197265625
 30
0.0
 10
491.3916015625
 20
-375.6044921875
 30
0.0
 10
490.1845703125
 20
-374.89208984375
 30
0.0
 10
488.9775390625
 20
-374.1796875
 30
0.0
 10
487.24609375
 20
-373.15283203125
 30
0.0
 10
485.607421875
 20
-372.185546875
 30
0.0
 10
483.939453125
 20
-371.37548828125
 30
0.0
 10
479.515625
 20
-369.24658203125
 30
0.0
 10
474.908203125
 20
-368.556640625
 30
0.0
 10
469.779296875
 20
-367.9267578125
 30
0.0
 10
464.9208984375
 20
-367.32666015625
 30
0.0
 10
461.74609375
 20
-363.345703125
 30
0.0
 10
462.056640625
 20
-358.2470703125
 30
0.0
 10
462.431640625
 20
-352.13623046875
 30
0.0
 10
467.736328125
 20
-347.9375
 30
0.0
 10
473.2431640625
 20
-349.6171875
 30
0.0
 10
475.169921875
 20
-350.20947265625
 30
0.0
 10
477.1123046875
 20
-350.8916015625
 30
0.0
 10
479.0244140625
 20
-351.64892578125
 30
0.0
 10
478.349609375
 20
-349.53466796875
 30
0.0
 10
477.771484375
 20
-347.39794921875
 30
0.0
 10
477.2998046875
 20
-345.23828125
 30
0.0
 10
476.857421875
 20
-343.22900390625
 30
0.0
 10
476.5126953125
 20
-341.18212890625
 30
0.0
 10
476.2724609375
 20
-339.11279296875
 30
0.0
 10
475.03125
 20
-338.212890625
 30
0.0
 10
473.8203125
 20
-337.25341796875
 30
0.0
 10
472.60546875
 20
-336.2861328125
 30
0.0
 10
469.83984375
 20
-334.0966796875
 30
0.0
 10
467.23046875
 20
-332.02734375
 30
0.0
 10
464.3515625
 20
-330.67041015625
 30
0.0
 10
460.7373046875
 20
-328.96826171875
 30
0.0
 10
456.890625
 20
-328.07568359375
 30
0.0
 10
452.8125
 20
-327.13134765625
 30
0.0
 10
449.0556640625
 20
-326.25390625
 30
0.0
 10
445.17578125
 20
-325.35400390625
 30
0.0
 10
441.3701171875
 20
-323.7646484375
 30
0.0
 10
436.9541015625
 20
-321.9052734375
 30
0.0
 10
434.505859375
 20
-316.8291015625
 30
0.0
 10
435.544921875
 20
-311.68603515625
 30
0.0
 10
436.50390625
 20
-306.9248046875
 30
0.0
 10
440.2197265625
 20
-303.72314453125
 30
0.0
 10
444.7890625
 20
-303.72314453125
 30
0.0
 10
455.9462890625
 20
-304.10546875
 30
0.0
 10
465.81640625
 20
-310.62841796875
 30
0.0
 10
473.2099609375
 20
-316.25927734375
 30
0.0
 10
473.2099609375
 20
-316.25927734375
 30
0.0
 10
474.203125
 20
-317.0166015625
 30
0.0
 10
474.203125
 20
-317.0166015625
 30
0.0
 10
475.14453125
 20
-317.72900390625
 30
0.0
 10
476.1298828125
 20
-318.47900390625
 30
0.0
 10
477.126953125
 20
-319.26611328125
 30
0.0
 10
481.419921875
 20
-298.53466796875
 30
0.0
 10
496.0703125
 20
-282.001953125
 30
0.0
 10
515.9248046875
 20
-276.14599609375
 30
0.0
 10
517.232421875
 20
-275.76416015625
 30
0.0
 10
518.544921875
 20
-275.56884765625
 30
0.0
 10
519.8271484375
 20
-275.56884765625
 30
0.0
 10
526.9912109375
 20
-275.56884765625
 30
0.0
 10
531.583984375
 20
-281.40966796875
 30
0.0
 10
532.416015625
 20
-287.18310546875
 30
0.0
 10
533.3642578125
 20
-293.7509765625
 30
0.0
 10
529.7470703125
 20
-299.41943359375
 30
0.0
 10
523.4189453125
 20
-301.27880859375
 30
0.0
 10
508.8876953125
 20
-305.56005859375
 30
0.0
 10
499.9052734375
 20
-320.39794921875
 30
0.0
 10
502.064453125
 20
-336.55615234375
 30
0.0
 10
504.134765625
 20
-352.1064453125
 30
0.0
 10
515.16015625
 20
-367.9267578125
 30
0.0
 10
532.310546875
 20
-379.953125
 30
0.0
 10
536.224609375
 20
-382.697265625
 30
0.0
 10
540.3935546875
 20
-385.33642578125
 30
0.0
 10
545.01171875
 20
-387.99072265625
 30
0.0
 10
545.01171875
 20
-387.99072265625
 30
0.0
 10
545.3046875
 20
-387.8857421875
 30
0.0
 10
545.3046875
 20
-387.8857421875
 30
0.0
 10
560.2626953125
 20
-382.7646484375
 30
0.0
 10
575.3671875
 20
-380.17041015625
 30
0.0
 10
590.201171875
 20
-380.17041015625
 30
0.0
 10
618.5615234375
 20
-380.17041015625
 30
0.0
 10
645.91015625
 20
-389.97412109375
 30
0.0
 10
668.201171875
 20
-407.58984375
 30
0.0
 10
678.4990234375
 20
-391.03125
 30
0.0
 10
685.869140625
 20
-372.33935546875
 30
0.0
 10
690.3046875
 20
-351.50634765625
 30
0.0
 10
689.1572265625
 20
-341.658203125
 30
0.0
 10
690.892578125
 20
-331.89599609375
 30
0.0
 10
694.451171875
 20
-322.94775390625
 30
0.0
 10
695.046875
 20
-315.693359375
 30
0.0
 10
695.361328125
 20
-308.22900390625
 30
0.0
 10
695.361328125
 20
-300.53662109375
 30
0.0
 10
695.361328125
 20
-299.71923828125
 30
0.0
 10
695.33203125
 20
-298.93603515625
 30
0.0
 10
695.32421875
 20
-298.12255859375
 30
0.0
 10
684.767578125
 20
-296.25537109375
 30
0.0
 10
673.8056640625
 20
-291.78662109375
 30
0.0
 10
674.1240234375
 20
-279.8427734375
 30
0.0
 10
674.2294921875
 20
-275.52392578125
 30
0.0
 10
677.1611328125
 20
-271.71533203125
 30
0.0
 10
681.2470703125
 20
-270.59033203125
 30
0.0
 10
682.5888671875
 20
-270.22314453125
 30
0.0
 10
683.95703125
 20
-270.03564453125
 30
0.0
 10
685.314453125
 20
-270.03564453125
 30
0.0
 10
688.61328125
 20
-270.03564453125
 30
0.0
 10
691.5380859375
 20
-271.08544921875
 30
0.0
 10
694.267578125
 20
-272.6259765625
 30
0.0
 10
690.203125
 20
-220.86474609375
 30
0.0
 10
674.427734375
 20
-181.81298828125
 30
0.0
 10
646.84375
 20
-155.56689453125
 30
0.0
 10
614.494140625
 20
-124.78857421875
 30
0.0
 10
562.05078125
 20
-109.3955078125
 30
0.0
 10
489.521484375
 20
-109.3955078125
 30
0.0
 10
462.85546875
 20
-109.3955078125
 30
0.0
 10
442.46875
 20
-110.18994140625
 30
0.0
 10
428.357421875
 20
-111.74951171875
 30
0.0
 10
428.357421875
 20
-111.74951171875
 30
0.0
 10
428.357421875
 20
-434.2109375
 30
0.0
 10
428.357421875
 20
-434.2109375
 30
0.0
 10
451.158203125
 20
-423.91650390625
 30
0.0
 10
476.3662109375
 20
-414.87060546875
 30
0.0
 10
500.73046875
 20
-414.35302734375
 30
0.0
  0
SPLINE
  5
45
330
3C
100
AcDbEntity
  8
Layer 1
370
     0
100
AcDbSpline
210
0.0
220
0.0
230
1.0
 70
    11
 71
     3
 72
    29
 73
    25
 74
     0
 42
0.0000000001
 43
0.0000000001
 40
0.0
 40
0.0
 40
0.0
 40
0.0
 40
1.0
 40
1.0
 40
1.0
 40
2.0
 40
2.0
 40
2.0
 40
3.0
 40
3.0
 40
3.0
 40
4.0
 40
4.0
 40
4.0
 40
5.0
 40
5.0
 40
5.0
 40
6.0
 40
6.0
 40
6.0
 40
7.0
 40
7.0
 40
7.0
 40
8.0
 40
8.0
 40
8.0
 40
8.0
 10
538.0615234375
 20
-408.32470703125
 30
0.0
 10
533.056640625
 20
-410.91162109375
 30
0.0
 10
528.46484375
 20
-413.783203125
 30
0.0
 10
524.359375
 20
-416.89501953125
 30
0.0
 10
533.2744140625
 20
-419.14404296875
 30
0.0
 10
541.541015625
 20
-422.86279296875
 30
0.0
 10
549.0234375
 20
-427.9990234375
 30
0.0
 10
562.8828125
 20
-437.52099609375
 30
0.0
 10
573.3046875
 20
-455.63232421875
 30
0.0
 10
571.873046875
 20
-473.66064453125
 30
0.0
 10
580.716796875
 20
-471.85009765625
 30
0.0
 10
588.982421875
 20
-469.7392578125
 30
0.0
 10
596.5556640625
 20
-467.26513671875
 30
0.0
 10
616.5146484375
 20
-460.7529296875
 30
0.0
 10
634.1123046875
 20
-449.16552734375
 30
0.0
 10
649.3701171875
 20
-432.55419921875
 30
0.0
 10
645.72265625
 20
-432.06298828125
 30
0.0
 10
642.0673828125
 20
-431.57177734375
 30
0.0
 10
638.4873046875
 20
-431.10302734375
 30
0.0
 10
608.623046875
 20
-427.181640625
 30
0.0
 10
577.740234375
 20
-423.12548828125
 30
0.0
 10
547.7490234375
 20
-412.17138671875
 30
0.0
 10
544.45703125
 20
-410.9638671875
 30
0.0
 10
541.203125
 20
-409.67431640625
 30
0.0
 10
538.0615234375
 20
-408.32470703125
 30
0.0
  0
SPLINE
  5
46
330
3C
100
AcDbEntity
  8
Layer 1
370
     0
100
AcDbSpline
210
0.0
220
0.0
230
1.0
 70
    11
 71
     3
 72
    20
 73
    16
 74
     0
 42
0.0000000001
 43
0.0000000001
 40
0.0
 40
0.0
 40
0.0
 40
0.0
 40
1.0
 40
1.0
 40
1.0
 40
2.0
 40
2.0
 40
2.0
 40
3.0
 40
3.0
 40
3.0
 40
4.0
 40
4.0
 40
4.0
 40
5.0
 40
5.0
 40
5.0
 40
5.0
 10
565.5595703125
 20
-398.25537109375
 30
0.0
 10
587.1572265625
 20
-407.544921875
 30
0.0
 10
611.9189453125
 20
-414.04541015625
 30
0.0
 10
639.3271484375
 20
-417.61474609375
 30
0.0
 10
642.9443359375
 20
-418.0869140625
 30
0.0
 10
646.599609375
 20
-418.52197265625
 30
0.0
 10
650.28125
 20
-418.95654296875
 30
0.0
 10
652.8603515625
 20
-419.26416015625
 30
0.0
 10
655.4775390625
 20
-419.57177734375
 30
0.0
 10
658.1123046875
 20
-419.9013671875
 30
0.0
 10
645.669921875
 20
-409.2021484375
 30
0.0
 10
632.59375
 20
-401.35205078125
 30
0.0
 10
621.767578125
 20
-398.240234375
 30
0.0
 10
605.568359375
 20
-393.591796875
 30
0.0
 10
584.9755859375
 20
-393.63671875
 30
0.0
 10
565.5595703125
 20
-398.25537109375
 30
0.0
  0
SPLINE
  5
47
330
3C
100
AcDbEntity
  8
Layer 1
370
     0
100
AcDbSpline
210
0.0
220
0.0
230
1.0
 70
    11
 71
     3
 72
   332
 73
   328
 74
     0
 42
0.0000000001
 43
0.0000000001
 40
0.0
 40
0.0
 40
0.0
 40
0.0
 40
1.0
 40
1.0
 40
1.0
 40
2.0
 40
2.0
 40
2.0
 40
3.0
 40
3.0
 40
3.0
 40
4.0
 40
4.0
 40
4.0
 40
5.0
 40
5.0
 40
5.0
 40
6.0
 40
6.0
 40
6.0
 40
7.0
 40
7.0
 40
7.0
 40
8.0
 40
8.0
 40
8.0
 40
9.0
 40
9.0
 40
9.0
 40
10.0
 40
10.0
 40
10.0
 40
11.0
 40
11.0
 40
11.0
 40
12.0
 40
12.0
 40
12.0
 40
13.0
 40
13.0
 40
13.0
 40
14.0
 40
14.0
 40
14.0
 40
15.0
 40
15.0
 40
15.0
 40
16.0
 40
16.0
 40
16.0
 40
17.0
 40
17.0
 40
17.0
 40
18.0
 40
18.0
 40
18.0
 40
19.0
 40
19.0
 40
19.0
 40
20.0
 40
20.0
 40
20.0
 40
21.0
 40
21.0
 40
21.0
 40
22.0
 40
22.0
 40
22.0
 40
23.0
 40
23.0
 40
23.0
 40
24.0
 40
24.0
 40
24.0
 40
25.0
 40
25.0
 40
25.0
 40
26.0
 40
26.0
 40
26.0
 40
27.0
 40
27.0
 40
27.0
 40
28.0
 40
28.0
 40
28.0
 40
29.0
 40
29.0
 40
29.0
 40
30.0
 40
30.0
 40
30.0
 40
31.0
 40
31.0
 40
31.0
 40
32.0
 40
32.0
 40
32.0
 40
33.0
 40
33.0
 40
33.0
 40
34.0
 40
34.0
 40
34.0
 40
35.0
 40
35.0
 40
35.0
 40
36.0
 40
36.0
 40
36.0
 40
37.0
 40
37.0
 40
37.0
 40
38.0
 40
38.0
 40
38.0
 40
39.0
 40
39.0
 40
39.0
 40
40.0
 40
40.0
 40
40.0
 40
41.0
 40
41.0
 40
41.0
 40
42.0
 40
42.0
 40
42.0
 40
43.0
 40
43.0
 40
43.0
 40
44.0
 40
44.0
 40
44.0
 40
45.0
 40
45.0
 40
45.0
 40
46.0
 40
46.0
 40
46.0
 40
47.0
 40
47.0
 40
47.0
 40
48.0
 40
48.0
 40
48.0
 40
49.0
 40
49.0
 40
49.0
 40
50.0
 40
50.0
 40
50.0
 40
51.0
 40
51.0
 40
51.0
 40
52.0
 40
52.0
 40
52.0
 40
53.0
 40
53.0
 40
53.0
 40
54.0
 40
54.0
 40
54.0
 40
55.0
 40
55.0
 40
55.0
 40
56.0
 40
56.0
 40
56.0
 40
57.0
 40
57.0
 40
57.0
 40
58.0
 40
58.0
 40
58.0
 40
59.0
 40
59.0
 40
59.0
 40
60.0
 40
60.0
 40
60.0
 40
61.0
 40
61.0
 40
61.0
 40
62.0
 40
62.0
 40
62.0
 40
63.0
 40
63.0
 40
63.0
 40
64.0
 40
64.0
 40
64.0
 40
65.0
 40
65.0
 40
65.0
 40
66.0
 40
66.0
 40
66.0
 40
67.0
 40
67.0
 40
67.0
 40
68.0
 40
68.0
 40
68.0
 40
69.0
 40
69.0
 40
69.0
 40
70.0
 40
70.0
 40
70.0
 40
71.0
 40
71.0
 40
71.0
 40
72.0
 40
72.0
 40
72.0
 40
73.0
 40
73.0
 40
73.0
 40
74.0
 40
74.0
 40
74.0
 40
75.0
 40
75.0
 40
75.0
 40
76.0
 40
76.0
 40
76.0
 40
77.0
 40
77.0
 40
77.0
 40
78.0
 40
78.0
 40
78.0
 40
79.0
 40
79.0
 40
79.0
 40
80.0
 40
80.0
 40
80.0
 40
81.0
 40
81.0
 40
81.0
 40
82.0
 40
82.0
 40
82.0
 40
83.0
 40
83.0
 40
83.0
 40
84.0
 40
84.0
 40
84.0
 40
85.0
 40
85.0
 40
85.0
 40
86.0
 40
86.0
 40
86.0
 40
87.0
 40
87.0
 40
87.0
 40
88.0
 40
88.0
 40
88.0
 40
89.0
 40
89.0
 40
89.0
 40
90.0
 40
90.0
 40
90.0
 40
91.0
 40
91.0
 40
91.0
 40
92.0
 40
92.0
 40
92.0
 40
93.0
 40
93.0
 40
93.0
 40
94.0
 40
94.0
 40
94.0
 40
95.0
 40
95.0
 40
95.0
 40
96.0
 40
96.0
 40
96.0
 40
97.0
 40
97.0
 40
97.0
 40
98.0
 40
98.0
 40
98.0
 40
99.0
 40
99.0
 40
99.0
 40
100.0
 40
100.0
 40
100.0
 40
101.0
 40
101.0
 40
101.0
 40
102.0
 40
102.0
 40
102.0
 40
103.0
 40
103.0
 40
103.0
 40
104.0
 40
104.0
 40
104.0
 40
105.0
 40
105.0
 40
105.0
 40
106.0
 40
106.0
 40
106.0
 40
107.0
 40
107.0
 40
107.0
 40
108.0
 40
108.0
 40
108.0
 40
109.0
 40
109.0
 40
109.0
 40
109.0
 10
776.83984375
 20
-775.21484375
 30
0.0
 10
775.4677734375
 20
-785.41796875
 30
0.0
 10
775.0556640625
 20
-797.490234375
 30
0.0
 10
779.9931640625
 20
-807.58203125
 30
0.0
 10
781.8115234375
 20
-811.28515625
 30
0.0
 10
785.234375
 20
-813.408203125
 30
0.0
 10
789.3837890625
 20
-813.408203125
 30
0.0
 10
792.9609375
 20
-813.408203125
 30
0.0
 10
796.5625
 20
-811.794921875
 30
0.0
 10
799.0224609375
 20
-809.095703125
 30
0.0
 10
801.2001953125
 20
-806.705078125
 30
0.0
 10
802.2421875
 20
-803.69921875
 30
0.0
 10
801.9541015625
 20
-800.638671875
 30
0.0
 10
801.4931640625
 20
-795.7578125
 30
0.0
 10
800.255859375
 20
-791.154296875
 30
0.0
 10
799.056640625
 20
-786.693359375
 30
0.0
 10
797.736328125
 20
-781.78125
 30
0.0
 10
796.4921875
 20
-777.140625
 30
0.0
 10
796.244140625
 20
-772.251953125
 30
0.0
 10
796.0498046875
 20
-768.32421875
 30
0.0
 10
796.76953125
 20
-764.328125
 30
0.0
 10
797.5380859375
 20
-760.09765625
 30
0.0
 10
798.0517578125
 20
-757.2578125
 30
0.0
 10
798.583984375
 20
-754.326171875
 30
0.0
 10
798.8310546875
 20
-751.349609375
 30
0.0
 10
803.052734375
 20
-745.943359375
 30
0.0
 10
807.154296875
 20
-740.296875
 30
0.0
 10
811.146484375
 20
-734.755859375
 30
0.0
 10
811.1953125
 20
-742.07421875
 30
0.0
 10
812.244140625
 20
-748.529296875
 30
0.0
 10
812.8896484375
 20
-751.8359375
 30
0.0
 10
813.79296875
 20
-756.41796875
 30
0.0
 10
817.470703125
 20
-759.37890625
 30
0.0
 10
822.26953125
 20
-759.37890625
 30
0.0
 10
826.078125
 20
-759.37890625
 30
0.0
 10
829.857421875
 20
-757.466796875
 30
0.0
 10
831.884765625
 20
-754.505859375
 30
0.0
 10
833.6953125
 20
-751.865234375
 30
0.0
 10
834.025390625
 20
-748.6875
 30
0.0
 10
832.8115234375
 20
-745.552734375
 30
0.0
 10
830.54296875
 20
-739.673828125
 30
0.0
 10
828.642578125
 20
-734.3203125
 30
0.0
 10
828.3876953125
 20
-728.27734375
 30
0.0
 10
828.2939453125
 20
-726.013671875
 30
0.0
 10
828.39453125
 20
-723.705078125
 30
0.0
 10
828.5078125
 20
-721.259765625
 30
0.0
 10
828.650390625
 20
-718.029296875
 30
0.0
 10
828.7998046875
 20
-714.70703125
 30
0.0
 10
828.4697265625
 20
-711.34765625
 30
0.0
 10
831.6787109375
 20
-707.306640625
 30
0.0
 10
834.72265625
 20
-703.72265625
 30
0.0
 10
837.71484375
 20
-700.46875
 30
0.0
 10
837.658203125
 20
-708.408203125
 30
0.0
 10
839.76953125
 20
-716.236328125
 30
0.0
 10
843.802734375
 20
-721.96484375
 30
0.0
 10
845.8271484375
 20
-724.8515625
 30
0.0
 10
849.8310546875
 20
-726.1640625
 30
0.0
 10
852.916015625
 20
-724.912109375
 30
0.0
 10
854.232421875
 20
-724.37890625
 30
0.0
 10
855.080078125
 20
-723.697265625
 30
0.0
 10
855.814453125
 20
-723.029296875
 30
0.0
 10
857.9140625
 20
-721.095703125
 30
0.0
 10
858.66015625
 20
-717.6015625
 30
0.0
 10
857.5498046875
 20
-714.90234375
 30
0.0
 10
857.5498046875
 20
-714.90234375
 30
0.0
 10
857.3515625
 20
-714.4140625
 30
0.0
 10
857.3515625
 20
-714.4140625
 30
0.0
 10
855.1767578125
 20
-709.11328125
 30
0.0
 10
853.294921875
 20
-704.533203125
 30
0.0
 10
853.3701171875
 20
-699.08984375
 30
0.0
 10
853.4453125
 20
-693.3828125
 30
0.0
 10
855.5966796875
 20
-688.015625
 30
0.0
 10
857.73046875
 20
-682.810546875
 30
0.0
 10
859.083984375
 20
-681.880859375
 30
0.0
 10
860.458984375
 20
-680.982421875
 30
0.0
 10
861.876953125
 20
-680.126953125
 30
0.0
 10
871.7998046875
 20
-674.15234375
 30
0.0
 10
883.87890625
 20
-670.716796875
 30
0.0
 10
895.005859375
 20
-670.716796875
 30
0.0
 10
906.154296875
 20
-670.716796875
 30
0.0
 10
925.904296875
 20
-674.14453125
 30
0.0
 10
932.861328125
 20
-697.1015625
 30
0.0
 10
937.0234375
 20
-710.837890625
 30
0.0
 10
932.021484375
 20
-726.216796875
 30
0.0
 10
920.9775390625
 20
-733.662109375
 30
0.0
 10
914.21484375
 20
-738.212890625
 30
0.0
 10
906.6875
 20
-738.640625
 30
0.0
 10
900.591796875
 20
-734.78515625
 30
0.0
 10
897.3974609375
 20
-732.724609375
 30
0.0
 10
894.9609375
 20
-730.001953125
 30
0.0
 10
893.0859375
 20
-726.373046875
 30
0.0
 10
892.8984375
 20
-726.029296875
 30
0.0
 10
892.7294921875
 20
-725.69140625
 30
0.0
 10
892.576171875
 20
-725.353515625
 30
0.0
 10
892.609375
 20
-725.353515625
 30
0.0
 10
892.6435546875
 20
-725.353515625
 30
0.0
 10
892.6806640625
 20
-725.353515625
 30
0.0
 10
898.2216796875
 20
-725.353515625
 30
0.0
 10
903.455078125
 20
-722.841796875
 30
0.0
 10
906.671875
 20
-718.62890625
 30
0.0
 10
909.9560546875
 20
-714.33203125
 30
0.0
 10
910.8447265625
 20
-708.611328125
 30
0.0
 10
909.18359375
 20
-702.5078125
 30
0.0
 10
907.099609375
 20
-694.853515625
 30
0.0
 10
900.6435546875
 20
-689.912109375
 30
0.0
 10
892.7333984375
 20
-689.912109375
 30
0.0
 10
889.921875
 20
-689.912109375
 30
0.0
 10
887.04296875
 20
-690.548828125
 30
0.0
 10
884.396484375
 20
-691.771484375
 30
0.0
 10
872.515625
 20
-697.251953125
 30
0.0
 10
869.0966796875
 20
-711.37890625
 30
0.0
 10
869.775390625
 20
-721.806640625
 30
0.0
 10
871.1396484375
 20
-742.80078125
 30
0.0
 10
888.7783203125
 20
-759.873046875
 30
0.0
 10
909.09375
 20
-759.873046875
 30
0.0
 10
911.4296875
 20
-759.873046875
 30
0.0
 10
913.7724609375
 20
-759.640625
 30
0.0
 10
916.0625
 20
-759.18359375
 30
0.0
 10
937.533203125
 20
-754.90234375
 30
0.0
 10
954.8076171875
 20
-732.58984375
 30
0.0
 10
955.384765625
 20
-708.38671875
 30
0.0
 10
955.9697265625
 20
-684.205078125
 30
0.0
 10
940.82421875
 20
-661.404296875
 30
0.0
 10
918.548828125
 20
-652.947265625
 30
0.0
 10
914.57421875
 20
-651.44140625
 30
0.0
 10
910.4208984375
 20
-650.345703125
 30
0.0
 10
906.154296875
 20
-649.677734375
 30
0.0
 10
906.154296875
 20
-649.677734375
 30
0.0
 10
906.154296875
 20
-648.7265625
 30
0.0
 10
906.154296875
 20
-648.7265625
 30
0.0
 10
906.154296875
 20
-648.7265625
 30
0.0
 10
102.091796875
 20
-648.7265625
 30
0.0
 10
102.091796875
 20
-648.7265625
 30
0.0
 10
102.091796875
 20
-648.7265625
 30
0.0
 10
102.091796875
 20
-665.880859375
 30
0.0
 10
102.091796875
 20
-665.880859375
 30
0.0
 10
102.091796875
 20
-665.880859375
 30
0.0
 10
244.744140625
 20
-665.880859375
 30
0.0
 10
244.744140625
 20
-665.880859375
 30
0.0
 10
234.705078125
 20
-670.8515625
 30
0.0
 10
225.119140625
 20
-676.8203125
 30
0.0
 10
216.091796875
 20
-683.734375
 30
0.0
 10
207.4951171875
 20
-687.71484375
 30
0.0
 10
200.263671875
 20
-690.736328125
 30
0.0
 10
192.50732421875
 20
-690.736328125
 30
0.0
 10
188.822265625
 20
-690.736328125
 30
0.0
 10
185.234375
 20
-690.0546875
 30
0.0
 10
181.5458984375
 20
-688.64453125
 30
0.0
 10
177.099609375
 20
-686.943359375
 30
0.0
 10
171.322265625
 20
-684.595703125
 30
0.0
 10
166.10009765625
 20
-681.513671875
 30
0.0
 10
166.10009765625
 20
-681.513671875
 30
0.0
 10
164.17333984375
 20
-680.359375
 30
0.0
 10
164.17333984375
 20
-680.359375
 30
0.0
 10
160.349609375
 20
-678.01953125
 30
0.0
 10
156.7353515625
 20
-675.81640625
 30
0.0
 10
150.72216796875
 20
-675.650390625
 30
0.0
 10
147.91796875
 20
-675.650390625
 30
0.0
 10
145.2861328125
 20
-676.947265625
 30
0.0
 10
143.501953125
 20
-679.197265625
 30
0.0
 10
141.6201171875
 20
-681.57421875
 30
0.0
 10
140.9111328125
 20
-684.73828125
 30
0.0
 10
141.60498046875
 20
-687.654296875
 30
0.0
 10
146.005859375
 20
-706.083984375
 30
0.0
 10
170.9326171875
 20
-707.517578125
 30
0.0
 10
178.4677734375
 20
-707.517578125
 30
0.0
 10
180.94580078125
 20
-707.517578125
 30
0.0
 10
183.3525390625
 20
-707.388671875
 30
0.0
 10
185.62451171875
 20
-707.134765625
 30
0.0
 10
187.4765625
 20
-706.931640625
 30
0.0
 10
189.7109375
 20
-706.6171875
 30
0.0
 10
192.1923828125
 20
-706.12890625
 30
0.0
 10
191.138671875
 20
-707.359375
 30
0.0
 10
190.1005859375
 20
-708.611328125
 30
0.0
 10
189.08837890625
 20
-709.88671875
 30
0.0
 10
188.267578125
 20
-710.185546875
 30
0.0
 10
187.5478515625
 20
-710.7109375
 30
0.0
 10
187.00390625
 20
-711.4296875
 30
0.0
 10
184.21484375
 20
-715.126953125
 30
0.0
 10
181.3505859375
 20
-719.130859375
 30
0.0
 10
178.3818359375
 20
-723.26953125
 30
0.0
 10
159.8095703125
 20
-749.197265625
 30
0.0
 10
138.755859375
 20
-778.74609375
 30
0.0
 10
106.95751953125
 20
-776.369140625
 30
0.0
 10
99.939453125
 20
-775.822265625
 30
0.0
 10
94.923828125
 20
-780.5234375
 30
0.0
 10
94.6083984375
 20
-787.3828125
 30
0.0
 10
94.32373046875
 20
-793.568359375
 30
0.0
 10
98.365234375
 20
-800.548828125
 30
0.0
 10
106.41796875
 20
-801.291015625
 30
0.0
 10
127.24658203125
 20
-803.2265625
 30
0.0
 10
141.875
 20
-790.1796875
 30
0.0
 10
153.2265625
 20
-777.455078125
 30
0.0
 10
155.783203125
 20
-774.591796875
 30
0.0
 10
158.4033203125
 20
-771.64453125
 30
0.0
 10
161.03173828125
 20
-768.623046875
 30
0.0
 10
155.9404296875
 20
-793.845703125
 30
0.0
 10
159.4267578125
 20
-818.408203125
 30
0.0
 10
171.3037109375
 20
-839.22265625
 30
0.0
 10
174.45263671875
 20
-844.748046875
 30
0.0
 10
178.2841796875
 20
-850.00390625
 30
0.0
 10
182.71875
 20
-854.86328125
 30
0.0
 10
182.85009765625
 20
-857.509765625
 30
0.0
 10
183.18017578125
 20
-860.111328125
 30
0.0
 10
183.4990234375
 20
-862.646484375
 30
0.0
 10
183.892578125
 20
-865.779296875
 30
0.0
 10
184.267578125
 20
-868.734375
 30
0.0
 10
184.27490234375
 20
-871.666015625
 30
0.0
 10
184.3046875
 20
-880.84375
 30
0.0
 10
182.15283203125
 20
-888.806640625
 30
0.0
 10
177.29443359375
 20
-897.48828125
 30
0.0
 10
177.001953125
 20
-898.01953125
 30
0.0
 10
176.5673828125
 20
-898.732421875
 30
0.0
 10
176.0498046875
 20
-899.595703125
 30
0.0
 10
170.33642578125
 20
-909.072265625
 30
0.0
 10
164.56298828125
 20
-919.755859375
 30
0.0
 10
168.38671875
 20
-926.51953125
 30
0.0
 10
169.6015625
 20
-928.671875
 30
0.0
 10
172.2705078125
 20
-931.228515625
 30
0.0
 10
178.115234375
 20
-931.228515625
 30
0.0
 10
178.4716796875
 20
-931.228515625
 30
0.0
 10
178.8388671875
 20
-931.220703125
 30
0.0
 10
179.2177734375
 20
-931.197265625
 30
0.0
 10
197.20849609375
 20
-930.3125
 30
0.0
 10
200.02392578125
 20
-900.869140625
 30
0.0
 10
201.0849609375
 20
-889.787109375
 30
0.0
 10
201.205078125
 20
-888.53515625
 30
0.0
 10
201.33984375
 20
-887.1640625
 30
0.0
 10
201.46337890625
 20
-885.708984375
 30
0.0
 10
201.46337890625
 20
-885.708984375
 30
0.0
 10
315.3095703125
 20
-885.708984375
 30
0.0
 10
315.3095703125
 20
-885.708984375
 30
0.0
 10
318.3837890625
 20
-887.63671875
 30
0.0
 10
321.6865234375
 20
-889.0390625
 30
0.0
 10
325.48828125
 20
-889.0390625
 30
0.0
 10
326.84521484375
 20
-889.0390625
 30
0.0
 10
328.2099609375
 20
-888.8515625
 30
0.0
 10
329.5517578125
 20
-888.482421875
 30
0.0
 10
331.33642578125
 20
-887.9921875
 30
0.0
 10
332.8623046875
 20
-887.001953125
 30
0.0
 10
334.05810546875
 20
-885.708984375
 30
0.0
 10
334.05810546875
 20
-885.708984375
 30
0.0
 10
555.9775390625
 20
-885.708984375
 30
0.0
 10
555.9775390625
 20
-885.708984375
 30
0.0
 10
555.9775390625
 20
-885.708984375
 30
0.0
 10
555.9775390625
 20
-858.65625
 30
0.0
 10
555.9775390625
 20
-858.65625
 30
0.0
 10
555.9775390625
 20
-858.65625
 30
0.0
 10
529.5107421875
 20
-858.65625
 30
0.0
 10
529.5107421875
 20
-858.65625
 30
0.0
 10
528.404296875
 20
-858.65625
 30
0.0
 10
527.34375
 20
-858.638671875
 30
0.0
 10
526.2568359375
 20
-858.630859375
 30
0.0
 10
529.720703125
 20
-852.958984375
 30
0.0
 10
532.265625
 20
-846.619140625
 30
0.0
 10
533.67578125
 20
-839.814453125
 30
0.0
 10
534.6767578125
 20
-840.595703125
 30
0.0
 10
535.658203125
 20
-841.337890625
 30
0.0
 10
536.595703125
 20
-842.048828125
 30
0.0
 10
536.595703125
 20
-842.048828125
 30
0.0
 10
537.59375
 20
-842.806640625
 30
0.0
 10
537.59375
 20
-842.806640625
 30
0.0
 10
544.986328125
 20
-848.4453125
 30
0.0
 10
554.853515625
 20
-854.96875
 30
0.0
 10
566.001953125
 20
-855.349609375
 30
0.0
 10
570.580078125
 20
-855.349609375
 30
0.0
 10
574.298828125
 20
-852.1484375
 30
0.0
 10
575.2578125
 20
-847.380859375
 30
0.0
 10
576.29296875
 20
-842.236328125
 30
0.0
 10
573.837890625
 20
-837.16015625
 30
0.0
 10
569.4287109375
 20
-835.30859375
 30
0.0
 10
565.6201171875
 20
-833.71875
 30
0.0
 10
561.736328125
 20
-832.8125
 30
0.0
 10
557.9794921875
 20
-831.943359375
 30
0.0
 10
553.908203125
 20
-830.998046875
 30
0.0
 10
550.0625
 20
-830.09765625
 30
0.0
 10
546.455078125
 20
-828.404296875
 30
0.0
 10
543.5615234375
 20
-827.0390625
 30
0.0
 10
540.9443359375
 20
-824.962890625
 30
0.0
 10
538.169921875
 20
-822.765625
 30
0.0
 10
536.962890625
 20
-821.8125
 30
0.0
 10
535.759765625
 20
-820.861328125
 30
0.0
 10
534.5302734375
 20
-819.9609375
 30
0.0
 10
534.287109375
 20
-817.876953125
 30
0.0
 10
533.94140625
 20
-815.822265625
 30
0.0
 10
533.5068359375
 20
-813.8359375
 30
0.0
 10
533.02734375
 20
-811.67578125
 30
0.0
 10
532.44921875
 20
-809.5390625
 30
0.0
 10
531.775390625
 20
-807.431640625
 30
0.0
 10
533.6865234375
 20
-808.181640625
 30
0.0
 10
535.6328125
 20
-808.86328125
 30
0.0
 10
537.5556640625
 20
-809.45703125
 30
0.0
 10
543.06640625
 20
-811.14453125
 30
0.0
 10
548.3671875
 20
-806.9375
 30
0.0
 10
548.7421875
 20
-800.818359375
 30
0.0
 10
549.0576171875
 20
-795.728515625
 30
0.0
 10
545.8779296875
 20
-791.74609375
 30
0.0
 10
541.01953125
 20
-791.146484375
 30
0.0
 10
535.89453125
 20
-790.525390625
 30
0.0
 10
531.291015625
 20
-789.828125
 30
0.0
 10
526.8564453125
 20
-787.697265625
 30
0.0
 10
525.1845703125
 20
-786.888671875
 30
0.0
 10
523.5419921875
 20
-785.9140625
 30
0.0
 10
521.802734375
 20
-784.88671875
 30
0.0
 10
520.603515625
 20
-784.173828125
 30
0.0
 10
519.4033203125
 20
-783.46875
 30
0.0
 10
518.189453125
 20
-782.802734375
 30
0.0
 10
511.140625
 20
-774.240234375
 30
0.0
 10
501.92578125
 20
-766.5546875
 30
0.0
 10
490.736328125
 20
-759.880859375
 30
0.0
 10
498.365234375
 20
-755.404296875
 30
0.0
 10
504.8466796875
 20
-750.322265625
 30
0.0
 10
510.068359375
 20
-744.720703125
 30
0.0
 10
538.05078125
 20
-744.12890625
 30
0.0
 10
567.1494140625
 20
-732.2890625
 30
0.0
 10
592.4169921875
 20
-720.224609375
 30
0.0
 10
604.458984375
 20
-743.716796875
 30
0.0
 10
621.388671875
 20
-765.13671875
 30
0.0
 10
638.2060546875
 20
-778.025390625
 30
0.0
 10
657.6328125
 20
-792.923828125
 30
0.0
 10
681.91796875
 20
-801.126953125
 30
0.0
 10
706.5859375
 20
-801.126953125
 30
0.0
 10
723.462890625
 20
-801.126953125
 30
0.0
 10
740.2880859375
 20
-797.220703125
 30
0.0
 10
755.25390625
 20
-789.8203125
 30
0.0
 10
762.748046875
 20
-786.115234375
 30
0.0
 10
769.875
 20
-781.294921875
 30
0.0
 10
776.83984375
 20
-775.21484375
 30
0.0
  0
SPLINE
  5
48
330
3C
100
AcDbEntity
  8
Layer 1
370
     0
100
AcDbSpline
210
0.0
220
0.0
230
1.0
 70
    11
 71
     3
 72
    32
 73
    28
 74
     0
 42
0.0000000001
 43
0.0000000001
 40
0.0
 40
0.0
 40
0.0
 40
0.0
 40
1.0
 40
1.0
 40
1.0
 40
2.0
 40
2.0
 40
2.0
 40
3.0
 40
3.0
 40
3.0
 40
4.0
 40
4.0
 40
4.0
 40
5.0
 40
5.0
 40
5.0
 40
6.0
 40
6.0
 40
6.0
 40
7.0
 40
7.0
 40
7.0
 40
8.0
 40
8.0
 40
8.0
 40
9.0
 40
9.0
 40
9.0
 40
9.0
 10
445.865234375
 20
-665.880859375
 30
0.0
 10
444.5
 20
-667.80078125
 30
0.0
 10
443.3232421875
 20
-669.84765625
 30
0.0
 10
442.341796875
 20
-672.013671875
 30
0.0
 10
432.4365234375
 20
-693.826171875
 30
0.0
 10
444.4443359375
 20
-719.17578125
 30
0.0
 10
461.775390625
 20
-731.07421875
 30
0.0
 10
469.2578125
 20
-736.21875
 30
0.0
 10
477.5283203125
 20
-739.9375
 30
0.0
 10
486.435546875
 20
-742.1796875
 30
0.0
 10
482.3271484375
 20
-745.298828125
 30
0.0
 10
477.73828125
 20
-748.169921875
 30
0.0
 10
472.7412109375
 20
-750.748046875
 30
0.0
 10
469.595703125
 20
-749.3984375
 30
0.0
 10
466.345703125
 20
-748.109375
 30
0.0
 10
463.0537109375
 20
-746.91015625
 30
0.0
 10
451.76953125
 20
-742.787109375
 30
0.0
 10
440.361328125
 20
-739.640625
 30
0.0
 10
428.927734375
 20
-737.11328125
 30
0.0
 10
428.548828125
 20
-720.203125
 30
0.0
 10
428.357421875
 20
-700.56640625
 30
0.0
 10
428.357421875
 20
-678.103515625
 30
0.0
 10
428.357421875
 20
-678.103515625
 30
0.0
 10
428.357421875
 20
-665.880859375
 30
0.0
 10
428.357421875
 20
-665.880859375
 30
0.0
 10
428.357421875
 20
-665.880859375
 30
0.0
 10
445.865234375
 20
-665.880859375
 30
0.0
 10
445.865234375
 20
-665.880859375
 30
0.0
  0
SPLINE
  5
49
330
3C
100
AcDbEntity
  8
Layer 1
370
     0
100
AcDbSpline
210
0.0
220
0.0
230
1.0
 70
    11
 71
     3
 72
    14
 73
    10
 74
     0
 42
0.0000000001
 43
0.0000000001
 40
0.0
 40
0.0
 40
0.0
 40
0.0
 40
1.0
 40
1.0
 40
1.0
 40
2.0
 40
2.0
 40
2.0
 40
3.0
 40
3.0
 40
3.0
 40
3.0
 10
429.4228515625
 20
-754.7265625
 30
0.0
 10
434.8583984375
 20
-756.60546875
 30
0.0
 10
440.14453125
 20
-758.62890625
 30
0.0
 10
445.2353515625
 20
-760.818359375
 30
0.0
 10
440.1220703125
 20
-762.033203125
 30
0.0
 10
434.93359375
 20
-762.9140625
 30
0.0
 10
429.755859375
 20
-763.494140625
 30
0.0
 10
429.63671875
 20
-760.69921875
 30
0.0
 10
429.52734375
 20
-757.755859375
 30
0.0
 10
429.4228515625
 20
-754.7265625
 30
0.0
  0
SPLINE
  5
4A
330
3C
100
AcDbEntity
  8
Layer 1
370
     0
100
AcDbSpline
210
0.0
220
0.0
230
1.0
 70
    11
 71
     3
 72
    17
 73
    13
 74
     0
 42
0.0000000001
 43
0.0000000001
 40
0.0
 40
0.0
 40
0.0
 40
0.0
 40
1.0
 40
1.0
 40
1.0
 40
2.0
 40
2.0
 40
2.0
 40
3.0
 40
3.0
 40
3.0
 40
4.0
 40
4.0
 40
4.0
 40
4.0
 10
313.0869140625
 20
-665.880859375
 30
0.0
 10
313.0869140625
 20
-665.880859375
 30
0.0
 10
313.0869140625
 20
-678.103515625
 30
0.0
 10
313.0869140625
 20
-678.103515625
 30
0.0
 10
313.0869140625
 20
-680.10546875
 30
0.0
 10
313.0791015625
 20
-682.017578125
 30
0.0
 10
313.0791015625
 20
-683.97265625
 30
0.0
 10
311.07373046875
 20
-677.6484375
 30
0.0
 10
310.07275390625
 20
-671.556640625
 30
0.0
 10
310.1923828125
 20
-665.880859375
 30
0.0
 10
310.1923828125
 20
-665.880859375
 30
0.0
 10
313.0869140625
 20
-665.880859375
 30
0.0
 10
313.0869140625
 20
-665.880859375
 30
0.0
  0
SPLINE
  5
4B
330
3C
100
AcDbEntity
  8
Layer 1
370
     0
100
AcDbSpline
210
0.0
220
0.0
230
1.0
 70
    11
 71
     3
 72
    23
 73
    19
 74
     0
 42
0.0000000001
 43
0.0000000001
 40
0.0
 40
0.0
 40
0.0
 40
0.0
 40
1.0
 40
1.0
 40
1.0
 40
2.0
 40
2.0
 40
2.0
 40
3.0
 40
3.0
 40
3.0
 40
4.0
 40
4.0
 40
4.0
 40
5.0
 40
5.0
 40
5.0
 40
6.0
 40
6.0
 40
6.0
 40
6.0
 10
285.46484375
 20
-666.6015625
 30
0.0
 10
286.57470703125
 20
-666.353515625
 30
0.0
 10
287.6845703125
 20
-666.11328125
 30
0.0
 10
288.7900390625
 20
-665.880859375
 30
0.0
 10
288.7900390625
 20
-665.880859375
 30
0.0
 10
293.2705078125
 20
-665.880859375
 30
0.0
 10
293.2705078125
 20
-665.880859375
 30
0.0
 10
295.759765625
 20
-683.34375
 30
0.0
 10
301.8330078125
 20
-700.296875
 30
0.0
 10
311.0625
 20
-715.61328125
 30
0.0
 10
302.67236328125
 20
-712.142578125
 30
0.0
 10
295.5869140625
 20
-707.75
 30
0.0
 10
289.5810546875
 20
-702.328125
 30
0.0
 10
280.73046875
 20
-694.349609375
 30
0.0
 10
275.4404296875
 20
-685.271484375
 30
0.0
 10
272.6474609375
 20
-673.169921875
 30
0.0
 10
277.06005859375
 20
-670.6953125
 30
0.0
 10
281.5361328125
 20
-668.490234375
 30
0.0
 10
285.46484375
 20
-666.6015625
 30
0.0
  0
SPLINE
  5
4C
330
3C
100
AcDbEntity
  8
Layer 1
370
     0
100
AcDbSpline
210
0.0
220
0.0
230
1.0
 70
    11
 71
     3
 72
    92
 73
    88
 74
     0
 42
0.0000000001
 43
0.0000000001
 40
0.0
 40
0.0
 40
0.0
 40
0.0
 40
1.0
 40
1.0
 40
1.0
 40
2.0
 40
2.0
 40
2.0
 40
3.0
 40
3.0
 40
3.0
 40
4.0
 40
4.0
 40
4.0
 40
5.0
 40
5.0
 40
5.0
 40
6.0
 40
6.0
 40
6.0
 40
7.0
 40
7.0
 40
7.0
 40
8.0
 40
8.0
 40
8.0
 40
9.0
 40
9.0
 40
9.0
 40
10.0
 40
10.0
 40
10.0
 40
11.0
 40
11.0
 40
11.0
 40
12.0
 40
12.0
 40
12.0
 40
13.0
 40
13.0
 40
13.0
 40
14.0
 40
14.0
 40
14.0
 40
15.0
 40
15.0
 40
15.0
 40
16.0
 40
16.0
 40
16.0
 40
17.0
 40
17.0
 40
17.0
 40
18.0
 40
18.0
 40
18.0
 40
19.0
 40
19.0
 40
19.0
 40
20.0
 40
20.0
 40
20.0
 40
21.0
 40
21.0
 40
21.0
 40
22.0
 40
22.0
 40
22.0
 40
23.0
 40
23.0
 40
23.0
 40
24.0
 40
24.0
 40
24.0
 40
25.0
 40
25.0
 40
25.0
 40
26.0
 40
26.0
 40
26.0
 40
27.0
 40
27.0
 40
27.0
 40
28.0
 40
28.0
 40
28.0
 40
29.0
 40
29.0
 40
29.0
 40
29.0
 10
185.654296875
 20
-828.328125
 30
0.0
 10
175.876953125
 20
-811.578125
 30
0.0
 10
172.060546875
 20
-790.63671875
 30
0.0
 10
175.1796875
 20
-770.767578125
 30
0.0
 10
180.0986328125
 20
-739.435546875
 30
0.0
 10
198.5283203125
 20
-711.8125
 30
0.0
 10
227.0087890625
 20
-692.025390625
 30
0.0
 10
226.83203125
 20
-692.28125
 30
0.0
 10
226.65234375
 20
-692.54296875
 30
0.0
 10
226.47607421875
 20
-692.806640625
 30
0.0
 10
214.58837890625
 20
-710.41015625
 30
0.0
 10
211.1884765625
 20
-736.87890625
 30
0.0
 10
228.3095703125
 20
-751.251953125
 30
0.0
 10
230.4833984375
 20
-753.080078125
 30
0.0
 10
233.302734375
 20
-754.0859375
 30
0.0
 10
236.24951171875
 20
-754.0859375
 30
0.0
 10
240.29443359375
 20
-754.0859375
 30
0.0
 10
244.0322265625
 20
-752.279296875
 30
0.0
 10
246.244140625
 20
-749.2421875
 30
0.0
 10
248.27587890625
 20
-746.466796875
 30
0.0
 10
248.7783203125
 20
-742.98828125
 30
0.0
 10
247.64990234375
 20
-739.45703125
 30
0.0
 10
241.5576171875
 20
-720.359375
 30
0.0
 10
237.16015625
 20
-706.564453125
 30
0.0
 10
250.9150390625
 20
-690.11328125
 30
0.0
 10
253.6103515625
 20
-686.8984375
 30
0.0
 10
256.8193359375
 20
-683.869140625
 30
0.0
 10
260.6474609375
 20
-680.9453125
 30
0.0
 10
264.3740234375
 20
-695.603515625
 30
0.0
 10
275.3056640625
 20
-708.626953125
 30
0.0
 10
285.1572265625
 20
-716.4765625
 30
0.0
 10
292.94775390625
 20
-722.681640625
 30
0.0
 10
301.8740234375
 20
-727.423828125
 30
0.0
 10
312.6142578125
 20
-731.041015625
 30
0.0
 10
312.17578125
 20
-752.978515625
 30
0.0
 10
311.42236328125
 20
-770.6328125
 30
0.0
 10
310.361328125
 20
-784.04296875
 30
0.0
 10
303.017578125
 20
-775.671875
 30
0.0
 10
292.4677734375
 20
-770.28125
 30
0.0
 10
281.71240234375
 20
-770.28125
 30
0.0
 10
274.8369140625
 20
-770.28125
 30
0.0
 10
268.2421875
 20
-772.5078125
 30
0.0
 10
262.63427734375
 20
-776.720703125
 30
0.0
 10
257.16796875
 20
-780.837890625
 30
0.0
 10
255.0205078125
 20
-787.12890625
 30
0.0
 10
257.029296875
 20
-793.134765625
 30
0.0
 10
258.9375
 20
-798.83984375
 30
0.0
 10
264.23486328125
 20
-802.671875
 30
0.0
 10
270.21826171875
 20
-802.671875
 30
0.0
 10
272.396484375
 20
-802.671875
 30
0.0
 10
274.6083984375
 20
-802.18359375
 30
0.0
 10
276.7900390625
 20
-801.232421875
 30
0.0
 10
281.6337890625
 20
-799.1171875
 30
0.0
 10
285.31494140625
 20
-799.59765625
 30
0.0
 10
288.1640625
 20
-802.904296875
 30
0.0
 10
292.34033203125
 20
-807.740234375
 30
0.0
 10
293.619140625
 20
-816.9609375
 30
0.0
 10
292.7001953125
 20
-823.185546875
 30
0.0
 10
291.107421875
 20
-833.99609375
 30
0.0
 10
284.3779296875
 20
-842.439453125
 30
0.0
 10
279.0166015625
 20
-847.61328125
 30
0.0
 10
278.75439453125
 20
-847.86328125
 30
0.0
 10
278.4658203125
 20
-848.078125
 30
0.0
 10
278.19970703125
 20
-848.32421875
 30
0.0
 10
265.8056640625
 20
-854.537109375
 30
0.0
 10
246.5888671875
 20
-857.94140625
 30
0.0
 10
220.564453125
 20
-858.548828125
 30
0.0
 10
215.337890625
 20
-856.546875
 30
0.0
 10
210.42333984375
 20
-853.953125
 30
0.0
 10
205.88720703125
 20
-850.716796875
 30
0.0
 10
221.98876953125
 20
-851.255859375
 30
0.0
 10
235.671875
 20
-844.013671875
 30
0.0
 10
241.775390625
 20
-831.6796875
 30
0.0
 10
243.642578125
 20
-827.908203125
 30
0.0
 10
243.40234375
 20
-823.626953125
 30
0.0
 10
241.1083984375
 20
-819.939453125
 30
0.0
 10
238.80615234375
 20
-816.21875
 30
0.0
 10
234.884765625
 20
-813.91796875
 30
0.0
 10
230.884765625
 20
-813.91796875
 30
0.0
 10
227.7841796875
 20
-813.91796875
 30
0.0
 10
224.8681640625
 20
-815.3203125
 30
0.0
 10
222.6708984375
 20
-817.869140625
 30
0.0
 10
216.140625
 20
-825.44921875
 30
0.0
 10
210.0595703125
 20
-831.859375
 30
0.0
 10
201.79345703125
 20
-833.5703125
 30
0.0
 10
196.4365234375
 20
-834.671875
 30
0.0
 10
191.2705078125
 20
-833.0
 30
0.0
 10
185.654296875
 20
-828.328125
 30
0.0
  0
SPLINE
  5
4D
330
3C
100
AcDbEntity
  8
Layer 1
370
     0
100
AcDbSpline
210
0.0
220
0.0
230
1.0
 70
    11
 71
     3
 72
    29
 73
    25
 74
     0
 42
0.0000000001
 43
0.0000000001
 40
0.0
 40
0.0
 40
0.0
 40
0.0
 40
1.0
 40
1.0
 40
1.0
 40
2.0
 40
2.0
 40
2.0
 40
3.0
 40
3.0
 40
3.0
 40
4.0
 40
4.0
 40
4.0
 40
5.0
 40
5.0
 40
5.0
 40
6.0
 40
6.0
 40
6.0
 40
7.0
 40
7.0
 40
7.0
 40
8.0
 40
8.0
 40
8.0
 40
8.0
 10
508.7421875
 20
-822.517578125
 30
0.0
 10
510.69140625
 20
-837.138671875
 30
0.0
 10
503.5009765625
 20
-850.650390625
 30
0.0
 10
491.3583984375
 20
-856.265625
 30
0.0
 10
475.826171875
 20
-853.986328125
 30
0.0
 10
464.212890625
 20
-850.087890625
 30
0.0
 10
456.5869140625
 20
-844.5390625
 30
0.0
 10
443.6455078125
 20
-835.12890625
 30
0.0
 10
435.7060546875
 20
-820.7265625
 30
0.0
 10
432.7666015625
 20
-801.314453125
 30
0.0
 10
431.904296875
 20
-795.6015625
 30
0.0
 10
431.169921875
 20
-787.9609375
 30
0.0
 10
430.5546875
 20
-778.498046875
 30
0.0
 10
442.1611328125
 20
-777.59765625
 30
0.0
 10
453.873046875
 20
-775.166015625
 30
0.0
 10
465.486328125
 20
-771.1875
 30
0.0
 10
465.486328125
 20
-771.1875
 30
0.0
 10
465.787109375
 20
-771.08203125
 30
0.0
 10
465.787109375
 20
-771.08203125
 30
0.0
 10
470.4052734375
 20
-773.736328125
 30
0.0
 10
474.57421875
 20
-776.376953125
 30
0.0
 10
478.48828125
 20
-779.12109375
 30
0.0
 10
495.6396484375
 20
-791.146484375
 30
0.0
 10
506.6650390625
 20
-806.966796875
 30
0.0
 10
508.7421875
 20
-822.517578125
 30
0.0
  0
SPLINE
  5
4E
330
3C
100
AcDbEntity
  8
Layer 1
370
     0
100
AcDbSpline
210
0.0
220
0.0
230
1.0
 70
    11
 71
     3
 72
    23
 73
    19
 74
     0
 42
0.0000000001
 43
0.0000000001
 40
0.0
 40
0.0
 40
0.0
 40
0.0
 40
1.0
 40
1.0
 40
1.0
 40
2.0
 40
2.0
 40
2.0
 40
3.0
 40
3.0
 40
3.0
 40
4.0
 40
4.0
 40
4.0
 40
5.0
 40
5.0
 40
5.0
 40
6.0
 40
6.0
 40
6.0
 40
6.0
 10
502.1435546875
 20
-725.49609375
 30
0.0
 10
487.05859375
 20
-724.84375
 30
0.0
 10
475.4287109375
 20
-720.509765625
 30
0.0
 10
467.556640625
 20
-712.591796875
 30
0.0
 10
460.396484375
 20
-705.40234375
 30
0.0
 10
456.3359375
 20
-694.58203125
 30
0.0
 10
457.45703125
 20
-685.66796875
 30
0.0
 10
458.27734375
 20
-679.13671875
 30
0.0
 10
461.6181640625
 20
-674.091796875
 30
0.0
 10
467.3916015625
 20
-670.650390625
 30
0.0
 10
471.3388671875
 20
-668.294921875
 30
0.0
 10
475.564453125
 20
-667.103515625
 30
0.0
 10
479.9423828125
 20
-667.103515625
 30
0.0
 10
493.18359375
 20
-667.103515625
 30
0.0
 10
505.9072265625
 20
-678.109375
 30
0.0
 10
508.9140625
 20
-692.162109375
 30
0.0
 10
511.88671875
 20
-706.03125
 30
0.0
 10
507.14453125
 20
-717.69921875
 30
0.0
 10
502.1435546875
 20
-725.49609375
 30
0.0
  0
SPLINE
  5
4F
330
3C
100
AcDbEntity
  8
Layer 1
370
     0
100
AcDbSpline
210
0.0
220
0.0
230
1.0
 70
    11
 71
     3
 72
    20
 73
    16
 74
     0
 42
0.0000000001
 43
0.0000000001
 40
0.0
 40
0.0
 40
0.0
 40
0.0
 40
1.0
 40
1.0
 40
1.0
 40
2.0
 40
2.0
 40
2.0
 40
3.0
 40
3.0
 40
3.0
 40
4.0
 40
4.0
 40
4.0
 40
5.0
 40
5.0
 40
5.0
 40
5.0
 10
523.384765625
 20
-724.20703125
 30
0.0
 10
524.5205078125
 20
-721.462890625
 30
0.0
 10
525.4619140625
 20
-718.650390625
 30
0.0
 10
526.1962890625
 20
-715.80078125
 30
0.0
 10
530.78515625
 20
-697.94921875
 30
0.0
 10
526.7890625
 20
-679.001953125
 30
0.0
 10
516.2353515625
 20
-665.880859375
 30
0.0
 10
516.2353515625
 20
-665.880859375
 30
0.0
 10
575.73828125
 20
-665.880859375
 30
0.0
 10
575.73828125
 20
-665.880859375
 30
0.0
 10
576.5888671875
 20
-677.548828125
 30
0.0
 10
579.603515625
 20
-690.076171875
 30
0.0
 10
584.724609375
 20
-703.212890625
 30
0.0
 10
567.07421875
 20
-711.91796875
 30
0.0
 10
546.373046875
 20
-720.765625
 30
0.0
 10
523.384765625
 20
-724.20703125
 30
0.0
  0
SPLINE
  5
50
330
3C
100
AcDbEntity
  8
Layer 1
370
     0
100
AcDbSpline
210
0.0
220
0.0
230
1.0
 70
    11
 71
     3
 72
    20
 73
    16
 74
     0
 42
0.0000000001
 43
0.0000000001
 40
0.0
 40
0.0
 40
0.0
 40
0.0
 40
1.0
 40
1.0
 40
1.0
 40
2.0
 40
2.0
 40
2.0
 40
3.0
 40
3.0
 40
3.0
 40
4.0
 40
4.0
 40
4.0
 40
5.0
 40
5.0
 40
5.0
 40
5.0
 10
595.314453125
 20
-667.44140625
 30
0.0
 10
595.314453125
 20
-667.44140625
 30
0.0
 10
594.869140625
 20
-665.880859375
 30
0.0
 10
594.869140625
 20
-665.880859375
 30
0.0
 10
594.869140625
 20
-665.880859375
 30
0.0
 10
658.9375
 20
-665.880859375
 30
0.0
 10
658.9375
 20
-665.880859375
 30
0.0
 10
642.63671875
 20
-672.62109375
 30
0.0
 10
626.9521484375
 20
-681.01171875
 30
0.0
 10
611.6376953125
 20
-689.19921875
 30
0.0
 10
608.814453125
 20
-690.70703125
 30
0.0
 10
605.9921875
 20
-692.220703125
 30
0.0
 10
603.1650390625
 20
-693.720703125
 30
0.0
 10
600.3193359375
 20
-684.970703125
 30
0.0
 10
597.78125
 20
-676.078125
 30
0.0
 10
595.314453125
 20
-667.44140625
 30
0.0
  0
SPLINE
  5
51
330
3C
100
AcDbEntity
  8
Layer 1
370
     0
100
AcDbSpline
210
0.0
220
0.0
230
1.0
 70
    11
 71
     3
 72
    80
 73
    76
 74
     0
 42
0.0000000001
 43
0.0000000001
 40
0.0
 40
0.0
 40
0.0
 40
0.0
 40
1.0
 40
1.0
 40
1.0
 40
2.0
 40
2.0
 40
2.0
 40
3.0
 40
3.0
 40
3.0
 40
4.0
 40
4.0
 40
4.0
 40
5.0
 40
5.0
 40
5.0
 40
6.0
 40
6.0
 40
6.0
 40
7.0
 40
7.0
 40
7.0
 40
8.0
 40
8.0
 40
8.0
 40
9.0
 40
9.0
 40
9.0
 40
10.0
 40
10.0
 40
10.0
 40
11.0
 40
11.0
 40
11.0
 40
12.0
 40
12.0
 40
12.0
 40
13.0
 40
13.0
 40
13.0
 40
14.0
 40
14.0
 40
14.0
 40
15.0
 40
15.0
 40
15.0
 40
16.0
 40
16.0
 40
16.0
 40
17.0
 40
17.0
 40
17.0
 40
18.0
 40
18.0
 40
18.0
 40
19.0
 40
19.0
 40
19.0
 40
20.0
 40
20.0
 40
20.0
 40
21.0
 40
21.0
 40
21.0
 40
22.0
 40
22.0
 40
22.0
 40
23.0
 40
23.0
 40
23.0
 40
24.0
 40
24.0
 40
24.0
 40
25.0
 40
25.0
 40
25.0
 40
25.0
 10
630.1044921875
 20
-747.0078125
 30
0.0
 10
622.36328125
 20
-738.041015625
 30
0.0
 10
615.66796875
 20
-726.470703125
 30
0.0
 10
609.6845703125
 20
-711.72265625
 30
0.0
 10
612.1328125
 20
-710.494140625
 30
0.0
 10
614.5546875
 20
-709.263671875
 30
0.0
 10
616.9423828125
 20
-708.056640625
 30
0.0
 10
626.5283203125
 20
-703.197265625
 30
0.0
 10
635.58203125
 20
-698.609375
 30
0.0
 10
643.822265625
 20
-694.890625
 30
0.0
 10
667.4248046875
 20
-684.236328125
 30
0.0
 10
692.53515625
 20
-674.376953125
 30
0.0
 10
716.1904296875
 20
-674.376953125
 30
0.0
 10
727.625
 20
-674.376953125
 30
0.0
 10
737.814453125
 20
-676.8046875
 30
0.0
 10
746.470703125
 20
-681.58984375
 30
0.0
 10
761.830078125
 20
-690.076171875
 30
0.0
 10
768.3076171875
 20
-707.7109375
 30
0.0
 10
762.2265625
 20
-724.4609375
 30
0.0
 10
758.9580078125
 20
-733.458984375
 30
0.0
 10
752.7578125
 20
-740.02734375
 30
0.0
 10
744.7607421875
 20
-742.943359375
 30
0.0
 10
738.8486328125
 20
-745.103515625
 30
0.0
 10
734.470703125
 20
-745.365234375
 30
0.0
 10
731.1640625
 20
-743.75390625
 30
0.0
 10
728.73828125
 20
-742.576171875
 30
0.0
 10
725.806640625
 20
-739.486328125
 30
0.0
 10
725.296875
 20
-736.541015625
 30
0.0
 10
725.0419921875
 20
-735.078125
 30
0.0
 10
725.443359375
 20
-733.86328125
 30
0.0
 10
726.552734375
 20
-732.732421875
 30
0.0
 10
730.916015625
 20
-728.26953125
 30
0.0
 10
732.138671875
 20
-722.677734375
 30
0.0
 10
729.9111328125
 20
-717.3828125
 30
0.0
 10
727.580078125
 20
-711.8359375
 30
0.0
 10
721.904296875
 20
-707.958984375
 30
0.0
 10
716.1083984375
 20
-707.958984375
 30
0.0
 10
711.5791015625
 20
-707.958984375
 30
0.0
 10
707.658203125
 20
-710.267578125
 30
0.0
 10
705.0712890625
 20
-714.466796875
 30
0.0
 10
698.7470703125
 20
-724.716796875
 30
0.0
 10
697.783203125
 20
-737.357421875
 30
0.0
 10
702.4921875
 20
-748.2890625
 30
0.0
 10
707.1748046875
 20
-759.162109375
 30
0.0
 10
716.587890625
 20
-766.787109375
 30
0.0
 10
728.314453125
 20
-769.22265625
 30
0.0
 10
731.201171875
 20
-769.82421875
 30
0.0
 10
734.1552734375
 20
-770.123046875
 30
0.0
 10
737.0869140625
 20
-770.123046875
 30
0.0
 10
757.7880859375
 20
-770.123046875
 30
0.0
 10
778.34765625
 20
-754.416015625
 30
0.0
 10
785.96484375
 20
-732.77734375
 30
0.0
 10
794.193359375
 20
-709.421875
 30
0.0
 10
787.6220703125
 20
-683.44140625
 30
0.0
 10
769.6162109375
 20
-668.115234375
 30
0.0
 10
768.712890625
 20
-667.34375
 30
0.0
 10
767.783203125
 20
-666.6015625
 30
0.0
 10
766.8271484375
 20
-665.880859375
 30
0.0
 10
766.8271484375
 20
-665.880859375
 30
0.0
 10
847.3193359375
 20
-665.880859375
 30
0.0
 10
847.3193359375
 20
-665.880859375
 30
0.0
 10
845.775390625
 20
-666.96875
 30
0.0
 10
844.259765625
 20
-668.107421875
 30
0.0
 10
842.7685546875
 20
-669.29296875
 30
0.0
 10
825.60546875
 20
-682.900390625
 30
0.0
 10
813.23828125
 20
-701.076171875
 30
0.0
 10
801.279296875
 20
-718.658203125
 30
0.0
 10
795.6484375
 20
-726.927734375
 30
0.0
 10
789.826171875
 20
-735.482421875
 30
0.0
 10
783.603515625
 20
-743.400390625
 30
0.0
 10
763.134765625
 20
-769.462890625
 30
0.0
 10
736.6669921875
 20
-783.296875
 30
0.0
 10
706.720703125
 20
-783.39453125
 30
0.0
 10
677.546875
 20
-783.39453125
 30
0.0
 10
650.341796875
 20
-770.474609375
 30
0.0
 10
630.1044921875
 20
-747.0078125
 30
0.0
  0
HATCH
  5
52
330
3C
100
AcDbEntity
  8
Layer 1
 62
     7
100
AcDbHatch
 10
0.0
 20
0.0
 30
0.0
210
0.0
220
0.0
230
1.0
  2
SOLID
 70
     1
 71
     0
 91
       11
 92
        1
 93
        1
 72
     4
 94
        3
 73
     0
 74
     1
 95
      332
 96
      328
 40
0.0
 40
0.0
 40
0.0
 40
0.0
 40
1.0
 40
1.0
 40
1.0
 40
2.0
 40
2.0
 40
2.0
 40
3.0
 40
3.0
 40
3.0
 40
4.0
 40
4.0
 40
4.0
 40
5.0
 40
5.0
 40
5.0
 40
6.0
 40
6.0
 40
6.0
 40
7.0
 40
7.0
 40
7.0
 40
8.0
 40
8.0
 40
8.0
 40
9.0
 40
9.0
 40
9.0
 40
10.0
 40
10.0
 40
10.0
 40
11.0
 40
11.0
 40
11.0
 40
12.0
 40
12.0
 40
12.0
 40
13.0
 40
13.0
 40
13.0
 40
14.0
 40
14.0
 40
14.0
 40
15.0
 40
15.0
 40
15.0
 40
16.0
 40
16.0
 40
16.0
 40
17.0
 40
17.0
 40
17.0
 40
18.0
 40
18.0
 40
18.0
 40
19.0
 40
19.0
 40
19.0
 40
20.0
 40
20.0
 40
20.0
 40
21.0
 40
21.0
 40
21.0
 40
22.0
 40
22.0
 40
22.0
 40
23.0
 40
23.0
 40
23.0
 40
24.0
 40
24.0
 40
24.0
 40
25.0
 40
25.0
 40
25.0
 40
26.0
 40
26.0
 40
26.0
 40
27.0
 40
27.0
 40
27.0
 40
28.0
 40
28.0
 40
28.0
 40
29.0
 40
29.0
 40
29.0
 40
30.0
 40
30.0
 40
30.0
 40
31.0
 40
31.0
 40
31.0
 40
32.0
 40
32.0
 40
32.0
 40
33.0
 40
33.0
 40
33.0
 40
34.0
 40
34.0
 40
34.0
 40
35.0
 40
35.0
 40
35.0
 40
36.0
 40
36.0
 40
36.0
 40
37.0
 40
37.0
 40
37.0
 40
38.0
 40
38.0
 40
38.0
 40
39.0
 40
39.0
 40
39.0
 40
40.0
 40
40.0
 40
40.0
 40
41.0
 40
41.0
 40
41.0
 40
42.0
 40
42.0
 40
42.0
 40
43.0
 40
43.0
 40
43.0
 40
44.0
 40
44.0
 40
44.0
 40
45.0
 40
45.0
 40
45.0
 40
46.0
 40
46.0
 40
46.0
 40
47.0
 40
47.0
 40
47.0
 40
48.0
 40
48.0
 40
48.0
 40
49.0
 40
49.0
 40
49.0
 40
50.0
 40
50.0
 40
50.0
 40
51.0
 40
51.0
 40
51.0
 40
52.0
 40
52.0
 40
52.0
 40
53.0
 40
53.0
 40
53.0
 40
54.0
 40
54.0
 40
54.0
 40
55.0
 40
55.0
 40
55.0
 40
56.0
 40
56.0
 40
56.0
 40
57.0
 40
57.0
 40
57.0
 40
58.0
 40
58.0
 40
58.0
 40
59.0
 40
59.0
 40
59.0
 40
60.0
 40
60.0
 40
60.0
 40
61.0
 40
61.0
 40
61.0
 40
62.0
 40
62.0
 40
62.0
 40
63.0
 40
63.0
 40
63.0
 40
64.0
 40
64.0
 40
64.0
 40
65.0
 40
65.0
 40
65.0
 40
66.0
 40
66.0
 40
66.0
 40
67.0
 40
67.0
 40
67.0
 40
68.0
 40
68.0
 40
68.0
 40
69.0
 40
69.0
 40
69.0
 40
70.0
 40
70.0
 40
70.0
 40
71.0
 40
71.0
 40
71.0
 40
72.0
 40
72.0
 40
72.0
 40
73.0
 40
73.0
 40
73.0
 40
74.0
 40
74.0
 40
74.0
 40
75.0
 40
75.0
 40
75.0
 40
76.0
 40
76.0
 40
76.0
 40
77.0
 40
77.0
 40
77.0
 40
78.0
 40
78.0
 40
78.0
 40
79.0
 40
79.0
 40
79.0
 40
80.0
 40
80.0
 40
80.0
 40
81.0
 40
81.0
 40
81.0
 40
82.0
 40
82.0
 40
82.0
 40
83.0
 40
83.0
 40
83.0
 40
84.0
 40
84.0
 40
84.0
 40
85.0
 40
85.0
 40
85.0
 40
86.0
 40
86.0
 40
86.0
 40
87.0
 40
87.0
 40
87.0
 40
88.0
 40
88.0
 40
88.0
 40
89.0
 40
89.0
 40
89.0
 40
90.0
 40
90.0
 40
90.0
 40
91.0
 40
91.0
 40
91.0
 40
92.0
 40
92.0
 40
92.0
 40
93.0
 40
93.0
 40
93.0
 40
94.0
 40
94.0
 40
94.0
 40
95.0
 40
95.0
 40
95.0
 40
96.0
 40
96.0
 40
96.0
 40
97.0
 40
97.0
 40
97.0
 40
98.0
 40
98.0
 40
98.0
 40
99.0
 40
99.0
 40
99.0
 40
100.0
 40
100.0
 40
100.0
 40
101.0
 40
101.0
 40
101.0
 40
102.0
 40
102.0
 40
102.0
 40
103.0
 40
103.0
 40
103.0
 40
104.0
 40
104.0
 40
104.0
 40
105.0
 40
105.0
 40
105.0
 40
106.0
 40
106.0
 40
106.0
 40
107.0
 40
107.0
 40
107.0
 40
108.0
 40
108.0
 40
108.0
 40
109.0
 40
109.0
 40
109.0
 40
109.0
 10
776.83984375
 20
-775.21484375
 10
775.4677734375
 20
-785.41796875
 10
775.0556640625
 20
-797.490234375
 10
779.9931640625
 20
-807.58203125
 10
781.8115234375
 20
-811.28515625
 10
785.234375
 20
-813.408203125
 10
789.3837890625
 20
-813.408203125
 10
792.9609375
 20
-813.408203125
 10
796.5625
 20
-811.794921875
 10
799.0224609375
 20
-809.095703125
 10
801.2001953125
 20
-806.705078125
 10
802.2421875
 20
-803.69921875
 10
801.9541015625
 20
-800.638671875
 10
801.4931640625
 20
-795.7578125
 10
800.255859375
 20
-791.154296875
 10
799.056640625
 20
-786.693359375
 10
797.736328125
 20
-781.78125
 10
796.4921875
 20
-777.140625
 10
796.244140625
 20
-772.251953125
 10
796.0498046875
 20
-768.32421875
 10
796.76953125
 20
-764.328125
 10
797.5380859375
 20
-760.09765625
 10
798.0517578125
 20
-757.2578125
 10
798.583984375
 20
-754.326171875
 10
798.8310546875
 20
-751.349609375
 10
803.052734375
 20
-745.943359375
 10
807.154296875
 20
-740.296875
 10
811.146484375
 20
-734.755859375
 10
811.1953125
 20
-742.07421875
 10
812.244140625
 20
-748.529296875
 10
812.8896484375
 20
-751.8359375
 10
813.79296875
 20
-756.41796875
 10
817.470703125
 20
-759.37890625
 10
822.26953125
 20
-759.37890625
 10
826.078125
 20
-759.37890625
 10
829.857421875
 20
-757.466796875
 10
831.884765625
 20
-754.505859375
 10
833.6953125
 20
-751.865234375
 10
834.025390625
 20
-748.6875
 10
832.8115234375
 20
-745.552734375
 10
830.54296875
 20
-739.673828125
 10
828.642578125
 20
-734.3203125
 10
828.3876953125
 20
-728.27734375
 10
828.2939453125
 20
-726.013671875
 10
828.39453125
 20
-723.705078125
 10
828.5078125
 20
-721.259765625
 10
828.650390625
 20
-718.029296875
 10
828.7998046875
 20
-714.70703125
 10
828.4697265625
 20
-711.34765625
 10
831.6787109375
 20
-707.306640625
 10
834.72265625
 20
-703.72265625
 10
837.71484375
 20
-700.46875
 10
837.658203125
 20
-708.408203125
 10
839.76953125
 20
-716.236328125
 10
843.802734375
 20
-721.96484375
 10
845.8271484375
 20
-724.8515625
 10
849.8310546875
 20
-726.1640625
 10
852.916015625
 20
-724.912109375
 10
854.232421875
 20
-724.37890625
 10
855.080078125
 20
-723.697265625
 10
855.814453125
 20
-723.029296875
 10
857.9140625
 20
-721.095703125
 10
858.66015625
 20
-717.6015625
 10
857.5498046875
 20
-714.90234375
 10
857.5498046875
 20
-714.90234375
 10
857.3515625
 20
-714.4140625
 10
857.3515625
 20
-714.4140625
 10
855.1767578125
 20
-709.11328125
 10
853.294921875
 20
-704.533203125
 10
853.3701171875
 20
-699.08984375
 10
853.4453125
 20
-693.3828125
 10
855.5966796875
 20
-688.015625
 10
857.73046875
 20
-682.810546875
 10
859.083984375
 20
-681.880859375
 10
860.458984375
 20
-680.982421875
 10
861.876953125
 20
-680.126953125
 10
871.7998046875
 20
-674.15234375
 10
883.87890625
 20
-670.716796875
 10
895.005859375
 20
-670.716796875
 10
906.154296875
 20
-670.716796875
 10
925.904296875
 20
-674.14453125
 10
932.861328125
 20
-697.1015625
 10
937.0234375
 20
-710.837890625
 10
932.021484375
 20
-726.216796875
 10
920.9775390625
 20
-733.662109375
 10
914.21484375
 20
-738.212890625
 10
906.6875
 20
-738.640625
 10
900.591796875
 20
-734.78515625
 10
897.3974609375
 20
-732.724609375
 10
894.9609375
 20
-730.001953125
 10
893.0859375
 20
-726.373046875
 10
892.8984375
 20
-726.029296875
 10
892.7294921875
 20
-725.69140625
 10
892.576171875
 20
-725.353515625
 10
892.609375
 20
-725.353515625
 10
892.6435546875
 20
-725.353515625
 10
892.6806640625
 20
-725.353515625
 10
898.2216796875
 20
-725.353515625
 10
903.455078125
 20
-722.841796875
 10
906.671875
 20
-718.62890625
 10
909.9560546875
 20
-714.33203125
 10
910.8447265625
 20
-708.611328125
 10
909.18359375
 20
-702.5078125
 10
907.099609375
 20
-694.853515625
 10
900.6435546875
 20
-689.912109375
 10
892.7333984375
 20
-689.912109375
 10
889.921875
 20
-689.912109375
 10
887.04296875
 20
-690.548828125
 10
884.396484375
 20
-691.771484375
 10
872.515625
 20
-697.251953125
 10
869.0966796875
 20
-711.37890625
 10
869.775390625
 20
-721.806640625
 10
871.1396484375
 20
-742.80078125
 10
888.7783203125
 20
-759.873046875
 10
909.09375
 20
-759.873046875
 10
911.4296875
 20
-759.873046875
 10
913.7724609375
 20
-759.640625
 10
916.0625
 20
-759.18359375
 10
937.533203125
 20
-754.90234375
 10
954.8076171875
 20
-732.58984375
 10
955.384765625
 20
-708.38671875
 10
955.9697265625
 20
-684.205078125
 10
940.82421875
 20
-661.404296875
 10
918.548828125
 20
-652.947265625
 10
914.57421875
 20
-651.44140625
 10
910.4208984375
 20
-650.345703125
 10
906.154296875
 20
-649.677734375
 10
906.154296875
 20
-649.677734375
 10
906.154296875
 20
-648.7265625
 10
906.154296875
 20
-648.7265625
 10
906.154296875
 20
-648.7265625
 10
102.091796875
 20
-648.7265625
 10
102.091796875
 20
-648.7265625
 10
102.091796875
 20
-648.7265625
 10
102.091796875
 20
-665.880859375
 10
102.091796875
 20
-665.880859375
 10
102.091796875
 20
-665.880859375
 10
244.744140625
 20
-665.880859375
 10
244.744140625
 20
-665.880859375
 10
234.705078125
 20
-670.8515625
 10
225.119140625
 20
-676.8203125
 10
216.091796875
 20
-683.734375
 10
207.4951171875
 20
-687.71484375
 10
200.263671875
 20
-690.736328125
 10
192.50732421875
 20
-690.736328125
 10
188.822265625
 20
-690.736328125
 10
185.234375
 20
-690.0546875
 10
181.5458984375
 20
-688.64453125
 10
177.099609375
 20
-686.943359375
 10
171.322265625
 20
-684.595703125
 10
166.10009765625
 20
-681.513671875
 10
166.10009765625
 20
-681.513671875
 10
164.17333984375
 20
-680.359375
 10
164.17333984375
 20
-680.359375
 10
160.349609375
 20
-678.01953125
 10
156.7353515625
 20
-675.81640625
 10
150.72216796875
 20
-675.650390625
 10
147.91796875
 20
-675.650390625
 10
145.2861328125
 20
-676.947265625
 10
143.501953125
 20
-679.197265625
 10
141.6201171875
 20
-681.57421875
 10
140.9111328125
 20
-684.73828125
 10
141.60498046875
 20
-687.654296875
 10
146.005859375
 20
-706.083984375
 10
170.9326171875
 20
-707.517578125
 10
178.4677734375
 20
-707.517578125
 10
180.94580078125
 20
-707.517578125
 10
183.3525390625
 20
-707.388671875
 10
185.62451171875
 20
-707.134765625
 10
187.4765625
 20
-706.931640625
 10
189.7109375
 20
-706.6171875
 10
192.1923828125
 20
-706.12890625
 10
191.138671875
 20
-707.359375
 10
190.1005859375
 20
-708.611328125
 10
189.08837890625
 20
-709.88671875
 10
188.267578125
 20
-710.185546875
 10
187.5478515625
 20
-710.7109375
 10
187.00390625
 20
-711.4296875
 10
184.21484375
 20
-715.126953125
 10
181.3505859375
 20
-719.130859375
 10
178.3818359375
 20
-723.26953125
 10
159.8095703125
 20
-749.197265625
 10
138.755859375
 20
-778.74609375
 10
106.95751953125
 20
-776.369140625
 10
99.939453125
 20
-775.822265625
 10
94.923828125
 20
-780.5234375
 10
94.6083984375
 20
-787.3828125
 10
94.32373046875
 20
-793.568359375
 10
98.365234375
 20
-800.548828125
 10
106.41796875
 20
-801.291015625
 10
127.24658203125
 20
-803.2265625
 10
141.875
 20
-790.1796875
 10
153.2265625
 20
-777.455078125
 10
155.783203125
 20
-774.591796875
 10
158.4033203125
 20
-771.64453125
 10
161.03173828125
 20
-768.623046875
 10
155.9404296875
 20
-793.845703125
 10
159.4267578125
 20
-818.408203125
 10
171.3037109375
 20
-839.22265625
 10
174.45263671875
 20
-844.748046875
 10
178.2841796875
 20
-850.00390625
 10
182.71875
 20
-854.86328125
 10
182.85009765625
 20
-857.509765625
 10
183.18017578125
 20
-860.111328125
 10
183.4990234375
 20
-862.646484375
 10
183.892578125
 20
-865.779296875
 10
184.267578125
 20
-868.734375
 10
184.27490234375
 20
-871.666015625
 10
184.3046875
 20
-880.84375
 10
182.15283203125
 20
-888.806640625
 10
177.29443359375
 20
-897.48828125
 10
177.001953125
 20
-898.01953125
 10
176.5673828125
 20
-898.732421875
 10
176.0498046875
 20
-899.595703125
 10
170.33642578125
 20
-909.072265625
 10
164.56298828125
 20
-919.755859375
 10
168.38671875
 20
-926.51953125
 10
169.6015625
 20
-928.671875
 10
172.2705078125
 20
-931.228515625
 10
178.115234375
 20
-931.228515625
 10
178.4716796875
 20
-931.228515625
 10
178.8388671875
 20
-931.220703125
 10
179.2177734375
 20
-931.197265625
 10
197.20849609375
 20
-930.3125
 10
200.02392578125
 20
-900.869140625
 10
201.0849609375
 20
-889.787109375
 10
201.205078125
 20
-888.53515625
 10
201.33984375
 20
-887.1640625
 10
201.46337890625
 20
-885.708984375
 10
201.46337890625
 20
-885.708984375
 10
315.3095703125
 20
-885.708984375
 10
315.3095703125
 20
-885.708984375
 10
318.3837890625
 20
-887.63671875
 10
321.6865234375
 20
-889.0390625
 10
325.48828125
 20
-889.0390625
 10
326.84521484375
 20
-889.0390625
 10
328.2099609375
 20
-888.8515625
 10
329.5517578125
 20
-888.482421875
 10
331.33642578125
 20
-887.9921875
 10
332.8623046875
 20
-887.001953125
 10
334.05810546875
 20
-885.708984375
 10
334.05810546875
 20
-885.708984375
 10
555.9775390625
 20
-885.708984375
 10
555.9775390625
 20
-885.708984375
 10
555.9775390625
 20
-885.708984375
 10
555.9775390625
 20
-858.65625
 10
555.9775390625
 20
-858.65625
 10
555.9775390625
 20
-858.65625
 10
529.5107421875
 20
-858.65625
 10
529.5107421875
 20
-858.65625
 10
528.404296875
 20
-858.65625
 10
527.34375
 20
-858.638671875
 10
526.2568359375
 20
-858.630859375
 10
529.720703125
 20
-852.958984375
 10
532.265625
 20
-846.619140625
 10
533.67578125
 20
-839.814453125
 10
534.6767578125
 20
-840.595703125
 10
535.658203125
 20
-841.337890625
 10
536.595703125
 20
-842.048828125
 10
536.595703125
 20
-842.048828125
 10
537.59375
 20
-842.806640625
 10
537.59375
 20
-842.806640625
 10
544.986328125
 20
-848.4453125
 10
554.853515625
 20
-854.96875
 10
566.001953125
 20
-855.349609375
 10
570.580078125
 20
-855.349609375
 10
574.298828125
 20
-852.1484375
 10
575.2578125
 20
-847.380859375
 10
576.29296875
 20
-842.236328125
 10
573.837890625
 20
-837.16015625
 10
569.4287109375
 20
-835.30859375
 10
565.6201171875
 20
-833.71875
 10
561.736328125
 20
-832.8125
 10
557.9794921875
 20
-831.943359375
 10
553.908203125
 20
-830.998046875
 10
550.0625
 20
-830.09765625
 10
546.455078125
 20
-828.404296875
 10
543.5615234375
 20
-827.0390625
 10
540.9443359375
 20
-824.962890625
 10
538.169921875
 20
-822.765625
 10
536.962890625
 20
-821.8125
 10
535.759765625
 20
-820.861328125
 10
534.5302734375
 20
-819.9609375
 10
534.287109375
 20
-817.876953125
 10
533.94140625
 20
-815.822265625
 10
533.5068359375
 20
-813.8359375
 10
533.02734375
 20
-811.67578125
 10
532.44921875
 20
-809.5390625
 10
531.775390625
 20
-807.431640625
 10
533.6865234375
 20
-808.181640625
 10
535.6328125
 20
-808.86328125
 10
537.5556640625
 20
-809.45703125
 10
543.06640625
 20
-811.14453125
 10
548.3671875
 20
-806.9375
 10
548.7421875
 20
-800.818359375
 10
549.0576171875
 20
-795.728515625
 10
545.8779296875
 20
-791.74609375
 10
541.01953125
 20
-791.146484375
 10
535.89453125
 20
-790.525390625
 10
531.291015625
 20
-789.828125
 10
526.8564453125
 20
-787.697265625
 10
525.1845703125
 20
-786.888671875
 10
523.5419921875
 20
-785.9140625
 10
521.802734375
 20
-784.88671875
 10
520.603515625
 20
-784.173828125
 10
519.4033203125
 20
-783.46875
 10
518.189453125
 20
-782.802734375
 10
511.140625
 20
-774.240234375
 10
501.92578125
 20
-766.5546875
 10
490.736328125
 20
-759.880859375
 10
498.365234375
 20
-755.404296875
 10
504.8466796875
 20
-750.322265625
 10
510.068359375
 20
-744.720703125
 10
538.05078125
 20
-744.12890625
 10
567.1494140625
 20
-732.2890625
 10
592.4169921875
 20
-720.224609375
 10
604.458984375
 20
-743.716796875
 10
621.388671875
 20
-765.13671875
 10
638.2060546875
 20
-778.025390625
 10
657.6328125
 20
-792.923828125
 10
681.91796875
 20
-801.126953125
 10
706.5859375
 20
-801.126953125
 10
723.462890625
 20
-801.126953125
 10
740.2880859375
 20
-797.220703125
 10
755.25390625
 20
-789.8203125
 10
762.748046875
 20
-786.115234375
 10
769.875
 20
-781.294921875
 10
776.83984375
 20
-775.21484375
 97
        0
 92
        1
 93
        1
 72
     4
 94
        3
 73
     0
 74
     1
 95
       32
 96
       28
 40
0.0
 40
0.0
 40
0.0
 40
0.0
 40
1.0
 40
1.0
 40
1.0
 40
2.0
 40
2.0
 40
2.0
 40
3.0
 40
3.0
 40
3.0
 40
4.0
 40
4.0
 40
4.0
 40
5.0
 40
5.0
 40
5.0
 40
6.0
 40
6.0
 40
6.0
 40
7.0
 40
7.0
 40
7.0
 40
8.0
 40
8.0
 40
8.0
 40
9.0
 40
9.0
 40
9.0
 40
9.0
 10
445.865234375
 20
-665.880859375
 10
444.5
 20
-667.80078125
 10
443.3232421875
 20
-669.84765625
 10
442.341796875
 20
-672.013671875
 10
432.4365234375
 20
-693.826171875
 10
444.4443359375
 20
-719.17578125
 10
461.775390625
 20
-731.07421875
 10
469.2578125
 20
-736.21875
 10
477.5283203125
 20
-739.9375
 10
486.435546875
 20
-742.1796875
 10
482.3271484375
 20
-745.298828125
 10
477.73828125
 20
-748.169921875
 10
472.7412109375
 20
-750.748046875
 10
469.595703125
 20
-749.3984375
 10
466.345703125
 20
-748.109375
 10
463.0537109375
 20
-746.91015625
 10
451.76953125
 20
-742.787109375
 10
440.361328125
 20
-739.640625
 10
428.927734375
 20
-737.11328125
 10
428.548828125
 20
-720.203125
 10
428.357421875
 20
-700.56640625
 10
428.357421875
 20
-678.103515625
 10
428.357421875
 20
-678.103515625
 10
428.357421875
 20
-665.880859375
 10
428.357421875
 20
-665.880859375
 10
428.357421875
 20
-665.880859375
 10
445.865234375
 20
-665.880859375
 10
445.865234375
 20
-665.880859375
 97
        0
 92
        1
 93
        1
 72
     4
 94
        3
 73
     0
 74
     1
 95
       14
 96
       10
 40
0.0
 40
0.0
 40
0.0
 40
0.0
 40
1.0
 40
1.0
 40
1.0
 40
2.0
 40
2.0
 40
2.0
 40
3.0
 40
3.0
 40
3.0
 40
3.0
 10
429.4228515625
 20
-754.7265625
 10
434.8583984375
 20
-756.60546875
 10
440.14453125
 20
-758.62890625
 10
445.2353515625
 20
-760.818359375
 10
440.1220703125
 20
-762.033203125
 10
434.93359375
 20
-762.9140625
 10
429.755859375
 20
-763.494140625
 10
429.63671875
 20
-760.69921875
 10
429.52734375
 20
-757.755859375
 10
429.4228515625
 20
-754.7265625
 97
        0
 92
        1
 93
        1
 72
     4
 94
        3
 73
     0
 74
     1
 95
       17
 96
       13
 40
0.0
 40
0.0
 40
0.0
 40
0.0
 40
1.0
 40
1.0
 40
1.0
 40
2.0
 40
2.0
 40
2.0
 40
3.0
 40
3.0
 40
3.0
 40
4.0
 40
4.0
 40
4.0
 40
4.0
 10
313.0869140625
 20
-665.880859375
 10
313.0869140625
 20
-665.880859375
 10
313.0869140625
 20
-678.103515625
 10
313.0869140625
 20
-678.103515625
 10
313.0869140625
 20
-680.10546875
 10
313.0791015625
 20
-682.017578125
 10
313.0791015625
 20
-683.97265625
 10
311.07373046875
 20
-677.6484375
 10
310.07275390625
 20
-671.556640625
 10
310.1923828125
 20
-665.880859375
 10
310.1923828125
 20
-665.880859375
 10
313.0869140625
 20
-665.880859375
 10
313.0869140625
 20
-665.880859375
 97
        0
 92
        1
 93
        1
 72
     4
 94
        3
 73
     0
 74
     1
 95
       23
 96
       19
 40
0.0
 40
0.0
 40
0.0
 40
0.0
 40
1.0
 40
1.0
 40
1.0
 40
2.0
 40
2.0
 40
2.0
 40
3.0
 40
3.0
 40
3.0
 40
4.0
 40
4.0
 40
4.0
 40
5.0
 40
5.0
 40
5.0
 40
6.0
 40
6.0
 40
6.0
 40
6.0
 10
285.46484375
 20
-666.6015625
 10
286.57470703125
 20
-666.353515625
 10
287.6845703125
 20
-666.11328125
 10
288.7900390625
 20
-665.880859375
 10
288.7900390625
 20
-665.880859375
 10
293.2705078125
 20
-665.880859375
 10
293.2705078125
 20
-665.880859375
 10
295.759765625
 20
-683.34375
 10
301.8330078125
 20
-700.296875
 10
311.0625
 20
-715.61328125
 10
302.67236328125
 20
-712.142578125
 10
295.5869140625
 20
-707.75
 10
289.5810546875
 20
-702.328125
 10
280.73046875
 20
-694.349609375
 10
275.4404296875
 20
-685.271484375
 10
272.6474609375
 20
-673.169921875
 10
277.06005859375
 20
-670.6953125
 10
281.5361328125
 20
-668.490234375
 10
285.46484375
 20
-666.6015625
 97
        0
 92
        1
 93
        1
 72
     4
 94
        3
 73
     0
 74
     1
 95
       92
 96
       88
 40
0.0
 40
0.0
 40
0.0
 40
0.0
 40
1.0
 40
1.0
 40
1.0
 40
2.0
 40
2.0
 40
2.0
 40
3.0
 40
3.0
 40
3.0
 40
4.0
 40
4.0
 40
4.0
 40
5.0
 40
5.0
 40
5.0
 40
6.0
 40
6.0
 40
6.0
 40
7.0
 40
7.0
 40
7.0
 40
8.0
 40
8.0
 40
8.0
 40
9.0
 40
9.0
 40
9.0
 40
10.0
 40
10.0
 40
10.0
 40
11.0
 40
11.0
 40
11.0
 40
12.0
 40
12.0
 40
12.0
 40
13.0
 40
13.0
 40
13.0
 40
14.0
 40
14.0
 40
14.0
 40
15.0
 40
15.0
 40
15.0
 40
16.0
 40
16.0
 40
16.0
 40
17.0
 40
17.0
 40
17.0
 40
18.0
 40
18.0
 40
18.0
 40
19.0
 40
19.0
 40
19.0
 40
20.0
 40
20.0
 40
20.0
 40
21.0
 40
21.0
 40
21.0
 40
22.0
 40
22.0
 40
22.0
 40
23.0
 40
23.0
 40
23.0
 40
24.0
 40
24.0
 40
24.0
 40
25.0
 40
25.0
 40
25.0
 40
26.0
 40
26.0
 40
26.0
 40
27.0
 40
27.0
 40
27.0
 40
28.0
 40
28.0
 40
28.0
 40
29.0
 40
29.0
 40
29.0
 40
29.0
 10
185.654296875
 20
-828.328125
 10
175.876953125
 20
-811.578125
 10
172.060546875
 20
-790.63671875
 10
175.1796875
 20
-770.767578125
 10
180.0986328125
 20
-739.435546875
 10
198.5283203125
 20
-711.8125
 10
227.0087890625
 20
-692.025390625
 10
226.83203125
 20
-692.28125
 10
226.65234375
 20
-692.54296875
 10
226.47607421875
 20
-692.806640625
 10
214.58837890625
 20
-710.41015625
 10
211.1884765625
 20
-736.87890625
 10
228.3095703125
 20
-751.251953125
 10
230.4833984375
 20
-753.080078125
 10
233.302734375
 20
-754.0859375
 10
236.24951171875
 20
-754.0859375
 10
240.29443359375
 20
-754.0859375
 10
244.0322265625
 20
-752.279296875
 10
246.244140625
 20
-749.2421875
 10
248.27587890625
 20
-746.466796875
 10
248.7783203125
 20
-742.98828125
 10
247.64990234375
 20
-739.45703125
 10
241.5576171875
 20
-720.359375
 10
237.16015625
 20
-706.564453125
 10
250.9150390625
 20
-690.11328125
 10
253.6103515625
 20
-686.8984375
 10
256.8193359375
 20
-683.869140625
 10
260.6474609375
 20
-680.9453125
 10
264.3740234375
 20
-695.603515625
 10
275.3056640625
 20
-708.626953125
 10
285.1572265625
 20
-716.4765625
 10
292.94775390625
 20
-722.681640625
 10
301.8740234375
 20
-727.423828125
 10
312.6142578125
 20
-731.041015625
 10
312.17578125
 20
-752.978515625
 10
311.42236328125
 20
-770.6328125
 10
310.361328125
 20
-784.04296875
 10
303.017578125
 20
-775.671875
 10
292.4677734375
 20
-770.28125
 10
281.71240234375
 20
-770.28125
 10
274.8369140625
 20
-770.28125
 10
268.2421875
 20
-772.5078125
 10
262.63427734375
 20
-776.720703125
 10
257.16796875
 20
-780.837890625
 10
255.0205078125
 20
-787.12890625
 10
257.029296875
 20
-793.134765625
 10
258.9375
 20
-798.83984375
 10
264.23486328125
 20
-802.671875
 10
270.21826171875
 20
-802.671875
 10
272.396484375
 20
-802.671875
 10
274.6083984375
 20
-802.18359375
 10
276.7900390625
 20
-801.232421875
 10
281.6337890625
 20
-799.1171875
 10
285.31494140625
 20
-799.59765625
 10
288.1640625
 20
-802.904296875
 10
292.34033203125
 20
-807.740234375
 10
293.619140625
 20
-816.9609375
 10
292.7001953125
 20
-823.185546875
 10
291.107421875
 20
-833.99609375
 10
284.3779296875
 20
-842.439453125
 10
279.0166015625
 20
-847.61328125
 10
278.75439453125
 20
-847.86328125
 10
278.4658203125
 20
-848.078125
 10
278.19970703125
 20
-848.32421875
 10
265.8056640625
 20
-854.537109375
 10
246.5888671875
 20
-857.94140625
 10
220.564453125
 20
-858.548828125
 10
215.337890625
 20
-856.546875
 10
210.42333984375
 20
-853.953125
 10
205.88720703125
 20
-850.716796875
 10
221.98876953125
 20
-851.255859375
 10
235.671875
 20
-844.013671875
 10
241.775390625
 20
-831.6796875
 10
243.642578125
 20
-827.908203125
 10
243.40234375
 20
-823.626953125
 10
241.1083984375
 20
-819.939453125
 10
238.80615234375
 20
-816.21875
 10
234.884765625
 20
-813.91796875
 10
230.884765625
 20
-813.91796875
 10
227.7841796875
 20
-813.91796875
 10
224.8681640625
 20
-815.3203125
 10
222.6708984375
 20
-817.869140625
 10
216.140625
 20
-825.44921875
 10
210.0595703125
 20
-831.859375
 10
201.79345703125
 20
-833.5703125
 10
196.4365234375
 20
-834.671875
 10
191.2705078125
 20
-833.0
 10
185.654296875
 20
-828.328125
 97
        0
 92
        1
 93
        1
 72
     4
 94
        3
 73
     0
 74
     1
 95
       29
 96
       25
 40
0.0
 40
0.0
 40
0.0
 40
0.0
 40
1.0
 40
1.0
 40
1.0
 40
2.0
 40
2.0
 40
2.0
 40
3.0
 40
3.0
 40
3.0
 40
4.0
 40
4.0
 40
4.0
 40
5.0
 40
5.0
 40
5.0
 40
6.0
 40
6.0
 40
6.0
 40
7.0
 40
7.0
 40
7.0
 40
8.0
 40
8.0
 40
8.0
 40
8.0
 10
508.7421875
 20
-822.517578125
 10
510.69140625
 20
-837.138671875
 10
503.5009765625
 20
-850.650390625
 10
491.3583984375
 20
-856.265625
 10
475.826171875
 20
-853.986328125
 10
464.212890625
 20
-850.087890625
 10
456.5869140625
 20
-844.5390625
 10
443.6455078125
 20
-835.12890625
 10
435.7060546875
 20
-820.7265625
 10
432.7666015625
 20
-801.314453125
 10
431.904296875
 20
-795.6015625
 10
431.169921875
 20
-787.9609375
 10
430.5546875
 20
-778.498046875
 10
442.1611328125
 20
-777.59765625
 10
453.873046875
 20
-775.166015625
 10
465.486328125
 20
-771.1875
 10
465.486328125
 20
-771.1875
 10
465.787109375
 20
-771.08203125
 10
465.787109375
 20
-771.08203125
 10
470.4052734375
 20
-773.736328125
 10
474.57421875
 20
-776.376953125
 10
478.48828125
 20
-779.12109375
 10
495.6396484375
 20
-791.146484375
 10
506.6650390625
 20
-806.966796875
 10
508.7421875
 20
-822.517578125
 97
        0
 92
        1
 93
        1
 72
     4
 94
        3
 73
     0
 74
     1
 95
       23
 96
       19
 40
0.0
 40
0.0
 40
0.0
 40
0.0
 40
1.0
 40
1.0
 40
1.0
 40
2.0
 40
2.0
 40
2.0
 40
3.0
 40
3.0
 40
3.0
 40
4.0
 40
4.0
 40
4.0
 40
5.0
 40
5.0
 40
5.0
 40
6.0
 40
6.0
 40
6.0
 40
6.0
 10
502.1435546875
 20
-725.49609375
 10
487.05859375
 20
-724.84375
 10
475.4287109375
 20
-720.509765625
 10
467.556640625
 20
-712.591796875
 10
460.396484375
 20
-705.40234375
 10
456.3359375
 20
-694.58203125
 10
457.45703125
 20
-685.66796875
 10
458.27734375
 20
-679.13671875
 10
461.6181640625
 20
-674.091796875
 10
467.3916015625
 20
-670.650390625
 10
471.3388671875
 20
-668.294921875
 10
475.564453125
 20
-667.103515625
 10
479.9423828125
 20
-667.103515625
 10
493.18359375
 20
-667.103515625
 10
505.9072265625
 20
-678.109375
 10
508.9140625
 20
-692.162109375
 10
511.88671875
 20
-706.03125
 10
507.14453125
 20
-717.69921875
 10
502.1435546875
 20
-725.49609375
 97
        0
 92
        1
 93
        1
 72
     4
 94
        3
 73
     0
 74
     1
 95
       20
 96
       16
 40
0.0
 40
0.0
 40
0.0
 40
0.0
 40
1.0
 40
1.0
 40
1.0
 40
2.0
 40
2.0
 40
2.0
 40
3.0
 40
3.0
 40
3.0
 40
4.0
 40
4.0
 40
4.0
 40
5.0
 40
5.0
 40
5.0
 40
5.0
 10
523.384765625
 20
-724.20703125
 10
524.5205078125
 20
-721.462890625
 10
525.4619140625
 20
-718.650390625
 10
526.1962890625
 20
-715.80078125
 10
530.78515625
 20
-697.94921875
 10
526.7890625
 20
-679.001953125
 10
516.2353515625
 20
-665.880859375
 10
516.2353515625
 20
-665.880859375
 10
575.73828125
 20
-665.880859375
 10
575.73828125
 20
-665.880859375
 10
576.5888671875
 20
-677.548828125
 10
579.603515625
 20
-690.076171875
 10
584.724609375
 20
-703.212890625
 10
567.07421875
 20
-711.91796875
 10
546.373046875
 20
-720.765625
 10
523.384765625
 20
-724.20703125
 97
        0
 92
        1
 93
        1
 72
     4
 94
        3
 73
     0
 74
     1
 95
       20
 96
       16
 40
0.0
 40
0.0
 40
0.0
 40
0.0
 40
1.0
 40
1.0
 40
1.0
 40
2.0
 40
2.0
 40
2.0
 40
3.0
 40
3.0
 40
3.0
 40
4.0
 40
4.0
 40
4.0
 40
5.0
 40
5.0
 40
5.0
 40
5.0
 10
595.314453125
 20
-667.44140625
 10
595.314453125
 20
-667.44140625
 10
594.869140625
 20
-665.880859375
 10
594.869140625
 20
-665.880859375
 10
594.869140625
 20
-665.880859375
 10
658.9375
 20
-665.880859375
 10
658.9375
 20
-665.880859375
 10
642.63671875
 20
-672.62109375
 10
626.9521484375
 20
-681.01171875
 10
611.6376953125
 20
-689.19921875
 10
608.814453125
 20
-690.70703125
 10
605.9921875
 20
-692.220703125
 10
603.1650390625
 20
-693.720703125
 10
600.3193359375
 20
-684.970703125
 10
597.78125
 20
-676.078125
 10
595.314453125
 20
-667.44140625
 97
        0
 92
        1
 93
        1
 72
     4
 94
        3
 73
     0
 74
     1
 95
       80
 96
       76
 40
0.0
 40
0.0
 40
0.0
 40
0.0
 40
1.0
 40
1.0
 40
1.0
 40
2.0
 40
2.0
 40
2.0
 40
3.0
 40
3.0
 40
3.0
 40
4.0
 40
4.0
 40
4.0
 40
5.0
 40
5.0
 40
5.0
 40
6.0
 40
6.0
 40
6.0
 40
7.0
 40
7.0
 40
7.0
 40
8.0
 40
8.0
 40
8.0
 40
9.0
 40
9.0
 40
9.0
 40
10.0
 40
10.0
 40
10.0
 40
11.0
 40
11.0
 40
11.0
 40
12.0
 40
12.0
 40
12.0
 40
13.0
 40
13.0
 40
13.0
 40
14.0
 40
14.0
 40
14.0
 40
15.0
 40
15.0
 40
15.0
 40
16.0
 40
16.0
 40
16.0
 40
17.0
 40
17.0
 40
17.0
 40
18.0
 40
18.0
 40
18.0
 40
19.0
 40
19.0
 40
19.0
 40
20.0
 40
20.0
 40
20.0
 40
21.0
 40
21.0
 40
21.0
 40
22.0
 40
22.0
 40
22.0
 40
23.0
 40
23.0
 40
23.0
 40
24.0
 40
24.0
 40
24.0
 40
25.0
 40
25.0
 40
25.0
 40
25.0
 10
630.1044921875
 20
-747.0078125
 10
622.36328125
 20
-738.041015625
 10
615.66796875
 20
-726.470703125
 10
609.6845703125
 20
-711.72265625
 10
612.1328125
 20
-710.494140625
 10
614.5546875
 20
-709.263671875
 10
616.9423828125
 20
-708.056640625
 10
626.5283203125
 20
-703.197265625
 10
635.58203125
 20
-698.609375
 10
643.822265625
 20
-694.890625
 10
667.4248046875
 20
-684.236328125
 10
692.53515625
 20
-674.376953125
 10
716.1904296875
 20
-674.376953125
 10
727.625
 20
-674.376953125
 10
737.814453125
 20
-676.8046875
 10
746.470703125
 20
-681.58984375
 10
761.830078125
 20
-690.076171875
 10
768.3076171875
 20
-707.7109375
 10
762.2265625
 20
-724.4609375
 10
758.9580078125
 20
-733.458984375
 10
752.7578125
 20
-740.02734375
 10
744.7607421875
 20
-742.943359375
 10
738.8486328125
 20
-745.103515625
 10
734.470703125
 20
-745.365234375
 10
731.1640625
 20
-743.75390625
 10
728.73828125
 20
-742.576171875
 10
725.806640625
 20
-739.486328125
 10
725.296875
 20
-736.541015625
 10
725.0419921875
 20
-735.078125
 10
725.443359375
 20
-733.86328125
 10
726.552734375
 20
-732.732421875
 10
730.916015625
 20
-728.26953125
 10
732.138671875
 20
-722.677734375
 10
729.9111328125
 20
-717.3828125
 10
727.580078125
 20
-711.8359375
 10
721.904296875
 20
-707.958984375
 10
716.1083984375
 20
-707.958984375
 10
711.5791015625
 20
-707.958984375
 10
707.658203125
 20
-710.267578125
 10
705.0712890625
 20
-714.466796875
 10
698.7470703125
 20
-724.716796875
 10
697.783203125
 20
-737.357421875
 10
702.4921875
 20
-748.2890625
 10
707.1748046875
 20
-759.162109375
 10
716.587890625
 20
-766.787109375
 10
728.314453125
 20
-769.22265625
 10
731.201171875
 20
-769.82421875
 10
734.1552734375
 20
-770.123046875
 10
737.0869140625
 20
-770.123046875
 10
757.7880859375
 20
-770.123046875
 10
778.34765625
 20
-754.416015625
 10
785.96484375
 20
-732.77734375
 10
794.193359375
 20
-709.421875
 10
787.6220703125
 20
-683.44140625
 10
769.6162109375
 20
-668.115234375
 10
768.712890625
 20
-667.34375
 10
767.783203125
 20
-666.6015625
 10
766.8271484375
 20
-665.880859375
 10
766.8271484375
 20
-665.880859375
 10
847.3193359375
 20
-665.880859375
 10
847.3193359375
 20
-665.880859375
 10
845.775390625
 20
-666.96875
 10
844.259765625
 20
-668.107421875
 10
842.7685546875
 20
-669.29296875
 10
825.60546875
 20
-682.900390625
 10
813.23828125
 20
-701.076171875
 10
801.279296875
 20
-718.658203125
 10
795.6484375
 20
-726.927734375
 10
789.826171875
 20
-735.482421875
 10
783.603515625
 20
-743.400390625
 10
763.134765625
 20
-769.462890625
 10
736.6669921875
 20
-783.296875
 10
706.720703125
 20
-783.39453125
 10
677.546875
 20
-783.39453125
 10
650.341796875
 20
-770.474609375
 10
630.1044921875
 20
-747.0078125
 97
        0
 75
     2
 76
     1
 98
        0
  0
SPLINE
  5
53
330
3C
100
AcDbEntity
  8
Layer 1
370
     0
100
AcDbSpline
210
0.0
220
0.0
230
1.0
 70
    11
 71
     3
 72
   272
 73
   268
 74
     0
 42
0.0000000001
 43
0.0000000001
 40
0.0
 40
0.0
 40
0.0
 40
0.0
 40
1.0
 40
1.0
 40
1.0
 40
2.0
 40
2.0
 40
2.0
 40
3.0
 40
3.0
 40
3.0
 40
4.0
 40
4.0
 40
4.0
 40
5.0
 40
5.0
 40
5.0
 40
6.0
 40
6.0
 40
6.0
 40
7.0
 40
7.0
 40
7.0
 40
8.0
 40
8.0
 40
8.0
 40
9.0
 40
9.0
 40
9.0
 40
10.0
 40
10.0
 40
10.0
 40
11.0
 40
11.0
 40
11.0
 40
12.0
 40
12.0
 40
12.0
 40
13.0
 40
13.0
 40
13.0
 40
14.0
 40
14.0
 40
14.0
 40
15.0
 40
15.0
 40
15.0
 40
16.0
 40
16.0
 40
16.0
 40
17.0
 40
17.0
 40
17.0
 40
18.0
 40
18.0
 40
18.0
 40
19.0
 40
19.0
 40
19.0
 40
20.0
 40
20.0
 40
20.0
 40
21.0
 40
21.0
 40
21.0
 40
22.0
 40
22.0
 40
22.0
 40
23.0
 40
23.0
 40
23.0
 40
24.0
 40
24.0
 40
24.0
 40
25.0
 40
25.0
 40
25.0
 40
26.0
 40
26.0
 40
26.0
 40
27.0
 40
27.0
 40
27.0
 40
28.0
 40
28.0
 40
28.0
 40
29.0
 40
29.0
 40
29.0
 40
30.0
 40
30.0
 40
30.0
 40
31.0
 40
31.0
 40
31.0
 40
32.0
 40
32.0
 40
32.0
 40
33.0
 40
33.0
 40
33.0
 40
34.0
 40
34.0
 40
34.0
 40
35.0
 40
35.0
 40
35.0
 40
36.0
 40
36.0
 40
36.0
 40
37.0
 40
37.0
 40
37.0
 40
38.0
 40
38.0
 40
38.0
 40
39.0
 40
39.0
 40
39.0
 40
40.0
 40
40.0
 40
40.0
 40
41.0
 40
41.0
 40
41.0
 40
42.0
 40
42.0
 40
42.0
 40
43.0
 40
43.0
 40
43.0
 40
44.0
 40
44.0
 40
44.0
 40
45.0
 40
45.0
 40
45.0
 40
46.0
 40
46.0
 40
46.0
 40
47.0
 40
47.0
 40
47.0
 40
48.0
 40
48.0
 40
48.0
 40
49.0
 40
49.0
 40
49.0
 40
50.0
 40
50.0
 40
50.0
 40
51.0
 40
51.0
 40
51.0
 40
52.0
 40
52.0
 40
52.0
 40
53.0
 40
53.0
 40
53.0
 40
54.0
 40
54.0
 40
54.0
 40
55.0
 40
55.0
 40
55.0
 40
56.0
 40
56.0
 40
56.0
 40
57.0
 40
57.0
 40
57.0
 40
58.0
 40
58.0
 40
58.0
 40
59.0
 40
59.0
 40
59.0
 40
60.0
 40
60.0
 40
60.0
 40
61.0
 40
61.0
 40
61.0
 40
62.0
 40
62.0
 40
62.0
 40
63.0
 40
63.0
 40
63.0
 40
64.0
 40
64.0
 40
64.0
 40
65.0
 40
65.0
 40
65.0
 40
66.0
 40
66.0
 40
66.0
 40
67.0
 40
67.0
 40
67.0
 40
68.0
 40
68.0
 40
68.0
 40
69.0
 40
69.0
 40
69.0
 40
70.0
 40
70.0
 40
70.0
 40
71.0
 40
71.0
 40
71.0
 40
72.0
 40
72.0
 40
72.0
 40
73.0
 40
73.0
 40
73.0
 40
74.0
 40
74.0
 40
74.0
 40
75.0
 40
75.0
 40
75.0
 40
76.0
 40
76.0
 40
76.0
 40
77.0
 40
77.0
 40
77.0
 40
78.0
 40
78.0
 40
78.0
 40
79.0
 40
79.0
 40
79.0
 40
80.0
 40
80.0
 40
80.0
 40
81.0
 40
81.0
 40
81.0
 40
82.0
 40
82.0
 40
82.0
 40
83.0
 40
83.0
 40
83.0
 40
84.0
 40
84.0
 40
84.0
 40
85.0
 40
85.0
 40
85.0
 40
86.0
 40
86.0
 40
86.0
 40
87.0
 40
87.0
 40
87.0
 40
88.0
 40
88.0
 40
88.0
 40
89.0
 40
89.0
 40
89.0
 40
89.0
 10
908.70703125
 20
-510.35546875
 30
0.0
 10
908.70703125
 20
-510.35546875
 30
0.0
 10
908.70703125
 20
-493.19970703125
 30
0.0
 10
908.70703125
 20
-493.19970703125
 30
0.0
 10
908.70703125
 20
-493.19970703125
 30
0.0
 10
766.0546875
 20
-493.19970703125
 30
0.0
 10
766.0546875
 20
-493.19970703125
 30
0.0
 10
776.09375
 20
-488.22900390625
 30
0.0
 10
785.67578125
 20
-482.2529296875
 30
0.0
 10
794.703125
 20
-475.34033203125
 30
0.0
 10
803.3076171875
 20
-471.35888671875
 30
0.0
 10
810.54296875
 20
-468.33740234375
 30
0.0
 10
818.2919921875
 20
-468.33740234375
 30
0.0
 10
821.98046875
 20
-468.33740234375
 30
0.0
 10
825.564453125
 20
-469.02685546875
 30
0.0
 10
829.2578125
 20
-470.4365234375
 30
0.0
 10
833.70703125
 20
-472.13818359375
 30
0.0
 10
839.484375
 20
-474.4853515625
 30
0.0
 10
844.69921875
 20
-477.55908203125
 30
0.0
 10
844.69921875
 20
-477.55908203125
 30
0.0
 10
846.6181640625
 20
-478.7138671875
 30
0.0
 10
846.6181640625
 20
-478.7138671875
 30
0.0
 10
850.44921875
 20
-481.05322265625
 30
0.0
 10
854.0634765625
 20
-483.2578125
 30
0.0
 10
860.0771484375
 20
-483.42236328125
 30
0.0
 10
862.884765625
 20
-483.42236328125
 30
0.0
 10
865.5205078125
 20
-482.12548828125
 30
0.0
 10
867.3046875
 20
-479.86865234375
 30
0.0
 10
869.1796875
 20
-477.49169921875
 30
0.0
 10
869.8916015625
 20
-474.33544921875
 30
0.0
 10
869.1943359375
 20
-471.41845703125
 30
0.0
 10
864.79296875
 20
-452.99658203125
 30
0.0
 10
839.86328125
 20
-451.564453125
 30
0.0
 10
832.328125
 20
-451.564453125
 30
0.0
 10
829.853515625
 20
-451.564453125
 30
0.0
 10
827.4462890625
 20
-451.69189453125
 30
0.0
 10
825.1748046875
 20
-451.939453125
 30
0.0
 10
823.318359375
 20
-452.14208984375
 30
0.0
 10
821.091796875
 20
-452.45654296875
 30
0.0
 10
818.6064453125
 20
-452.94384765625
 30
0.0
 10
819.66015625
 20
-451.71435546875
 30
0.0
 10
820.6982421875
 20
-450.46240234375
 30
0.0
 10
821.7109375
 20
-449.1953125
 30
0.0
 10
822.53125
 20
-448.8955078125
 30
0.0
 10
823.251953125
 20
-448.36279296875
 30
0.0
 10
823.794921875
 20
-447.64306640625
 30
0.0
 10
826.583984375
 20
-443.94677734375
 30
0.0
 10
829.4482421875
 20
-439.95068359375
 30
0.0
 10
832.41796875
 20
-435.80419921875
 30
0.0
 10
850.9892578125
 20
-409.876953125
 30
0.0
 10
872.1181640625
 20
-380.373046875
 30
0.0
 10
903.841796875
 20
-382.697265625
 30
0.0
 10
904.205078125
 20
-382.72705078125
 30
0.0
 10
904.5615234375
 20
-382.7421875
 30
0.0
 10
904.90625
 20
-382.7421875
 30
0.0
 10
904.90625
 20
-382.7421875
 30
0.0
 10
904.90625
 20
-382.7421875
 30
0.0
 10
904.91015625
 20
-382.7421875
 30
0.0
 10
911.2490234375
 20
-382.7421875
 30
0.0
 10
915.890625
 20
-378.19873046875
 30
0.0
 10
916.1904296875
 20
-371.6982421875
 30
0.0
 10
916.478515625
 20
-365.5048828125
 30
0.0
 10
912.4375
 20
-358.5244140625
 30
0.0
 10
904.380859375
 20
-357.77490234375
 30
0.0
 10
883.5302734375
 20
-355.84033203125
 30
0.0
 10
868.923828125
 20
-368.89404296875
 30
0.0
 10
857.572265625
 20
-381.61767578125
 30
0.0
 10
855.015625
 20
-384.48193359375
 30
0.0
 10
852.3994140625
 20
-387.4208984375
 30
0.0
 10
849.771484375
 20
-390.4501953125
 30
0.0
 10
854.8623046875
 20
-365.2275390625
 30
0.0
 10
851.3720703125
 20
-340.66455078125
 30
0.0
 10
839.4951171875
 20
-319.84326171875
 30
0.0
 10
836.3310546875
 20
-314.30224609375
 30
0.0
 10
832.4921875
 20
-309.04638671875
 30
0.0
 10
828.080078125
 20
-304.21044921875
 30
0.0
 10
827.94921875
 20
-301.56396484375
 30
0.0
 10
827.619140625
 20
-298.9619140625
 30
0.0
 10
827.30078125
 20
-296.427734375
 30
0.0
 10
826.90625
 20
-293.29345703125
 30
0.0
 10
826.53125
 20
-290.33935546875
 30
0.0
 10
826.5244140625
 20
-287.40771484375
 30
0.0
 10
826.494140625
 20
-278.23046875
 30
0.0
 10
828.650390625
 20
-270.26806640625
 30
0.0
 10
833.5048828125
 20
-261.578125
 30
0.0
 10
833.8046875
 20
-261.05322265625
 30
0.0
 10
834.236328125
 20
-260.33349609375
 30
0.0
 10
834.7568359375
 20
-259.47119140625
 30
0.0
 10
840.462890625
 20
-249.99365234375
 30
0.0
 10
846.232421875
 20
-239.31689453125
 30
0.0
 10
842.412109375
 20
-232.54638671875
 30
0.0
 10
841.123046875
 20
-230.27490234375
 30
0.0
 10
838.212890625
 20
-227.53076171875
 30
0.0
 10
831.5849609375
 20
-227.87548828125
 30
0.0
 10
822.958984375
 20
-228.29931640625
 30
0.0
 10
817.845703125
 20
-235.3095703125
 30
0.0
 10
814.71484375
 20
-243.69580078125
 30
0.0
 10
808.2294921875
 20
-215.11767578125
 30
0.0
 10
795.8173828125
 20
-190.13525390625
 30
0.0
 10
777.40234375
 20
-168.80029296875
 30
0.0
 10
748.970703125
 20
-135.86279296875
 30
0.0
 10
712.5087890625
 20
-112.9267578125
 30
0.0
 10
668.013671875
 20
-99.98583984375
 30
0.0
 10
623.509765625
 20
-87.05224609375
 30
0.0
 10
560.09375
 20
-80.58154296875
 30
0.0
 10
477.7607421875
 20
-80.58154296875
 30
0.0
 10
433.05859375
 20
-80.58154296875
 30
0.0
 10
370.72265625
 20
-81.9609375
 30
0.0
 10
290.73583984375
 20
-84.69775390625
 30
0.0
 10
290.73583984375
 20
-84.69775390625
 30
0.0
 10
190.7607421875
 20
-88.2216796875
 30
0.0
 10
190.7607421875
 20
-88.2216796875
 30
0.0
 10
190.7607421875
 20
-88.2216796875
 30
0.0
 10
190.7607421875
 20
-115.28125
 30
0.0
 10
190.7607421875
 20
-115.28125
 30
0.0
 10
190.7607421875
 20
-115.28125
 30
0.0
 10
205.4599609375
 20
-115.28125
 30
0.0
 10
205.4599609375
 20
-115.28125
 30
0.0
 10
245.8388671875
 20
-115.28125
 30
0.0
 10
272.111328125
 20
-118.80517578125
 30
0.0
 10
284.265625
 20
-125.8681640625
 30
0.0
 10
296.41552734375
 20
-132.92333984375
 30
0.0
 10
304.26171875
 20
-145.66943359375
 30
0.0
 10
307.79345703125
 20
-164.091796875
 30
0.0
 10
311.3212890625
 20
-182.52880859375
 30
0.0
 10
313.0869140625
 20
-223.4892578125
 30
0.0
 10
313.0869140625
 20
-287.01025390625
 30
0.0
 10
313.0869140625
 20
-287.01025390625
 30
0.0
 10
313.0869140625
 20
-358.314453125
 30
0.0
 10
313.0869140625
 20
-358.314453125
 30
0.0
 10
310.14013671875
 20
-358.07861328125
 30
0.0
 10
307.1787109375
 20
-357.947265625
 30
0.0
 10
304.212890625
 20
-357.947265625
 30
0.0
 10
287.33935546875
 20
-357.947265625
 30
0.0
 10
270.5107421875
 20
-361.86083984375
 30
0.0
 10
255.544921875
 20
-369.25390625
 30
0.0
 10
248.05859375
 20
-372.95751953125
 30
0.0
 10
240.92822265625
 20
-377.77880859375
 30
0.0
 10
233.955078125
 20
-383.86669921875
 30
0.0
 10
235.3310546875
 20
-373.65478515625
 30
0.0
 10
235.7470703125
 20
-361.59130859375
 30
0.0
 10
230.80224609375
 20
-351.4990234375
 30
0.0
 10
228.984375
 20
-347.78759765625
 30
0.0
 10
225.5654296875
 20
-345.66552734375
 30
0.0
 10
221.4111328125
 20
-345.66552734375
 30
0.0
 10
217.8388671875
 20
-345.66552734375
 30
0.0
 10
214.236328125
 20
-347.27783203125
 30
0.0
 10
211.7763671875
 20
-349.97705078125
 30
0.0
 10
209.6025390625
 20
-352.36865234375
 30
0.0
 10
208.56005859375
 20
-355.37548828125
 30
0.0
 10
208.8486328125
 20
-358.4345703125
 30
0.0
 10
209.30615234375
 20
-363.32275390625
 30
0.0
 10
210.546875
 20
-367.93408203125
 30
0.0
 10
211.74658203125
 20
-372.3955078125
 30
0.0
 10
213.0625
 20
-377.30615234375
 30
0.0
 10
214.30712890625
 20
-381.93994140625
 30
0.0
 10
214.5546875
 20
-386.8212890625
 30
0.0
 10
214.75341796875
 20
-390.75732421875
 30
0.0
 10
214.0263671875
 20
-394.76123046875
 30
0.0
 10
213.26123046875
 20
-398.99755859375
 30
0.0
 10
212.744140625
 20
-401.83935546875
 30
0.0
 10
212.2119140625
 20
-404.755859375
 30
0.0
 10
211.9677734375
 20
-407.72509765625
 30
0.0
 10
207.7431640625
 20
-413.13818359375
 30
0.0
 10
203.6416015625
 20
-418.77685546875
 30
0.0
 10
199.65283203125
 20
-424.31787109375
 30
0.0
 10
199.6005859375
 20
-416.99951171875
 30
0.0
 10
198.5546875
 20
-410.5517578125
 30
0.0
 10
197.90576171875
 20
-407.23779296875
 30
0.0
 10
197.005859375
 20
-402.65673828125
 30
0.0
 10
193.328125
 20
-399.7021484375
 30
0.0
 10
188.533203125
 20
-399.7021484375
 30
0.0
 10
184.720703125
 20
-399.7021484375
 30
0.0
 10
180.94580078125
 20
-401.6142578125
 30
0.0
 10
178.9140625
 20
-404.568359375
 30
0.0
 10
177.10693359375
 20
-407.20751953125
 30
0.0
 10
176.77734375
 20
-410.38671875
 30
0.0
 10
177.984375
 20
-413.5283203125
 30
0.0
 10
180.255859375
 20
-419.39892578125
 30
0.0
 10
182.15673828125
 20
-424.75244140625
 30
0.0
 10
182.4150390625
 20
-430.79541015625
 30
0.0
 10
182.50537109375
 20
-433.05224609375
 30
0.0
 10
182.404296875
 20
-435.36181640625
 30
0.0
 10
182.29541015625
 20
-437.79833984375
 30
0.0
 10
182.15283203125
 20
-441.0302734375
 30
0.0
 10
182.0029296875
 20
-444.36669921875
 30
0.0
 10
182.3330078125
 20
-447.7255859375
 30
0.0
 10
179.1240234375
 20
-451.76708984375
 30
0.0
 10
176.076171875
 20
-455.3583984375
 30
0.0
 10
173.087890625
 20
-458.60498046875
 30
0.0
 10
173.140625
 20
-450.67236328125
 30
0.0
 10
171.0302734375
 20
-442.8447265625
 30
0.0
 10
167.0
 20
-437.1162109375
 30
0.0
 10
164.9755859375
 20
-434.22216796875
 30
0.0
 10
161.02783203125
 20
-432.8876953125
 30
0.0
 10
157.86376953125
 20
-434.17724609375
 30
0.0
 10
156.51806640625
 20
-434.71728515625
 30
0.0
 10
155.6484375
 20
-435.42919921875
 30
0.0
 10
154.99609375
 20
-436.03662109375
 30
0.0
 10
152.8818359375
 20
-437.97119140625
 30
0.0
 10
152.1357421875
 20
-441.47998046875
 30
0.0
 10
153.2529296875
 20
-444.17919921875
 30
0.0
 10
153.2529296875
 20
-444.17919921875
 30
0.0
 10
153.4326171875
 20
-444.6142578125
 30
0.0
 10
153.4326171875
 20
-444.6142578125
 30
0.0
 10
155.6142578125
 20
-449.93017578125
 30
0.0
 10
157.5
 20
-454.52587890625
 30
0.0
 10
157.42529296875
 20
-459.9921875
 30
0.0
 10
157.35400390625
 20
-465.66796875
 30
0.0
 10
155.220703125
 20
-471.021484375
 30
0.0
 10
153.0693359375
 20
-476.26220703125
 30
0.0
 10
151.7119140625
 20
-477.19189453125
 30
0.0
 10
150.33984375
 20
-478.09912109375
 30
0.0
 10
148.9228515625
 20
-478.9541015625
 30
0.0
 10
139.0029296875
 20
-484.9296875
 30
0.0
 10
126.92431640625
 20
-488.35595703125
 30
0.0
 10
115.79736328125
 20
-488.35595703125
 30
0.0
 10
104.6484375
 20
-488.35595703125
 30
0.0
 10
84.89892578125
 20
-484.9296875
 30
0.0
 10
77.94140625
 20
-461.97119140625
 30
0.0
 10
73.7724609375
 20
-448.2353515625
 30
0.0
 10
78.7734375
 20
-432.865234375
 30
0.0
 10
89.8251953125
 20
-425.412109375
 30
0.0
 10
96.58447265625
 20
-420.86083984375
 30
0.0
 10
104.1162109375
 20
-420.43359375
 30
0.0
 10
110.2041015625
 20
-424.28759765625
 30
0.0
 10
113.40576171875
 20
-426.35693359375
 30
0.0
 10
115.84619140625
 20
-429.07861328125
 30
0.0
 10
117.712890625
 20
-432.70751953125
 30
0.0
 10
117.89697265625
 20
-433.044921875
 30
0.0
 10
118.0693359375
 20
-433.38232421875
 30
0.0
 10
118.22265625
 20
-433.7197265625
 30
0.0
 10
112.74609375
 20
-433.70458984375
 30
0.0
 10
107.3662109375
 20
-436.208984375
 30
0.0
 10
104.12353515625
 20
-440.4453125
 30
0.0
 10
100.8466796875
 20
-444.74169921875
 30
0.0
 10
99.95458984375
 20
-450.46240234375
 30
0.0
 10
101.619140625
 20
-456.5654296875
 30
0.0
 10
103.70361328125
 20
-464.220703125
 30
0.0
 10
110.1591796875
 20
-469.16943359375
 30
0.0
 10
118.0654296875
 20
-469.16943359375
 30
0.0
 10
120.87353515625
 20
-469.16943359375
 30
0.0
 10
123.76025390625
 20
-468.5244140625
 30
0.0
 10
126.4033203125
 20
-467.30224609375
 30
0.0
 10
138.291015625
 20
-461.82177734375
 30
0.0
 10
141.7060546875
 20
-447.69580078125
 30
0.0
 10
141.02001953125
 20
-437.26611328125
 30
0.0
 10
139.6552734375
 20
-416.27978515625
 30
0.0
 10
122.0205078125
 20
-399.19970703125
 30
0.0
 10
101.708984375
 20
-399.19970703125
 30
0.0
 10
99.3701171875
 20
-399.19970703125
 30
0.0
 10
97.02685546875
 20
-399.43212890625
 30
0.0
 10
94.740234375
 20
-399.8896484375
 30
0.0
 10
73.27001953125
 20
-404.1708984375
 30
0.0
 10
55.9951171875
 20
-426.484375
 30
0.0
 10
55.41796875
 20
-450.68701171875
 30
0.0
 10
54.8330078125
 20
-474.875
 30
0.0
 10
69.978515625
 20
-497.67578125
 30
0.0
 10
92.25439453125
 20
-506.1328125
 30
0.0
 10
96.220703125
 20
-507.640625
 30
0.0
 10
100.37451171875
 20
-508.728515625
 30
0.0
 10
104.640625
 20
-509.39453125
 30
0.0
 10
104.640625
 20
-509.39453125
 30
0.0
 10
104.640625
 20
-510.35546875
 30
0.0
 10
104.640625
 20
-510.35546875
 30
0.0
 10
104.640625
 20
-510.35546875
 30
0.0
 10
908.70703125
 20
-510.35546875
 30
0.0
 10
908.70703125
 20
-510.35546875
 30
0.0
  0
SPLINE
  5
54
330
3C
100
AcDbEntity
  8
Layer 1
370
     0
100
AcDbSpline
210
0.0
220
0.0
230
1.0
 70
    11
 71
     3
 72
    23
 73
    19
 74
     0
 42
0.0000000001
 43
0.0000000001
 40
0.0
 40
0.0
 40
0.0
 40
0.0
 40
1.0
 40
1.0
 40
1.0
 40
2.0
 40
2.0
 40
2.0
 40
3.0
 40
3.0
 40
3.0
 40
4.0
 40
4.0
 40
4.0
 40
5.0
 40
5.0
 40
5.0
 40
6.0
 40
6.0
 40
6.0
 40
6.0
 10
501.884765625
 20
-466.919921875
 30
0.0
 10
498.916015625
 20
-453.04931640625
 30
0.0
 10
503.658203125
 20
-441.38232421875
 30
0.0
 10
508.6552734375
 20
-433.57763671875
 30
0.0
 10
523.7373046875
 20
-434.2294921875
 30
0.0
 10
535.3662109375
 20
-438.5634765625
 30
0.0
 10
543.24609375
 20
-446.48095703125
 30
0.0
 10
550.4033203125
 20
-453.67138671875
 30
0.0
 10
554.462890625
 20
-464.49072265625
 30
0.0
 10
553.341796875
 20
-473.40576171875
 30
0.0
 10
553.1884765625
 20
-474.63134765625
 30
0.0
 10
552.9189453125
 20
-475.7900390625
 30
0.0
 10
552.5849609375
 20
-476.91064453125
 30
0.0
 10
539.1298828125
 20
-478.77783203125
 30
0.0
 10
524.44921875
 20
-480.01123046875
 30
0.0
 10
508.5615234375
 20
-480.61083984375
 30
0.0
 10
505.3525390625
 20
-476.697265625
 30
0.0
 10
502.9755859375
 20
-472.01123046875
 30
0.0
 10
501.884765625
 20
-466.919921875
 30
0.0
  0
SPLINE
  5
55
330
3C
100
AcDbEntity
  8
Layer 1
370
     0
100
AcDbSpline
210
0.0
220
0.0
230
1.0
 70
    11
 71
     3
 72
    20
 73
    16
 74
     0
 42
0.0000000001
 43
0.0000000001
 40
0.0
 40
0.0
 40
0.0
 40
0.0
 40
1.0
 40
1.0
 40
1.0
 40
2.0
 40
2.0
 40
2.0
 40
3.0
 40
3.0
 40
3.0
 40
4.0
 40
4.0
 40
4.0
 40
5.0
 40
5.0
 40
5.0
 40
5.0
 10
650.28125
 20
-418.95654296875
 30
0.0
 10
646.599609375
 20
-418.52197265625
 30
0.0
 10
642.9443359375
 20
-418.0869140625
 30
0.0
 10
639.3271484375
 20
-417.61474609375
 30
0.0
 10
611.9189453125
 20
-414.04541015625
 30
0.0
 10
587.1572265625
 20
-407.544921875
 30
0.0
 10
565.5595703125
 20
-398.25537109375
 30
0.0
 10
584.9755859375
 20
-393.63671875
 30
0.0
 10
605.568359375
 20
-393.591796875
 30
0.0
 10
621.767578125
 20
-398.240234375
 30
0.0
 10
632.59375
 20
-401.35205078125
 30
0.0
 10
645.669921875
 20
-409.2021484375
 30
0.0
 10
658.1123046875
 20
-419.9013671875
 30
0.0
 10
655.4775390625
 20
-419.57177734375
 30
0.0
 10
652.8603515625
 20
-419.26416015625
 30
0.0
 10
650.28125
 20
-418.95654296875
 30
0.0
  0
SPLINE
  5
56
330
3C
100
AcDbEntity
  8
Layer 1
370
     0
100
AcDbSpline
210
0.0
220
0.0
230
1.0
 70
    11
 71
     3
 72
    29
 73
    25
 74
     0
 42
0.0000000001
 43
0.0000000001
 40
0.0
 40
0.0
 40
0.0
 40
0.0
 40
1.0
 40
1.0
 40
1.0
 40
2.0
 40
2.0
 40
2.0
 40
3.0
 40
3.0
 40
3.0
 40
4.0
 40
4.0
 40
4.0
 40
5.0
 40
5.0
 40
5.0
 40
6.0
 40
6.0
 40
6.0
 40
7.0
 40
7.0
 40
7.0
 40
8.0
 40
8.0
 40
8.0
 40
8.0
 10
638.4873046875
 20
-431.10302734375
 30
0.0
 10
642.0673828125
 20
-431.57177734375
 30
0.0
 10
645.72265625
 20
-432.06298828125
 30
0.0
 10
649.3701171875
 20
-432.55419921875
 30
0.0
 10
634.1123046875
 20
-449.16552734375
 30
0.0
 10
616.5146484375
 20
-460.7529296875
 30
0.0
 10
596.5556640625
 20
-467.26513671875
 30
0.0
 10
588.982421875
 20
-469.7392578125
 30
0.0
 10
580.716796875
 20
-471.85009765625
 30
0.0
 10
571.873046875
 20
-473.66064453125
 30
0.0
 10
573.3046875
 20
-455.63232421875
 30
0.0
 10
562.8828125
 20
-437.52099609375
 30
0.0
 10
549.0234375
 20
-427.9990234375
 30
0.0
 10
541.541015625
 20
-422.86279296875
 30
0.0
 10
533.2744140625
 20
-419.14404296875
 30
0.0
 10
524.359375
 20
-416.89501953125
 30
0.0
 10
528.46484375
 20
-413.783203125
 30
0.0
 10
533.056640625
 20
-410.91162109375
 30
0.0
 10
538.0615234375
 20
-408.32470703125
 30
0.0
 10
541.203125
 20
-409.67431640625
 30
0.0
 10
544.45703125
 20
-410.9638671875
 30
0.0
 10
547.7490234375
 20
-412.17138671875
 30
0.0
 10
577.740234375
 20
-423.12548828125
 30
0.0
 10
608.623046875
 20
-427.181640625
 30
0.0
 10
638.4873046875
 20
-431.10302734375
 30
0.0
  0
SPLINE
  5
57
330
3C
100
AcDbEntity
  8
Layer 1
370
     0
100
AcDbSpline
210
0.0
220
0.0
230
1.0
 70
    11
 71
     3
 72
    26
 73
    22
 74
     0
 42
0.0000000001
 43
0.0000000001
 40
0.0
 40
0.0
 40
0.0
 40
0.0
 40
1.0
 40
1.0
 40
1.0
 40
2.0
 40
2.0
 40
2.0
 40
3.0
 40
3.0
 40
3.0
 40
4.0
 40
4.0
 40
4.0
 40
5.0
 40
5.0
 40
5.0
 40
6.0
 40
6.0
 40
6.0
 40
7.0
 40
7.0
 40
7.0
 40
7.0
 10
487.3994140625
 20
-481.05712890625
 30
0.0
 10
486.720703125
 20
-481.06103515625
 30
0.0
 10
486.0830078125
 20
-481.08349609375
 30
0.0
 10
485.4013671875
 20
-481.08349609375
 30
0.0
 10
485.4013671875
 20
-481.08349609375
 30
0.0
 10
433.3740234375
 20
-481.08349609375
 30
0.0
 10
433.3740234375
 20
-481.08349609375
 30
0.0
 10
432.23046875
 20
-475.00244140625
 30
0.0
 10
430.5546875
 20
-468.74169921875
 30
0.0
 10
428.357421875
 20
-462.3125
 30
0.0
 10
428.357421875
 20
-462.3125
 30
0.0
 10
428.357421875
 20
-454.75830078125
 30
0.0
 10
428.357421875
 20
-454.75830078125
 30
0.0
 10
445.5126953125
 20
-446.4208984375
 30
0.0
 10
465.412109375
 20
-438.162109375
 30
0.0
 10
487.4140625
 20
-434.86669921875
 30
0.0
 10
486.2744140625
 20
-437.61865234375
 30
0.0
 10
485.333984375
 20
-440.43017578125
 30
0.0
 10
484.6025390625
 20
-443.27197265625
 30
0.0
 10
481.2890625
 20
-456.17578125
 30
0.0
 10
482.5146484375
 20
-469.623046875
 30
0.0
 10
487.3994140625
 20
-481.05712890625
 30
0.0
  0
SPLINE
  5
58
330
3C
100
AcDbEntity
  8
Layer 1
370
     0
100
AcDbSpline
210
0.0
220
0.0
230
1.0
 70
    11
 71
     3
 72
    14
 73
    10
 74
     0
 42
0.0000000001
 43
0.0000000001
 40
0.0
 40
0.0
 40
0.0
 40
0.0
 40
1.0
 40
1.0
 40
1.0
 40
2.0
 40
2.0
 40
2.0
 40
3.0
 40
3.0
 40
3.0
 40
3.0
 10
684.767578125
 20
-493.19970703125
 30
0.0
 10
690.3603515625
 20
-491.494140625
 30
0.0
 10
695.5791015625
 20
-489.67236328125
 30
0.0
 10
700.3740234375
 20
-487.71533203125
 30
0.0
 10
700.5498046875
 20
-489.57861328125
 30
0.0
 10
700.6435546875
 20
-491.41162109375
 30
0.0
 10
700.6064453125
 20
-493.19970703125
 30
0.0
 10
700.6064453125
 20
-493.19970703125
 30
0.0
 10
684.767578125
 20
-493.19970703125
 30
0.0
 10
684.767578125
 20
-493.19970703125
 30
0.0
  0
SPLINE
  5
59
330
3C
100
AcDbEntity
  8
Layer 1
370
     0
100
AcDbSpline
210
0.0
220
0.0
230
1.0
 70
    11
 71
     3
 72
    23
 73
    19
 74
     0
 42
0.0000000001
 43
0.0000000001
 40
0.0
 40
0.0
 40
0.0
 40
0.0
 40
1.0
 40
1.0
 40
1.0
 40
2.0
 40
2.0
 40
2.0
 40
3.0
 40
3.0
 40
3.0
 40
4.0
 40
4.0
 40
4.0
 40
5.0
 40
5.0
 40
5.0
 40
6.0
 40
6.0
 40
6.0
 40
6.0
 10
725.333984375
 20
-492.47265625
 30
0.0
 10
724.224609375
 20
-492.7275390625
 30
0.0
 10
723.1220703125
 20
-492.96728515625
 30
0.0
 10
722.0126953125
 20
-493.19970703125
 30
0.0
 10
722.0126953125
 20
-493.19970703125
 30
0.0
 10
717.529296875
 20
-493.19970703125
 30
0.0
 10
717.529296875
 20
-493.19970703125
 30
0.0
 10
716.92578125
 20
-488.978515625
 30
0.0
 10
716.1083984375
 20
-484.78369140625
 30
0.0
 10
715.087890625
 20
-480.63720703125
 30
0.0
 10
721.0712890625
 20
-477.49169921875
 30
0.0
 10
726.8828125
 20
-474.18896484375
 30
0.0
 10
732.3779296875
 20
-470.5751953125
 30
0.0
 10
734.927734375
 20
-475.14892578125
 30
0.0
 10
736.83203125
 20
-480.1796875
 30
0.0
 10
738.1552734375
 20
-485.904296875
 30
0.0
 10
733.724609375
 20
-488.38623046875
 30
0.0
 10
729.2626953125
 20
-490.59033203125
 30
0.0
 10
725.333984375
 20
-492.47265625
 30
0.0
  0
SPLINE
  5
5A
330
3C
100
AcDbEntity
  8
Layer 1
370
     0
100
AcDbSpline
210
0.0
220
0.0
230
1.0
 70
    11
 71
     3
 72
    17
 73
    13
 74
     0
 42
0.0000000001
 43
0.0000000001
 40
0.0
 40
0.0
 40
0.0
 40
0.0
 40
1.0
 40
1.0
 40
1.0
 40
2.0
 40
2.0
 40
2.0
 40
3.0
 40
3.0
 40
3.0
 40
4.0
 40
4.0
 40
4.0
 40
4.0
 10
759.8798828125
 20
-468.966796875
 30
0.0
 10
757.1884765625
 20
-472.18359375
 30
0.0
 10
753.9794921875
 20
-475.205078125
 30
0.0
 10
750.15234375
 20
-478.13671875
 30
0.0
 10
748.7685546875
 20
-472.70068359375
 30
0.0
 10
746.3916015625
 20
-467.49365234375
 30
0.0
 10
743.4521484375
 20
-462.6875
 30
0.0
 10
752.5703125
 20
-455.71435546875
 30
0.0
 10
760.8701171875
 20
-447.9580078125
 30
0.0
 10
768.4462890625
 20
-439.515625
 30
0.0
 10
769.95703125
 20
-449.57373046875
 30
0.0
 10
768.412109375
 20
-458.7587890625
 30
0.0
 10
759.8798828125
 20
-468.966796875
 30
0.0
  0
SPLINE
  5
5B
330
3C
100
AcDbEntity
  8
Layer 1
370
     0
100
AcDbSpline
210
0.0
220
0.0
230
1.0
 70
    11
 71
     3
 72
    26
 73
    22
 74
     0
 42
0.0000000001
 43
0.0000000001
 40
0.0
 40
0.0
 40
0.0
 40
0.0
 40
1.0
 40
1.0
 40
1.0
 40
2.0
 40
2.0
 40
2.0
 40
3.0
 40
3.0
 40
3.0
 40
4.0
 40
4.0
 40
4.0
 40
5.0
 40
5.0
 40
5.0
 40
6.0
 40
6.0
 40
6.0
 40
7.0
 40
7.0
 40
7.0
 40
7.0
 10
825.14453125
 20
-330.7451171875
 30
0.0
 10
834.921875
 20
-347.4951171875
 30
0.0
 10
838.73828125
 20
-368.42919921875
 30
0.0
 10
835.619140625
 20
-388.31298828125
 30
0.0
 10
830.697265625
 20
-419.646484375
 30
0.0
 10
812.271484375
 20
-447.2607421875
 30
0.0
 10
783.794921875
 20
-467.04736328125
 30
0.0
 10
783.970703125
 20
-466.79248046875
 30
0.0
 10
784.146484375
 20
-466.53759765625
 30
0.0
 10
784.3232421875
 20
-466.275390625
 30
0.0
 10
794.759765625
 20
-450.818359375
 30
0.0
 10
798.6474609375
 20
-428.53857421875
 30
0.0
 10
787.8583984375
 20
-413.595703125
 30
0.0
 10
788.8701171875
 20
-411.96875
 30
0.0
 10
789.95703125
 20
-410.4130859375
 30
0.0
 10
790.9287109375
 20
-408.74462890625
 30
0.0
 10
805.2939453125
 20
-384.08837890625
 30
0.0
 10
814.3251953125
 20
-356.62744140625
 30
0.0
 10
818.0595703125
 20
-326.38525390625
 30
0.0
 10
820.3720703125
 20
-327.3037109375
 30
0.0
 10
822.71484375
 20
-328.72802734375
 30
0.0
 10
825.14453125
 20
-330.7451171875
 30
0.0
  0
SPLINE
  5
5C
330
3C
100
AcDbEntity
  8
Layer 1
370
     0
100
AcDbSpline
210
0.0
220
0.0
230
1.0
 70
    11
 71
     3
 72
   131
 73
   127
 74
     0
 42
0.0000000001
 43
0.0000000001
 40
0.0
 40
0.0
 40
0.0
 40
0.0
 40
1.0
 40
1.0
 40
1.0
 40
2.0
 40
2.0
 40
2.0
 40
3.0
 40
3.0
 40
3.0
 40
4.0
 40
4.0
 40
4.0
 40
5.0
 40
5.0
 40
5.0
 40
6.0
 40
6.0
 40
6.0
 40
7.0
 40
7.0
 40
7.0
 40
8.0
 40
8.0
 40
8.0
 40
9.0
 40
9.0
 40
9.0
 40
10.0
 40
10.0
 40
10.0
 40
11.0
 40
11.0
 40
11.0
 40
12.0
 40
12.0
 40
12.0
 40
13.0
 40
13.0
 40
13.0
 40
14.0
 40
14.0
 40
14.0
 40
15.0
 40
15.0
 40
15.0
 40
16.0
 40
16.0
 40
16.0
 40
17.0
 40
17.0
 40
17.0
 40
18.0
 40
18.0
 40
18.0
 40
19.0
 40
19.0
 40
19.0
 40
20.0
 40
20.0
 40
20.0
 40
21.0
 40
21.0
 40
21.0
 40
22.0
 40
22.0
 40
22.0
 40
23.0
 40
23.0
 40
23.0
 40
24.0
 40
24.0
 40
24.0
 40
25.0
 40
25.0
 40
25.0
 40
26.0
 40
26.0
 40
26.0
 40
27.0
 40
27.0
 40
27.0
 40
28.0
 40
28.0
 40
28.0
 40
29.0
 40
29.0
 40
29.0
 40
30.0
 40
30.0
 40
30.0
 40
31.0
 40
31.0
 40
31.0
 40
32.0
 40
32.0
 40
32.0
 40
33.0
 40
33.0
 40
33.0
 40
34.0
 40
34.0
 40
34.0
 40
35.0
 40
35.0
 40
35.0
 40
36.0
 40
36.0
 40
36.0
 40
37.0
 40
37.0
 40
37.0
 40
38.0
 40
38.0
 40
38.0
 40
39.0
 40
39.0
 40
39.0
 40
40.0
 40
40.0
 40
40.0
 40
41.0
 40
41.0
 40
41.0
 40
42.0
 40
42.0
 40
42.0
 40
42.0
 10
489.521484375
 20
-109.3955078125
 30
0.0
 10
562.05078125
 20
-109.3955078125
 30
0.0
 10
614.494140625
 20
-124.78857421875
 30
0.0
 10
646.84375
 20
-155.56689453125
 30
0.0
 10
674.427734375
 20
-181.81298828125
 30
0.0
 10
690.203125
 20
-220.86474609375
 30
0.0
 10
694.267578125
 20
-272.6259765625
 30
0.0
 10
691.5380859375
 20
-271.08544921875
 30
0.0
 10
688.61328125
 20
-270.03564453125
 30
0.0
 10
685.314453125
 20
-270.03564453125
 30
0.0
 10
683.95703125
 20
-270.03564453125
 30
0.0
 10
682.5888671875
 20
-270.22314453125
 30
0.0
 10
681.2470703125
 20
-270.59033203125
 30
0.0
 10
677.1611328125
 20
-271.71533203125
 30
0.0
 10
674.2294921875
 20
-275.52392578125
 30
0.0
 10
674.1240234375
 20
-279.8427734375
 30
0.0
 10
673.8056640625
 20
-291.78662109375
 30
0.0
 10
684.767578125
 20
-296.25537109375
 30
0.0
 10
695.32421875
 20
-298.12255859375
 30
0.0
 10
695.33203125
 20
-298.93603515625
 30
0.0
 10
695.361328125
 20
-299.71923828125
 30
0.0
 10
695.361328125
 20
-300.53662109375
 30
0.0
 10
695.361328125
 20
-308.22900390625
 30
0.0
 10
695.046875
 20
-315.693359375
 30
0.0
 10
694.451171875
 20
-322.94775390625
 30
0.0
 10
690.892578125
 20
-331.89599609375
 30
0.0
 10
689.1572265625
 20
-341.658203125
 30
0.0
 10
690.3046875
 20
-351.50634765625
 30
0.0
 10
685.869140625
 20
-372.33935546875
 30
0.0
 10
678.4990234375
 20
-391.03125
 30
0.0
 10
668.201171875
 20
-407.58984375
 30
0.0
 10
645.91015625
 20
-389.97412109375
 30
0.0
 10
618.5615234375
 20
-380.17041015625
 30
0.0
 10
590.201171875
 20
-380.17041015625
 30
0.0
 10
575.3671875
 20
-380.17041015625
 30
0.0
 10
560.2626953125
 20
-382.7646484375
 30
0.0
 10
545.3046875
 20
-387.8857421875
 30
0.0
 10
545.3046875
 20
-387.8857421875
 30
0.0
 10
545.01171875
 20
-387.99072265625
 30
0.0
 10
545.01171875
 20
-387.99072265625
 30
0.0
 10
540.3935546875
 20
-385.33642578125
 30
0.0
 10
536.224609375
 20
-382.697265625
 30
0.0
 10
532.310546875
 20
-379.953125
 30
0.0
 10
515.16015625
 20
-367.9267578125
 30
0.0
 10
504.134765625
 20
-352.1064453125
 30
0.0
 10
502.064453125
 20
-336.55615234375
 30
0.0
 10
499.9052734375
 20
-320.39794921875
 30
0.0
 10
508.8876953125
 20
-305.56005859375
 30
0.0
 10
523.4189453125
 20
-301.27880859375
 30
0.0
 10
529.7470703125
 20
-299.41943359375
 30
0.0
 10
533.3642578125
 20
-293.7509765625
 30
0.0
 10
532.416015625
 20
-287.18310546875
 30
0.0
 10
531.583984375
 20
-281.40966796875
 30
0.0
 10
526.9912109375
 20
-275.56884765625
 30
0.0
 10
519.8271484375
 20
-275.56884765625
 30
0.0
 10
518.544921875
 20
-275.56884765625
 30
0.0
 10
517.232421875
 20
-275.76416015625
 30
0.0
 10
515.9248046875
 20
-276.14599609375
 30
0.0
 10
496.0703125
 20
-282.001953125
 30
0.0
 10
481.419921875
 20
-298.53466796875
 30
0.0
 10
477.126953125
 20
-319.26611328125
 30
0.0
 10
476.1298828125
 20
-318.47900390625
 30
0.0
 10
475.14453125
 20
-317.72900390625
 30
0.0
 10
474.203125
 20
-317.0166015625
 30
0.0
 10
474.203125
 20
-317.0166015625
 30
0.0
 10
473.2099609375
 20
-316.25927734375
 30
0.0
 10
473.2099609375
 20
-316.25927734375
 30
0.0
 10
465.81640625
 20
-310.62841796875
 30
0.0
 10
455.9462890625
 20
-304.10546875
 30
0.0
 10
444.7890625
 20
-303.72314453125
 30
0.0
 10
440.2197265625
 20
-303.72314453125
 30
0.0
 10
436.50390625
 20
-306.9248046875
 30
0.0
 10
435.544921875
 20
-311.68603515625
 30
0.0
 10
434.505859375
 20
-316.8291015625
 30
0.0
 10
436.9541015625
 20
-321.9052734375
 30
0.0
 10
441.3701171875
 20
-323.7646484375
 30
0.0
 10
445.17578125
 20
-325.35400390625
 30
0.0
 10
449.0556640625
 20
-326.25390625
 30
0.0
 10
452.8125
 20
-327.13134765625
 30
0.0
 10
456.890625
 20
-328.07568359375
 30
0.0
 10
460.7373046875
 20
-328.96826171875
 30
0.0
 10
464.3515625
 20
-330.67041015625
 30
0.0
 10
467.23046875
 20
-332.02734375
 30
0.0
 10
469.83984375
 20
-334.0966796875
 30
0.0
 10
472.60546875
 20
-336.2861328125
 30
0.0
 10
473.8203125
 20
-337.25341796875
 30
0.0
 10
475.03125
 20
-338.212890625
 30
0.0
 10
476.2724609375
 20
-339.11279296875
 30
0.0
 10
476.5126953125
 20
-341.18212890625
 30
0.0
 10
476.857421875
 20
-343.22900390625
 30
0.0
 10
477.2998046875
 20
-345.23828125
 30
0.0
 10
477.771484375
 20
-347.39794921875
 30
0.0
 10
478.349609375
 20
-349.53466796875
 30
0.0
 10
479.0244140625
 20
-351.64892578125
 30
0.0
 10
477.1123046875
 20
-350.8916015625
 30
0.0
 10
475.169921875
 20
-350.20947265625
 30
0.0
 10
473.2431640625
 20
-349.6171875
 30
0.0
 10
467.736328125
 20
-347.9375
 30
0.0
 10
462.431640625
 20
-352.13623046875
 30
0.0
 10
462.056640625
 20
-358.2470703125
 30
0.0
 10
461.74609375
 20
-363.345703125
 30
0.0
 10
464.9208984375
 20
-367.32666015625
 30
0.0
 10
469.779296875
 20
-367.9267578125
 30
0.0
 10
474.908203125
 20
-368.556640625
 30
0.0
 10
479.515625
 20
-369.24658203125
 30
0.0
 10
483.939453125
 20
-371.37548828125
 30
0.0
 10
485.607421875
 20
-372.185546875
 30
0.0
 10
487.24609375
 20
-373.15283203125
 30
0.0
 10
488.9775390625
 20
-374.1796875
 30
0.0
 10
490.1845703125
 20
-374.89208984375
 30
0.0
 10
491.3916015625
 20
-375.6044921875
 30
0.0
 10
492.6171875
 20
-376.27197265625
 30
0.0
 10
499.662109375
 20
-384.83447265625
 30
0.0
 10
508.873046875
 20
-392.51953125
 30
0.0
 10
520.0634765625
 20
-399.1923828125
 30
0.0
 10
512.4345703125
 20
-403.66845703125
 30
0.0
 10
505.9560546875
 20
-408.75244140625
 30
0.0
 10
500.73046875
 20
-414.35302734375
 30
0.0
 10
476.3662109375
 20
-414.87060546875
 30
0.0
 10
451.158203125
 20
-423.91650390625
 30
0.0
 10
428.357421875
 20
-434.2109375
 30
0.0
 10
428.357421875
 20
-434.2109375
 30
0.0
 10
428.357421875
 20
-111.74951171875
 30
0.0
 10
428.357421875
 20
-111.74951171875
 30
0.0
 10
442.46875
 20
-110.18994140625
 30
0.0
 10
462.85546875
 20
-109.3955078125
 30
0.0
 10
489.521484375
 20
-109.3955078125
 30
0.0
  0
SPLINE
  5
5D
330
3C
100
AcDbEntity
  8
Layer 1
370
     0
100
AcDbSpline
210
0.0
220
0.0
230
1.0
 70
    11
 71
     3
 72
    74
 73
    70
 74
     0
 42
0.0000000001
 43
0.0000000001
 40
0.0
 40
0.0
 40
0.0
 40
0.0
 40
1.0
 40
1.0
 40
1.0
 40
2.0
 40
2.0
 40
2.0
 40
3.0
 40
3.0
 40
3.0
 40
4.0
 40
4.0
 40
4.0
 40
5.0
 40
5.0
 40
5.0
 40
6.0
 40
6.0
 40
6.0
 40
7.0
 40
7.0
 40
7.0
 40
8.0
 40
8.0
 40
8.0
 40
9.0
 40
9.0
 40
9.0
 40
10.0
 40
10.0
 40
10.0
 40
11.0
 40
11.0
 40
11.0
 40
12.0
 40
12.0
 40
12.0
 40
13.0
 40
13.0
 40
13.0
 40
14.0
 40
14.0
 40
14.0
 40
15.0
 40
15.0
 40
15.0
 40
16.0
 40
16.0
 40
16.0
 40
17.0
 40
17.0
 40
17.0
 40
18.0
 40
18.0
 40
18.0
 40
19.0
 40
19.0
 40
19.0
 40
20.0
 40
20.0
 40
20.0
 40
21.0
 40
21.0
 40
21.0
 40
22.0
 40
22.0
 40
22.0
 40
23.0
 40
23.0
 40
23.0
 40
23.0
 10
264.32861328125
 20
-477.484375
 30
0.0
 10
248.97314453125
 20
-468.9892578125
 30
0.0
 10
242.4951171875
 20
-451.36181640625
 30
0.0
 10
248.576171875
 20
-434.61181640625
 30
0.0
 10
251.83740234375
 20
-425.61474609375
 30
0.0
 10
258.0380859375
 20
-419.05419921875
 30
0.0
 10
266.0380859375
 20
-416.1298828125
 30
0.0
 10
271.9580078125
 20
-413.96337890625
 30
0.0
 10
276.3291015625
 20
-413.70849609375
 30
0.0
 10
279.63916015625
 20
-415.3203125
 30
0.0
 10
282.06103515625
 20
-416.49755859375
 30
0.0
 10
284.99267578125
 20
-419.59423828125
 30
0.0
 10
285.50244140625
 20
-422.533203125
 30
0.0
 10
285.75732421875
 20
-424.00244140625
 30
0.0
 10
285.3603515625
 20
-425.2099609375
 30
0.0
 10
284.25
 20
-426.349609375
 30
0.0
 10
279.88671875
 20
-430.80322265625
 30
0.0
 10
278.6572265625
 20
-436.396484375
 30
0.0
 10
280.8837890625
 20
-441.69775390625
 30
0.0
 10
283.2158203125
 20
-447.24560546875
 30
0.0
 10
288.8955078125
 20
-451.1220703125
 30
0.0
 10
294.69091796875
 20
-451.1220703125
 30
0.0
 10
299.2197265625
 20
-451.1220703125
 30
0.0
 10
303.14111328125
 20
-448.80517578125
 30
0.0
 10
305.7314453125
 20
-444.6142578125
 30
0.0
 10
312.0556640625
 20
-434.36474609375
 30
0.0
 10
313.01953125
 20
-421.7158203125
 30
0.0
 10
308.310546875
 20
-410.7841796875
 30
0.0
 10
303.62841796875
 20
-399.912109375
 30
0.0
 10
294.21484375
 20
-392.287109375
 30
0.0
 10
282.48828125
 20
-389.85791015625
 30
0.0
 10
279.6015625
 20
-389.2578125
 30
0.0
 10
276.6474609375
 20
-388.95068359375
 30
0.0
 10
273.70849609375
 20
-388.95068359375
 30
0.0
 10
253.0146484375
 20
-388.95068359375
 30
0.0
 10
232.458984375
 20
-404.658203125
 30
0.0
 10
224.830078125
 20
-426.30419921875
 30
0.0
 10
216.609375
 20
-449.65283203125
 30
0.0
 10
223.1806640625
 20
-475.64013671875
 30
0.0
 10
241.18310546875
 20
-490.96533203125
 30
0.0
 10
242.09033203125
 20
-491.72998046875
 30
0.0
 10
243.02001953125
 20
-492.47998046875
 30
0.0
 10
243.97216796875
 20
-493.19970703125
 30
0.0
 10
243.97216796875
 20
-493.19970703125
 30
0.0
 10
163.4833984375
 20
-493.19970703125
 30
0.0
 10
163.4833984375
 20
-493.19970703125
 30
0.0
 10
165.0205078125
 20
-492.10498046875
 30
0.0
 10
166.5390625
 20
-490.96533203125
 30
0.0
 10
168.03076171875
 20
-489.78857421875
 30
0.0
 10
185.197265625
 20
-476.17236328125
 30
0.0
 10
197.560546875
 20
-457.99755859375
 30
0.0
 10
209.51953125
 20
-440.4228515625
 30
0.0
 10
215.150390625
 20
-432.14501953125
 30
0.0
 10
220.97265625
 20
-423.59033203125
 30
0.0
 10
227.19580078125
 20
-415.67236328125
 30
0.0
 10
247.6689453125
 20
-389.6103515625
 30
0.0
 10
274.1357421875
 20
-375.77685546875
 30
0.0
 10
304.07421875
 20
-375.671875
 30
0.0
 10
307.103515625
 20
-375.671875
 30
0.0
 10
310.1025390625
 20
-375.84423828125
 30
0.0
 10
313.0869140625
 20
-376.12158203125
 30
0.0
 10
313.0869140625
 20
-376.12158203125
 30
0.0
 10
313.0869140625
 20
-482.89013671875
 30
0.0
 10
313.0869140625
 20
-482.89013671875
 30
0.0
 10
306.86376953125
 20
-484.03759765625
 30
0.0
 10
300.689453125
 20
-484.697265625
 30
0.0
 10
294.6083984375
 20
-484.697265625
 30
0.0
 10
283.17431640625
 20
-484.697265625
 30
0.0
 10
272.98876953125
 20
-482.275390625
 30
0.0
 10
264.32861328125
 20
-477.484375
 30
0.0
  0
HATCH
  5
5E
330
3C
100
AcDbEntity
  8
Layer 1
 62
     7
100
AcDbHatch
 10
0.0
 20
0.0
 30
0.0
210
0.0
220
0.0
230
1.0
  2
SOLID
 70
     1
 71
     0
 91
       11
 92
        1
 93
        1
 72
     4
 94
        3
 73
     0
 74
     1
 95
      272
 96
      268
 40
0.0
 40
0.0
 40
0.0
 40
0.0
 40
1.0
 40
1.0
 40
1.0
 40
2.0
 40
2.0
 40
2.0
 40
3.0
 40
3.0
 40
3.0
 40
4.0
 40
4.0
 40
4.0
 40
5.0
 40
5.0
 40
5.0
 40
6.0
 40
6.0
 40
6.0
 40
7.0
 40
7.0
 40
7.0
 40
8.0
 40
8.0
 40
8.0
 40
9.0
 40
9.0
 40
9.0
 40
10.0
 40
10.0
 40
10.0
 40
11.0
 40
11.0
 40
11.0
 40
12.0
 40
12.0
 40
12.0
 40
13.0
 40
13.0
 40
13.0
 40
14.0
 40
14.0
 40
14.0
 40
15.0
 40
15.0
 40
15.0
 40
16.0
 40
16.0
 40
16.0
 40
17.0
 40
17.0
 40
17.0
 40
18.0
 40
18.0
 40
18.0
 40
19.0
 40
19.0
 40
19.0
 40
20.0
 40
20.0
 40
20.0
 40
21.0
 40
21.0
 40
21.0
 40
22.0
 40
22.0
 40
22.0
 40
23.0
 40
23.0
 40
23.0
 40
24.0
 40
24.0
 40
24.0
 40
25.0
 40
25.0
 40
25.0
 40
26.0
 40
26.0
 40
26.0
 40
27.0
 40
27.0
 40
27.0
 40
28.0
 40
28.0
 40
28.0
 40
29.0
 40
29.0
 40
29.0
 40
30.0
 40
30.0
 40
30.0
 40
31.0
 40
31.0
 40
31.0
 40
32.0
 40
32.0
 40
32.0
 40
33.0
 40
33.0
 40
33.0
 40
34.0
 40
34.0
 40
34.0
 40
35.0
 40
35.0
 40
35.0
 40
36.0
 40
36.0
 40
36.0
 40
37.0
 40
37.0
 40
37.0
 40
38.0
 40
38.0
 40
38.0
 40
39.0
 40
39.0
 40
39.0
 40
40.0
 40
40.0
 40
40.0
 40
41.0
 40
41.0
 40
41.0
 40
42.0
 40
42.0
 40
42.0
 40
43.0
 40
43.0
 40
43.0
 40
44.0
 40
44.0
 40
44.0
 40
45.0
 40
45.0
 40
45.0
 40
46.0
 40
46.0
 40
46.0
 40
47.0
 40
47.0
 40
47.0
 40
48.0
 40
48.0
 40
48.0
 40
49.0
 40
49.0
 40
49.0
 40
50.0
 40
50.0
 40
50.0
 40
51.0
 40
51.0
 40
51.0
 40
52.0
 40
52.0
 40
52.0
 40
53.0
 40
53.0
 40
53.0
 40
54.0
 40
54.0
 40
54.0
 40
55.0
 40
55.0
 40
55.0
 40
56.0
 40
56.0
 40
56.0
 40
57.0
 40
57.0
 40
57.0
 40
58.0
 40
58.0
 40
58.0
 40
59.0
 40
59.0
 40
59.0
 40
60.0
 40
60.0
 40
60.0
 40
61.0
 40
61.0
 40
61.0
 40
62.0
 40
62.0
 40
62.0
 40
63.0
 40
63.0
 40
63.0
 40
64.0
 40
64.0
 40
64.0
 40
65.0
 40
65.0
 40
65.0
 40
66.0
 40
66.0
 40
66.0
 40
67.0
 40
67.0
 40
67.0
 40
68.0
 40
68.0
 40
68.0
 40
69.0
 40
69.0
 40
69.0
 40
70.0
 40
70.0
 40
70.0
 40
71.0
 40
71.0
 40
71.0
 40
72.0
 40
72.0
 40
72.0
 40
73.0
 40
73.0
 40
73.0
 40
74.0
 40
74.0
 40
74.0
 40
75.0
 40
75.0
 40
75.0
 40
76.0
 40
76.0
 40
76.0
 40
77.0
 40
77.0
 40
77.0
 40
78.0
 40
78.0
 40
78.0
 40
79.0
 40
79.0
 40
79.0
 40
80.0
 40
80.0
 40
80.0
 40
81.0
 40
81.0
 40
81.0
 40
82.0
 40
82.0
 40
82.0
 40
83.0
 40
83.0
 40
83.0
 40
84.0
 40
84.0
 40
84.0
 40
85.0
 40
85.0
 40
85.0
 40
86.0
 40
86.0
 40
86.0
 40
87.0
 40
87.0
 40
87.0
 40
88.0
 40
88.0
 40
88.0
 40
89.0
 40
89.0
 40
89.0
 40
89.0
 10
908.70703125
 20
-510.35546875
 10
908.70703125
 20
-510.35546875
 10
908.70703125
 20
-493.19970703125
 10
908.70703125
 20
-493.19970703125
 10
908.70703125
 20
-493.19970703125
 10
766.0546875
 20
-493.19970703125
 10
766.0546875
 20
-493.19970703125
 10
776.09375
 20
-488.22900390625
 10
785.67578125
 20
-482.2529296875
 10
794.703125
 20
-475.34033203125
 10
803.3076171875
 20
-471.35888671875
 10
810.54296875
 20
-468.33740234375
 10
818.2919921875
 20
-468.33740234375
 10
821.98046875
 20
-468.33740234375
 10
825.564453125
 20
-469.02685546875
 10
829.2578125
 20
-470.4365234375
 10
833.70703125
 20
-472.13818359375
 10
839.484375
 20
-474.4853515625
 10
844.69921875
 20
-477.55908203125
 10
844.69921875
 20
-477.55908203125
 10
846.6181640625
 20
-478.7138671875
 10
846.6181640625
 20
-478.7138671875
 10
850.44921875
 20
-481.05322265625
 10
854.0634765625
 20
-483.2578125
 10
860.0771484375
 20
-483.42236328125
 10
862.884765625
 20
-483.42236328125
 10
865.5205078125
 20
-482.12548828125
 10
867.3046875
 20
-479.86865234375
 10
869.1796875
 20
-477.49169921875
 10
869.8916015625
 20
-474.33544921875
 10
869.1943359375
 20
-471.41845703125
 10
864.79296875
 20
-452.99658203125
 10
839.86328125
 20
-451.564453125
 10
832.328125
 20
-451.564453125
 10
829.853515625
 20
-451.564453125
 10
827.4462890625
 20
-451.69189453125
 10
825.1748046875
 20
-451.939453125
 10
823.318359375
 20
-452.14208984375
 10
821.091796875
 20
-452.45654296875
 10
818.6064453125
 20
-452.94384765625
 10
819.66015625
 20
-451.71435546875
 10
820.6982421875
 20
-450.46240234375
 10
821.7109375
 20
-449.1953125
 10
822.53125
 20
-448.8955078125
 10
823.251953125
 20
-448.36279296875
 10
823.794921875
 20
-447.64306640625
 10
826.583984375
 20
-443.94677734375
 10
829.4482421875
 20
-439.95068359375
 10
832.41796875
 20
-435.80419921875
 10
850.9892578125
 20
-409.876953125
 10
872.1181640625
 20
-380.373046875
 10
903.841796875
 20
-382.697265625
 10
904.205078125
 20
-382.72705078125
 10
904.5615234375
 20
-382.7421875
 10
904.90625
 20
-382.7421875
 10
904.90625
 20
-382.7421875
 10
904.90625
 20
-382.7421875
 10
904.91015625
 20
-382.7421875
 10
911.2490234375
 20
-382.7421875
 10
915.890625
 20
-378.19873046875
 10
916.1904296875
 20
-371.6982421875
 10
916.478515625
 20
-365.5048828125
 10
912.4375
 20
-358.5244140625
 10
904.380859375
 20
-357.77490234375
 10
883.5302734375
 20
-355.84033203125
 10
868.923828125
 20
-368.89404296875
 10
857.572265625
 20
-381.61767578125
 10
855.015625
 20
-384.48193359375
 10
852.3994140625
 20
-387.4208984375
 10
849.771484375
 20
-390.4501953125
 10
854.8623046875
 20
-365.2275390625
 10
851.3720703125
 20
-340.66455078125
 10
839.4951171875
 20
-319.84326171875
 10
836.3310546875
 20
-314.30224609375
 10
832.4921875
 20
-309.04638671875
 10
828.080078125
 20
-304.21044921875
 10
827.94921875
 20
-301.56396484375
 10
827.619140625
 20
-298.9619140625
 10
827.30078125
 20
-296.427734375
 10
826.90625
 20
-293.29345703125
 10
826.53125
 20
-290.33935546875
 10
826.5244140625
 20
-287.40771484375
 10
826.494140625
 20
-278.23046875
 10
828.650390625
 20
-270.26806640625
 10
833.5048828125
 20
-261.578125
 10
833.8046875
 20
-261.05322265625
 10
834.236328125
 20
-260.33349609375
 10
834.7568359375
 20
-259.47119140625
 10
840.462890625
 20
-249.99365234375
 10
846.232421875
 20
-239.31689453125
 10
842.412109375
 20
-232.54638671875
 10
841.123046875
 20
-230.27490234375
 10
838.212890625
 20
-227.53076171875
 10
831.5849609375
 20
-227.87548828125
 10
822.958984375
 20
-228.29931640625
 10
817.845703125
 20
-235.3095703125
 10
814.71484375
 20
-243.69580078125
 10
808.2294921875
 20
-215.11767578125
 10
795.8173828125
 20
-190.13525390625
 10
777.40234375
 20
-168.80029296875
 10
748.970703125
 20
-135.86279296875
 10
712.5087890625
 20
-112.9267578125
 10
668.013671875
 20
-99.98583984375
 10
623.509765625
 20
-87.05224609375
 10
560.09375
 20
-80.58154296875
 10
477.7607421875
 20
-80.58154296875
 10
433.05859375
 20
-80.58154296875
 10
370.72265625
 20
-81.9609375
 10
290.73583984375
 20
-84.69775390625
 10
290.73583984375
 20
-84.69775390625
 10
190.7607421875
 20
-88.2216796875
 10
190.7607421875
 20
-88.2216796875
 10
190.7607421875
 20
-88.2216796875
 10
190.7607421875
 20
-115.28125
 10
190.7607421875
 20
-115.28125
 10
190.7607421875
 20
-115.28125
 10
205.4599609375
 20
-115.28125
 10
205.4599609375
 20
-115.28125
 10
245.8388671875
 20
-115.28125
 10
272.111328125
 20
-118.80517578125
 10
284.265625
 20
-125.8681640625
 10
296.41552734375
 20
-132.92333984375
 10
304.26171875
 20
-145.66943359375
 10
307.79345703125
 20
-164.091796875
 10
311.3212890625
 20
-182.52880859375
 10
313.0869140625
 20
-223.4892578125
 10
313.0869140625
 20
-287.01025390625
 10
313.0869140625
 20
-287.01025390625
 10
313.0869140625
 20
-358.314453125
 10
313.0869140625
 20
-358.314453125
 10
310.14013671875
 20
-358.07861328125
 10
307.1787109375
 20
-357.947265625
 10
304.212890625
 20
-357.947265625
 10
287.33935546875
 20
-357.947265625
 10
270.5107421875
 20
-361.86083984375
 10
255.544921875
 20
-369.25390625
 10
248.05859375
 20
-372.95751953125
 10
240.92822265625
 20
-377.77880859375
 10
233.955078125
 20
-383.86669921875
 10
235.3310546875
 20
-373.65478515625
 10
235.7470703125
 20
-361.59130859375
 10
230.80224609375
 20
-351.4990234375
 10
228.984375
 20
-347.78759765625
 10
225.5654296875
 20
-345.66552734375
 10
221.4111328125
 20
-345.66552734375
 10
217.8388671875
 20
-345.66552734375
 10
214.236328125
 20
-347.27783203125
 10
211.7763671875
 20
-349.97705078125
 10
209.6025390625
 20
-352.36865234375
 10
208.56005859375
 20
-355.37548828125
 10
208.8486328125
 20
-358.4345703125
 10
209.30615234375
 20
-363.32275390625
 10
210.546875
 20
-367.93408203125
 10
211.74658203125
 20
-372.3955078125
 10
213.0625
 20
-377.30615234375
 10
214.30712890625
 20
-381.93994140625
 10
214.5546875
 20
-386.8212890625
 10
214.75341796875
 20
-390.75732421875
 10
214.0263671875
 20
-394.76123046875
 10
213.26123046875
 20
-398.99755859375
 10
212.744140625
 20
-401.83935546875
 10
212.2119140625
 20
-404.755859375
 10
211.9677734375
 20
-407.72509765625
 10
207.7431640625
 20
-413.13818359375
 10
203.6416015625
 20
-418.77685546875
 10
199.65283203125
 20
-424.31787109375
 10
199.6005859375
 20
-416.99951171875
 10
198.5546875
 20
-410.5517578125
 10
197.90576171875
 20
-407.23779296875
 10
197.005859375
 20
-402.65673828125
 10
193.328125
 20
-399.7021484375
 10
188.533203125
 20
-399.7021484375
 10
184.720703125
 20
-399.7021484375
 10
180.94580078125
 20
-401.6142578125
 10
178.9140625
 20
-404.568359375
 10
177.10693359375
 20
-407.20751953125
 10
176.77734375
 20
-410.38671875
 10
177.984375
 20
-413.5283203125
 10
180.255859375
 20
-419.39892578125
 10
182.15673828125
 20
-424.75244140625
 10
182.4150390625
 20
-430.79541015625
 10
182.50537109375
 20
-433.05224609375
 10
182.404296875
 20
-435.36181640625
 10
182.29541015625
 20
-437.79833984375
 10
182.15283203125
 20
-441.0302734375
 10
182.0029296875
 20
-444.36669921875
 10
182.3330078125
 20
-447.7255859375
 10
179.1240234375
 20
-451.76708984375
 10
176.076171875
 20
-455.3583984375
 10
173.087890625
 20
-458.60498046875
 10
173.140625
 20
-450.67236328125
 10
171.0302734375
 20
-442.8447265625
 10
167.0
 20
-437.1162109375
 10
164.9755859375
 20
-434.22216796875
 10
161.02783203125
 20
-432.8876953125
 10
157.86376953125
 20
-434.17724609375
 10
156.51806640625
 20
-434.71728515625
 10
155.6484375
 20
-435.42919921875
 10
154.99609375
 20
-436.03662109375
 10
152.8818359375
 20
-437.97119140625
 10
152.1357421875
 20
-441.47998046875
 10
153.2529296875
 20
-444.17919921875
 10
153.2529296875
 20
-444.17919921875
 10
153.4326171875
 20
-444.6142578125
 10
153.4326171875
 20
-444.6142578125
 10
155.6142578125
 20
-449.93017578125
 10
157.5
 20
-454.52587890625
 10
157.42529296875
 20
-459.9921875
 10
157.35400390625
 20
-465.66796875
 10
155.220703125
 20
-471.021484375
 10
153.0693359375
 20
-476.26220703125
 10
151.7119140625
 20
-477.19189453125
 10
150.33984375
 20
-478.09912109375
 10
148.9228515625
 20
-478.9541015625
 10
139.0029296875
 20
-484.9296875
 10
126.92431640625
 20
-488.35595703125
 10
115.79736328125
 20
-488.35595703125
 10
104.6484375
 20
-488.35595703125
 10
84.89892578125
 20
-484.9296875
 10
77.94140625
 20
-461.97119140625
 10
73.7724609375
 20
-448.2353515625
 10
78.7734375
 20
-432.865234375
 10
89.8251953125
 20
-425.412109375
 10
96.58447265625
 20
-420.86083984375
 10
104.1162109375
 20
-420.43359375
 10
110.2041015625
 20
-424.28759765625
 10
113.40576171875
 20
-426.35693359375
 10
115.84619140625
 20
-429.07861328125
 10
117.712890625
 20
-432.70751953125
 10
117.89697265625
 20
-433.044921875
 10
118.0693359375
 20
-433.38232421875
 10
118.22265625
 20
-433.7197265625
 10
112.74609375
 20
-433.70458984375
 10
107.3662109375
 20
-436.208984375
 10
104.12353515625
 20
-440.4453125
 10
100.8466796875
 20
-444.74169921875
 10
99.95458984375
 20
-450.46240234375
 10
101.619140625
 20
-456.5654296875
 10
103.70361328125
 20
-464.220703125
 10
110.1591796875
 20
-469.16943359375
 10
118.0654296875
 20
-469.16943359375
 10
120.87353515625
 20
-469.16943359375
 10
123.76025390625
 20
-468.5244140625
 10
126.4033203125
 20
-467.30224609375
 10
138.291015625
 20
-461.82177734375
 10
141.7060546875
 20
-447.69580078125
 10
141.02001953125
 20
-437.26611328125
 10
139.6552734375
 20
-416.27978515625
 10
122.0205078125
 20
-399.19970703125
 10
101.708984375
 20
-399.19970703125
 10
99.3701171875
 20
-399.19970703125
 10
97.02685546875
 20
-399.43212890625
 10
94.740234375
 20
-399.8896484375
 10
73.27001953125
 20
-404.1708984375
 10
55.9951171875
 20
-426.484375
 10
55.41796875
 20
-450.68701171875
 10
54.8330078125
 20
-474.875
 10
69.978515625
 20
-497.67578125
 10
92.25439453125
 20
-506.1328125
 10
96.220703125
 20
-507.640625
 10
100.37451171875
 20
-508.728515625
 10
104.640625
 20
-509.39453125
 10
104.640625
 20
-509.39453125
 10
104.640625
 20
-510.35546875
 10
104.640625
 20
-510.35546875
 10
104.640625
 20
-510.35546875
 10
908.70703125
 20
-510.35546875
 10
908.70703125
 20
-510.35546875
 97
        0
 92
        1
 93
        1
 72
     4
 94
        3
 73
     0
 74
     1
 95
       23
 96
       19
 40
0.0
 40
0.0
 40
0.0
 40
0.0
 40
1.0
 40
1.0
 40
1.0
 40
2.0
 40
2.0
 40
2.0
 40
3.0
 40
3.0
 40
3.0
 40
4.0
 40
4.0
 40
4.0
 40
5.0
 40
5.0
 40
5.0
 40
6.0
 40
6.0
 40
6.0
 40
6.0
 10
501.884765625
 20
-466.919921875
 10
498.916015625
 20
-453.04931640625
 10
503.658203125
 20
-441.38232421875
 10
508.6552734375
 20
-433.57763671875
 10
523.7373046875
 20
-434.2294921875
 10
535.3662109375
 20
-438.5634765625
 10
543.24609375
 20
-446.48095703125
 10
550.4033203125
 20
-453.67138671875
 10
554.462890625
 20
-464.49072265625
 10
553.341796875
 20
-473.40576171875
 10
553.1884765625
 20
-474.63134765625
 10
552.9189453125
 20
-475.7900390625
 10
552.5849609375
 20
-476.91064453125
 10
539.1298828125
 20
-478.77783203125
 10
524.44921875
 20
-480.01123046875
 10
508.5615234375
 20
-480.61083984375
 10
505.3525390625
 20
-476.697265625
 10
502.9755859375
 20
-472.01123046875
 10
501.884765625
 20
-466.919921875
 97
        0
 92
        1
 93
        1
 72
     4
 94
        3
 73
     0
 74
     1
 95
       20
 96
       16
 40
0.0
 40
0.0
 40
0.0
 40
0.0
 40
1.0
 40
1.0
 40
1.0
 40
2.0
 40
2.0
 40
2.0
 40
3.0
 40
3.0
 40
3.0
 40
4.0
 40
4.0
 40
4.0
 40
5.0
 40
5.0
 40
5.0
 40
5.0
 10
650.28125
 20
-418.95654296875
 10
646.599609375
 20
-418.52197265625
 10
642.9443359375
 20
-418.0869140625
 10
639.3271484375
 20
-417.61474609375
 10
611.9189453125
 20
-414.04541015625
 10
587.1572265625
 20
-407.544921875
 10
565.5595703125
 20
-398.25537109375
 10
584.9755859375
 20
-393.63671875
 10
605.568359375
 20
-393.591796875
 10
621.767578125
 20
-398.240234375
 10
632.59375
 20
-401.35205078125
 10
645.669921875
 20
-409.2021484375
 10
658.1123046875
 20
-419.9013671875
 10
655.4775390625
 20
-419.57177734375
 10
652.8603515625
 20
-419.26416015625
 10
650.28125
 20
-418.95654296875
 97
        0
 92
        1
 93
        1
 72
     4
 94
        3
 73
     0
 74
     1
 95
       29
 96
       25
 40
0.0
 40
0.0
 40
0.0
 40
0.0
 40
1.0
 40
1.0
 40
1.0
 40
2.0
 40
2.0
 40
2.0
 40
3.0
 40
3.0
 40
3.0
 40
4.0
 40
4.0
 40
4.0
 40
5.0
 40
5.0
 40
5.0
 40
6.0
 40
6.0
 40
6.0
 40
7.0
 40
7.0
 40
7.0
 40
8.0
 40
8.0
 40
8.0
 40
8.0
 10
638.4873046875
 20
-431.10302734375
 10
642.0673828125
 20
-431.57177734375
 10
645.72265625
 20
-432.06298828125
 10
649.3701171875
 20
-432.55419921875
 10
634.1123046875
 20
-449.16552734375
 10
616.5146484375
 20
-460.7529296875
 10
596.5556640625
 20
-467.26513671875
 10
588.982421875
 20
-469.7392578125
 10
580.716796875
 20
-471.85009765625
 10
571.873046875
 20
-473.66064453125
 10
573.3046875
 20
-455.63232421875
 10
562.8828125
 20
-437.52099609375
 10
549.0234375
 20
-427.9990234375
 10
541.541015625
 20
-422.86279296875
 10
533.2744140625
 20
-419.14404296875
 10
524.359375
 20
-416.89501953125
 10
528.46484375
 20
-413.783203125
 10
533.056640625
 20
-410.91162109375
 10
538.0615234375
 20
-408.32470703125
 10
541.203125
 20
-409.67431640625
 10
544.45703125
 20
-410.9638671875
 10
547.7490234375
 20
-412.17138671875
 10
577.740234375
 20
-423.12548828125
 10
608.623046875
 20
-427.181640625
 10
638.4873046875
 20
-431.10302734375
 97
        0
 92
        1
 93
        1
 72
     4
 94
        3
 73
     0
 74
     1
 95
       26
 96
       22
 40
0.0
 40
0.0
 40
0.0
 40
0.0
 40
1.0
 40
1.0
 40
1.0
 40
2.0
 40
2.0
 40
2.0
 40
3.0
 40
3.0
 40
3.0
 40
4.0
 40
4.0
 40
4.0
 40
5.0
 40
5.0
 40
5.0
 40
6.0
 40
6.0
 40
6.0
 40
7.0
 40
7.0
 40
7.0
 40
7.0
 10
487.3994140625
 20
-481.05712890625
 10
486.720703125
 20
-481.06103515625
 10
486.0830078125
 20
-481.08349609375
 10
485.4013671875
 20
-481.08349609375
 10
485.4013671875
 20
-481.08349609375
 10
433.3740234375
 20
-481.08349609375
 10
433.3740234375
 20
-481.08349609375
 10
432.23046875
 20
-475.00244140625
 10
430.5546875
 20
-468.74169921875
 10
428.357421875
 20
-462.3125
 10
428.357421875
 20
-462.3125
 10
428.357421875
 20
-454.75830078125
 10
428.357421875
 20
-454.75830078125
 10
445.5126953125
 20
-446.4208984375
 10
465.412109375
 20
-438.162109375
 10
487.4140625
 20
-434.86669921875
 10
486.2744140625
 20
-437.61865234375
 10
485.333984375
 20
-440.43017578125
 10
484.6025390625
 20
-443.27197265625
 10
481.2890625
 20
-456.17578125
 10
482.5146484375
 20
-469.623046875
 10
487.3994140625
 20
-481.05712890625
 97
        0
 92
        1
 93
        1
 72
     4
 94
        3
 73
     0
 74
     1
 95
       14
 96
       10
 40
0.0
 40
0.0
 40
0.0
 40
0.0
 40
1.0
 40
1.0
 40
1.0
 40
2.0
 40
2.0
 40
2.0
 40
3.0
 40
3.0
 40
3.0
 40
3.0
 10
684.767578125
 20
-493.19970703125
 10
690.3603515625
 20
-491.494140625
 10
695.5791015625
 20
-489.67236328125
 10
700.3740234375
 20
-487.71533203125
 10
700.5498046875
 20
-489.57861328125
 10
700.6435546875
 20
-491.41162109375
 10
700.6064453125
 20
-493.19970703125
 10
700.6064453125
 20
-493.19970703125
 10
684.767578125
 20
-493.19970703125
 10
684.767578125
 20
-493.19970703125
 97
        0
 92
        1
 93
        1
 72
     4
 94
        3
 73
     0
 74
     1
 95
       23
 96
       19
 40
0.0
 40
0.0
 40
0.0
 40
0.0
 40
1.0
 40
1.0
 40
1.0
 40
2.0
 40
2.0
 40
2.0
 40
3.0
 40
3.0
 40
3.0
 40
4.0
 40
4.0
 40
4.0
 40
5.0
 40
5.0
 40
5.0
 40
6.0
 40
6.0
 40
6.0
 40
6.0
 10
725.333984375
 20
-492.47265625
 10
724.224609375
 20
-492.7275390625
 10
723.1220703125
 20
-492.96728515625
 10
722.0126953125
 20
-493.19970703125
 10
722.0126953125
 20
-493.19970703125
 10
717.529296875
 20
-493.19970703125
 10
717.529296875
 20
-493.19970703125
 10
716.92578125
 20
-488.978515625
 10
716.1083984375
 20
-484.78369140625
 10
715.087890625
 20
-480.63720703125
 10
721.0712890625
 20
-477.49169921875
 10
726.8828125
 20
-474.18896484375
 10
732.3779296875
 20
-470.5751953125
 10
734.927734375
 20
-475.14892578125
 10
736.83203125
 20
-480.1796875
 10
738.1552734375
 20
-485.904296875
 10
733.724609375
 20
-488.38623046875
 10
729.2626953125
 20
-490.59033203125
 10
725.333984375
 20
-492.47265625
 97
        0
 92
        1
 93
        1
 72
     4
 94
        3
 73
     0
 74
     1
 95
       17
 96
       13
 40
0.0
 40
0.0
 40
0.0
 40
0.0
 40
1.0
 40
1.0
 40
1.0
 40
2.0
 40
2.0
 40
2.0
 40
3.0
 40
3.0
 40
3.0
 40
4.0
 40
4.0
 40
4.0
 40
4.0
 10
759.8798828125
 20
-468.966796875
 10
757.1884765625
 20
-472.18359375
 10
753.9794921875
 20
-475.205078125
 10
750.15234375
 20
-478.13671875
 10
748.7685546875
 20
-472.70068359375
 10
746.3916015625
 20
-467.49365234375
 10
743.4521484375
 20
-462.6875
 10
752.5703125
 20
-455.71435546875
 10
760.8701171875
 20
-447.9580078125
 10
768.4462890625
 20
-439.515625
 10
769.95703125
 20
-449.57373046875
 10
768.412109375
 20
-458.7587890625
 10
759.8798828125
 20
-468.966796875
 97
        0
 92
        1
 93
        1
 72
     4
 94
        3
 73
     0
 74
     1
 95
       26
 96
       22
 40
0.0
 40
0.0
 40
0.0
 40
0.0
 40
1.0
 40
1.0
 40
1.0
 40
2.0
 40
2.0
 40
2.0
 40
3.0
 40
3.0
 40
3.0
 40
4.0
 40
4.0
 40
4.0
 40
5.0
 40
5.0
 40
5.0
 40
6.0
 40
6.0
 40
6.0
 40
7.0
 40
7.0
 40
7.0
 40
7.0
 10
825.14453125
 20
-330.7451171875
 10
834.921875
 20
-347.4951171875
 10
838.73828125
 20
-368.42919921875
 10
835.619140625
 20
-388.31298828125
 10
830.697265625
 20
-419.646484375
 10
812.271484375
 20
-447.2607421875
 10
783.794921875
 20
-467.04736328125
 10
783.970703125
 20
-466.79248046875
 10
784.146484375
 20
-466.53759765625
 10
784.3232421875
 20
-466.275390625
 10
794.759765625
 20
-450.818359375
 10
798.6474609375
 20
-428.53857421875
 10
787.8583984375
 20
-413.595703125
 10
788.8701171875
 20
-411.96875
 10
789.95703125
 20
-410.4130859375
 10
790.9287109375
 20
-408.74462890625
 10
805.2939453125
 20
-384.08837890625
 10
814.3251953125
 20
-356.62744140625
 10
818.0595703125
 20
-326.38525390625
 10
820.3720703125
 20
-327.3037109375
 10
822.71484375
 20
-328.72802734375
 10
825.14453125
 20
-330.7451171875
 97
        0
 92
        1
 93
        1
 72
     4
 94
        3
 73
     0
 74
     1
 95
      131
 96
      127
 40
0.0
 40
0.0
 40
0.0
 40
0.0
 40
1.0
 40
1.0
 40
1.0
 40
2.0
 40
2.0
 40
2.0
 40
3.0
 40
3.0
 40
3.0
 40
4.0
 40
4.0
 40
4.0
 40
5.0
 40
5.0
 40
5.0
 40
6.0
 40
6.0
 40
6.0
 40
7.0
 40
7.0
 40
7.0
 40
8.0
 40
8.0
 40
8.0
 40
9.0
 40
9.0
 40
9.0
 40
10.0
 40
10.0
 40
10.0
 40
11.0
 40
11.0
 40
11.0
 40
12.0
 40
12.0
 40
12.0
 40
13.0
 40
13.0
 40
13.0
 40
14.0
 40
14.0
 40
14.0
 40
15.0
 40
15.0
 40
15.0
 40
16.0
 40
16.0
 40
16.0
 40
17.0
 40
17.0
 40
17.0
 40
18.0
 40
18.0
 40
18.0
 40
19.0
 40
19.0
 40
19.0
 40
20.0
 40
20.0
 40
20.0
 40
21.0
 40
21.0
 40
21.0
 40
22.0
 40
22.0
 40
22.0
 40
23.0
 40
23.0
 40
23.0
 40
24.0
 40
24.0
 40
24.0
 40
25.0
 40
25.0
 40
25.0
 40
26.0
 40
26.0
 40
26.0
 40
27.0
 40
27.0
 40
27.0
 40
28.0
 40
28.0
 40
28.0
 40
29.0
 40
29.0
 40
29.0
 40
30.0
 40
30.0
 40
30.0
 40
31.0
 40
31.0
 40
31.0
 40
32.0
 40
32.0
 40
32.0
 40
33.0
 40
33.0
 40
33.0
 40
34.0
 40
34.0
 40
34.0
 40
35.0
 40
35.0
 40
35.0
 40
36.0
 40
36.0
 40
36.0
 40
37.0
 40
37.0
 40
37.0
 40
38.0
 40
38.0
 40
38.0
 40
39.0
 40
39.0
 40
39.0
 40
40.0
 40
40.0
 40
40.0
 40
41.0
 40
41.0
 40
41.0
 40
42.0
 40
42.0
 40
42.0
 40
42.0
 10
489.521484375
 20
-109.3955078125
 10
562.05078125
 20
-109.3955078125
 10
614.494140625
 20
-124.78857421875
 10
646.84375
 20
-155.56689453125
 10
674.427734375
 20
-181.81298828125
 10
690.203125
 20
-220.86474609375
 10
694.267578125
 20
-272.6259765625
 10
691.5380859375
 20
-271.08544921875
 10
688.61328125
 20
-270.03564453125
 10
685.314453125
 20
-270.03564453125
 10
683.95703125
 20
-270.03564453125
 10
682.5888671875
 20
-270.22314453125
 10
681.2470703125
 20
-270.59033203125
 10
677.1611328125
 20
-271.71533203125
 10
674.2294921875
 20
-275.52392578125
 10
674.1240234375
 20
-279.8427734375
 10
673.8056640625
 20
-291.78662109375
 10
684.767578125
 20
-296.25537109375
 10
695.32421875
 20
-298.12255859375
 10
695.33203125
 20
-298.93603515625
 10
695.361328125
 20
-299.71923828125
 10
695.361328125
 20
-300.53662109375
 10
695.361328125
 20
-308.22900390625
 10
695.046875
 20
-315.693359375
 10
694.451171875
 20
-322.94775390625
 10
690.892578125
 20
-331.89599609375
 10
689.1572265625
 20
-341.658203125
 10
690.3046875
 20
-351.50634765625
 10
685.869140625
 20
-372.33935546875
 10
678.4990234375
 20
-391.03125
 10
668.201171875
 20
-407.58984375
 10
645.91015625
 20
-389.97412109375
 10
618.5615234375
 20
-380.17041015625
 10
590.201171875
 20
-380.17041015625
 10
575.3671875
 20
-380.17041015625
 10
560.2626953125
 20
-382.7646484375
 10
545.3046875
 20
-387.8857421875
 10
545.3046875
 20
-387.8857421875
 10
545.01171875
 20
-387.99072265625
 10
545.01171875
 20
-387.99072265625
 10
540.3935546875
 20
-385.33642578125
 10
536.224609375
 20
-382.697265625
 10
532.310546875
 20
-379.953125
 10
515.16015625
 20
-367.9267578125
 10
504.134765625
 20
-352.1064453125
 10
502.064453125
 20
-336.55615234375
 10
499.9052734375
 20
-320.39794921875
 10
508.8876953125
 20
-305.56005859375
 10
523.4189453125
 20
-301.27880859375
 10
529.7470703125
 20
-299.41943359375
 10
533.3642578125
 20
-293.7509765625
 10
532.416015625
 20
-287.18310546875
 10
531.583984375
 20
-281.40966796875
 10
526.9912109375
 20
-275.56884765625
 10
519.8271484375
 20
-275.56884765625
 10
518.544921875
 20
-275.56884765625
 10
517.232421875
 20
-275.76416015625
 10
515.9248046875
 20
-276.14599609375
 10
496.0703125
 20
-282.001953125
 10
481.419921875
 20
-298.53466796875
 10
477.126953125
 20
-319.26611328125
 10
476.1298828125
 20
-318.47900390625
 10
475.14453125
 20
-317.72900390625
 10
474.203125
 20
-317.0166015625
 10
474.203125
 20
-317.0166015625
 10
473.2099609375
 20
-316.25927734375
 10
473.2099609375
 20
-316.25927734375
 10
465.81640625
 20
-310.62841796875
 10
455.9462890625
 20
-304.10546875
 10
444.7890625
 20
-303.72314453125
 10
440.2197265625
 20
-303.72314453125
 10
436.50390625
 20
-306.9248046875
 10
435.544921875
 20
-311.68603515625
 10
434.505859375
 20
-316.8291015625
 10
436.9541015625
 20
-321.9052734375
 10
441.3701171875
 20
-323.7646484375
 10
445.17578125
 20
-325.35400390625
 10
449.0556640625
 20
-326.25390625
 10
452.8125
 20
-327.13134765625
 10
456.890625
 20
-328.07568359375
 10
460.7373046875
 20
-328.96826171875
 10
464.3515625
 20
-330.67041015625
 10
467.23046875
 20
-332.02734375
 10
469.83984375
 20
-334.0966796875
 10
472.60546875
 20
-336.2861328125
 10
473.8203125
 20
-337.25341796875
 10
475.03125
 20
-338.212890625
 10
476.2724609375
 20
-339.11279296875
 10
476.5126953125
 20
-341.18212890625
 10
476.857421875
 20
-343.22900390625
 10
477.2998046875
 20
-345.23828125
 10
477.771484375
 20
-347.39794921875
 10
478.349609375
 20
-349.53466796875
 10
479.0244140625
 20
-351.64892578125
 10
477.1123046875
 20
-350.8916015625
 10
475.169921875
 20
-350.20947265625
 10
473.2431640625
 20
-349.6171875
 10
467.736328125
 20
-347.9375
 10
462.431640625
 20
-352.13623046875
 10
462.056640625
 20
-358.2470703125
 10
461.74609375
 20
-363.345703125
 10
464.9208984375
 20
-367.32666015625
 10
469.779296875
 20
-367.9267578125
 10
474.908203125
 20
-368.556640625
 10
479.515625
 20
-369.24658203125
 10
483.939453125
 20
-371.37548828125
 10
485.607421875
 20
-372.185546875
 10
487.24609375
 20
-373.15283203125
 10
488.9775390625
 20
-374.1796875
 10
490.1845703125
 20
-374.89208984375
 10
491.3916015625
 20
-375.6044921875
 10
492.6171875
 20
-376.27197265625
 10
499.662109375
 20
-384.83447265625
 10
508.873046875
 20
-392.51953125
 10
520.0634765625
 20
-399.1923828125
 10
512.4345703125
 20
-403.66845703125
 10
505.9560546875
 20
-408.75244140625
 10
500.73046875
 20
-414.35302734375
 10
476.3662109375
 20
-414.87060546875
 10
451.158203125
 20
-423.91650390625
 10
428.357421875
 20
-434.2109375
 10
428.357421875
 20
-434.2109375
 10
428.357421875
 20
-111.74951171875
 10
428.357421875
 20
-111.74951171875
 10
442.46875
 20
-110.18994140625
 10
462.85546875
 20
-109.3955078125
 10
489.521484375
 20
-109.3955078125
 97
        0
 92
        1
 93
        1
 72
     4
 94
        3
 73
     0
 74
     1
 95
       74
 96
       70
 40
0.0
 40
0.0
 40
0.0
 40
0.0
 40
1.0
 40
1.0
 40
1.0
 40
2.0
 40
2.0
 40
2.0
 40
3.0
 40
3.0
 40
3.0
 40
4.0
 40
4.0
 40
4.0
 40
5.0
 40
5.0
 40
5.0
 40
6.0
 40
6.0
 40
6.0
 40
7.0
 40
7.0
 40
7.0
 40
8.0
 40
8.0
 40
8.0
 40
9.0
 40
9.0
 40
9.0
 40
10.0
 40
10.0
 40
10.0
 40
11.0
 40
11.0
 40
11.0
 40
12.0
 40
12.0
 40
12.0
 40
13.0
 40
13.0
 40
13.0
 40
14.0
 40
14.0
 40
14.0
 40
15.0
 40
15.0
 40
15.0
 40
16.0
 40
16.0
 40
16.0
 40
17.0
 40
17.0
 40
17.0
 40
18.0
 40
18.0
 40
18.0
 40
19.0
 40
19.0
 40
19.0
 40
20.0
 40
20.0
 40
20.0
 40
21.0
 40
21.0
 40
21.0
 40
22.0
 40
22.0
 40
22.0
 40
23.0
 40
23.0
 40
23.0
 40
23.0
 10
264.32861328125
 20
-477.484375
 10
248.97314453125
 20
-468.9892578125
 10
242.4951171875
 20
-451.36181640625
 10
248.576171875
 20
-434.61181640625
 10
251.83740234375
 20
-425.61474609375
 10
258.0380859375
 20
-419.05419921875
 10
266.0380859375
 20
-416.1298828125
 10
271.9580078125
 20
-413.96337890625
 10
276.3291015625
 20
-413.70849609375
 10
279.63916015625
 20
-415.3203125
 10
282.06103515625
 20
-416.49755859375
 10
284.99267578125
 20
-419.59423828125
 10
285.50244140625
 20
-422.533203125
 10
285.75732421875
 20
-424.00244140625
 10
285.3603515625
 20
-425.2099609375
 10
284.25
 20
-426.349609375
 10
279.88671875
 20
-430.80322265625
 10
278.6572265625
 20
-436.396484375
 10
280.8837890625
 20
-441.69775390625
 10
283.2158203125
 20
-447.24560546875
 10
288.8955078125
 20
-451.1220703125
 10
294.69091796875
 20
-451.1220703125
 10
299.2197265625
 20
-451.1220703125
 10
303.14111328125
 20
-448.80517578125
 10
305.7314453125
 20
-444.6142578125
 10
312.0556640625
 20
-434.36474609375
 10
313.01953125
 20
-421.7158203125
 10
308.310546875
 20
-410.7841796875
 10
303.62841796875
 20
-399.912109375
 10
294.21484375
 20
-392.287109375
 10
282.48828125
 20
-389.85791015625
 10
279.6015625
 20
-389.2578125
 10
276.6474609375
 20
-388.95068359375
 10
273.70849609375
 20
-388.95068359375
 10
253.0146484375
 20
-388.95068359375
 10
232.458984375
 20
-404.658203125
 10
224.830078125
 20
-426.30419921875
 10
216.609375
 20
-449.65283203125
 10
223.1806640625
 20
-475.64013671875
 10
241.18310546875
 20
-490.96533203125
 10
242.09033203125
 20
-491.72998046875
 10
243.02001953125
 20
-492.47998046875
 10
243.97216796875
 20
-493.19970703125
 10
243.97216796875
 20
-493.19970703125
 10
163.4833984375
 20
-493.19970703125
 10
163.4833984375
 20
-493.19970703125
 10
165.0205078125
 20
-492.10498046875
 10
166.5390625
 20
-490.96533203125
 10
168.03076171875
 20
-489.78857421875
 10
185.197265625
 20
-476.17236328125
 10
197.560546875
 20
-457.99755859375
 10
209.51953125
 20
-440.4228515625
 10
215.150390625
 20
-432.14501953125
 10
220.97265625
 20
-423.59033203125
 10
227.19580078125
 20
-415.67236328125
 10
247.6689453125
 20
-389.6103515625
 10
274.1357421875
 20
-375.77685546875
 10
304.07421875
 20
-375.671875
 10
307.103515625
 20
-375.671875
 10
310.1025390625
 20
-375.84423828125
 10
313.0869140625
 20
-376.12158203125
 10
313.0869140625
 20
-376.12158203125
 10
313.0869140625
 20
-482.89013671875
 10
313.0869140625
 20
-482.89013671875
 10
306.86376953125
 20
-484.03759765625
 10
300.689453125
 20
-484.697265625
 10
294.6083984375
 20
-484.697265625
 10
283.17431640625
 20
-484.697265625
 10
272.98876953125
 20
-482.275390625
 10
264.32861328125
 20
-477.484375
 97
        0
 75
     2
 76
     1
 98
        0
  0
ENDBLK
  5
3F
330
3C
100
AcDbEntity
  8
0
100
AcDbBlockEnd
  0
ENDSEC
  0
SECTION
  2
ENTITIES
  0
INSERT
  5
3D
330
1F
100
AcDbEntity
  8
Layer 1
100
AcDbBlockReference
  2
block 2
 10
0.0
 20
0.0
 30
0.0
  0
ENDSEC
  0
SECTION
  2
OBJECTS
  0
DICTIONARY
  5
C
330
0
100
AcDbDictionary
281
     1
  3
ACAD_GROUP
350
D
  3
ACAD_LAYOUT
350
1A
  3
ACAD_MLINESTYLE
350
17
  3
ACAD_PLOTSETTINGS
350
19
  3
ACAD_PLOTSTYLENAME
350
E
  3
ACAD_TABLESTYLE
350
5F
  3
ACAD_VISUALSTYLE
350
2A
  0
DICTIONARY
  5
D
102
{ACAD_REACTORS
330
C
102
}
330
C
100
AcDbDictionary
281
     1
  0
DICTIONARY
  5
1A
102
{ACAD_REACTORS
330
C
102
}
330
C
100
AcDbDictionary
281
     1
  3
Layout1
350
1E
  3
Layout2
350
26
  3
Model
350
22
  0
DICTIONARY
  5
17
102
{ACAD_REACTORS
330
C
102
}
330
C
100
AcDbDictionary
281
     1
  3
Standard
350
18
  0
DICTIONARY
  5
19
102
{ACAD_REACTORS
330
C
102
}
330
C
100
AcDbDictionary
281
     1
  0
ACDBDICTIONARYWDFLT
  5
E
102
{ACAD_REACTORS
330
C
102
}
330
C
100
AcDbDictionary
281
     1
  3
Normal
350
F
100
AcDbDictionaryWithDefault
340
F
  0
DICTIONARY
  5
5F
102
{ACAD_REACTORS
330
C
102
}
330
C
100
AcDbDictionary
281
     1
  0
DICTIONARY
  5
2A
102
{ACAD_REACTORS
330
C
102
}
330
C
100
AcDbDictionary
281
     1
  3
2dWireframe
350
2F
  3
3D Hidden
350
31
  3
3dWireframe
350
30
  3
Basic
350
32
  3
Brighten
350
36
  3
ColorChange
350
3A
  3
Conceptual
350
34
  3
Dim
350
35
  3
Facepattern
350
39
  3
Flat
350
2B
  3
FlatWithEdges
350
2C
  3
Gouraud
350
2D
  3
GouraudWithEdges
350
2E
  3
Linepattern
350
38
  3
Realistic
350
33
  3
Thicken
350
37
  0
LAYOUT
  5
1E
102
{ACAD_REACTORS
330
1A
102
}
330
1A
100
AcDbPlotSettings
  1

  2
none_device
  4

  6

 40
0.0
 41
0.0
 42
0.0
 43
0.0
 44
0.0
 45
0.0
 46
0.0
 47
0.0
 48
0.0
 49
0.0
140
0.0
141
0.0
142
1.0
143
1.0
 70
   688
 72
     0
 73
     0
 74
     5
  7

 75
    16
147
1.0
148
0.0
149
0.0
100
AcDbLayout
  1
Layout1
 70
     1
 71
     1
 10
0.0
 20
0.0
 11
12.0
 21
9.0
 12
0.0
 22
0.0
 32
0.0
 14
1.000000000000000E+20
 24
1.000000000000000E+20
 34
1.000000000000000E+20
 15
-1.000000000000000E+20
 25
-1.000000000000000E+20
 35
-1.000000000000000E+20
146
0.0
 13
0.0
 23
0.0
 33
0.0
 16
1.0
 26
0.0
 36
0.0
 17
0.0
 27
1.0
 37
0.0
 76
     0
330
1B
  0
LAYOUT
  5
26
102
{ACAD_REACTORS
330
1A
102
}
330
1A
100
AcDbPlotSettings
  1

  2
none_device
  4

  6

 40
0.0
 41
0.0
 42
0.0
 43
0.0
 44
0.0
 45
0.0
 46
0.0
 47
0.0
 48
0.0
 49
0.0
140
0.0
141
0.0
142
1.0
143
1.0
 70
   688
 72
     0
 73
     0
 74
     5
  7

 75
    16
147
1.0
148
0.0
149
0.0
100
AcDbLayout
  1
Layout2
 70
     1
 71
     2
 10
0.0
 20
0.0
 11
0.0
 21
0.0
 12
0.0
 22
0.0
 32
0.0
 14
0.0
 24
0.0
 34
0.0
 15
0.0
 25
0.0
 35
0.0
146
0.0
 13
0.0
 23
0.0
 33
0.0
 16
1.0
 26
0.0
 36
0.0
 17
0.0
 27
1.0
 37
0.0
 76
     0
330
23
  0
LAYOUT
  5
22
102
{ACAD_REACTORS
330
1A
102
}
330
1A
100
AcDbPlotSettings
  1

  2
none_device
  4

  6

 40
0.0
 41
0.0
 42
0.0
 43
0.0
 44
0.0
 45
0.0
 46
0.0
 47
0.0
 48
0.0
 49
0.0
140
0.0
141
0.0
142
1.0
143
1.0
 70
  1712
 72
     0
 73
     0
 74
     0
  7

 75
     0
147
1.0
148
0.0
149
0.0
100
AcDbLayout
  1
Model
 70
     1
 71
     0
 10
0.0
 20
0.0
 11
12.0
 21
9.0
 12
0.0
 22
0.0
 32
0.0
 14
1.000000000000000E+20
 24
1.000000000000000E+20
 34
1.000000000000000E+20
 15
-1.000000000000000E+20
 25
-1.000000000000000E+20
 35
-1.000000000000000E+20
146
0.0
 13
0.0
 23
0.0
 33
0.0
 16
1.0
 26
0.0
 36
0.0
 17
0.0
 27
1.0
 37
0.0
 76
     0
330
1F
331
29
  0
MLINESTYLE
  5
18
102
{ACAD_REACTORS
330
17
102
}
330
17
100
AcDbMlineStyle
  2
Standard
 70
     0
  3

 62
   256
 51
90.0
 52
90.0
 71
     2
 49
0.5
 62
   256
  6
BYLAYER
 49
-0.5
 62
   256
  6
BYLAYER
  0
ACDBPLACEHOLDER
  5
F
102
{ACAD_REACTORS
330
E
102
}
330
E
  0
VISUALSTYLE
  5
2F
102
{ACAD_REACTORS
330
2A
102
}
330
2A
100
AcDbVisualStyle
  2
2dWireframe
 70
     4
 71
     0
 72
     2
 73
     0
 90
        0
 40
-0.6
 41
-30.0
 62
     5
 63
     7
 74
     1
 91
        4
 64
     7
 65
   257
 75
     1
175
     1
 42
1.0
 92
        0
 66
   257
 43
1.0
 76
     1
 77
     6
 78
     2
 67
     7
 79
     5
170
     0
171
     0
290
     0
174
     0
 93
        1
 44
0.0
173
     0
291
     0
 45
0.0
1001
ACAD
1000
AcDbSavedByObjectVersion
1070
     0
  0
VISUALSTYLE
  5
31
102
{ACAD_REACTORS
330
2A
102
}
330
2A
100
AcDbVisualStyle
  2
3D Hidden
 70
     6
 71
     1
 72
     2
 73
     2
 90
        0
 40
-0.6
 41
-30.0
 62
     5
 63
     7
 74
     2
 91
        2
 64
     7
 65
   257
 75
     2
175
     1
 42
40.0
 92
        0
 66
   257
 43
1.0
 76
     1
 77
     6
 78
     2
 67
     7
 79
     3
170
     0
171
     0
290
     0
174
     0
 93
        1
 44
0.0
173
     0
291
     0
 45
0.0
1001
ACAD
1000
AcDbSavedByObjectVersion
1070
     0
  0
VISUALSTYLE
  5
30
102
{ACAD_REACTORS
330
2A
102
}
330
2A
100
AcDbVisualStyle
  2
3dWireframe
 70
     5
 71
     0
 72
     2
 73
     0
 90
        0
 40
-0.6
 41
-30.0
 62
     5
 63
     7
 74
     1
 91
        4
 64
     7
 65
   257
 75
     1
175
     1
 42
1.0
 92
        0
 66
   257
 43
1.0
 76
     1
 77
     6
 78
     2
 67
     7
 79
     5
170
     0
171
     0
290
     0
174
     0
 93
        1
 44
0.0
173
     0
291
     0
 45
0.0
1001
ACAD
1000
AcDbSavedByObjectVersion
1070
     0
  0
VISUALSTYLE
  5
32
102
{ACAD_REACTORS
330
2A
102
}
330
2A
100
AcDbVisualStyle
  2
Basic
 70
     7
 71
     1
 72
     0
 73
     1
 90
        0
 40
-0.6
 41
-30.0
 62
     5
 63
     7
 74
     0
 91
        4
 64
     7
 65
   257
 75
     1
175
     1
 42
1.0
 92
        8
 66
     7
 43
1.0
 76
     1
 77
     6
 78
     2
 67
     7
 79
     5
170
     0
171
     0
290
     0
174
     0
 93
        1
 44
0.0
173
     0
291
     1
 45
0.0
1001
ACAD
1000
AcDbSavedByObjectVersion
1070
     0
  0
VISUALSTYLE
  5
36
102
{ACAD_REACTORS
330
2A
102
}
330
2A
100
AcDbVisualStyle
  2
Brighten
 70
    12
 71
     2
 72
     2
 73
     0
 90
        0
 40
-0.6
 41
-30.0
 62
     5
 63
     7
 74
     1
 91
        4
 64
     7
 65
   257
 75
     1
175
     1
 42
1.0
 92
        8
 66
     7
 43
1.0
 76
     1
 77
     6
 78
     2
 67
     7
 79
     5
170
     0
171
     0
290
     0
174
     0
 93
        1
 44
50.0
173
     0
291
     1
 45
0.0
1001
ACAD
1000
AcDbSavedByObjectVersion
1070
     0
  0
VISUALSTYLE
  5
3A
102
{ACAD_REACTORS
330
2A
102
}
330
2A
100
AcDbVisualStyle
  2
ColorChange
 70
    16
 71
     2
 72
     2
 73
     3
 90
        0
 40
-0.6
 41
-30.0
 62
     5
 63
     8
 74
     1
 91
        4
 64
     7
 65
   257
 75
     1
175
     1
 42
1.0
 92
        8
 66
     8
 43
1.0
 76
     1
 77
     6
 78
     2
 67
     7
 79
     5
170
     0
171
     0
290
     0
174
     0
 93
        1
 44
0.0
173
     0
291
     1
 45
0.0
1001
ACAD
1000
AcDbSavedByObjectVersion
1070
     0
  0
VISUALSTYLE
  5
34
102
{ACAD_REACTORS
330
2A
102
}
330
2A
100
AcDbVisualStyle
  2
Conceptual
 70
     9
 71
     3
 72
     2
 73
     0
 90
        0
 40
-0.6
 41
-30.0
 62
     5
 63
     7
 74
     2
 91
        2
 64
     7
 65
   257
 75
     1
175
     1
 42
40.0
 92
        8
 66
     7
 43
1.0
 76
     1
 77
     6
 78
     2
 67
     7
 79
     3
170
     0
171
     0
290
     0
174
     0
 93
        1
 44
0.0
173
     0
291
     0
 45
0.0
1001
ACAD
1000
AcDbSavedByObjectVersion
1070
     0
  0
VISUALSTYLE
  5
35
102
{ACAD_REACTORS
330
2A
102
}
330
2A
100
AcDbVisualStyle
  2
Dim
 70
    11
 71
     2
 72
     2
 73
     0
 90
        0
 40
-0.6
 41
-30.0
 62
     5
 63
     7
 74
     1
 91
        4
 64
     7
 65
   257
 75
     1
175
     1
 42
1.0
 92
        8
 66
     7
 43
1.0
 76
     1
 77
     6
 78
     2
 67
     7
 79
     5
170
     0
171
     0
290
     0
174
     0
 93
        1
 44
-50.0
173
     0
291
     1
 45
0.0
1001
ACAD
1000
AcDbSavedByObjectVersion
1070
     0
  0
VISUALSTYLE
  5
39
102
{ACAD_REACTORS
330
2A
102
}
330
2A
100
AcDbVisualStyle
  2
Facepattern
 70
    15
 71
     2
 72
     2
 73
     0
 90
        0
 40
-0.6
 41
-30.0
 62
     5
 63
     7
 74
     1
 91
        4
 64
     7
 65
   257
 75
     1
175
     1
 42
1.0
 92
        8
 66
     7
 43
1.0
 76
     1
 77
     6
 78
     2
 67
     7
 79
     5
170
     0
171
     0
290
     0
174
     0
 93
        1
 44
0.0
173
     0
291
     1
 45
0.0
1001
ACAD
1000
AcDbSavedByObjectVersion
1070
     0
  0
VISUALSTYLE
  5
2B
102
{ACAD_REACTORS
330
2A
102
}
330
2A
100
AcDbVisualStyle
  2
Flat
 70
     0
 71
     2
 72
     1
 73
     1
 90
        2
 40
-0.6
 41
30.0
 62
     5
 63
     7
 74
     0
 91
        4
 64
     7
 65
   257
 75
     1
175
     1
 42
1.0
 92
        8
 66
     7
 43
1.0
 76
     1
 77
     6
 78
     2
 67
     7
 79
     5
170
     0
171
     0
290
     0
174
     0
 93
       13
 44
0.0
173
     0
291
     1
 45
0.0
1001
ACAD
1000
AcDbSavedByObjectVersion
1070
     0
  0
VISUALSTYLE
  5
2C
102
{ACAD_REACTORS
330
2A
102
}
330
2A
100
AcDbVisualStyle
  2
FlatWithEdges
 70
     1
 71
     2
 72
     1
 73
     1
 90
        2
 40
-0.6
 41
30.0
 62
     5
 63
     7
 74
     1
 91
        4
 64
     7
 65
   257
 75
     1
175
     1
 42
1.0
 92
        0
 66
   257
 43
1.0
 76
     1
 77
     6
 78
     2
 67
     7
 79
     5
170
     0
171
     0
290
     0
174
     0
 93
       13
 44
0.0
173
     0
291
     1
 45
0.0
1001
ACAD
1000
AcDbSavedByObjectVersion
1070
     0
  0
VISUALSTYLE
  5
2D
102
{ACAD_REACTORS
330
2A
102
}
330
2A
100
AcDbVisualStyle
  2
Gouraud
 70
     2
 71
     2
 72
     2
 73
     1
 90
        2
 40
-0.6
 41
30.0
 62
     5
 63
     7
 74
     0
 91
        4
 64
     7
 65
   257
 75
     1
175
     1
 42
1.0
 92
        0
 66
     7
 43
1.0
 76
     1
 77
     6
 78
     2
 67
     7
 79
     5
170
     0
171
     0
290
     0
174
     0
 93
       13
 44
0.0
173
     0
291
     1
 45
0.0
1001
ACAD
1000
AcDbSavedByObjectVersion
1070
     0
  0
VISUALSTYLE
  5
2E
102
{ACAD_REACTORS
330
2A
102
}
330
2A
100
AcDbVisualStyle
  2
GouraudWithEdges
 70
     3
 71
     2
 72
     2
 73
     1
 90
        2
 40
-0.6
 41
30.0
 62
     5
 63
     7
 74
     1
 91
        4
 64
     7
 65
   257
 75
     1
175
     1
 42
1.0
 92
        0
 66
   257
 43
1.0
 76
     1
 77
     6
 78
     2
 67
     7
 79
     5
170
     0
171
     0
290
     0
174
     0
 93
       13
 44
0.0
173
     0
291
     1
 45
0.0
1001
ACAD
1000
AcDbSavedByObjectVersion
1070
     0
  0
VISUALSTYLE
  5
38
102
{ACAD_REACTORS
330
2A
102
}
330
2A
100
AcDbVisualStyle
  2
Linepattern
 70
    14
 71
     2
 72
     2
 73
     0
 90
        0
 40
-0.6
 41
-30.0
 62
     5
 63
     7
 74
     1
 91
        4
 64
     7
 65
   257
 75
     7
175
     7
 42
1.0
 92
        8
 66
     7
 43
1.0
 76
     1
 77
     6
 78
     2
 67
     7
 79
     5
170
     0
171
     0
290
     0
174
     0
 93
        1
 44
0.0
173
     0
291
     1
 45
0.0
1001
ACAD
1000
AcDbSavedByObjectVersion
1070
     0
  0
VISUALSTYLE
  5
33
102
{ACAD_REACTORS
330
2A
102
}
330
2A
100
AcDbVisualStyle
  2
Realistic
 70
     8
 71
     2
 72
     2
 73
     0
 90
        0
 40
-0.6
 41
-30.0
 62
     5
 63
     7
 74
     1
 91
        0
 64
     7
 65
   257
 75
     1
175
     1
 42
1.0
 92
        8
 66
     8
 43
1.0
 76
     1
 77
     6
 78
     2
 67
     7
 79
     5
170
     0
171
     0
290
     0
174
     0
 93
       13
 44
0.0
173
     0
291
     0
 45
0.0
1001
ACAD
1000
AcDbSavedByObjectVersion
1070
     0
  0
VISUALSTYLE
  5
37
102
{ACAD_REACTORS
330
2A
102
}
330
2A
100
AcDbVisualStyle
  2
Thicken
 70
    13
 71
     2
 72
     2
 73
     0
 90
        0
 40
-0.6
 41
-30.0
 62
     5
 63
     7
 74
     1
 91
        4
 64
     7
 65
   257
 75
     1
175
     1
 42
1.0
 92
       12
 66
     7
 43
1.0
 76
     1
 77
     6
 78
     2
 67
     7
 79
     5
170
     0
171
     0
290
     0
174
     0
 93
        1
 44
0.0
173
     0
291
     1
 45
0.0
1001
ACAD
1000
AcDbSavedByObjectVersion
1070
     0
  0
ENDSEC
  0
EOF
