  0
SECTION
  2
HEADER
  9
$ACADVER
  1
AC1009
  9
$INSBASE
 10
0.0
 20
0.0
 30
0.0
  9
$EXTMIN
 10
-0.0002424316653444
 20
-0.0000001439301407
 30
0.0
  9
$EXTMAX
 10
878.86436391919699
 20
935.67981656300492
 30
0.0
  9
$LIMMIN
 10
0.0
 20
0.0
  9
$LIMMAX
 10
12.0
 20
9.0
  9
$ORTHOMODE
 70
     0
  9
$REGENMODE
 70
     1
  9
$FILLMODE
 70
     1
  9
$QTEXTMODE
 70
     0
  9
$MIRRTEXT
 70
     0
  9
$DRAGMODE
 70
     2
  9
$LTSCALE
 40
1.0
  9
$OSMODE
 70
   167
  9
$ATTMODE
 70
     1
  9
$TEXTSIZE
 40
0.2
  9
$TRACEWID
 40
0.05
  9
$TEXTSTYLE
  7
STANDARD
  9
$CLAYER
  8
0
  9
$CELTYPE
  6
CONTINUOUS
  9
$CECOLOR
 62
   256
  9
$DIMSCALE
 40
1.0
  9
$DIMASZ
 40
0.18
  9
$DIMEXO
 40
0.0625
  9
$DIMDLI
 40
0.38
  9
$DIMRND
 40
0.0
  9
$DIMDLE
 40
0.0
  9
$DIMEXE
 40
0.18
  9
$DIMTP
 40
0.0
  9
$DIMTM
 40
0.0
  9
$DIMTXT
 40
0.18
  9
$DIMCEN
 40
0.09
  9
$DIMTSZ
 40
0.0
  9
$DIMTOL
 70
     0
  9
$DIMLIM
 70
     0
  9
$DIMTIH
 70
     1
  9
$DIMTOH
 70
     1
  9
$DIMSE1
 70
     0
  9
$DIMSE2
 70
     0
  9
$DIMTAD
 70
     0
  9
$DIMZIN
 70
     0
  9
$DIMBLK
  1

  9
$DIMASO
 70
     1
  9
$DIMSHO
 70
     1
  9
$DIMPOST
  1

  9
$DIMAPOST
  1

  9
$DIMALT
 70
     0
  9
$DIMALTD
 70
     2
  9
$DIMALTF
 40
25.399999999999999
  9
$DIMLFAC
 40
1.0
  9
$DIMTOFL
 70
     0
  9
$DIMTVP
 40
0.0
  9
$DIMTIX
 70
     0
  9
$DIMSOXD
 70
     0
  9
$DIMSAH
 70
     0
  9
$DIMBLK1
  1

  9
$DIMBLK2
  1

  9
$DIMSTYLE
  2
STANDARD
  9
$DIMCLRD
 70
     0
  9
$DIMCLRE
 70
     0
  9
$DIMCLRT
 70
     0
  9
$DIMTFAC
 40
1.0
  9
$DIMGAP
 40
0.09
  9
$LUNITS
 70
     2
  9
$LUPREC
 70
     4
  9
$SKETCHINC
 40
0.1
  9
$FILLETRAD
 40
0.0
  9
$AUNITS
 70
     0
  9
$AUPREC
 70
     0
  9
$MENU
  1
.
  9
$ELEVATION
 40
0.0
  9
$PELEVATION
 40
0.0
  9
$THICKNESS
 40
0.0
  9
$LIMCHECK
 70
     0
  9
$BLIPMODE
 70
     0
  9
$CHAMFERA
 40
0.0
  9
$CHAMFERB
 40
0.0
  9
$SKPOLY
 70
     0
  9
$TDCREATE
 40
2455318.727318611
  9
$TDUPDATE
 40
2455318.7275350811
  9
$TDINDWG
 40
0.0002171991
  9
$TDUSRTIMER
 40
0.0002171991
  9
$USRTIMER
 70
     1
  9
$ANGBASE
 50
0.0
  9
$ANGDIR
 70
     0
  9
$PDMODE
 70
     0
  9
$PDSIZE
 40
0.0
  9
$PLINEWID
 40
0.0
  9
$COORDS
 70
     1
  9
$SPLFRAME
 70
     0
  9
$SPLINETYPE
 70
     6
  9
$SPLINESEGS
 70
     8
  9
$ATTDIA
 70
     0
  9
$ATTREQ
 70
     1
  9
$HANDLING
 70
     1
  9
$HANDSEED
  5
CC5
  9
$SURFTAB1
 70
     6
  9
$SURFTAB2
 70
     6
  9
$SURFTYPE
 70
     6
  9
$SURFU
 70
     6
  9
$SURFV
 70
     6
  9
$UCSNAME
  2

  9
$UCSORG
 10
0.0
 20
0.0
 30
0.0
  9
$UCSXDIR
 10
1.0
 20
0.0
 30
0.0
  9
$UCSYDIR
 10
0.0
 20
1.0
 30
0.0
  9
$PUCSNAME
  2

  9
$PUCSORG
 10
0.0
 20
0.0
 30
0.0
  9
$PUCSXDIR
 10
1.0
 20
0.0
 30
0.0
  9
$PUCSYDIR
 10
0.0
 20
1.0
 30
0.0
  9
$USERI1
 70
     0
  9
$USERI2
 70
     0
  9
$USERI3
 70
     0
  9
$USERI4
 70
     0
  9
$USERI5
 70
     0
  9
$USERR1
 40
0.0
  9
$USERR2
 40
0.0
  9
$USERR3
 40
0.0
  9
$USERR4
 40
0.0
  9
$USERR5
 40
0.0
  9
$WORLDVIEW
 70
     1
  9
$SHADEDGE
 70
     3
  9
$SHADEDIF
 70
    70
  9
$TILEMODE
 70
     1
  9
$MAXACTVP
 70
    64
  9
$PLIMCHECK
 70
     0
  9
$PEXTMIN
 10
1.0000000000000000E+020
 20
1.0000000000000000E+020
 30
1.0000000000000000E+020
  9
$PEXTMAX
 10
-1.0000000000000000E+020
 20
-1.0000000000000000E+020
 30
-1.0000000000000000E+020
  9
$PLIMMIN
 10
0.0
 20
0.0
  9
$PLIMMAX
 10
12.0
 20
9.0
  9
$UNITMODE
 70
     0
  9
$VISRETAIN
 70
     1
  9
$PLINEGEN
 70
     0
  9
$PSLTSCALE
 70
     1
  0
ENDSEC
  0
SECTION
  2
TABLES
  0
TABLE
  2
VPORT
 70
     1
  0
VPORT
  2
*ACTIVE
 70
     0
 10
0.0
 20
0.0
 11
1.0
 21
1.0
 12
7.8038793103448274
 22
4.5
 13
0.0
 23
0.0
 14
1.0
 24
1.0
 15
0.0
 25
0.0
 16
0.0
 26
0.0
 36
1.0
 17
0.0
 27
0.0
 37
0.0
 40
9.0
 41
1.7341954022988499
 42
50.0
 43
0.0
 44
0.0
 50
0.0
 51
0.0
 71
     0
 72
   100
 73
     1
 74
     1
 75
     0
 76
     0
 77
     0
 78
     0
  0
ENDTAB
  0
TABLE
  2
LTYPE
 70
     1
  0
LTYPE
  2
CONTINUOUS
 70
     0
  3
Solid line
 72
    65
 73
     0
 40
0.0
  0
ENDTAB
  0
TABLE
  2
LAYER
 70
     2
  0
LAYER
  2
0
 70
     0
 62
     1
  6
CONTINUOUS
  0
LAYER
  2
OBJ02
 70
     0
 62
     1
  6
CONTINUOUS
  0
ENDTAB
  0
TABLE
  2
STYLE
 70
     2
  0
STYLE
  2
STANDARD
 70
     0
 40
0.0
 41
1.0
 50
0.0
 71
     0
 42
0.2
  3
txt
  4

  0
STYLE
  2
ANNOTATIVE
 70
     0
 40
0.0
 41
1.0
 50
0.0
 71
     0
 42
0.2
  3
txt
  4

  0
ENDTAB
  0
TABLE
  2
VIEW
 70
     0
  0
ENDTAB
  0
TABLE
  2
UCS
 70
     0
  0
ENDTAB
  0
TABLE
  2
APPID
 70
     3
  0
APPID
  2
ACAD
 70
     0
  0
APPID
  2
ACADANNOTATIVE
 70
     0
  0
APPID
  2
ACAD_MLEADERVER
 70
     0
  0
ENDTAB
  0
TABLE
  2
DIMSTYLE
 70
     2
  0
DIMSTYLE
  2
STANDARD
 70
     0
  3

  4

  5

  6

  7

 40
1.0
 41
0.18
 42
0.0625
 43
0.38
 44
0.18
 45
0.0
 46
0.0
 47
0.0
 48
0.0
140
0.18
141
0.09
142
0.0
143
25.399999999999999
144
1.0
145
0.0
146
1.0
147
0.09
 71
     0
 72
     0
 73
     1
 74
     1
 75
     0
 76
     0
 77
     0
 78
     0
170
     0
171
     2
172
     0
173
     0
174
     0
175
     0
176
     0
177
     0
178
     0
  0
DIMSTYLE
  2
ANNOTATIVE
 70
     0
  3

  4

  5

  6

  7

 40
1.0
 41
0.18
 42
0.0625
 43
0.38
 44
0.18
 45
0.0
 46
0.0
 47
0.0
 48
0.0
140
0.18
141
0.09
142
0.0
143
25.399999999999999
144
1.0
145
0.0
146
1.0
147
0.09
 71
     0
 72
     0
 73
     1
 74
     1
 75
     0
 76
     0
 77
     0
 78
     0
170
     0
171
     2
172
     0
173
     0
174
     0
175
     0
176
     0
177
     0
178
     0
  0
ENDTAB
  0
ENDSEC
  0
SECTION
  2
BLOCKS
  0
BLOCK
  8
0
  2
$MODEL_SPACE
 70
     0
 10
0.0
 20
0.0
 30
0.0
  3
$MODEL_SPACE
  1

  0
ENDBLK
  5
76
  8
0
  0
BLOCK
 67
     1
  8
0
  2
$PAPER_SPACE
 70
     0
 10
0.0
 20
0.0
 30
0.0
  3
$PAPER_SPACE
  1

  0
ENDBLK
  5
72
 67
     1
  8
0
  0
ENDSEC
  0
SECTION
  2
ENTITIES
  0
POLYLINE
  5
7B
  8
0
 66
     1
 10
0.0
 20
0.0
 30
0.0
  0
VERTEX
  5
6D5
  8
0
 10
349.00274818000003
 20
36.412054765000001
 30
0.0
  0
VERTEX
  5
6D6
  8
0
 10
343.34932072999999
 20
34.257696854999999
 30
0.0
  0
SEQEND
  5
6D7
  8
0
  0
POLYLINE
  5
7F
  8
0
 66
     1
 10
0.0
 20
0.0
 30
0.0
  0
VERTEX
  5
6D8
  8
0
 10
324.22800534499999
 20
34.257696854999999
 30
0.0
  0
VERTEX
  5
6D9
  8
0
 10
318.57457789
 20
36.412054765000001
 30
0.0
  0
SEQEND
  5
6DA
  8
0
  0
POLYLINE
  5
83
  8
OBJ02
 66
     1
 10
0.0
 20
0.0
 30
0.0
  0
VERTEX
  5
6DB
  8
OBJ02
 10
5.9021272199999988
 20
7.2632546500000004
 30
0.0
  0
VERTEX
  5
6DC
  8
OBJ02
 10
18.171160064999999
 20
11.930788965
 30
0.0
  0
VERTEX
  5
6DD
  8
OBJ02
 10
17.09555881
 20
14.758103405
 30
0.0
  0
VERTEX
  5
6DE
  8
OBJ02
 10
4.8265259599999988
 20
10.090569090000001
 30
0.0
  0
SEQEND
  5
6DF
  8
OBJ02
  0
POLYLINE
  5
89
  8
OBJ02
 66
     1
 10
0.0
 20
0.0
 30
0.0
  0
VERTEX
  5
6E0
  8
OBJ02
 10
93.352724120000005
 20
34.777020655000001
 30
0.0
  0
VERTEX
  5
6E1
  8
OBJ02
 10
88.102808420000002
 20
21.000285904999998
 30
0.0
  0
VERTEX
  5
6E2
  8
OBJ02
 10
90.371063809999995
 20
20.315196690000001
 30
0.0
  0
SEQEND
  5
6E3
  8
OBJ02
  0
POLYLINE
  5
8E
  8
OBJ02
 66
     1
 10
0.0
 20
0.0
 30
0.0
  0
VERTEX
  5
6E4
  8
OBJ02
 10
56.670661785
 20
297.36044903499999
 30
0.0
  0
VERTEX
  5
6E5
  8
OBJ02
 10
57.981440374999998
 20
300.086707365
 30
0.0
  0
SEQEND
  5
6E6
  8
OBJ02
  0
POLYLINE
  5
92
  8
OBJ02
 66
     1
 10
0.0
 20
0.0
 30
0.0
  0
VERTEX
  5
6E7
  8
OBJ02
 10
376.85809950499998
 20
302.005505255
 30
0.0
  0
VERTEX
  5
6E8
  8
OBJ02
 10
369.89272563999998
 20
294.940763715
 30
0.0
  0
SEQEND
  5
6E9
  8
OBJ02
  0
POLYLINE
  5
96
  8
OBJ02
 66
     1
 10
0.0
 20
0.0
 30
0.0
  0
VERTEX
  5
6EA
  8
OBJ02
 10
385.67554182499998
 20
338.43679832499998
 30
0.0
  0
VERTEX
  5
6EB
  8
OBJ02
 10
381.04692177999999
 20
347.20899245999999
 30
0.0
  0
SEQEND
  5
6EC
  8
OBJ02
  0
POLYLINE
  5
9A
  8
OBJ02
 66
     1
 10
0.0
 20
0.0
 30
0.0
  0
VERTEX
  5
6ED
  8
OBJ02
 10
412.68477337500002
 20
297.53945224500001
 30
0.0
  0
VERTEX
  5
6EE
  8
OBJ02
 10
417.70259350999987
 20
288.98091923999999
 30
0.0
  0
SEQEND
  5
6EF
  8
OBJ02
  0
POLYLINE
  5
9E
  8
OBJ02
 66
     1
 10
0.0
 20
0.0
 30
0.0
  0
VERTEX
  5
6F0
  8
OBJ02
 10
415.32800538499993
 20
332.99522545000002
 30
0.0
  0
VERTEX
  5
6F1
  8
OBJ02
 10
421.96854365499991
 20
340.36263781000002
 30
0.0
  0
VERTEX
  5
6F2
  8
OBJ02
 10
415.32800538499993
 20
332.99522545000002
 30
0.0
  0
VERTEX
  5
6F3
  8
OBJ02
 10
413.08103756999992
 20
335.02050584
 30
0.0
  0
VERTEX
  5
6F4
  8
OBJ02
 10
419.72157584500002
 20
342.387918195
 30
0.0
  0
VERTEX
  5
6F5
  8
OBJ02
 10
413.08103756999992
 20
335.02050584
 30
0.0
  0
SEQEND
  5
6F6
  8
OBJ02
  0
POLYLINE
  5
A6
  8
OBJ02
 66
     1
 10
0.0
 20
0.0
 30
0.0
  0
VERTEX
  5
6F7
  8
OBJ02
 10
434.70223261000001
 20
10.648424240000001
 30
0.0
  0
VERTEX
  5
6F8
  8
OBJ02
 10
422.43319976499998
 20
15.315958555
 30
0.0
  0
VERTEX
  5
6F9
  8
OBJ02
 10
421.357598505
 20
12.48864412
 30
0.0
  0
VERTEX
  5
6FA
  8
OBJ02
 10
433.62663135499992
 20
7.821109804999999
 30
0.0
  0
SEQEND
  5
6FB
  8
OBJ02
  0
POLYLINE
  5
AC
  8
OBJ02
 66
     1
 10
0.0
 20
0.0
 30
0.0
 70
     1
  0
VERTEX
  5
6FC
  8
OBJ02
 10
283.59594551499998
 20
418.17794017
 30
0.0
 42
0.04694483
  0
VERTEX
  5
6FD
  8
OBJ02
 10
294.13298305500001
 20
412.39470640500002
 30
0.0
 42
0.25452743
  0
VERTEX
  5
6FE
  8
OBJ02
 10
307.84973493000001
 20
415.5791163099999
 30
0.0
  0
VERTEX
  5
6FF
  8
OBJ02
 10
347.26424521500002
 20
450.61014814999999
 30
0.0
 42
-0.31503627
  0
VERTEX
  5
700
  8
OBJ02
 10
350.07886962499998
 20
451.14282394499992
 30
0.0
 42
-0.31503627
  0
VERTEX
  5
701
  8
OBJ02
 10
351.54443104500001
 20
448.68152676499989
 30
0.0
 42
-0.03115372
  0
VERTEX
  5
702
  8
OBJ02
 10
351.04106552500002
 20
433.1253961299999
 30
0.0
 42
0.05497412
  0
VERTEX
  5
703
  8
OBJ02
 10
351.68384684
 20
425.45486745499989
 30
0.0
 42
0.19035588
  0
VERTEX
  5
704
  8
OBJ02
 10
357.44846928499999
 20
417.5627185649999
 30
0.0
 42
0.02099438
  0
VERTEX
  5
705
  8
OBJ02
 10
363.21860784500001
 20
414.27685709500003
 30
0.0
 42
-0.19704981
  0
VERTEX
  5
706
  8
OBJ02
 10
364.68042522000002
 20
412.56796183
 30
0.0
 42
-0.03409156
  0
VERTEX
  5
707
  8
OBJ02
 10
365.89516470500001
 20
407.68835391499988
 30
0.0
 42
0.23494469
  0
VERTEX
  5
708
  8
OBJ02
 10
369.82023276500001
 20
403.48441277000001
 30
0.0
 42
0.27712007
  0
VERTEX
  5
709
  8
OBJ02
 10
378.46792053000001
 20
405.29124247999988
 30
0.0
 42
0.04199174
  0
VERTEX
  5
70A
  8
OBJ02
 10
383.45346910500001
 20
414.11298730999988
 30
0.0
  0
VERTEX
  5
70B
  8
OBJ02
 10
371.01721867999998
 20
419.59222907499992
 30
0.0
  0
VERTEX
  5
70C
  8
OBJ02
 10
372.23686264499997
 20
422.36045840499992
 30
0.0
  0
VERTEX
  5
70D
  8
OBJ02
 10
384.67311307
 20
416.88121663499987
 30
0.0
 42
0.08258063
  0
VERTEX
  5
70E
  8
OBJ02
 10
386.20945387
 20
422.76445834499998
 30
0.0
 42
0.34050708
  0
VERTEX
  5
70F
  8
OBJ02
 10
384.31498787499999
 20
425.747993925
 30
0.0
 42
-0.03645657
  0
VERTEX
  5
710
  8
OBJ02
 10
366.76202689000002
 20
434.73593496000001
 30
0.0
 42
-0.20072046
  0
VERTEX
  5
711
  8
OBJ02
 10
361.53918861
 20
442.76336472999992
 30
0.0
 42
-0.01365913
  0
VERTEX
  5
712
  8
OBJ02
 10
358.71171343999998
 20
461.06020234499999
 30
0.0
 42
0.26743495
  0
VERTEX
  5
713
  8
OBJ02
 10
355.59550453499998
 20
465.17093909499988
 30
0.0
 42
0.26743495
  0
VERTEX
  5
714
  8
OBJ02
 10
350.47617220000001
 20
464.53741640499987
 30
0.0
 42
0.03094295
  0
VERTEX
  5
715
  8
OBJ02
 10
345.53932627
 20
460.31435645499988
 30
0.0
  0
VERTEX
  5
716
  8
OBJ02
 10
304.90097889499998
 20
420.94832309499998
 30
0.0
 42
-0.29753822
  0
VERTEX
  5
717
  8
OBJ02
 10
293.57023462500001
 20
418.81849098999999
 30
0.0
 42
0.03487403
  0
VERTEX
  5
718
  8
OBJ02
 10
284.92727939500003
 20
421.61863770500003
 30
0.0
 42
0.31109865
  0
VERTEX
  5
719
  8
OBJ02
 10
283.07652003999999
 20
420.35684528499991
 30
0.0
 42
0.31109865
  0
VERTEX
  5
71A
  8
OBJ02
 10
283.59594551499998
 20
418.17794017
 30
0.0
  0
SEQEND
  5
71B
  8
OBJ02
  0
POLYLINE
  5
CD
  8
OBJ02
 66
     1
 10
0.0
 20
0.0
 30
0.0
 70
     1
  0
VERTEX
  5
71C
  8
OBJ02
 10
188.91556020499999
 20
416.23613024499991
 30
0.0
 42
-0.08258063
  0
VERTEX
  5
71D
  8
OBJ02
 10
186.795032225
 20
421.93492285000002
 30
0.0
 42
-0.34050708
  0
VERTEX
  5
71E
  8
OBJ02
 10
188.37967343
 20
425.09394140000001
 30
0.0
 42
0.03645657
  0
VERTEX
  5
71F
  8
OBJ02
 10
204.939161915
 20
435.80248306499988
 30
0.0
 42
0.20072046
  0
VERTEX
  5
720
  8
OBJ02
 10
209.32775537000001
 20
444.31470462499999
 30
0.0
 42
0.01365913
  0
VERTEX
  5
721
  8
OBJ02
 10
210.29981276500001
 20
462.80318717500001
 30
0.0
 42
-0.26743495
  0
VERTEX
  5
722
  8
OBJ02
 10
212.98657475499999
 20
467.206620445
 30
0.0
 42
-0.26743495
  0
VERTEX
  5
723
  8
OBJ02
 10
218.14367142
 20
467.09143139999998
 30
0.0
 42
-0.03094295
  0
VERTEX
  5
724
  8
OBJ02
 10
223.48039488500001
 20
463.38656085500003
 30
0.0
  0
VERTEX
  5
725
  8
OBJ02
 10
267.87358659
 20
428.30944025000002
 30
0.0
 42
0.29753822
  0
VERTEX
  5
726
  8
OBJ02
 10
279.36113238000002
 20
427.330541745
 30
0.0
 42
-0.03487403
  0
VERTEX
  5
727
  8
OBJ02
 10
287.678465265
 20
430.98614981499998
 30
0.0
 42
-0.31109865
  0
VERTEX
  5
728
  8
OBJ02
 10
289.64679576999998
 20
429.91698877999988
 30
0.0
 42
-0.31109865
  0
VERTEX
  5
729
  8
OBJ02
 10
289.34925269500002
 20
427.69687652499999
 30
0.0
 42
-0.04694483
  0
VERTEX
  5
72A
  8
OBJ02
 10
279.44761520999998
 20
420.88273475999989
 30
0.0
 42
-0.25452743
  0
VERTEX
  5
72B
  8
OBJ02
 10
265.48005759
 20
422.67077350999989
 30
0.0
  0
VERTEX
  5
72C
  8
OBJ02
 10
222.74068890999999
 20
453.55803913499989
 30
0.0
 42
0.31503627
  0
VERTEX
  5
72D
  8
OBJ02
 10
219.88675054000001
 20
453.80479782999993
 30
0.0
 42
0.31503627
  0
VERTEX
  5
72E
  8
OBJ02
 10
218.67628833000001
 20
451.20852447499988
 30
0.0
 42
0.03115372
  0
VERTEX
  5
72F
  8
OBJ02
 10
220.742390755
 20
435.78199544500001
 30
0.0
 42
-0.05497412
  0
VERTEX
  5
730
  8
OBJ02
 10
220.87469698999999
 20
428.08571887499988
 30
0.0
 42
-0.19035588
  0
VERTEX
  5
731
  8
OBJ02
 10
215.93345682
 20
419.6535761049999
 30
0.0
 42
-0.02099438
  0
VERTEX
  5
732
  8
OBJ02
 10
210.52323390500001
 20
415.80378746999992
 30
0.0
 42
0.19704981
  0
VERTEX
  5
733
  8
OBJ02
 10
209.24078842500001
 20
413.95647409999998
 30
0.0
 42
0.03409156
  0
VERTEX
  5
734
  8
OBJ02
 10
208.52321083499999
 20
408.97940189000002
 30
0.0
 42
-0.23494469
  0
VERTEX
  5
735
  8
OBJ02
 10
205.04107332000001
 20
404.40184809499999
 30
0.0
 42
-0.27712007
  0
VERTEX
  5
736
  8
OBJ02
 10
196.25546795
 20
405.32935850500002
 30
0.0
 42
-0.04199174
  0
VERTEX
  5
737
  8
OBJ02
 10
190.40755935999999
 20
413.60467370499998
 30
0.0
  0
VERTEX
  5
738
  8
OBJ02
 10
202.22935901
 20
420.30746924499999
 30
0.0
  0
VERTEX
  5
739
  8
OBJ02
 10
200.73735984999999
 20
422.93892577999992
 30
0.0
  0
VERTEX
  5
73A
  8
OBJ02
 10
188.91556020499999
 20
416.23613024499991
 30
0.0
  0
SEQEND
  5
73B
  8
OBJ02
  0
POLYLINE
  5
EE
  8
OBJ02
 66
     1
 10
0.0
 20
0.0
 30
0.0
 70
     1
  0
VERTEX
  5
73C
  8
OBJ02
 10
115.95959926499999
 20
397.50225530500001
 30
0.0
 42
-0.08258063
  0
VERTEX
  5
73D
  8
OBJ02
 10
115.386251305
 20
403.55569632499999
 30
0.0
 42
-0.34050708
  0
VERTEX
  5
73E
  8
OBJ02
 10
117.73449768499999
 20
406.19695073999992
 30
0.0
 42
0.03645657
  0
VERTEX
  5
73F
  8
OBJ02
 10
136.50127850499999
 20
412.25479367999998
 30
0.0
 42
0.20072046
  0
VERTEX
  5
740
  8
OBJ02
 10
142.94342270000001
 20
419.3411500499999
 30
0.0
 42
0.01365913
  0
VERTEX
  5
741
  8
OBJ02
 10
148.66743844999999
 20
436.94809544499998
 30
0.0
 42
-0.26743495
  0
VERTEX
  5
742
  8
OBJ02
 10
152.40232524999999
 20
440.50611949500001
 30
0.0
 42
-0.26743495
  0
VERTEX
  5
743
  8
OBJ02
 10
157.353892465
 20
439.06012617499988
 30
0.0
 42
-0.03094295
  0
VERTEX
  5
744
  8
OBJ02
 10
161.54990606000001
 20
434.10027204999989
 30
0.0
  0
VERTEX
  5
745
  8
OBJ02
 10
195.35204404999999
 20
388.72874653999997
 30
0.0
 42
0.29753822
  0
VERTEX
  5
746
  8
OBJ02
 10
206.19482388500001
 20
384.81006359000003
 30
0.0
 42
-0.03487403
  0
VERTEX
  5
747
  8
OBJ02
 10
215.17488439499999
 20
386.18847209500001
 30
0.0
 42
-0.31109865
  0
VERTEX
  5
748
  8
OBJ02
 10
216.79943439499999
 20
384.64630880999999
 30
0.0
 42
-0.31109865
  0
VERTEX
  5
749
  8
OBJ02
 10
215.93743320499999
 20
382.57885040500003
 30
0.0
 42
-0.04694483
  0
VERTEX
  5
74A
  8
OBJ02
 10
204.60957694000001
 20
378.559568705
 30
0.0
 42
-0.25452743
  0
VERTEX
  5
74B
  8
OBJ02
 10
191.58070318
 20
383.90168411000002
 30
0.0
  0
VERTEX
  5
74C
  8
OBJ02
 10
158.29164442499999
 20
424.79808223999993
 30
0.0
 42
0.31503627
  0
VERTEX
  5
74D
  8
OBJ02
 10
155.59881244499999
 20
425.77507252499998
 30
0.0
 42
0.31503627
  0
VERTEX
  5
74E
  8
OBJ02
 10
153.7576420849999
 20
423.58054620000001
 30
0.0
 42
0.03115372
  0
VERTEX
  5
74F
  8
OBJ02
 10
151.76074403499999
 20
408.14490641999998
 30
0.0
 42
-0.05497412
  0
VERTEX
  5
750
  8
OBJ02
 10
149.89663768
 20
400.67662110999993
 30
0.0
 42
-0.19035588
  0
VERTEX
  5
751
  8
OBJ02
 10
142.94140253500001
 20
393.81064775499999
 30
0.0
 42
-0.02099438
  0
VERTEX
  5
752
  8
OBJ02
 10
136.719141855
 20
391.492274055
 30
0.0
 42
0.19704981
  0
VERTEX
  5
753
  8
OBJ02
 10
135.00228226999999
 20
390.03981880999999
 30
0.0
 42
0.03409156
  0
VERTEX
  5
754
  8
OBJ02
 10
133.02101834999999
 20
385.41804873000001
 30
0.0
 42
-0.23494469
  0
VERTEX
  5
755
  8
OBJ02
 10
128.47279187999999
 20
381.89769130000002
 30
0.0
 42
-0.27712007
  0
VERTEX
  5
756
  8
OBJ02
 10
120.226589735
 20
385.06743693999999
 30
0.0
 42
-0.04199174
  0
VERTEX
  5
757
  8
OBJ02
 10
116.71970385
 20
394.574309605
 30
0.0
  0
VERTEX
  5
758
  8
OBJ02
 10
129.87347893500001
 20
397.98907400000002
 30
0.0
  0
VERTEX
  5
759
  8
OBJ02
 10
129.11337435499999
 20
400.91701970000003
 30
0.0
  0
VERTEX
  5
75A
  8
OBJ02
 10
115.95959926499999
 20
397.50225530500001
 30
0.0
  0
SEQEND
  5
75B
  8
OBJ02
  0
POLYLINE
  5
10F
  8
OBJ02
 66
     1
 10
0.0
 20
0.0
 30
0.0
 70
     1
  0
VERTEX
  5
75C
  8
OBJ02
 10
6.3593169600000001
 20
392.44860454000002
 30
0.0
 42
0.04694483
  0
VERTEX
  5
75D
  8
OBJ02
 10
16.584500125000002
 20
386.13033087000002
 30
0.0
 42
0.25452743
  0
VERTEX
  5
75E
  8
OBJ02
 10
30.447060660000002
 20
388.604025245
 30
0.0
  0
VERTEX
  5
75F
  8
OBJ02
 10
71.613549044999999
 20
421.55849454499992
 30
0.0
 42
-0.31503627
  0
VERTEX
  5
760
  8
OBJ02
 10
74.451873390000003
 20
421.94549453499991
 30
0.0
 42
-0.31503627
  0
VERTEX
  5
761
  8
OBJ02
 10
75.788719110000002
 20
419.41197966499988
 30
0.0
 42
-0.03115372
  0
VERTEX
  5
762
  8
OBJ02
 10
74.484794594999997
 20
403.90242267500003
 30
0.0
 42
0.05497412
  0
VERTEX
  5
763
  8
OBJ02
 10
74.731647929999994
 20
396.20896822499998
 30
0.0
 42
0.19035588
  0
VERTEX
  5
764
  8
OBJ02
 10
80.082129554999995
 20
388.03038445499999
 30
0.0
 42
0.02099438
  0
VERTEX
  5
765
  8
OBJ02
 10
85.675369340000003
 20
384.45169010500001
 30
0.0
 42
-0.19704981
  0
VERTEX
  5
766
  8
OBJ02
 10
87.047228864999994
 20
382.669771325
 30
0.0
 42
-0.03409156
  0
VERTEX
  5
767
  8
OBJ02
 10
88.009029129999988
 20
377.73407424999999
 30
0.0
 42
0.23494469
  0
VERTEX
  5
768
  8
OBJ02
 10
91.712361165000004
 20
373.33355016000002
 30
0.0
 42
0.27712007
  0
VERTEX
  5
769
  8
OBJ02
 10
100.44163269000001
 20
374.69257773999999
 30
0.0
 42
0.04199174
  0
VERTEX
  5
76A
  8
OBJ02
 10
105.874932835
 20
383.24583010499998
 30
0.0
  0
VERTEX
  5
76B
  8
OBJ02
 10
93.737400320000006
 20
389.358335275
 30
0.0
  0
VERTEX
  5
76C
  8
OBJ02
 10
95.098004639999985
 20
392.06007191499998
 30
0.0
  0
VERTEX
  5
76D
  8
OBJ02
 10
107.235537155
 20
385.94756675000002
 30
0.0
 42
0.08258063
  0
VERTEX
  5
76E
  8
OBJ02
 10
109.0728584
 20
391.74386959499998
 30
0.0
 42
0.34050708
  0
VERTEX
  5
76F
  8
OBJ02
 10
107.33457556499999
 20
394.821020675
 30
0.0
 42
-0.03645657
  0
VERTEX
  5
770
  8
OBJ02
 10
90.267841344999994
 20
404.7011070449999
 30
0.0
 42
-0.20072046
  0
VERTEX
  5
771
  8
OBJ02
 10
85.465392504999997
 20
412.98688724499999
 30
0.0
 42
-0.01365913
  0
VERTEX
  5
772
  8
OBJ02
 10
83.584058959999979
 20
431.40507028500002
 30
0.0
 42
0.26743495
  0
VERTEX
  5
773
  8
OBJ02
 10
80.683711939999995
 20
435.67085294999993
 30
0.0
 42
0.26743495
  0
VERTEX
  5
774
  8
OBJ02
 10
75.538544514999998
 20
435.30184516999992
 30
0.0
 42
0.03094295
  0
VERTEX
  5
775
  8
OBJ02
 10
70.390740184999999
 20
431.338665435
 30
0.0
  0
VERTEX
  5
776
  8
OBJ02
 10
27.778762449999999
 20
394.11798283500002
 30
0.0
 42
-0.29753822
  0
VERTEX
  5
777
  8
OBJ02
 10
16.3533592
 20
392.57457388500001
 30
0.0
 42
0.03487403
  0
VERTEX
  5
778
  8
OBJ02
 10
7.8660987999999987
 20
395.81616417499998
 30
0.0
 42
0.31109865
  0
VERTEX
  5
779
  8
OBJ02
 10
5.9528066300000004
 20
394.65137090000002
 30
0.0
 42
0.31109865
  0
VERTEX
  5
77A
  8
OBJ02
 10
6.3593169600000001
 20
392.44860454000002
 30
0.0
  0
SEQEND
  5
77B
  8
OBJ02
  0
POLYLINE
  5
130
  8
OBJ02
 66
     1
 10
0.0
 20
0.0
 30
0.0
 70
     1
  0
VERTEX
  5
77C
  8
OBJ02
 10
30.514127850000001
 20
350.41685601500001
 30
0.0
 42
0.08981009
  0
VERTEX
  5
77D
  8
OBJ02
 10
34.944676149999999
 20
348.30495479500001
 30
0.0
  0
VERTEX
  5
77E
  8
OBJ02
 10
41.164683850000003
 20
361.89777727500001
 30
0.0
  0
VERTEX
  5
77F
  8
OBJ02
 10
43.91537366499999
 20
360.63907534999998
 30
0.0
  0
VERTEX
  5
780
  8
OBJ02
 10
37.695365965000001
 20
347.04625286999999
 30
0.0
 42
0.19172222
  0
VERTEX
  5
781
  8
OBJ02
 10
50.858916575000002
 20
343.91688780499999
 30
0.0
 42
0.0623962
  0
VERTEX
  5
782
  8
OBJ02
 10
67.057741359999994
 20
348.32305608500002
 30
0.0
 42
0.13660035
  0
VERTEX
  5
783
  8
OBJ02
 10
76.761275920000003
 20
356.05242494999999
 30
0.0
 42
-0.20140378
  0
VERTEX
  5
784
  8
OBJ02
 10
82.205259424999994
 20
356.85139555000001
 30
0.0
 42
0.04891133
  0
VERTEX
  5
785
  8
OBJ02
 10
117.76056732000001
 20
353.29343271499999
 30
0.0
 42
0.0583387
  0
VERTEX
  5
786
  8
OBJ02
 10
169.14293555
 20
357.37924600500003
 30
0.0
 42
0.05138425
  0
VERTEX
  5
787
  8
OBJ02
 10
215.97656823
 20
370.50928054000002
 30
0.0
 42
0.01007432
  0
VERTEX
  5
788
  8
OBJ02
 10
237.795168545
 20
380.07393496999998
 30
0.0
 42
0.36959693
  0
VERTEX
  5
789
  8
OBJ02
 10
238.76767061499999
 20
383.11530181500001
 30
0.0
 42
0.36959693
  0
VERTEX
  5
78A
  8
OBJ02
 10
235.91246391499999
 20
384.54480075999999
 30
0.0
 42
-0.02982448
  0
VERTEX
  5
78B
  8
OBJ02
 10
212.97012376999999
 20
375.52629637000001
 30
0.0
 42
-0.04823653
  0
VERTEX
  5
78C
  8
OBJ02
 10
163.01098112
 20
364.08223687999998
 30
0.0
 42
-0.05102716
  0
VERTEX
  5
78D
  8
OBJ02
 10
113.457261055
 20
362.38662763999997
 30
0.0
 42
-0.04755514
  0
VERTEX
  5
78E
  8
OBJ02
 10
82.412763929999997
 20
366.307564695
 30
0.0
 42
-0.24747671
  0
VERTEX
  5
78F
  8
OBJ02
 10
79.342975874999993
 20
369.02332316000002
 30
0.0
 42
0.14485042
  0
VERTEX
  5
790
  8
OBJ02
 10
70.655845319999983
 20
382.35761944000001
 30
0.0
 42
0.28264804
  0
VERTEX
  5
791
  8
OBJ02
 10
51.06122165
 20
383.65816417500008
 30
0.0
 42
-0.11575824
  0
VERTEX
  5
792
  8
OBJ02
 10
43.543904144999999
 20
380.42316556999998
 30
0.0
 42
-0.04120714
  0
VERTEX
  5
793
  8
OBJ02
 10
39.183220050000003
 20
380.59722862000001
 30
0.0
 42
0.38897541
  0
VERTEX
  5
794
  8
OBJ02
 10
28.301672499999999
 20
372.384506595
 30
0.0
 42
0.01920955
  0
VERTEX
  5
795
  8
OBJ02
 10
26.249233740000001
 20
357.99047494000001
 30
0.0
 42
0.30031206
  0
VERTEX
  5
796
  8
OBJ02
 10
30.514127850000001
 20
350.41685601500001
 30
0.0
  0
SEQEND
  5
797
  8
OBJ02
  0
POLYLINE
  5
14D
  8
OBJ02
 66
     1
 10
0.0
 20
0.0
 30
0.0
 70
     1
  0
VERTEX
  5
798
  8
OBJ02
 10
74.994060724999997
 20
318.98711690499999
 30
0.0
 42
-0.16198814
  0
VERTEX
  5
799
  8
OBJ02
 10
72.524233684999999
 20
334.81841566999998
 30
0.0
 42
-0.26778291
  0
VERTEX
  5
79A
  8
OBJ02
 10
76.456413530000006
 20
339.58553733999997
 30
0.0
 42
-0.26778291
  0
VERTEX
  5
79B
  8
OBJ02
 10
82.551584869999999
 20
338.56751293500002
 30
0.0
 42
0.22577075
  0
VERTEX
  5
79C
  8
OBJ02
 10
147.967206105
 20
322.23391442000002
 30
0.0
 42
-0.08947341
  0
VERTEX
  5
79D
  8
OBJ02
 10
183.37655154500001
 20
319.24068046999997
 30
0.0
 42
0.23794926
  0
VERTEX
  5
79E
  8
OBJ02
 10
188.07072266500001
 20
320.85240981999999
 30
0.0
 42
0.23794926
  0
VERTEX
  5
79F
  8
OBJ02
 10
189.56415692499999
 20
325.58554493999998
 30
0.0
  0
VERTEX
  5
7A0
  8
OBJ02
 10
189.15369575
 20
330.01640689999999
 30
0.0
  0
VERTEX
  5
7A1
  8
OBJ02
 10
207.06860184499999
 20
333.98412497999999
 30
0.0
  0
VERTEX
  5
7A2
  8
OBJ02
 10
206.36639249999999
 20
336.92690490500001
 30
0.0
  0
VERTEX
  5
7A3
  8
OBJ02
 10
188.51077025999999
 20
332.97231676500002
 30
0.0
 42
-0.4141408300000001
  0
VERTEX
  5
7A4
  8
OBJ02
 10
195.02285384999999
 20
343.16186068000002
 30
0.0
 42
-0.00172169
  0
VERTEX
  5
7A5
  8
OBJ02
 10
223.70470678500001
 20
349.827159155
 30
0.0
 42
-0.09858179
  0
VERTEX
  5
7A6
  8
OBJ02
 10
228.92960400999999
 20
350.31117726999997
 30
0.0
 42
-0.4085643000000001
  0
VERTEX
  5
7A7
  8
OBJ02
 10
236.956470835
 20
339.511432915
 30
0.0
 42
0.03050824
  0
VERTEX
  5
7A8
  8
OBJ02
 10
235.42694538000001
 20
334.35104588500002
 30
0.0
 42
0.27078218
  0
VERTEX
  5
7A9
  8
OBJ02
 10
239.10843764000001
 20
325.12863719500001
 30
0.0
 42
0.27078218
  0
VERTEX
  5
7AA
  8
OBJ02
 10
248.95050902
 20
323.80960793499997
 30
0.0
 42
0.05424965
  0
VERTEX
  5
7AB
  8
OBJ02
 10
253.64992187999999
 20
327.25622405500002
 30
0.0
  0
VERTEX
  5
7AC
  8
OBJ02
 10
269.78911758499999
 20
348.07372020499997
 30
0.0
 42
0.23780252
  0
VERTEX
  5
7AD
  8
OBJ02
 10
269.78857169499997
 20
361.624417155
 30
0.0
 42
0.21093114
  0
VERTEX
  5
7AE
  8
OBJ02
 10
256.28452392000003
 20
369.89533411999997
 30
0.0
 42
0.21093114
  0
VERTEX
  5
7AF
  8
OBJ02
 10
241.07434810999999
 20
365.48875659499998
 30
0.0
 42
0.04610812
  0
VERTEX
  5
7B0
  8
OBJ02
 10
234.48142081
 20
358.10263469500001
 30
0.0
 42
-0.25628611
  0
VERTEX
  5
7B1
  8
OBJ02
 10
232.117066045
 20
358.40985342499999
 30
0.0
 42
-0.25628611
  0
VERTEX
  5
7B2
  8
OBJ02
 10
231.10576261
 20
360.56897874999999
 30
0.0
 42
-0.07430331
  0
VERTEX
  5
7B3
  8
OBJ02
 10
235.77567019
 20
368.51110983000001
 30
0.0
 42
-0.28793383
  0
VERTEX
  5
7B4
  8
OBJ02
 10
264.10517520500002
 20
377.36857223999999
 30
0.0
 42
-0.28793383
  0
VERTEX
  5
7B5
  8
OBJ02
 10
284.390090445
 20
355.69975343499999
 30
0.0
 42
0.00874959
  0
VERTEX
  5
7B6
  8
OBJ02
 10
285.08618015000002
 20
345.47565708000002
 30
0.0
 42
0.20137717
  0
VERTEX
  5
7B7
  8
OBJ02
 10
295.90543859000002
 20
328.91218487999998
 30
0.0
 42
0.00122035
  0
VERTEX
  5
7B8
  8
OBJ02
 10
307.99575553
 20
323.00592984999997
 30
0.0
 42
-0.18931105
  0
VERTEX
  5
7B9
  8
OBJ02
 10
319.584382565
 20
306.26269098
 30
0.0
 42
-0.22784347
  0
VERTEX
  5
7BA
  8
OBJ02
 10
318.39575940999998
 20
304.74123476
 30
0.0
 42
-0.22784347
  0
VERTEX
  5
7BB
  8
OBJ02
 10
316.46517421999999
 20
304.718989045
 30
0.0
 42
0.21403965
  0
VERTEX
  5
7BC
  8
OBJ02
 10
307.64284449000002
 20
311.93097706999998
 30
0.0
 42
0.21403965
  0
VERTEX
  5
7BD
  8
OBJ02
 10
296.390002595
 20
310.136590705
 30
0.0
 42
0.01588275
  0
VERTEX
  5
7BE
  8
OBJ02
 10
288.26278127
 20
300.34987869499997
 30
0.0
 42
-0.15438769
  0
VERTEX
  5
7BF
  8
OBJ02
 10
279.96480767499997
 20
297.82465142000001
 30
0.0
  0
VERTEX
  5
7C0
  8
OBJ02
 10
264.09891059
 20
302.18106004999999
 30
0.0
  0
VERTEX
  5
7C1
  8
OBJ02
 10
268.93623989999998
 20
316.771025065
 30
0.0
  0
VERTEX
  5
7C2
  8
OBJ02
 10
266.06494203
 20
317.72300906999999
 30
0.0
  0
VERTEX
  5
7C3
  8
OBJ02
 10
261.27703621500001
 20
303.28211124500001
 30
0.0
  0
VERTEX
  5
7C4
  8
OBJ02
 10
246.19587963500001
 20
307.49433188500001
 30
0.0
 42
0.21232095
  0
VERTEX
  5
7C5
  8
OBJ02
 10
239.05697950000001
 20
306.44410624
 30
0.0
 42
0.21232095
  0
VERTEX
  5
7C6
  8
OBJ02
 10
235.055176625
 20
300.439737595
 30
0.0
 42
-0.04560898
  0
VERTEX
  5
7C7
  8
OBJ02
 10
233.75152342499999
 20
295.55101683999999
 30
0.0
 42
-0.31167602
  0
VERTEX
  5
7C8
  8
OBJ02
 10
225.97888725999999
 20
290.06317795500001
 30
0.0
 42
-0.05322185
  0
VERTEX
  5
7C9
  8
OBJ02
 10
219.52549453500001
 20
290.683566735
 30
0.0
  0
VERTEX
  5
7CA
  8
OBJ02
 10
224.55990320500001
 20
313.03288888499998
 30
0.0
  0
VERTEX
  5
7CB
  8
OBJ02
 10
221.61403372999999
 20
313.72066418999998
 30
0.0
  0
VERTEX
  5
7CC
  8
OBJ02
 10
216.57830035500001
 20
291.36546125500001
 30
0.0
  0
VERTEX
  5
7CD
  8
OBJ02
 10
207.8527354
 20
293.40287278
 30
0.0
 42
-0.23606174
  0
VERTEX
  5
7CE
  8
OBJ02
 10
204.31869846500001
 20
296.33765826500002
 30
0.0
 42
0.15981049
  0
VERTEX
  5
7CF
  8
OBJ02
 10
199.42056027500001
 20
303.16121277500002
 30
0.0
 42
0.15247188
  0
VERTEX
  5
7D0
  8
OBJ02
 10
196.11700361999999
 20
303.60800094000001
 30
0.0
 42
0.06892112
  0
VERTEX
  5
7D1
  8
OBJ02
 10
192.274469415
 20
301.74640198999998
 30
0.0
 42
-0.03170284
  0
VERTEX
  5
7D2
  8
OBJ02
 10
178.98672773999999
 20
293.48905488499997
 30
0.0
 42
-0.24500014
  0
VERTEX
  5
7D3
  8
OBJ02
 10
99.428925265000004
 20
290.88702360500002
 30
0.0
 42
-0.18264403
  0
VERTEX
  5
7D4
  8
OBJ02
 10
74.994060724999997
 20
318.98711690499999
 30
0.0
  0
SEQEND
  5
7D5
  8
OBJ02
  0
POLYLINE
  5
18C
  8
OBJ02
 66
     1
 10
0.0
 20
0.0
 30
0.0
 70
     1
  0
VERTEX
  5
7D6
  8
OBJ02
 10
119.51825511
 20
133.00644199999999
 30
0.0
 42
0.27840688
  0
VERTEX
  5
7D7
  8
OBJ02
 10
127.21413269
 20
132.4444689
 30
0.0
 42
0.27840688
  0
VERTEX
  5
7D8
  8
OBJ02
 10
131.29703874500001
 20
138.99215731999999
 30
0.0
 42
0.0881265
  0
VERTEX
  5
7D9
  8
OBJ02
 10
124.103502835
 20
165.98990035
 30
0.0
 42
0.08353683
  0
VERTEX
  5
7DA
  8
OBJ02
 10
100.36595893000001
 20
199.97171742500001
 30
0.0
 42
-0.04328025
  0
VERTEX
  5
7DB
  8
OBJ02
 10
74.250726505000003
 20
247.75546478499999
 30
0.0
 42
0.37638506
  0
VERTEX
  5
7DC
  8
OBJ02
 10
70.304362484999999
 20
248.84130228500001
 30
0.0
 42
0.37638506
  0
VERTEX
  5
7DD
  8
OBJ02
 10
68.712865385000001
 20
245.07036486000001
 30
0.0
 42
0.01981301
  0
VERTEX
  5
7DE
  8
OBJ02
 10
81.375746735000007
 20
201.72031498499999
 30
0.0
 42
0.02827123
  0
VERTEX
  5
7DF
  8
OBJ02
 10
95.868300395000006
 20
162.74060767
 30
0.0
 42
0.09359677
  0
VERTEX
  5
7E0
  8
OBJ02
 10
119.51825511
 20
133.00644199999999
 30
0.0
  0
SEQEND
  5
7E1
  8
OBJ02
  0
POLYLINE
  5
199
  8
OBJ02
 66
     1
 10
0.0
 20
0.0
 30
0.0
 70
     1
  0
VERTEX
  5
7E2
  8
OBJ02
 10
191.06918210000001
 20
6.0726555949999987
 30
0.0
 42
-0.10883797
  0
VERTEX
  5
7E3
  8
OBJ02
 10
151.838621125
 20
38.056010104999999
 30
0.0
 42
-0.07698286
  0
VERTEX
  5
7E4
  8
OBJ02
 10
112.109746735
 20
104.271489375
 30
0.0
 42
0.00497392
  0
VERTEX
  5
7E5
  8
OBJ02
 10
90.621032099999994
 20
153.99614425499999
 30
0.0
 42
0.00115477
  0
VERTEX
  5
7E6
  8
OBJ02
 10
73.130039420000003
 20
201.97116864500001
 30
0.0
 42
0.02011995
  0
VERTEX
  5
7E7
  8
OBJ02
 10
62.385682099999997
 20
238.95142473999999
 30
0.0
 42
0.18400538
  0
VERTEX
  5
7E8
  8
OBJ02
 10
53.555979790000002
 20
251.31442998
 30
0.0
 42
-0.13657666
  0
VERTEX
  5
7E9
  8
OBJ02
 10
44.395047955000003
 20
260.93948571499999
 30
0.0
 42
-0.2134865
  0
VERTEX
  5
7EA
  8
OBJ02
 10
45.440671770000002
 20
268.83857838500001
 30
0.0
  0
VERTEX
  5
7EB
  8
OBJ02
 10
58.016447005000003
 20
263.75698727999998
 30
0.0
  0
VERTEX
  5
7EC
  8
OBJ02
 10
59.149756209999993
 20
266.56166823500001
 30
0.0
  0
VERTEX
  5
7ED
  8
OBJ02
 10
46.573980970000001
 20
271.64325933999999
 30
0.0
 42
-0.21936467
  0
VERTEX
  5
7EE
  8
OBJ02
 10
51.891145514999998
 20
277.93113205999998
 30
0.0
 42
-0.19733273
  0
VERTEX
  5
7EF
  8
OBJ02
 10
58.137844295000001
 20
278.43136376500001
 30
0.0
 42
0.00199282
  0
VERTEX
  5
7F0
  8
OBJ02
 10
83.124934539999998
 20
270.18565645000001
 30
0.0
 42
0.09194265
  0
VERTEX
  5
7F1
  8
OBJ02
 10
120.35545405000001
 20
267.18721742499997
 30
0.0
 42
0.06318915
  0
VERTEX
  5
7F2
  8
OBJ02
 10
159.585572345
 20
274.43246132500002
 30
0.0
 42
-0.05014451
  0
VERTEX
  5
7F3
  8
OBJ02
 10
179.5741821
 20
281.17894912999998
 30
0.0
 42
-0.33229592
  0
VERTEX
  5
7F4
  8
OBJ02
 10
200.81410893
 20
267.68597352
 30
0.0
 42
-0.12184415
  0
VERTEX
  5
7F5
  8
OBJ02
 10
202.56270649000001
 20
254.19299791
 30
0.0
 42
-0.06756604
  0
VERTEX
  5
7F6
  8
OBJ02
 10
198.06504795500001
 20
241.44963206
 30
0.0
 42
0.1683313
  0
VERTEX
  5
7F7
  8
OBJ02
 10
198.314426005
 20
236.202363765
 30
0.0
 42
0.05460192
  0
VERTEX
  5
7F8
  8
OBJ02
 10
206.061377225
 20
224.95821742499999
 30
0.0
 42
-0.22632397
  0
VERTEX
  5
7F9
  8
OBJ02
 10
207.06036503000001
 20
215.96290035000001
 30
0.0
 42
-0.02008863
  0
VERTEX
  5
7FA
  8
OBJ02
 10
202.56270649000001
 20
205.96859547
 30
0.0
 42
0.18539953
  0
VERTEX
  5
7FB
  8
OBJ02
 10
202.56270649000001
 20
200.97070522999999
 30
0.0
 42
0.05440637
  0
VERTEX
  5
7FC
  8
OBJ02
 10
208.80896258999999
 20
190.72702229999999
 30
0.0
 42
-0.21394288
  0
VERTEX
  5
7FD
  8
OBJ02
 10
210.05880404999999
 20
182.23046132499999
 30
0.0
 42
-0.04079715
  0
VERTEX
  5
7FE
  8
OBJ02
 10
206.31075526999999
 20
173.73537596
 30
0.0
 42
0.20925182
  0
VERTEX
  5
7FF
  8
OBJ02
 10
206.56013332000001
 20
165.98990035
 30
0.0
 42
-0.07678029
  0
VERTEX
  5
800
  8
OBJ02
 10
211.807401615
 20
156.24497352
 30
0.0
 42
-0.08714091
  0
VERTEX
  5
801
  8
OBJ02
 10
212.30763332000001
 20
151.49646132500001
 30
0.0
 42
-0.09687365
  0
VERTEX
  5
802
  8
OBJ02
 10
207.56059673499999
 20
140.75254669
 30
0.0
 42
0.14734178
  0
VERTEX
  5
803
  8
OBJ02
 10
207.06036503000001
 20
135.75509912999999
 30
0.0
 42
0.12087599
  0
VERTEX
  5
804
  8
OBJ02
 10
212.30763332000001
 20
125.51053084
 30
0.0
 42
-0.16076422
  0
VERTEX
  5
805
  8
OBJ02
 10
213.30662112499999
 20
117.01485522999999
 30
0.0
 42
-0.06165154
  0
VERTEX
  5
806
  8
OBJ02
 10
208.31020649000001
 20
107.769717425
 30
0.0
 42
0.1618347
  0
VERTEX
  5
807
  8
OBJ02
 10
207.80997478500001
 20
101.27305035000001
 30
0.0
 42
-0.02599616
  0
VERTEX
  5
808
  8
OBJ02
 10
212.80786502999999
 20
90.278872300000003
 30
0.0
 42
-0.09907367
  0
VERTEX
  5
809
  8
OBJ02
 10
212.80786502999999
 20
84.032025959999984
 30
0.0
 42
0.09557853
  0
VERTEX
  5
80A
  8
OBJ02
 10
206.81098698
 20
71.288660105000005
 30
0.0
 42
0.12576563
  0
VERTEX
  5
80B
  8
OBJ02
 10
206.81098698
 20
67.290790595000004
 30
0.0
 42
0.06559186
  0
VERTEX
  5
80C
  8
OBJ02
 10
211.807401615
 20
57.79568449500001
 30
0.0
 42
-0.22899905
  0
VERTEX
  5
80D
  8
OBJ02
 10
211.807401615
 20
47.800936935000003
 30
0.0
 42
-0.03593077
  0
VERTEX
  5
80E
  8
OBJ02
 10
206.061377225
 20
39.805050350000002
 30
0.0
 42
0.19911623
  0
VERTEX
  5
80F
  8
OBJ02
 10
204.81153576
 20
31.809311324999999
 30
0.0
 42
0.09914652
  0
VERTEX
  5
810
  8
OBJ02
 10
211.057791855
 20
20.315196690000001
 30
0.0
 42
-0.30926701
  0
VERTEX
  5
811
  8
OBJ02
 10
208.67405517500001
 20
7.4227375399999991
 30
0.0
 42
-0.3588901
  0
VERTEX
  5
812
  8
OBJ02
 10
191.06918210000001
 20
6.0726555949999987
 30
0.0
  0
SEQEND
  5
813
  8
OBJ02
  0
POLYLINE
  5
1CC
  8
OBJ02
 66
     1
 10
0.0
 20
0.0
 30
0.0
 70
     1
  0
VERTEX
  5
814
  8
OBJ02
 10
79.934794394999983
 20
23.983599394999999
 30
0.0
 42
-0.26383061
  0
VERTEX
  5
815
  8
OBJ02
 10
78.433814655000006
 20
39.252039029999999
 30
0.0
 42
-0.11111136
  0
VERTEX
  5
816
  8
OBJ02
 10
86.869383764999995
 20
50.860349880000001
 30
0.0
 42
0.20780371
  0
VERTEX
  5
817
  8
OBJ02
 10
94.472227230000016
 20
63.997392824999999
 30
0.0
  0
VERTEX
  5
818
  8
OBJ02
 10
94.472227230000016
 20
72.728125079999998
 30
0.0
  0
VERTEX
  5
819
  8
OBJ02
 10
104.22759553500001
 20
72.728125079999998
 30
0.0
  0
VERTEX
  5
81A
  8
OBJ02
 10
104.22759553500001
 20
56.539537680000002
 30
0.0
  0
VERTEX
  5
81B
  8
OBJ02
 10
107.252595535
 20
56.539537680000002
 30
0.0
  0
VERTEX
  5
81C
  8
OBJ02
 10
107.252595535
 20
72.728125079999998
 30
0.0
  0
VERTEX
  5
81D
  8
OBJ02
 10
117.00796384500001
 20
72.728125079999998
 30
0.0
  0
VERTEX
  5
81E
  8
OBJ02
 10
117.00796384500001
 20
63.997392824999999
 30
0.0
 42
0.28784516
  0
VERTEX
  5
81F
  8
OBJ02
 10
124.61080731
 20
50.860349880000001
 30
0.0
 42
-0.20160452
  0
VERTEX
  5
820
  8
OBJ02
 10
133.04637642
 20
39.252039029999999
 30
0.0
 42
-0.27169212
  0
VERTEX
  5
821
  8
OBJ02
 10
131.54539667500001
 20
23.983599394999999
 30
0.0
 42
-0.13330375
  0
VERTEX
  5
822
  8
OBJ02
 10
126.28044638999999
 20
21.877108530000001
 30
0.0
  0
VERTEX
  5
823
  8
OBJ02
 10
120.954180685
 20
35.854199614999999
 30
0.0
  0
VERTEX
  5
824
  8
OBJ02
 10
118.127466955
 20
34.777020655000001
 30
0.0
  0
VERTEX
  5
825
  8
OBJ02
 10
123.37738265
 20
21.000285904999998
 30
0.0
 42
0.19450766
  0
VERTEX
  5
826
  8
OBJ02
 10
112.506983035
 20
11.428805625000001
 30
0.0
 42
0.01565442
  0
VERTEX
  5
827
  8
OBJ02
 10
110.806927465
 20
8.4023242650000007
 30
0.0
 42
-0.24094289
  0
VERTEX
  5
828
  8
OBJ02
 10
105.74009553499999
 20
5.810208649999999
 30
0.0
 42
-0.24094289
  0
VERTEX
  5
829
  8
OBJ02
 10
100.67326361000001
 20
8.4023242650000007
 30
0.0
 42
-0.01685549
  0
VERTEX
  5
82A
  8
OBJ02
 10
98.973208040000003
 20
11.428805625000001
 30
0.0
 42
0.22492028
  0
VERTEX
  5
82B
  8
OBJ02
 10
88.102808420000002
 20
21.000285904999998
 30
0.0
  0
VERTEX
  5
82C
  8
OBJ02
 10
93.352724120000005
 20
34.777020655000001
 30
0.0
  0
VERTEX
  5
82D
  8
OBJ02
 10
90.526010389999996
 20
35.854199614999999
 30
0.0
  0
VERTEX
  5
82E
  8
OBJ02
 10
85.199744684999999
 20
21.877108530000001
 30
0.0
 42
-0.18305102
  0
VERTEX
  5
82F
  8
OBJ02
 10
79.934794394999983
 20
23.983599394999999
 30
0.0
  0
SEQEND
  5
830
  8
OBJ02
  0
POLYLINE
  5
1EA
  8
OBJ02
 66
     1
 10
0.0
 20
0.0
 30
0.0
 70
     1
  0
VERTEX
  5
831
  8
OBJ02
 10
46.64387722499999
 20
36.306969864999999
 30
0.0
 42
0.31501815
  0
VERTEX
  5
832
  8
OBJ02
 10
47.394118974999998
 20
33.921578445000002
 30
0.0
 42
0.31501815
  0
VERTEX
  5
833
  8
OBJ02
 10
49.892136979999997
 20
33.808172300000003
 30
0.0
 42
0.06632439
  0
VERTEX
  5
834
  8
OBJ02
 10
61.636072345000002
 20
51.548985715000001
 30
0.0
 42
0.05413732
  0
VERTEX
  5
835
  8
OBJ02
 10
73.130039420000003
 20
75.786318644999994
 30
0.0
 42
0.04015712
  0
VERTEX
  5
836
  8
OBJ02
 10
83.124934539999998
 20
108.51932718
 30
0.0
 42
0.02289017
  0
VERTEX
  5
837
  8
OBJ02
 10
83.874544295000007
 20
113.76659547
 30
0.0
 42
0.3267537
  0
VERTEX
  5
838
  8
OBJ02
 10
82.625145515
 20
115.76560401
 30
0.0
 42
0.05588837
  0
VERTEX
  5
839
  8
OBJ02
 10
74.129617464999995
 20
116.76503449499999
 30
0.0
 42
0.27439039
  0
VERTEX
  5
83A
  8
OBJ02
 10
71.880788199999998
 20
115.26581498500001
 30
0.0
 42
-0.02805684
  0
VERTEX
  5
83B
  8
OBJ02
 10
66.633519905
 20
87.280433274999993
 30
0.0
 42
-0.05938219
  0
VERTEX
  5
83C
  8
OBJ02
 10
58.38781259000001
 20
61.293912544999991
 30
0.0
 42
-0.03443671
  0
VERTEX
  5
83D
  8
OBJ02
 10
54.139974785
 20
51.798806450000001
 30
0.0
 42
-0.00412707
  0
VERTEX
  5
83E
  8
OBJ02
 10
46.64387722499999
 20
36.306969864999999
 30
0.0
  0
SEQEND
  5
83F
  8
OBJ02
  0
POLYLINE
  5
1FA
  8
OBJ02
 66
     1
 10
0.0
 20
0.0
 30
0.0
 70
     1
  0
VERTEX
  5
840
  8
OBJ02
 10
4.8265259599999988
 20
10.090569090000001
 30
0.0
 42
-0.381511
  0
VERTEX
  5
841
  8
OBJ02
 10
7.414349174999999
 20
21.814416205000001
 30
0.0
 42
0.21761284
  0
VERTEX
  5
842
  8
OBJ02
 10
22.406544295
 20
44.302708884999987
 30
0.0
 42
0.13663085
  0
VERTEX
  5
843
  8
OBJ02
 10
20.157715029999999
 20
86.031034495
 30
0.0
 42
0.12770617
  0
VERTEX
  5
844
  8
OBJ02
 10
2.9166906400000001
 20
114.76602595999999
 30
0.0
 42
-0.36246753
  0
VERTEX
  5
845
  8
OBJ02
 10
3.1665113699999989
 20
131.00761986500001
 30
0.0
 42
0.32869182
  0
VERTEX
  5
846
  8
OBJ02
 10
12.661617465000001
 20
148.24864425499999
 30
0.0
 42
0.12052047
  0
VERTEX
  5
847
  8
OBJ02
 10
0.9176821
 20
165.98990035
 30
0.0
 42
-0.26713415
  0
VERTEX
  5
848
  8
OBJ02
 10
0.798249735
 20
170.24402431499999
 30
0.0
 42
-0.26713415
  0
VERTEX
  5
849
  8
OBJ02
 10
4.4159101500000002
 20
172.485534495
 30
0.0
 42
0.36034485
  0
VERTEX
  5
84A
  8
OBJ02
 10
18.408527225
 20
179.73225400999999
 30
0.0
 42
0.03101737
  0
VERTEX
  5
84B
  8
OBJ02
 10
18.408527225
 20
194.97382718
 30
0.0
 42
0.02887037
  0
VERTEX
  5
84C
  8
OBJ02
 10
13.411227224999999
 20
240.45064425499999
 30
0.0
 42
-0.19403751
  0
VERTEX
  5
84D
  8
OBJ02
 10
14.160836979999999
 20
254.94260767
 30
0.0
 42
0.08239869
  0
VERTEX
  5
84E
  8
OBJ02
 10
21.906755270000001
 20
264.68753449500002
 30
0.0
 42
0.13489751
  0
VERTEX
  5
84F
  8
OBJ02
 10
24.905194295000001
 20
276.43191254499999
 30
0.0
 42
-0.37978531
  0
VERTEX
  5
850
  8
OBJ02
 10
28.679656099999999
 20
278.21901171500002
 30
0.0
 42
-0.37978531
  0
VERTEX
  5
851
  8
OBJ02
 10
30.902072345000001
 20
274.68331498499998
 30
0.0
 42
0.22673577
  0
VERTEX
  5
852
  8
OBJ02
 10
38.602625985000003
 20
258.63706008999998
 30
0.0
 42
-0.17321946
  0
VERTEX
  5
853
  8
OBJ02
 10
41.896397954999991
 20
245.69791254500001
 30
0.0
 42
-0.02537369
  0
VERTEX
  5
854
  8
OBJ02
 10
37.803756049999997
 20
220.17328092
 30
0.0
 42
0.03597686
  0
VERTEX
  5
855
  8
OBJ02
 10
34.899941855000002
 20
184.97952230000001
 30
0.0
 42
0.27826855
  0
VERTEX
  5
856
  8
OBJ02
 10
37.919997115000001
 20
181.7941432099999
 30
0.0
 42
0.27826855
  0
VERTEX
  5
857
  8
OBJ02
 10
42.146218685000001
 20
182.98007107999999
 30
0.0
 42
0.15176217
  0
VERTEX
  5
858
  8
OBJ02
 10
48.642885759999992
 20
194.72444913000001
 30
0.0
 42
-0.38092582
  0
VERTEX
  5
859
  8
OBJ02
 10
51.670858144999997
 20
195.8542248
 30
0.0
 42
-0.38092582
  0
VERTEX
  5
85A
  8
OBJ02
 10
53.140544294999998
 20
192.97585157
 30
0.0
 42
0.11248506
  0
VERTEX
  5
85B
  8
OBJ02
 10
54.639763809999998
 20
174.48498571499999
 30
0.0
 42
0.31741807
  0
VERTEX
  5
85C
  8
OBJ02
 10
56.374099395000002
 20
172.69900261999999
 30
0.0
 42
0.31741807
  0
VERTEX
  5
85D
  8
OBJ02
 10
58.637633319999999
 20
173.73537596
 30
0.0
 42
0.0966121
  0
VERTEX
  5
85E
  8
OBJ02
 10
64.634511369999984
 20
189.22780279
 30
0.0
 42
-0.3644146
  0
VERTEX
  5
85F
  8
OBJ02
 10
67.428664554999983
 20
190.722551205
 30
0.0
 42
-0.3644146
  0
VERTEX
  5
860
  8
OBJ02
 10
69.381990639999984
 20
188.22733937500001
 30
0.0
 42
0.09337275
  0
VERTEX
  5
861
  8
OBJ02
 10
71.880788199999998
 20
172.985766205
 30
0.0
 42
-0.17918199
  0
VERTEX
  5
862
  8
OBJ02
 10
75.378868685
 20
151.24708327499999
 30
0.0
 42
0.26645087
  0
VERTEX
  5
863
  8
OBJ02
 10
77.037894879999996
 20
149.79728742500001
 30
0.0
 42
0.26645087
  0
VERTEX
  5
864
  8
OBJ02
 10
79.126917465000005
 20
150.49747352
 30
0.0
 42
0.06688931
  0
VERTEX
  5
865
  8
OBJ02
 10
80.626136979999984
 20
153.49591254500001
 30
0.0
 42
-0.36885073
  0
VERTEX
  5
866
  8
OBJ02
 10
83.53355234
 20
154.897923225
 30
0.0
 42
-0.36885073
  0
VERTEX
  5
867
  8
OBJ02
 10
85.373763809999986
 20
152.24607108000001
 30
0.0
 42
0.12559997
  0
VERTEX
  5
868
  8
OBJ02
 10
91.620462590000002
 20
136.00506742499999
 30
0.0
 42
-0.13782277
  0
VERTEX
  5
869
  8
OBJ02
 10
93.369502835000006
 20
121.262693035
 30
0.0
 42
-0.04082356
  0
VERTEX
  5
86A
  8
OBJ02
 10
89.121812590000005
 20
99.274189375000006
 30
0.0
 42
-0.0926472
  0
VERTEX
  5
86B
  8
OBJ02
 10
67.133161369999996
 20
47.051327180000001
 30
0.0
 42
-0.07405715
  0
VERTEX
  5
86C
  8
OBJ02
 10
43.395617465000001
 20
15.817538154999999
 30
0.0
 42
-0.1611292
  0
VERTEX
  5
86D
  8
OBJ02
 10
17.409096734999999
 20
0.075777545
 30
0.0
 42
-0.24651965
  0
VERTEX
  5
86E
  8
OBJ02
 10
7.6641699049999987
 20
3.8238263250000002
 30
0.0
 42
-0.09399819
  0
VERTEX
  5
86F
  8
OBJ02
 10
5.9021272199999988
 20
7.2632546500000004
 30
0.0
  0
VERTEX
  5
870
  8
OBJ02
 10
18.171160064999999
 20
11.930788965
 30
0.0
  0
VERTEX
  5
871
  8
OBJ02
 10
17.09555881
 20
14.758103405
 30
0.0
  0
VERTEX
  5
872
  8
OBJ02
 10
4.8265259599999988
 20
10.090569090000001
 30
0.0
  0
SEQEND
  5
873
  8
OBJ02
  0
POLYLINE
  5
22F
  8
OBJ02
 66
     1
 10
0.0
 20
0.0
 30
0.0
 70
     1
  0
VERTEX
  5
874
  8
OBJ02
 10
45.644446735000002
 20
56.796254009999998
 30
0.0
 42
0.36021542
  0
VERTEX
  5
875
  8
OBJ02
 10
46.669516864999999
 20
54.473793659999991
 30
0.0
 42
0.36021542
  0
VERTEX
  5
876
  8
OBJ02
 10
49.142527225000002
 20
55.047213765000002
 30
0.0
 42
0.06079098
  0
VERTEX
  5
877
  8
OBJ02
 10
60.636641855000001
 20
88.779652789999986
 30
0.0
 42
0.05044455
  0
VERTEX
  5
878
  8
OBJ02
 10
65.384121124999993
 20
118.51407474
 30
0.0
 42
0.0221774
  0
VERTEX
  5
879
  8
OBJ02
 10
65.633941855000003
 20
140.50272595999999
 30
0.0
 42
0.31209416
  0
VERTEX
  5
87A
  8
OBJ02
 10
64.134722345
 20
143.00137595999999
 30
0.0
 42
0.03624079
  0
VERTEX
  5
87B
  8
OBJ02
 10
55.889015030000003
 20
143.75098571500001
 30
0.0
 42
0.39214619
  0
VERTEX
  5
87C
  8
OBJ02
 10
54.139974785
 20
142.00238815500001
 30
0.0
 42
-0.04152318
  0
VERTEX
  5
87D
  8
OBJ02
 10
54.889584540000001
 20
106.770286935
 30
0.0
 42
-0.06451473
  0
VERTEX
  5
87E
  8
OBJ02
 10
47.393486979999992
 20
64.292351569999994
 30
0.0
 42
-0.02785095
  0
VERTEX
  5
87F
  8
OBJ02
 10
45.644446735000002
 20
56.796254009999998
 30
0.0
  0
SEQEND
  5
880
  8
OBJ02
  0
POLYLINE
  5
23D
  8
OBJ02
 66
     1
 10
0.0
 20
0.0
 30
0.0
 70
     1
  0
VERTEX
  5
881
  8
OBJ02
 10
42.646007709999999
 20
90.028904010000005
 30
0.0
 42
0.10218417
  0
VERTEX
  5
882
  8
OBJ02
 10
29.402852835000001
 20
124.26113205999999
 30
0.0
 42
-0.32637771
  0
VERTEX
  5
883
  8
OBJ02
 10
29.902641854999999
 20
126.01017229999999
 30
0.0
 42
0.26349355
  0
VERTEX
  5
884
  8
OBJ02
 10
40.397178445000002
 20
141.75153449499999
 30
0.0
 42
-0.07738752
  0
VERTEX
  5
885
  8
OBJ02
 10
39.607932069999997
 20
147.91935781000001
 30
0.0
 42
-0.35166744
  0
VERTEX
  5
886
  8
OBJ02
 10
41.92897808499999
 20
150.47953864499999
 30
0.0
 42
-0.35166744
  0
VERTEX
  5
887
  8
OBJ02
 10
44.930825175000003
 20
148.76761149500001
 30
0.0
 42
-0.04008198
  0
VERTEX
  5
888
  8
OBJ02
 10
47.893276004999997
 20
123.26170157
 30
0.0
 42
-0.06582715
  0
VERTEX
  5
889
  8
OBJ02
 10
46.893697955
 20
90.528693035000003
 30
0.0
 42
-0.31644669
  0
VERTEX
  5
88A
  8
OBJ02
 10
44.94560941999999
 20
88.785049150000006
 30
0.0
 42
-0.31644669
  0
VERTEX
  5
88B
  8
OBJ02
 10
42.646007709999999
 20
90.028904010000005
 30
0.0
  0
SEQEND
  5
88C
  8
OBJ02
  0
POLYLINE
  5
24A
  8
OBJ02
 66
     1
 10
0.0
 20
0.0
 30
0.0
 70
     1
  0
VERTEX
  5
88D
  8
OBJ02
 10
27.653812590000001
 20
37.056579620000001
 30
0.0
 42
0.01690836
  0
VERTEX
  5
88E
  8
OBJ02
 10
26.154593075000001
 20
31.059701570000001
 30
0.0
 42
0.33592507
  0
VERTEX
  5
88F
  8
OBJ02
 10
27.585841474999999
 20
28.796280145000001
 30
0.0
 42
0.33592507
  0
VERTEX
  5
890
  8
OBJ02
 10
30.152462589999999
 20
29.560482059999998
 30
0.0
 42
0.13299387
  0
VERTEX
  5
891
  8
OBJ02
 10
38.39816990500001
 20
71.038839374999995
 30
0.0
 42
0.1376613
  0
VERTEX
  5
892
  8
OBJ02
 10
27.403844294999999
 20
111.517766205
 30
0.0
 42
0.23653944
  0
VERTEX
  5
893
  8
OBJ02
 10
25.404983319999999
 20
112.01755523
 30
0.0
 42
0.07859566
  0
VERTEX
  5
894
  8
OBJ02
 10
19.40810527
 20
108.01953815500001
 30
0.0
 42
0.28787525
  0
VERTEX
  5
895
  8
OBJ02
 10
18.908316249999999
 20
104.7712784
 30
0.0
 42
-0.10462683
  0
VERTEX
  5
896
  8
OBJ02
 10
29.902641854999999
 20
72.038269865000004
 30
0.0
 42
-0.11015679
  0
VERTEX
  5
897
  8
OBJ02
 10
27.653812590000001
 20
37.056579620000001
 30
0.0
  0
SEQEND
  5
898
  8
OBJ02
  0
POLYLINE
  5
257
  8
OBJ02
 66
     1
 10
0.0
 20
0.0
 30
0.0
 70
     1
  0
VERTEX
  5
899
  8
OBJ02
 10
18.470737665000001
 20
282.48208758999999
 30
0.0
 42
-0.26743495
  0
VERTEX
  5
89A
  8
OBJ02
 10
13.321326340000001
 20
282.17798635499997
 30
0.0
 42
-0.26743495
  0
VERTEX
  5
89B
  8
OBJ02
 10
10.474998644999999
 20
286.48000137000002
 30
0.0
 42
-0.03094295
  0
VERTEX
  5
89C
  8
OBJ02
 10
10.474998644999999
 20
292.97666844499997
 30
0.0
  0
VERTEX
  5
89D
  8
OBJ02
 10
13.97307913
 20
349.44722087999997
 30
0.0
 42
0.29753822
  0
VERTEX
  5
89E
  8
OBJ02
 10
8.2261693749999996
 20
359.44196844499999
 30
0.0
 42
-0.03487403
  0
VERTEX
  5
89F
  8
OBJ02
 10
0.4801035200000001
 20
364.18959526999998
 30
0.0
 42
-0.31109865
  0
VERTEX
  5
8A0
  8
OBJ02
 10
0.23588708
 20
366.41620449499999
 30
0.0
 42
-0.31109865
  0
VERTEX
  5
8A1
  8
OBJ02
 10
2.2292913250000002
 20
367.43785502999998
 30
0.0
 42
-0.04694483
  0
VERTEX
  5
8A2
  8
OBJ02
 10
13.473437665000001
 20
363.19001722500002
 30
0.0
 42
-0.25452743
  0
VERTEX
  5
8A3
  8
OBJ02
 10
19.969957180000002
 20
350.69661966000001
 30
0.0
  0
VERTEX
  5
8A4
  8
OBJ02
 10
18.97052669
 20
297.97396844500003
 30
0.0
 42
0.31503627
  0
VERTEX
  5
8A5
  8
OBJ02
 10
20.395347940000001
 20
295.48886513000002
 30
0.0
 42
0.31503627
  0
VERTEX
  5
8A6
  8
OBJ02
 10
23.218364494999999
 20
295.97510746500001
 30
0.0
 42
0.03115372
  0
VERTEX
  5
8A7
  8
OBJ02
 10
34.712331570000003
 20
306.469644055
 30
0.0
 42
-0.05497412
  0
VERTEX
  5
8A8
  8
OBJ02
 10
40.959030349999999
 20
310.96730258999997
 30
0.0
 42
-0.19035588
  0
VERTEX
  5
8A9
  8
OBJ02
 10
50.703514495
 20
311.71691234500003
 30
0.0
 42
-0.02099438
  0
VERTEX
  5
8AA
  8
OBJ02
 10
56.95124620499999
 20
309.46808307499998
 30
0.0
 42
0.19704981
  0
VERTEX
  5
8AB
  8
OBJ02
 10
59.200075470000002
 20
309.46808307499998
 30
0.0
 42
0.03409156
  0
VERTEX
  5
8AC
  8
OBJ02
 10
63.697734009999991
 20
311.71691234500003
 30
0.0
 42
-0.23494469
  0
VERTEX
  5
8AD
  8
OBJ02
 10
69.443758399999993
 20
311.466944055
 30
0.0
 42
-0.27712007
  0
VERTEX
  5
8AE
  8
OBJ02
 10
73.692038885000002
 20
303.72102575999997
 30
0.0
 42
-0.04199174
  0
VERTEX
  5
8AF
  8
OBJ02
 10
70.229136405000006
 20
294.19804393499999
 30
0.0
  0
VERTEX
  5
8B0
  8
OBJ02
 10
57.981440374999998
 20
300.086707365
 30
0.0
  0
VERTEX
  5
8B1
  8
OBJ02
 10
56.670661785
 20
297.36044903499999
 30
0.0
  0
VERTEX
  5
8B2
  8
OBJ02
 10
68.918357814999993
 20
291.47178559999998
 30
0.0
 42
-0.08258063
  0
VERTEX
  5
8B3
  8
OBJ02
 10
65.446331569999984
 20
286.48000137000002
 30
0.0
 42
-0.34050708
  0
VERTEX
  5
8B4
  8
OBJ02
 10
61.947660839999998
 20
285.98021234499998
 30
0.0
 42
0.03645657
  0
VERTEX
  5
8B5
  8
OBJ02
 10
43.707648644999992
 20
293.47630990499999
 30
0.0
 42
0.20072046
  0
VERTEX
  5
8B6
  8
OBJ02
 10
34.212542544999998
 20
292.22705868499997
 30
0.0
 42
0.01365913
  0
VERTEX
  5
8B7
  8
OBJ02
 10
18.470737665000001
 20
282.48208758999999
 30
0.0
  0
SEQEND
  5
8B8
  8
OBJ02
  0
POLYLINE
  5
278
  8
OBJ02
 66
     1
 10
0.0
 20
0.0
 30
0.0
 70
     1
  0
VERTEX
  5
8B9
  8
OBJ02
 10
228.470966715
 20
20.873051844999999
 30
0.0
 42
0.30926701
  0
VERTEX
  5
8BA
  8
OBJ02
 10
230.854703395
 20
7.9805926950000003
 30
0.0
 42
0.3588901
  0
VERTEX
  5
8BB
  8
OBJ02
 10
248.45957647
 20
6.6305107449999987
 30
0.0
 42
0.10883797
  0
VERTEX
  5
8BC
  8
OBJ02
 10
287.690137445
 20
38.613865259999997
 30
0.0
 42
0.07698286
  0
VERTEX
  5
8BD
  8
OBJ02
 10
327.41901183499999
 20
104.829344525
 30
0.0
 42
-0.00497392
  0
VERTEX
  5
8BE
  8
OBJ02
 10
348.90772647
 20
154.55399940500001
 30
0.0
 42
-0.00115477
  0
VERTEX
  5
8BF
  8
OBJ02
 10
366.39871915499998
 20
202.529023795
 30
0.0
 42
-0.02011995
  0
VERTEX
  5
8C0
  8
OBJ02
 10
377.14307646999998
 20
239.50927989499999
 30
0.0
 42
-0.18400538
  0
VERTEX
  5
8C1
  8
OBJ02
 10
385.972778785
 20
251.872285135
 30
0.0
 42
0.13657666
  0
VERTEX
  5
8C2
  8
OBJ02
 10
395.13371061999999
 20
261.49734087000002
 30
0.0
 42
0.2134865
  0
VERTEX
  5
8C3
  8
OBJ02
 10
394.08808680499999
 20
269.39643353500003
 30
0.0
  0
VERTEX
  5
8C4
  8
OBJ02
 10
381.512311565
 20
264.31484243
 30
0.0
  0
VERTEX
  5
8C5
  8
OBJ02
 10
380.37900236500002
 20
267.11952338499998
 30
0.0
  0
VERTEX
  5
8C6
  8
OBJ02
 10
392.9547776
 20
272.20111449000001
 30
0.0
 42
0.21936467
  0
VERTEX
  5
8C7
  8
OBJ02
 10
387.63761305499997
 20
278.48898721
 30
0.0
 42
0.19733273
  0
VERTEX
  5
8C8
  8
OBJ02
 10
381.390914275
 20
278.98921891999998
 30
0.0
 42
-0.00199282
  0
VERTEX
  5
8C9
  8
OBJ02
 10
356.40382403000001
 20
270.74351159999998
 30
0.0
 42
-0.09194265
  0
VERTEX
  5
8CA
  8
OBJ02
 10
319.17330451999999
 20
267.74507257499999
 30
0.0
 42
-0.06318915
  0
VERTEX
  5
8CB
  8
OBJ02
 10
279.94318622499998
 20
274.99031647999999
 30
0.0
 42
0.05014451
  0
VERTEX
  5
8CC
  8
OBJ02
 10
259.95457647000001
 20
281.73680428500001
 30
0.0
 42
0.33229592
  0
VERTEX
  5
8CD
  8
OBJ02
 10
238.71464964
 20
268.24382867499997
 30
0.0
 42
0.12184415
  0
VERTEX
  5
8CE
  8
OBJ02
 10
236.96605208
 20
254.750853065
 30
0.0
 42
0.06756604
  0
VERTEX
  5
8CF
  8
OBJ02
 10
241.46371062
 20
242.00748720999999
 30
0.0
 42
-0.1683313
  0
VERTEX
  5
8D0
  8
OBJ02
 10
241.21433257000001
 20
236.76021892
 30
0.0
 42
-0.05460192
  0
VERTEX
  5
8D1
  8
OBJ02
 10
233.46738135000001
 20
225.51607257500001
 30
0.0
 42
0.22632397
  0
VERTEX
  5
8D2
  8
OBJ02
 10
232.468393545
 20
216.52075550500001
 30
0.0
 42
0.02008863
  0
VERTEX
  5
8D3
  8
OBJ02
 10
236.96605208
 20
206.526450625
 30
0.0
 42
-0.18539953
  0
VERTEX
  5
8D4
  8
OBJ02
 10
236.96605208
 20
201.52856037999999
 30
0.0
 42
-0.05440637
  0
VERTEX
  5
8D5
  8
OBJ02
 10
230.71979598499999
 20
191.2848774549999
 30
0.0
 42
0.21394288
  0
VERTEX
  5
8D6
  8
OBJ02
 10
229.46995451999999
 20
182.78831647999999
 30
0.0
 42
0.04079715
  0
VERTEX
  5
8D7
  8
OBJ02
 10
233.21800329999999
 20
174.293231115
 30
0.0
 42
-0.20925182
  0
VERTEX
  5
8D8
  8
OBJ02
 10
232.96862525
 20
166.547755505
 30
0.0
 42
0.07678029
  0
VERTEX
  5
8D9
  8
OBJ02
 10
227.72135696000001
 20
156.802828675
 30
0.0
 42
0.08714091
  0
VERTEX
  5
8DA
  8
OBJ02
 10
227.22112525
 20
152.05431648000001
 30
0.0
 42
0.09687365
  0
VERTEX
  5
8DB
  8
OBJ02
 10
231.96816183499999
 20
141.310401845
 30
0.0
 42
-0.14734178
  0
VERTEX
  5
8DC
  8
OBJ02
 10
232.468393545
 20
136.31295428499999
 30
0.0
 42
-0.12087599
  0
VERTEX
  5
8DD
  8
OBJ02
 10
227.22112525
 20
126.06838599
 30
0.0
 42
0.16076422
  0
VERTEX
  5
8DE
  8
OBJ02
 10
226.22213744499999
 20
117.57271038
 30
0.0
 42
0.06165154
  0
VERTEX
  5
8DF
  8
OBJ02
 10
231.21855207999999
 20
108.327572575
 30
0.0
 42
-0.1618347
  0
VERTEX
  5
8E0
  8
OBJ02
 10
231.71878379
 20
101.830905505
 30
0.0
 42
0.02599616
  0
VERTEX
  5
8E1
  8
OBJ02
 10
226.720893545
 20
90.836727455000016
 30
0.0
 42
0.09907367
  0
VERTEX
  5
8E2
  8
OBJ02
 10
226.720893545
 20
84.589881114999997
 30
0.0
 42
-0.09557853
  0
VERTEX
  5
8E3
  8
OBJ02
 10
232.71777159499999
 20
71.846515260000004
 30
0.0
 42
-0.12576563
  0
VERTEX
  5
8E4
  8
OBJ02
 10
232.71777159499999
 20
67.848645744999999
 30
0.0
 42
-0.06559186
  0
VERTEX
  5
8E5
  8
OBJ02
 10
227.72135696000001
 20
58.353539650000002
 30
0.0
 42
0.22899905
  0
VERTEX
  5
8E6
  8
OBJ02
 10
227.72135696000001
 20
48.358792090000001
 30
0.0
 42
0.03593077
  0
VERTEX
  5
8E7
  8
OBJ02
 10
233.46738135000001
 20
40.362905505000001
 30
0.0
 42
-0.19911623
  0
VERTEX
  5
8E8
  8
OBJ02
 10
234.71722281500001
 20
32.367166480000002
 30
0.0
 42
-0.09914652
  0
VERTEX
  5
8E9
  8
OBJ02
 10
228.470966715
 20
20.873051844999999
 30
0.0
  0
SEQEND
  5
8EA
  8
OBJ02
  0
POLYLINE
  5
2AB
  8
OBJ02
 66
     1
 10
0.0
 20
0.0
 30
0.0
 70
     1
  0
VERTEX
  5
8EB
  8
OBJ02
 10
422.11966183499987
 20
0.6336327000000001
 30
0.0
 42
-0.1611292
  0
VERTEX
  5
8EC
  8
OBJ02
 10
396.13314110499999
 20
16.37539331
 30
0.0
 42
-0.07405715
  0
VERTEX
  5
8ED
  8
OBJ02
 10
372.395597205
 20
47.609182330000003
 30
0.0
 42
-0.0926472
  0
VERTEX
  5
8EE
  8
OBJ02
 10
350.40694598499999
 20
99.832044525000001
 30
0.0
 42
-0.04082356
  0
VERTEX
  5
8EF
  8
OBJ02
 10
346.15925573999999
 20
121.82054818500001
 30
0.0
 42
-0.13782277
  0
VERTEX
  5
8F0
  8
OBJ02
 10
347.908295985
 20
136.56292257499999
 30
0.0
 42
0.12559997
  0
VERTEX
  5
8F1
  8
OBJ02
 10
354.15499476500003
 20
152.80392623500001
 30
0.0
 42
-0.36885073
  0
VERTEX
  5
8F2
  8
OBJ02
 10
355.99520623000001
 20
155.45577837499999
 30
0.0
 42
-0.36885073
  0
VERTEX
  5
8F3
  8
OBJ02
 10
358.90262159500003
 20
154.05376770000001
 30
0.0
 42
0.06688931
  0
VERTEX
  5
8F4
  8
OBJ02
 10
360.40184110500002
 20
151.055328675
 30
0.0
 42
0.26645087
  0
VERTEX
  5
8F5
  8
OBJ02
 10
362.49086369000003
 20
150.355142575
 30
0.0
 42
0.26645087
  0
VERTEX
  5
8F6
  8
OBJ02
 10
364.14988988499999
 20
151.80493842999999
 30
0.0
 42
-0.17918199
  0
VERTEX
  5
8F7
  8
OBJ02
 10
367.647970375
 20
173.543621355
 30
0.0
 42
0.09337275
  0
VERTEX
  5
8F8
  8
OBJ02
 10
370.14676793500001
 20
188.78519452500001
 30
0.0
 42
-0.3644146
  0
VERTEX
  5
8F9
  8
OBJ02
 10
372.10009401500002
 20
191.280406355
 30
0.0
 42
-0.3644146
  0
VERTEX
  5
8FA
  8
OBJ02
 10
374.894247205
 20
189.78565793999999
 30
0.0
 42
0.0966121
  0
VERTEX
  5
8FB
  8
OBJ02
 10
380.89112525000002
 20
174.293231115
 30
0.0
 42
0.31741807
  0
VERTEX
  5
8FC
  8
OBJ02
 10
383.15465918000001
 20
173.25685777000001
 30
0.0
 42
0.31741807
  0
VERTEX
  5
8FD
  8
OBJ02
 10
384.88899476500001
 20
175.04284086999999
 30
0.0
 42
0.11248506
  0
VERTEX
  5
8FE
  8
OBJ02
 10
386.388214275
 20
193.53370672
 30
0.0
 42
-0.38092582
  0
VERTEX
  5
8FF
  8
OBJ02
 10
387.85790042500003
 20
196.412079955
 30
0.0
 42
-0.38092582
  0
VERTEX
  5
900
  8
OBJ02
 10
390.88587281500003
 20
195.28230428500001
 30
0.0
 42
0.15176217
  0
VERTEX
  5
901
  8
OBJ02
 10
397.38253988500003
 20
183.53792623499999
 30
0.0
 42
0.27826855
  0
VERTEX
  5
902
  8
OBJ02
 10
401.60876145999993
 20
182.3519983649999
 30
0.0
 42
0.27826855
  0
VERTEX
  5
903
  8
OBJ02
 10
404.62881671500003
 20
185.53737745500001
 30
0.0
 42
0.03597686
  0
VERTEX
  5
904
  8
OBJ02
 10
401.72500251999998
 20
220.73113606999999
 30
0.0
 42
-0.02537369
  0
VERTEX
  5
905
  8
OBJ02
 10
397.63236061999999
 20
246.25576770000001
 30
0.0
 42
-0.17321946
  0
VERTEX
  5
906
  8
OBJ02
 10
400.9261325899999
 20
259.19491524
 30
0.0
 42
0.22673577
  0
VERTEX
  5
907
  8
OBJ02
 10
408.62668622500001
 20
275.241170135
 30
0.0
 42
-0.37978531
  0
VERTEX
  5
908
  8
OBJ02
 10
410.849102475
 20
278.77686686999999
 30
0.0
 42
-0.37978531
  0
VERTEX
  5
909
  8
OBJ02
 10
414.62356427499992
 20
276.98976770000002
 30
0.0
 42
0.13489751
  0
VERTEX
  5
90A
  8
OBJ02
 10
417.6220032999999
 20
265.24538964999999
 30
0.0
 42
0.08239869
  0
VERTEX
  5
90B
  8
OBJ02
 10
425.36792159499998
 20
255.50046282
 30
0.0
 42
-0.19403751
  0
VERTEX
  5
90C
  8
OBJ02
 10
426.11753134999992
 20
241.00849940500001
 30
0.0
 42
0.02887037
  0
VERTEX
  5
90D
  8
OBJ02
 10
421.12023134999998
 20
195.53168233
 30
0.0
 42
0.03101737
  0
VERTEX
  5
90E
  8
OBJ02
 10
421.12023134999998
 20
180.29010915999999
 30
0.0
 42
0.36034485
  0
VERTEX
  5
90F
  8
OBJ02
 10
435.11284842499998
 20
173.04338964999999
 30
0.0
 42
-0.26713415
  0
VERTEX
  5
910
  8
OBJ02
 10
438.73050884000003
 20
170.80187946500001
 30
0.0
 42
-0.26713415
  0
VERTEX
  5
911
  8
OBJ02
 10
438.61107646999989
 20
166.547755505
 30
0.0
 42
0.12052047
  0
VERTEX
  5
912
  8
OBJ02
 10
426.86714110499992
 20
148.80649940500001
 30
0.0
 42
0.32869182
  0
VERTEX
  5
913
  8
OBJ02
 10
436.36224720500002
 20
131.565475015
 30
0.0
 42
-0.36246753
  0
VERTEX
  5
914
  8
OBJ02
 10
436.61206793500003
 20
115.32388111500001
 30
0.0
 42
0.12770617
  0
VERTEX
  5
915
  8
OBJ02
 10
419.37104354499991
 20
86.588889649999999
 30
0.0
 42
0.13663085
  0
VERTEX
  5
916
  8
OBJ02
 10
417.12221427499992
 20
44.86056404
 30
0.0
 42
0.21761284
  0
VERTEX
  5
917
  8
OBJ02
 10
432.1144094
 20
22.372271354999999
 30
0.0
 42
-0.381511
  0
VERTEX
  5
918
  8
OBJ02
 10
434.70223261000001
 20
10.648424240000001
 30
0.0
  0
VERTEX
  5
919
  8
OBJ02
 10
422.43319976499998
 20
15.315958555
 30
0.0
  0
VERTEX
  5
91A
  8
OBJ02
 10
421.357598505
 20
12.48864412
 30
0.0
  0
VERTEX
  5
91B
  8
OBJ02
 10
433.62663135499992
 20
7.821109804999999
 30
0.0
 42
-0.09399819
  0
VERTEX
  5
91C
  8
OBJ02
 10
431.86458866499993
 20
4.3816814800000001
 30
0.0
 42
-0.24651965
  0
VERTEX
  5
91D
  8
OBJ02
 10
422.11966183499987
 20
0.6336327000000001
 30
0.0
  0
SEQEND
  5
91E
  8
OBJ02
  0
POLYLINE
  5
2E0
  8
OBJ02
 66
     1
 10
0.0
 20
0.0
 30
0.0
  0
VERTEX
  5
91F
  8
OBJ02
 10
349.00274818000003
 20
36.412054765000001
 30
0.0
  0
VERTEX
  5
920
  8
OBJ02
 10
354.32901389
 20
22.434963679999999
 30
0.0
 42
0.18305102
  0
VERTEX
  5
921
  8
OBJ02
 10
359.593964175
 20
24.541454545000001
 30
0.0
 42
0.26383061
  0
VERTEX
  5
922
  8
OBJ02
 10
361.09494391999999
 20
39.809894180000001
 30
0.0
 42
0.11111136
  0
VERTEX
  5
923
  8
OBJ02
 10
352.65937480500003
 20
51.418205030000003
 30
0.0
 42
-0.20780371
  0
VERTEX
  5
924
  8
OBJ02
 10
345.056531345
 20
64.555247980000004
 30
0.0
  0
VERTEX
  5
925
  8
OBJ02
 10
345.056531345
 20
73.285980234999997
 30
0.0
  0
VERTEX
  5
926
  8
OBJ02
 10
335.301163035
 20
73.285980234999997
 30
0.0
  0
VERTEX
  5
927
  8
OBJ02
 10
335.301163035
 20
57.097392829999997
 30
0.0
  0
VERTEX
  5
928
  8
OBJ02
 10
332.27616303500002
 20
57.097392829999997
 30
0.0
  0
VERTEX
  5
929
  8
OBJ02
 10
332.27616303500002
 20
73.285980234999997
 30
0.0
  0
VERTEX
  5
92A
  8
OBJ02
 10
322.52079472999998
 20
73.285980234999997
 30
0.0
  0
VERTEX
  5
92B
  8
OBJ02
 10
322.52079472999998
 20
64.555247980000004
 30
0.0
 42
-0.28784516
  0
VERTEX
  5
92C
  8
OBJ02
 10
314.917951265
 20
51.418205030000003
 30
0.0
 42
0.20160452
  0
VERTEX
  5
92D
  8
OBJ02
 10
306.48238214999998
 20
39.809894180000001
 30
0.0
 42
0.27169212
  0
VERTEX
  5
92E
  8
OBJ02
 10
307.98336189499997
 20
24.541454545000001
 30
0.0
 42
0.13330375
  0
VERTEX
  5
92F
  8
OBJ02
 10
313.24831218499997
 20
22.434963679999999
 30
0.0
  0
VERTEX
  5
930
  8
OBJ02
 10
318.57457789
 20
36.412054765000001
 30
0.0
  0
SEQEND
  5
931
  8
OBJ02
  0
POLYLINE
  5
2F4
  8
OBJ02
 66
     1
 10
0.0
 20
0.0
 30
0.0
 70
     1
  0
VERTEX
  5
932
  8
OBJ02
 10
205.03807521499999
 20
389.80915686999998
 30
0.0
 42
-0.02982448
  0
VERTEX
  5
933
  8
OBJ02
 10
229.01924468499999
 20
395.51773844500002
 30
0.0
 42
-0.04823653
  0
VERTEX
  5
934
  8
OBJ02
 10
280.09018916500003
 20
399.83526811000002
 30
0.0
 42
-0.05102716
  0
VERTEX
  5
935
  8
OBJ02
 10
329.39124895499998
 20
394.55779085
 30
0.0
 42
-0.04755514
  0
VERTEX
  5
936
  8
OBJ02
 10
359.57792223000001
 20
386.31768735000003
 30
0.0
 42
-0.24747671
  0
VERTEX
  5
937
  8
OBJ02
 10
362.23607764000002
 20
383.19788727000002
 30
0.0
 42
0.14485042
  0
VERTEX
  5
938
  8
OBJ02
 10
368.96533324000001
 20
368.77613932999998
 30
0.0
 42
0.28264804
  0
VERTEX
  5
939
  8
OBJ02
 10
388.18335911999998
 20
364.73780120999999
 30
0.0
 42
-0.11575824
  0
VERTEX
  5
93A
  8
OBJ02
 10
396.08036459499999
 20
366.88549368999998
 30
0.0
 42
-0.04120714
  0
VERTEX
  5
93B
  8
OBJ02
 10
400.37343379499998
 20
366.10100623
 30
0.0
 42
0.38897541
  0
VERTEX
  5
93C
  8
OBJ02
 10
412.300123525
 20
372.70486511500002
 30
0.0
 42
0.01920955
  0
VERTEX
  5
93D
  8
OBJ02
 10
416.352856965
 20
386.66824593000001
 30
0.0
 42
0.30031206
  0
VERTEX
  5
93E
  8
OBJ02
 10
413.19337067999987
 20
394.76557091000001
 30
0.0
 42
0.08981009
  0
VERTEX
  5
93F
  8
OBJ02
 10
409.10316066000001
 20
397.47851524999999
 30
0.0
  0
VERTEX
  5
940
  8
OBJ02
 10
401.03659900000002
 20
384.89344863000002
 30
0.0
  0
VERTEX
  5
941
  8
OBJ02
 10
398.48984209000002
 20
386.5258255
 30
0.0
  0
VERTEX
  5
942
  8
OBJ02
 10
406.55640375000002
 20
399.11089211500001
 30
0.0
 42
0.19172222
  0
VERTEX
  5
943
  8
OBJ02
 10
393.962497305
 20
404.05715442000002
 30
0.0
 42
0.0623962
  0
VERTEX
  5
944
  8
OBJ02
 10
377.305542575
 20
401.96858972500002
 30
0.0
 42
0.13660035
  0
VERTEX
  5
945
  8
OBJ02
 10
366.61305355500002
 20
395.67792960999998
 30
0.0
 42
-0.20140378
  0
VERTEX
  5
946
  8
OBJ02
 10
361.11081854499997
 20
395.65109090999999
 30
0.0
 42
0.04891133
  0
VERTEX
  5
947
  8
OBJ02
 10
326.40704727500002
 20
404.165037025
 30
0.0
 42
0.0583387
  0
VERTEX
  5
948
  8
OBJ02
 10
274.95991265499998
 20
407.33268198500002
 30
0.0
 42
0.05138425
  0
VERTEX
  5
949
  8
OBJ02
 10
226.746853595
 20
400.9071164099999
 30
0.0
 42
0.01007432
  0
VERTEX
  5
94A
  8
OBJ02
 10
203.80162858
 20
394.5000435
 30
0.0
 42
0.36959693
  0
VERTEX
  5
94B
  8
OBJ02
 10
202.41181266000001
 20
391.62531146999999
 30
0.0
 42
0.36959693
  0
VERTEX
  5
94C
  8
OBJ02
 10
205.03807521499999
 20
389.80915686999998
 30
0.0
  0
SEQEND
  5
94D
  8
OBJ02
  0
POLYLINE
  5
311
  8
OBJ02
 66
     1
 10
0.0
 20
0.0
 30
0.0
  0
VERTEX
  5
94E
  8
OBJ02
 10
378.37151325000002
 20
345.79732174499998
 30
0.0
  0
VERTEX
  5
94F
  8
OBJ02
 10
383.00013329500001
 20
337.02512761499997
 30
0.0
  0
VERTEX
  5
950
  8
OBJ02
 10
385.67554182499998
 20
338.43679832499998
 30
0.0
  0
VERTEX
  5
951
  8
OBJ02
 10
381.04692177999999
 20
347.20899245999999
 30
0.0
 42
-0.24275734
  0
VERTEX
  5
952
  8
OBJ02
 10
387.71159792499998
 20
348.225499555
 30
0.0
 42
-0.09707837
  0
VERTEX
  5
953
  8
OBJ02
 10
393.77130139000002
 20
344.19478126000001
 30
0.0
 42
0.27270166
  0
VERTEX
  5
954
  8
OBJ02
 10
406.62998864500003
 20
342.59185325499999
 30
0.0
 42
-0.1025276
  0
VERTEX
  5
955
  8
OBJ02
 10
413.5104126199999
 20
345.00949143499997
 30
0.0
 42
-0.24275734
  0
VERTEX
  5
956
  8
OBJ02
 10
419.72157584500002
 20
342.387918195
 30
0.0
  0
SEQEND
  5
957
  8
OBJ02
  0
POLYLINE
  5
31C
  8
OBJ02
 66
     1
 10
0.0
 20
0.0
 30
0.0
  0
VERTEX
  5
958
  8
OBJ02
 10
421.96854365499991
 20
340.36263781000002
 30
0.0
 42
-0.17304415
  0
VERTEX
  5
959
  8
OBJ02
 10
432.25511692499992
 20
325.76607623000001
 30
0.0
  0
VERTEX
  5
95A
  8
OBJ02
 10
422.28921687500002
 20
322.61081603999997
 30
0.0
  0
VERTEX
  5
95B
  8
OBJ02
 10
423.20227933000001
 20
319.72690516
 30
0.0
  0
VERTEX
  5
95C
  8
OBJ02
 10
433.16817938000003
 20
322.88216534999998
 30
0.0
 42
-0.07629659
  0
VERTEX
  5
95D
  8
OBJ02
 10
433.91734058999992
 20
319.736304975
 30
0.0
 42
-0.34012072
  0
VERTEX
  5
95E
  8
OBJ02
 10
429.77756729999999
 20
313.567523725
 30
0.0
 42
0.07096611
  0
VERTEX
  5
95F
  8
OBJ02
 10
422.61772207000001
 20
310.74110588000002
 30
0.0
 42
0.23605907
  0
VERTEX
  5
960
  8
OBJ02
 10
419.14325093500003
 20
304.14597737999998
 30
0.0
 42
0.10379752
  0
VERTEX
  5
961
  8
OBJ02
 10
421.67422648000002
 20
296.76861114000002
 30
0.0
 42
-0.40971163
  0
VERTEX
  5
962
  8
OBJ02
 10
417.70259350999987
 20
288.98091923999999
 30
0.0
  0
VERTEX
  5
963
  8
OBJ02
 10
412.68477337500002
 20
297.53945224500001
 30
0.0
  0
VERTEX
  5
964
  8
OBJ02
 10
410.07521166499993
 20
296.00948077999999
 30
0.0
  0
VERTEX
  5
965
  8
OBJ02
 10
415.09303180000001
 20
287.45094777000003
 30
0.0
 42
-0.09450258
  0
VERTEX
  5
966
  8
OBJ02
 10
411.20646517499989
 20
285.01984778500002
 30
0.0
 42
-0.333957
  0
VERTEX
  5
967
  8
OBJ02
 10
405.84839750999993
 20
287.38979011499998
 30
0.0
 42
0.22846688
  0
VERTEX
  5
968
  8
OBJ02
 10
395.83513433000002
 20
296.07827995999997
 30
0.0
  0
VERTEX
  5
969
  8
OBJ02
 10
397.56253285499997
 20
309.935469625
 30
0.0
  0
VERTEX
  5
96A
  8
OBJ02
 10
394.56076580500002
 20
310.30966151500002
 30
0.0
  0
VERTEX
  5
96B
  8
OBJ02
 10
392.83336728
 20
296.45247184999999
 30
0.0
 42
0.22375741
  0
VERTEX
  5
96C
  8
OBJ02
 10
381.00272545000001
 20
290.48698213500001
 30
0.0
 42
-0.31570929
  0
VERTEX
  5
96D
  8
OBJ02
 10
375.21761012000002
 20
289.50611785000001
 30
0.0
 42
-0.10690822
  0
VERTEX
  5
96E
  8
OBJ02
 10
372.04681899000002
 20
292.816968325
 30
0.0
  0
VERTEX
  5
96F
  8
OBJ02
 10
379.01219285500002
 20
299.881709865
 30
0.0
  0
VERTEX
  5
970
  8
OBJ02
 10
376.85809950499998
 20
302.005505255
 30
0.0
  0
VERTEX
  5
971
  8
OBJ02
 10
369.89272563999998
 20
294.940763715
 30
0.0
 42
-0.2036207
  0
VERTEX
  5
972
  8
OBJ02
 10
367.10358181499998
 20
298.788603825
 30
0.0
 42
-0.2036207
  0
VERTEX
  5
973
  8
OBJ02
 10
367.93701066
 20
303.46734223999999
 30
0.0
 42
0.09330039
  0
VERTEX
  5
974
  8
OBJ02
 10
372.21917109499998
 20
309.99540199500001
 30
0.0
 42
0.23605907
  0
VERTEX
  5
975
  8
OBJ02
 10
370.47013084999998
 20
317.24167882500001
 30
0.0
 42
0.03573736
  0
VERTEX
  5
976
  8
OBJ02
 10
364.22328450999998
 20
321.73933735999998
 30
0.0
 42
-0.34012072
  0
VERTEX
  5
977
  8
OBJ02
 10
361.72463450999999
 20
328.735645895
 30
0.0
 42
-0.0605888
  0
VERTEX
  5
978
  8
OBJ02
 10
363.223176045
 20
331.60131393500001
 30
0.0
  0
VERTEX
  5
979
  8
OBJ02
 10
372.1094721
 20
326.09599168
 30
0.0
  0
VERTEX
  5
97A
  8
OBJ02
 10
373.70259049999999
 20
328.66748905999998
 30
0.0
  0
VERTEX
  5
97B
  8
OBJ02
 10
364.81629444499998
 20
334.17281131499999
 30
0.0
 42
-0.17304415
  0
VERTEX
  5
97C
  8
OBJ02
 10
378.37151325000002
 20
345.79732174499998
 30
0.0
  0
VERTEX
  5
97D
  8
OBJ02
 10
383.00013329500001
 20
337.02512761499997
 30
0.0
  0
SEQEND
  5
97E
  8
OBJ02
  0
POLYLINE
  5
344
  8
OBJ02
 66
     1
 10
0.0
 20
0.0
 30
0.0
 70
     1
  0
VERTEX
  5
97F
  8
OBJ02
 10
390.38623135
 20
55.605068920000001
 30
0.0
 42
0.36021542
  0
VERTEX
  5
980
  8
OBJ02
 10
392.85924170499999
 20
55.03164881
 30
0.0
 42
0.36021542
  0
VERTEX
  5
981
  8
OBJ02
 10
393.88431183500001
 20
57.35410916
 30
0.0
 42
-0.02785095
  0
VERTEX
  5
982
  8
OBJ02
 10
392.13527159500001
 20
64.850206720000003
 30
0.0
 42
-0.06451473
  0
VERTEX
  5
983
  8
OBJ02
 10
384.63917402999999
 20
107.32814209
 30
0.0
 42
-0.04152318
  0
VERTEX
  5
984
  8
OBJ02
 10
385.38878378999999
 20
142.56024331
 30
0.0
 42
0.39214619
  0
VERTEX
  5
985
  8
OBJ02
 10
383.63974354499999
 20
144.30884087000001
 30
0.0
 42
0.03624079
  0
VERTEX
  5
986
  8
OBJ02
 10
375.39403622499998
 20
143.55923111499999
 30
0.0
 42
0.31209416
  0
VERTEX
  5
987
  8
OBJ02
 10
373.89481671499999
 20
141.06058111499999
 30
0.0
 42
0.0221774
  0
VERTEX
  5
988
  8
OBJ02
 10
374.144637445
 20
119.071929895
 30
0.0
 42
0.05044455
  0
VERTEX
  5
989
  8
OBJ02
 10
378.89211671499999
 20
89.337507939999995
 30
0.0
 42
0.06079098
  0
VERTEX
  5
98A
  8
OBJ02
 10
390.38623135
 20
55.605068920000001
 30
0.0
  0
SEQEND
  5
98B
  8
OBJ02
  0
POLYLINE
  5
352
  8
OBJ02
 66
     1
 10
0.0
 20
0.0
 30
0.0
 70
     1
  0
VERTEX
  5
98C
  8
OBJ02
 10
389.63662159500001
 20
34.366027455000001
 30
0.0
 42
0.31501815
  0
VERTEX
  5
98D
  8
OBJ02
 10
392.13463959500001
 20
34.4794336
 30
0.0
 42
0.31501815
  0
VERTEX
  5
98E
  8
OBJ02
 10
392.88488135
 20
36.864825015000001
 30
0.0
 42
-0.00412707
  0
VERTEX
  5
98F
  8
OBJ02
 10
385.38878378999999
 20
52.356661600000002
 30
0.0
 42
-0.03443671
  0
VERTEX
  5
990
  8
OBJ02
 10
381.14094598499997
 20
61.851767700000003
 30
0.0
 42
-0.05938219
  0
VERTEX
  5
991
  8
OBJ02
 10
372.89523866500002
 20
87.838288430000006
 30
0.0
 42
-0.02805684
  0
VERTEX
  5
992
  8
OBJ02
 10
367.647970375
 20
115.823670135
 30
0.0
 42
0.27439039
  0
VERTEX
  5
993
  8
OBJ02
 10
365.39914110500001
 20
117.32288964999999
 30
0.0
 42
0.05588837
  0
VERTEX
  5
994
  8
OBJ02
 10
356.90361305499999
 20
116.32345916
 30
0.0
 42
0.3267537
  0
VERTEX
  5
995
  8
OBJ02
 10
355.65421427500002
 20
114.324450625
 30
0.0
 42
0.02289017
  0
VERTEX
  5
996
  8
OBJ02
 10
356.40382403000001
 20
109.07718233
 30
0.0
 42
0.04015712
  0
VERTEX
  5
997
  8
OBJ02
 10
366.39871915499998
 20
76.344173795000003
 30
0.0
 42
0.05413732
  0
VERTEX
  5
998
  8
OBJ02
 10
377.89268622499998
 20
52.106840869999999
 30
0.0
 42
0.06632439
  0
VERTEX
  5
999
  8
OBJ02
 10
389.63662159500001
 20
34.366027455000001
 30
0.0
  0
SEQEND
  5
99A
  8
OBJ02
  0
POLYLINE
  5
362
  8
OBJ02
 66
     1
 10
0.0
 20
0.0
 30
0.0
 70
     1
  0
VERTEX
  5
99B
  8
OBJ02
 10
257.98103637999998
 20
238.111864435
 30
0.0
 42
0.05995443
  0
VERTEX
  5
99C
  8
OBJ02
 10
256.33149692000001
 20
237.77140174499999
 30
0.0
 42
0.0242195
  0
VERTEX
  5
99D
  8
OBJ02
 10
252.45847891
 20
236.26146281999999
 30
0.0
 42
0.18999839
  0
VERTEX
  5
99E
  8
OBJ02
 10
248.32698035000001
 20
232.04407094000001
 30
0.0
 42
0.15728058
  0
VERTEX
  5
99F
  8
OBJ02
 10
247.70996671500001
 20
225.01731648000001
 30
0.0
 42
0.15663096
  0
VERTEX
  5
9A0
  8
OBJ02
 10
251.32895135000001
 20
218.91310261999999
 30
0.0
 42
0.21043872
  0
VERTEX
  5
9A1
  8
OBJ02
 10
256.45590573999999
 20
217.27036526000001
 30
0.0
 42
0.01651191
  0
VERTEX
  5
9A2
  8
OBJ02
 10
260.89558278999999
 20
217.88591424000001
 30
0.0
 42
0.02572702
  0
VERTEX
  5
9A3
  8
OBJ02
 10
263.70262524999998
 20
218.52020672
 30
0.0
 42
0.0080511
  0
VERTEX
  5
9A4
  8
OBJ02
 10
272.83500182500001
 20
221.24320707999999
 30
0.0
 42
0.014185
  0
VERTEX
  5
9A5
  8
OBJ02
 10
277.94521062000001
 20
223.01786526000001
 30
0.0
 42
0.01601459
  0
VERTEX
  5
9A6
  8
OBJ02
 10
286.00613542500002
 20
226.37516854
 30
0.0
 42
0.01126777
  0
VERTEX
  5
9A7
  8
OBJ02
 10
297.18421061999999
 20
231.76380428499999
 30
0.0
 42
0.01564615
  0
VERTEX
  5
9A8
  8
OBJ02
 10
303.67789352
 20
235.33688328
 30
0.0
 42
0.0169972
  0
VERTEX
  5
9A9
  8
OBJ02
 10
309.42837768999999
 20
239.00904818500001
 30
0.0
 42
0.04580683
  0
VERTEX
  5
9AA
  8
OBJ02
 10
311.38441583000002
 20
240.63613308999999
 30
0.0
 42
0.0678279
  0
VERTEX
  5
9AB
  8
OBJ02
 10
312.42681671499997
 20
242.00748720999999
 30
0.0
 42
0.26581593
  0
VERTEX
  5
9AC
  8
OBJ02
 10
312.41726182000002
 20
243.87569207999999
 30
0.0
 42
0.22369136
  0
VERTEX
  5
9AD
  8
OBJ02
 10
310.62758802000002
 20
245.11571463499999
 30
0.0
 42
0.12894944
  0
VERTEX
  5
9AE
  8
OBJ02
 10
304.05745677499999
 20
244.51821985000001
 30
0.0
 42
-0.0558333
  0
VERTEX
  5
9AF
  8
OBJ02
 10
289.43873501000002
 20
241.00849940500001
 30
0.0
 42
-0.00140168
  0
VERTEX
  5
9B0
  8
OBJ02
 10
271.99821012500001
 20
238.88305371499999
 30
0.0
 42
-0.00690234
  0
VERTEX
  5
9B1
  8
OBJ02
 10
268.44966183499997
 20
238.51029209000001
 30
0.0
 42
-0.02549685
  0
VERTEX
  5
9B2
  8
OBJ02
 10
263.40389081000001
 20
238.30898397000001
 30
0.0
 42
0.02372504
  0
VERTEX
  5
9B3
  8
OBJ02
 10
257.98103637999998
 20
238.111864435
 30
0.0
  0
SEQEND
  5
9B4
  8
OBJ02
  0
POLYLINE
  5
37D
  8
OBJ02
 66
     1
 10
0.0
 20
0.0
 30
0.0
 70
     1
  0
VERTEX
  5
9B5
  8
OBJ02
 10
260.45333256999999
 20
209.27551159999999
 30
0.0
 42
0.0026926
  0
VERTEX
  5
9B6
  8
OBJ02
 10
271.44810086000001
 20
212.77270672
 30
0.0
 42
0.01648086
  0
VERTEX
  5
9B7
  8
OBJ02
 10
288.78402423
 20
220.31453895499999
 30
0.0
 42
-0.31354729
  0
VERTEX
  5
9B8
  8
OBJ02
 10
291.48335135500002
 20
219.71021690000001
 30
0.0
 42
-0.31354729
  0
VERTEX
  5
9B9
  8
OBJ02
 10
291.856181225
 20
216.96931011999999
 30
0.0
 42
-0.10532183
  0
VERTEX
  5
9BA
  8
OBJ02
 10
281.942637445
 20
205.02723111500001
 30
0.0
 42
-0.02122504
  0
VERTEX
  5
9BB
  8
OBJ02
 10
268.44966183499997
 20
197.78051160000001
 30
0.0
 42
-0.04190966
  0
VERTEX
  5
9BC
  8
OBJ02
 10
254.67804863500001
 20
192.21963575999999
 30
0.0
 42
-0.38676795
  0
VERTEX
  5
9BD
  8
OBJ02
 10
245.46113744499999
 20
197.78051160000001
 30
0.0
 42
-0.38912592
  0
VERTEX
  5
9BE
  8
OBJ02
 10
249.95879598499999
 20
206.526450625
 30
0.0
 42
-0.00548822
  0
VERTEX
  5
9BF
  8
OBJ02
 10
260.45333256999999
 20
209.27551159999999
 30
0.0
  0
SEQEND
  5
9C0
  8
OBJ02
  0
POLYLINE
  5
38A
  8
OBJ02
 66
     1
 10
0.0
 20
0.0
 30
0.0
 70
     1
  0
VERTEX
  5
9C1
  8
OBJ02
 10
243.71253988500001
 20
149.55610916000001
 30
0.0
 42
0.02678518
  0
VERTEX
  5
9C2
  8
OBJ02
 10
268.44966183499997
 20
163.54931647999999
 30
0.0
 42
-0.03767697
  0
VERTEX
  5
9C3
  8
OBJ02
 10
282.44286915499998
 20
173.04338964999999
 30
0.0
 42
-0.00186239
  0
VERTEX
  5
9C4
  8
OBJ02
 10
304.43093012999998
 20
190.03503599000001
 30
0.0
 42
0.0474988
  0
VERTEX
  5
9C5
  8
OBJ02
 10
331.41688134999998
 20
218.019975015
 30
0.0
 42
0.03881818
  0
VERTEX
  5
9C6
  8
OBJ02
 10
349.90730452000003
 20
243.00795062500001
 30
0.0
 42
-0.2037326
  0
VERTEX
  5
9C7
  8
OBJ02
 10
351.38002317500002
 20
244.12081739999999
 30
0.0
 42
-0.2037326
  0
VERTEX
  5
9C8
  8
OBJ02
 10
353.20327957500001
 20
243.832531405
 30
0.0
 42
-0.2037326
  0
VERTEX
  5
9C9
  8
OBJ02
 10
354.26081608999999
 20
242.319590815
 30
0.0
 42
-0.2037326
  0
VERTEX
  5
9CA
  8
OBJ02
 10
353.90517403000001
 20
240.5082677
 30
0.0
 42
0.00391426
  0
VERTEX
  5
9CB
  8
OBJ02
 10
346.15925573999999
 20
226.51653598999999
 30
0.0
 42
-0.03892132
  0
VERTEX
  5
9CC
  8
OBJ02
 10
327.91865330000002
 20
199.279731115
 30
0.0
 42
-0.02717072
  0
VERTEX
  5
9CD
  8
OBJ02
 10
305.18053988499997
 20
173.04338964999999
 30
0.0
 42
-0.0331126
  0
VERTEX
  5
9CE
  8
OBJ02
 10
278.69482037500001
 20
149.55610916000001
 30
0.0
 42
-0.0515874
  0
VERTEX
  5
9CF
  8
OBJ02
 10
253.20808866499999
 20
132.31508477
 30
0.0
 42
-0.32025419
  0
VERTEX
  5
9D0
  8
OBJ02
 10
241.71308866499999
 20
136.56292257499999
 30
0.0
 42
-0.40879534
  0
VERTEX
  5
9D1
  8
OBJ02
 10
243.71253988500001
 20
149.55610916000001
 30
0.0
  0
SEQEND
  5
9D2
  8
OBJ02
  0
POLYLINE
  5
39D
  8
OBJ02
 66
     1
 10
0.0
 20
0.0
 30
0.0
 70
     1
  0
VERTEX
  5
9D3
  8
OBJ02
 10
308.23171982500003
 20
139.55001247499999
 30
0.0
 42
0.27840688
  0
VERTEX
  5
9D4
  8
OBJ02
 10
312.31462587999999
 20
133.00232405
 30
0.0
 42
0.27840688
  0
VERTEX
  5
9D5
  8
OBJ02
 10
320.010503465
 20
133.56429714999999
 30
0.0
 42
0.09359677
  0
VERTEX
  5
9D6
  8
OBJ02
 10
343.66045817999998
 20
163.29846282
 30
0.0
 42
0.02827123
  0
VERTEX
  5
9D7
  8
OBJ02
 10
358.15301183499997
 20
202.27817013500001
 30
0.0
 42
0.01981301
  0
VERTEX
  5
9D8
  8
OBJ02
 10
370.81589318499999
 20
245.62822001000001
 30
0.0
 42
0.37638506
  0
VERTEX
  5
9D9
  8
OBJ02
 10
369.22439609000003
 20
249.39915743500001
 30
0.0
 42
0.37638506
  0
VERTEX
  5
9DA
  8
OBJ02
 10
365.27803206499999
 20
248.31331994000001
 30
0.0
 42
-0.04328025
  0
VERTEX
  5
9DB
  8
OBJ02
 10
339.16279964
 20
200.529572575
 30
0.0
 42
0.08353683
  0
VERTEX
  5
9DC
  8
OBJ02
 10
315.42525574000001
 20
166.547755505
 30
0.0
 42
0.0881265
  0
VERTEX
  5
9DD
  8
OBJ02
 10
308.23171982500003
 20
139.55001247499999
 30
0.0
  0
SEQEND
  5
9DE
  8
OBJ02
  0
POLYLINE
  5
3AA
  8
OBJ02
 66
     1
 10
0.0
 20
0.0
 30
0.0
 70
     1
  0
VERTEX
  5
9DF
  8
OBJ02
 10
134.34821868500001
 20
172.485534495
 30
0.0
 42
-0.02717072
  0
VERTEX
  5
9E0
  8
OBJ02
 10
111.61010527000001
 20
198.72187596000001
 30
0.0
 42
-0.03892132
  0
VERTEX
  5
9E1
  8
OBJ02
 10
93.369502835000006
 20
225.95868084
 30
0.0
 42
0.00391426
  0
VERTEX
  5
9E2
  8
OBJ02
 10
85.623584539999996
 20
239.95041254500001
 30
0.0
 42
-0.2037326
  0
VERTEX
  5
9E3
  8
OBJ02
 10
85.267942485000006
 20
241.76173566
 30
0.0
 42
-0.2037326
  0
VERTEX
  5
9E4
  8
OBJ02
 10
86.325479000000001
 20
243.27467625
 30
0.0
 42
-0.2037326
  0
VERTEX
  5
9E5
  8
OBJ02
 10
88.148735395000003
 20
243.56296225
 30
0.0
 42
-0.2037326
  0
VERTEX
  5
9E6
  8
OBJ02
 10
89.621454049999997
 20
242.45009547000001
 30
0.0
 42
0.03881818
  0
VERTEX
  5
9E7
  8
OBJ02
 10
108.111877225
 20
217.46211986500001
 30
0.0
 42
0.0474988
  0
VERTEX
  5
9E8
  8
OBJ02
 10
135.097828445
 20
189.4771808399999
 30
0.0
 42
-0.00186239
  0
VERTEX
  5
9E9
  8
OBJ02
 10
157.08588942
 20
172.485534495
 30
0.0
 42
-0.03767697
  0
VERTEX
  5
9EA
  8
OBJ02
 10
171.07909673500001
 20
162.99146132499999
 30
0.0
 42
0.02678518
  0
VERTEX
  5
9EB
  8
OBJ02
 10
195.816218685
 20
148.99825401000001
 30
0.0
 42
-0.40879534
  0
VERTEX
  5
9EC
  8
OBJ02
 10
197.81566990499999
 20
136.00506742499999
 30
0.0
 42
-0.32025419
  0
VERTEX
  5
9ED
  8
OBJ02
 10
186.32066990499999
 20
131.75722962
 30
0.0
 42
-0.0515874
  0
VERTEX
  5
9EE
  8
OBJ02
 10
160.83393820000001
 20
148.99825401000001
 30
0.0
 42
-0.0331126
  0
VERTEX
  5
9EF
  8
OBJ02
 10
134.34821868500001
 20
172.485534495
 30
0.0
  0
SEQEND
  5
9F0
  8
OBJ02
  0
POLYLINE
  5
3BD
  8
OBJ02
 66
     1
 10
0.0
 20
0.0
 30
0.0
 70
     1
  0
VERTEX
  5
9F1
  8
OBJ02
 10
121.604852835
 20
213.71407108
 30
0.0
 42
0.02521587
  0
VERTEX
  5
9F2
  8
OBJ02
 10
136.92430375999999
 20
198.089429585
 30
0.0
 42
0.12572803
  0
VERTEX
  5
9F3
  8
OBJ02
 10
140.84532844500001
 20
195.97429059500001
 30
0.0
 42
0.21490203
  0
VERTEX
  5
9F4
  8
OBJ02
 10
142.76170105
 20
196.32066173499999
 30
0.0
 42
0.12795529
  0
VERTEX
  5
9F5
  8
OBJ02
 10
144.84275527
 20
198.72187596000001
 30
0.0
 42
0.17796873
  0
VERTEX
  5
9F6
  8
OBJ02
 10
145.35880589999999
 20
203.51218423500001
 30
0.0
 42
0.06914614
  0
VERTEX
  5
9F7
  8
OBJ02
 10
140.84532844500001
 20
214.71453449500001
 30
0.0
 42
0.02876839
  0
VERTEX
  5
9F8
  8
OBJ02
 10
132.64314888999999
 20
227.27201077999999
 30
0.0
 42
0.08210778
  0
VERTEX
  5
9F9
  8
OBJ02
 10
128.85112966
 20
230.95509547
 30
0.0
 42
0.00004987
  0
VERTEX
  5
9FA
  8
OBJ02
 10
123.666743725
 20
234.55452432499999
 30
0.0
 42
0.00001657
  0
VERTEX
  5
9FB
  8
OBJ02
 10
108.06664238
 20
245.38233102500001
 30
0.0
 42
0.00003057
  0
VERTEX
  5
9FC
  8
OBJ02
 10
97.506434150000004
 20
252.71054502000001
 30
0.0
 42
0.00015102
  0
VERTEX
  5
9FD
  8
OBJ02
 10
95.368511369999993
 20
254.19299791
 30
0.0
 42
0.3464823
  0
VERTEX
  5
9FE
  8
OBJ02
 10
92.794290625000002
 20
254.03554528000001
 30
0.0
 42
0.27400652
  0
VERTEX
  5
9FF
  8
OBJ02
 10
91.846096114999995
 20
251.05235286499999
 30
0.0
 42
0.09770726
  0
VERTEX
  5
A00
  8
OBJ02
 10
93.352000965000016
 20
247.697649705
 30
0.0
 42
0.02125112
  0
VERTEX
  5
A01
  8
OBJ02
 10
103.614218685
 20
234.45376620499999
 30
0.0
 42
0.00320403
  0
VERTEX
  5
A02
  8
OBJ02
 10
111.688564175
 20
225.02421871499999
 30
0.0
 42
0.00264434
  0
VERTEX
  5
A03
  8
OBJ02
 10
121.604852835
 20
213.71407108
 30
0.0
  0
SEQEND
  5
A04
  8
OBJ02
  0
POLYLINE
  5
3D2
  8
OBJ02
 66
     1
 10
0.0
 20
0.0
 30
0.0
 70
     1
  0
VERTEX
  5
A05
  8
OBJ02
 10
157.58612112500001
 20
204.46937596000001
 30
0.0
 42
-0.10532183
  0
VERTEX
  5
A06
  8
OBJ02
 10
147.67257735000001
 20
216.41145496999999
 30
0.0
 42
-0.31354729
  0
VERTEX
  5
A07
  8
OBJ02
 10
148.04540721999999
 20
219.15236174500001
 30
0.0
 42
-0.31354729
  0
VERTEX
  5
A08
  8
OBJ02
 10
150.74473434500001
 20
219.75668379999999
 30
0.0
 42
0.01648086
  0
VERTEX
  5
A09
  8
OBJ02
 10
168.08065771
 20
212.21485157000001
 30
0.0
 42
0.0026926
  0
VERTEX
  5
A0A
  8
OBJ02
 10
179.075426005
 20
208.71765644999999
 30
0.0
 42
-0.00548822
  0
VERTEX
  5
A0B
  8
OBJ02
 10
189.56996258999999
 20
205.96859547
 30
0.0
 42
-0.38912592
  0
VERTEX
  5
A0C
  8
OBJ02
 10
194.06762112499999
 20
197.22265644999999
 30
0.0
 42
-0.38676795
  0
VERTEX
  5
A0D
  8
OBJ02
 10
184.850709935
 20
191.66178060499999
 30
0.0
 42
-0.04190966
  0
VERTEX
  5
A0E
  8
OBJ02
 10
171.07909673500001
 20
197.22265644999999
 30
0.0
 42
-0.02122504
  0
VERTEX
  5
A0F
  8
OBJ02
 10
157.58612112500001
 20
204.46937596000001
 30
0.0
  0
SEQEND
  5
A10
  8
OBJ02
  0
POLYLINE
  5
3DF
  8
OBJ02
 66
     1
 10
0.0
 20
0.0
 30
0.0
 70
     1
  0
VERTEX
  5
A11
  8
OBJ02
 10
128.14434274499999
 20
240.07827793999999
 30
0.0
 42
0.04580683
  0
VERTEX
  5
A12
  8
OBJ02
 10
130.10038087999999
 20
238.45119303499999
 30
0.0
 42
0.0169972
  0
VERTEX
  5
A13
  8
OBJ02
 10
135.85086505500001
 20
234.77902813
 30
0.0
 42
0.01564615
  0
VERTEX
  5
A14
  8
OBJ02
 10
142.344547955
 20
231.20594912999999
 30
0.0
 42
0.01126777
  0
VERTEX
  5
A15
  8
OBJ02
 10
153.52262314500001
 20
225.81731339000001
 30
0.0
 42
0.01601459
  0
VERTEX
  5
A16
  8
OBJ02
 10
161.583547955
 20
222.46001010500001
 30
0.0
 42
0.014185
  0
VERTEX
  5
A17
  8
OBJ02
 10
166.693756745
 20
220.68535193
 30
0.0
 42
0.0080511
  0
VERTEX
  5
A18
  8
OBJ02
 10
175.82613332
 20
217.96235157000001
 30
0.0
 42
0.02572702
  0
VERTEX
  5
A19
  8
OBJ02
 10
178.63317578499999
 20
217.32805908500001
 30
0.0
 42
0.01651191
  0
VERTEX
  5
A1A
  8
OBJ02
 10
183.07285283499999
 20
216.71251010500001
 30
0.0
 42
0.21043872
  0
VERTEX
  5
A1B
  8
OBJ02
 10
188.199807225
 20
218.35524746999999
 30
0.0
 42
0.15663096
  0
VERTEX
  5
A1C
  8
OBJ02
 10
191.818791855
 20
224.45946132500001
 30
0.0
 42
0.15728058
  0
VERTEX
  5
A1D
  8
OBJ02
 10
191.20177821999999
 20
231.48621578500001
 30
0.0
 42
0.18999839
  0
VERTEX
  5
A1E
  8
OBJ02
 10
187.07027966000001
 20
235.70360767
 30
0.0
 42
0.0242195
  0
VERTEX
  5
A1F
  8
OBJ02
 10
183.19726165500001
 20
237.213546595
 30
0.0
 42
0.05995443
  0
VERTEX
  5
A20
  8
OBJ02
 10
181.54772219500001
 20
237.55400928500001
 30
0.0
 42
0.02372504
  0
VERTEX
  5
A21
  8
OBJ02
 10
176.12486776
 20
237.75112881499999
 30
0.0
 42
-0.02549685
  0
VERTEX
  5
A22
  8
OBJ02
 10
171.07909673500001
 20
237.95243693500001
 30
0.0
 42
-0.00690234
  0
VERTEX
  5
A23
  8
OBJ02
 10
167.53054844499999
 20
238.32519855999999
 30
0.0
 42
-0.00140168
  0
VERTEX
  5
A24
  8
OBJ02
 10
150.090023565
 20
240.45064425499999
 30
0.0
 42
-0.0558333
  0
VERTEX
  5
A25
  8
OBJ02
 10
135.47130179499999
 20
243.96036470000001
 30
0.0
 42
0.12894944
  0
VERTEX
  5
A26
  8
OBJ02
 10
128.90117054999999
 20
244.55785947999999
 30
0.0
 42
0.22369136
  0
VERTEX
  5
A27
  8
OBJ02
 10
127.11149675
 20
243.31783693
 30
0.0
 42
0.26581593
  0
VERTEX
  5
A28
  8
OBJ02
 10
127.10194185500001
 20
241.44963206
 30
0.0
 42
0.0678279
  0
VERTEX
  5
A29
  8
OBJ02
 10
128.14434274499999
 20
240.07827793999999
 30
0.0
  0
SEQEND
  5
A2A
  8
OBJ02
  0
POLYLINE
  5
3FA
  8
OBJ02
 66
     1
 10
0.0
 20
0.0
 30
0.0
 70
     1
  0
VERTEX
  5
A2B
  8
OBJ02
 10
191.06918210000001
 20
44.302708884999987
 30
0.0
 42
-0.04081657
  0
VERTEX
  5
A2C
  8
OBJ02
 10
176.07698697999999
 20
57.79568449500001
 30
0.0
 42
-0.02018002
  0
VERTEX
  5
A2D
  8
OBJ02
 10
162.08377966
 20
72.787879619999998
 30
0.0
 42
-0.00508104
  0
VERTEX
  5
A2E
  8
OBJ02
 10
147.09158454000001
 20
90.278872300000003
 30
0.0
 42
-0.03995948
  0
VERTEX
  5
A2F
  8
OBJ02
 10
128.101519905
 20
118.51407474
 30
0.0
 42
-0.35226993
  0
VERTEX
  5
A30
  8
OBJ02
 10
128.66910692499999
 20
121.64566048499999
 30
0.0
 42
-0.35226993
  0
VERTEX
  5
A31
  8
OBJ02
 10
131.84956868500001
 20
121.76248206
 30
0.0
 42
-0.01544576
  0
VERTEX
  5
A32
  8
OBJ02
 10
145.84174307500001
 20
104.52145767
 30
0.0
 42
0.01037489
  0
VERTEX
  5
A33
  8
OBJ02
 10
160.83393820000001
 20
88.779652789999986
 30
0.0
 42
0.00632953
  0
VERTEX
  5
A34
  8
OBJ02
 10
180.57464551499999
 20
71.288660105000005
 30
0.0
 42
0.00179301
  0
VERTEX
  5
A35
  8
OBJ02
 10
194.06762112499999
 20
60.794123519999999
 30
0.0
 42
-0.04405082
  0
VERTEX
  5
A36
  8
OBJ02
 10
200.313877225
 20
55.79682351999999
 30
0.0
 42
-0.40714039
  0
VERTEX
  5
A37
  8
OBJ02
 10
198.314426005
 20
45.052318644999993
 30
0.0
 42
-0.24847629
  0
VERTEX
  5
A38
  8
OBJ02
 10
191.06918210000001
 20
44.302708884999987
 30
0.0
  0
SEQEND
  5
A39
  8
OBJ02
  0
POLYLINE
  5
40A
  8
OBJ02
 66
     1
 10
0.0
 20
0.0
 30
0.0
 70
     1
  0
VERTEX
  5
A3A
  8
OBJ02
 10
181.82301136999999
 20
81.283555230000005
 30
0.0
 42
0.0844086
  0
VERTEX
  5
A3B
  8
OBJ02
 10
190.568950395
 20
75.036708884999996
 30
0.0
 42
0.28041227
  0
VERTEX
  5
A3C
  8
OBJ02
 10
199.31488941999999
 20
77.785327179999996
 30
0.0
 42
0.40780193
  0
VERTEX
  5
A3D
  8
OBJ02
 10
198.314426005
 20
87.780074740000003
 30
0.0
 42
0.02346671
  0
VERTEX
  5
A3E
  8
OBJ02
 10
177.57620649
 20
101.52301864499999
 30
0.0
 42
-0.01820813
  0
VERTEX
  5
A3F
  8
OBJ02
 10
160.83393820000001
 20
115.015994255
 30
0.0
 42
0.01256514
  0
VERTEX
  5
A40
  8
OBJ02
 10
142.344547955
 20
132.25701864499999
 30
0.0
 42
0.38641759
  0
VERTEX
  5
A41
  8
OBJ02
 10
137.22382293000001
 20
131.89194444500001
 30
0.0
 42
0.38641759
  0
VERTEX
  5
A42
  8
OBJ02
 10
137.09727966
 20
126.75978206000001
 30
0.0
 42
0.02677421
  0
VERTEX
  5
A43
  8
OBJ02
 10
149.09103576000001
 20
112.51719669000001
 30
0.0
 42
0.01899863
  0
VERTEX
  5
A44
  8
OBJ02
 10
163.33362112500001
 20
97.525001570000001
 30
0.0
 42
0.01665519
  0
VERTEX
  5
A45
  8
OBJ02
 10
181.82301136999999
 20
81.283555230000005
 30
0.0
  0
SEQEND
  5
A46
  8
OBJ02
  0
POLYLINE
  5
418
  8
OBJ02
 66
     1
 10
0.0
 20
0.0
 30
0.0
 70
     1
  0
VERTEX
  5
A47
  8
OBJ02
 10
154.83706015000001
 20
130.50783084
 30
0.0
 42
-0.01610195
  0
VERTEX
  5
A48
  8
OBJ02
 10
137.84688942
 20
147.24965645
 30
0.0
 42
-0.09343238
  0
VERTEX
  5
A49
  8
OBJ02
 10
136.09681624999999
 20
150.24809547000001
 30
0.0
 42
-0.32028952
  0
VERTEX
  5
A4A
  8
OBJ02
 10
137.75756731000001
 20
154.26242060000001
 30
0.0
 42
-0.32028952
  0
VERTEX
  5
A4B
  8
OBJ02
 10
142.09369429500001
 20
153.99614425499999
 30
0.0
 42
-0.00195373
  0
VERTEX
  5
A4C
  8
OBJ02
 10
158.33573088
 20
141.00192473999999
 30
0.0
 42
0.00409606
  0
VERTEX
  5
A4D
  8
OBJ02
 10
175.82613332
 20
129.008611325
 30
0.0
 42
0.00632359
  0
VERTEX
  5
A4E
  8
OBJ02
 10
191.06918210000001
 20
120.263262545
 30
0.0
 42
-0.04216006
  0
VERTEX
  5
A4F
  8
OBJ02
 10
198.06504795500001
 20
116.26524547
 30
0.0
 42
-0.40164752
  0
VERTEX
  5
A50
  8
OBJ02
 10
197.81566990499999
 20
105.770708885
 30
0.0
 42
-0.25816008
  0
VERTEX
  5
A51
  8
OBJ02
 10
189.06973088000001
 20
104.02166864500001
 30
0.0
 42
-0.06128981
  0
VERTEX
  5
A52
  8
OBJ02
 10
171.07909673500001
 20
116.76503449499999
 30
0.0
 42
0.00966672
  0
VERTEX
  5
A53
  8
OBJ02
 10
154.83706015000001
 20
130.50783084
 30
0.0
  0
SEQEND
  5
A54
  8
OBJ02
  0
POLYLINE
  5
427
  8
OBJ02
 66
     1
 10
0.0
 20
0.0
 30
0.0
 70
     1
  0
VERTEX
  5
A55
  8
OBJ02
 10
168.83026746499999
 20
173.48599791000001
 30
0.0
 42
0.03609453
  0
VERTEX
  5
A56
  8
OBJ02
 10
178.748694035
 20
165.78538169000001
 30
0.0
 42
0.06180051
  0
VERTEX
  5
A57
  8
OBJ02
 10
185.3216821
 20
162.49122962000001
 30
0.0
 42
0.15072553
  0
VERTEX
  5
A58
  8
OBJ02
 10
189.70538702499999
 20
162.30728518999999
 30
0.0
 42
0.1134552
  0
VERTEX
  5
A59
  8
OBJ02
 10
194.81723088000001
 20
164.98943693499999
 30
0.0
 42
0.1759261
  0
VERTEX
  5
A5A
  8
OBJ02
 10
198.38821503
 20
171.32350181000001
 30
0.0
 42
0.22160363
  0
VERTEX
  5
A5B
  8
OBJ02
 10
196.81520649000001
 20
176.983193035
 30
0.0
 42
0.05505239
  0
VERTEX
  5
A5C
  8
OBJ02
 10
192.70491273499999
 20
180.83970411000001
 30
0.0
 42
0.07009173
  0
VERTEX
  5
A5D
  8
OBJ02
 10
188.82035283499999
 20
182.98007107999999
 30
0.0
 42
0.02516717
  0
VERTEX
  5
A5E
  8
OBJ02
 10
181.792396655
 20
185.25713008
 30
0.0
 42
-0.03539696
  0
VERTEX
  5
A5F
  8
OBJ02
 10
176.82659673500001
 20
186.97897352000001
 30
0.0
 42
-0.00592493
  0
VERTEX
  5
A60
  8
OBJ02
 10
172.78661418999999
 20
188.76561588000001
 30
0.0
 42
-0.00318433
  0
VERTEX
  5
A61
  8
OBJ02
 10
165.33159673500001
 20
192.22624181500001
 30
0.0
 42
-0.04742033
  0
VERTEX
  5
A62
  8
OBJ02
 10
160.24463108
 20
195.24612894000001
 30
0.0
 42
0.06763394
  0
VERTEX
  5
A63
  8
OBJ02
 10
156.58713331999999
 20
197.22265644999999
 30
0.0
 42
0.20190421
  0
VERTEX
  5
A64
  8
OBJ02
 10
154.56003627499999
 20
197.145452285
 30
0.0
 42
0.16870933
  0
VERTEX
  5
A65
  8
OBJ02
 10
152.83908453999999
 20
195.47405888500001
 30
0.0
 42
0.22684294
  0
VERTEX
  5
A66
  8
OBJ02
 10
152.77815813000001
 20
192.36585328499999
 30
0.0
 42
0.07195903
  0
VERTEX
  5
A67
  8
OBJ02
 10
157.835499175
 20
184.47929059500001
 30
0.0
 42
0.0178989
  0
VERTEX
  5
A68
  8
OBJ02
 10
162.344359105
 20
179.63617146999999
 30
0.0
 42
0.01324886
  0
VERTEX
  5
A69
  8
OBJ02
 10
168.83026746499999
 20
173.48599791000001
 30
0.0
  0
SEQEND
  5
A6A
  8
OBJ02
  0
POLYLINE
  5
43E
  8
OBJ02
 66
     1
 10
0.0
 20
0.0
 30
0.0
 70
     1
  0
VERTEX
  5
A6B
  8
OBJ02
 10
248.45957647
 20
120.8211177
 30
0.0
 42
0.00632359
  0
VERTEX
  5
A6C
  8
OBJ02
 10
263.70262524999998
 20
129.56646648
 30
0.0
 42
0.00409606
  0
VERTEX
  5
A6D
  8
OBJ02
 10
281.19302769000001
 20
141.55977989499999
 30
0.0
 42
-0.00195373
  0
VERTEX
  5
A6E
  8
OBJ02
 10
297.435064275
 20
154.55399940500001
 30
0.0
 42
-0.32028952
  0
VERTEX
  5
A6F
  8
OBJ02
 10
301.77119126000002
 20
154.82027575000001
 30
0.0
 42
-0.32028952
  0
VERTEX
  5
A70
  8
OBJ02
 10
303.43194232500002
 20
150.80595062500001
 30
0.0
 42
-0.09343238
  0
VERTEX
  5
A71
  8
OBJ02
 10
301.68186915500002
 20
147.8075116
 30
0.0
 42
-0.01610195
  0
VERTEX
  5
A72
  8
OBJ02
 10
284.69169842500003
 20
131.06568598999999
 30
0.0
 42
0.00966672
  0
VERTEX
  5
A73
  8
OBJ02
 10
268.44966183499997
 20
117.32288964999999
 30
0.0
 42
-0.06128981
  0
VERTEX
  5
A74
  8
OBJ02
 10
250.45902769
 20
104.579523795
 30
0.0
 42
-0.25816008
  0
VERTEX
  5
A75
  8
OBJ02
 10
241.71308866499999
 20
106.32856404
 30
0.0
 42
-0.40164752
  0
VERTEX
  5
A76
  8
OBJ02
 10
241.46371062
 20
116.823100625
 30
0.0
 42
-0.04216006
  0
VERTEX
  5
A77
  8
OBJ02
 10
248.45957647
 20
120.8211177
 30
0.0
  0
SEQEND
  5
A78
  8
OBJ02
  0
POLYLINE
  5
44D
  8
OBJ02
 66
     1
 10
0.0
 20
0.0
 30
0.0
 70
     1
  0
VERTEX
  5
A79
  8
OBJ02
 10
245.46113744499999
 20
61.351978674999998
 30
0.0
 42
0.04405082
  0
VERTEX
  5
A7A
  8
OBJ02
 10
239.21488135000001
 20
56.354678675000002
 30
0.0
 42
0.40714039
  0
VERTEX
  5
A7B
  8
OBJ02
 10
241.21433257000001
 20
45.610173794999987
 30
0.0
 42
0.24847629
  0
VERTEX
  5
A7C
  8
OBJ02
 10
248.45957647
 20
44.86056404
 30
0.0
 42
0.04081657
  0
VERTEX
  5
A7D
  8
OBJ02
 10
263.45177159500003
 20
58.353539650000002
 30
0.0
 42
0.02018002
  0
VERTEX
  5
A7E
  8
OBJ02
 10
277.44497890999997
 20
73.345734770000007
 30
0.0
 42
0.00508104
  0
VERTEX
  5
A7F
  8
OBJ02
 10
292.43717402999999
 20
90.836727455000016
 30
0.0
 42
0.03995948
  0
VERTEX
  5
A80
  8
OBJ02
 10
311.427238665
 20
119.071929895
 30
0.0
 42
0.35226993
  0
VERTEX
  5
A81
  8
OBJ02
 10
310.85965164999999
 20
122.20351564000001
 30
0.0
 42
0.35226993
  0
VERTEX
  5
A82
  8
OBJ02
 10
307.67918988500003
 20
122.32033721000001
 30
0.0
 42
0.01544576
  0
VERTEX
  5
A83
  8
OBJ02
 10
293.68701549500003
 20
105.07931282
 30
0.0
 42
-0.01037489
  0
VERTEX
  5
A84
  8
OBJ02
 10
278.69482037500001
 20
89.337507939999995
 30
0.0
 42
-0.00632953
  0
VERTEX
  5
A85
  8
OBJ02
 10
258.95411305499999
 20
71.846515260000004
 30
0.0
 42
-0.00179301
  0
VERTEX
  5
A86
  8
OBJ02
 10
245.46113744499999
 20
61.351978674999998
 30
0.0
  0
SEQEND
  5
A87
  8
OBJ02
  0
POLYLINE
  5
45D
  8
OBJ02
 66
     1
 10
0.0
 20
0.0
 30
0.0
 70
     1
  0
VERTEX
  5
A88
  8
OBJ02
 10
241.21433257000001
 20
88.337929895000002
 30
0.0
 42
-0.02346671
  0
VERTEX
  5
A89
  8
OBJ02
 10
261.95255207999998
 20
102.080873795
 30
0.0
 42
0.01820813
  0
VERTEX
  5
A8A
  8
OBJ02
 10
278.69482037500001
 20
115.573849405
 30
0.0
 42
-0.01256514
  0
VERTEX
  5
A8B
  8
OBJ02
 10
297.18421061999999
 20
132.81487379500001
 30
0.0
 42
-0.38641759
  0
VERTEX
  5
A8C
  8
OBJ02
 10
302.30493564
 20
132.449799595
 30
0.0
 42
-0.38641759
  0
VERTEX
  5
A8D
  8
OBJ02
 10
302.43147891000001
 20
127.31763721
 30
0.0
 42
-0.02677421
  0
VERTEX
  5
A8E
  8
OBJ02
 10
290.43772281499997
 20
113.075051845
 30
0.0
 42
-0.01899863
  0
VERTEX
  5
A8F
  8
OBJ02
 10
276.195137445
 20
98.082856719999995
 30
0.0
 42
-0.01665519
  0
VERTEX
  5
A90
  8
OBJ02
 10
257.70574720500002
 20
81.841410379999985
 30
0.0
 42
-0.0844086
  0
VERTEX
  5
A91
  8
OBJ02
 10
248.95980818000001
 20
75.594564039999995
 30
0.0
 42
-0.28041227
  0
VERTEX
  5
A92
  8
OBJ02
 10
240.213869155
 20
78.343182330000005
 30
0.0
 42
-0.40780193
  0
VERTEX
  5
A93
  8
OBJ02
 10
241.21433257000001
 20
88.337929895000002
 30
0.0
  0
SEQEND
  5
A94
  8
OBJ02
  0
POLYLINE
  5
46B
  8
OBJ02
 66
     1
 10
0.0
 20
0.0
 30
0.0
 70
     1
  0
VERTEX
  5
A95
  8
OBJ02
 10
246.24643616500001
 20
18.632321099999999
 30
0.0
 42
-0.0399019
  0
VERTEX
  5
A96
  8
OBJ02
 10
244.46214964000001
 20
19.873621355000001
 30
0.0
 42
-0.07395926
  0
VERTEX
  5
A97
  8
OBJ02
 10
242.74021496
 20
21.776346920000002
 30
0.0
 42
-0.09514259
  0
VERTEX
  5
A98
  8
OBJ02
 10
241.963942325
 20
23.621670134999999
 30
0.0
 42
-0.05216813
  0
VERTEX
  5
A99
  8
OBJ02
 10
241.79663143499999
 20
25.220879870000001
 30
0.0
 42
-0.04396679
  0
VERTEX
  5
A9A
  8
OBJ02
 10
241.963942325
 20
27.119898185
 30
0.0
 42
-0.03647841
  0
VERTEX
  5
A9B
  8
OBJ02
 10
242.41995212
 20
28.915674275000001
 30
0.0
 42
-0.05128536
  0
VERTEX
  5
A9C
  8
OBJ02
 10
242.96293012999999
 20
30.11833721
 30
0.0
 42
-0.08281944
  0
VERTEX
  5
A9D
  8
OBJ02
 10
245.35104478
 20
33.001101319999997
 30
0.0
 42
-0.01085258
  0
VERTEX
  5
A9E
  8
OBJ02
 10
267.199820375
 20
51.107410379999997
 30
0.0
 42
-0.00157372
  0
VERTEX
  5
A9F
  8
OBJ02
 10
275.63439741500002
 20
57.750728840000001
 30
0.0
 42
-0.00437763
  0
VERTEX
  5
AA0
  8
OBJ02
 10
278.69482037500001
 20
60.102727455
 30
0.0
 42
-0.03646638
  0
VERTEX
  5
AA1
  8
OBJ02
 10
286.34990743499998
 20
65.048300159999997
 30
0.0
 42
-0.0550978
  0
VERTEX
  5
AA2
  8
OBJ02
 10
291.93694232500002
 20
67.348856720000001
 30
0.0
 42
-0.04749704
  0
VERTEX
  5
AA3
  8
OBJ02
 10
293.73695787000003
 20
67.686832989999999
 30
0.0
 42
-0.09183081
  0
VERTEX
  5
AA4
  8
OBJ02
 10
294.68600329999998
 20
67.598825015000003
 30
0.0
 42
-0.1281399
  0
VERTEX
  5
AA5
  8
OBJ02
 10
295.60760429999999
 20
67.058214969999995
 30
0.0
 42
-0.12215184
  0
VERTEX
  5
AA6
  8
OBJ02
 10
296.18522281499997
 20
66.099605505
 30
0.0
 42
-0.07493968
  0
VERTEX
  5
AA7
  8
OBJ02
 10
296.29569219500002
 20
65.366689414999996
 30
0.0
 42
-0.05419071
  0
VERTEX
  5
AA8
  8
OBJ02
 10
296.18522281499997
 20
64.350417699999994
 30
0.0
 42
-0.10318604
  0
VERTEX
  5
AA9
  8
OBJ02
 10
294.57478821500001
 20
60.765366554999993
 30
0.0
 42
-0.02621704
  0
VERTEX
  5
AAA
  8
OBJ02
 10
284.94107646999998
 20
48.858581115
 30
0.0
 42
-0.00391844
  0
VERTEX
  5
AAB
  8
OBJ02
 10
275.00101561499997
 20
37.983771505
 30
0.0
 42
-0.01323243
  0
VERTEX
  5
AAC
  8
OBJ02
 10
271.94833256999999
 20
34.865816479999999
 30
0.0
 42
-0.00884469
  0
VERTEX
  5
AAD
  8
OBJ02
 10
267.63240996500002
 20
30.830393860000001
 30
0.0
 42
-0.00662095
  0
VERTEX
  5
AAE
  8
OBJ02
 10
261.70317403000001
 20
25.620678675000001
 30
0.0
 42
-0.0212466
  0
VERTEX
  5
AAF
  8
OBJ02
 10
255.22227606999999
 20
20.536976970000001
 30
0.0
 42
-0.04633714
  0
VERTEX
  5
AB0
  8
OBJ02
 10
251.95824720499999
 20
18.624222575000001
 30
0.0
 42
-0.0365038
  0
VERTEX
  5
AB1
  8
OBJ02
 10
250.50100646499999
 20
18.068236675000001
 30
0.0
 42
-0.05385633
  0
VERTEX
  5
AB2
  8
OBJ02
 10
249.46003988499999
 20
17.874612819999999
 30
0.0
 42
-0.05020881
  0
VERTEX
  5
AB3
  8
OBJ02
 10
248.62979335
 20
17.894575620000001
 30
0.0
 42
-0.03494732
  0
VERTEX
  5
AB4
  8
OBJ02
 10
247.46058866499999
 20
18.124581115000002
 30
0.0
 42
-0.06608511
  0
VERTEX
  5
AB5
  8
OBJ02
 10
246.24643616500001
 20
18.632321099999999
 30
0.0
  0
SEQEND
  5
AB6
  8
OBJ02
  0
POLYLINE
  5
48E
  8
OBJ02
 66
     1
 10
0.0
 20
0.0
 30
0.0
 70
     1
  0
VERTEX
  5
AB7
  8
OBJ02
 10
250.70840573999999
 20
183.53792623499999
 30
0.0
 42
-0.02516717
  0
VERTEX
  5
AB8
  8
OBJ02
 10
257.73636191499997
 20
185.81498523499999
 30
0.0
 42
0.03539696
  0
VERTEX
  5
AB9
  8
OBJ02
 10
262.70216183500003
 20
187.53682867500001
 30
0.0
 42
0.00592493
  0
VERTEX
  5
ABA
  8
OBJ02
 10
266.74214438500002
 20
189.32347103500001
 30
0.0
 42
0.00318433
  0
VERTEX
  5
ABB
  8
OBJ02
 10
274.19716183499997
 20
192.784096965
 30
0.0
 42
0.04742033
  0
VERTEX
  5
ABC
  8
OBJ02
 10
279.28412749
 20
195.803984095
 30
0.0
 42
-0.06763394
  0
VERTEX
  5
ABD
  8
OBJ02
 10
282.94162525000002
 20
197.78051160000001
 30
0.0
 42
-0.20190421
  0
VERTEX
  5
ABE
  8
OBJ02
 10
284.96872230000002
 20
197.70330744
 30
0.0
 42
-0.16870933
  0
VERTEX
  5
ABF
  8
OBJ02
 10
286.68967402999999
 20
196.03191404
 30
0.0
 42
-0.22684294
  0
VERTEX
  5
AC0
  8
OBJ02
 10
286.75060044000003
 20
192.92370844000001
 30
0.0
 42
-0.07195903
  0
VERTEX
  5
AC1
  8
OBJ02
 10
281.69325939999999
 20
185.037145745
 30
0.0
 42
-0.0178989
  0
VERTEX
  5
AC2
  8
OBJ02
 10
277.18439946500001
 20
180.19402662499999
 30
0.0
 42
-0.01324886
  0
VERTEX
  5
AC3
  8
OBJ02
 10
270.69849110500002
 20
174.04385306500001
 30
0.0
 42
-0.03609453
  0
VERTEX
  5
AC4
  8
OBJ02
 10
260.78006454000001
 20
166.34323684
 30
0.0
 42
-0.06180051
  0
VERTEX
  5
AC5
  8
OBJ02
 10
254.20707647
 20
163.04908477000001
 30
0.0
 42
-0.15072553
  0
VERTEX
  5
AC6
  8
OBJ02
 10
249.82337154999999
 20
162.86514034499999
 30
0.0
 42
-0.1134552
  0
VERTEX
  5
AC7
  8
OBJ02
 10
244.71152769
 20
165.54729209000001
 30
0.0
 42
-0.1759261
  0
VERTEX
  5
AC8
  8
OBJ02
 10
241.14054354500001
 20
171.88135696000001
 30
0.0
 42
-0.22160363
  0
VERTEX
  5
AC9
  8
OBJ02
 10
242.71355208
 20
177.54104818499999
 30
0.0
 42
-0.05505239
  0
VERTEX
  5
ACA
  8
OBJ02
 10
246.82384583499999
 20
181.39755926000001
 30
0.0
 42
-0.07009173
  0
VERTEX
  5
ACB
  8
OBJ02
 10
250.70840573999999
 20
183.53792623499999
 30
0.0
  0
SEQEND
  5
ACC
  8
OBJ02
  0
POLYLINE
  5
4A5
  8
OBJ02
 66
     1
 10
0.0
 20
0.0
 30
0.0
 70
     1
  0
VERTEX
  5
ACD
  8
OBJ02
 10
116.62036580500001
 20
254.11279070500001
 30
0.0
 42
-0.35946637
  0
VERTEX
  5
ACE
  8
OBJ02
 10
114.76750195
 20
256.852806015
 30
0.0
 42
-0.35946637
  0
VERTEX
  5
ACF
  8
OBJ02
 10
117.107194295
 20
259.19088815499998
 30
0.0
 42
0.05826523
  0
VERTEX
  5
AD0
  8
OBJ02
 10
146.092596735
 20
261.93994913
 30
0.0
 42
0.03974909
  0
VERTEX
  5
AD1
  8
OBJ02
 10
168.08065771
 20
268.18620522999998
 30
0.0
 42
-0.04717135
  0
VERTEX
  5
AD2
  8
OBJ02
 10
177.32535283499999
 20
271.68487596
 30
0.0
 42
-0.34846621
  0
VERTEX
  5
AD3
  8
OBJ02
 10
190.06871868499999
 20
265.43714425500002
 30
0.0
 42
-0.37660097
  0
VERTEX
  5
AD4
  8
OBJ02
 10
186.32066990499999
 20
248.44697352
 30
0.0
 42
-0.13482146
  0
VERTEX
  5
AD5
  8
OBJ02
 10
176.32636503000001
 20
246.19814425499999
 30
0.0
 42
-0.032358
  0
VERTEX
  5
AD6
  8
OBJ02
 10
146.84220649
 20
248.19611986499999
 30
0.0
 42
-0.04051424
  0
VERTEX
  5
AD7
  8
OBJ02
 10
116.62036580500001
 20
254.11279070500001
 30
0.0
  0
SEQEND
  5
AD8
  8
OBJ02
  0
POLYLINE
  5
4B2
  8
OBJ02
 66
     1
 10
0.0
 20
0.0
 30
0.0
 70
     1
  0
VERTEX
  5
AD9
  8
OBJ02
 10
308.67062406999997
 20
274.82000253500001
 30
0.0
 42
0.08258063
  0
VERTEX
  5
ADA
  8
OBJ02
 10
313.48539264499999
 20
271.10639517499999
 30
0.0
 42
0.34050708
  0
VERTEX
  5
ADB
  8
OBJ02
 10
316.97205437500003
 20
271.68404206999998
 30
0.0
 42
-0.03645657
  0
VERTEX
  5
ADC
  8
OBJ02
 10
332.10564704500001
 20
284.327771595
 30
0.0
 42
-0.20072046
  0
VERTEX
  5
ADD
  8
OBJ02
 10
341.535880045
 20
285.99761410000002
 30
0.0
 42
-0.01365913
  0
VERTEX
  5
ADE
  8
OBJ02
 10
359.48239303999998
 20
281.44881712
 30
0.0
 42
0.26743495
  0
VERTEX
  5
ADF
  8
OBJ02
 10
364.48411176500002
 20
282.71045269000001
 30
0.0
 42
0.26743495
  0
VERTEX
  5
AE0
  8
OBJ02
 10
365.90188510500002
 20
287.67017378499997
 30
0.0
 42
0.03094295
  0
VERTEX
  5
AE1
  8
OBJ02
 10
363.94433106000002
 20
293.86490261
 30
0.0
  0
VERTEX
  5
AE2
  8
OBJ02
 10
343.59330847000001
 20
346.65690711500002
 30
0.0
 42
-0.29753822
  0
VERTEX
  5
AE3
  8
OBJ02
 10
346.06154161500001
 20
357.91877977000001
 30
0.0
 42
0.03487403
  0
VERTEX
  5
AE4
  8
OBJ02
 10
352.01706324999998
 20
364.77977522999998
 30
0.0
 42
0.31109865
  0
VERTEX
  5
AE5
  8
OBJ02
 10
351.57901506000002
 20
366.97648734000001
 30
0.0
 42
0.31109865
  0
VERTEX
  5
AE6
  8
OBJ02
 10
349.37041568000001
 20
367.35000986
 30
0.0
 42
0.04694483
  0
VERTEX
  5
AE7
  8
OBJ02
 10
339.92879512500002
 20
359.91154535499999
 30
0.0
 42
0.25452743
  0
VERTEX
  5
AE8
  8
OBJ02
 10
337.498675865
 20
346.04127971499997
 30
0.0
  0
VERTEX
  5
AE9
  8
OBJ02
 10
354.33787029500002
 20
296.07010459000003
 30
0.0
 42
-0.31503627
  0
VERTEX
  5
AEA
  8
OBJ02
 10
353.72807189000002
 20
293.27117622499998
 30
0.0
 42
-0.31503627
  0
VERTEX
  5
AEB
  8
OBJ02
 10
350.889744565
 20
292.88419809999999
 30
0.0
 42
-0.03115372
  0
VERTEX
  5
AEC
  8
OBJ02
 10
336.76779085499999
 20
299.42766817
 30
0.0
 42
0.05497412
  0
VERTEX
  5
AED
  8
OBJ02
 10
329.45619336499999
 20
301.834059685
 30
0.0
 42
0.19035588
  0
VERTEX
  5
AEE
  8
OBJ02
 10
319.93872267500001
 20
299.61265522999997
 30
0.0
 42
0.02099438
  0
VERTEX
  5
AEF
  8
OBJ02
 10
314.65896945999998
 20
295.58579658500003
 30
0.0
 42
-0.19704981
  0
VERTEX
  5
AF0
  8
OBJ02
 10
312.51465648499999
 20
294.908186855
 30
0.0
 42
-0.03409156
  0
VERTEX
  5
AF1
  8
OBJ02
 10
307.54842080499998
 20
295.69728036499998
 30
0.0
 42
0.23494469
  0
VERTEX
  5
AF2
  8
OBJ02
 10
302.144767505
 20
293.72755667000001
 30
0.0
 42
0.27712007
  0
VERTEX
  5
AF3
  8
OBJ02
 10
300.42790380000002
 20
285.06155896000001
 30
0.0
 42
0.04199174
  0
VERTEX
  5
AF4
  8
OBJ02
 10
306.59929798500002
 20
277.02459621000003
 30
0.0
  0
VERTEX
  5
AF5
  8
OBJ02
 10
316.50341928
 20
286.33001379000001
 30
0.0
  0
VERTEX
  5
AF6
  8
OBJ02
 10
318.57474536000001
 20
284.125420115
 30
0.0
  0
VERTEX
  5
AF7
  8
OBJ02
 10
308.67062406999997
 20
274.82000253500001
 30
0.0
  0
SEQEND
  5
AF8
  8
OBJ02
  0
POLYLINE
  5
4D3
  8
OBJ02
 66
     1
 10
0.0
 20
0.0
 30
0.0
 70
     1
  0
VERTEX
  5
AF9
  8
OBJ02
 10
262.20340573999999
 20
272.24273111500003
 30
0.0
 42
-0.04717135
  0
VERTEX
  5
AFA
  8
OBJ02
 10
271.44810086000001
 20
268.74406038000001
 30
0.0
 42
0.03974909
  0
VERTEX
  5
AFB
  8
OBJ02
 10
293.43616183500001
 20
262.49780428499997
 30
0.0
 42
0.05826523
  0
VERTEX
  5
AFC
  8
OBJ02
 10
322.42156427499998
 20
259.74874331000001
 30
0.0
 42
-0.35946637
  0
VERTEX
  5
AFD
  8
OBJ02
 10
324.76125661999998
 20
257.41066117000003
 30
0.0
 42
-0.35946637
  0
VERTEX
  5
AFE
  8
OBJ02
 10
322.90839276499997
 20
254.67064586000001
 30
0.0
 42
-0.04051424
  0
VERTEX
  5
AFF
  8
OBJ02
 10
292.68655208000001
 20
248.75397501500001
 30
0.0
 42
-0.032358
  0
VERTEX
  5
B00
  8
OBJ02
 10
263.20239354500001
 20
246.75599940500001
 30
0.0
 42
-0.13482146
  0
VERTEX
  5
B01
  8
OBJ02
 10
253.20808866499999
 20
249.004828675
 30
0.0
 42
-0.37660097
  0
VERTEX
  5
B02
  8
OBJ02
 10
249.46003988499999
 20
265.99499940499999
 30
0.0
 42
-0.34846621
  0
VERTEX
  5
B03
  8
OBJ02
 10
262.20340573999999
 20
272.24273111500003
 30
0.0
  0
SEQEND
  5
B04
  8
OBJ02
  0
POLYLINE
  5
4E0
  8
OBJ02
 66
     1
 10
0.0
 20
0.0
 30
0.0
 70
     1
  0
VERTEX
  5
B05
  8
OBJ02
 10
410.37572647000002
 20
196.53214574500001
 30
0.0
 42
0.35330135
  0
VERTEX
  5
B06
  8
OBJ02
 10
412.88816977499988
 20
194.72801233000001
 30
0.0
 42
0.35330135
  0
VERTEX
  5
B07
  8
OBJ02
 10
415.18128553000003
 20
196.80379866000001
 30
0.0
  0
VERTEX
  5
B08
  8
OBJ02
 10
417.543117155
 20
228.265000345
 30
0.0
 42
0.21195778
  0
VERTEX
  5
B09
  8
OBJ02
 10
416.32757996999999
 20
231.98180028499999
 30
0.0
 42
0.21195778
  0
VERTEX
  5
B0A
  8
OBJ02
 10
412.75574525000002
 20
233.57369512
 30
0.0
 42
0.21195778
  0
VERTEX
  5
B0B
  8
OBJ02
 10
409.17908002500002
 20
231.992683325
 30
0.0
 42
0.21195778
  0
VERTEX
  5
B0C
  8
OBJ02
 10
407.95223141999998
 20
228.27960173
 30
0.0
  0
VERTEX
  5
B0D
  8
OBJ02
 10
410.37572647000002
 20
196.53214574500001
 30
0.0
  0
SEQEND
  5
B0E
  8
OBJ02
  0
POLYLINE
  5
4EB
  8
OBJ02
 66
     1
 10
0.0
 20
0.0
 30
0.0
 70
     1
  0
VERTEX
  5
B0F
  8
OBJ02
 10
392.63506061999999
 20
91.086548184999984
 30
0.0
 42
-0.06582715
  0
VERTEX
  5
B10
  8
OBJ02
 10
391.63548257000002
 20
123.81955671999999
 30
0.0
 42
-0.04008198
  0
VERTEX
  5
B11
  8
OBJ02
 10
394.59793339499998
 20
149.32546665000001
 30
0.0
 42
-0.35166744
  0
VERTEX
  5
B12
  8
OBJ02
 10
397.599780485
 20
151.03739379999999
 30
0.0
 42
-0.35166744
  0
VERTEX
  5
B13
  8
OBJ02
 10
399.92082650499998
 20
148.47721296500001
 30
0.0
 42
-0.07738752
  0
VERTEX
  5
B14
  8
OBJ02
 10
399.13158012999997
 20
142.30938965000001
 30
0.0
 42
0.26349355
  0
VERTEX
  5
B15
  8
OBJ02
 10
409.62611671500002
 20
126.56802745500001
 30
0.0
 42
-0.32637771
  0
VERTEX
  5
B16
  8
OBJ02
 10
410.12590574000001
 20
124.81898721
 30
0.0
 42
0.10218417
  0
VERTEX
  5
B17
  8
OBJ02
 10
396.88275085999999
 20
90.58675916
 30
0.0
 42
-0.31644669
  0
VERTEX
  5
B18
  8
OBJ02
 10
394.58314915
 20
89.342904300000001
 30
0.0
 42
-0.31644669
  0
VERTEX
  5
B19
  8
OBJ02
 10
392.63506061999999
 20
91.086548184999984
 30
0.0
  0
SEQEND
  5
B1A
  8
OBJ02
  0
POLYLINE
  5
4F8
  8
OBJ02
 66
     1
 10
0.0
 20
0.0
 30
0.0
 70
     1
  0
VERTEX
  5
B1B
  8
OBJ02
 10
409.37629598500001
 20
30.11833721
 30
0.0
 42
0.33592507
  0
VERTEX
  5
B1C
  8
OBJ02
 10
411.94291709999999
 20
29.354135299999999
 30
0.0
 42
0.33592507
  0
VERTEX
  5
B1D
  8
OBJ02
 10
413.37416549499989
 20
31.61755672
 30
0.0
 42
0.01690836
  0
VERTEX
  5
B1E
  8
OBJ02
 10
411.87494598500001
 20
37.614434770000003
 30
0.0
 42
-0.11015679
  0
VERTEX
  5
B1F
  8
OBJ02
 10
409.62611671500002
 20
72.596125014999998
 30
0.0
 42
-0.10462683
  0
VERTEX
  5
B20
  8
OBJ02
 10
420.62044232499989
 20
105.32913354999999
 30
0.0
 42
0.28787525
  0
VERTEX
  5
B21
  8
OBJ02
 10
420.12065330000001
 20
108.57739331000001
 30
0.0
 42
0.07859566
  0
VERTEX
  5
B22
  8
OBJ02
 10
414.12377524999999
 20
112.57541037999999
 30
0.0
 42
0.23653944
  0
VERTEX
  5
B23
  8
OBJ02
 10
412.12491427499992
 20
112.075621355
 30
0.0
 42
0.1376613
  0
VERTEX
  5
B24
  8
OBJ02
 10
401.13058866499989
 20
71.596694525000004
 30
0.0
 42
0.13299387
  0
VERTEX
  5
B25
  8
OBJ02
 10
409.37629598500001
 20
30.11833721
 30
0.0
  0
SEQEND
  5
B26
  8
OBJ02
  0
POLYLINE
  5
505
  8
OBJ02
 66
     1
 10
0.0
 20
0.0
 30
0.0
  0
VERTEX
  5
B27
  8
OBJ02
 10
343.34932072999999
 20
34.257696854999999
 30
0.0
  0
VERTEX
  5
B28
  8
OBJ02
 10
348.60454662500001
 20
20.467027170000001
 30
0.0
 42
0.17831933
  0
VERTEX
  5
B29
  8
OBJ02
 10
340.55555053500001
 20
11.986660779999999
 30
0.0
 42
-0.01685549
  0
VERTEX
  5
B2A
  8
OBJ02
 10
338.85549496499999
 20
8.9601794199999993
 30
0.0
 42
-0.24094289
  0
VERTEX
  5
B2B
  8
OBJ02
 10
333.78866303500001
 20
6.3680638050000002
 30
0.0
 42
-0.24094289
  0
VERTEX
  5
B2C
  8
OBJ02
 10
328.72183110499998
 20
8.9601794199999993
 30
0.0
 42
0.01565442
  0
VERTEX
  5
B2D
  8
OBJ02
 10
327.02177554000002
 20
11.986660779999999
 30
0.0
 42
0.15407461
  0
VERTEX
  5
B2E
  8
OBJ02
 10
318.92190291499998
 20
20.333517884999999
 30
0.0
  0
VERTEX
  5
B2F
  8
OBJ02
 10
324.22800534499999
 20
34.257696854999999
 30
0.0
  0
SEQEND
  5
B30
  8
OBJ02
  0
POLYLINE
  5
510
  8
OBJ02
 66
     1
 10
0.0
 20
0.0
 30
0.0
 70
     1
  0
VERTEX
  5
B31
  8
OBJ02
 10
15.331109045
 20
129.07902007999999
 30
0.0
 42
-0.41421356
  0
VERTEX
  5
B32
  8
OBJ02
 10
21.660919164999999
 20
122.749209955
 30
0.0
 42
-0.41421356
  0
VERTEX
  5
B33
  8
OBJ02
 10
15.331109045
 20
116.41939983499999
 30
0.0
 42
-0.41421356
  0
VERTEX
  5
B34
  8
OBJ02
 10
9.0012989199999982
 20
122.749209955
 30
0.0
 42
-0.41421356
  0
VERTEX
  5
B35
  8
OBJ02
 10
15.331109045
 20
129.07902007999999
 30
0.0
  0
SEQEND
  5
B36
  8
OBJ02
  0
POLYLINE
  5
517
  8
OBJ02
 66
     1
 10
0.0
 20
0.0
 30
0.0
 70
     1
  0
VERTEX
  5
B37
  8
OBJ02
 10
26.889983725
 20
146.85204225999999
 30
0.0
 42
-0.41421356
  0
VERTEX
  5
B38
  8
OBJ02
 10
33.219793850000009
 20
140.522232135
 30
0.0
 42
-0.41421356
  0
VERTEX
  5
B39
  8
OBJ02
 10
26.889983725
 20
134.19242201500001
 30
0.0
 42
-0.41421356
  0
VERTEX
  5
B3A
  8
OBJ02
 10
20.560173599999999
 20
140.522232135
 30
0.0
 42
-0.41421356
  0
VERTEX
  5
B3B
  8
OBJ02
 10
26.889983725
 20
146.85204225999999
 30
0.0
  0
SEQEND
  5
B3C
  8
OBJ02
  0
POLYLINE
  5
51E
  8
OBJ02
 66
     1
 10
0.0
 20
0.0
 30
0.0
 70
     1
  0
VERTEX
  5
B3D
  8
OBJ02
 10
22.766642569999998
 20
168.341855415
 30
0.0
 42
-0.41421356
  0
VERTEX
  5
B3E
  8
OBJ02
 10
29.096452695
 20
162.01204529
 30
0.0
 42
-0.41421356
  0
VERTEX
  5
B3F
  8
OBJ02
 10
22.766642569999998
 20
155.68223517000001
 30
0.0
 42
-0.41421356
  0
VERTEX
  5
B40
  8
OBJ02
 10
16.436832450000001
 20
162.01204529
 30
0.0
 42
-0.41421356
  0
VERTEX
  5
B41
  8
OBJ02
 10
22.766642569999998
 20
168.341855415
 30
0.0
  0
SEQEND
  5
B42
  8
OBJ02
  0
POLYLINE
  5
525
  8
OBJ02
 66
     1
 10
0.0
 20
0.0
 30
0.0
 70
     1
  0
VERTEX
  5
B43
  8
OBJ02
 10
42.437014275000003
 20
173.54535745000001
 30
0.0
 42
-0.41421356
  0
VERTEX
  5
B44
  8
OBJ02
 10
48.76682439999999
 20
167.21554732499999
 30
0.0
 42
-0.41421356
  0
VERTEX
  5
B45
  8
OBJ02
 10
42.437014275000003
 20
160.88573719999999
 30
0.0
 42
-0.41421356
  0
VERTEX
  5
B46
  8
OBJ02
 10
36.107204154999998
 20
167.21554732499999
 30
0.0
 42
-0.41421356
  0
VERTEX
  5
B47
  8
OBJ02
 10
42.437014275000003
 20
173.54535745000001
 30
0.0
  0
SEQEND
  5
B48
  8
OBJ02
  0
POLYLINE
  5
52C
  8
OBJ02
 66
     1
 10
0.0
 20
0.0
 30
0.0
 70
     1
  0
VERTEX
  5
B49
  8
OBJ02
 10
61.499010490000003
 20
163.67897073500001
 30
0.0
 42
-0.41421356
  0
VERTEX
  5
B4A
  8
OBJ02
 10
67.828820614999998
 20
157.34916061499999
 30
0.0
 42
-0.41421356
  0
VERTEX
  5
B4B
  8
OBJ02
 10
61.499010490000003
 20
151.01935048999999
 30
0.0
 42
-0.41421356
  0
VERTEX
  5
B4C
  8
OBJ02
 10
55.169200369999999
 20
157.34916061499999
 30
0.0
 42
-0.41421356
  0
VERTEX
  5
B4D
  8
OBJ02
 10
61.499010490000003
 20
163.67897073500001
 30
0.0
  0
SEQEND
  5
B4E
  8
OBJ02
  0
POLYLINE
  5
533
  8
OBJ02
 66
     1
 10
0.0
 20
0.0
 30
0.0
 70
     1
  0
VERTEX
  5
B4F
  8
OBJ02
 10
79.209107535000001
 20
136.03955518000001
 30
0.0
 42
-0.41421356
  0
VERTEX
  5
B50
  8
OBJ02
 10
85.538917659999996
 20
129.70974505500001
 30
0.0
 42
-0.41421356
  0
VERTEX
  5
B51
  8
OBJ02
 10
79.209107535000001
 20
123.37993493499999
 30
0.0
 42
-0.41421356
  0
VERTEX
  5
B52
  8
OBJ02
 10
72.879297414999996
 20
129.70974505500001
 30
0.0
 42
-0.41421356
  0
VERTEX
  5
B53
  8
OBJ02
 10
79.209107535000001
 20
136.03955518000001
 30
0.0
  0
SEQEND
  5
B54
  8
OBJ02
  0
POLYLINE
  5
53A
  8
OBJ02
 66
     1
 10
0.0
 20
0.0
 30
0.0
 70
     1
  0
VERTEX
  5
B55
  8
OBJ02
 10
27.361541955
 20
254.95463347500001
 30
0.0
 42
-0.41421356
  0
VERTEX
  5
B56
  8
OBJ02
 10
35.039271425000003
 20
247.27690400500001
 30
0.0
 42
-0.41421356
  0
VERTEX
  5
B57
  8
OBJ02
 10
27.361541955
 20
239.599174535
 30
0.0
 42
-0.41421356
  0
VERTEX
  5
B58
  8
OBJ02
 10
19.683812485000001
 20
247.27690400500001
 30
0.0
 42
-0.41421356
  0
VERTEX
  5
B59
  8
OBJ02
 10
27.361541955
 20
254.95463347500001
 30
0.0
  0
SEQEND
  5
B5A
  8
OBJ02
  0
POLYLINE
  5
541
  8
OBJ02
 66
     1
 10
0.0
 20
0.0
 30
0.0
 70
     1
  0
VERTEX
  5
B5B
  8
OBJ02
 10
379.64561934
 20
390.71343523500002
 30
0.0
 42
-0.41421356
  0
VERTEX
  5
B5C
  8
OBJ02
 10
386.51085738500001
 20
383.848197185
 30
0.0
 42
-0.41421356
  0
VERTEX
  5
B5D
  8
OBJ02
 10
379.64561934
 20
376.98295913499999
 30
0.0
 42
-0.41421356
  0
VERTEX
  5
B5E
  8
OBJ02
 10
372.78038128999998
 20
383.848197185
 30
0.0
 42
-0.41421356
  0
VERTEX
  5
B5F
  8
OBJ02
 10
379.64561934
 20
390.71343523500002
 30
0.0
  0
SEQEND
  5
B60
  8
OBJ02
  0
POLYLINE
  5
548
  8
OBJ02
 66
     1
 10
0.0
 20
0.0
 30
0.0
 70
     1
  0
VERTEX
  5
B61
  8
OBJ02
 10
62.19711573499999
 20
372.80075857499997
 30
0.0
 42
-0.41421356
  0
VERTEX
  5
B62
  8
OBJ02
 10
69.062353779999995
 20
365.93552052500002
 30
0.0
 42
-0.41421356
  0
VERTEX
  5
B63
  8
OBJ02
 10
62.19711573499999
 20
359.070282475
 30
0.0
 42
-0.41421356
  0
VERTEX
  5
B64
  8
OBJ02
 10
55.331877685000002
 20
365.93552052500002
 30
0.0
 42
-0.41421356
  0
VERTEX
  5
B65
  8
OBJ02
 10
62.19711573499999
 20
372.80075857499997
 30
0.0
  0
SEQEND
  5
B66
  8
OBJ02
  0
POLYLINE
  5
54F
  8
OBJ02
 66
     1
 10
0.0
 20
0.0
 30
0.0
 70
     1
  0
VERTEX
  5
B67
  8
OBJ02
 10
397.09174429500001
 20
174.10321260000001
 30
0.0
 42
-0.41421356
  0
VERTEX
  5
B68
  8
OBJ02
 10
403.42155442000001
 20
167.77340247999999
 30
0.0
 42
-0.41421356
  0
VERTEX
  5
B69
  8
OBJ02
 10
397.09174429500001
 20
161.44359235499999
 30
0.0
 42
-0.41421356
  0
VERTEX
  5
B6A
  8
OBJ02
 10
390.76193417000002
 20
167.77340247999999
 30
0.0
 42
-0.41421356
  0
VERTEX
  5
B6B
  8
OBJ02
 10
397.09174429500001
 20
174.10321260000001
 30
0.0
  0
SEQEND
  5
B6C
  8
OBJ02
  0
POLYLINE
  5
556
  8
OBJ02
 66
     1
 10
0.0
 20
0.0
 30
0.0
 70
     1
  0
VERTEX
  5
B6D
  8
OBJ02
 10
424.19764952999992
 20
129.63687523499999
 30
0.0
 42
-0.41421356
  0
VERTEX
  5
B6E
  8
OBJ02
 10
430.52745965499992
 20
123.30706511
 30
0.0
 42
-0.41421356
  0
VERTEX
  5
B6F
  8
OBJ02
 10
424.19764952999992
 20
116.977254985
 30
0.0
 42
-0.41421356
  0
VERTEX
  5
B70
  8
OBJ02
 10
417.86783940499998
 20
123.30706511
 30
0.0
 42
-0.41421356
  0
VERTEX
  5
B71
  8
OBJ02
 10
424.19764952999992
 20
129.63687523499999
 30
0.0
  0
SEQEND
  5
B72
  8
OBJ02
  0
POLYLINE
  5
55D
  8
OBJ02
 66
     1
 10
0.0
 20
0.0
 30
0.0
 70
     1
  0
VERTEX
  5
B73
  8
OBJ02
 10
416.76211599999999
 20
168.89971057
 30
0.0
 42
-0.41421356
  0
VERTEX
  5
B74
  8
OBJ02
 10
423.09192612499987
 20
162.569900445
 30
0.0
 42
-0.41421356
  0
VERTEX
  5
B75
  8
OBJ02
 10
416.76211599999999
 20
156.24009032000001
 30
0.0
 42
-0.41421356
  0
VERTEX
  5
B76
  8
OBJ02
 10
410.432305875
 20
162.569900445
 30
0.0
 42
-0.41421356
  0
VERTEX
  5
B77
  8
OBJ02
 10
416.76211599999999
 20
168.89971057
 30
0.0
  0
SEQEND
  5
B78
  8
OBJ02
  0
POLYLINE
  5
564
  8
OBJ02
 66
     1
 10
0.0
 20
0.0
 30
0.0
 70
     1
  0
VERTEX
  5
B79
  8
OBJ02
 10
412.63877485
 20
147.40989741499999
 30
0.0
 42
-0.41421356
  0
VERTEX
  5
B7A
  8
OBJ02
 10
418.96858496999999
 20
141.08008728999999
 30
0.0
 42
-0.41421356
  0
VERTEX
  5
B7B
  8
OBJ02
 10
412.63877485
 20
134.750277165
 30
0.0
 42
-0.41421356
  0
VERTEX
  5
B7C
  8
OBJ02
 10
406.3089647249999
 20
141.08008728999999
 30
0.0
 42
-0.41421356
  0
VERTEX
  5
B7D
  8
OBJ02
 10
412.63877485
 20
147.40989741499999
 30
0.0
  0
SEQEND
  5
B7E
  8
OBJ02
  0
POLYLINE
  5
56B
  8
OBJ02
 66
     1
 10
0.0
 20
0.0
 30
0.0
 70
     1
  0
VERTEX
  5
B7F
  8
OBJ02
 10
412.16721661499992
 20
255.51248863000001
 30
0.0
 42
-0.41421356
  0
VERTEX
  5
B80
  8
OBJ02
 10
419.844946085
 20
247.83475916
 30
0.0
 42
-0.41421356
  0
VERTEX
  5
B81
  8
OBJ02
 10
412.16721661499992
 20
240.15702969
 30
0.0
 42
-0.41421356
  0
VERTEX
  5
B82
  8
OBJ02
 10
404.489487145
 20
247.83475916
 30
0.0
 42
-0.41421356
  0
VERTEX
  5
B83
  8
OBJ02
 10
412.16721661499992
 20
255.51248863000001
 30
0.0
  0
SEQEND
  5
B84
  8
OBJ02
  0
POLYLINE
  5
572
  8
OBJ02
 66
     1
 10
0.0
 20
0.0
 30
0.0
 70
     1
  0
VERTEX
  5
B85
  8
OBJ02
 10
378.02974807999999
 20
164.23682589000001
 30
0.0
 42
-0.41421356
  0
VERTEX
  5
B86
  8
OBJ02
 10
384.35955820499998
 20
157.90701576500001
 30
0.0
 42
-0.41421356
  0
VERTEX
  5
B87
  8
OBJ02
 10
378.02974807999999
 20
151.57720564499999
 30
0.0
 42
-0.41421356
  0
VERTEX
  5
B88
  8
OBJ02
 10
371.699937955
 20
157.90701576500001
 30
0.0
 42
-0.41421356
  0
VERTEX
  5
B89
  8
OBJ02
 10
378.02974807999999
 20
164.23682589000001
 30
0.0
  0
SEQEND
  5
B8A
  8
OBJ02
  0
POLYLINE
  5
579
  8
OBJ02
 66
     1
 10
0.0
 20
0.0
 30
0.0
 70
     1
  0
VERTEX
  5
B8B
  8
OBJ02
 10
360.31965103499999
 20
136.59741033500001
 30
0.0
 42
-0.41421356
  0
VERTEX
  5
B8C
  8
OBJ02
 10
366.64946115999999
 20
130.26760021000001
 30
0.0
 42
-0.41421356
  0
VERTEX
  5
B8D
  8
OBJ02
 10
360.31965103499999
 20
123.937790085
 30
0.0
 42
-0.41421356
  0
VERTEX
  5
B8E
  8
OBJ02
 10
353.989840915
 20
130.26760021000001
 30
0.0
 42
-0.41421356
  0
VERTEX
  5
B8F
  8
OBJ02
 10
360.31965103499999
 20
136.59741033500001
 30
0.0
  0
SEQEND
  5
B90
  8
OBJ02
  0
POLYLINE
  5
580
  8
OBJ02
 66
     1
 10
0.0
 20
0.0
 30
0.0
 70
     1
  0
VERTEX
  5
B91
  8
OBJ02
 10
29.153032100000001
 20
195.97429059500001
 30
0.0
  0
VERTEX
  5
B92
  8
OBJ02
 10
31.57652715
 20
227.72174658
 30
0.0
 42
0.21195778
  0
VERTEX
  5
B93
  8
OBJ02
 10
30.349678545
 20
231.43482817
 30
0.0
 42
0.21195778
  0
VERTEX
  5
B94
  8
OBJ02
 10
26.77301332
 20
233.015839965
 30
0.0
 42
0.21195778
  0
VERTEX
  5
B95
  8
OBJ02
 10
23.201178599999999
 20
231.423945135
 30
0.0
 42
0.21195778
  0
VERTEX
  5
B96
  8
OBJ02
 10
21.98564142
 20
227.70714519500001
 30
0.0
  0
VERTEX
  5
B97
  8
OBJ02
 10
24.347473040000001
 20
196.24594350500001
 30
0.0
 42
0.35330135
  0
VERTEX
  5
B98
  8
OBJ02
 10
26.640588794999999
 20
194.17015717999999
 30
0.0
 42
0.35330135
  0
VERTEX
  5
B99
  8
OBJ02
 10
29.153032100000001
 20
195.97429059500001
 30
0.0
  0
SEQEND
  5
B9A
  8
OBJ02
  0
POLYLINE
  5
58B
  8
OBJ02
 66
     1
 10
0.0
 20
0.0
 30
0.0
 70
     1
  0
VERTEX
  5
B9B
  8
OBJ02
 10
310.67762891000001
 20
231.512950625
 30
0.0
 42
0.08210778
  0
VERTEX
  5
B9C
  8
OBJ02
 10
306.88560968000002
 20
227.82986593000001
 30
0.0
 42
0.02876839
  0
VERTEX
  5
B9D
  8
OBJ02
 10
298.68343012999998
 20
215.27238965000001
 30
0.0
 42
0.06914614
  0
VERTEX
  5
B9E
  8
OBJ02
 10
294.16995267499999
 20
204.07003939000001
 30
0.0
 42
0.17796873
  0
VERTEX
  5
B9F
  8
OBJ02
 10
294.68600329999998
 20
199.279731115
 30
0.0
 42
0.12795529
  0
VERTEX
  5
BA0
  8
OBJ02
 10
296.76705751999998
 20
196.87851688500001
 30
0.0
 42
0.21490203
  0
VERTEX
  5
BA1
  8
OBJ02
 10
298.68343012999998
 20
196.53214574500001
 30
0.0
 42
0.12572803
  0
VERTEX
  5
BA2
  8
OBJ02
 10
302.60445480999999
 20
198.647284735
 30
0.0
 42
0.02521587
  0
VERTEX
  5
BA3
  8
OBJ02
 10
317.92390574000001
 20
214.271926235
 30
0.0
 42
0.00264434
  0
VERTEX
  5
BA4
  8
OBJ02
 10
327.84019439500003
 20
225.58207386500001
 30
0.0
 42
0.00320403
  0
VERTEX
  5
BA5
  8
OBJ02
 10
335.91453988500001
 20
235.01162135499999
 30
0.0
 42
0.02125112
  0
VERTEX
  5
BA6
  8
OBJ02
 10
346.17675760999998
 20
248.255504855
 30
0.0
 42
0.09770726
  0
VERTEX
  5
BA7
  8
OBJ02
 10
347.68266246000002
 20
251.61020801999999
 30
0.0
 42
0.27400652
  0
VERTEX
  5
BA8
  8
OBJ02
 10
346.73446794500001
 20
254.59340043500001
 30
0.0
 42
0.3464823
  0
VERTEX
  5
BA9
  8
OBJ02
 10
344.16024720500002
 20
254.750853065
 30
0.0
 42
0.00015102
  0
VERTEX
  5
BAA
  8
OBJ02
 10
342.02232442500002
 20
253.26840017500001
 30
0.0
 42
0.00003057
  0
VERTEX
  5
BAB
  8
OBJ02
 10
331.46211619000002
 20
245.94018618000001
 30
0.0
 42
0.00001657
  0
VERTEX
  5
BAC
  8
OBJ02
 10
315.86201484499998
 20
235.11237947999999
 30
0.0
 42
0.00004987
  0
VERTEX
  5
BAD
  8
OBJ02
 10
310.67762891000001
 20
231.512950625
 30
0.0
  0
SEQEND
  5
BAE
  8
OBJ02
  0
POLYLINE
  5
5A0
  8
OBJ02
 66
     1
 10
0.0
 20
0.0
 30
0.0
 70
     1
  0
VERTEX
  5
BAF
  8
OBJ02
 10
114.900001815
 20
126.38500177500001
 30
0.0
  0
VERTEX
  5
BB0
  8
OBJ02
 10
114.63703307500001
 20
126.258688185
 30
0.0
  0
VERTEX
  5
BB1
  8
OBJ02
 10
114.381384165
 20
126.10065446500001
 30
0.0
  0
VERTEX
  5
BB2
  8
OBJ02
 10
114.13647147
 20
125.914316125
 30
0.0
  0
VERTEX
  5
BB3
  8
OBJ02
 10
113.90571137000001
 20
125.70308869
 30
0.0
  0
VERTEX
  5
BB4
  8
OBJ02
 10
113.69252025
 20
125.47038766999999
 30
0.0
  0
VERTEX
  5
BB5
  8
OBJ02
 10
113.50031448999999
 20
125.219628595
 30
0.0
  0
VERTEX
  5
BB6
  8
OBJ02
 10
113.33251047
 20
124.95422696999999
 30
0.0
  0
VERTEX
  5
BB7
  8
OBJ02
 10
113.19252458
 20
124.67759832
 30
0.0
  0
VERTEX
  5
BB8
  8
OBJ02
 10
113.08531859999999
 20
124.38730207
 30
0.0
  0
VERTEX
  5
BB9
  8
OBJ02
 10
113.02203593500001
 20
124.05747332
 30
0.0
  0
VERTEX
  5
BBA
  8
OBJ02
 10
113.01536538000001
 20
123.65639106
 30
0.0
  0
VERTEX
  5
BBB
  8
OBJ02
 10
113.077995745
 20
123.152334295
 30
0.0
  0
VERTEX
  5
BBC
  8
OBJ02
 10
113.22261583
 20
122.51358202500001
 30
0.0
  0
VERTEX
  5
BBD
  8
OBJ02
 10
113.461914435
 20
121.708413255
 30
0.0
  0
VERTEX
  5
BBE
  8
OBJ02
 10
113.808580365
 20
120.70510699
 30
0.0
  0
VERTEX
  5
BBF
  8
OBJ02
 10
114.27530242500001
 20
119.47194222
 30
0.0
  0
VERTEX
  5
BC0
  8
OBJ02
 10
114.869645035
 20
117.989479715
 30
0.0
  0
VERTEX
  5
BC1
  8
OBJ02
 10
115.57867509
 20
116.287407285
 30
0.0
  0
VERTEX
  5
BC2
  8
OBJ02
 10
116.38433510500001
 20
114.407694495
 30
0.0
  0
VERTEX
  5
BC3
  8
OBJ02
 10
117.26856759499999
 20
112.39231092
 30
0.0
  0
VERTEX
  5
BC4
  8
OBJ02
 10
118.21331506999999
 20
110.28322611999999
 30
0.0
  0
VERTEX
  5
BC5
  8
OBJ02
 10
119.200520045
 20
108.122409675
 30
0.0
  0
VERTEX
  5
BC6
  8
OBJ02
 10
120.21212503
 20
105.951831145
 30
0.0
  0
VERTEX
  5
BC7
  8
OBJ02
 10
121.23007255
 20
103.813460105
 30
0.0
  0
VERTEX
  5
BC8
  8
OBJ02
 10
122.238501375
 20
101.74365405
 30
0.0
  0
VERTEX
  5
BC9
  8
OBJ02
 10
123.23033535499999
 20
99.756322190000006
 30
0.0
  0
VERTEX
  5
BCA
  8
OBJ02
 10
124.20069460000001
 20
97.859761655000014
 30
0.0
  0
VERTEX
  5
BCB
  8
OBJ02
 10
125.144699225
 20
96.062269584999996
 30
0.0
  0
VERTEX
  5
BCC
  8
OBJ02
 10
126.05746934
 20
94.372143105000006
 30
0.0
  0
VERTEX
  5
BCD
  8
OBJ02
 10
126.934125065
 20
92.797679360000004
 30
0.0
  0
VERTEX
  5
BCE
  8
OBJ02
 10
127.7697865
 20
91.347175480000004
 30
0.0
  0
VERTEX
  5
BCF
  8
OBJ02
 10
128.55957376999999
 20
90.028928605000004
 30
0.0
  0
VERTEX
  5
BD0
  8
OBJ02
 10
129.30055884500001
 20
88.847494139999995
 30
0.0
  0
VERTEX
  5
BD1
  8
OBJ02
 10
129.99762118500001
 20
87.792460640000002
 30
0.0
  0
VERTEX
  5
BD2
  8
OBJ02
 10
130.657592115
 20
86.849674930000006
 30
0.0
  0
VERTEX
  5
BD3
  8
OBJ02
 10
131.28730296000001
 20
86.004983835000004
 30
0.0
  0
VERTEX
  5
BD4
  8
OBJ02
 10
131.89358504
 20
85.244234184999996
 30
0.0
  0
VERTEX
  5
BD5
  8
OBJ02
 10
132.48326968000001
 20
84.553272809999996
 30
0.0
  0
VERTEX
  5
BD6
  8
OBJ02
 10
133.06318820499999
 20
83.917946529999995
 30
0.0
  0
VERTEX
  5
BD7
  8
OBJ02
 10
133.64017193999999
 20
83.324102179999997
 30
0.0
  0
VERTEX
  5
BD8
  8
OBJ02
 10
134.21975129500001
 20
82.759945444999985
 30
0.0
  0
VERTEX
  5
BD9
  8
OBJ02
 10
134.80225304999999
 20
82.223117459999997
 30
0.0
  0
VERTEX
  5
BDA
  8
OBJ02
 10
135.38670307000001
 20
81.713618234999984
 30
0.0
  0
VERTEX
  5
BDB
  8
OBJ02
 10
135.97212722500001
 20
81.231447759999995
 30
0.0
  0
VERTEX
  5
BDC
  8
OBJ02
 10
136.557551375
 20
80.776606040000004
 30
0.0
  0
VERTEX
  5
BDD
  8
OBJ02
 10
137.14200139499999
 20
80.349093069999995
 30
0.0
  0
VERTEX
  5
BDE
  8
OBJ02
 10
137.72450315
 20
79.948908860000003
 30
0.0
  0
VERTEX
  5
BDF
  8
OBJ02
 10
138.30408251
 20
79.576053400000006
 30
0.0
  0
VERTEX
  5
BE0
  8
OBJ02
 10
138.87878879499999
 20
79.230608064999998
 30
0.0
  0
VERTEX
  5
BE1
  8
OBJ02
 10
139.44276521
 20
78.912979699999994
 30
0.0
  0
VERTEX
  5
BE2
  8
OBJ02
 10
139.989178415
 20
78.623656530000005
 30
0.0
  0
VERTEX
  5
BE3
  8
OBJ02
 10
140.51119506000001
 20
78.363126774999998
 30
0.0
  0
VERTEX
  5
BE4
  8
OBJ02
 10
141.00198180500001
 20
78.131878645
 30
0.0
  0
VERTEX
  5
BE5
  8
OBJ02
 10
141.45470531500001
 20
77.930400370000001
 30
0.0
  0
VERTEX
  5
BE6
  8
OBJ02
 10
141.86253224500001
 20
77.759180165000004
 30
0.0
  0
VERTEX
  5
BE7
  8
OBJ02
 10
142.218629255
 20
77.618706244999998
 30
0.0
  0
VERTEX
  5
BE8
  8
OBJ02
 10
142.51892881000001
 20
77.509060129999995
 30
0.0
  0
VERTEX
  5
BE9
  8
OBJ02
 10
142.77042660500001
 20
77.428696509999995
 30
0.0
  0
VERTEX
  5
BEA
  8
OBJ02
 10
142.98288414999999
 20
77.375663375000002
 30
0.0
  0
VERTEX
  5
BEB
  8
OBJ02
 10
143.16606294499999
 20
77.348008710000002
 30
0.0
  0
VERTEX
  5
BEC
  8
OBJ02
 10
143.32972449499999
 20
77.343780499999994
 30
0.0
  0
VERTEX
  5
BED
  8
OBJ02
 10
143.48363030499999
 20
77.36102674
 30
0.0
  0
VERTEX
  5
BEE
  8
OBJ02
 10
143.63754187500001
 20
77.397795410000001
 30
0.0
  0
VERTEX
  5
BEF
  8
OBJ02
 10
143.80122072
 20
77.452134494999996
 30
0.0
  0
VERTEX
  5
BF0
  8
OBJ02
 10
143.98190654000001
 20
77.522335909999995
 30
0.0
  0
VERTEX
  5
BF1
  8
OBJ02
 10
144.17675187500001
 20
77.607667225
 30
0.0
  0
VERTEX
  5
BF2
  8
OBJ02
 10
144.38038746000001
 20
77.707639929999999
 30
0.0
  0
VERTEX
  5
BF3
  8
OBJ02
 10
144.58744404000001
 20
77.82176552
 30
0.0
  0
VERTEX
  5
BF4
  8
OBJ02
 10
144.792552355
 20
77.949555485000005
 30
0.0
  0
VERTEX
  5
BF5
  8
OBJ02
 10
144.990343145
 20
78.090521319999993
 30
0.0
  0
VERTEX
  5
BF6
  8
OBJ02
 10
145.17544715
 20
78.244174520000001
 30
0.0
  0
VERTEX
  5
BF7
  8
OBJ02
 10
145.34249510999999
 20
78.410026569999999
 30
0.0
  0
VERTEX
  5
BF8
  8
OBJ02
 10
145.48457202500001
 20
78.590761290000003
 30
0.0
  0
VERTEX
  5
BF9
  8
OBJ02
 10
145.58857993500001
 20
78.801751774999985
 30
0.0
  0
VERTEX
  5
BFA
  8
OBJ02
 10
145.63987514499999
 20
79.061543439999994
 30
0.0
  0
VERTEX
  5
BFB
  8
OBJ02
 10
145.62381396000001
 20
79.388681700000006
 30
0.0
  0
VERTEX
  5
BFC
  8
OBJ02
 10
145.52575268000001
 20
79.801711979999993
 30
0.0
  0
VERTEX
  5
BFD
  8
OBJ02
 10
145.33104760500001
 20
80.319179695000003
 30
0.0
  0
VERTEX
  5
BFE
  8
OBJ02
 10
145.02505504000001
 20
80.959630259999983
 30
0.0
  0
VERTEX
  5
BFF
  8
OBJ02
 10
144.59313129
 20
81.741609089999983
 30
0.0
  0
VERTEX
  5
C00
  8
OBJ02
 10
144.02583970000001
 20
82.677886555000001
 30
0.0
  0
VERTEX
  5
C01
  8
OBJ02
 10
143.334571815
 20
83.758132805000002
 30
0.0
  0
VERTEX
  5
C02
  8
OBJ02
 10
142.53592623
 20
84.966242949999994
 30
0.0
  0
VERTEX
  5
C03
  8
OBJ02
 10
141.646501535
 20
86.286112090000003
 30
0.0
  0
VERTEX
  5
C04
  8
OBJ02
 10
140.68289633000001
 20
87.701635324999984
 30
0.0
  0
VERTEX
  5
C05
  8
OBJ02
 10
139.66170919499999
 20
89.196707755000006
 30
0.0
  0
VERTEX
  5
C06
  8
OBJ02
 10
138.59953873000001
 20
90.755224494999993
 30
0.0
  0
VERTEX
  5
C07
  8
OBJ02
 10
137.51298352500001
 20
92.361080634999993
 30
0.0
  0
VERTEX
  5
C08
  8
OBJ02
 10
136.416037805
 20
94.001018079999994
 30
0.0
  0
VERTEX
  5
C09
  8
OBJ02
 10
135.31227834500001
 20
95.673165894999997
 30
0.0
  0
VERTEX
  5
C0A
  8
OBJ02
 10
134.20267755
 20
97.378499940000012
 30
0.0
  0
VERTEX
  5
C0B
  8
OBJ02
 10
133.088207815
 20
99.117996079999998
 30
0.0
  0
VERTEX
  5
C0C
  8
OBJ02
 10
131.96984154500001
 20
100.89263018
 30
0.0
  0
VERTEX
  5
C0D
  8
OBJ02
 10
130.84855114999999
 20
102.70337809999999
 30
0.0
  0
VERTEX
  5
C0E
  8
OBJ02
 10
129.72530903000001
 20
104.5512157
 30
0.0
  0
VERTEX
  5
C0F
  8
OBJ02
 10
128.60108758999999
 20
106.437118845
 30
0.0
  0
VERTEX
  5
C10
  8
OBJ02
 10
127.47881211000001
 20
108.35702048
 30
0.0
  0
VERTEX
  5
C11
  8
OBJ02
 10
126.36921938
 20
110.286681895
 30
0.0
  0
VERTEX
  5
C12
  8
OBJ02
 10
125.28499906499999
 20
112.196821445
 30
0.0
  0
VERTEX
  5
C13
  8
OBJ02
 10
124.23884083999999
 20
114.058157515
 30
0.0
  0
VERTEX
  5
C14
  8
OBJ02
 10
123.24343437
 20
115.841408465
 30
0.0
  0
VERTEX
  5
C15
  8
OBJ02
 10
122.311469315
 20
117.517292665
 30
0.0
  0
VERTEX
  5
C16
  8
OBJ02
 10
121.45563534999999
 20
119.056528485
 30
0.0
  0
VERTEX
  5
C17
  8
OBJ02
 10
120.68862214000001
 20
120.42983429500001
 30
0.0
  0
VERTEX
  5
C18
  8
OBJ02
 10
120.018970935
 20
121.61565557500001
 30
0.0
  0
VERTEX
  5
C19
  8
OBJ02
 10
119.438629275
 20
122.623346255
 30
0.0
  0
VERTEX
  5
C1A
  8
OBJ02
 10
118.935396295
 20
123.469987395
 30
0.0
  0
VERTEX
  5
C1B
  8
OBJ02
 10
118.49707112500001
 20
124.17266003
 30
0.0
  0
VERTEX
  5
C1C
  8
OBJ02
 10
118.11145289
 20
124.748445215
 30
0.0
  0
VERTEX
  5
C1D
  8
OBJ02
 10
117.76634072
 20
125.214423995
 30
0.0
  0
VERTEX
  5
C1E
  8
OBJ02
 10
117.44953374000001
 20
125.587677415
 30
0.0
  0
VERTEX
  5
C1F
  8
OBJ02
 10
117.148831085
 20
125.88528653
 30
0.0
  0
VERTEX
  5
C20
  8
OBJ02
 10
116.854065355
 20
126.121973615
 30
0.0
  0
VERTEX
  5
C21
  8
OBJ02
 10
116.563203075
 20
126.303025885
 30
0.0
  0
VERTEX
  5
C22
  8
OBJ02
 10
116.27624424
 20
126.43137179999999
 30
0.0
  0
VERTEX
  5
C23
  8
OBJ02
 10
115.99318886
 20
126.509939805
 30
0.0
  0
VERTEX
  5
C24
  8
OBJ02
 10
115.714036925
 20
126.541658355
 30
0.0
  0
VERTEX
  5
C25
  8
OBJ02
 10
115.43878844
 20
126.5294559
 30
0.0
  0
VERTEX
  5
C26
  8
OBJ02
 10
115.167443405
 20
126.476260885
 30
0.0
  0
VERTEX
  5
C27
  8
OBJ02
 10
114.900001815
 20
126.38500177500001
 30
0.0
  0
SEQEND
  5
C28
  8
OBJ02
  0
POLYLINE
  5
61B
  8
OBJ02
 66
     1
 10
0.0
 20
0.0
 30
0.0
 70
     1
  0
VERTEX
  5
C29
  8
OBJ02
 10
143.34353576000001
 20
63.792562545000003
 30
0.0
 42
0.10318604
  0
VERTEX
  5
C2A
  8
OBJ02
 10
144.953970355
 20
60.207511404999991
 30
0.0
 42
0.02621704
  0
VERTEX
  5
C2B
  8
OBJ02
 10
154.58768209999999
 20
48.300725960000001
 30
0.0
 42
0.00391844
  0
VERTEX
  5
C2C
  8
OBJ02
 10
164.52774295500001
 20
37.425916354999998
 30
0.0
 42
0.01323243
  0
VERTEX
  5
C2D
  8
OBJ02
 10
167.58042600499999
 20
34.307961325000001
 30
0.0
 42
0.00884469
  0
VERTEX
  5
C2E
  8
OBJ02
 10
171.89634860999999
 20
30.272538709999999
 30
0.0
 42
0.00662095
  0
VERTEX
  5
C2F
  8
OBJ02
 10
177.82558453999999
 20
25.062823519999998
 30
0.0
 42
0.0212466
  0
VERTEX
  5
C30
  8
OBJ02
 10
184.30648249999999
 20
19.979121814999999
 30
0.0
 42
0.04633714
  0
VERTEX
  5
C31
  8
OBJ02
 10
187.57051136999999
 20
18.066367424999999
 30
0.0
 42
0.0365038
  0
VERTEX
  5
C32
  8
OBJ02
 10
189.02775210499999
 20
17.510381519999999
 30
0.0
 42
0.05385633
  0
VERTEX
  5
C33
  8
OBJ02
 10
190.06871868499999
 20
17.316757670000001
 30
0.0
 42
0.05020881
  0
VERTEX
  5
C34
  8
OBJ02
 10
190.89896522500001
 20
17.336720469999999
 30
0.0
 42
0.03494732
  0
VERTEX
  5
C35
  8
OBJ02
 10
192.06816990499999
 20
17.566725959999999
 30
0.0
 42
0.06608511
  0
VERTEX
  5
C36
  8
OBJ02
 10
193.28232241000001
 20
18.074465945
 30
0.0
 42
0.0399019
  0
VERTEX
  5
C37
  8
OBJ02
 10
195.06660893
 20
19.315766204999999
 30
0.0
 42
0.07395926
  0
VERTEX
  5
C38
  8
OBJ02
 10
196.78854361500001
 20
21.21849177
 30
0.0
 42
0.09514259
  0
VERTEX
  5
C39
  8
OBJ02
 10
197.56481625000001
 20
23.063814985
 30
0.0
 42
0.05216813
  0
VERTEX
  5
C3A
  8
OBJ02
 10
197.73212713500001
 20
24.663024719999999
 30
0.0
 42
0.04396679
  0
VERTEX
  5
C3B
  8
OBJ02
 10
197.56481625000001
 20
26.562043034999999
 30
0.0
 42
0.03647841
  0
VERTEX
  5
C3C
  8
OBJ02
 10
197.10880645500001
 20
28.357819124999999
 30
0.0
 42
0.05128536
  0
VERTEX
  5
C3D
  8
OBJ02
 10
196.56582844499999
 20
29.560482059999998
 30
0.0
 42
0.08281944
  0
VERTEX
  5
C3E
  8
OBJ02
 10
194.17771379000001
 20
32.443246170000002
 30
0.0
 42
0.01085258
  0
VERTEX
  5
C3F
  8
OBJ02
 10
172.32893820000001
 20
50.549555230000003
 30
0.0
 42
0.00157372
  0
VERTEX
  5
C40
  8
OBJ02
 10
163.89436115999999
 20
57.192873689999992
 30
0.0
 42
0.00437763
  0
VERTEX
  5
C41
  8
OBJ02
 10
160.83393820000001
 20
59.544872300000002
 30
0.0
 42
0.03646638
  0
VERTEX
  5
C42
  8
OBJ02
 10
153.17885114000001
 20
64.490445004999998
 30
0.0
 42
0.0550978
  0
VERTEX
  5
C43
  8
OBJ02
 10
147.59181624999999
 20
66.791001570000006
 30
0.0
 42
0.04749704
  0
VERTEX
  5
C44
  8
OBJ02
 10
145.79180070500001
 20
67.128977835000001
 30
0.0
 42
0.09183081
  0
VERTEX
  5
C45
  8
OBJ02
 10
144.84275527
 20
67.040969864999994
 30
0.0
 42
0.1281399
  0
VERTEX
  5
C46
  8
OBJ02
 10
143.92115427499999
 20
66.500359814999996
 30
0.0
 42
0.12215184
  0
VERTEX
  5
C47
  8
OBJ02
 10
143.34353576000001
 20
65.541750350000001
 30
0.0
 42
0.07493968
  0
VERTEX
  5
C48
  8
OBJ02
 10
143.23306638
 20
64.808834259999998
 30
0.0
 42
0.05419071
  0
VERTEX
  5
C49
  8
OBJ02
 10
143.34353576000001
 20
63.792562545000003
 30
0.0
  0
SEQEND
  5
C4A
  8
OBJ02
  0
POLYLINE
  5
63E
  8
OBJ02
 66
     1
 10
0.0
 20
0.0
 30
0.0
 70
     1
  0
VERTEX
  5
C4B
  8
OBJ02
 10
324.62875675499998
 20
126.942856925
 30
0.0
  0
VERTEX
  5
C4C
  8
OBJ02
 10
324.891725495
 20
126.81654334
 30
0.0
  0
VERTEX
  5
C4D
  8
OBJ02
 10
325.14737440499999
 20
126.658509615
 30
0.0
  0
VERTEX
  5
C4E
  8
OBJ02
 10
325.39228710499998
 20
126.47217128
 30
0.0
  0
VERTEX
  5
C4F
  8
OBJ02
 10
325.62304720499998
 20
126.26094384
 30
0.0
  0
VERTEX
  5
C50
  8
OBJ02
 10
325.83623832500001
 20
126.02824282500001
 30
0.0
  0
VERTEX
  5
C51
  8
OBJ02
 10
326.02844408499999
 20
125.777483745
 30
0.0
  0
VERTEX
  5
C52
  8
OBJ02
 10
326.19624809999999
 20
125.51208212
 30
0.0
  0
VERTEX
  5
C53
  8
OBJ02
 10
326.33623398999998
 20
125.23545347
 30
0.0
  0
VERTEX
  5
C54
  8
OBJ02
 10
326.44343996999999
 20
124.945157225
 30
0.0
  0
VERTEX
  5
C55
  8
OBJ02
 10
326.50672264000002
 20
124.61532846999999
 30
0.0
  0
VERTEX
  5
C56
  8
OBJ02
 10
326.51339318999999
 20
124.21424621
 30
0.0
  0
VERTEX
  5
C57
  8
OBJ02
 10
326.45076282999997
 20
123.710189445
 30
0.0
  0
VERTEX
  5
C58
  8
OBJ02
 10
326.30614274499999
 20
123.07143718
 30
0.0
  0
VERTEX
  5
C59
  8
OBJ02
 10
326.06684414
 20
122.26626841
 30
0.0
  0
VERTEX
  5
C5A
  8
OBJ02
 10
325.72017820500002
 20
121.26296214
 30
0.0
  0
VERTEX
  5
C5B
  8
OBJ02
 10
325.25345614499997
 20
120.029797375
 30
0.0
  0
VERTEX
  5
C5C
  8
OBJ02
 10
324.65911353500002
 20
118.54733487
 30
0.0
  0
VERTEX
  5
C5D
  8
OBJ02
 10
323.95008347999999
 20
116.84526244
 30
0.0
  0
VERTEX
  5
C5E
  8
OBJ02
 10
323.14442346499999
 20
114.96554965
 30
0.0
  0
VERTEX
  5
C5F
  8
OBJ02
 10
322.26019098
 20
112.95016606999999
 30
0.0
  0
VERTEX
  5
C60
  8
OBJ02
 10
321.31544350500002
 20
110.84108127499999
 30
0.0
  0
VERTEX
  5
C61
  8
OBJ02
 10
320.32823853000002
 20
108.68026482499999
 30
0.0
  0
VERTEX
  5
C62
  8
OBJ02
 10
319.31663354
 20
106.5096863
 30
0.0
  0
VERTEX
  5
C63
  8
OBJ02
 10
318.29868602499999
 20
104.37131526
 30
0.0
  0
VERTEX
  5
C64
  8
OBJ02
 10
317.29025719999999
 20
102.301509205
 30
0.0
  0
VERTEX
  5
C65
  8
OBJ02
 10
316.29842322000002
 20
100.314177345
 30
0.0
  0
VERTEX
  5
C66
  8
OBJ02
 10
315.32806397500002
 20
98.417616810000013
 30
0.0
  0
VERTEX
  5
C67
  8
OBJ02
 10
314.38405934500003
 20
96.620124735000005
 30
0.0
  0
VERTEX
  5
C68
  8
OBJ02
 10
313.47128923000002
 20
94.929998260000005
 30
0.0
  0
VERTEX
  5
C69
  8
OBJ02
 10
312.59463350999999
 20
93.355534515000002
 30
0.0
  0
VERTEX
  5
C6A
  8
OBJ02
 10
311.75897207000003
 20
91.905030635000017
 30
0.0
  0
VERTEX
  5
C6B
  8
OBJ02
 10
310.969184805
 20
90.586783754999985
 30
0.0
  0
VERTEX
  5
C6C
  8
OBJ02
 10
310.22819972999997
 20
89.405349294999994
 30
0.0
  0
VERTEX
  5
C6D
  8
OBJ02
 10
309.53113738500002
 20
88.350315795
 30
0.0
  0
VERTEX
  5
C6E
  8
OBJ02
 10
308.87116645499998
 20
87.407530080000001
 30
0.0
  0
VERTEX
  5
C6F
  8
OBJ02
 10
308.24145561500001
 20
86.562838989999989
 30
0.0
  0
VERTEX
  5
C70
  8
OBJ02
 10
307.63517352999997
 20
85.802089339999995
 30
0.0
  0
VERTEX
  5
C71
  8
OBJ02
 10
307.04548889
 20
85.111127960000005
 30
0.0
  0
VERTEX
  5
C72
  8
OBJ02
 10
306.46557036500002
 20
84.475801684999993
 30
0.0
  0
VERTEX
  5
C73
  8
OBJ02
 10
305.88858663500002
 20
83.881957330000006
 30
0.0
  0
VERTEX
  5
C74
  8
OBJ02
 10
305.30900728
 20
83.317800594999994
 30
0.0
  0
VERTEX
  5
C75
  8
OBJ02
 10
304.72650552499999
 20
82.780972614999996
 30
0.0
  0
VERTEX
  5
C76
  8
OBJ02
 10
304.14205550499997
 20
82.271473384999993
 30
0.0
  0
VERTEX
  5
C77
  8
OBJ02
 10
303.55663134999998
 20
81.789302910000004
 30
0.0
  0
VERTEX
  5
C78
  8
OBJ02
 10
302.97120719499998
 20
81.334461189999999
 30
0.0
  0
VERTEX
  5
C79
  8
OBJ02
 10
302.38675717500001
 20
80.906948224999994
 30
0.0
  0
VERTEX
  5
C7A
  8
OBJ02
 10
301.80425542
 20
80.506764009999998
 30
0.0
  0
VERTEX
  5
C7B
  8
OBJ02
 10
301.22467606499998
 20
80.133908550000001
 30
0.0
  0
VERTEX
  5
C7C
  8
OBJ02
 10
300.64996977499999
 20
79.788463214999993
 30
0.0
  0
VERTEX
  5
C7D
  8
OBJ02
 10
300.08599335999997
 20
79.470834855000007
 30
0.0
  0
VERTEX
  5
C7E
  8
OBJ02
 10
299.53958016000001
 20
79.181511685000004
 30
0.0
  0
VERTEX
  5
C7F
  8
OBJ02
 10
299.01756351500001
 20
78.920981925000007
 30
0.0
  0
VERTEX
  5
C80
  8
OBJ02
 10
298.52677676500002
 20
78.689733799999985
 30
0.0
  0
VERTEX
  5
C81
  8
OBJ02
 10
298.07405325500008
 20
78.488255519999996
 30
0.0
  0
VERTEX
  5
C82
  8
OBJ02
 10
297.66622632500003
 20
78.317035314999998
 30
0.0
  0
VERTEX
  5
C83
  8
OBJ02
 10
297.31012931499998
 20
78.176561394999993
 30
0.0
  0
VERTEX
  5
C84
  8
OBJ02
 10
297.00982976
 20
78.066915280000003
 30
0.0
  0
VERTEX
  5
C85
  8
OBJ02
 10
296.75833196500002
 20
77.986551664999993
 30
0.0
  0
VERTEX
  5
C86
  8
OBJ02
 10
296.54587442000002
 20
77.933518524999997
 30
0.0
  0
VERTEX
  5
C87
  8
OBJ02
 10
296.36269563000002
 20
77.905863859999997
 30
0.0
  0
VERTEX
  5
C88
  8
OBJ02
 10
296.19903407999999
 20
77.901635655000007
 30
0.0
  0
VERTEX
  5
C89
  8
OBJ02
 10
296.04512827000002
 20
77.918881889999994
 30
0.0
  0
VERTEX
  5
C8A
  8
OBJ02
 10
295.89121669500003
 20
77.955650559999995
 30
0.0
  0
VERTEX
  5
C8B
  8
OBJ02
 10
295.72753785499998
 20
78.009989649999994
 30
0.0
  0
VERTEX
  5
C8C
  8
OBJ02
 10
295.54685203499997
 20
78.080191064999994
 30
0.0
  0
VERTEX
  5
C8D
  8
OBJ02
 10
295.3520067
 20
78.165522374999995
 30
0.0
  0
VERTEX
  5
C8E
  8
OBJ02
 10
295.14837111000003
 20
78.265495079999994
 30
0.0
  0
VERTEX
  5
C8F
  8
OBJ02
 10
294.94131453
 20
78.379620669999994
 30
0.0
  0
VERTEX
  5
C90
  8
OBJ02
 10
294.73620621499998
 20
78.507410634999999
 30
0.0
  0
VERTEX
  5
C91
  8
OBJ02
 10
294.53841542499998
 20
78.648376475000006
 30
0.0
  0
VERTEX
  5
C92
  8
OBJ02
 10
294.35331142000001
 20
78.802029669999996
 30
0.0
  0
VERTEX
  5
C93
  8
OBJ02
 10
294.18626346500002
 20
78.967881719999994
 30
0.0
  0
VERTEX
  5
C94
  8
OBJ02
 10
294.04418655000001
 20
79.148616439999998
 30
0.0
  0
VERTEX
  5
C95
  8
OBJ02
 10
293.940178635
 20
79.359606924999994
 30
0.0
  0
VERTEX
  5
C96
  8
OBJ02
 10
293.88888342500002
 20
79.619398590000003
 30
0.0
  0
VERTEX
  5
C97
  8
OBJ02
 10
293.90494460999997
 20
79.946536855000005
 30
0.0
  0
VERTEX
  5
C98
  8
OBJ02
 10
294.003005895
 20
80.359567135000006
 30
0.0
  0
VERTEX
  5
C99
  8
OBJ02
 10
294.197710965
 20
80.877034844999997
 30
0.0
  0
VERTEX
  5
C9A
  8
OBJ02
 10
294.50370353
 20
81.517485410000006
 30
0.0
  0
VERTEX
  5
C9B
  8
OBJ02
 10
294.93562728500001
 20
82.299464244999996
 30
0.0
  0
VERTEX
  5
C9C
  8
OBJ02
 10
295.50291887499998
 20
83.235741704999995
 30
0.0
  0
VERTEX
  5
C9D
  8
OBJ02
 10
296.19418675999998
 20
84.315987960000015
 30
0.0
  0
VERTEX
  5
C9E
  8
OBJ02
 10
296.99283234000001
 20
85.524098104999993
 30
0.0
  0
VERTEX
  5
C9F
  8
OBJ02
 10
297.88225703500001
 20
86.843967239999998
 30
0.0
  0
VERTEX
  5
CA0
  8
OBJ02
 10
298.84586224499998
 20
88.259490475000007
 30
0.0
  0
VERTEX
  5
CA1
  8
OBJ02
 10
299.86704938000003
 20
89.754562910000004
 30
0.0
  0
VERTEX
  5
CA2
  8
OBJ02
 10
300.92921984499998
 20
91.313079645000016
 30
0.0
  0
VERTEX
  5
CA3
  8
OBJ02
 10
302.01577505
 20
92.918935790000006
 30
0.0
  0
VERTEX
  5
CA4
  8
OBJ02
 10
303.11272076500001
 20
94.558873230000003
 30
0.0
  0
VERTEX
  5
CA5
  8
OBJ02
 10
304.216480225
 20
96.231021045000006
 30
0.0
  0
VERTEX
  5
CA6
  8
OBJ02
 10
305.32608102500001
 20
97.936355090000006
 30
0.0
  0
VERTEX
  5
CA7
  8
OBJ02
 10
306.44055076000001
 20
99.67585123500001
 30
0.0
  0
VERTEX
  5
CA8
  8
OBJ02
 10
307.55891702500003
 20
101.450485335
 30
0.0
  0
VERTEX
  5
CA9
  8
OBJ02
 10
308.68020742499999
 20
103.26123325499999
 30
0.0
  0
VERTEX
  5
CAA
  8
OBJ02
 10
309.80344954499998
 20
105.109070855
 30
0.0
  0
VERTEX
  5
CAB
  8
OBJ02
 10
310.92767098500002
 20
106.994974
 30
0.0
  0
VERTEX
  5
CAC
  8
OBJ02
 10
312.049946465
 20
108.914875635
 30
0.0
  0
VERTEX
  5
CAD
  8
OBJ02
 10
313.15953919499998
 20
110.844537045
 30
0.0
  0
VERTEX
  5
CAE
  8
OBJ02
 10
314.24375950500001
 20
112.7546766
 30
0.0
  0
VERTEX
  5
CAF
  8
OBJ02
 10
315.28991773000001
 20
114.61601267
 30
0.0
  0
VERTEX
  5
CB0
  8
OBJ02
 10
316.28532420499999
 20
116.399263615
 30
0.0
  0
VERTEX
  5
CB1
  8
OBJ02
 10
317.21728925500003
 20
118.07514781499999
 30
0.0
  0
VERTEX
  5
CB2
  8
OBJ02
 10
318.07312322000001
 20
119.614383635
 30
0.0
  0
VERTEX
  5
CB3
  8
OBJ02
 10
318.84013642999997
 20
120.987689445
 30
0.0
  0
VERTEX
  5
CB4
  8
OBJ02
 10
319.50978764000001
 20
122.173510725
 30
0.0
  0
VERTEX
  5
CB5
  8
OBJ02
 10
320.0901293
 20
123.18120141
 30
0.0
  0
VERTEX
  5
CB6
  8
OBJ02
 10
320.593362275
 20
124.027842545
 30
0.0
  0
VERTEX
  5
CB7
  8
OBJ02
 10
321.03168744499999
 20
124.730515185
 30
0.0
  0
VERTEX
  5
CB8
  8
OBJ02
 10
321.41730568000003
 20
125.306300365
 30
0.0
  0
VERTEX
  5
CB9
  8
OBJ02
 10
321.76241785000002
 20
125.772279145
 30
0.0
  0
VERTEX
  5
CBA
  8
OBJ02
 10
322.07922482999999
 20
126.14553257
 30
0.0
  0
VERTEX
  5
CBB
  8
OBJ02
 10
322.37992749
 20
126.44314168
 30
0.0
  0
VERTEX
  5
CBC
  8
OBJ02
 10
322.67469321499999
 20
126.679828765
 30
0.0
  0
VERTEX
  5
CBD
  8
OBJ02
 10
322.96555549999999
 20
126.86088104
 30
0.0
  0
VERTEX
  5
CBE
  8
OBJ02
 10
323.25251433
 20
126.98922695500001
 30
0.0
  0
VERTEX
  5
CBF
  8
OBJ02
 10
323.53556971500001
 20
127.06779496
 30
0.0
  0
VERTEX
  5
CC0
  8
OBJ02
 10
323.81472164500002
 20
127.09951350999999
 30
0.0
  0
VERTEX
  5
CC1
  8
OBJ02
 10
324.08997012999998
 20
127.08731105
 30
0.0
  0
VERTEX
  5
CC2
  8
OBJ02
 10
324.36131517000001
 20
127.03411604
 30
0.0
  0
VERTEX
  5
CC3
  8
OBJ02
 10
324.62875675499998
 20
126.942856925
 30
0.0
  0
SEQEND
  5
CC4
  8
OBJ02
  0
ENDSEC
  0
EOF
