  0
SECTION
  2
HEADER
  9
$ACADVER
  1
AC1018
  9
$ACADMAINTVER
 70
     0
  9
$DWGCODEPAGE
  3
ANSI_1251
  9
$INSBASE
 10
0.0
 20
0.0
 30
0.0
  9
$EXTMIN
 10
1.000000000000000E+20
 20
1.000000000000000E+20
 30
1.000000000000000E+20
  9
$EXTMAX
 10
-1.000000000000000E+20
 20
-1.000000000000000E+20
 30
-1.000000000000000E+20
  9
$LIMMIN
 10
0.0
 20
0.0
  9
$LIMMAX
 10
12.0
 20
9.0
  9
$ORTHOMODE
 70
     0
  9
$REGENMODE
 70
     1
  9
$FILLMODE
 70
     1
  9
$QTEXTMODE
 70
     0
  9
$MIRRTEXT
 70
     1
  9
$LTSCALE
 40
1.0
  9
$ATTMODE
 70
     1
  9
$TEXTSIZE
 40
0.2
  9
$TRACEWID
 40
0.05
  9
$TEXTSTYLE
  7
Standard
  9
$CLAYER
  8
0
  9
$CELTYPE
  6
ByLayer
  9
$CECOLOR
 62
   256
  9
$CELTSCALE
 40
1.0
  9
$DISPSILH
 70
     0
  9
$DIMSCALE
 40
1.0
  9
$DIMASZ
 40
0.18
  9
$DIMEXO
 40
0.0625
  9
$DIMDLI
 40
0.38
  9
$DIMRND
 40
0.0
  9
$DIMDLE
 40
0.0
  9
$DIMEXE
 40
0.18
  9
$DIMTP
 40
0.0
  9
$DIMTM
 40
0.0
  9
$DIMTXT
 40
0.18
  9
$DIMCEN
 40
0.09
  9
$DIMTSZ
 40
0.0
  9
$DIMTOL
 70
     0
  9
$DIMLIM
 70
     0
  9
$DIMTIH
 70
     1
  9
$DIMTOH
 70
     1
  9
$DIMSE1
 70
     0
  9
$DIMSE2
 70
     0
  9
$DIMTAD
 70
     0
  9
$DIMZIN
 70
     0
  9
$DIMBLK
  1

  9
$DIMASO
 70
     1
  9
$DIMSHO
 70
     1
  9
$DIMPOST
  1

  9
$DIMAPOST
  1

  9
$DIMALT
 70
     0
  9
$DIMALTD
 70
     2
  9
$DIMALTF
 40
25.4
  9
$DIMLFAC
 40
1.0
  9
$DIMTOFL
 70
     0
  9
$DIMTVP
 40
0.0
  9
$DIMTIX
 70
     0
  9
$DIMSOXD
 70
     0
  9
$DIMSAH
 70
     0
  9
$DIMBLK1
  1

  9
$DIMBLK2
  1

  9
$DIMSTYLE
  2
Standard
  9
$DIMCLRD
 70
     0
  9
$DIMCLRE
 70
     0
  9
$DIMCLRT
 70
     0
  9
$DIMTFAC
 40
1.0
  9
$DIMGAP
 40
0.09
  9
$DIMJUST
 70
     0
  9
$DIMSD1
 70
     0
  9
$DIMSD2
 70
     0
  9
$DIMTOLJ
 70
     1
  9
$DIMTZIN
 70
     0
  9
$DIMALTZ
 70
     0
  9
$DIMALTTZ
 70
     0
  9
$DIMUPT
 70
     0
  9
$DIMDEC
 70
     4
  9
$DIMTDEC
 70
     4
  9
$DIMALTU
 70
     2
  9
$DIMALTTD
 70
     2
  9
$DIMTXSTY
  7
Standard
  9
$DIMAUNIT
 70
     0
  9
$DIMADEC
 70
     0
  9
$DIMALTRND
 40
0.0
  9
$DIMAZIN
 70
     0
  9
$DIMDSEP
 70
    46
  9
$DIMATFIT
 70
     3
  9
$DIMFRAC
 70
     0
  9
$DIMLDRBLK
  1

  9
$DIMLUNIT
 70
     2
  9
$DIMLWD
 70
    -2
  9
$DIMLWE
 70
    -2
  9
$DIMTMOVE
 70
     0
  9
$LUNITS
 70
     2
  9
$LUPREC
 70
     4
  9
$SKETCHINC
 40
0.1
  9
$FILLETRAD
 40
0.5
  9
$AUNITS
 70
     0
  9
$AUPREC
 70
     0
  9
$MENU
  1
.
  9
$ELEVATION
 40
0.0
  9
$PELEVATION
 40
0.0
  9
$THICKNESS
 40
0.0
  9
$LIMCHECK
 70
     0
  9
$CHAMFERA
 40
0.5
  9
$CHAMFERB
 40
0.5
  9
$CHAMFERC
 40
1.0
  9
$CHAMFERD
 40
0.0
  9
$SKPOLY
 70
     0
  9
$TDCREATE
 40
2457123.721332824
  9
$TDUCREATE
 40
2457123.554666157
  9
$TDUPDATE
 40
2457123.721332835
  9
$TDUUPDATE
 40
2457123.554666169
  9
$TDINDWG
 40
0.0000000116
  9
$TDUSRTIMER
 40
0.0000000116
  9
$USRTIMER
 70
     1
  9
$ANGBASE
 50
0.0
  9
$ANGDIR
 70
     0
  9
$PDMODE
 70
     0
  9
$PDSIZE
 40
0.0
  9
$PLINEWID
 40
0.0
  9
$SPLFRAME
 70
     0
  9
$SPLINETYPE
 70
     6
  9
$SPLINESEGS
 70
     8
  9
$HANDSEED
  5
50
  9
$SURFTAB1
 70
     6
  9
$SURFTAB2
 70
     6
  9
$SURFTYPE
 70
     6
  9
$SURFU
 70
     6
  9
$SURFV
 70
     6
  9
$UCSBASE
  2

  9
$UCSNAME
  2

  9
$UCSORG
 10
0.0
 20
0.0
 30
0.0
  9
$UCSXDIR
 10
1.0
 20
0.0
 30
0.0
  9
$UCSYDIR
 10
0.0
 20
1.0
 30
0.0
  9
$UCSORTHOREF
  2

  9
$UCSORTHOVIEW
 70
     0
  9
$UCSORGTOP
 10
0.0
 20
0.0
 30
0.0
  9
$UCSORGBOTTOM
 10
0.0
 20
0.0
 30
0.0
  9
$UCSORGLEFT
 10
0.0
 20
0.0
 30
0.0
  9
$UCSORGRIGHT
 10
0.0
 20
0.0
 30
0.0
  9
$UCSORGFRONT
 10
0.0
 20
0.0
 30
0.0
  9
$UCSORGBACK
 10
0.0
 20
0.0
 30
0.0
  9
$PUCSBASE
  2

  9
$PUCSNAME
  2

  9
$PUCSORG
 10
0.0
 20
0.0
 30
0.0
  9
$PUCSXDIR
 10
1.0
 20
0.0
 30
0.0
  9
$PUCSYDIR
 10
0.0
 20
1.0
 30
0.0
  9
$PUCSORTHOREF
  2

  9
$PUCSORTHOVIEW
 70
     0
  9
$PUCSORGTOP
 10
0.0
 20
0.0
 30
0.0
  9
$PUCSORGBOTTOM
 10
0.0
 20
0.0
 30
0.0
  9
$PUCSORGLEFT
 10
0.0
 20
0.0
 30
0.0
  9
$PUCSORGRIGHT
 10
0.0
 20
0.0
 30
0.0
  9
$PUCSORGFRONT
 10
0.0
 20
0.0
 30
0.0
  9
$PUCSORGBACK
 10
0.0
 20
0.0
 30
0.0
  9
$USERI1
 70
     0
  9
$USERI2
 70
     0
  9
$USERI3
 70
     0
  9
$USERI4
 70
     0
  9
$USERI5
 70
     0
  9
$USERR1
 40
0.0
  9
$USERR2
 40
0.0
  9
$USERR3
 40
0.0
  9
$USERR4
 40
0.0
  9
$USERR5
 40
0.0
  9
$WORLDVIEW
 70
     1
  9
$SHADEDGE
 70
     3
  9
$SHADEDIF
 70
    70
  9
$TILEMODE
 70
     1
  9
$MAXACTVP
 70
    64
  9
$PINSBASE
 10
0.0
 20
0.0
 30
0.0
  9
$PLIMCHECK
 70
     0
  9
$PEXTMIN
 10
1.000000000000000E+20
 20
1.000000000000000E+20
 30
1.000000000000000E+20
  9
$PEXTMAX
 10
-1.000000000000000E+20
 20
-1.000000000000000E+20
 30
-1.000000000000000E+20
  9
$PLIMMIN
 10
0.0
 20
0.0
  9
$PLIMMAX
 10
12.0
 20
9.0
  9
$UNITMODE
 70
     0
  9
$VISRETAIN
 70
     1
  9
$PLINEGEN
 70
     0
  9
$PSLTSCALE
 70
     1
  9
$TREEDEPTH
 70
  3020
  9
$CMLSTYLE
  2
Standard
  9
$CMLJUST
 70
     0
  9
$CMLSCALE
 40
1.0
  9
$PROXYGRAPHICS
 70
     1
  9
$MEASUREMENT
 70
     0
  9
$CELWEIGHT
370
    -1
  9
$ENDCAPS
280
     0
  9
$JOINSTYLE
280
     0
  9
$LWDISPLAY
290
     1
  9
$INSUNITS
 70
     1
  9
$HYPERLINKBASE
  1

  9
$STYLESHEET
  1

  9
$XEDIT
290
     1
  9
$CEPSNTYPE
380
     0
  9
$PSTYLEMODE
290
     1
  9
$FINGERPRINTGUID
  2
{845E9F41-9A4A-4A5D-B1D2-5E11E7BA1246}
  9
$VERSIONGUID
  2
{FAEB1C32-E019-11D5-929B-00C0DF256EC4}
  9
$EXTNAMES
290
     1
  9
$PSVPSCALE
 40
0.0
  9
$OLESTARTUP
290
     0
  9
$SORTENTS
280
   127
  9
$INDEXCTL
280
     0
  9
$HIDETEXT
280
     1
  9
$XCLIPFRAME
290
     0
  9
$HALOGAP
280
     0
  9
$OBSCOLOR
 70
   257
  9
$OBSLTYPE
280
     0
  9
$INTERSECTIONDISPLAY
280
     0
  9
$INTERSECTIONCOLOR
 70
   257
  9
$DIMASSOC
280
     2
  9
$PROJECTNAME
  1

  0
ENDSEC
  0
SECTION
  2
CLASSES
  0
CLASS
  1
ACDBDICTIONARYWDFLT
  2
AcDbDictionaryWithDefault
  3
ObjectDBX Classes
 90
        0
 91
        3
280
     0
281
     0
  0
CLASS
  1
VISUALSTYLE
  2
AcDbVisualStyle
  3
ObjectDBX Classes
 90
     4095
 91
        3
280
     0
281
     0
  0
ENDSEC
  0
SECTION
  2
TABLES
  0
TABLE
  2
VPORT
  5
8
330
0
100
AcDbSymbolTable
 70
     1
  0
VPORT
  5
29
330
8
100
AcDbSymbolTableRecord
100
AcDbViewportTableRecord
  2
*Active
 70
     0
 10
0.0
 20
0.0
 11
1.0
 21
1.0
 12
0.0
 22
0.0
 13
0.0
 23
0.0
 14
0.5
 24
0.5
 15
0.5
 25
0.5
 16
0.0
 26
0.0
 36
1.0
 17
107.9499999730125
 27
-139.699999965075
 37
0.0
 40
279.39999993015
 41
0.7727272727272728
 42
50.0
 43
0.0
 44
0.0
 50
0.0
 51
0.0
 71
     0
 72
   100
 73
     1
 74
     3
 75
     0
 76
     0
 77
     0
 78
     0
281
     0
 65
     1
110
0.0
120
0.0
130
0.0
111
1.0
121
0.0
131
0.0
112
0.0
122
1.0
132
0.0
 79
     0
146
0.0
  0
ENDTAB
  0
TABLE
  2
LTYPE
  5
5
330
0
100
AcDbSymbolTable
 70
     1
  0
LTYPE
  5
14
330
5
100
AcDbSymbolTableRecord
100
AcDbLinetypeTableRecord
  2
ByBlock
 70
     0
  3

 72
    65
 73
     0
 40
0.0
  0
LTYPE
  5
15
330
5
100
AcDbSymbolTableRecord
100
AcDbLinetypeTableRecord
  2
ByLayer
 70
     0
  3

 72
    65
 73
     0
 40
0.0
  0
LTYPE
  5
16
330
5
100
AcDbSymbolTableRecord
100
AcDbLinetypeTableRecord
  2
Continuous
 70
     0
  3
Solid line
 72
    65
 73
     0
 40
0.0
  0
ENDTAB
  0
TABLE
  2
LAYER
  5
2
330
0
100
AcDbSymbolTable
 70
     2
  0
LAYER
  5
10
330
2
100
AcDbSymbolTableRecord
100
AcDbLayerTableRecord
  2
0
 70
     0
 62
     7
  6
Continuous
370
    -3
390
F
  0
LAYER
  5
3B
330
2
100
AcDbSymbolTableRecord
100
AcDbLayerTableRecord
  2
Layer 1
 70
     0
 62
     7
  6
Continuous
370
    -3
390
F
  0
ENDTAB
  0
TABLE
  2
STYLE
  5
3
330
0
100
AcDbSymbolTable
 70
     1
  0
STYLE
  5
11
330
3
100
AcDbSymbolTableRecord
100
AcDbTextStyleTableRecord
  2
Standard
 70
     0
 40
0.0
 41
1.0
 50
0.0
 71
     0
 42
0.2
  3
txt
  4

  0
ENDTAB
  0
TABLE
  2
VIEW
  5
6
330
0
100
AcDbSymbolTable
 70
     0
  0
ENDTAB
  0
TABLE
  2
UCS
  5
7
330
0
100
AcDbSymbolTable
 70
     0
  0
ENDTAB
  0
TABLE
  2
APPID
  5
9
330
0
100
AcDbSymbolTable
 70
     1
  0
APPID
  5
12
330
9
100
AcDbSymbolTableRecord
100
AcDbRegAppTableRecord
  2
ACAD
 70
     0
  0
ENDTAB
  0
TABLE
  2
DIMSTYLE
  5
A
330
0
100
AcDbSymbolTable
 70
     1
100
AcDbDimStyleTable
  0
DIMSTYLE
105
27
330
A
100
AcDbSymbolTableRecord
100
AcDbDimStyleTableRecord
  2
Standard
 70
     0
340
11
  0
ENDTAB
  0
TABLE
  2
BLOCK_RECORD
  5
1
330
0
100
AcDbSymbolTable
 70
     2
  0
BLOCK_RECORD
  5
1F
330
1
100
AcDbSymbolTableRecord
100
AcDbBlockTableRecord
  2
*Model_Space
340
22
  0
BLOCK_RECORD
  5
1B
330
1
100
AcDbSymbolTableRecord
100
AcDbBlockTableRecord
  2
*Paper_Space
340
1E
  0
BLOCK_RECORD
  5
23
330
1
100
AcDbSymbolTableRecord
100
AcDbBlockTableRecord
  2
*Paper_Space0
340
26
  0
BLOCK_RECORD
  5
3C
330
1
100
AcDbSymbolTableRecord
100
AcDbBlockTableRecord
  2
block 2
340
0
102
{BLKREFS
331
3D
102
}
  0
ENDTAB
  0
ENDSEC
  0
SECTION
  2
BLOCKS
  0
BLOCK
  5
20
330
1F
100
AcDbEntity
  8
0
100
AcDbBlockBegin
  2
*Model_Space
 70
     0
 71
     0
 10
0.0
 20
0.0
 30
0.0
  3
*Model_Space
  1

  0
ENDBLK
  5
21
330
1F
100
AcDbEntity
  8
0
100
AcDbBlockEnd
  0
BLOCK
  5
1C
330
1B
100
AcDbEntity
 67
     1
  8
0
100
AcDbBlockBegin
  2
*Paper_Space
 70
     0
 71
     0
 10
0.0
 20
0.0
 30
0.0
  3
*Paper_Space
  1

  0
ENDBLK
  5
1D
330
1B
100
AcDbEntity
 67
     1
  8
0
100
AcDbBlockEnd
  0
BLOCK
  5
24
330
23
100
AcDbEntity
  8
0
100
AcDbBlockBegin
  2
*Paper_Space0
 70
     0
 71
     0
 10
0.0
 20
0.0
 30
0.0
  3
*Paper_Space0
  1

  0
ENDBLK
  5
25
330
23
100
AcDbEntity
  8
0
100
AcDbBlockEnd
  0
BLOCK
  5
3E
330
3C
100
AcDbEntity
  8
0
100
AcDbBlockBegin
  2
block 2
 70
     0
 71
     0
 10
0.0
 20
0.0
 30
0.0
  3
block 2
  1

  0
SPLINE
  5
40
330
3C
100
AcDbEntity
  8
Layer 1
370
     0
100
AcDbSpline
210
0.0
220
0.0
230
1.0
 70
    11
 71
     3
 72
   128
 73
   124
 74
     0
 42
0.0000000001
 43
0.0000000001
 40
0.0
 40
0.0
 40
0.0
 40
0.0
 40
1.0
 40
1.0
 40
1.0
 40
2.0
 40
2.0
 40
2.0
 40
3.0
 40
3.0
 40
3.0
 40
4.0
 40
4.0
 40
4.0
 40
5.0
 40
5.0
 40
5.0
 40
6.0
 40
6.0
 40
6.0
 40
7.0
 40
7.0
 40
7.0
 40
8.0
 40
8.0
 40
8.0
 40
9.0
 40
9.0
 40
9.0
 40
10.0
 40
10.0
 40
10.0
 40
11.0
 40
11.0
 40
11.0
 40
12.0
 40
12.0
 40
12.0
 40
13.0
 40
13.0
 40
13.0
 40
14.0
 40
14.0
 40
14.0
 40
15.0
 40
15.0
 40
15.0
 40
16.0
 40
16.0
 40
16.0
 40
17.0
 40
17.0
 40
17.0
 40
18.0
 40
18.0
 40
18.0
 40
19.0
 40
19.0
 40
19.0
 40
20.0
 40
20.0
 40
20.0
 40
21.0
 40
21.0
 40
21.0
 40
22.0
 40
22.0
 40
22.0
 40
23.0
 40
23.0
 40
23.0
 40
24.0
 40
24.0
 40
24.0
 40
25.0
 40
25.0
 40
25.0
 40
26.0
 40
26.0
 40
26.0
 40
27.0
 40
27.0
 40
27.0
 40
28.0
 40
28.0
 40
28.0
 40
29.0
 40
29.0
 40
29.0
 40
30.0
 40
30.0
 40
30.0
 40
31.0
 40
31.0
 40
31.0
 40
32.0
 40
32.0
 40
32.0
 40
33.0
 40
33.0
 40
33.0
 40
34.0
 40
34.0
 40
34.0
 40
35.0
 40
35.0
 40
35.0
 40
36.0
 40
36.0
 40
36.0
 40
37.0
 40
37.0
 40
37.0
 40
38.0
 40
38.0
 40
38.0
 40
39.0
 40
39.0
 40
39.0
 40
40.0
 40
40.0
 40
40.0
 40
41.0
 40
41.0
 40
41.0
 40
41.0
 10
132.6868190857519
 20
-138.7811929991589
 30
0.0
 10
134.0689913944341
 20
-138.0572061829336
 30
0.0
 10
135.3357530043605
 20
-136.5863226655062
 30
0.0
 10
135.4577093845384
 20
-134.1916367937091
 30
0.0
 10
135.5645073445811
 20
-132.1025308914535
 30
0.0
 10
134.7473306954798
 20
-130.0371961480463
 30
0.0
 10
133.59115665063
 20
-128.9533691083867
 30
0.0
 10
133.4437065638613
 20
-128.8159097985252
 30
0.0
 10
133.5260443459588
 20
-128.8303791995633
 30
0.0
 10
133.6507568025248
 20
-128.826934104078
 30
0.0
 10
134.4221136816722
 20
-128.8062635311665
 30
0.0
 10
135.2651285469129
 20
-128.6495116865876
 30
0.0
 10
135.7312499660672
 20
-128.3229166345859
 30
0.0
 10
136.1711886595336
 20
-128.0149250982046
 30
0.0
 10
136.0206379868282
 20
-127.7568874463594
 30
0.0
 10
135.4673556518971
 20
-127.4688774637925
 30
0.0
 10
136.5318901568393
 20
-126.4935709319183
 30
0.0
 10
137.9426567580491
 20
-123.7237141617774
 30
0.0
 10
137.1003309119055
 20
-123.4928927642657
 30
0.0
 10
136.0523328652925
 20
-125.4190456500689
 30
0.0
 10
134.4586316938159
 20
-126.2386338660098
 30
0.0
 10
131.2484917206601
 20
-127.2669948683569
 30
0.0
 10
130.8002847980291
 20
-127.4135836812543
 30
0.0
 10
130.3837727538624
 20
-127.543980545371
 30
0.0
 10
129.9893093208013
 20
-127.6659369255488
 30
0.0
 10
130.1743109483592
 20
-126.6184556432586
 30
0.0
 10
130.2755967556255
 20
-125.5062065658457
 30
0.0
 10
130.2755967556255
 20
-124.3221272475653
 30
0.0
 10
130.2755967556255
 20
-122.029071692583
 30
0.0
 10
129.7464300890912
 20
-119.7360161376007
 30
0.0
 10
128.6880967560224
 20
-117.7075439158856
 30
0.0
 10
124.6311523125922
 20
-109.6818494734476
 30
0.0
 10
115.4589300926631
 20
-108.7117105848012
 30
0.0
 10
106.1985134283115
 20
-108.7117105848012
 30
0.0
 10
106.1985134283115
 20
-108.7117105848012
 30
0.0
 10
82.91518010079899
 20
-108.7117105848012
 30
0.0
 10
82.91518010079899
 20
-108.7117105848012
 30
0.0
 10
82.91518010079899
 20
-108.7117105848012
 30
0.0
 10
82.91518010079899
 20
-111.7103216951627
 30
0.0
 10
82.91518010079899
 20
-111.7103216951627
 30
0.0
 10
86.44984806866532
 20
-112.152155191146
 30
0.0
 10
87.70592988258741
 20
-114.134635388133
 30
0.0
 10
88.0256347436186
 20
-117.0345445128421
 30
0.0
 10
87.33592662747158
 20
-115.4988932002919
 30
0.0
 10
85.43802352464745
 20
-114.6519164752433
 30
0.0
 10
83.44985892010976
 20
-115.5436794416002
 30
0.0
 10
82.8821071841406
 20
-115.7986165075087
 30
0.0
 10
81.25119898142331
 20
-116.8162977138515
 30
0.0
 10
81.38969181993036
 20
-119.4779784857555
 30
0.0
 10
80.34996200248196
 20
-118.0868489288116
 30
0.0
 10
79.82217337414168
 20
-115.5085394676506
 30
0.0
 10
80.76337346071193
 20
-113.7556748847555
 30
0.0
 10
81.11339516201332
 20
-113.1024847807522
 30
0.0
 10
81.22363821754132
 20
-112.8916449370549
 30
0.0
 10
80.32171221950291
 20
-113.4084092598423
 30
0.0
 10
78.31873370437866
 20
-114.5521809609453
 30
0.0
 10
77.99902884334747
 20
-117.3371961512213
 30
0.0
 10
78.32700193354326
 20
-119.6316297443977
 30
0.0
 10
78.69838322685318
 20
-122.214762339238
 30
0.0
 10
79.84525551389285
 20
-123.7633327598578
 30
0.0
 10
81.40622827825956
 20
-125.5132690115904
 30
0.0
 10
80.46606172033488
 20
-125.1945976792048
 30
0.0
 10
79.60409882992536
 20
-125.2583319456819
 30
0.0
 10
78.61983504978949
 20
-125.538590463407
 30
0.0
 10
77.78095429913115
 20
-125.6970648557285
 30
0.0
 10
76.92140297556132
 20
-126.6796060881218
 30
0.0
 10
75.97951386989402
 20
-126.1628417653343
 30
0.0
 10
75.65464136563496
 20
-125.9843858191984
 30
0.0
 10
75.55645614430533
 20
-126.2889322600944
 30
0.0
 10
75.94437389594447
 20
-126.4639431107451
 30
0.0
 10
77.26384546679515
 20
-127.0564995342081
 30
0.0
 10
77.82126191630857
 20
-128.3187825200037
 30
0.0
 10
79.30919865638798
 20
-128.4255804800464
 30
0.0
 10
77.49638941204952
 20
-129.0312282663533
 30
0.0
 10
74.76890731637722
 20
-131.771457215321
 30
0.0
 10
76.11387259381875
 20
-135.5148979695935
 30
0.0
 10
76.67060002423513
 20
-137.0651909379559
 30
0.0
 10
78.35559622607083
 20
-138.3233398091692
 30
0.0
 10
79.67885740195528
 20
-137.6053819100431
 30
0.0
 10
81.40622827825956
 20
-136.6676269189581
 30
0.0
 10
79.44941404263766
 20
-133.3210611645864
 30
0.0
 10
78.00729707251207
 20
-134.7397514854123
 30
0.0
 10
77.87362736768438
 20
-134.8720431520459
 30
0.0
 10
77.76338431215638
 20
-135.0325846016585
 30
0.0
 10
77.6672661481179
 20
-135.1958821276594
 30
0.0
 10
76.2192925156674
 20
-132.5672742724138
 30
0.0
 10
78.26671276255138
 20
-130.3314073024866
 30
0.0
 10
79.4184081832704
 20
-130.2156520941822
 30
0.0
 10
79.4184081832704
 20
-130.2156520941822
 30
0.0
 10
78.49856768870869
 20
-131.5075629011509
 30
0.0
 10
78.73834633448209
 20
-132.6630479269037
 30
0.0
 10
78.97674694206137
 20
-132.777425097014
 30
0.0
 10
79.24167478487709
 20
-132.6933647671739
 30
0.0
 10
79.49144420755769
 20
-132.6010362081692
 30
0.0
 10
79.64991859987919
 20
-133.9852755741426
 30
0.0
 10
79.80977103039478
 20
-135.0511881172789
 30
0.0
 10
81.30700952828437
 20
-135.7994628566751
 30
0.0
 10
81.59777558723945
 20
-135.9462239243468
 30
0.0
 10
81.68355846482217
 20
-135.8380479261099
 30
0.0
 10
81.66254338236214
 20
-135.6258300442186
 30
0.0
 10
81.62947046570375
 20
-135.3171494887402
 30
0.0
 10
81.64187280945065
 20
-135.0677245756081
 30
0.0
 10
81.70388452818514
 20
-134.7680012683913
 30
0.0
 10
82.32193465823896
 20
-131.8458712778024
 30
0.0
 10
85.08834633289459
 20
-132.0918510954493
 30
0.0
 10
86.70685219186495
 20
-133.6070040898621
 30
0.0
 10
87.9553547957195
 20
-135.0539441936671
 30
0.0
 10
88.04802786427273
 20
-136.9411675004869
 30
0.0
 10
88.05526256479175
 20
-138.7811929991589
 30
0.0
 10
88.05526256479175
 20
-138.7811929991589
 30
0.0
 10
73.36778698252611
 20
-138.7811929991589
 30
0.0
 10
73.36778698252611
 20
-138.7811929991589
 30
0.0
 10
73.36778698252611
 20
-138.7811929991589
 30
0.0
 10
73.36778698252611
 20
-140.3928086671588
 30
0.0
 10
73.36778698252611
 20
-140.3928086671588
 30
0.0
 10
73.36778698252611
 20
-140.3928086671588
 30
0.0
 10
142.2765868784934
 20
-140.3928086671588
 30
0.0
 10
142.2765868784934
 20
-140.3928086671588
 30
0.0
 10
142.2765868784934
 20
-140.3928086671588
 30
0.0
 10
142.2765868784934
 20
-138.7811929991589
 30
0.0
 10
142.2765868784934
 20
-138.7811929991589
 30
0.0
 10
142.2765868784934
 20
-138.7811929991589
 30
0.0
 10
132.6868190857519
 20
-138.7811929991589
 30
0.0
 10
132.6868190857519
 20
-138.7811929991589
 30
0.0
  0
SPLINE
  5
41
330
3C
100
AcDbEntity
  8
Layer 1
370
     0
100
AcDbSpline
210
0.0
220
0.0
230
1.0
 70
    11
 71
     3
 72
   125
 73
   121
 74
     0
 42
0.0000000001
 43
0.0000000001
 40
0.0
 40
0.0
 40
0.0
 40
0.0
 40
1.0
 40
1.0
 40
1.0
 40
2.0
 40
2.0
 40
2.0
 40
3.0
 40
3.0
 40
3.0
 40
4.0
 40
4.0
 40
4.0
 40
5.0
 40
5.0
 40
5.0
 40
6.0
 40
6.0
 40
6.0
 40
7.0
 40
7.0
 40
7.0
 40
8.0
 40
8.0
 40
8.0
 40
9.0
 40
9.0
 40
9.0
 40
10.0
 40
10.0
 40
10.0
 40
11.0
 40
11.0
 40
11.0
 40
12.0
 40
12.0
 40
12.0
 40
13.0
 40
13.0
 40
13.0
 40
14.0
 40
14.0
 40
14.0
 40
15.0
 40
15.0
 40
15.0
 40
16.0
 40
16.0
 40
16.0
 40
17.0
 40
17.0
 40
17.0
 40
18.0
 40
18.0
 40
18.0
 40
19.0
 40
19.0
 40
19.0
 40
20.0
 40
20.0
 40
20.0
 40
21.0
 40
21.0
 40
21.0
 40
22.0
 40
22.0
 40
22.0
 40
23.0
 40
23.0
 40
23.0
 40
24.0
 40
24.0
 40
24.0
 40
25.0
 40
25.0
 40
25.0
 40
26.0
 40
26.0
 40
26.0
 40
27.0
 40
27.0
 40
27.0
 40
28.0
 40
28.0
 40
28.0
 40
29.0
 40
29.0
 40
29.0
 40
30.0
 40
30.0
 40
30.0
 40
31.0
 40
31.0
 40
31.0
 40
32.0
 40
32.0
 40
32.0
 40
33.0
 40
33.0
 40
33.0
 40
34.0
 40
34.0
 40
34.0
 40
35.0
 40
35.0
 40
35.0
 40
36.0
 40
36.0
 40
36.0
 40
37.0
 40
37.0
 40
37.0
 40
38.0
 40
38.0
 40
38.0
 40
39.0
 40
39.0
 40
39.0
 40
40.0
 40
40.0
 40
40.0
 40
40.0
 10
95.70337454204638
 20
-112.1512939172747
 30
0.0
 10
95.70337454204638
 20
-112.1512939172747
 30
0.0
 10
104.7874023175532
 20
-112.1512939172747
 30
0.0
 10
104.7874023175532
 20
-112.1512939172747
 30
0.0
 10
111.1374023159657
 20
-112.1512939172747
 30
0.0
 10
121.456152313386
 20
-112.5922661393867
 30
0.0
 10
121.456152313386
 20
-124.9394883585221
 30
0.0
 10
121.456152313386
 20
-131.0908786022099
 30
0.0
 10
118.7055880779625
 20
-134.3842176313345
 30
0.0
 10
115.2963215857593
 20
-136.1487955388795
 30
0.0
 10
113.2830077841792
 20
-134.6972045561695
 30
0.0
 10
109.7907144907815
 20
-135.3181830173857
 30
0.0
 10
108.8033501247089
 20
-137.7934841235378
 30
0.0
 10
108.4154323730698
 20
-137.7934841235378
 30
0.0
 10
108.2266411404781
 20
-137.7934841235378
 30
0.0
 10
107.8497476943917
 20
-137.7934841235378
 30
0.0
 10
108.7999050292236
 20
-135.6788845146914
 30
0.0
 10
110.8928005365129
 20
-134.8699760947547
 30
0.0
 10
113.0208360177517
 20
-134.8699760947547
 30
0.0
 10
113.348464598399
 20
-134.8699760947547
 30
0.0
 10
113.3929063301587
 20
-134.7425075618005
 30
0.0
 10
113.0594210871865
 20
-134.6040147232935
 30
0.0
 10
111.8929117558809
 20
-134.1223903744555
 30
0.0
 10
110.3608777935903
 20
-134.1099880307086
 30
0.0
 10
108.8626057670552
 20
-134.6908311295217
 30
0.0
 10
108.6338514268346
 20
-134.1266967438121
 30
0.0
 10
108.197702338402
 20
-133.5461981545475
 30
0.0
 10
107.6719807673528
 20
-133.1183172952795
 30
0.0
 10
107.8270100641891
 20
-132.7908609694065
 30
0.0
 10
107.6743923341925
 20
-132.3473049256805
 30
0.0
 10
107.2499565704097
 20
-132.2027831700743
 30
0.0
 10
107.2499565704097
 20
-132.2027831700743
 30
0.0
 10
107.2499565704097
 20
-131.5564832570414
 30
0.0
 10
107.2499565704097
 20
-131.5564832570414
 30
0.0
 10
108.377536322732
 20
-132.0022786128328
 30
0.0
 10
108.8639838052493
 20
-133.4674777227095
 30
0.0
 10
109.9522894690397
 20
-133.3896185647429
 30
0.0
 10
111.1191433098938
 20
-133.308314311291
 30
0.0
 10
111.4488389478322
 20
-131.8920355573048
 30
0.0
 10
112.5381781402682
 20
-131.1651204099171
 30
0.0
 10
111.5335882967694
 20
-130.4430283962087
 30
0.0
 10
111.2028591301854
 20
-129.026405132674
 30
0.0
 10
110.1600287268003
 20
-128.9878200632392
 30
0.0
 10
108.9476996255409
 20
-128.9464789174162
 30
0.0
 10
108.5322211100197
 20
-130.281108908402
 30
0.0
 10
107.2826849775196
 20
-130.7262152450962
 30
0.0
 10
107.653721761281
 20
-129.5535047419172
 30
0.0
 10
109.2846299639983
 20
-129.150428570143
 30
0.0
 10
109.2846299639983
 20
-128.0156141173017
 30
0.0
 10
109.2846299639983
 20
-127.0082681974146
 30
0.0
 10
107.653721761281
 20
-126.6051920256404
 30
0.0
 10
106.9064805505303
 20
-125.8396918088179
 30
0.0
 10
106.0703558762602
 20
-126.5238877721885
 30
0.0
 10
104.6130804859995
 20
-127.2122178501414
 30
0.0
 10
104.6130804859995
 20
-128.0604003586099
 30
0.0
 10
104.6130804859995
 20
-129.150428570143
 30
0.0
 10
106.6150254724782
 20
-130.0358181098522
 30
0.0
 10
106.5705837407185
 20
-130.806141460354
 30
0.0
 10
105.3179470222816
 20
-130.3617241427568
 30
0.0
 10
105.1112412931666
 20
-129.1083984052229
 30
0.0
 10
104.0239691580218
 20
-129.0698133357881
 30
0.0
 10
102.9801052259911
 20
-129.0698133357881
 30
0.0
 10
102.6256049005589
 20
-130.6828070419821
 30
0.0
 10
101.4577175310592
 20
-131.3270398977238
 30
0.0
 10
102.7082871922049
 20
-132.1380153749516
 30
0.0
 10
103.2322862155114
 20
-133.4288926532747
 30
0.0
 10
104.0694444184271
 20
-133.4674777227095
 30
0.0
 10
105.1515489103441
 20
-133.5487819761614
 30
0.0
 10
105.5001925734513
 20
-131.7562987951859
 30
0.0
 10
106.750762234597
 20
-131.6364094722992
 30
0.0
 10
106.750762234597
 20
-131.6364094722992
 30
0.0
 10
106.750762234597
 20
-132.2027831700743
 30
0.0
 10
106.750762234597
 20
-132.2027831700743
 30
0.0
 10
106.2439886887168
 20
-132.257043423967
 30
0.0
 10
106.1006727165304
 20
-132.8041245870247
 30
0.0
 10
106.3273599994598
 20
-133.1687879441384
 30
0.0
 10
105.8336778164235
 20
-133.5904676315329
 30
0.0
 10
105.426467530067
 20
-134.1451280046582
 30
0.0
 10
105.2090820049477
 20
-134.6846299576483
 30
0.0
 10
103.7101209593155
 20
-134.1037868588352
 30
0.0
 10
102.1784315065734
 20
-134.115500183485
 30
0.0
 10
101.0122666848164
 20
-134.5971245323229
 30
0.0
 10
100.6777479131986
 20
-134.7363063899271
 30
0.0
 10
100.7218451354098
 20
-134.8651529610754
 30
0.0
 10
101.0511962637997
 20
-134.8651529610754
 30
0.0
 10
103.2705267753977
 20
-134.8651529610754
 30
0.0
 10
105.0847140579302
 20
-135.6788845146914
 30
0.0
 10
106.0989501687878
 20
-137.7865939325673
 30
0.0
 10
105.7206786845073
 20
-137.7865939325673
 30
0.0
 10
105.6552218702876
 20
-137.7865939325673
 30
0.0
 10
105.2673041186485
 20
-137.7865939325673
 30
0.0
 10
104.0108777951778
 20
-134.6377766590489
 30
0.0
 10
98.70095212376226
 20
-134.488259514989
 30
0.0
 10
97.54064396433012
 20
-137.7921060853436
 30
0.0
 10
97.29087454164952
 20
-137.7926228496664
 30
0.0
 10
96.5791178143969
 20
-137.7921060853436
 30
0.0
 10
95.73438040141363
 20
-137.7912448114723
 30
0.0
 10
95.98862844822507
 20
-133.6040757586997
 30
0.0
 10
96.75791827008136
 20
-132.053610535563
 30
0.0
 10
99.73585880753132
 20
-128.475878874131
 30
0.0
 10
102.5815076783477
 20
-125.0576551336661
 30
0.0
 10
104.8904106725621
 20
-123.5190754899536
 30
0.0
 10
105.4492051602696
 20
-119.6316297443977
 30
0.0
 10
105.777522760014
 20
-117.3371961512213
 30
0.0
 10
105.4574733894342
 20
-114.5521809609453
 30
0.0
 10
103.4548393838585
 20
-113.4084092598423
 30
0.0
 10
102.5525688762716
 20
-112.8916449370549
 30
0.0
 10
102.6631564413481
 20
-113.1024847807522
 30
0.0
 10
103.012833633101
 20
-113.7556748847555
 30
0.0
 10
103.9543782292197
 20
-115.5085394676506
 30
0.0
 10
103.4265896008795
 20
-118.0868489288116
 30
0.0
 10
102.3865152738825
 20
-119.4779784857555
 30
0.0
 10
102.5253526219381
 20
-116.8162977138515
 30
0.0
 10
100.8944444192208
 20
-115.7986165075087
 30
0.0
 10
100.3266926832517
 20
-115.5436794416002
 30
0.0
 10
98.29374183740573
 20
-114.6317626666546
 30
0.0
 10
96.35139700282188
 20
-115.5366169958554
 30
0.0
 10
95.70337454204638
 20
-117.1385863964966
 30
0.0
 10
95.70337454204638
 20
-117.1385863964966
 30
0.0
 10
95.70337454204638
 20
-112.1512939172747
 30
0.0
 10
95.70337454204638
 20
-112.1512939172747
 30
0.0
  0
SPLINE
  5
42
330
3C
100
AcDbEntity
  8
Layer 1
370
     0
100
AcDbSpline
210
0.0
220
0.0
230
1.0
 70
    11
 71
     3
 72
    29
 73
    25
 74
     0
 42
0.0000000001
 43
0.0000000001
 40
0.0
 40
0.0
 40
0.0
 40
0.0
 40
1.0
 40
1.0
 40
1.0
 40
2.0
 40
2.0
 40
2.0
 40
3.0
 40
3.0
 40
3.0
 40
4.0
 40
4.0
 40
4.0
 40
5.0
 40
5.0
 40
5.0
 40
6.0
 40
6.0
 40
6.0
 40
7.0
 40
7.0
 40
7.0
 40
8.0
 40
8.0
 40
8.0
 40
8.0
 10
95.70337454204638
 20
-120.5137464433959
 30
0.0
 10
95.96485728937685
 20
-120.7144232554117
 30
0.0
 10
96.29420841776673
 20
-120.8246663109397
 30
0.0
 10
96.64801972410189
 20
-120.7884928083445
 30
0.0
 10
97.38561466749388
 20
-120.7154567840573
 30
0.0
 10
97.92304956319285
 20
-120.0553764890834
 30
0.0
 10
97.84966902935703
 20
-119.3174370361429
 30
0.0
 10
97.77870006236088
 20
-118.6111924616666
 30
0.0
 10
97.17064070921428
 20
-118.0896050051998
 30
0.0
 10
96.470252797063
 20
-118.1109645972084
 30
0.0
 10
96.9611789037111
 20
-115.7545192852975
 30
0.0
 10
100.3607991285556
 20
-115.3872721065699
 30
0.0
 10
101.1383571795765
 20
-118.3066460207706
 30
0.0
 10
101.3405842845607
 20
-119.0659450657196
 30
0.0
 10
101.3082003869993
 20
-120.0030110377076
 30
0.0
 10
101.0522297924453
 20
-121.042740855156
 30
0.0
 10
100.5154839158434
 20
-123.4804904205188
 30
0.0
 10
98.79190264457286
 20
-125.428347407879
 30
0.0
 10
97.71772187227197
 20
-127.6518120340593
 30
0.0
 10
96.69935164683211
 20
-129.5943291234174
 30
0.0
 10
96.17948673810791
 20
-130.6054646483382
 30
0.0
 10
95.70337454204638
 20
-132.5298949863988
 30
0.0
 10
95.70337454204638
 20
-132.5298949863988
 30
0.0
 10
95.70337454204638
 20
-120.5137464433959
 30
0.0
 10
95.70337454204638
 20
-120.5137464433959
 30
0.0
  0
SPLINE
  5
43
330
3C
100
AcDbEntity
  8
Layer 1
370
     0
100
AcDbSpline
210
0.0
220
0.0
230
1.0
 70
    11
 71
     3
 72
    29
 73
    25
 74
     0
 42
0.0000000001
 43
0.0000000001
 40
0.0
 40
0.0
 40
0.0
 40
0.0
 40
1.0
 40
1.0
 40
1.0
 40
2.0
 40
2.0
 40
2.0
 40
3.0
 40
3.0
 40
3.0
 40
4.0
 40
4.0
 40
4.0
 40
5.0
 40
5.0
 40
5.0
 40
6.0
 40
6.0
 40
6.0
 40
7.0
 40
7.0
 40
7.0
 40
8.0
 40
8.0
 40
8.0
 40
8.0
 10
82.6381944237849
 20
-118.3066460207706
 30
0.0
 10
83.41540796525726
 20
-115.3872721065699
 30
0.0
 10
86.8150281901018
 20
-115.7545192852975
 30
0.0
 10
87.30629880629843
 20
-118.1109645972084
 30
0.0
 10
86.60556638459862
 20
-118.0896050051998
 30
0.0
 10
85.99785154100054
 20
-118.6111924616666
 30
0.0
 10
85.9268825740044
 20
-119.3174370361429
 30
0.0
 10
85.85315753062005
 20
-120.0553764890834
 30
0.0
 10
86.39059242631902
 20
-120.7154567840573
 30
0.0
 10
87.12853187925954
 20
-120.7884928083445
 30
0.0
 10
87.50266924895767
 20
-120.8267333682308
 30
0.0
 10
87.85096840251643
 20
-120.7028821855361
 30
0.0
 10
88.11865232172035
 20
-120.4789509789948
 30
0.0
 10
88.11865232172035
 20
-120.4789509789948
 30
0.0
 10
88.11865232172035
 20
-130.3059135958958
 30
0.0
 10
88.11865232172035
 20
-130.3059135958958
 30
0.0
 10
87.41378578543822
 20
-128.786281977352
 30
0.0
 10
86.48774411900307
 20
-127.5408799594342
 30
0.0
 10
85.50589190570686
 20
-126.6144937834506
 30
0.0
 10
84.46754012645256
 20
-124.8001342461437
 30
0.0
 10
83.17631833858093
 20
-123.0948119809451
 30
0.0
 10
82.72432181091615
 20
-121.042740855156
 30
0.0
 10
82.46800670681355
 20
-120.0030110377076
 30
0.0
 10
82.43562280925221
 20
-119.0659450657196
 30
0.0
 10
82.6381944237849
 20
-118.3066460207706
 30
0.0
  0
SPLINE
  5
44
330
3C
100
AcDbEntity
  8
Layer 1
370
     0
100
AcDbSpline
210
0.0
220
0.0
230
1.0
 70
    11
 71
     3
 72
    14
 73
    10
 74
     0
 42
0.0000000001
 43
0.0000000001
 40
0.0
 40
0.0
 40
0.0
 40
0.0
 40
1.0
 40
1.0
 40
1.0
 40
2.0
 40
2.0
 40
2.0
 40
3.0
 40
3.0
 40
3.0
 40
3.0
 10
79.56275768410237
 20
-127.0937065654488
 30
0.0
 10
79.5162488950515
 20
-127.0764810880225
 30
0.0
 10
79.51142576137215
 20
-127.0675238397609
 30
0.0
 10
79.55827905997154
 20
-127.0675238397609
 30
0.0
 10
82.21306964090508
 20
-127.0620116869845
 30
0.0
 10
85.58099498728531
 20
-128.5868109487561
 30
0.0
 10
87.07926701382047
 20
-131.0665906790389
 30
0.0
 10
85.08696829470048
 20
-129.0715358835307
 30
0.0
 10
81.79242348215607
 20
-127.9267306537822
 30
0.0
 10
79.56275768410237
 20
-127.0937065654488
 30
0.0
  0
SPLINE
  5
45
330
3C
100
AcDbEntity
  8
Layer 1
370
     0
100
AcDbSpline
210
0.0
220
0.0
230
1.0
 70
    11
 71
     3
 72
    14
 73
    10
 74
     0
 42
0.0000000001
 43
0.0000000001
 40
0.0
 40
0.0
 40
0.0
 40
0.0
 40
1.0
 40
1.0
 40
1.0
 40
2.0
 40
2.0
 40
2.0
 40
3.0
 40
3.0
 40
3.0
 40
3.0
 10
81.7638291896285
 20
-132.86010738866
 30
0.0
 10
81.72042098651434
 20
-132.9393445848207
 30
0.0
 10
81.66392142055625
 20
-132.9965331698759
 30
0.0
 10
81.67839082159429
 20
-132.8545952358836
 30
0.0
 10
81.92643769653229
 20
-130.4227023328457
 30
0.0
 10
86.38921438812493
 20
-130.4761013128671
 30
0.0
 10
87.33420407972895
 20
-132.58449974984
 30
0.0
 10
85.73636879367008
 20
-130.9997558266251
 30
0.0
 10
82.48488767469128
 20
-131.5399467987122
 30
0.0
 10
81.7638291896285
 20
-132.86010738866
 30
0.0
  0
SPLINE
  5
46
330
3C
100
AcDbEntity
  8
Layer 1
370
     0
100
AcDbSpline
210
0.0
220
0.0
230
1.0
 70
    11
 71
     3
 72
    59
 73
    55
 74
     0
 42
0.0000000001
 43
0.0000000001
 40
0.0
 40
0.0
 40
0.0
 40
0.0
 40
1.0
 40
1.0
 40
1.0
 40
2.0
 40
2.0
 40
2.0
 40
3.0
 40
3.0
 40
3.0
 40
4.0
 40
4.0
 40
4.0
 40
5.0
 40
5.0
 40
5.0
 40
6.0
 40
6.0
 40
6.0
 40
7.0
 40
7.0
 40
7.0
 40
8.0
 40
8.0
 40
8.0
 40
9.0
 40
9.0
 40
9.0
 40
10.0
 40
10.0
 40
10.0
 40
11.0
 40
11.0
 40
11.0
 40
12.0
 40
12.0
 40
12.0
 40
13.0
 40
13.0
 40
13.0
 40
14.0
 40
14.0
 40
14.0
 40
15.0
 40
15.0
 40
15.0
 40
16.0
 40
16.0
 40
16.0
 40
17.0
 40
17.0
 40
17.0
 40
18.0
 40
18.0
 40
18.0
 40
18.0
 10
129.6751166125465
 20
-129.0870388132143
 30
0.0
 10
129.7312716689561
 20
-129.0875555775371
 30
0.0
 10
129.7884602540112
 20
-129.082215679535
 30
0.0
 10
129.8442708008723
 20
-129.0849717559232
 30
0.0
 10
131.7170247066541
 20
-129.1769558053794
 30
0.0
 10
132.2413682395091
 20
-130.6325086478974
 30
0.0
 10
131.467599793522
 20
-132.1118326492637
 30
0.0
 10
131.123090244997
 20
-132.7695013773979
 30
0.0
 10
130.2742187174314
 20
-133.3196831263923
 30
0.0
 10
129.4432616863892
 20
-132.8308240770353
 30
0.0
 10
129.3140706056923
 20
-132.7550319763598
 30
0.0
 10
129.1862575631895
 20
-132.7061116204693
 30
0.0
 10
129.1979708878394
 20
-133.0240939337579
 30
0.0
 10
129.2389675241139
 20
-134.053143955202
 30
0.0
 10
130.5098632486225
 20
-134.8934027440544
 30
0.0
 10
131.8362250104437
 20
-134.7790255739441
 30
0.0
 10
131.8362250104437
 20
-134.7790255739441
 30
0.0
 10
131.8238226666968
 20
-135.2148301528283
 30
0.0
 10
131.9736843203052
 20
-135.5335014852139
 30
0.0
 10
132.1631645719939
 20
-135.9376111856337
 30
0.0
 10
132.3774495111765
 20
-135.9072943453635
 30
0.0
 10
132.7243706265411
 20
-135.6912868584383
 30
0.0
 10
133.5422362947394
 20
-135.1841688030095
 30
0.0
 10
134.2539930219921
 20
-133.998022427438
 30
0.0
 10
134.0865613814089
 20
-132.5490152663419
 30
0.0
 10
134.0062906566026
 20
-132.2548041119016
 30
0.0
 10
133.8757215377116
 20
-132.060156216985
 30
0.0
 10
134.0021565420203
 20
-131.8145209088867
 30
0.0
 10
134.059689636624
 20
-132.1049424582932
 30
0.0
 10
134.1499511383375
 20
-132.3864067594381
 30
0.0
 10
134.2195420671396
 20
-132.6751057611021
 30
0.0
 10
134.8641194324298
 20
-135.3433322144281
 30
0.0
 10
133.7554877052764
 20
-137.6970214499507
 30
0.0
 10
131.3952527883318
 20
-138.0470431512521
 30
0.0
 10
130.5260551974032
 20
-138.1765787414975
 30
0.0
 10
129.5858886394785
 20
-137.9261202997199
 30
0.0
 10
128.861040549382
 20
-137.4848035680594
 30
0.0
 10
129.1411268123328
 20
-137.2808539153326
 30
0.0
 10
129.3399088218317
 20
-136.9683837548204
 30
0.0
 10
129.3846950631399
 20
-136.5987250092531
 30
0.0
 10
129.4704779407227
 20
-135.8914469061313
 30
0.0
 10
128.9678385094247
 20
-135.2489365981322
 30
0.0
 10
128.2612494254
 20
-135.1631537205495
 30
0.0
 10
127.1340141826262
 20
-135.0263834297851
 30
0.0
 10
125.7325493392266
 20
-136.7086235552326
 30
0.0
 10
127.8344020947775
 20
-138.3726046746083
 30
0.0
 10
128.0283609705971
 20
-138.5259114237019
 30
0.0
 10
128.2436794384252
 20
-138.6613036762722
 30
0.0
 10
128.4717447595487
 20
-138.7811929991589
 30
0.0
 10
128.4717447595487
 20
-138.7811929991589
 30
0.0
 10
121.628751597197
 20
-138.7811929991589
 30
0.0
 10
121.628751597197
 20
-138.7811929991589
 30
0.0
 10
125.358756479077
 20
-136.9017211571808
 30
0.0
 10
128.4300591041772
 20
-133.7387789921729
 30
0.0
 10
129.6751166125465
 20
-129.0870388132143
 30
0.0
  0
HATCH
  5
47
330
3C
100
AcDbEntity
  8
Layer 1
 62
   250
420
  2301728
100
AcDbHatch
 10
0.0
 20
0.0
 30
0.0
210
0.0
220
0.0
230
1.0
  2
SOLID
 70
     1
 71
     0
 91
        7
 92
        1
 93
        1
 72
     4
 94
        3
 73
     0
 74
     1
 95
      128
 96
      124
 40
0.0
 40
0.0
 40
0.0
 40
0.0
 40
1.0
 40
1.0
 40
1.0
 40
2.0
 40
2.0
 40
2.0
 40
3.0
 40
3.0
 40
3.0
 40
4.0
 40
4.0
 40
4.0
 40
5.0
 40
5.0
 40
5.0
 40
6.0
 40
6.0
 40
6.0
 40
7.0
 40
7.0
 40
7.0
 40
8.0
 40
8.0
 40
8.0
 40
9.0
 40
9.0
 40
9.0
 40
10.0
 40
10.0
 40
10.0
 40
11.0
 40
11.0
 40
11.0
 40
12.0
 40
12.0
 40
12.0
 40
13.0
 40
13.0
 40
13.0
 40
14.0
 40
14.0
 40
14.0
 40
15.0
 40
15.0
 40
15.0
 40
16.0
 40
16.0
 40
16.0
 40
17.0
 40
17.0
 40
17.0
 40
18.0
 40
18.0
 40
18.0
 40
19.0
 40
19.0
 40
19.0
 40
20.0
 40
20.0
 40
20.0
 40
21.0
 40
21.0
 40
21.0
 40
22.0
 40
22.0
 40
22.0
 40
23.0
 40
23.0
 40
23.0
 40
24.0
 40
24.0
 40
24.0
 40
25.0
 40
25.0
 40
25.0
 40
26.0
 40
26.0
 40
26.0
 40
27.0
 40
27.0
 40
27.0
 40
28.0
 40
28.0
 40
28.0
 40
29.0
 40
29.0
 40
29.0
 40
30.0
 40
30.0
 40
30.0
 40
31.0
 40
31.0
 40
31.0
 40
32.0
 40
32.0
 40
32.0
 40
33.0
 40
33.0
 40
33.0
 40
34.0
 40
34.0
 40
34.0
 40
35.0
 40
35.0
 40
35.0
 40
36.0
 40
36.0
 40
36.0
 40
37.0
 40
37.0
 40
37.0
 40
38.0
 40
38.0
 40
38.0
 40
39.0
 40
39.0
 40
39.0
 40
40.0
 40
40.0
 40
40.0
 40
41.0
 40
41.0
 40
41.0
 40
41.0
 10
132.6868190857519
 20
-138.7811929991589
 10
134.0689913944341
 20
-138.0572061829336
 10
135.3357530043605
 20
-136.5863226655062
 10
135.4577093845384
 20
-134.1916367937091
 10
135.5645073445811
 20
-132.1025308914535
 10
134.7473306954798
 20
-130.0371961480463
 10
133.59115665063
 20
-128.9533691083867
 10
133.4437065638613
 20
-128.8159097985252
 10
133.5260443459588
 20
-128.8303791995633
 10
133.6507568025248
 20
-128.826934104078
 10
134.4221136816722
 20
-128.8062635311665
 10
135.2651285469129
 20
-128.6495116865876
 10
135.7312499660672
 20
-128.3229166345859
 10
136.1711886595336
 20
-128.0149250982046
 10
136.0206379868282
 20
-127.7568874463594
 10
135.4673556518971
 20
-127.4688774637925
 10
136.5318901568393
 20
-126.4935709319183
 10
137.9426567580491
 20
-123.7237141617774
 10
137.1003309119055
 20
-123.4928927642657
 10
136.0523328652925
 20
-125.4190456500689
 10
134.4586316938159
 20
-126.2386338660098
 10
131.2484917206601
 20
-127.2669948683569
 10
130.8002847980291
 20
-127.4135836812543
 10
130.3837727538624
 20
-127.543980545371
 10
129.9893093208013
 20
-127.6659369255488
 10
130.1743109483592
 20
-126.6184556432586
 10
130.2755967556255
 20
-125.5062065658457
 10
130.2755967556255
 20
-124.3221272475653
 10
130.2755967556255
 20
-122.029071692583
 10
129.7464300890912
 20
-119.7360161376007
 10
128.6880967560224
 20
-117.7075439158856
 10
124.6311523125922
 20
-109.6818494734476
 10
115.4589300926631
 20
-108.7117105848012
 10
106.1985134283115
 20
-108.7117105848012
 10
106.1985134283115
 20
-108.7117105848012
 10
82.91518010079899
 20
-108.7117105848012
 10
82.91518010079899
 20
-108.7117105848012
 10
82.91518010079899
 20
-108.7117105848012
 10
82.91518010079899
 20
-111.7103216951627
 10
82.91518010079899
 20
-111.7103216951627
 10
86.44984806866532
 20
-112.152155191146
 10
87.70592988258741
 20
-114.134635388133
 10
88.0256347436186
 20
-117.0345445128421
 10
87.33592662747158
 20
-115.4988932002919
 10
85.43802352464745
 20
-114.6519164752433
 10
83.44985892010976
 20
-115.5436794416002
 10
82.8821071841406
 20
-115.7986165075087
 10
81.25119898142331
 20
-116.8162977138515
 10
81.38969181993036
 20
-119.4779784857555
 10
80.34996200248196
 20
-118.0868489288116
 10
79.82217337414168
 20
-115.5085394676506
 10
80.76337346071193
 20
-113.7556748847555
 10
81.11339516201332
 20
-113.1024847807522
 10
81.22363821754132
 20
-112.8916449370549
 10
80.32171221950291
 20
-113.4084092598423
 10
78.31873370437866
 20
-114.5521809609453
 10
77.99902884334747
 20
-117.3371961512213
 10
78.32700193354326
 20
-119.6316297443977
 10
78.69838322685318
 20
-122.214762339238
 10
79.84525551389285
 20
-123.7633327598578
 10
81.40622827825956
 20
-125.5132690115904
 10
80.46606172033488
 20
-125.1945976792048
 10
79.60409882992536
 20
-125.2583319456819
 10
78.61983504978949
 20
-125.538590463407
 10
77.78095429913115
 20
-125.6970648557285
 10
76.92140297556132
 20
-126.6796060881218
 10
75.97951386989402
 20
-126.1628417653343
 10
75.65464136563496
 20
-125.9843858191984
 10
75.55645614430533
 20
-126.2889322600944
 10
75.94437389594447
 20
-126.4639431107451
 10
77.26384546679515
 20
-127.0564995342081
 10
77.82126191630857
 20
-128.3187825200037
 10
79.30919865638798
 20
-128.4255804800464
 10
77.49638941204952
 20
-129.0312282663533
 10
74.76890731637722
 20
-131.771457215321
 10
76.11387259381875
 20
-135.5148979695935
 10
76.67060002423513
 20
-137.0651909379559
 10
78.35559622607083
 20
-138.3233398091692
 10
79.67885740195528
 20
-137.6053819100431
 10
81.40622827825956
 20
-136.6676269189581
 10
79.44941404263766
 20
-133.3210611645864
 10
78.00729707251207
 20
-134.7397514854123
 10
77.87362736768438
 20
-134.8720431520459
 10
77.76338431215638
 20
-135.0325846016585
 10
77.6672661481179
 20
-135.1958821276594
 10
76.2192925156674
 20
-132.5672742724138
 10
78.26671276255138
 20
-130.3314073024866
 10
79.4184081832704
 20
-130.2156520941822
 10
79.4184081832704
 20
-130.2156520941822
 10
78.49856768870869
 20
-131.5075629011509
 10
78.73834633448209
 20
-132.6630479269037
 10
78.97674694206137
 20
-132.777425097014
 10
79.24167478487709
 20
-132.6933647671739
 10
79.49144420755769
 20
-132.6010362081692
 10
79.64991859987919
 20
-133.9852755741426
 10
79.80977103039478
 20
-135.0511881172789
 10
81.30700952828437
 20
-135.7994628566751
 10
81.59777558723945
 20
-135.9462239243468
 10
81.68355846482217
 20
-135.8380479261099
 10
81.66254338236214
 20
-135.6258300442186
 10
81.62947046570375
 20
-135.3171494887402
 10
81.64187280945065
 20
-135.0677245756081
 10
81.70388452818514
 20
-134.7680012683913
 10
82.32193465823896
 20
-131.8458712778024
 10
85.08834633289459
 20
-132.0918510954493
 10
86.70685219186495
 20
-133.6070040898621
 10
87.9553547957195
 20
-135.0539441936671
 10
88.04802786427273
 20
-136.9411675004869
 10
88.05526256479175
 20
-138.7811929991589
 10
88.05526256479175
 20
-138.7811929991589
 10
73.36778698252611
 20
-138.7811929991589
 10
73.36778698252611
 20
-138.7811929991589
 10
73.36778698252611
 20
-138.7811929991589
 10
73.36778698252611
 20
-140.3928086671588
 10
73.36778698252611
 20
-140.3928086671588
 10
73.36778698252611
 20
-140.3928086671588
 10
142.2765868784934
 20
-140.3928086671588
 10
142.2765868784934
 20
-140.3928086671588
 10
142.2765868784934
 20
-140.3928086671588
 10
142.2765868784934
 20
-138.7811929991589
 10
142.2765868784934
 20
-138.7811929991589
 10
142.2765868784934
 20
-138.7811929991589
 10
132.6868190857519
 20
-138.7811929991589
 10
132.6868190857519
 20
-138.7811929991589
 97
        0
 92
        1
 93
        1
 72
     4
 94
        3
 73
     0
 74
     1
 95
      125
 96
      121
 40
0.0
 40
0.0
 40
0.0
 40
0.0
 40
1.0
 40
1.0
 40
1.0
 40
2.0
 40
2.0
 40
2.0
 40
3.0
 40
3.0
 40
3.0
 40
4.0
 40
4.0
 40
4.0
 40
5.0
 40
5.0
 40
5.0
 40
6.0
 40
6.0
 40
6.0
 40
7.0
 40
7.0
 40
7.0
 40
8.0
 40
8.0
 40
8.0
 40
9.0
 40
9.0
 40
9.0
 40
10.0
 40
10.0
 40
10.0
 40
11.0
 40
11.0
 40
11.0
 40
12.0
 40
12.0
 40
12.0
 40
13.0
 40
13.0
 40
13.0
 40
14.0
 40
14.0
 40
14.0
 40
15.0
 40
15.0
 40
15.0
 40
16.0
 40
16.0
 40
16.0
 40
17.0
 40
17.0
 40
17.0
 40
18.0
 40
18.0
 40
18.0
 40
19.0
 40
19.0
 40
19.0
 40
20.0
 40
20.0
 40
20.0
 40
21.0
 40
21.0
 40
21.0
 40
22.0
 40
22.0
 40
22.0
 40
23.0
 40
23.0
 40
23.0
 40
24.0
 40
24.0
 40
24.0
 40
25.0
 40
25.0
 40
25.0
 40
26.0
 40
26.0
 40
26.0
 40
27.0
 40
27.0
 40
27.0
 40
28.0
 40
28.0
 40
28.0
 40
29.0
 40
29.0
 40
29.0
 40
30.0
 40
30.0
 40
30.0
 40
31.0
 40
31.0
 40
31.0
 40
32.0
 40
32.0
 40
32.0
 40
33.0
 40
33.0
 40
33.0
 40
34.0
 40
34.0
 40
34.0
 40
35.0
 40
35.0
 40
35.0
 40
36.0
 40
36.0
 40
36.0
 40
37.0
 40
37.0
 40
37.0
 40
38.0
 40
38.0
 40
38.0
 40
39.0
 40
39.0
 40
39.0
 40
40.0
 40
40.0
 40
40.0
 40
40.0
 10
95.70337454204638
 20
-112.1512939172747
 10
95.70337454204638
 20
-112.1512939172747
 10
104.7874023175532
 20
-112.1512939172747
 10
104.7874023175532
 20
-112.1512939172747
 10
111.1374023159657
 20
-112.1512939172747
 10
121.456152313386
 20
-112.5922661393867
 10
121.456152313386
 20
-124.9394883585221
 10
121.456152313386
 20
-131.0908786022099
 10
118.7055880779625
 20
-134.3842176313345
 10
115.2963215857593
 20
-136.1487955388795
 10
113.2830077841792
 20
-134.6972045561695
 10
109.7907144907815
 20
-135.3181830173857
 10
108.8033501247089
 20
-137.7934841235378
 10
108.4154323730698
 20
-137.7934841235378
 10
108.2266411404781
 20
-137.7934841235378
 10
107.8497476943917
 20
-137.7934841235378
 10
108.7999050292236
 20
-135.6788845146914
 10
110.8928005365129
 20
-134.8699760947547
 10
113.0208360177517
 20
-134.8699760947547
 10
113.348464598399
 20
-134.8699760947547
 10
113.3929063301587
 20
-134.7425075618005
 10
113.0594210871865
 20
-134.6040147232935
 10
111.8929117558809
 20
-134.1223903744555
 10
110.3608777935903
 20
-134.1099880307086
 10
108.8626057670552
 20
-134.6908311295217
 10
108.6338514268346
 20
-134.1266967438121
 10
108.197702338402
 20
-133.5461981545475
 10
107.6719807673528
 20
-133.1183172952795
 10
107.8270100641891
 20
-132.7908609694065
 10
107.6743923341925
 20
-132.3473049256805
 10
107.2499565704097
 20
-132.2027831700743
 10
107.2499565704097
 20
-132.2027831700743
 10
107.2499565704097
 20
-131.5564832570414
 10
107.2499565704097
 20
-131.5564832570414
 10
108.377536322732
 20
-132.0022786128328
 10
108.8639838052493
 20
-133.4674777227095
 10
109.9522894690397
 20
-133.3896185647429
 10
111.1191433098938
 20
-133.308314311291
 10
111.4488389478322
 20
-131.8920355573048
 10
112.5381781402682
 20
-131.1651204099171
 10
111.5335882967694
 20
-130.4430283962087
 10
111.2028591301854
 20
-129.026405132674
 10
110.1600287268003
 20
-128.9878200632392
 10
108.9476996255409
 20
-128.9464789174162
 10
108.5322211100197
 20
-130.281108908402
 10
107.2826849775196
 20
-130.7262152450962
 10
107.653721761281
 20
-129.5535047419172
 10
109.2846299639983
 20
-129.150428570143
 10
109.2846299639983
 20
-128.0156141173017
 10
109.2846299639983
 20
-127.0082681974146
 10
107.653721761281
 20
-126.6051920256404
 10
106.9064805505303
 20
-125.8396918088179
 10
106.0703558762602
 20
-126.5238877721885
 10
104.6130804859995
 20
-127.2122178501414
 10
104.6130804859995
 20
-128.0604003586099
 10
104.6130804859995
 20
-129.150428570143
 10
106.6150254724782
 20
-130.0358181098522
 10
106.5705837407185
 20
-130.806141460354
 10
105.3179470222816
 20
-130.3617241427568
 10
105.1112412931666
 20
-129.1083984052229
 10
104.0239691580218
 20
-129.0698133357881
 10
102.9801052259911
 20
-129.0698133357881
 10
102.6256049005589
 20
-130.6828070419821
 10
101.4577175310592
 20
-131.3270398977238
 10
102.7082871922049
 20
-132.1380153749516
 10
103.2322862155114
 20
-133.4288926532747
 10
104.0694444184271
 20
-133.4674777227095
 10
105.1515489103441
 20
-133.5487819761614
 10
105.5001925734513
 20
-131.7562987951859
 10
106.750762234597
 20
-131.6364094722992
 10
106.750762234597
 20
-131.6364094722992
 10
106.750762234597
 20
-132.2027831700743
 10
106.750762234597
 20
-132.2027831700743
 10
106.2439886887168
 20
-132.257043423967
 10
106.1006727165304
 20
-132.8041245870247
 10
106.3273599994598
 20
-133.1687879441384
 10
105.8336778164235
 20
-133.5904676315329
 10
105.426467530067
 20
-134.1451280046582
 10
105.2090820049477
 20
-134.6846299576483
 10
103.7101209593155
 20
-134.1037868588352
 10
102.1784315065734
 20
-134.115500183485
 10
101.0122666848164
 20
-134.5971245323229
 10
100.6777479131986
 20
-134.7363063899271
 10
100.7218451354098
 20
-134.8651529610754
 10
101.0511962637997
 20
-134.8651529610754
 10
103.2705267753977
 20
-134.8651529610754
 10
105.0847140579302
 20
-135.6788845146914
 10
106.0989501687878
 20
-137.7865939325673
 10
105.7206786845073
 20
-137.7865939325673
 10
105.6552218702876
 20
-137.7865939325673
 10
105.2673041186485
 20
-137.7865939325673
 10
104.0108777951778
 20
-134.6377766590489
 10
98.70095212376226
 20
-134.488259514989
 10
97.54064396433012
 20
-137.7921060853436
 10
97.29087454164952
 20
-137.7926228496664
 10
96.5791178143969
 20
-137.7921060853436
 10
95.73438040141363
 20
-137.7912448114723
 10
95.98862844822507
 20
-133.6040757586997
 10
96.75791827008136
 20
-132.053610535563
 10
99.73585880753132
 20
-128.475878874131
 10
102.5815076783477
 20
-125.0576551336661
 10
104.8904106725621
 20
-123.5190754899536
 10
105.4492051602696
 20
-119.6316297443977
 10
105.777522760014
 20
-117.3371961512213
 10
105.4574733894342
 20
-114.5521809609453
 10
103.4548393838585
 20
-113.4084092598423
 10
102.5525688762716
 20
-112.8916449370549
 10
102.6631564413481
 20
-113.1024847807522
 10
103.012833633101
 20
-113.7556748847555
 10
103.9543782292197
 20
-115.5085394676506
 10
103.4265896008795
 20
-118.0868489288116
 10
102.3865152738825
 20
-119.4779784857555
 10
102.5253526219381
 20
-116.8162977138515
 10
100.8944444192208
 20
-115.7986165075087
 10
100.3266926832517
 20
-115.5436794416002
 10
98.29374183740573
 20
-114.6317626666546
 10
96.35139700282188
 20
-115.5366169958554
 10
95.70337454204638
 20
-117.1385863964966
 10
95.70337454204638
 20
-117.1385863964966
 10
95.70337454204638
 20
-112.1512939172747
 10
95.70337454204638
 20
-112.1512939172747
 97
        0
 92
        1
 93
        1
 72
     4
 94
        3
 73
     0
 74
     1
 95
       29
 96
       25
 40
0.0
 40
0.0
 40
0.0
 40
0.0
 40
1.0
 40
1.0
 40
1.0
 40
2.0
 40
2.0
 40
2.0
 40
3.0
 40
3.0
 40
3.0
 40
4.0
 40
4.0
 40
4.0
 40
5.0
 40
5.0
 40
5.0
 40
6.0
 40
6.0
 40
6.0
 40
7.0
 40
7.0
 40
7.0
 40
8.0
 40
8.0
 40
8.0
 40
8.0
 10
95.70337454204638
 20
-120.5137464433959
 10
95.96485728937685
 20
-120.7144232554117
 10
96.29420841776673
 20
-120.8246663109397
 10
96.64801972410189
 20
-120.7884928083445
 10
97.38561466749388
 20
-120.7154567840573
 10
97.92304956319285
 20
-120.0553764890834
 10
97.84966902935703
 20
-119.3174370361429
 10
97.77870006236088
 20
-118.6111924616666
 10
97.17064070921428
 20
-118.0896050051998
 10
96.470252797063
 20
-118.1109645972084
 10
96.9611789037111
 20
-115.7545192852975
 10
100.3607991285556
 20
-115.3872721065699
 10
101.1383571795765
 20
-118.3066460207706
 10
101.3405842845607
 20
-119.0659450657196
 10
101.3082003869993
 20
-120.0030110377076
 10
101.0522297924453
 20
-121.042740855156
 10
100.5154839158434
 20
-123.4804904205188
 10
98.79190264457286
 20
-125.428347407879
 10
97.71772187227197
 20
-127.6518120340593
 10
96.69935164683211
 20
-129.5943291234174
 10
96.17948673810791
 20
-130.6054646483382
 10
95.70337454204638
 20
-132.5298949863988
 10
95.70337454204638
 20
-132.5298949863988
 10
95.70337454204638
 20
-120.5137464433959
 10
95.70337454204638
 20
-120.5137464433959
 97
        0
 92
        1
 93
        1
 72
     4
 94
        3
 73
     0
 74
     1
 95
       29
 96
       25
 40
0.0
 40
0.0
 40
0.0
 40
0.0
 40
1.0
 40
1.0
 40
1.0
 40
2.0
 40
2.0
 40
2.0
 40
3.0
 40
3.0
 40
3.0
 40
4.0
 40
4.0
 40
4.0
 40
5.0
 40
5.0
 40
5.0
 40
6.0
 40
6.0
 40
6.0
 40
7.0
 40
7.0
 40
7.0
 40
8.0
 40
8.0
 40
8.0
 40
8.0
 10
82.6381944237849
 20
-118.3066460207706
 10
83.41540796525726
 20
-115.3872721065699
 10
86.8150281901018
 20
-115.7545192852975
 10
87.30629880629843
 20
-118.1109645972084
 10
86.60556638459862
 20
-118.0896050051998
 10
85.99785154100054
 20
-118.6111924616666
 10
85.9268825740044
 20
-119.3174370361429
 10
85.85315753062005
 20
-120.0553764890834
 10
86.39059242631902
 20
-120.7154567840573
 10
87.12853187925954
 20
-120.7884928083445
 10
87.50266924895767
 20
-120.8267333682308
 10
87.85096840251643
 20
-120.7028821855361
 10
88.11865232172035
 20
-120.4789509789948
 10
88.11865232172035
 20
-120.4789509789948
 10
88.11865232172035
 20
-130.3059135958958
 10
88.11865232172035
 20
-130.3059135958958
 10
87.41378578543822
 20
-128.786281977352
 10
86.48774411900307
 20
-127.5408799594342
 10
85.50589190570686
 20
-126.6144937834506
 10
84.46754012645256
 20
-124.8001342461437
 10
83.17631833858093
 20
-123.0948119809451
 10
82.72432181091615
 20
-121.042740855156
 10
82.46800670681355
 20
-120.0030110377076
 10
82.43562280925221
 20
-119.0659450657196
 10
82.6381944237849
 20
-118.3066460207706
 97
        0
 92
        1
 93
        1
 72
     4
 94
        3
 73
     0
 74
     1
 95
       14
 96
       10
 40
0.0
 40
0.0
 40
0.0
 40
0.0
 40
1.0
 40
1.0
 40
1.0
 40
2.0
 40
2.0
 40
2.0
 40
3.0
 40
3.0
 40
3.0
 40
3.0
 10
79.56275768410237
 20
-127.0937065654488
 10
79.5162488950515
 20
-127.0764810880225
 10
79.51142576137215
 20
-127.0675238397609
 10
79.55827905997154
 20
-127.0675238397609
 10
82.21306964090508
 20
-127.0620116869845
 10
85.58099498728531
 20
-128.5868109487561
 10
87.07926701382047
 20
-131.0665906790389
 10
85.08696829470048
 20
-129.0715358835307
 10
81.79242348215607
 20
-127.9267306537822
 10
79.56275768410237
 20
-127.0937065654488
 97
        0
 92
        1
 93
        1
 72
     4
 94
        3
 73
     0
 74
     1
 95
       14
 96
       10
 40
0.0
 40
0.0
 40
0.0
 40
0.0
 40
1.0
 40
1.0
 40
1.0
 40
2.0
 40
2.0
 40
2.0
 40
3.0
 40
3.0
 40
3.0
 40
3.0
 10
81.7638291896285
 20
-132.86010738866
 10
81.72042098651434
 20
-132.9393445848207
 10
81.66392142055625
 20
-132.9965331698759
 10
81.67839082159429
 20
-132.8545952358836
 10
81.92643769653229
 20
-130.4227023328457
 10
86.38921438812493
 20
-130.4761013128671
 10
87.33420407972895
 20
-132.58449974984
 10
85.73636879367008
 20
-130.9997558266251
 10
82.48488767469128
 20
-131.5399467987122
 10
81.7638291896285
 20
-132.86010738866
 97
        0
 92
        1
 93
        1
 72
     4
 94
        3
 73
     0
 74
     1
 95
       59
 96
       55
 40
0.0
 40
0.0
 40
0.0
 40
0.0
 40
1.0
 40
1.0
 40
1.0
 40
2.0
 40
2.0
 40
2.0
 40
3.0
 40
3.0
 40
3.0
 40
4.0
 40
4.0
 40
4.0
 40
5.0
 40
5.0
 40
5.0
 40
6.0
 40
6.0
 40
6.0
 40
7.0
 40
7.0
 40
7.0
 40
8.0
 40
8.0
 40
8.0
 40
9.0
 40
9.0
 40
9.0
 40
10.0
 40
10.0
 40
10.0
 40
11.0
 40
11.0
 40
11.0
 40
12.0
 40
12.0
 40
12.0
 40
13.0
 40
13.0
 40
13.0
 40
14.0
 40
14.0
 40
14.0
 40
15.0
 40
15.0
 40
15.0
 40
16.0
 40
16.0
 40
16.0
 40
17.0
 40
17.0
 40
17.0
 40
18.0
 40
18.0
 40
18.0
 40
18.0
 10
129.6751166125465
 20
-129.0870388132143
 10
129.7312716689561
 20
-129.0875555775371
 10
129.7884602540112
 20
-129.082215679535
 10
129.8442708008723
 20
-129.0849717559232
 10
131.7170247066541
 20
-129.1769558053794
 10
132.2413682395091
 20
-130.6325086478974
 10
131.467599793522
 20
-132.1118326492637
 10
131.123090244997
 20
-132.7695013773979
 10
130.2742187174314
 20
-133.3196831263923
 10
129.4432616863892
 20
-132.8308240770353
 10
129.3140706056923
 20
-132.7550319763598
 10
129.1862575631895
 20
-132.7061116204693
 10
129.1979708878394
 20
-133.0240939337579
 10
129.2389675241139
 20
-134.053143955202
 10
130.5098632486225
 20
-134.8934027440544
 10
131.8362250104437
 20
-134.7790255739441
 10
131.8362250104437
 20
-134.7790255739441
 10
131.8238226666968
 20
-135.2148301528283
 10
131.9736843203052
 20
-135.5335014852139
 10
132.1631645719939
 20
-135.9376111856337
 10
132.3774495111765
 20
-135.9072943453635
 10
132.7243706265411
 20
-135.6912868584383
 10
133.5422362947394
 20
-135.1841688030095
 10
134.2539930219921
 20
-133.998022427438
 10
134.0865613814089
 20
-132.5490152663419
 10
134.0062906566026
 20
-132.2548041119016
 10
133.8757215377116
 20
-132.060156216985
 10
134.0021565420203
 20
-131.8145209088867
 10
134.059689636624
 20
-132.1049424582932
 10
134.1499511383375
 20
-132.3864067594381
 10
134.2195420671396
 20
-132.6751057611021
 10
134.8641194324298
 20
-135.3433322144281
 10
133.7554877052764
 20
-137.6970214499507
 10
131.3952527883318
 20
-138.0470431512521
 10
130.5260551974032
 20
-138.1765787414975
 10
129.5858886394785
 20
-137.9261202997199
 10
128.861040549382
 20
-137.4848035680594
 10
129.1411268123328
 20
-137.2808539153326
 10
129.3399088218317
 20
-136.9683837548204
 10
129.3846950631399
 20
-136.5987250092531
 10
129.4704779407227
 20
-135.8914469061313
 10
128.9678385094247
 20
-135.2489365981322
 10
128.2612494254
 20
-135.1631537205495
 10
127.1340141826262
 20
-135.0263834297851
 10
125.7325493392266
 20
-136.7086235552326
 10
127.8344020947775
 20
-138.3726046746083
 10
128.0283609705971
 20
-138.5259114237019
 10
128.2436794384252
 20
-138.6613036762722
 10
128.4717447595487
 20
-138.7811929991589
 10
128.4717447595487
 20
-138.7811929991589
 10
121.628751597197
 20
-138.7811929991589
 10
121.628751597197
 20
-138.7811929991589
 10
125.358756479077
 20
-136.9017211571808
 10
128.4300591041772
 20
-133.7387789921729
 10
129.6751166125465
 20
-129.0870388132143
 97
        0
 75
     2
 76
     1
 98
        0
  0
SPLINE
  5
48
330
3C
100
AcDbEntity
  8
Layer 1
370
     0
100
AcDbSpline
210
0.0
220
0.0
230
1.0
 70
    11
 71
     3
 72
   194
 73
   190
 74
     0
 42
0.0000000001
 43
0.0000000001
 40
0.0
 40
0.0
 40
0.0
 40
0.0
 40
1.0
 40
1.0
 40
1.0
 40
2.0
 40
2.0
 40
2.0
 40
3.0
 40
3.0
 40
3.0
 40
4.0
 40
4.0
 40
4.0
 40
5.0
 40
5.0
 40
5.0
 40
6.0
 40
6.0
 40
6.0
 40
7.0
 40
7.0
 40
7.0
 40
8.0
 40
8.0
 40
8.0
 40
9.0
 40
9.0
 40
9.0
 40
10.0
 40
10.0
 40
10.0
 40
11.0
 40
11.0
 40
11.0
 40
12.0
 40
12.0
 40
12.0
 40
13.0
 40
13.0
 40
13.0
 40
14.0
 40
14.0
 40
14.0
 40
15.0
 40
15.0
 40
15.0
 40
16.0
 40
16.0
 40
16.0
 40
17.0
 40
17.0
 40
17.0
 40
18.0
 40
18.0
 40
18.0
 40
19.0
 40
19.0
 40
19.0
 40
20.0
 40
20.0
 40
20.0
 40
21.0
 40
21.0
 40
21.0
 40
22.0
 40
22.0
 40
22.0
 40
23.0
 40
23.0
 40
23.0
 40
24.0
 40
24.0
 40
24.0
 40
25.0
 40
25.0
 40
25.0
 40
26.0
 40
26.0
 40
26.0
 40
27.0
 40
27.0
 40
27.0
 40
28.0
 40
28.0
 40
28.0
 40
29.0
 40
29.0
 40
29.0
 40
30.0
 40
30.0
 40
30.0
 40
31.0
 40
31.0
 40
31.0
 40
32.0
 40
32.0
 40
32.0
 40
33.0
 40
33.0
 40
33.0
 40
34.0
 40
34.0
 40
34.0
 40
35.0
 40
35.0
 40
35.0
 40
36.0
 40
36.0
 40
36.0
 40
37.0
 40
37.0
 40
37.0
 40
38.0
 40
38.0
 40
38.0
 40
39.0
 40
39.0
 40
39.0
 40
40.0
 40
40.0
 40
40.0
 40
41.0
 40
41.0
 40
41.0
 40
42.0
 40
42.0
 40
42.0
 40
43.0
 40
43.0
 40
43.0
 40
44.0
 40
44.0
 40
44.0
 40
45.0
 40
45.0
 40
45.0
 40
46.0
 40
46.0
 40
46.0
 40
47.0
 40
47.0
 40
47.0
 40
48.0
 40
48.0
 40
48.0
 40
49.0
 40
49.0
 40
49.0
 40
50.0
 40
50.0
 40
50.0
 40
51.0
 40
51.0
 40
51.0
 40
52.0
 40
52.0
 40
52.0
 40
53.0
 40
53.0
 40
53.0
 40
54.0
 40
54.0
 40
54.0
 40
55.0
 40
55.0
 40
55.0
 40
56.0
 40
56.0
 40
56.0
 40
57.0
 40
57.0
 40
57.0
 40
58.0
 40
58.0
 40
58.0
 40
59.0
 40
59.0
 40
59.0
 40
60.0
 40
60.0
 40
60.0
 40
61.0
 40
61.0
 40
61.0
 40
62.0
 40
62.0
 40
62.0
 40
63.0
 40
63.0
 40
63.0
 40
63.0
 10
73.36778698252611
 20
-152.3872531086046
 30
0.0
 10
73.36778698252611
 20
-152.3872531086046
 30
0.0
 10
88.05526256479175
 20
-152.3872531086046
 30
0.0
 10
88.05526256479175
 20
-152.3872531086046
 30
0.0
 10
88.04802786427273
 20
-154.2272786072765
 30
0.0
 10
87.9553547957195
 20
-156.1145019140964
 30
0.0
 10
86.70685219186495
 20
-157.5607529988043
 30
0.0
 10
85.08834633289459
 20
-159.0759059932171
 30
0.0
 10
82.32193465823896
 20
-159.322574829961
 30
0.0
 10
81.70388452818514
 20
-156.3997558202751
 30
0.0
 10
81.64187280945065
 20
-156.1007215321554
 30
0.0
 10
81.62947046570375
 20
-155.8506075999262
 30
0.0
 10
81.66254338236214
 20
-155.5419270444478
 30
0.0
 10
81.68355846482217
 20
-155.3297091625565
 30
0.0
 10
81.59777558723945
 20
-155.2222221834167
 30
0.0
 10
81.30700952828437
 20
-155.3682942319913
 30
0.0
 10
79.80977103039478
 20
-156.1165689713875
 30
0.0
 10
79.64991859987919
 20
-157.1824815145238
 30
0.0
 10
79.49144420755769
 20
-158.5674098995943
 30
0.0
 10
79.24167478487709
 20
-158.4743923214925
 30
0.0
 10
78.97674694206137
 20
-158.3903319916524
 30
0.0
 10
78.73834633448209
 20
-158.5047091617627
 30
0.0
 10
78.49856768870869
 20
-159.6601941875155
 30
0.0
 10
79.4184081832704
 20
-160.9521049944842
 30
0.0
 10
79.4184081832704
 20
-160.9521049944842
 30
0.0
 10
78.26671276255138
 20
-160.8363497861798
 30
0.0
 10
76.2192925156674
 20
-158.6004828162527
 30
0.0
 10
77.6672661481179
 20
-155.971874961007
 30
0.0
 10
77.76338431215638
 20
-156.1351724870079
 30
0.0
 10
77.87362736768438
 20
-156.2964029557176
 30
0.0
 10
78.00729707251207
 20
-156.4286946223512
 30
0.0
 10
79.44941404263766
 20
-157.84669592408
 30
0.0
 10
81.40622827825956
 20
-154.5008191888054
 30
0.0
 10
79.67885740195528
 20
-153.5623751786233
 30
0.0
 10
78.35559622607083
 20
-152.8451062985943
 30
0.0
 10
76.67060002423513
 20
-154.1025661507105
 30
0.0
 10
76.11387259381875
 20
-155.6528591190729
 30
0.0
 10
74.76890731637722
 20
-159.3962998733454
 30
0.0
 10
77.49638941204952
 20
-162.1372178414101
 30
0.0
 10
79.30919865638798
 20
-162.74217660862
 30
0.0
 10
77.82126191630857
 20
-162.8496635877598
 30
0.0
 10
77.26384546679515
 20
-164.1112575544583
 30
0.0
 10
75.94437389594447
 20
-164.7045029970183
 30
0.0
 10
75.55645614430533
 20
-164.879513847669
 30
0.0
 10
75.65464136563496
 20
-165.183371269468
 30
0.0
 10
75.97951386989402
 20
-165.0056043424292
 30
0.0
 10
76.92140297556132
 20
-164.4881510005446
 30
0.0
 10
77.78095429913115
 20
-165.4706922329379
 30
0.0
 10
78.61983504978949
 20
-165.6291666252594
 30
0.0
 10
79.78117673786721
 20
-165.9598957918434
 30
0.0
 10
80.77164168987653
 20
-165.9950357657929
 30
0.0
 10
81.92230358194999
 20
-165.4486436218323
 30
0.0
 10
82.04873858625865
 20
-165.7676594637664
 30
0.0
 10
81.80930445003379
 20
-166.1604003490849
 30
0.0
 10
81.87372773560796
 20
-166.4346299497108
 30
0.0
 10
83.80918237922133
 20
-166.3312770851533
 30
0.0
 10
86.51702743062769
 20
-164.2986707488559
 30
0.0
 10
88.10831703526459
 20
-160.8835475943277
 30
0.0
 10
88.00255260386741
 20
-164.761347072525
 30
0.0
 10
86.78264429254045
 20
-167.0289089209164
 30
0.0
 10
82.91518010079899
 20
-167.4492105701169
 30
0.0
 10
82.91518010079899
 20
-167.4492105701169
 30
0.0
 10
82.91518010079899
 20
-170.4478216804783
 30
0.0
 10
82.91518010079899
 20
-170.4478216804783
 30
0.0
 10
82.91518010079899
 20
-170.4478216804783
 30
0.0
 10
100.9068467629677
 20
-170.4478216804783
 30
0.0
 10
100.9068467629677
 20
-170.4478216804783
 30
0.0
 10
100.9068467629677
 20
-170.4478216804783
 30
0.0
 10
100.9068467629677
 20
-167.4492105701169
 30
0.0
 10
100.9068467629677
 20
-167.4492105701169
 30
0.0
 10
96.98219398617113
 20
-167.0485459651823
 30
0.0
 10
95.89457734147774
 20
-164.5387939041778
 30
0.0
 10
95.72783471999166
 20
-161.3069498294649
 30
0.0
 10
97.33910587844301
 20
-164.466102389439
 30
0.0
 10
99.90191240992036
 20
-166.3354111997356
 30
0.0
 10
101.7560628000818
 20
-166.4346299497108
 30
0.0
 10
101.820486085656
 20
-166.1604003490849
 30
0.0
 10
101.5810519494311
 20
-165.7676594637664
 30
0.0
 10
101.7074869537398
 20
-165.4486436218323
 30
0.0
 10
102.8581488458132
 20
-165.9950357657929
 30
0.0
 10
103.8486137978226
 20
-165.9598957918434
 30
0.0
 10
105.0099554859003
 20
-165.6291666252594
 30
0.0
 10
105.8488362365586
 20
-165.4706922329379
 30
0.0
 10
106.7083875601285
 20
-164.4881510005446
 30
0.0
 10
107.6502766657958
 20
-165.0056043424292
 30
0.0
 10
107.9751491700548
 20
-165.183371269468
 30
0.0
 10
108.0729898818359
 20
-164.879513847669
 30
0.0
 10
107.6854166397453
 20
-164.7045029970183
 30
0.0
 10
106.3656005593461
 20
-164.1112575544583
 30
0.0
 10
105.8085286193812
 20
-162.8496635877598
 30
0.0
 10
104.3205918793018
 20
-162.74217660862
 30
0.0
 10
106.1334011236403
 20
-162.1372178414101
 30
0.0
 10
108.8608832193126
 20
-159.3962998733454
 30
0.0
 10
107.515917941871
 20
-155.6528591190729
 30
0.0
 10
106.9591905114547
 20
-154.1025661507105
 30
0.0
 10
105.274194309619
 20
-152.8451062985943
 30
0.0
 10
103.9509331337345
 20
-153.5623751786233
 30
0.0
 10
102.2232177478817
 20
-154.5008191888054
 30
0.0
 10
104.1800319835036
 20
-157.84669592408
 30
0.0
 10
105.6221489536292
 20
-156.4286946223512
 30
0.0
 10
105.7561631680054
 20
-156.2964029557176
 30
0.0
 10
105.8664062235334
 20
-156.1351724870079
 30
0.0
 10
105.9625243875719
 20
-155.971874961007
 30
0.0
 10
107.4101535104739
 20
-158.6004828162527
 30
0.0
 10
105.3630777731384
 20
-160.8363497861798
 30
0.0
 10
104.2113823524194
 20
-160.9521049944842
 30
0.0
 10
104.2113823524194
 20
-160.9521049944842
 30
0.0
 10
105.1312228469811
 20
-159.6601941875155
 30
0.0
 10
104.8914442012077
 20
-158.5047091617627
 30
0.0
 10
104.6530435936284
 20
-158.3903319916524
 30
0.0
 10
104.3881157508127
 20
-158.4743923214925
 30
0.0
 10
104.1383463281321
 20
-158.5674098995943
 30
0.0
 10
103.9795274262621
 20
-157.1824815145238
 30
0.0
 10
103.820019505295
 20
-156.1165689713875
 30
0.0
 10
102.3227810074054
 20
-155.3682942319913
 30
0.0
 10
102.0320149484503
 20
-155.2222221834167
 30
0.0
 10
101.9462320708676
 20
-155.3297091625565
 30
0.0
 10
101.9672471533276
 20
-155.5419270444478
 30
0.0
 10
102.000320069986
 20
-155.8506075999262
 30
0.0
 10
101.9879177262391
 20
-156.1007215321554
 30
0.0
 10
101.9259060075046
 20
-156.3997558202751
 30
0.0
 10
101.3078558774508
 20
-159.322574829961
 30
0.0
 10
98.5414442027952
 20
-159.0759059932171
 30
0.0
 10
96.92293834382482
 20
-157.5607529988043
 30
0.0
 10
96.18844398636956
 20
-156.7098144139476
 30
0.0
 10
95.85564776249443
 20
-155.7062580990943
 30
0.0
 10
95.70337454204638
 20
-154.6496473137682
 30
0.0
 10
95.70337454204638
 20
-154.6496473137682
 30
0.0
 10
95.70337454204638
 20
-152.3872531086046
 30
0.0
 10
95.70337454204638
 20
-152.3872531086046
 30
0.0
 10
95.70337454204638
 20
-152.3872531086046
 30
0.0
 10
109.3149468042685
 20
-152.3872531086046
 30
0.0
 10
109.3149468042685
 20
-152.3872531086046
 30
0.0
 10
109.3149468042685
 20
-152.3872531086046
 30
0.0
 10
117.4036864940866
 20
-161.011016127282
 30
0.0
 10
117.4036864940866
 20
-161.011016127282
 30
0.0
 10
118.4620198271553
 20
-162.1575439047731
 30
0.0
 10
119.4321587158017
 20
-163.3040716822643
 30
0.0
 10
119.4321587158017
 20
-164.803377237445
 30
0.0
 10
119.4321587158017
 20
-166.5672661258929
 30
0.0
 10
118.1092420494657
 20
-167.4492105701169
 30
0.0
 10
116.2571587165954
 20
-167.4492105701169
 30
0.0
 10
116.2571587165954
 20
-167.4492105701169
 30
0.0
 10
115.5516031612163
 20
-167.4492105701169
 30
0.0
 10
115.5516031612163
 20
-167.4492105701169
 30
0.0
 10
115.5516031612163
 20
-167.4492105701169
 30
0.0
 10
115.5516031612163
 20
-170.4478216804783
 30
0.0
 10
115.5516031612163
 20
-170.4478216804783
 30
0.0
 10
115.5516031612163
 20
-170.4478216804783
 30
0.0
 10
138.217575377772
 20
-170.4478216804783
 30
0.0
 10
138.217575377772
 20
-170.4478216804783
 30
0.0
 10
138.217575377772
 20
-170.4478216804783
 30
0.0
 10
138.217575377772
 20
-167.4492105701169
 30
0.0
 10
138.217575377772
 20
-167.4492105701169
 30
0.0
 10
134.5134087120314
 20
-166.9200439035825
 30
0.0
 10
131.6029920460923
 20
-164.8915716818674
 30
0.0
 10
127.8988253803517
 20
-161.011016127282
 30
0.0
 10
127.8988253803517
 20
-161.011016127282
 30
0.0
 10
123.9214626426308
 20
-156.7766492663614
 30
0.0
 10
123.9214626426308
 20
-156.7766492663614
 30
0.0
 10
125.6750162446229
 20
-156.771826132682
 30
0.0
 10
127.4788682406997
 20
-156.3053602039792
 30
0.0
 10
128.9340765736693
 20
-155.771714913314
 30
0.0
 10
131.4359049150577
 20
-154.8522189283008
 30
0.0
 10
133.8240451054329
 20
-152.8774901961556
 30
0.0
 10
135.135937466216
 20
-152.827880821168
 30
0.0
 10
134.9984781563546
 20
-153.0587022186798
 30
0.0
 10
134.9102837119322
 20
-153.3484347489893
 30
0.0
 10
134.900981954122
 20
-153.6643500049867
 30
0.0
 10
134.8768662857252
 20
-154.4594780429824
 30
0.0
 10
135.6361653306743
 20
-155.0871744403949
 30
0.0
 10
136.2342339069137
 20
-155.1092230515005
 30
0.0
 10
136.8364365977353
 20
-155.1312716626061
 30
0.0
 10
137.6560248136763
 20
-154.5218342712654
 30
0.0
 10
137.6804849916215
 20
-153.7270507428182
 30
0.0
 10
137.7001220358875
 20
-153.0883300398529
 30
0.0
 10
137.3614691496874
 20
-152.6418456649645
 30
0.0
 10
136.8367811072839
 20
-152.3872531086046
 30
0.0
 10
136.8367811072839
 20
-152.3872531086046
 30
0.0
 10
142.2765868784934
 20
-152.3872531086046
 30
0.0
 10
142.2765868784934
 20
-152.3872531086046
 30
0.0
 10
142.2765868784934
 20
-152.3872531086046
 30
0.0
 10
142.2765868784934
 20
-150.7756374406047
 30
0.0
 10
142.2765868784934
 20
-150.7756374406047
 30
0.0
 10
142.2765868784934
 20
-150.7756374406047
 30
0.0
 10
73.36778698252611
 20
-150.7756374406047
 30
0.0
 10
73.36778698252611
 20
-150.7756374406047
 30
0.0
 10
73.36778698252611
 20
-150.7756374406047
 30
0.0
 10
73.36778698252611
 20
-152.3872531086046
 30
0.0
 10
73.36778698252611
 20
-152.3872531086046
 30
0.0
  0
SPLINE
  5
49
330
3C
100
AcDbEntity
  8
Layer 1
370
     0
100
AcDbSpline
210
0.0
220
0.0
230
1.0
 70
    11
 71
     3
 72
    14
 73
    10
 74
     0
 42
0.0000000001
 43
0.0000000001
 40
0.0
 40
0.0
 40
0.0
 40
0.0
 40
1.0
 40
1.0
 40
1.0
 40
2.0
 40
2.0
 40
2.0
 40
3.0
 40
3.0
 40
3.0
 40
3.0
 10
104.0670328515874
 20
-164.0740505232176
 30
0.0
 10
104.1145751692839
 20
-164.0878309051586
 30
0.0
 10
104.1180202647691
 20
-164.0981661916144
 30
0.0
 10
104.0715114757182
 20
-164.1009222680026
 30
0.0
 10
101.276505508535
 20
-164.2662868512946
 30
0.0
 10
97.84140080019243
 20
-162.5837022162985
 30
0.0
 10
96.55052352186932
 20
-160.1011664096275
 30
0.0
 10
98.46117347798888
 20
-162.2343695340942
 30
0.0
 10
101.4866563331353
 20
-163.3312879365977
 30
0.0
 10
104.0670328515874
 20
-164.0740505232176
 30
0.0
  0
SPLINE
  5
4A
330
3C
100
AcDbEntity
  8
Layer 1
370
     0
100
AcDbSpline
210
0.0
220
0.0
230
1.0
 70
    11
 71
     3
 72
    14
 73
    10
 74
     0
 42
0.0000000001
 43
0.0000000001
 40
0.0
 40
0.0
 40
0.0
 40
0.0
 40
1.0
 40
1.0
 40
1.0
 40
2.0
 40
2.0
 40
2.0
 40
3.0
 40
3.0
 40
3.0
 40
3.0
 10
101.8656168365128
 20
-158.3083387191035
 30
0.0
 10
101.9100585682725
 20
-158.2291015229427
 30
0.0
 10
101.965524605585
 20
-158.1719129378876
 30
0.0
 10
101.9513997140955
 20
-158.3138508718799
 30
0.0
 10
101.7033528391575
 20
-160.8329046906946
 30
0.0
 10
97.24057614756487
 20
-160.6916557757993
 30
0.0
 10
96.29558645596083
 20
-158.5839463579235
 30
0.0
 10
97.89342174201971
 20
-160.1680012620413
 30
0.0
 10
101.0567084165761
 20
-159.7449435364527
 30
0.0
 10
101.8656168365128
 20
-158.3083387191035
 30
0.0
  0
SPLINE
  5
4B
330
3C
100
AcDbEntity
  8
Layer 1
370
     0
100
AcDbSpline
210
0.0
220
0.0
230
1.0
 70
    11
 71
     3
 72
    14
 73
    10
 74
     0
 42
0.0000000001
 43
0.0000000001
 40
0.0
 40
0.0
 40
0.0
 40
0.0
 40
1.0
 40
1.0
 40
1.0
 40
2.0
 40
2.0
 40
2.0
 40
3.0
 40
3.0
 40
3.0
 40
3.0
 10
79.55827905997154
 20
-164.1009222680026
 30
0.0
 10
79.51142576137215
 20
-164.0981661916144
 30
0.0
 10
79.5148708568574
 20
-164.0878309051586
 30
0.0
 10
79.56275768410237
 20
-164.0740505232176
 30
0.0
 10
82.14278969300597
 20
-163.3312879365977
 30
0.0
 10
85.16827254815237
 20
-162.2343695340942
 30
0.0
 10
87.07926701382047
 20
-160.1011664096275
 30
0.0
 10
85.78838973549735
 20
-162.5837022162985
 30
0.0
 10
82.35328502715474
 20
-164.2662868512946
 30
0.0
 10
79.55827905997154
 20
-164.1009222680026
 30
0.0
  0
SPLINE
  5
4C
330
3C
100
AcDbEntity
  8
Layer 1
370
     0
100
AcDbSpline
210
0.0
220
0.0
230
1.0
 70
    11
 71
     3
 72
    14
 73
    10
 74
     0
 42
0.0000000001
 43
0.0000000001
 40
0.0
 40
0.0
 40
0.0
 40
0.0
 40
1.0
 40
1.0
 40
1.0
 40
2.0
 40
2.0
 40
2.0
 40
3.0
 40
3.0
 40
3.0
 40
3.0
 10
81.67839082159429
 20
-158.3138508718799
 30
0.0
 10
81.66426593010478
 20
-158.1719129378876
 30
0.0
 10
81.71973196741729
 20
-158.2291015229427
 30
0.0
 10
81.7638291896285
 20
-158.3083387191035
 30
0.0
 10
82.57308211911368
 20
-159.7449435364527
 30
0.0
 10
85.73636879367008
 20
-160.1680012620413
 30
0.0
 10
87.33420407972895
 20
-158.5839463579235
 30
0.0
 10
86.38921438812493
 20
-160.6916557757993
 30
0.0
 10
81.92643769653229
 20
-160.8329046906946
 30
0.0
 10
81.67839082159429
 20
-158.3138508718799
 30
0.0
  0
SPLINE
  5
4D
330
3C
100
AcDbEntity
  8
Layer 1
370
     0
100
AcDbSpline
210
0.0
220
0.0
230
1.0
 70
    11
 71
     3
 72
    14
 73
    10
 74
     0
 42
0.0000000001
 43
0.0000000001
 40
0.0
 40
0.0
 40
0.0
 40
0.0
 40
1.0
 40
1.0
 40
1.0
 40
2.0
 40
2.0
 40
2.0
 40
3.0
 40
3.0
 40
3.0
 40
3.0
 10
134.0514214074594
 20
-152.4378960122378
 30
0.0
 10
133.080593499716
 20
-152.8147894583241
 30
0.0
 10
123.3168483849694
 20
-156.7253173436312
 30
0.0
 10
120.1893907034596
 20
-152.3872531086046
 30
0.0
 10
120.1893907034596
 20
-152.3872531086046
 30
0.0
 10
134.1978379655825
 20
-152.3872531086046
 30
0.0
 10
134.1978379655825
 20
-152.3872531086046
 30
0.0
 10
134.1492621192405
 20
-152.4041340764823
 30
0.0
 10
134.0999972538014
 20
-152.4192924966174
 30
0.0
 10
134.0514214074594
 20
-152.4378960122378
 30
0.0
  0
HATCH
  5
4E
330
3C
100
AcDbEntity
  8
Layer 1
 62
   250
420
  2301728
100
AcDbHatch
 10
0.0
 20
0.0
 30
0.0
210
0.0
220
0.0
230
1.0
  2
SOLID
 70
     1
 71
     0
 91
        6
 92
        1
 93
        1
 72
     4
 94
        3
 73
     0
 74
     1
 95
      194
 96
      190
 40
0.0
 40
0.0
 40
0.0
 40
0.0
 40
1.0
 40
1.0
 40
1.0
 40
2.0
 40
2.0
 40
2.0
 40
3.0
 40
3.0
 40
3.0
 40
4.0
 40
4.0
 40
4.0
 40
5.0
 40
5.0
 40
5.0
 40
6.0
 40
6.0
 40
6.0
 40
7.0
 40
7.0
 40
7.0
 40
8.0
 40
8.0
 40
8.0
 40
9.0
 40
9.0
 40
9.0
 40
10.0
 40
10.0
 40
10.0
 40
11.0
 40
11.0
 40
11.0
 40
12.0
 40
12.0
 40
12.0
 40
13.0
 40
13.0
 40
13.0
 40
14.0
 40
14.0
 40
14.0
 40
15.0
 40
15.0
 40
15.0
 40
16.0
 40
16.0
 40
16.0
 40
17.0
 40
17.0
 40
17.0
 40
18.0
 40
18.0
 40
18.0
 40
19.0
 40
19.0
 40
19.0
 40
20.0
 40
20.0
 40
20.0
 40
21.0
 40
21.0
 40
21.0
 40
22.0
 40
22.0
 40
22.0
 40
23.0
 40
23.0
 40
23.0
 40
24.0
 40
24.0
 40
24.0
 40
25.0
 40
25.0
 40
25.0
 40
26.0
 40
26.0
 40
26.0
 40
27.0
 40
27.0
 40
27.0
 40
28.0
 40
28.0
 40
28.0
 40
29.0
 40
29.0
 40
29.0
 40
30.0
 40
30.0
 40
30.0
 40
31.0
 40
31.0
 40
31.0
 40
32.0
 40
32.0
 40
32.0
 40
33.0
 40
33.0
 40
33.0
 40
34.0
 40
34.0
 40
34.0
 40
35.0
 40
35.0
 40
35.0
 40
36.0
 40
36.0
 40
36.0
 40
37.0
 40
37.0
 40
37.0
 40
38.0
 40
38.0
 40
38.0
 40
39.0
 40
39.0
 40
39.0
 40
40.0
 40
40.0
 40
40.0
 40
41.0
 40
41.0
 40
41.0
 40
42.0
 40
42.0
 40
42.0
 40
43.0
 40
43.0
 40
43.0
 40
44.0
 40
44.0
 40
44.0
 40
45.0
 40
45.0
 40
45.0
 40
46.0
 40
46.0
 40
46.0
 40
47.0
 40
47.0
 40
47.0
 40
48.0
 40
48.0
 40
48.0
 40
49.0
 40
49.0
 40
49.0
 40
50.0
 40
50.0
 40
50.0
 40
51.0
 40
51.0
 40
51.0
 40
52.0
 40
52.0
 40
52.0
 40
53.0
 40
53.0
 40
53.0
 40
54.0
 40
54.0
 40
54.0
 40
55.0
 40
55.0
 40
55.0
 40
56.0
 40
56.0
 40
56.0
 40
57.0
 40
57.0
 40
57.0
 40
58.0
 40
58.0
 40
58.0
 40
59.0
 40
59.0
 40
59.0
 40
60.0
 40
60.0
 40
60.0
 40
61.0
 40
61.0
 40
61.0
 40
62.0
 40
62.0
 40
62.0
 40
63.0
 40
63.0
 40
63.0
 40
63.0
 10
73.36778698252611
 20
-152.3872531086046
 10
73.36778698252611
 20
-152.3872531086046
 10
88.05526256479175
 20
-152.3872531086046
 10
88.05526256479175
 20
-152.3872531086046
 10
88.04802786427273
 20
-154.2272786072765
 10
87.9553547957195
 20
-156.1145019140964
 10
86.70685219186495
 20
-157.5607529988043
 10
85.08834633289459
 20
-159.0759059932171
 10
82.32193465823896
 20
-159.322574829961
 10
81.70388452818514
 20
-156.3997558202751
 10
81.64187280945065
 20
-156.1007215321554
 10
81.62947046570375
 20
-155.8506075999262
 10
81.66254338236214
 20
-155.5419270444478
 10
81.68355846482217
 20
-155.3297091625565
 10
81.59777558723945
 20
-155.2222221834167
 10
81.30700952828437
 20
-155.3682942319913
 10
79.80977103039478
 20
-156.1165689713875
 10
79.64991859987919
 20
-157.1824815145238
 10
79.49144420755769
 20
-158.5674098995943
 10
79.24167478487709
 20
-158.4743923214925
 10
78.97674694206137
 20
-158.3903319916524
 10
78.73834633448209
 20
-158.5047091617627
 10
78.49856768870869
 20
-159.6601941875155
 10
79.4184081832704
 20
-160.9521049944842
 10
79.4184081832704
 20
-160.9521049944842
 10
78.26671276255138
 20
-160.8363497861798
 10
76.2192925156674
 20
-158.6004828162527
 10
77.6672661481179
 20
-155.971874961007
 10
77.76338431215638
 20
-156.1351724870079
 10
77.87362736768438
 20
-156.2964029557176
 10
78.00729707251207
 20
-156.4286946223512
 10
79.44941404263766
 20
-157.84669592408
 10
81.40622827825956
 20
-154.5008191888054
 10
79.67885740195528
 20
-153.5623751786233
 10
78.35559622607083
 20
-152.8451062985943
 10
76.67060002423513
 20
-154.1025661507105
 10
76.11387259381875
 20
-155.6528591190729
 10
74.76890731637722
 20
-159.3962998733454
 10
77.49638941204952
 20
-162.1372178414101
 10
79.30919865638798
 20
-162.74217660862
 10
77.82126191630857
 20
-162.8496635877598
 10
77.26384546679515
 20
-164.1112575544583
 10
75.94437389594447
 20
-164.7045029970183
 10
75.55645614430533
 20
-164.879513847669
 10
75.65464136563496
 20
-165.183371269468
 10
75.97951386989402
 20
-165.0056043424292
 10
76.92140297556132
 20
-164.4881510005446
 10
77.78095429913115
 20
-165.4706922329379
 10
78.61983504978949
 20
-165.6291666252594
 10
79.78117673786721
 20
-165.9598957918434
 10
80.77164168987653
 20
-165.9950357657929
 10
81.92230358194999
 20
-165.4486436218323
 10
82.04873858625865
 20
-165.7676594637664
 10
81.80930445003379
 20
-166.1604003490849
 10
81.87372773560796
 20
-166.4346299497108
 10
83.80918237922133
 20
-166.3312770851533
 10
86.51702743062769
 20
-164.2986707488559
 10
88.10831703526459
 20
-160.8835475943277
 10
88.00255260386741
 20
-164.761347072525
 10
86.78264429254045
 20
-167.0289089209164
 10
82.91518010079899
 20
-167.4492105701169
 10
82.91518010079899
 20
-167.4492105701169
 10
82.91518010079899
 20
-170.4478216804783
 10
82.91518010079899
 20
-170.4478216804783
 10
82.91518010079899
 20
-170.4478216804783
 10
100.9068467629677
 20
-170.4478216804783
 10
100.9068467629677
 20
-170.4478216804783
 10
100.9068467629677
 20
-170.4478216804783
 10
100.9068467629677
 20
-167.4492105701169
 10
100.9068467629677
 20
-167.4492105701169
 10
96.98219398617113
 20
-167.0485459651823
 10
95.89457734147774
 20
-164.5387939041778
 10
95.72783471999166
 20
-161.3069498294649
 10
97.33910587844301
 20
-164.466102389439
 10
99.90191240992036
 20
-166.3354111997356
 10
101.7560628000818
 20
-166.4346299497108
 10
101.820486085656
 20
-166.1604003490849
 10
101.5810519494311
 20
-165.7676594637664
 10
101.7074869537398
 20
-165.4486436218323
 10
102.8581488458132
 20
-165.9950357657929
 10
103.8486137978226
 20
-165.9598957918434
 10
105.0099554859003
 20
-165.6291666252594
 10
105.8488362365586
 20
-165.4706922329379
 10
106.7083875601285
 20
-164.4881510005446
 10
107.6502766657958
 20
-165.0056043424292
 10
107.9751491700548
 20
-165.183371269468
 10
108.0729898818359
 20
-164.879513847669
 10
107.6854166397453
 20
-164.7045029970183
 10
106.3656005593461
 20
-164.1112575544583
 10
105.8085286193812
 20
-162.8496635877598
 10
104.3205918793018
 20
-162.74217660862
 10
106.1334011236403
 20
-162.1372178414101
 10
108.8608832193126
 20
-159.3962998733454
 10
107.515917941871
 20
-155.6528591190729
 10
106.9591905114547
 20
-154.1025661507105
 10
105.274194309619
 20
-152.8451062985943
 10
103.9509331337345
 20
-153.5623751786233
 10
102.2232177478817
 20
-154.5008191888054
 10
104.1800319835036
 20
-157.84669592408
 10
105.6221489536292
 20
-156.4286946223512
 10
105.7561631680054
 20
-156.2964029557176
 10
105.8664062235334
 20
-156.1351724870079
 10
105.9625243875719
 20
-155.971874961007
 10
107.4101535104739
 20
-158.6004828162527
 10
105.3630777731384
 20
-160.8363497861798
 10
104.2113823524194
 20
-160.9521049944842
 10
104.2113823524194
 20
-160.9521049944842
 10
105.1312228469811
 20
-159.6601941875155
 10
104.8914442012077
 20
-158.5047091617627
 10
104.6530435936284
 20
-158.3903319916524
 10
104.3881157508127
 20
-158.4743923214925
 10
104.1383463281321
 20
-158.5674098995943
 10
103.9795274262621
 20
-157.1824815145238
 10
103.820019505295
 20
-156.1165689713875
 10
102.3227810074054
 20
-155.3682942319913
 10
102.0320149484503
 20
-155.2222221834167
 10
101.9462320708676
 20
-155.3297091625565
 10
101.9672471533276
 20
-155.5419270444478
 10
102.000320069986
 20
-155.8506075999262
 10
101.9879177262391
 20
-156.1007215321554
 10
101.9259060075046
 20
-156.3997558202751
 10
101.3078558774508
 20
-159.322574829961
 10
98.5414442027952
 20
-159.0759059932171
 10
96.92293834382482
 20
-157.5607529988043
 10
96.18844398636956
 20
-156.7098144139476
 10
95.85564776249443
 20
-155.7062580990943
 10
95.70337454204638
 20
-154.6496473137682
 10
95.70337454204638
 20
-154.6496473137682
 10
95.70337454204638
 20
-152.3872531086046
 10
95.70337454204638
 20
-152.3872531086046
 10
95.70337454204638
 20
-152.3872531086046
 10
109.3149468042685
 20
-152.3872531086046
 10
109.3149468042685
 20
-152.3872531086046
 10
109.3149468042685
 20
-152.3872531086046
 10
117.4036864940866
 20
-161.011016127282
 10
117.4036864940866
 20
-161.011016127282
 10
118.4620198271553
 20
-162.1575439047731
 10
119.4321587158017
 20
-163.3040716822643
 10
119.4321587158017
 20
-164.803377237445
 10
119.4321587158017
 20
-166.5672661258929
 10
118.1092420494657
 20
-167.4492105701169
 10
116.2571587165954
 20
-167.4492105701169
 10
116.2571587165954
 20
-167.4492105701169
 10
115.5516031612163
 20
-167.4492105701169
 10
115.5516031612163
 20
-167.4492105701169
 10
115.5516031612163
 20
-167.4492105701169
 10
115.5516031612163
 20
-170.4478216804783
 10
115.5516031612163
 20
-170.4478216804783
 10
115.5516031612163
 20
-170.4478216804783
 10
138.217575377772
 20
-170.4478216804783
 10
138.217575377772
 20
-170.4478216804783
 10
138.217575377772
 20
-170.4478216804783
 10
138.217575377772
 20
-167.4492105701169
 10
138.217575377772
 20
-167.4492105701169
 10
134.5134087120314
 20
-166.9200439035825
 10
131.6029920460923
 20
-164.8915716818674
 10
127.8988253803517
 20
-161.011016127282
 10
127.8988253803517
 20
-161.011016127282
 10
123.9214626426308
 20
-156.7766492663614
 10
123.9214626426308
 20
-156.7766492663614
 10
125.6750162446229
 20
-156.771826132682
 10
127.4788682406997
 20
-156.3053602039792
 10
128.9340765736693
 20
-155.771714913314
 10
131.4359049150577
 20
-154.8522189283008
 10
133.8240451054329
 20
-152.8774901961556
 10
135.135937466216
 20
-152.827880821168
 10
134.9984781563546
 20
-153.0587022186798
 10
134.9102837119322
 20
-153.3484347489893
 10
134.900981954122
 20
-153.6643500049867
 10
134.8768662857252
 20
-154.4594780429824
 10
135.6361653306743
 20
-155.0871744403949
 10
136.2342339069137
 20
-155.1092230515005
 10
136.8364365977353
 20
-155.1312716626061
 10
137.6560248136763
 20
-154.5218342712654
 10
137.6804849916215
 20
-153.7270507428182
 10
137.7001220358875
 20
-153.0883300398529
 10
137.3614691496874
 20
-152.6418456649645
 10
136.8367811072839
 20
-152.3872531086046
 10
136.8367811072839
 20
-152.3872531086046
 10
142.2765868784934
 20
-152.3872531086046
 10
142.2765868784934
 20
-152.3872531086046
 10
142.2765868784934
 20
-152.3872531086046
 10
142.2765868784934
 20
-150.7756374406047
 10
142.2765868784934
 20
-150.7756374406047
 10
142.2765868784934
 20
-150.7756374406047
 10
73.36778698252611
 20
-150.7756374406047
 10
73.36778698252611
 20
-150.7756374406047
 10
73.36778698252611
 20
-150.7756374406047
 10
73.36778698252611
 20
-152.3872531086046
 10
73.36778698252611
 20
-152.3872531086046
 97
        0
 92
        1
 93
        1
 72
     4
 94
        3
 73
     0
 74
     1
 95
       14
 96
       10
 40
0.0
 40
0.0
 40
0.0
 40
0.0
 40
1.0
 40
1.0
 40
1.0
 40
2.0
 40
2.0
 40
2.0
 40
3.0
 40
3.0
 40
3.0
 40
3.0
 10
104.0670328515874
 20
-164.0740505232176
 10
104.1145751692839
 20
-164.0878309051586
 10
104.1180202647691
 20
-164.0981661916144
 10
104.0715114757182
 20
-164.1009222680026
 10
101.276505508535
 20
-164.2662868512946
 10
97.84140080019243
 20
-162.5837022162985
 10
96.55052352186932
 20
-160.1011664096275
 10
98.46117347798888
 20
-162.2343695340942
 10
101.4866563331353
 20
-163.3312879365977
 10
104.0670328515874
 20
-164.0740505232176
 97
        0
 92
        1
 93
        1
 72
     4
 94
        3
 73
     0
 74
     1
 95
       14
 96
       10
 40
0.0
 40
0.0
 40
0.0
 40
0.0
 40
1.0
 40
1.0
 40
1.0
 40
2.0
 40
2.0
 40
2.0
 40
3.0
 40
3.0
 40
3.0
 40
3.0
 10
101.8656168365128
 20
-158.3083387191035
 10
101.9100585682725
 20
-158.2291015229427
 10
101.965524605585
 20
-158.1719129378876
 10
101.9513997140955
 20
-158.3138508718799
 10
101.7033528391575
 20
-160.8329046906946
 10
97.24057614756487
 20
-160.6916557757993
 10
96.29558645596083
 20
-158.5839463579235
 10
97.89342174201971
 20
-160.1680012620413
 10
101.0567084165761
 20
-159.7449435364527
 10
101.8656168365128
 20
-158.3083387191035
 97
        0
 92
        1
 93
        1
 72
     4
 94
        3
 73
     0
 74
     1
 95
       14
 96
       10
 40
0.0
 40
0.0
 40
0.0
 40
0.0
 40
1.0
 40
1.0
 40
1.0
 40
2.0
 40
2.0
 40
2.0
 40
3.0
 40
3.0
 40
3.0
 40
3.0
 10
79.55827905997154
 20
-164.1009222680026
 10
79.51142576137215
 20
-164.0981661916144
 10
79.5148708568574
 20
-164.0878309051586
 10
79.56275768410237
 20
-164.0740505232176
 10
82.14278969300597
 20
-163.3312879365977
 10
85.16827254815237
 20
-162.2343695340942
 10
87.07926701382047
 20
-160.1011664096275
 10
85.78838973549735
 20
-162.5837022162985
 10
82.35328502715474
 20
-164.2662868512946
 10
79.55827905997154
 20
-164.1009222680026
 97
        0
 92
        1
 93
        1
 72
     4
 94
        3
 73
     0
 74
     1
 95
       14
 96
       10
 40
0.0
 40
0.0
 40
0.0
 40
0.0
 40
1.0
 40
1.0
 40
1.0
 40
2.0
 40
2.0
 40
2.0
 40
3.0
 40
3.0
 40
3.0
 40
3.0
 10
81.67839082159429
 20
-158.3138508718799
 10
81.66426593010478
 20
-158.1719129378876
 10
81.71973196741729
 20
-158.2291015229427
 10
81.7638291896285
 20
-158.3083387191035
 10
82.57308211911368
 20
-159.7449435364527
 10
85.73636879367008
 20
-160.1680012620413
 10
87.33420407972895
 20
-158.5839463579235
 10
86.38921438812493
 20
-160.6916557757993
 10
81.92643769653229
 20
-160.8329046906946
 10
81.67839082159429
 20
-158.3138508718799
 97
        0
 92
        1
 93
        1
 72
     4
 94
        3
 73
     0
 74
     1
 95
       14
 96
       10
 40
0.0
 40
0.0
 40
0.0
 40
0.0
 40
1.0
 40
1.0
 40
1.0
 40
2.0
 40
2.0
 40
2.0
 40
3.0
 40
3.0
 40
3.0
 40
3.0
 10
134.0514214074594
 20
-152.4378960122378
 10
133.080593499716
 20
-152.8147894583241
 10
123.3168483849694
 20
-156.7253173436312
 10
120.1893907034596
 20
-152.3872531086046
 10
120.1893907034596
 20
-152.3872531086046
 10
134.1978379655825
 20
-152.3872531086046
 10
134.1978379655825
 20
-152.3872531086046
 10
134.1492621192405
 20
-152.4041340764823
 10
134.0999972538014
 20
-152.4192924966174
 10
134.0514214074594
 20
-152.4378960122378
 97
        0
 75
     2
 76
     1
 98
        0
  0
ENDBLK
  5
3F
330
3C
100
AcDbEntity
  8
0
100
AcDbBlockEnd
  0
ENDSEC
  0
SECTION
  2
ENTITIES
  0
INSERT
  5
3D
330
1F
100
AcDbEntity
  8
Layer 1
100
AcDbBlockReference
  2
block 2
 10
0.0
 20
0.0
 30
0.0
  0
ENDSEC
  0
SECTION
  2
OBJECTS
  0
DICTIONARY
  5
C
330
0
100
AcDbDictionary
281
     1
  3
ACAD_GROUP
350
D
  3
ACAD_LAYOUT
350
1A
  3
ACAD_MLINESTYLE
350
17
  3
ACAD_PLOTSETTINGS
350
19
  3
ACAD_PLOTSTYLENAME
350
E
  3
ACAD_TABLESTYLE
350
4F
  3
ACAD_VISUALSTYLE
350
2A
  0
DICTIONARY
  5
D
102
{ACAD_REACTORS
330
C
102
}
330
C
100
AcDbDictionary
281
     1
  0
DICTIONARY
  5
1A
102
{ACAD_REACTORS
330
C
102
}
330
C
100
AcDbDictionary
281
     1
  3
Layout1
350
1E
  3
Layout2
350
26
  3
Model
350
22
  0
DICTIONARY
  5
17
102
{ACAD_REACTORS
330
C
102
}
330
C
100
AcDbDictionary
281
     1
  3
Standard
350
18
  0
DICTIONARY
  5
19
102
{ACAD_REACTORS
330
C
102
}
330
C
100
AcDbDictionary
281
     1
  0
ACDBDICTIONARYWDFLT
  5
E
102
{ACAD_REACTORS
330
C
102
}
330
C
100
AcDbDictionary
281
     1
  3
Normal
350
F
100
AcDbDictionaryWithDefault
340
F
  0
DICTIONARY
  5
4F
102
{ACAD_REACTORS
330
C
102
}
330
C
100
AcDbDictionary
281
     1
  0
DICTIONARY
  5
2A
102
{ACAD_REACTORS
330
C
102
}
330
C
100
AcDbDictionary
281
     1
  3
2dWireframe
350
2F
  3
3D Hidden
350
31
  3
3dWireframe
350
30
  3
Basic
350
32
  3
Brighten
350
36
  3
ColorChange
350
3A
  3
Conceptual
350
34
  3
Dim
350
35
  3
Facepattern
350
39
  3
Flat
350
2B
  3
FlatWithEdges
350
2C
  3
Gouraud
350
2D
  3
GouraudWithEdges
350
2E
  3
Linepattern
350
38
  3
Realistic
350
33
  3
Thicken
350
37
  0
LAYOUT
  5
1E
102
{ACAD_REACTORS
330
1A
102
}
330
1A
100
AcDbPlotSettings
  1

  2
none_device
  4

  6

 40
0.0
 41
0.0
 42
0.0
 43
0.0
 44
0.0
 45
0.0
 46
0.0
 47
0.0
 48
0.0
 49
0.0
140
0.0
141
0.0
142
1.0
143
1.0
 70
   688
 72
     0
 73
     0
 74
     5
  7

 75
    16
 76
     0
 77
     2
 78
   300
147
1.0
148
0.0
149
0.0
100
AcDbLayout
  1
Layout1
 70
     1
 71
     1
 10
0.0
 20
0.0
 11
12.0
 21
9.0
 12
0.0
 22
0.0
 32
0.0
 14
1.000000000000000E+20
 24
1.000000000000000E+20
 34
1.000000000000000E+20
 15
-1.000000000000000E+20
 25
-1.000000000000000E+20
 35
-1.000000000000000E+20
146
0.0
 13
0.0
 23
0.0
 33
0.0
 16
1.0
 26
0.0
 36
0.0
 17
0.0
 27
1.0
 37
0.0
 76
     0
330
1B
  0
LAYOUT
  5
26
102
{ACAD_REACTORS
330
1A
102
}
330
1A
100
AcDbPlotSettings
  1

  2
none_device
  4

  6

 40
0.0
 41
0.0
 42
0.0
 43
0.0
 44
0.0
 45
0.0
 46
0.0
 47
0.0
 48
0.0
 49
0.0
140
0.0
141
0.0
142
1.0
143
1.0
 70
   688
 72
     0
 73
     0
 74
     5
  7

 75
    16
 76
     0
 77
     2
 78
   300
147
1.0
148
0.0
149
0.0
100
AcDbLayout
  1
Layout2
 70
     1
 71
     2
 10
0.0
 20
0.0
 11
0.0
 21
0.0
 12
0.0
 22
0.0
 32
0.0
 14
0.0
 24
0.0
 34
0.0
 15
0.0
 25
0.0
 35
0.0
146
0.0
 13
0.0
 23
0.0
 33
0.0
 16
1.0
 26
0.0
 36
0.0
 17
0.0
 27
1.0
 37
0.0
 76
     0
330
23
  0
LAYOUT
  5
22
102
{ACAD_REACTORS
330
1A
102
}
330
1A
100
AcDbPlotSettings
  1

  2
none_device
  4

  6

 40
0.0
 41
0.0
 42
0.0
 43
0.0
 44
0.0
 45
0.0
 46
0.0
 47
0.0
 48
0.0
 49
0.0
140
0.0
141
0.0
142
1.0
143
1.0
 70
  1712
 72
     0
 73
     0
 74
     0
  7

 75
     0
 76
     0
 77
     2
 78
   300
147
1.0
148
0.0
149
0.0
100
AcDbLayout
  1
Model
 70
     1
 71
     0
 10
0.0
 20
0.0
 11
12.0
 21
9.0
 12
0.0
 22
0.0
 32
0.0
 14
1.000000000000000E+20
 24
1.000000000000000E+20
 34
1.000000000000000E+20
 15
-1.000000000000000E+20
 25
-1.000000000000000E+20
 35
-1.000000000000000E+20
146
0.0
 13
0.0
 23
0.0
 33
0.0
 16
1.0
 26
0.0
 36
0.0
 17
0.0
 27
1.0
 37
0.0
 76
     0
330
1F
331
29
  0
MLINESTYLE
  5
18
102
{ACAD_REACTORS
330
17
102
}
330
17
100
AcDbMlineStyle
  2
Standard
 70
     0
  3

 62
   256
 51
90.0
 52
90.0
 71
     2
 49
0.5
 62
   256
  6
BYLAYER
 49
-0.5
 62
   256
  6
BYLAYER
  0
ACDBPLACEHOLDER
  5
F
102
{ACAD_REACTORS
330
E
102
}
330
E
  0
VISUALSTYLE
  5
2F
102
{ACAD_REACTORS
330
2A
102
}
330
2A
100
AcDbVisualStyle
  2
2dWireframe
 70
     4
 71
     0
 72
     2
 73
     0
 90
        0
 40
-0.6
 41
-30.0
 62
     5
 63
     7
421
 16777215
 74
     1
 91
        4
 64
     7
 65
   257
 75
     1
175
     1
 42
1.0
 92
        0
 66
   257
 43
1.0
 76
     1
 77
     6
 78
     2
 67
     7
 79
     5
170
     0
171
     0
290
     0
174
     0
 93
        1
 44
0.0
173
     0
291
     0
 45
0.0
1001
ACAD
1000
AcDbSavedByObjectVersion
1070
     0
  0
VISUALSTYLE
  5
31
102
{ACAD_REACTORS
330
2A
102
}
330
2A
100
AcDbVisualStyle
  2
3D Hidden
 70
     6
 71
     1
 72
     2
 73
     2
 90
        0
 40
-0.6
 41
-30.0
 62
     5
 63
     7
421
 16777215
 74
     2
 91
        2
 64
     7
 65
   257
 75
     2
175
     1
 42
40.0
 92
        0
 66
   257
 43
1.0
 76
     1
 77
     6
 78
     2
 67
     7
 79
     3
170
     0
171
     0
290
     0
174
     0
 93
        1
 44
0.0
173
     0
291
     0
 45
0.0
1001
ACAD
1000
AcDbSavedByObjectVersion
1070
     0
  0
VISUALSTYLE
  5
30
102
{ACAD_REACTORS
330
2A
102
}
330
2A
100
AcDbVisualStyle
  2
3dWireframe
 70
     5
 71
     0
 72
     2
 73
     0
 90
        0
 40
-0.6
 41
-30.0
 62
     5
 63
     7
421
 16777215
 74
     1
 91
        4
 64
     7
 65
   257
 75
     1
175
     1
 42
1.0
 92
        0
 66
   257
 43
1.0
 76
     1
 77
     6
 78
     2
 67
     7
 79
     5
170
     0
171
     0
290
     0
174
     0
 93
        1
 44
0.0
173
     0
291
     0
 45
0.0
1001
ACAD
1000
AcDbSavedByObjectVersion
1070
     0
  0
VISUALSTYLE
  5
32
102
{ACAD_REACTORS
330
2A
102
}
330
2A
100
AcDbVisualStyle
  2
Basic
 70
     7
 71
     1
 72
     0
 73
     1
 90
        0
 40
-0.6
 41
-30.0
 62
     5
 63
     7
421
 16777215
 74
     0
 91
        4
 64
     7
 65
   257
 75
     1
175
     1
 42
1.0
 92
        8
 66
     7
 43
1.0
 76
     1
 77
     6
 78
     2
 67
     7
 79
     5
170
     0
171
     0
290
     0
174
     0
 93
        1
 44
0.0
173
     0
291
     1
 45
0.0
1001
ACAD
1000
AcDbSavedByObjectVersion
1070
     0
  0
VISUALSTYLE
  5
36
102
{ACAD_REACTORS
330
2A
102
}
330
2A
100
AcDbVisualStyle
  2
Brighten
 70
    12
 71
     2
 72
     2
 73
     0
 90
        0
 40
-0.6
 41
-30.0
 62
     5
 63
     7
421
 16777215
 74
     1
 91
        4
 64
     7
 65
   257
 75
     1
175
     1
 42
1.0
 92
        8
 66
     7
 43
1.0
 76
     1
 77
     6
 78
     2
 67
     7
 79
     5
170
     0
171
     0
290
     0
174
     0
 93
        1
 44
50.0
173
     0
291
     1
 45
0.0
1001
ACAD
1000
AcDbSavedByObjectVersion
1070
     0
  0
VISUALSTYLE
  5
3A
102
{ACAD_REACTORS
330
2A
102
}
330
2A
100
AcDbVisualStyle
  2
ColorChange
 70
    16
 71
     2
 72
     2
 73
     3
 90
        0
 40
-0.6
 41
-30.0
 62
     5
 63
     8
421
  8421504
 74
     1
 91
        4
 64
     7
 65
   257
 75
     1
175
     1
 42
1.0
 92
        8
 66
     8
424
  8421504
 43
1.0
 76
     1
 77
     6
 78
     2
 67
     7
 79
     5
170
     0
171
     0
290
     0
174
     0
 93
        1
 44
0.0
173
     0
291
     1
 45
0.0
1001
ACAD
1000
AcDbSavedByObjectVersion
1070
     0
  0
VISUALSTYLE
  5
34
102
{ACAD_REACTORS
330
2A
102
}
330
2A
100
AcDbVisualStyle
  2
Conceptual
 70
     9
 71
     3
 72
     2
 73
     0
 90
        0
 40
-0.6
 41
-30.0
 62
     5
 63
     7
421
 16777215
 74
     2
 91
        2
 64
     7
 65
   257
 75
     1
175
     1
 42
40.0
 92
        8
 66
     7
 43
1.0
 76
     1
 77
     6
 78
     2
 67
     7
 79
     3
170
     0
171
     0
290
     0
174
     0
 93
        1
 44
0.0
173
     0
291
     0
 45
0.0
1001
ACAD
1000
AcDbSavedByObjectVersion
1070
     0
  0
VISUALSTYLE
  5
35
102
{ACAD_REACTORS
330
2A
102
}
330
2A
100
AcDbVisualStyle
  2
Dim
 70
    11
 71
     2
 72
     2
 73
     0
 90
        0
 40
-0.6
 41
-30.0
 62
     5
 63
     7
421
 16777215
 74
     1
 91
        4
 64
     7
 65
   257
 75
     1
175
     1
 42
1.0
 92
        8
 66
     7
 43
1.0
 76
     1
 77
     6
 78
     2
 67
     7
 79
     5
170
     0
171
     0
290
     0
174
     0
 93
        1
 44
-50.0
173
     0
291
     1
 45
0.0
1001
ACAD
1000
AcDbSavedByObjectVersion
1070
     0
  0
VISUALSTYLE
  5
39
102
{ACAD_REACTORS
330
2A
102
}
330
2A
100
AcDbVisualStyle
  2
Facepattern
 70
    15
 71
     2
 72
     2
 73
     0
 90
        0
 40
-0.6
 41
-30.0
 62
     5
 63
     7
421
 16777215
 74
     1
 91
        4
 64
     7
 65
   257
 75
     1
175
     1
 42
1.0
 92
        8
 66
     7
 43
1.0
 76
     1
 77
     6
 78
     2
 67
     7
 79
     5
170
     0
171
     0
290
     0
174
     0
 93
        1
 44
0.0
173
     0
291
     1
 45
0.0
1001
ACAD
1000
AcDbSavedByObjectVersion
1070
     0
  0
VISUALSTYLE
  5
2B
102
{ACAD_REACTORS
330
2A
102
}
330
2A
100
AcDbVisualStyle
  2
Flat
 70
     0
 71
     2
 72
     1
 73
     1
 90
        2
 40
-0.6
 41
30.0
 62
     5
 63
     7
421
 16777215
 74
     0
 91
        4
 64
     7
 65
   257
 75
     1
175
     1
 42
1.0
 92
        8
 66
     7
 43
1.0
 76
     1
 77
     6
 78
     2
 67
     7
 79
     5
170
     0
171
     0
290
     0
174
     0
 93
       13
 44
0.0
173
     0
291
     1
 45
0.0
1001
ACAD
1000
AcDbSavedByObjectVersion
1070
     0
  0
VISUALSTYLE
  5
2C
102
{ACAD_REACTORS
330
2A
102
}
330
2A
100
AcDbVisualStyle
  2
FlatWithEdges
 70
     1
 71
     2
 72
     1
 73
     1
 90
        2
 40
-0.6
 41
30.0
 62
     5
 63
     7
421
 16777215
 74
     1
 91
        4
 64
     7
 65
   257
 75
     1
175
     1
 42
1.0
 92
        0
 66
   257
 43
1.0
 76
     1
 77
     6
 78
     2
 67
     7
 79
     5
170
     0
171
     0
290
     0
174
     0
 93
       13
 44
0.0
173
     0
291
     1
 45
0.0
1001
ACAD
1000
AcDbSavedByObjectVersion
1070
     0
  0
VISUALSTYLE
  5
2D
102
{ACAD_REACTORS
330
2A
102
}
330
2A
100
AcDbVisualStyle
  2
Gouraud
 70
     2
 71
     2
 72
     2
 73
     1
 90
        2
 40
-0.6
 41
30.0
 62
     5
 63
     7
421
 16777215
 74
     0
 91
        4
 64
     7
 65
   257
 75
     1
175
     1
 42
1.0
 92
        0
 66
     7
 43
1.0
 76
     1
 77
     6
 78
     2
 67
     7
 79
     5
170
     0
171
     0
290
     0
174
     0
 93
       13
 44
0.0
173
     0
291
     1
 45
0.0
1001
ACAD
1000
AcDbSavedByObjectVersion
1070
     0
  0
VISUALSTYLE
  5
2E
102
{ACAD_REACTORS
330
2A
102
}
330
2A
100
AcDbVisualStyle
  2
GouraudWithEdges
 70
     3
 71
     2
 72
     2
 73
     1
 90
        2
 40
-0.6
 41
30.0
 62
     5
 63
     7
421
 16777215
 74
     1
 91
        4
 64
     7
 65
   257
 75
     1
175
     1
 42
1.0
 92
        0
 66
   257
 43
1.0
 76
     1
 77
     6
 78
     2
 67
     7
 79
     5
170
     0
171
     0
290
     0
174
     0
 93
       13
 44
0.0
173
     0
291
     1
 45
0.0
1001
ACAD
1000
AcDbSavedByObjectVersion
1070
     0
  0
VISUALSTYLE
  5
38
102
{ACAD_REACTORS
330
2A
102
}
330
2A
100
AcDbVisualStyle
  2
Linepattern
 70
    14
 71
     2
 72
     2
 73
     0
 90
        0
 40
-0.6
 41
-30.0
 62
     5
 63
     7
421
 16777215
 74
     1
 91
        4
 64
     7
 65
   257
 75
     7
175
     7
 42
1.0
 92
        8
 66
     7
 43
1.0
 76
     1
 77
     6
 78
     2
 67
     7
 79
     5
170
     0
171
     0
290
     0
174
     0
 93
        1
 44
0.0
173
     0
291
     1
 45
0.0
1001
ACAD
1000
AcDbSavedByObjectVersion
1070
     0
  0
VISUALSTYLE
  5
33
102
{ACAD_REACTORS
330
2A
102
}
330
2A
100
AcDbVisualStyle
  2
Realistic
 70
     8
 71
     2
 72
     2
 73
     0
 90
        0
 40
-0.6
 41
-30.0
 62
     5
 63
     7
421
 16777215
 74
     1
 91
        0
 64
     7
 65
   257
 75
     1
175
     1
 42
1.0
 92
        8
 66
     8
424
  7895160
 43
1.0
 76
     1
 77
     6
 78
     2
 67
     7
 79
     5
170
     0
171
     0
290
     0
174
     0
 93
       13
 44
0.0
173
     0
291
     0
 45
0.0
1001
ACAD
1000
AcDbSavedByObjectVersion
1070
     0
  0
VISUALSTYLE
  5
37
102
{ACAD_REACTORS
330
2A
102
}
330
2A
100
AcDbVisualStyle
  2
Thicken
 70
    13
 71
     2
 72
     2
 73
     0
 90
        0
 40
-0.6
 41
-30.0
 62
     5
 63
     7
421
 16777215
 74
     1
 91
        4
 64
     7
 65
   257
 75
     1
175
     1
 42
1.0
 92
       12
 66
     7
 43
1.0
 76
     1
 77
     6
 78
     2
 67
     7
 79
     5
170
     0
171
     0
290
     0
174
     0
 93
        1
 44
0.0
173
     0
291
     1
 45
0.0
1001
ACAD
1000
AcDbSavedByObjectVersion
1070
     0
  0
ENDSEC
  0
EOF
