  0
SECTION
  2
HEADER
  9
$ACADVER
  1
AC1006
  0
ENDSEC
  0
SECTION
  2
TABLES
  0
TABLE
  2
LTYPE
 70
    25
  0
LTYPE
  2
CONTINUOUS
 70
    64
  3
Solid line
 72
    64
 73
     0
 40
0.000000
  0
LTYPE
  2
DASHDOT
 70
    64
  3
__ . __ . __ . __ . __ . __ . __ . __ . __ . __
 72
    65
 73
     4
 40
1.000000
 49
0.500000
 49
-0.250000
 49
0.000000
 49
-0.250000
  0
LTYPE
  2
DASHED
 70
    64
  3
__ __ __ __ __ __ __ __ __ __ __ __ __ __ __ __
 72
    65
 73
     2
 40
0.750000
 49
0.500000
 49
-0.250000
  0
LTYPE
  2
DIVIDE
 70
    64
  3
____ . . ____ . . ____ . . ____ . . ____ . . __
 72
    65
 73
     6
 40
1.250000
 49
0.500000
 49
-0.250000
 49
0.000000
 49
-0.250000
 49
0.000000
 49
-0.250000
  0
LTYPE
  2
DOT
 70
    64
  3
. . . . . . . . . . . . . . . . . . . . . . . . 
 72
    65
 73
     2
 40
0.250000
 49
0.000000
 49
-0.250000
  0
ENDTAB
  0
ENDSEC
  0
SECTION
  2
ENTITIES
  0
ARC
  8
0
 62
    72
  6
CONTINUOUS
 10
-1.482496
 20
0.300419
 30
0.000000
 40
0.253057
 50
280.987613
 51
327.454569
  0
ARC
  8
0
 62
    72
  6
CONTINUOUS
 10
-1.367114
 20
0.236129
 30
0.000000
 40
0.121464
 50
323.735734
 51
377.185719
  0
ARC
  8
0
 62
    72
  6
CONTINUOUS
 10
-1.262429
 20
0.272298
 30
0.000000
 40
0.011359
 50
358.587868
 51
460.562935
  0
ARC
  8
0
 62
    72
  6
CONTINUOUS
 10
-1.245204
 20
0.254610
 30
0.000000
 40
0.034718
 50
123.787110
 51
155.405668
  0
ARC
  8
0
 62
    72
  6
CONTINUOUS
 10
-1.641253
 20
0.502708
 30
0.000000
 40
0.432941
 50
270.462908
 51
327.338311
  0
ARC
  8
0
 62
    72
  6
CONTINUOUS
 10
-1.640318
 20
0.058700
 30
0.000000
 40
0.011373
 50
76.979931
 51
154.173598
  0
ARC
  8
0
 62
    72
  6
CONTINUOUS
 10
-1.643309
 20
0.063057
 30
0.000000
 40
0.007270
 50
175.286667
 51
273.678758
  0
ARC
  8
0
 62
    72
  6
CONTINUOUS
 10
-1.529650
 20
0.542345
 30
0.000000
 40
0.499536
 50
256.903188
 51
281.008082
  0
ARC
  8
0
 62
    72
  6
CONTINUOUS
 10
-1.095494
 20
0.169604
 30
0.000000
 40
0.113021
 50
298.043220
 51
341.702520
  0
ARC
  8
0
 62
    72
  6
CONTINUOUS
 10
-1.297804
 20
0.154692
 30
0.000000
 40
0.310299
 50
356.198865
 51
381.376216
  0
ARC
  8
0
 62
    72
  6
CONTINUOUS
 10
-0.558440
 20
0.422977
 30
0.000000
 40
0.476395
 50
188.787109
 51
199.010827
  0
ARC
  8
0
 62
    72
  6
CONTINUOUS
 10
-0.829869
 20
0.377257
 30
0.000000
 40
0.201203
 50
161.410841
 51
187.728076
  0
ARC
  8
0
 62
    72
  6
CONTINUOUS
 10
-1.017820
 20
0.375734
 30
0.000000
 40
0.065720
 50
92.401867
 51
141.877184
  0
ARC
  8
0
 62
    72
  6
CONTINUOUS
 10
-0.883959
 20
0.274052
 30
0.000000
 40
0.233816
 50
142.525788
 51
157.215299
  0
ARC
  8
0
 62
    72
  6
CONTINUOUS
 10
-0.893727
 20
0.293303
 30
0.000000
 40
0.217803
 50
160.891788
 51
201.592459
  0
ARC
  8
0
 62
    72
  6
CONTINUOUS
 10
-0.900895
 20
0.290894
 30
0.000000
 40
0.210252
 50
201.700927
 51
212.538245
  0
ARC
  8
0
 62
    72
  6
CONTINUOUS
 10
-1.130947
 20
0.134815
 30
0.000000
 40
0.068091
 50
353.878023
 51
399.153011
  0
ARC
  8
0
 62
    72
  6
CONTINUOUS
 10
-1.157462
 20
0.149213
 30
0.000000
 40
0.096676
 50
324.401447
 51
347.053423
  0
ARC
  8
0
 62
    72
  6
CONTINUOUS
 10
-1.395057
 20
0.310996
 30
0.000000
 40
0.384102
 50
315.772577
 51
325.409315
  0
ARC
  8
0
 62
    72
  6
CONTINUOUS
 10
-1.157729
 20
0.278221
 30
0.000000
 40
0.238176
 50
279.158750
 51
298.972538
  0
ARC
  8
0
 62
    72
  6
CONTINUOUS
 10
0.022924
 20
-1.831688
 30
0.000000
 40
2.178933
 50
113.931614
 51
114.336351
  0
ARC
  8
0
 62
    72
  6
CONTINUOUS
 10
-1.024124
 20
0.461346
 30
0.000000
 40
0.341947
 50
287.835331
 51
295.855756
  0
ARC
  8
0
 62
    72
  6
CONTINUOUS
 10
-0.946522
 20
0.224633
 30
0.000000
 40
0.092852
 50
261.336245
 51
286.989212
  0
ARC
  8
0
 62
    72
  6
CONTINUOUS
 10
-1.567605
 20
0.789507
 30
0.000000
 40
0.894302
 50
312.753776
 51
340.665140
  0
ARC
  8
0
 62
    72
  6
CONTINUOUS
 10
-0.692635
 20
0.480904
 30
0.000000
 40
0.033528
 50
114.385694
 51
158.091616
  0
ARC
  8
0
 62
    72
  6
CONTINUOUS
 10
-0.702643
 20
0.503814
 30
0.000000
 40
0.008536
 50
336.901035
 51
476.695214
  0
ARC
  8
0
 62
    72
  6
CONTINUOUS
 10
-1.248311
 20
0.513874
 30
0.000000
 40
0.553681
 50
337.698070
 51
358.612368
  0
ARC
  8
0
 62
    72
  6
CONTINUOUS
 10
-0.989275
 20
0.397509
 30
0.000000
 40
0.270026
 50
298.374087
 51
339.684384
  0
ARC
  8
0
 62
    72
  6
CONTINUOUS
 10
-0.566124
 20
0.323149
 30
0.000000
 40
0.014684
 50
165.245075
 51
283.814967
  0
ARC
  8
0
 62
    72
  6
CONTINUOUS
 10
-0.605000
 20
0.331692
 30
0.000000
 40
0.025139
 50
348.985302
 51
393.528025
  0
ARC
  8
0
 62
    72
  6
CONTINUOUS
 10
-0.592170
 20
0.338463
 30
0.000000
 40
0.010801
 50
41.201390
 51
133.946485
  0
ARC
  8
0
 62
    72
  6
CONTINUOUS
 10
-0.622669
 20
0.378938
 30
0.000000
 40
0.039979
 50
273.267154
 51
305.126490
  0
ARC
  8
0
 62
    72
  6
CONTINUOUS
 10
-0.620305
 20
0.344718
 30
0.000000
 40
0.005695
 50
190.147523
 51
269.140278
  0
ARC
  8
0
 62
    72
  6
CONTINUOUS
 10
-0.599670
 20
0.345882
 30
0.000000
 40
0.026331
 50
152.338153
 51
184.721063
  0
ARC
  8
0
 62
    72
  6
CONTINUOUS
 10
-0.754673
 20
0.410830
 30
0.000000
 40
0.141845
 50
338.179383
 51
363.912919
  0
ARC
  8
0
 62
    72
  6
CONTINUOUS
 10
-1.021257
 20
0.390841
 30
0.000000
 40
0.409176
 50
4.157952
 51
12.834115
  0
ARC
  8
0
 62
    72
  6
CONTINUOUS
 10
-0.412019
 20
0.539933
 30
0.000000
 40
0.218190
 50
173.573834
 51
195.470726
  0
ARC
  8
0
 62
    72
  6
CONTINUOUS
 10
-0.535584
 20
0.542723
 30
0.000000
 40
0.095730
 50
112.021348
 51
166.941454
  0
ARC
  8
0
 62
    72
  6
CONTINUOUS
 10
-0.634823
 20
0.617314
 30
0.000000
 40
0.064908
 50
340.023962
 51
372.596669
  0
ARC
  8
0
 62
    72
  6
CONTINUOUS
 10
-0.439919
 20
0.558888
 30
0.000000
 40
0.138722
 50
164.851249
 51
178.015241
  0
ARC
  8
0
 62
    72
  6
CONTINUOUS
 10
-0.874094
 20
0.451995
 30
0.000000
 40
0.315939
 50
4.373999
 51
20.704023
  0
ARC
  8
0
 62
    72
  6
CONTINUOUS
 10
-1.188739
 20
0.444950
 30
0.000000
 40
0.630434
 50
352.533967
 51
362.831335
  0
ARC
  8
0
 62
    72
  6
CONTINUOUS
 10
-0.537343
 20
0.397862
 30
0.000000
 40
0.043648
 50
232.936605
 51
294.215056
  0
ARC
  8
0
 62
    72
  6
CONTINUOUS
 10
-0.591363
 20
0.515040
 30
0.000000
 40
0.172677
 50
294.614774
 51
310.744811
  0
ARC
  8
0
 62
    72
  6
CONTINUOUS
 10
-0.333343
 20
0.206054
 30
0.000000
 40
0.229908
 50
122.546398
 51
129.201838
  0
ARC
  8
0
 62
    72
  6
CONTINUOUS
 10
-0.226495
 20
0.347461
 30
0.000000
 40
0.236415
 50
145.388668
 51
167.195399
  0
ARC
  8
0
 62
    72
  6
CONTINUOUS
 10
-0.291950
 20
0.389731
 30
0.000000
 40
0.158552
 50
112.616260
 51
144.525045
  0
ARC
  8
0
 62
    72
  6
CONTINUOUS
 10
-0.299974
 20
0.339783
 30
0.000000
 40
0.203323
 50
61.457913
 51
105.094674
  0
ARC
  8
0
 62
    72
  6
CONTINUOUS
 10
-0.217175
 20
0.493921
 30
0.000000
 40
0.028371
 50
37.176153
 51
59.616137
  0
ARC
  8
0
 62
    72
  6
CONTINUOUS
 10
-0.198695
 20
0.507932
 30
0.000000
 40
0.005180
 50
302.567077
 51
397.210940
  0
ARC
  8
0
 62
    72
  6
CONTINUOUS
 10
-0.236703
 20
0.548704
 30
0.000000
 40
0.060842
 50
275.807779
 51
312.107879
  0
ARC
  8
0
 62
    72
  6
CONTINUOUS
 10
-0.255046
 20
0.721192
 30
0.000000
 40
0.234302
 50
265.759614
 51
276.002088
  0
ARC
  8
0
 62
    72
  6
CONTINUOUS
 10
-0.291891
 20
0.356383
 30
0.000000
 40
0.132594
 50
81.533779
 51
116.183612
  0
ARC
  8
0
 62
    72
  6
CONTINUOUS
 10
-0.553504
 20
0.523509
 30
0.000000
 40
0.208733
 50
279.109878
 51
346.666186
  0
ARC
  8
0
 62
    72
  6
CONTINUOUS
 10
-0.389670
 20
-0.166095
 30
0.000000
 40
0.500881
 50
105.136028
 51
105.784156
  0
ARC
  8
0
 62
    72
  6
CONTINUOUS
 10
-0.571860
 20
0.456871
 30
0.000000
 40
0.148270
 50
273.574038
 51
288.051043
  0
ARC
  8
0
 62
    72
  6
CONTINUOUS
 10
-1.598348
 20
0.775968
 30
0.000000
 40
0.084386
 50
241.339248
 51
273.955973
  0
ARC
  8
0
 62
    72
  6
CONTINUOUS
 10
-1.622551
 20
0.735376
 30
0.000000
 40
0.037202
 50
210.914821
 51
244.064726
  0
ARC
  8
0
 62
    72
  6
CONTINUOUS
 10
-1.639245
 20
0.723999
 30
0.000000
 40
0.017076
 50
141.073137
 51
206.936477
  0
ARC
  8
0
 62
    72
  6
CONTINUOUS
 10
-1.686100
 20
1.115667
 30
0.000000
 40
0.382415
 50
275.036251
 51
300.991542
  0
ARC
  8
0
 62
    72
  6
CONTINUOUS
 10
-1.632156
 20
1.022006
 30
0.000000
 40
0.274357
 50
301.405938
 51
337.739112
  0
ARC
  8
0
 62
    72
  6
CONTINUOUS
 10
-1.273060
 20
0.837804
 30
0.000000
 40
0.132316
 50
100.582020
 51
142.652466
  0
ARC
  8
0
 62
    72
  6
CONTINUOUS
 10
-1.198132
 20
0.462425
 30
0.000000
 40
0.515093
 50
89.600372
 51
101.106916
  0
ARC
  8
0
 62
    72
  6
CONTINUOUS
 10
-1.234003
 20
2.601544
 30
0.000000
 40
1.624518
 50
271.392017
 51
272.513860
  0
ARC
  8
0
 62
    72
  6
CONTINUOUS
 10
-1.168968
 20
0.918118
 30
0.000000
 40
0.060790
 50
46.182438
 51
84.129463
  0
ARC
  8
0
 62
    72
  6
CONTINUOUS
 10
-1.149195
 20
0.937813
 30
0.000000
 40
0.032895
 50
343.966737
 51
407.281840
  0
ARC
  8
0
 62
    72
  6
CONTINUOUS
 10
-1.181787
 20
0.971531
 30
0.000000
 40
0.077167
 50
284.051804
 51
326.311421
  0
ARC
  8
0
 62
     1
  6
CONTINUOUS
 10
-0.448060
 20
3.328101
 30
0.000000
 40
0.932769
 50
108.911044
 51
116.791835
  0
ARC
  8
0
 62
     1
  6
CONTINUOUS
 10
-1.167592
 20
4.718925
 30
0.000000
 40
0.633265
 50
282.546179
 51
298.183097
  0
ARC
  8
0
 62
     1
  6
CONTINUOUS
 10
-1.074502
 20
4.352319
 30
0.000000
 40
0.255439
 50
238.418802
 51
280.026485
  0
ARC
  8
0
 62
     1
  6
CONTINUOUS
 10
-1.264910
 20
4.007586
 30
0.000000
 40
0.139169
 50
65.987676
 51
94.608460
  0
ARC
  8
0
 62
     1
  6
CONTINUOUS
 10
-1.254322
 20
3.837871
 30
0.000000
 40
0.309202
 50
94.037310
 51
108.815606
  0
ARC
  8
0
 62
     1
  6
CONTINUOUS
 10
-1.083206
 20
3.356473
 30
0.000000
 40
0.820091
 50
109.284428
 51
121.100027
  0
ARC
  8
0
 62
     1
  6
CONTINUOUS
 10
-1.213721
 20
3.608600
 30
0.000000
 40
0.537105
 50
123.071330
 51
147.921894
  0
ARC
  8
0
 62
     1
  6
CONTINUOUS
 10
-1.318740
 20
3.663755
 30
0.000000
 40
0.418926
 50
146.685625
 51
179.684480
  0
ARC
  8
0
 62
     1
  6
CONTINUOUS
 10
-2.050784
 20
3.543073
 30
0.000000
 40
0.336413
 50
20.459674
 51
21.444009
  0
ARC
  8
0
 62
     1
  6
CONTINUOUS
 10
-1.662107
 20
3.682642
 30
0.000000
 40
0.076702
 50
196.649867
 51
219.244196
  0
ARC
  8
0
 62
     1
  6
CONTINUOUS
 10
-1.705458
 20
3.650402
 30
0.000000
 40
0.022865
 50
225.414099
 51
305.878763
  0
ARC
  8
0
 62
     1
  6
CONTINUOUS
 10
-1.722423
 20
3.660658
 30
0.000000
 40
0.041839
 50
316.532902
 51
356.822906
  0
ARC
  8
0
 62
     1
  6
CONTINUOUS
 10
-1.934790
 20
3.689573
 30
0.000000
 40
0.256054
 50
352.993677
 51
360.756577
  0
ARC
  8
0
 62
     1
  6
CONTINUOUS
 10
-1.147693
 20
3.690318
 30
0.000000
 40
0.531072
 50
178.673074
 51
179.715621
  0
ARC
  8
0
 62
     1
  6
CONTINUOUS
 10
-0.935219
 20
3.438175
 30
0.000000
 40
0.789036
 50
147.953380
 51
160.418719
  0
ARC
  8
0
 62
     1
  6
CONTINUOUS
 10
-1.266798
 20
3.652518
 30
0.000000
 40
0.394294
 50
125.459826
 51
148.787691
  0
ARC
  8
0
 62
     1
  6
CONTINUOUS
 10
-1.228632
 20
3.600242
 30
0.000000
 40
0.459016
 50
101.087895
 51
125.554700
  0
ARC
  8
0
 62
     1
  6
CONTINUOUS
 10
-1.260862
 20
3.738762
 30
0.000000
 40
0.316922
 50
64.925338
 51
100.185950
  0
ARC
  8
0
 62
     1
  6
CONTINUOUS
 10
-1.029356
 20
4.248751
 30
0.000000
 40
0.243201
 50
246.443700
 51
284.132492
  0
ARC
  8
0
 62
     1
  6
CONTINUOUS
 10
-1.152360
 20
4.670390
 30
0.000000
 40
0.682307
 50
285.504112
 51
298.578101
  0
ARC
  8
0
 62
     1
  6
CONTINUOUS
 10
-0.372335
 20
3.198360
 30
0.000000
 40
0.983695
 50
110.603795
 51
117.461886
  0
ARC
  8
0
 62
     1
  6
CONTINUOUS
 10
-0.605324
 20
3.816783
 30
0.000000
 40
0.322840
 50
89.624299
 51
110.522005
  0
ARC
  8
0
 62
     1
  6
CONTINUOUS
 10
-0.724645
 20
3.516846
 30
0.000000
 40
0.634500
 50
56.968878
 51
78.965915
  0
ARC
  8
0
 62
     1
  6
CONTINUOUS
 10
-0.613318
 20
3.693363
 30
0.000000
 40
0.425838
 50
31.084236
 51
56.580802
  0
ARC
  8
0
 62
     1
  6
CONTINUOUS
 10
-0.563398
 20
3.722769
 30
0.000000
 40
0.367904
 50
343.802247
 51
391.176167
  0
ARC
  8
0
 62
     1
  6
CONTINUOUS
 10
-0.440664
 20
3.662004
 30
0.000000
 40
0.234337
 50
327.297450
 51
349.709060
  0
ARC
  8
0
 62
     1
  6
CONTINUOUS
 10
-0.052786
 20
3.411089
 30
0.000000
 40
0.227627
 50
146.899852
 51
172.026256
  0
ARC
  8
0
 62
     1
  6
CONTINUOUS
 10
-0.278580
 20
3.484876
 30
0.000000
 40
0.042212
 50
270.499475
 51
316.030017
  0
ARC
  8
0
 62
     1
  6
CONTINUOUS
 10
-0.373423
 20
3.574755
 30
0.000000
 40
0.172876
 50
316.414824
 51
328.905298
  0
ARC
  8
0
 62
     1
  6
CONTINUOUS
 10
0.053273
 20
3.307325
 30
0.000000
 40
0.330738
 50
142.146168
 51
147.409120
  0
ARC
  8
0
 62
     1
  6
CONTINUOUS
 10
-0.455304
 20
3.702752
 30
0.000000
 40
0.313477
 50
322.121838
 51
355.139100
  0
ARC
  8
0
 62
     1
  6
CONTINUOUS
 10
-0.619431
 20
3.715807
 30
0.000000
 40
0.478121
 50
355.246852
 51
376.801913
  0
ARC
  8
0
 62
     1
  6
CONTINUOUS
 10
-0.773098
 20
3.676655
 30
0.000000
 40
0.636583
 50
16.177331
 51
31.716840
  0
ARC
  8
0
 62
     1
  6
CONTINUOUS
 10
-0.578390
 20
3.807216
 30
0.000000
 40
0.402409
 50
30.478057
 51
50.042055
  0
ARC
  8
0
 62
     1
  6
CONTINUOUS
 10
-0.705326
 20
3.528020
 30
0.000000
 40
0.702740
 50
56.743572
 51
83.256428
  0
ARC
  8
0
 62
     1
  6
CONTINUOUS
 10
-0.649889
 20
3.913740
 30
0.000000
 40
0.313331
 50
85.041439
 51
108.704488
  0
ARC
  8
0
 62
     1
  6
CONTINUOUS
 10
0.064010
 20
3.556016
 30
0.000000
 40
0.339418
 50
89.371203
 51
105.597017
  0
ARC
  8
0
 62
     1
  6
CONTINUOUS
 10
0.012357
 20
3.739837
 30
0.000000
 40
0.148478
 50
105.470740
 51
140.550275
  0
ARC
  8
0
 62
     1
  6
CONTINUOUS
 10
-0.084317
 20
3.822006
 30
0.000000
 40
0.021712
 50
145.895958
 51
233.130242
  0
ARC
  8
0
 62
     1
  6
CONTINUOUS
 10
-0.075493
 20
3.835812
 30
0.000000
 40
0.038072
 50
234.973053
 51
294.340676
  0
ARC
  8
0
 62
     1
  6
CONTINUOUS
 10
0.033689
 20
3.542874
 30
0.000000
 40
0.274652
 50
75.688166
 51
109.900879
  0
ARC
  8
0
 62
     1
  6
CONTINUOUS
 10
0.013940
 20
3.465516
 30
0.000000
 40
0.354492
 50
48.495241
 51
75.686026
  0
ARC
  8
0
 62
     1
  6
CONTINUOUS
 10
0.132691
 20
3.593836
 30
0.000000
 40
0.179741
 50
22.260452
 51
49.737727
  0
ARC
  8
0
 62
     1
  6
CONTINUOUS
 10
0.173598
 20
3.615339
 30
0.000000
 40
0.133809
 50
350.391140
 51
380.374357
  0
ARC
  8
0
 62
     1
  6
CONTINUOUS
 10
-0.116614
 20
3.694192
 30
0.000000
 40
0.434102
 50
326.254180
 51
346.520336
  0
ARC
  8
0
 62
     1
  6
CONTINUOUS
 10
0.860630
 20
3.074749
 30
0.000000
 40
0.723126
 50
148.457001
 51
157.780753
  0
ARC
  8
0
 62
     1
  6
CONTINUOUS
 10
0.379225
 20
3.270436
 30
0.000000
 40
0.203472
 50
157.530588
 51
189.235258
  0
ARC
  8
0
 62
     1
  6
CONTINUOUS
 10
0.347558
 20
3.277186
 30
0.000000
 40
0.173696
 50
193.112366
 51
237.971173
  0
ARC
  8
0
 62
     1
  6
CONTINUOUS
 10
0.446204
 20
3.418367
 30
0.000000
 40
0.345814
 50
236.520416
 51
259.936283
  0
ARC
  8
0
 62
     1
  6
CONTINUOUS
 10
0.317311
 20
2.998607
 30
0.000000
 40
0.104740
 50
12.036420
 51
49.182118
  0
ARC
  8
0
 62
     1
  6
CONTINUOUS
 10
0.034276
 20
2.934034
 30
0.000000
 40
0.395039
 50
2.274660
 51
12.635611
  0
ARC
  8
0
 62
     1
  6
CONTINUOUS
 10
1.342187
 20
3.009236
 30
0.000000
 40
0.915121
 50
183.729333
 51
185.445424
  0
ARC
  8
0
 62
     1
  6
CONTINUOUS
 10
0.215495
 20
2.945936
 30
0.000000
 40
0.216983
 50
291.220486
 51
353.770982
  0
ARC
  8
0
 62
     1
  6
CONTINUOUS
 10
0.318528
 20
2.640348
 30
0.000000
 40
0.106182
 50
103.337463
 51
153.197275
  0
ARC
  8
0
 62
     1
  6
CONTINUOUS
 10
0.460948
 20
2.590258
 30
0.000000
 40
0.256630
 50
157.557497
 51
176.605842
  0
ARC
  8
0
 62
     1
  6
CONTINUOUS
 10
-0.136081
 20
2.633167
 30
0.000000
 40
0.341974
 50
342.476005
 51
355.351243
  0
ARC
  8
0
 62
     1
  6
CONTINUOUS
 10
0.069236
 20
2.571169
 30
0.000000
 40
0.127546
 50
304.868225
 51
341.262628
  0
ARC
  8
0
 62
     1
  6
CONTINUOUS
 10
0.086220
 20
2.561376
 30
0.000000
 40
0.110117
 50
258.243096
 51
300.526633
  0
ARC
  8
0
 62
     1
  6
CONTINUOUS
 10
0.144379
 20
2.874302
 30
0.000000
 40
0.428383
 50
247.779026
 51
259.155718
  0
ARC
  8
0
 62
     1
  6
CONTINUOUS
 10
-0.255883
 20
1.855368
 30
0.000000
 40
0.666412
 50
69.052025
 51
72.440021
  0
ARC
  8
0
 62
     1
  6
CONTINUOUS
 10
0.057389
 20
2.699227
 30
0.000000
 40
0.236779
 50
238.162706
 51
241.711323
  0
ARC
  8
0
 62
     1
  6
CONTINUOUS
 10
-0.125637
 20
2.413261
 30
0.000000
 40
0.102816
 50
55.575611
 51
73.095683
  0
ARC
  8
0
 62
     1
  6
CONTINUOUS
 10
-0.102442
 20
2.486661
 30
0.000000
 40
0.025857
 50
74.981151
 51
140.720117
  0
ARC
  8
0
 62
     1
  6
CONTINUOUS
 10
-0.069691
 20
2.491245
 30
0.000000
 40
0.054067
 50
167.408528
 51
215.830346
  0
ARC
  8
0
 62
     1
  6
CONTINUOUS
 10
0.004796
 20
2.542721
 30
0.000000
 40
0.144603
 50
215.089882
 51
236.019862
  0
ARC
  8
0
 62
     1
  6
CONTINUOUS
 10
0.056434
 20
2.651596
 30
0.000000
 40
0.264361
 50
239.930772
 51
280.024791
  0
ARC
  8
0
 62
     1
  6
CONTINUOUS
 10
0.064415
 20
2.610379
 30
0.000000
 40
0.222385
 50
279.848401
 51
324.004003
  0
ARC
  8
0
 62
     1
  6
CONTINUOUS
 10
-0.112976
 20
2.738448
 30
0.000000
 40
0.441176
 50
324.087434
 51
348.009173
  0
ARC
  8
0
 62
     1
  6
CONTINUOUS
 10
0.188786
 20
2.979199
 30
0.000000
 40
0.356847
 50
291.327959
 51
324.276758
  0
ARC
  8
0
 62
     1
  6
CONTINUOUS
 10
0.129074
 20
3.011544
 30
0.000000
 40
0.424296
 50
325.438893
 51
350.738508
  0
ARC
  8
0
 62
     1
  6
CONTINUOUS
 10
0.179636
 20
2.947654
 30
0.000000
 40
0.368229
 50
359.315810
 51
406.102615
  0
ARC
  8
0
 62
     1
  6
CONTINUOUS
 10
0.322610
 20
3.109511
 30
0.000000
 40
0.152742
 50
42.648884
 51
67.943519
  0
ARC
  8
0
 62
     1
  6
CONTINUOUS
 10
0.484866
 20
3.477445
 30
0.000000
 40
0.249495
 50
235.020742
 51
245.137414
  0
ARC
  8
0
 62
     1
  6
CONTINUOUS
 10
0.379643
 20
3.327525
 30
0.000000
 40
0.066335
 50
199.763170
 51
235.253366
  0
ARC
  8
0
 62
     1
  6
CONTINUOUS
 10
-0.351924
 20
3.793302
 30
0.000000
 40
0.828307
 50
323.885373
 51
335.654114
  0
ARC
  8
0
 62
     1
  6
CONTINUOUS
 10
0.188743
 20
3.553759
 30
0.000000
 40
0.237016
 50
334.531075
 51
374.977692
  0
ARC
  8
0
 62
     1
  6
CONTINUOUS
 10
0.078605
 20
3.550378
 30
0.000000
 40
0.345207
 50
10.791661
 51
91.804475
  0
ARC
  8
0
 62
    72
  6
CONTINUOUS
 10
-1.876790
 20
4.595140
 30
0.000000
 40
0.124762
 50
308.502733
 51
328.181395
  0
ARC
  8
0
 62
    72
  6
CONTINUOUS
 10
-1.794460
 20
4.549484
 30
0.000000
 40
0.031077
 50
319.646069
 51
385.807956
  0
ARC
  8
0
 62
    72
  6
CONTINUOUS
 10
-1.855444
 20
4.634247
 30
0.000000
 40
0.113966
 50
287.155061
 51
321.315105
  0
ARC
  8
0
 62
    72
  6
CONTINUOUS
 10
-1.899916
 20
4.802004
 30
0.000000
 40
0.287462
 50
273.111135
 51
285.762241
  0
ARC
  8
0
 62
    72
  6
CONTINUOUS
 10
-1.884182
 20
4.336349
 30
0.000000
 40
0.178616
 50
90.042504
 51
120.164935
  0
ARC
  8
0
 62
    72
  6
CONTINUOUS
 10
-2.102978
 20
4.653429
 30
0.000000
 40
0.207623
 50
305.035385
 51
308.427506
  0
ARC
  8
0
 62
    72
  6
CONTINUOUS
 10
-1.940013
 20
4.413507
 30
0.000000
 40
0.082492
 50
122.048171
 51
141.476334
  0
ARC
  8
0
 62
    72
  6
CONTINUOUS
 10
-1.985096
 20
4.451395
 30
0.000000
 40
0.023674
 50
145.259671
 51
212.077253
  0
ARC
  8
0
 62
    72
  6
CONTINUOUS
 10
-1.889458
 20
4.108572
 30
0.000000
 40
0.349930
 50
95.740264
 51
109.307162
  0
ARC
  8
0
 62
    72
  6
CONTINUOUS
 10
-1.938811
 20
4.713997
 30
0.000000
 40
0.257649
 50
273.193545
 51
302.832011
  0
ARC
  8
0
 62
    72
  6
CONTINUOUS
 10
-1.210644
 20
1.114389
 30
0.000000
 40
0.222857
 50
267.964242
 51
282.330761
  0
ARC
  8
0
 62
    72
  6
CONTINUOUS
 10
-1.225405
 20
0.633031
 30
0.000000
 40
0.258732
 50
88.484113
 51
100.340626
  0
ARC
  8
0
 62
    72
  6
CONTINUOUS
 10
-1.254029
 20
0.797784
 30
0.000000
 40
0.091528
 50
101.225798
 51
135.817841
  0
ARC
  8
0
 62
    72
  6
CONTINUOUS
 10
-1.793128
 20
1.260971
 30
0.000000
 40
0.619423
 50
304.857256
 51
319.850076
  0
ARC
  8
0
 62
    72
  6
CONTINUOUS
 10
-1.646637
 20
1.051780
 30
0.000000
 40
0.364041
 50
278.548074
 51
304.755383
  0
ARC
  8
0
 62
    72
  6
CONTINUOUS
 10
-1.479114
 20
0.361008
 30
0.000000
 40
0.115192
 50
147.071917
 51
180.088505
  0
ARC
  8
0
 62
    72
  6
CONTINUOUS
 10
-1.332279
 20
0.368995
 30
0.000000
 40
0.262154
 50
181.784613
 51
194.863171
  0
ARC
  8
0
 62
    72
  6
CONTINUOUS
 10
-1.830995
 20
0.236566
 30
0.000000
 40
0.253845
 50
2.113019
 51
14.879278
  0
ARC
  8
0
 62
    72
  6
CONTINUOUS
 10
-1.677075
 20
0.244939
 30
0.000000
 40
0.099757
 50
326.148356
 51
360.566554
  0
ARC
  8
0
 62
    72
  6
CONTINUOUS
 10
-1.765313
 20
0.324398
 30
0.000000
 40
0.217951
 50
292.835285
 51
321.717760
  0
ARC
  8
0
 62
    72
  6
CONTINUOUS
 10
-1.478327
 20
-0.280413
 30
0.000000
 40
0.451815
 50
116.614047
 51
123.628297
  0
ARC
  8
0
 62
    72
  6
CONTINUOUS
 10
-1.695468
 20
0.280318
 30
0.000000
 40
0.187469
 50
259.838046
 51
299.911174
  0
ARC
  8
0
 62
    72
  6
CONTINUOUS
 10
-1.677277
 20
0.269552
 30
0.000000
 40
0.169386
 50
296.391486
 51
338.023114
  0
ARC
  8
0
 62
    72
  6
CONTINUOUS
 10
-1.852415
 20
0.291841
 30
0.000000
 40
0.343086
 50
345.538495
 51
363.835774
  0
ARC
  8
0
 62
    72
  6
CONTINUOUS
 10
-1.210712
 20
0.340426
 30
0.000000
 40
0.300481
 50
160.708034
 51
184.893842
  0
ARC
  8
0
 62
    72
  6
CONTINUOUS
 10
2.127156
 20
2.879090
 30
0.000000
 40
0.011158
 50
136.750441
 51
267.581179
  0
ARC
  8
0
 62
    72
  6
CONTINUOUS
 10
2.152734
 20
2.942474
 30
0.000000
 40
0.078953
 50
250.735027
 51
273.924299
  0
ARC
  8
0
 62
    72
  6
CONTINUOUS
 10
2.045126
 20
3.403548
 30
0.000000
 40
0.551544
 50
281.823687
 51
295.825372
  0
ARC
  8
0
 62
    72
  6
CONTINUOUS
 10
2.164754
 20
3.162653
 30
0.000000
 40
0.282609
 50
295.270026
 51
322.528600
  0
ARC
  8
0
 62
    72
  6
CONTINUOUS
 10
2.349524
 20
3.023420
 30
0.000000
 40
0.051295
 50
320.401131
 51
344.538437
  0
ARC
  8
0
 62
    72
  6
CONTINUOUS
 10
2.394570
 20
3.011158
 30
0.000000
 40
0.004615
 50
342.170615
 51
450.018921
  0
ARC
  8
0
 62
    72
  6
CONTINUOUS
 10
2.399089
 20
2.954282
 30
0.000000
 40
0.061657
 50
94.204778
 51
118.923738
  0
ARC
  8
0
 62
    72
  6
CONTINUOUS
 10
2.494626
 20
2.769409
 30
0.000000
 40
0.269738
 50
117.693279
 51
130.810899
  0
ARC
  8
0
 62
    72
  6
CONTINUOUS
 10
2.163055
 20
3.148946
 30
0.000000
 40
0.234244
 50
294.439464
 51
311.521324
  0
ARC
  8
0
 62
    72
  6
CONTINUOUS
 10
2.193075
 20
3.059149
 30
0.000000
 40
0.140417
 50
271.721816
 51
298.450377
  0
ARC
  8
0
 62
    72
  6
CONTINUOUS
 10
2.212781
 20
2.710269
 30
0.000000
 40
0.209102
 50
94.247316
 51
106.068857
  0
ARC
  8
0
 62
    72
  6
CONTINUOUS
 10
2.176357
 20
2.841208
 30
0.000000
 40
0.073208
 50
107.041552
 51
141.545333
  0
ARC
  8
0
 62
    72
  6
CONTINUOUS
 10
-1.729171
 20
0.525835
 30
0.000000
 40
0.250148
 50
339.858611
 51
353.727860
  0
ARC
  8
0
 62
    72
  6
CONTINUOUS
 10
-1.501168
 20
0.503292
 30
0.000000
 40
0.021195
 50
346.951681
 51
404.623411
  0
ARC
  8
0
 62
    72
  6
CONTINUOUS
 10
-1.491212
 20
0.492845
 30
0.000000
 40
0.025849
 50
78.554351
 51
140.809748
  0
LINE
  8
0
 62
    72
  6
CONTINUOUS
 10
-1.511247
 20
0.509179
 30
0.000000
 11
-1.511252
 21
0.509175
 31
0.000000
  0
ARC
  8
0
 62
    72
  6
CONTINUOUS
 10
-1.392234
 20
0.352245
 30
0.000000
 40
0.196957
 50
127.177349
 51
158.751386
  0
ARC
  8
0
 62
    72
  6
CONTINUOUS
 10
-1.499439
 20
0.595326
 30
0.000000
 40
0.035530
 50
302.211136
 51
372.584756
  0
ARC
  8
0
 62
    72
  6
CONTINUOUS
 10
-1.474513
 20
0.813934
 30
0.000000
 40
0.211092
 50
237.877936
 51
272.647367
  0
ARC
  8
0
 62
    72
  6
CONTINUOUS
 10
-1.543315
 20
0.697906
 30
0.000000
 40
0.076319
 50
210.031457
 51
235.305262
  0
ARC
  8
0
 62
    72
  6
CONTINUOUS
 10
-1.662431
 20
0.630616
 30
0.000000
 40
0.060498
 50
28.744838
 51
59.223986
  0
ARC
  8
0
 62
    72
  6
CONTINUOUS
 10
-1.652094
 20
0.653649
 30
0.000000
 40
0.035538
 50
54.535830
 51
104.617378
  0
ARC
  8
0
 62
    72
  6
CONTINUOUS
 10
-1.643716
 20
0.668871
 30
0.000000
 40
0.025851
 50
132.146709
 51
200.844276
  0
ARC
  8
0
 62
    72
  6
CONTINUOUS
 10
-1.533679
 20
0.706938
 30
0.000000
 40
0.142276
 50
199.402825
 51
234.811802
  0
ARC
  8
0
 62
    72
  6
CONTINUOUS
 10
-1.523366
 20
0.689671
 30
0.000000
 40
0.135361
 50
227.008204
 51
271.669396
  0
ARC
  8
0
 62
    72
  6
CONTINUOUS
 10
-1.516251
 20
0.618001
 30
0.000000
 40
0.063713
 50
267.147018
 51
304.133992
  0
ARC
  8
0
 62
    72
  6
CONTINUOUS
 10
-1.314299
 20
0.782067
 30
0.000000
 40
0.125631
 50
233.567096
 51
286.213948
  0
ARC
  8
0
 62
    72
  6
CONTINUOUS
 10
-1.399200
 20
0.999081
 30
0.000000
 40
0.358331
 50
289.562137
 51
307.472003
  0
ARC
  8
0
 62
    72
  6
CONTINUOUS
 10
-0.966440
 20
0.437716
 30
0.000000
 40
0.350481
 50
107.652842
 51
127.789149
  0
ARC
  8
0
 62
    72
  6
CONTINUOUS
 10
-1.074788
 20
0.788544
 30
0.000000
 40
0.016976
 50
276.986266
 51
329.197238
  0
ARC
  8
0
 62
    72
  6
CONTINUOUS
 10
-1.067102
 20
0.782887
 30
0.000000
 40
0.007534
 50
336.236206
 51
441.128442
  0
ARC
  8
0
 62
    72
  6
CONTINUOUS
 10
-1.109114
 20
0.652631
 30
0.000000
 40
0.144310
 50
72.591731
 51
109.536730
  0
ARC
  8
0
 62
    72
  6
CONTINUOUS
 10
-1.030273
 20
0.476886
 30
0.000000
 40
0.336660
 50
112.180844
 51
126.902994
  0
ARC
  8
0
 62
    72
  6
CONTINUOUS
 10
-1.422985
 20
0.983501
 30
0.000000
 40
0.304423
 50
276.426990
 51
308.753515
  0
ARC
  8
0
 62
    72
  6
CONTINUOUS
 10
-0.953168
 20
1.124058
 30
0.000000
 40
0.146127
 50
234.211328
 51
251.616105
  0
ARC
  8
0
 62
    72
  6
CONTINUOUS
 10
-1.030484
 20
1.001101
 30
0.000000
 40
0.034961
 50
271.819366
 51
333.291556
  0
ARC
  8
0
 62
    72
  6
CONTINUOUS
 10
-1.040302
 20
1.085835
 30
0.000000
 40
0.120174
 50
255.979988
 51
275.217459
  0
ARC
  8
0
 62
    72
  6
CONTINUOUS
 10
-0.998262
 20
1.191674
 30
0.000000
 40
0.233538
 50
202.350785
 51
252.261069
  0
LINE
  8
0
 62
    72
  6
CONTINUOUS
 10
-1.214905
 20
1.104566
 30
0.000000
 11
-1.214254
 21
1.102865
 31
0.000000
  0
ARC
  8
0
 62
    72
  6
CONTINUOUS
 10
-1.108901
 20
1.158476
 30
0.000000
 40
0.118924
 50
175.102652
 51
206.956143
  0
ARC
  8
0
 62
    72
  6
CONTINUOUS
 10
-1.209842
 20
1.171690
 30
0.000000
 40
0.017815
 50
30.030956
 51
189.894699
  0
ARC
  8
0
 62
    72
  6
CONTINUOUS
 10
-1.400680
 20
1.010161
 30
0.000000
 40
0.267572
 50
34.005861
 51
39.568647
  0
ARC
  8
0
 62
    72
  6
CONTINUOUS
 10
-0.611557
 20
1.534605
 30
0.000000
 40
0.679937
 50
213.450961
 51
231.090192
  0
ARC
  8
0
 62
    72
  6
CONTINUOUS
 10
-0.897755
 20
0.767594
 30
0.000000
 40
0.491560
 50
79.313329
 51
97.169437
  0
ARC
  8
0
 62
    72
  6
CONTINUOUS
 10
-1.031449
 20
2.010599
 30
0.000000
 40
0.758744
 50
266.757704
 51
275.471399
  0
ARC
  8
0
 62
    72
  6
CONTINUOUS
 10
-1.058184
 20
1.513553
 30
0.000000
 40
0.260987
 50
240.615821
 51
266.445984
  0
ARC
  8
0
 62
    72
  6
CONTINUOUS
 10
-1.167437
 20
1.270019
 30
0.000000
 40
0.024770
 50
139.386717
 51
231.327517
  0
ARC
  8
0
 62
    72
  6
CONTINUOUS
 10
-1.224715
 20
1.216891
 30
0.000000
 40
0.053749
 50
21.000727
 51
38.950683
  0
ARC
  8
0
 62
    72
  6
CONTINUOUS
 10
-1.023244
 20
1.365331
 30
0.000000
 40
0.198938
 50
220.491762
 51
259.566015
  0
ARC
  8
0
 62
    72
  6
CONTINUOUS
 10
-0.981411
 20
1.684574
 30
0.000000
 40
0.520745
 50
261.400964
 51
275.559276
  0
ARC
  8
0
 62
    72
  6
CONTINUOUS
 10
-0.875483
 20
0.456572
 30
0.000000
 40
0.711871
 50
86.460055
 51
94.469951
  0
ARC
  8
0
 62
    72
  6
CONTINUOUS
 10
-0.846798
 20
0.932840
 30
0.000000
 40
0.234743
 50
61.947406
 51
86.270549
  0
ARC
  8
0
 62
    72
  6
CONTINUOUS
 10
-0.762797
 20
1.078849
 30
0.000000
 40
0.066609
 50
28.896448
 51
66.654603
  0
ARC
  8
0
 62
    72
  6
CONTINUOUS
 10
-0.540154
 20
1.227040
 30
0.000000
 40
0.201149
 50
215.219448
 51
219.449229
  0
ARC
  8
0
 62
    72
  6
CONTINUOUS
 10
-0.658633
 20
1.124521
 30
0.000000
 40
0.044689
 50
214.464295
 51
261.507065
  0
ARC
  8
0
 62
    72
  6
CONTINUOUS
 10
-0.664277
 20
1.089030
 30
0.000000
 40
0.008761
 50
263.737672
 51
332.360338
  0
ARC
  8
0
 62
    72
  6
CONTINUOUS
 10
-0.673749
 20
1.090296
 30
0.000000
 40
0.018039
 50
342.815188
 51
389.475614
  0
ARC
  8
0
 62
    72
  6
CONTINUOUS
 10
-0.468140
 20
1.171551
 30
0.000000
 40
0.203230
 50
194.943546
 51
200.863404
  0
ARC
  8
0
 62
    72
  6
CONTINUOUS
 10
-0.784765
 20
1.090478
 30
0.000000
 40
0.123637
 50
13.406503
 51
29.835257
  0
ARC
  8
0
 62
    72
  6
CONTINUOUS
 10
-0.858098
 20
1.049453
 30
0.000000
 40
0.207662
 50
29.587871
 51
75.641720
  0
ARC
  8
0
 62
    72
  6
CONTINUOUS
 10
-0.259151
 20
1.099583
 30
0.000000
 40
0.281572
 50
155.125893
 51
170.605859
  0
ARC
  8
0
 62
    72
  6
CONTINUOUS
 10
-0.440298
 20
1.132984
 30
0.000000
 40
0.097461
 50
172.595917
 51
218.509576
  0
ARC
  8
0
 62
    72
  6
CONTINUOUS
 10
-0.524293
 20
1.062752
 30
0.000000
 40
0.012286
 50
51.001415
 51
229.695015
  0
ARC
  8
0
 62
    72
  6
CONTINUOUS
 10
-0.450122
 20
1.173011
 30
0.000000
 40
0.145101
 50
197.851810
 51
235.532796
  0
ARC
  8
0
 62
    72
  6
CONTINUOUS
 10
-0.485718
 20
1.170938
 30
0.000000
 40
0.110944
 50
160.395977
 51
202.473291
  0
ARC
  8
0
 62
    72
  6
CONTINUOUS
 10
-1.227360
 20
1.478337
 30
0.000000
 40
0.692045
 50
337.020596
 51
350.908341
  0
ARC
  8
0
 62
    72
  6
CONTINUOUS
 10
-0.527358
 20
1.368589
 30
0.000000
 40
0.016655
 50
126.825074
 51
178.640703
  0
ARC
  8
0
 62
    72
  6
CONTINUOUS
 10
-0.533891
 20
1.371857
 30
0.000000
 40
0.010638
 50
45.883333
 51
108.921297
  0
ARC
  8
0
 62
    72
  6
CONTINUOUS
 10
-0.590613
 20
1.307695
 30
0.000000
 40
0.096268
 50
22.686635
 51
48.230735
  0
ARC
  8
0
 62
    72
  6
CONTINUOUS
 10
-0.588895
 20
1.301400
 30
0.000000
 40
0.097326
 50
348.132053
 51
386.498778
  0
ARC
  8
0
 62
    72
  6
CONTINUOUS
 10
-0.808904
 20
1.350482
 30
0.000000
 40
0.322738
 50
335.768024
 51
347.637336
  0
ARC
  8
0
 62
    72
  6
CONTINUOUS
 10
-0.520589
 20
1.261902
 30
0.000000
 40
0.130025
 50
20.935136
 51
32.467512
  0
ARC
  8
0
 62
    72
  6
CONTINUOUS
 10
-0.447757
 20
1.312602
 30
0.000000
 40
0.041523
 50
27.386231
 51
74.833908
  0
ARC
  8
0
 62
    72
  6
CONTINUOUS
 10
-0.436652
 20
1.338174
 30
0.000000
 40
0.014507
 50
90.955358
 51
192.366788
  0
ARC
  8
0
 62
    72
  6
CONTINUOUS
 10
-0.275545
 20
1.335249
 30
0.000000
 40
0.175277
 50
180.059696
 51
217.685142
  0
ARC
  8
0
 62
    72
  6
CONTINUOUS
 10
0.058574
 20
1.596214
 30
0.000000
 40
0.599231
 50
217.902098
 51
229.271704
  0
ARC
  8
0
 62
    72
  6
CONTINUOUS
 10
-0.935366
 20
0.468576
 30
0.000000
 40
0.903995
 50
43.132980
 51
48.164574
  0
ARC
  8
0
 62
    72
  6
CONTINUOUS
 10
-1.452619
 20
0.189311
 30
0.000000
 40
0.014014
 50
258.459007
 51
338.171660
  0
ARC
  8
0
 62
    72
  6
CONTINUOUS
 10
-1.452520
 20
0.183260
 30
0.000000
 40
0.008209
 50
146.623764
 51
249.297102
  0
ARC
  8
0
 62
    72
  6
CONTINUOUS
 10
-1.766781
 20
0.322682
 30
0.000000
 40
0.335704
 50
336.305542
 51
352.829372
  0
ARC
  8
0
 62
    72
  6
CONTINUOUS
 10
-1.264544
 20
0.265337
 30
0.000000
 40
0.169861
 50
154.636408
 51
174.784542
  0
ARC
  8
0
 62
    72
  6
CONTINUOUS
 10
-1.391923
 20
0.320383
 30
0.000000
 40
0.031553
 50
57.629444
 51
145.840922
  0
ARC
  8
0
 62
    72
  6
CONTINUOUS
 10
-1.826928
 20
0.431885
 30
0.000000
 40
0.459796
 50
327.391141
 51
349.365470
  0
ARC
  8
0
 62
    72
  6
CONTINUOUS
 10
-0.085040
 20
0.271684
 30
0.000000
 40
0.781024
 50
154.574923
 51
160.909764
  0
ARC
  8
0
 62
    72
  6
CONTINUOUS
 10
-0.592892
 20
0.514274
 30
0.000000
 40
0.218210
 50
133.426230
 51
154.852938
  0
ARC
  8
0
 62
    72
  6
CONTINUOUS
 10
-0.751251
 20
0.686330
 30
0.000000
 40
0.015944
 50
301.610546
 51
348.023186
  0
ARC
  8
0
 62
    72
  6
CONTINUOUS
 10
-0.739350
 20
0.683270
 30
0.000000
 40
0.003706
 50
356.149473
 51
484.976612
  0
ARC
  8
0
 62
     1
  6
CONTINUOUS
 10
0.316015
 20
3.306978
 30
0.000000
 40
0.392718
 50
149.657954
 51
162.244398
  0
ARC
  8
0
 62
     1
  6
CONTINUOUS
 10
0.068619
 20
3.451288
 30
0.000000
 40
0.106310
 50
105.560956
 51
149.425057
  0
ARC
  8
0
 62
     1
  6
CONTINUOUS
 10
0.016633
 20
3.629866
 30
0.000000
 40
0.079697
 50
287.124149
 51
309.273092
  0
ARC
  8
0
 62
     1
  6
CONTINUOUS
 10
0.057682
 20
3.582812
 30
0.000000
 40
0.017401
 50
302.702470
 51
380.308670
  0
ARC
  8
0
 62
     1
  6
CONTINUOUS
 10
0.027516
 20
3.495805
 30
0.000000
 40
0.104012
 50
63.453883
 51
141.929134
  0
ARC
  8
0
 62
     1
  6
CONTINUOUS
 10
-0.512126
 20
3.805872
 30
0.000000
 40
0.519640
 50
299.521941
 51
331.753207
  0
ARC
  8
0
 62
     1
  6
CONTINUOUS
 10
-0.255807
 20
3.338100
 30
0.000000
 40
0.015601
 50
90.966690
 51
187.594871
  0
ARC
  8
0
 62
     1
  6
CONTINUOUS
 10
-0.230826
 20
3.355097
 30
0.000000
 40
0.044711
 50
205.230450
 51
245.035492
  0
ARC
  8
0
 62
     1
  6
CONTINUOUS
 10
-0.183455
 20
3.427197
 30
0.000000
 40
0.130669
 50
239.539845
 51
279.494727
  0
ARC
  8
0
 62
     1
  6
CONTINUOUS
 10
-0.183856
 20
3.400870
 30
0.000000
 40
0.104876
 50
282.084019
 51
328.368216
  0
ARC
  8
0
 62
     1
  6
CONTINUOUS
 10
-0.418564
 20
3.541058
 30
0.000000
 40
0.378256
 50
328.933810
 51
342.408896
  0
ARC
  8
0
 62
    72
  6
CONTINUOUS
 10
-0.716356
 20
0.545134
 30
0.000000
 40
0.143390
 50
100.089004
 51
153.108385
  0
ARC
  8
0
 62
    72
  6
CONTINUOUS
 10
-0.355369
 20
0.366741
 30
0.000000
 40
0.546045
 50
153.546266
 51
168.205649
  0
ARC
  8
0
 62
    72
  6
CONTINUOUS
 10
-1.673000
 20
0.662954
 30
0.000000
 40
0.804578
 50
340.475970
 51
346.735925
  0
ARC
  8
0
 62
    72
  6
CONTINUOUS
 10
-0.898034
 20
0.396862
 30
0.000000
 40
0.016884
 50
189.545094
 51
236.476485
  0
ARC
  8
0
 62
    72
  6
CONTINUOUS
 10
-0.904581
 20
0.391521
 30
0.000000
 40
0.009165
 50
252.359588
 51
314.330103
  0
ARC
  8
0
 62
    72
  6
CONTINUOUS
 10
-0.975824
 20
0.468543
 30
0.000000
 40
0.114080
 50
312.892983
 51
329.052893
  0
ARC
  8
0
 62
    72
  6
CONTINUOUS
 10
-0.478952
 20
0.140374
 30
0.000000
 40
0.481517
 50
144.865072
 51
145.965142
  0
ARC
  8
0
 62
    72
  6
CONTINUOUS
 10
-1.334759
 20
0.692667
 30
0.000000
 40
0.537763
 50
329.222206
 51
342.070942
  0
ARC
  8
0
 62
    72
  6
CONTINUOUS
 10
0.866835
 20
2.764709
 30
0.000000
 40
0.393060
 50
235.362576
 51
249.291879
  0
ARC
  8
0
 62
    72
  6
CONTINUOUS
 10
0.455449
 20
2.181881
 30
0.000000
 40
0.320376
 50
54.073729
 51
75.336170
  0
ARC
  8
0
 62
    72
  6
CONTINUOUS
 10
-0.396214
 20
0.988771
 30
0.000000
 40
0.155274
 50
4.347917
 51
39.068078
  0
ARC
  8
0
 62
    72
  6
CONTINUOUS
 10
-0.835892
 20
0.949644
 30
0.000000
 40
0.596680
 50
355.229052
 51
364.893472
  0
ARC
  8
0
 62
    72
  6
CONTINUOUS
 10
0.657633
 20
0.840286
 30
0.000000
 40
0.900894
 50
176.198393
 51
180.183943
  0
ARC
  8
0
 62
    72
  6
CONTINUOUS
 10
-0.237817
 20
0.835904
 30
0.000000
 40
0.005640
 50
164.683249
 51
267.525766
  0
ARC
  8
0
 62
    72
  6
CONTINUOUS
 10
-0.243992
 20
0.852715
 30
0.000000
 40
0.023216
 50
284.803655
 51
325.325567
  0
ARC
  8
0
 62
    72
  6
CONTINUOUS
 10
-0.430687
 20
0.984544
 30
0.000000
 40
0.251763
 50
324.824171
 51
372.997906
  0
ARC
  8
0
 62
    72
  6
CONTINUOUS
 10
-0.433125
 20
0.992697
 30
0.000000
 40
0.252448
 50
11.070062
 51
33.853209
  0
ARC
  8
0
 62
     1
  6
CONTINUOUS
 10
0.096902
 20
2.990299
 30
0.000000
 40
0.019817
 50
327.722341
 51
385.948788
  0
ARC
  8
0
 62
     1
  6
CONTINUOUS
 10
0.046192
 20
2.964597
 30
0.000000
 40
0.076667
 50
26.637206
 51
52.682090
  0
ARC
  8
0
 62
     1
  6
CONTINUOUS
 10
0.254184
 20
3.217617
 30
0.000000
 40
0.250936
 50
193.669331
 51
229.935908
  0
ARC
  8
0
 62
     1
  6
CONTINUOUS
 10
0.134351
 20
3.186898
 30
0.000000
 40
0.127247
 50
154.342213
 51
192.980278
  0
ARC
  8
0
 62
     1
  6
CONTINUOUS
 10
0.162323
 20
3.162446
 30
0.000000
 40
0.163350
 50
112.251296
 51
150.857288
  0
ARC
  8
0
 62
     1
  6
CONTINUOUS
 10
-0.343324
 20
3.282573
 30
0.000000
 40
0.444876
 50
355.506849
 51
364.003356
  0
ARC
  8
0
 62
    72
  6
CONTINUOUS
 10
-0.352654
 20
1.048909
 30
0.000000
 40
0.154316
 50
33.164425
 51
66.611184
  0
ARC
  8
0
 62
    72
  6
CONTINUOUS
 10
-0.206126
 20
1.376714
 30
0.000000
 40
0.204767
 50
199.499993
 51
245.390980
  0
ARC
  8
0
 62
    72
  6
CONTINUOUS
 10
0.176159
 20
-0.535956
 30
0.000000
 40
0.478889
 50
18.855748
 51
33.925243
  0
ARC
  8
0
 62
    72
  6
CONTINUOUS
 10
0.497181
 20
-0.415486
 30
0.000000
 40
0.136545
 50
338.229423
 51
374.548518
  0
ARC
  8
0
 62
    72
  6
CONTINUOUS
 10
0.641425
 20
-0.472194
 30
0.000000
 40
0.018462
 50
160.823325
 51
212.997974
  0
ARC
  8
0
 62
    72
  6
CONTINUOUS
 10
0.631015
 20
-0.478459
 30
0.000000
 40
0.006333
 50
216.757857
 51
358.443564
  0
ARC
  8
0
 62
    72
  6
CONTINUOUS
 10
0.490054
 20
-0.392458
 30
0.000000
 40
0.170647
 50
329.670061
 51
381.105718
  0
ARC
  8
0
 62
    72
  6
CONTINUOUS
 10
0.089826
 20
-0.543464
 30
0.000000
 40
0.598412
 50
20.795376
 51
35.259370
  0
LINE
  8
0
 62
    72
  6
CONTINUOUS
 10
0.578458
 20
-0.198014
 30
0.000000
 11
0.570076
 21
-0.185043
 31
0.000000
  0
ARC
  8
0
 62
    72
  6
CONTINUOUS
 10
0.647920
 20
-0.147412
 30
0.000000
 40
0.086462
 50
164.665201
 51
205.799795
  0
ARC
  8
0
 62
    72
  6
CONTINUOUS
 10
0.894819
 20
-0.212967
 30
0.000000
 40
0.341913
 50
153.733876
 51
165.012717
  0
ARC
  8
0
 62
    72
  6
CONTINUOUS
 10
0.222373
 20
0.114336
 30
0.000000
 40
0.405967
 50
334.309201
 51
342.385477
  0
ARC
  8
0
 62
    72
  6
CONTINUOUS
 10
0.515531
 20
0.022515
 30
0.000000
 40
0.098775
 50
341.690933
 51
371.704337
  0
ARC
  8
0
 62
    72
  6
CONTINUOUS
 10
0.559196
 20
0.032123
 30
0.000000
 40
0.054072
 50
11.121543
 51
36.044811
  0
ARC
  8
0
 62
    72
  6
CONTINUOUS
 10
0.591903
 20
0.056411
 30
0.000000
 40
0.013340
 50
34.356381
 51
91.049125
  0
ARC
  8
0
 62
    72
  6
CONTINUOUS
 10
0.599050
 20
0.046649
 30
0.000000
 40
0.024253
 50
107.743677
 51
177.793331
  0
ARC
  8
0
 62
    72
  6
CONTINUOUS
 10
0.741015
 20
0.021085
 30
0.000000
 40
0.168299
 50
170.941352
 51
179.508121
  0
ARC
  8
0
 62
    72
  6
CONTINUOUS
 10
0.505164
 20
0.016802
 30
0.000000
 40
0.067800
 50
332.539900
 51
364.846655
  0
ARC
  8
0
 62
    72
  6
CONTINUOUS
 10
0.672107
 20
-0.126116
 30
0.000000
 40
0.154495
 50
133.722465
 51
188.026441
  0
ARC
  8
0
 62
    72
  6
CONTINUOUS
 10
0.868744
 20
-0.063228
 30
0.000000
 40
0.359675
 50
193.581146
 51
214.835635
  0
ARC
  8
0
 62
    72
  6
CONTINUOUS
 10
0.752375
 20
0.075629
 30
0.000000
 40
0.396060
 50
134.286154
 51
154.955648
  0
ARC
  8
0
 62
    72
  6
CONTINUOUS
 10
0.098112
 20
0.725446
 30
0.000000
 40
0.526156
 50
315.879701
 51
326.867709
  0
ARC
  8
0
 62
    72
  6
CONTINUOUS
 10
0.425649
 20
3.014871
 30
0.000000
 40
0.534677
 50
279.272005
 51
281.971199
  0
ARC
  8
0
 62
    72
  6
CONTINUOUS
 10
0.544924
 20
2.238335
 30
0.000000
 40
0.251040
 50
97.582833
 51
109.978477
  0
ARC
  8
0
 62
    72
  6
CONTINUOUS
 10
0.482859
 20
2.409267
 30
0.000000
 40
0.069189
 50
110.038195
 51
153.074045
  0
ARC
  8
0
 62
    72
  6
CONTINUOUS
 10
0.461664
 20
2.439067
 30
0.000000
 40
0.040522
 50
177.834358
 51
216.787513
  0
ARC
  8
0
 62
    72
  6
CONTINUOUS
 10
0.444030
 20
2.424193
 30
0.000000
 40
0.017545
 50
212.366527
 51
295.778479
  0
ARC
  8
0
 62
    72
  6
CONTINUOUS
 10
0.492552
 20
2.298160
 30
0.000000
 40
0.117574
 50
70.301022
 51
110.352369
  0
ARC
  8
0
 62
     1
  6
CONTINUOUS
 10
0.432099
 20
3.215874
 30
0.000000
 40
0.333439
 50
174.519276
 51
188.476893
  0
ARC
  8
0
 62
     1
  6
CONTINUOUS
 10
0.226971
 20
3.189313
 30
0.000000
 40
0.126698
 50
190.271230
 51
228.856506
  0
ARC
  8
0
 62
     1
  6
CONTINUOUS
 10
0.038569
 20
2.967427
 30
0.000000
 40
0.164407
 50
23.014089
 51
50.289158
  0
ARC
  8
0
 62
     1
  6
CONTINUOUS
 10
0.085212
 20
2.989151
 30
0.000000
 40
0.112996
 50
348.401406
 51
382.121807
  0
ARC
  8
0
 62
     1
  6
CONTINUOUS
 10
0.058016
 20
2.997292
 30
0.000000
 40
0.141296
 50
318.702015
 51
347.384619
  0
ARC
  8
0
 62
     1
  6
CONTINUOUS
 10
-0.018580
 20
3.063830
 30
0.000000
 40
0.242756
 50
298.491808
 51
318.834823
  0
ARC
  8
0
 62
     1
  6
CONTINUOUS
 10
-0.214286
 20
2.851249
 30
0.000000
 40
0.311510
 50
345.009176
 51
359.857765
  0
ARC
  8
0
 62
     1
  6
CONTINUOUS
 10
-0.055677
 20
2.801761
 30
0.000000
 40
0.145655
 50
318.245840
 51
347.676039
  0
ARC
  8
0
 62
    72
  6
CONTINUOUS
 10
0.389859
 20
0.532397
 30
0.000000
 40
0.176342
 50
327.582681
 51
360.515541
  0
ARC
  8
0
 62
    72
  6
CONTINUOUS
 10
0.580449
 20
0.539795
 30
0.000000
 40
0.015394
 50
85.623407
 51
202.179276
  0
ARC
  8
0
 62
    72
  6
CONTINUOUS
 10
0.576123
 20
0.525784
 30
0.000000
 40
0.029871
 50
20.201367
 51
79.388428
  0
ARC
  8
0
 62
    72
  6
CONTINUOUS
 10
0.491967
 20
0.505276
 30
0.000000
 40
0.116347
 50
332.904480
 51
375.362290
  0
ARC
  8
0
 62
    72
  6
CONTINUOUS
 10
0.280058
 20
0.599610
 30
0.000000
 40
0.348191
 50
315.507829
 51
334.968075
  0
ARC
  8
0
 62
    72
  6
CONTINUOUS
 10
-1.608769
 20
2.371180
 30
0.000000
 40
2.937728
 50
316.257448
 51
316.677540
  0
ARC
  8
0
 62
    72
  6
CONTINUOUS
 10
0.767002
 20
0.064545
 30
0.000000
 40
0.374265
 50
132.614081
 51
152.838851
  0
ARC
  8
0
 62
    72
  6
CONTINUOUS
 10
0.569617
 20
0.180626
 30
0.000000
 40
0.146251
 50
158.007360
 51
213.147796
  0
ARC
  8
0
 62
    72
  6
CONTINUOUS
 10
0.443187
 20
0.094615
 30
0.000000
 40
0.007234
 50
264.746119
 51
416.625583
  0
ARC
  8
0
 62
    72
  6
CONTINUOUS
 10
0.448575
 20
0.121566
 30
0.000000
 40
0.034686
 50
202.505279
 51
259.955315
  0
ARC
  8
0
 62
    72
  6
CONTINUOUS
 10
-0.536523
 20
-0.315139
 30
0.000000
 40
1.042881
 50
23.954907
 51
25.192713
  0
ARC
  8
0
 62
    72
  6
CONTINUOUS
 10
0.423641
 20
2.145911
 30
0.000000
 40
0.284465
 50
52.103726
 51
67.569091
  0
ARC
  8
0
 62
    72
  6
CONTINUOUS
 10
0.832450
 20
2.682414
 30
0.000000
 40
0.390069
 50
233.122771
 51
243.725462
  0
ARC
  8
0
 62
    72
  6
CONTINUOUS
 10
0.723983
 20
2.446896
 30
0.000000
 40
0.131055
 50
240.665238
 51
294.435973
  0
ARC
  8
0
 62
    72
  6
CONTINUOUS
 10
0.607613
 20
2.744185
 30
0.000000
 40
0.450177
 50
292.267258
 51
307.539834
  0
ARC
  8
0
 62
    72
  6
CONTINUOUS
 10
1.227518
 20
2.043380
 30
0.000000
 40
0.487519
 50
134.516417
 51
135.146211
  0
ARC
  8
0
 62
    72
  6
CONTINUOUS
 10
0.856880
 20
2.428981
 30
0.000000
 40
0.047681
 50
307.205535
 51
354.947701
  0
ARC
  8
0
 62
    72
  6
CONTINUOUS
 10
0.885257
 20
2.412534
 30
0.000000
 40
0.022705
 50
32.645128
 51
113.410334
  0
ARC
  8
0
 62
    72
  6
CONTINUOUS
 10
0.929997
 20
2.295332
 30
0.000000
 40
0.148138
 50
111.279056
 51
126.539539
  0
ARC
  8
0
 62
    12
  6
CONTINUOUS
 10
-3.522199
 20
2.833981
 30
0.000000
 40
0.077381
 50
252.573867
 51
277.222601
  0
ARC
  8
0
 62
    12
  6
CONTINUOUS
 10
-3.565780
 20
2.705452
 30
0.000000
 40
0.058383
 50
69.540281
 51
111.487091
  0
ARC
  8
0
 62
    12
  6
CONTINUOUS
 10
-3.564052
 20
2.743644
 30
0.000000
 40
0.028186
 50
145.085899
 51
207.686337
  0
ARC
  8
0
 62
    12
  6
CONTINUOUS
 10
-3.533870
 20
2.763045
 30
0.000000
 40
0.064004
 50
210.512251
 51
280.614425
  0
ARC
  8
0
 62
    12
  6
CONTINUOUS
 10
-3.546809
 20
2.861748
 30
0.000000
 40
0.163493
 50
278.699436
 51
303.148341
  0
ARC
  8
0
 62
    12
  6
CONTINUOUS
 10
-8.953325
 20
10.157159
 30
0.000000
 40
9.243599
 50
306.481591
 51
306.862263
  0
ARC
  8
0
 62
    12
  6
CONTINUOUS
 10
-1.273620
 20
-0.043303
 30
0.000000
 40
3.524680
 50
124.383252
 51
127.271723
  0
ARC
  8
0
 62
    12
  6
CONTINUOUS
 10
-2.611414
 20
1.913619
 30
0.000000
 40
1.154188
 50
115.580165
 51
124.436432
  0
ARC
  8
0
 62
    12
  6
CONTINUOUS
 10
-2.855389
 20
2.451461
 30
0.000000
 40
0.563854
 50
80.104779
 51
116.816413
  0
ARC
  8
0
 62
    12
  6
CONTINUOUS
 10
-2.754580
 20
3.046545
 30
0.000000
 40
0.039811
 50
264.360332
 51
307.121172
  0
ARC
  8
0
 62
    12
  6
CONTINUOUS
 10
-2.733994
 20
3.026218
 30
0.000000
 40
0.011924
 50
286.767747
 51
395.741328
  0
ARC
  8
0
 62
    12
  6
CONTINUOUS
 10
-2.865899
 20
2.818081
 30
0.000000
 40
0.257517
 50
56.646557
 51
94.662473
  0
ARC
  8
0
 62
    12
  6
CONTINUOUS
 10
-3.825854
 20
7.365653
 30
0.000000
 40
4.392454
 50
281.601461
 51
282.344012
  0
ARC
  8
0
 62
    12
  6
CONTINUOUS
 10
-2.584732
 20
1.227182
 30
0.000000
 40
1.870295
 50
101.028638
 51
105.165173
  0
ARC
  8
0
 62
    12
  6
CONTINUOUS
 10
-2.933348
 20
2.506302
 30
0.000000
 40
0.544524
 50
104.969992
 51
118.613852
  0
ARC
  8
0
 62
    12
  6
CONTINUOUS
 10
-3.132945
 20
2.722178
 30
0.000000
 40
0.269188
 50
103.136226
 51
127.260612
  0
ARC
  8
0
 62
    12
  6
CONTINUOUS
 10
-2.902475
 20
2.436587
 30
0.000000
 40
0.636110
 50
128.208237
 51
137.616416
  0
ARC
  8
0
 62
    12
  6
CONTINUOUS
 10
-3.692344
 20
3.135097
 30
0.000000
 40
0.418509
 50
295.454691
 51
319.874593
  0
ARC
  8
0
 62
    72
  6
CONTINUOUS
 10
0.707364
 20
2.607879
 30
0.000000
 40
0.235637
 50
298.573925
 51
304.786245
  0
ARC
  8
0
 62
    72
  6
CONTINUOUS
 10
0.769109
 20
2.513671
 30
0.000000
 40
0.123712
 50
250.516425
 51
294.325080
  0
ARC
  8
0
 62
    72
  6
CONTINUOUS
 10
0.729279
 20
2.630527
 30
0.000000
 40
0.086886
 50
301.475448
 51
319.518335
  0
ARC
  8
0
 62
    72
  6
CONTINUOUS
 10
0.791202
 20
2.579127
 30
0.000000
 40
0.006513
 50
309.752824
 51
407.769475
  0
ARC
  8
0
 62
    72
  6
CONTINUOUS
 10
0.761152
 20
2.501684
 30
0.000000
 40
0.089178
 50
67.291125
 51
92.250856
  0
ARC
  8
0
 62
    72
  6
CONTINUOUS
 10
0.761127
 20
2.779035
 30
0.000000
 40
0.188274
 50
252.893673
 51
268.941609
  0
ARC
  8
0
 62
    72
  6
CONTINUOUS
 10
0.759275
 20
2.702251
 30
0.000000
 40
0.116221
 50
197.867419
 51
242.576257
  0
ARC
  8
0
 62
    72
  6
CONTINUOUS
 10
0.489677
 20
2.601442
 30
0.000000
 40
0.171813
 50
22.283746
 51
37.943705
  0
ARC
  8
0
 62
    72
  6
CONTINUOUS
 10
0.579950
 20
2.668734
 30
0.000000
 40
0.059296
 50
40.302218
 51
86.293569
  0
ARC
  8
0
 62
    72
  6
CONTINUOUS
 10
0.593627
 20
2.682078
 30
0.000000
 40
0.046873
 50
102.122794
 51
191.888232
  0
ARC
  8
0
 62
    72
  6
CONTINUOUS
 10
0.739138
 20
2.672944
 30
0.000000
 40
0.191379
 50
180.156230
 51
208.351607
  0
ARC
  8
0
 62
    72
  6
CONTINUOUS
 10
0.692647
 20
2.650788
 30
0.000000
 40
0.139967
 50
209.407595
 51
249.423603
  0
ARC
  8
0
 62
    72
  6
CONTINUOUS
 10
0.672917
 20
2.608711
 30
0.000000
 40
0.093713
 50
251.675938
 51
288.589900
  0
ARC
  8
0
 62
    72
  6
CONTINUOUS
 10
0.615299
 20
2.765555
 30
0.000000
 40
0.260782
 50
289.603057
 51
302.305572
  0
ARC
  8
0
 62
    72
  6
CONTINUOUS
 10
1.066255
 20
2.016951
 30
0.000000
 40
0.613244
 50
118.393210
 51
120.536927
  0
ARC
  8
0
 62
    72
  6
CONTINUOUS
 10
0.889955
 20
2.646562
 30
0.000000
 40
0.109948
 50
324.873535
 51
382.440345
  0
ARC
  8
0
 62
    72
  6
CONTINUOUS
 10
0.700015
 20
2.753191
 30
0.000000
 40
0.327394
 50
309.200360
 51
328.740241
  0
LINE
  8
0
 62
    72
  6
CONTINUOUS
 10
-1.834838
 20
4.051444
 30
0.000000
 11
-1.834089
 21
4.052566
 31
0.000000
  0
ARC
  8
0
 62
    72
  6
CONTINUOUS
 10
-1.893106
 20
4.096846
 30
0.000000
 40
0.073782
 50
323.119468
 51
341.369607
  0
ARC
  8
0
 62
    72
  6
CONTINUOUS
 10
-1.833637
 20
4.076945
 30
0.000000
 40
0.011072
 50
340.646707
 51
451.038001
  0
ARC
  8
0
 62
    72
  6
CONTINUOUS
 10
-1.800772
 20
3.985374
 30
0.000000
 40
0.107835
 50
107.856173
 51
171.032093
  0
ARC
  8
0
 62
    72
  6
CONTINUOUS
 10
-2.051847
 20
3.985076
 30
0.000000
 40
0.145566
 50
327.879793
 51
366.749236
  0
ARC
  8
0
 62
    72
  6
CONTINUOUS
 10
-2.266442
 20
4.128890
 30
0.000000
 40
0.403854
 50
313.452688
 51
326.787079
  0
ARC
  8
0
 62
    72
  6
CONTINUOUS
 10
-1.756533
 20
3.587430
 30
0.000000
 40
0.339916
 50
133.077193
 51
147.186418
  0
ARC
  8
0
 62
    72
  6
CONTINUOUS
 10
-2.027407
 20
3.880783
 30
0.000000
 40
0.110150
 50
262.276224
 51
299.823147
  0
ARC
  8
0
 62
    72
  6
CONTINUOUS
 10
-2.091074
 20
3.993414
 30
0.000000
 40
0.239529
 50
299.636851
 51
317.276310
  0
ARC
  8
0
 62
    72
  6
CONTINUOUS
 10
-2.138240
 20
3.991761
 30
0.000000
 40
0.275069
 50
324.211610
 51
352.294566
  0
ARC
  8
0
 62
    72
  6
CONTINUOUS
 10
-1.509554
 20
3.894438
 30
0.000000
 40
0.361193
 50
154.234482
 51
170.366799
  0
ARC
  8
0
 62
    72
  6
CONTINUOUS
 10
2.224829
 20
2.303951
 30
0.000000
 40
0.213927
 50
9.862739
 51
42.633505
  0
ARC
  8
0
 62
    72
  6
CONTINUOUS
 10
2.074492
 20
2.161915
 30
0.000000
 40
0.420741
 50
42.997378
 51
59.513913
  0
ARC
  8
0
 62
    72
  6
CONTINUOUS
 10
2.280433
 20
2.514562
 30
0.000000
 40
0.012450
 50
52.881908
 51
149.926267
  0
ARC
  8
0
 62
    72
  6
CONTINUOUS
 10
2.286345
 20
2.509144
 30
0.000000
 40
0.020355
 50
145.062875
 51
213.847878
  0
ARC
  8
0
 62
    72
  6
CONTINUOUS
 10
2.626949
 20
2.792093
 30
0.000000
 40
0.463051
 50
219.459776
 51
228.244643
  0
ARC
  8
0
 62
    72
  6
CONTINUOUS
 10
2.077656
 20
2.166971
 30
0.000000
 40
0.369147
 50
34.595902
 51
49.258480
  0
ARC
  8
0
 62
    72
  6
CONTINUOUS
 10
2.292407
 20
2.317268
 30
0.000000
 40
0.107047
 50
344.333160
 51
393.638327
  0
ARC
  8
0
 62
    72
  6
CONTINUOUS
 10
2.409387
 20
2.289927
 30
0.000000
 40
0.013998
 50
186.424473
 51
268.743879
  0
ARC
  8
0
 62
    72
  6
CONTINUOUS
 10
2.398036
 20
2.299091
 30
0.000000
 40
0.025657
 50
295.496964
 51
339.495350
  0
ARC
  8
0
 62
    72
  6
CONTINUOUS
 10
2.302240
 20
2.349266
 30
0.000000
 40
0.133637
 50
333.722987
 51
356.279640
  0
ARC
  8
0
 62
     1
  6
CONTINUOUS
 10
-0.042442
 20
2.816158
 30
0.000000
 40
0.146678
 50
253.426173
 51
310.584680
  0
ARC
  8
0
 62
     1
  6
CONTINUOUS
 10
-0.079720
 20
2.702966
 30
0.000000
 40
0.027769
 50
173.691725
 51
260.545668
  0
ARC
  8
0
 62
     1
  6
CONTINUOUS
 10
-0.086998
 20
2.706261
 30
0.000000
 40
0.020324
 50
79.858018
 51
180.687609
  0
ARC
  8
0
 62
     1
  6
CONTINUOUS
 10
-0.038063
 20
2.866867
 30
0.000000
 40
0.147735
 50
252.120593
 51
272.844643
  0
ARC
  8
0
 62
     1
  6
CONTINUOUS
 10
-0.030153
 20
2.766866
 30
0.000000
 40
0.047555
 50
269.303687
 51
327.750581
  0
ARC
  8
0
 62
     1
  6
CONTINUOUS
 10
-0.116910
 20
2.785974
 30
0.000000
 40
0.134543
 50
340.693141
 51
375.109770
  0
ARC
  8
0
 62
     1
  6
CONTINUOUS
 10
0.169339
 20
2.845370
 30
0.000000
 40
0.158239
 50
157.104167
 51
188.842786
  0
ARC
  8
0
 62
     1
  6
CONTINUOUS
 10
0.100790
 20
2.882003
 30
0.000000
 40
0.081148
 50
112.065916
 51
162.107492
  0
ARC
  8
0
 62
     1
  6
CONTINUOUS
 10
0.059122
 20
3.031747
 30
0.000000
 40
0.075375
 50
278.532345
 51
316.346029
  0
ARC
  8
0
 62
     1
  6
CONTINUOUS
 10
-0.383060
 20
3.026834
 30
0.000000
 40
0.263377
 50
334.280628
 51
395.367808
  0
ARC
  8
0
 62
     1
  6
CONTINUOUS
 10
-1.771811
 20
4.229686
 30
0.000000
 40
2.092575
 50
320.516623
 51
320.991260
  0
ARC
  8
0
 62
     1
  6
CONTINUOUS
 10
0.207214
 20
2.581213
 30
0.000000
 40
0.483245
 50
138.864188
 51
149.458646
  0
ARC
  8
0
 62
     1
  6
CONTINUOUS
 10
-0.081576
 20
2.751068
 30
0.000000
 40
0.148207
 50
149.280168
 51
184.005928
  0
ARC
  8
0
 62
     1
  6
CONTINUOUS
 10
-0.656954
 20
2.566438
 30
0.000000
 40
0.461688
 50
3.454075
 51
22.177365
  0
ARC
  8
0
 62
     1
  6
CONTINUOUS
 10
-0.415676
 20
2.585410
 30
0.000000
 40
0.219749
 50
321.058185
 51
362.306592
  0
ARC
  8
0
 62
     1
  6
CONTINUOUS
 10
-0.437126
 20
2.570864
 30
0.000000
 40
0.228640
 50
285.175356
 51
327.284128
  0
ARC
  8
0
 62
     1
  6
CONTINUOUS
 10
-0.463197
 20
2.673668
 30
0.000000
 40
0.334688
 50
255.679323
 51
284.875726
  0
ARC
  8
0
 62
     1
  6
CONTINUOUS
 10
-1.188861
 20
0.572600
 30
0.000000
 40
1.889509
 50
70.108733
 51
70.815531
  0
ARC
  8
0
 62
     1
  6
CONTINUOUS
 10
-0.446989
 20
2.745446
 30
0.000000
 40
0.406675
 50
241.672069
 51
252.696433
  0
ARC
  8
0
 62
     1
  6
CONTINUOUS
 10
-0.570749
 20
2.509281
 30
0.000000
 40
0.140100
 50
208.805764
 51
240.393967
  0
ARC
  8
0
 62
     1
  6
CONTINUOUS
 10
-0.682275
 20
2.445511
 30
0.000000
 40
0.011842
 50
105.904698
 51
198.392107
  0
ARC
  8
0
 62
     1
  6
CONTINUOUS
 10
-0.678004
 20
2.412084
 30
0.000000
 40
0.045442
 50
68.891900
 51
99.520987
  0
ARC
  8
0
 62
     1
  6
CONTINUOUS
 10
-0.713175
 20
2.296660
 30
0.000000
 40
0.166019
 50
51.528850
 51
71.915294
  0
ARC
  8
0
 62
     1
  6
CONTINUOUS
 10
-0.562026
 20
2.494450
 30
0.000000
 40
0.083002
 50
234.782839
 51
270.474142
  0
ARC
  8
0
 62
     1
  6
CONTINUOUS
 10
-0.567585
 20
2.643527
 30
0.000000
 40
0.232160
 50
271.541563
 51
283.882591
  0
ARC
  8
0
 62
     1
  6
CONTINUOUS
 10
-0.466051
 20
2.251715
 30
0.000000
 40
0.172628
 50
84.785676
 51
105.396063
  0
ARC
  8
0
 62
     1
  6
CONTINUOUS
 10
-0.148649
 20
1.590663
 30
0.000000
 40
0.885925
 50
107.871502
 51
109.911177
  0
ARC
  8
0
 62
     1
  6
CONTINUOUS
 10
-0.510428
 20
2.762509
 30
0.000000
 40
0.340744
 50
285.298339
 51
302.865575
  0
ARC
  8
0
 62
     1
  6
CONTINUOUS
 10
-0.392682
 20
2.572505
 30
0.000000
 40
0.117329
 50
304.921647
 51
359.263086
  0
ARC
  8
0
 62
     1
  6
CONTINUOUS
 10
-0.473202
 20
2.612824
 30
0.000000
 40
0.202212
 50
348.062111
 51
379.626029
  0
ARC
  8
0
 62
     1
  6
CONTINUOUS
 10
0.006618
 20
2.768162
 30
0.000000
 40
0.302273
 50
184.639799
 51
196.810574
  0
ARC
  8
0
 62
     1
  6
CONTINUOUS
 10
-0.152920
 20
2.751000
 30
0.000000
 40
0.141931
 50
153.768834
 51
182.943815
  0
ARC
  8
0
 62
     1
  6
CONTINUOUS
 10
0.188355
 20
2.676378
 30
0.000000
 40
0.488306
 50
152.047933
 51
163.662835
  0
ARC
  8
0
 62
     1
  6
CONTINUOUS
 10
-0.616136
 20
3.106449
 30
0.000000
 40
0.423930
 50
331.668413
 51
344.771413
  0
ARC
  8
0
 62
     1
  6
CONTINUOUS
 10
-0.331742
 20
3.026736
 30
0.000000
 40
0.128604
 50
345.756747
 51
387.704000
  0
ARC
  8
0
 62
     1
  6
CONTINUOUS
 10
-0.467391
 20
2.983668
 30
0.000000
 40
0.269879
 50
22.403246
 51
67.340772
  0
LINE
  8
0
 62
     1
  6
CONTINUOUS
 10
-0.372741
 20
3.233431
 30
0.000000
 11
-0.363420
 21
3.232716
 31
0.000000
  0
ARC
  8
0
 62
     1
  6
CONTINUOUS
 10
-0.351919
 20
3.711922
 30
0.000000
 40
0.478945
 50
255.977308
 51
267.508314
  0
ARC
  8
0
 62
     1
  6
CONTINUOUS
 10
-0.436362
 20
3.380415
 30
0.000000
 40
0.136864
 50
216.284522
 51
256.647173
  0
ARC
  8
0
 62
     1
  6
CONTINUOUS
 10
-0.450112
 20
3.393687
 30
0.000000
 40
0.134956
 50
183.984192
 51
224.307745
  0
ARC
  8
0
 62
     1
  6
CONTINUOUS
 10
-0.811456
 20
3.350765
 30
0.000000
 40
0.229182
 50
8.416527
 51
21.535061
  0
ARC
  8
0
 62
     1
  6
CONTINUOUS
 10
-0.677208
 20
3.401365
 30
0.000000
 40
0.085760
 50
23.012187
 51
59.671779
  0
ARC
  8
0
 62
     1
  6
CONTINUOUS
 10
-0.776696
 20
3.220474
 30
0.000000
 40
0.292184
 50
60.744129
 51
109.970762
  0
ARC
  8
0
 62
     1
  6
CONTINUOUS
 10
-0.792003
 20
3.267624
 30
0.000000
 40
0.242648
 50
110.376294
 51
141.336684
  0
ARC
  8
0
 62
     1
  6
CONTINUOUS
 10
-1.292959
 20
3.700653
 30
0.000000
 40
0.419800
 50
309.177797
 51
317.901562
  0
ARC
  8
0
 62
     1
  6
CONTINUOUS
 10
-1.116350
 20
3.485552
 30
0.000000
 40
0.141490
 50
282.820820
 51
308.764798
  0
ARC
  8
0
 62
     1
  6
CONTINUOUS
 10
-1.082010
 20
3.364975
 30
0.000000
 40
0.017633
 50
140.818860
 51
260.393109
  0
ARC
  8
0
 62
     1
  6
CONTINUOUS
 10
-0.729603
 20
3.163634
 30
0.000000
 40
0.423272
 50
117.678461
 51
149.867936
  0
ARC
  8
0
 62
     1
  6
CONTINUOUS
 10
-0.752165
 20
3.202564
 30
0.000000
 40
0.378321
 50
81.138641
 51
117.391138
  0
LINE
  8
0
 62
     1
  6
CONTINUOUS
 10
-0.687672
 20
3.574262
 30
0.000000
 11
-0.693887
 21
3.576370
 31
0.000000
  0
ARC
  8
0
 62
     1
  6
CONTINUOUS
 10
-0.855132
 20
3.021277
 30
0.000000
 40
0.577785
 50
62.434852
 51
73.152116
  0
ARC
  8
0
 62
     1
  6
CONTINUOUS
 10
-0.665743
 20
3.385136
 30
0.000000
 40
0.167588
 50
26.789567
 51
62.268353
  0
ARC
  8
0
 62
     1
  6
CONTINUOUS
 10
-0.575399
 20
3.418050
 30
0.000000
 40
0.072993
 50
348.075408
 51
395.726084
  0
ARC
  8
0
 62
     1
  6
CONTINUOUS
 10
-0.372713
 20
3.388895
 30
0.000000
 40
0.132021
 50
173.880843
 51
188.887583
  0
ARC
  8
0
 62
     1
  6
CONTINUOUS
 10
-0.459864
 20
3.376642
 30
0.000000
 40
0.044044
 50
190.655135
 51
236.136118
  0
ARC
  8
0
 62
     1
  6
CONTINUOUS
 10
0.301353
 20
6.437329
 30
0.000000
 40
3.195377
 50
255.764680
 51
256.509064
  0
ARC
  8
0
 62
     1
  6
CONTINUOUS
 10
-0.628116
 20
2.451894
 30
0.000000
 40
0.897300
 50
67.548710
 51
78.166037
  0
ARC
  8
0
 62
     1
  6
CONTINUOUS
 10
-0.372464
 20
3.062842
 30
0.000000
 40
0.235045
 50
29.695974
 51
68.269221
  0
ARC
  8
0
 62
     1
  6
CONTINUOUS
 10
-0.582970
 20
3.444267
 30
0.000000
 40
0.360509
 50
95.935435
 51
148.052658
  0
ARC
  8
0
 62
     1
  6
CONTINUOUS
 10
-1.466012
 20
5.345046
 30
0.000000
 40
1.804786
 50
288.649740
 51
293.333590
  0
ARC
  8
0
 62
     1
  6
CONTINUOUS
 10
-0.165946
 20
2.367725
 30
0.000000
 40
1.444041
 50
105.654100
 51
113.907768
  0
ARC
  8
0
 62
     1
  6
CONTINUOUS
 10
-0.559454
 20
3.828015
 30
0.000000
 40
0.069918
 50
273.168398
 51
305.368209
  0
ARC
  8
0
 62
     1
  6
CONTINUOUS
 10
-0.526074
 20
3.777470
 30
0.000000
 40
0.009598
 50
317.617647
 51
433.331500
  0
ARC
  8
0
 62
     1
  6
CONTINUOUS
 10
-0.600820
 20
3.620796
 30
0.000000
 40
0.183081
 50
64.956300
 51
96.091967
  0
ARC
  8
0
 62
     1
  6
CONTINUOUS
 10
-2.334365
 20
4.128274
 30
0.000000
 40
1.426026
 50
337.388511
 51
349.115421
  0
ARC
  8
0
 62
     1
  6
CONTINUOUS
 10
-1.055698
 20
3.597700
 30
0.000000
 40
0.041692
 50
309.730641
 51
334.869272
  0
ARC
  8
0
 62
     1
  6
CONTINUOUS
 10
-1.037225
 20
3.576820
 30
0.000000
 40
0.013853
 50
238.292756
 51
306.168514
  0
ARC
  8
0
 62
     1
  6
CONTINUOUS
 10
-1.005347
 20
3.608026
 30
0.000000
 40
0.058151
 50
170.060136
 51
227.670809
  0
ARC
  8
0
 62
     1
  6
CONTINUOUS
 10
-1.176056
 20
3.623429
 30
0.000000
 40
0.113558
 50
357.291554
 51
372.605199
  0
ARC
  8
0
 62
     1
  6
CONTINUOUS
 10
-0.665118
 20
3.600170
 30
0.000000
 40
0.402992
 50
152.755818
 51
173.153403
  0
ARC
  8
0
 62
     1
  6
CONTINUOUS
 10
-0.854067
 20
3.698760
 30
0.000000
 40
0.189875
 50
133.169070
 51
153.104324
  0
ARC
  8
0
 62
     1
  6
CONTINUOUS
 10
-0.929766
 20
3.780995
 30
0.000000
 40
0.078115
 50
93.102470
 51
133.940342
  0
ARC
  8
0
 62
     1
  6
CONTINUOUS
 10
-1.237340
 20
3.796866
 30
0.000000
 40
0.007274
 50
48.547151
 51
148.997659
  0
ARC
  8
0
 62
     1
  6
CONTINUOUS
 10
-1.231750
 20
3.796193
 30
0.000000
 40
0.012624
 50
159.507874
 51
220.967918
  0
ARC
  8
0
 62
     1
  6
CONTINUOUS
 10
-1.768189
 20
3.543529
 30
0.000000
 40
0.580824
 50
12.490321
 51
24.882537
  0
ARC
  8
0
 62
     1
  6
CONTINUOUS
 10
-2.939745
 20
3.282682
 30
0.000000
 40
1.781067
 50
8.489634
 51
12.532005
  0
ARC
  8
0
 62
     1
  6
CONTINUOUS
 10
1.162303
 20
3.908062
 30
0.000000
 40
2.368393
 50
188.802680
 51
190.890939
  0
ARC
  8
0
 62
     1
  6
CONTINUOUS
 10
-1.152610
 20
3.461240
 30
0.000000
 40
0.010842
 50
183.499912
 51
264.824428
  0
ARC
  8
0
 62
     1
  6
CONTINUOUS
 10
-1.158662
 20
3.489119
 30
0.000000
 40
0.039009
 50
277.472724
 51
308.833790
  0
ARC
  8
0
 62
     1
  6
CONTINUOUS
 10
-1.173859
 20
3.506603
 30
0.000000
 40
0.062164
 50
309.640117
 51
347.047821
  0
ARC
  8
0
 62
     1
  6
CONTINUOUS
 10
-1.331235
 20
3.546775
 30
0.000000
 40
0.224573
 50
346.058751
 51
356.555097
  0
ARC
  8
0
 62
     1
  6
CONTINUOUS
 10
-1.380202
 20
3.569683
 30
0.000000
 40
0.275550
 50
352.408724
 51
417.592368
  0
ARC
  8
0
 62
    72
  6
CONTINUOUS
 10
0.617396
 20
0.238832
 30
0.000000
 40
0.237299
 50
193.507977
 51
207.631129
  0
ARC
  8
0
 62
    72
  6
CONTINUOUS
 10
0.488420
 20
0.202034
 30
0.000000
 40
0.103450
 50
156.497269
 51
190.375083
  0
ARC
  8
0
 62
    72
  6
CONTINUOUS
 10
0.600562
 20
0.213151
 30
0.000000
 40
0.036325
 50
177.755819
 51
216.163319
  0
ARC
  8
0
 62
    72
  6
CONTINUOUS
 10
0.580852
 20
0.195822
 30
0.000000
 40
0.010456
 50
203.121570
 51
314.020229
  0
ARC
  8
0
 62
    72
  6
CONTINUOUS
 10
0.669640
 20
0.197137
 30
0.000000
 40
0.081999
 50
139.439702
 51
186.184750
  0
ARC
  8
0
 62
    72
  6
CONTINUOUS
 10
0.758808
 20
0.105583
 30
0.000000
 40
0.209594
 50
119.092942
 51
136.274169
  0
ARC
  8
0
 62
    72
  6
CONTINUOUS
 10
0.587125
 20
0.429245
 30
0.000000
 40
0.156881
 50
296.407262
 51
329.816556
  0
ARC
  8
0
 62
    72
  6
CONTINUOUS
 10
0.700902
 20
0.362798
 30
0.000000
 40
0.025124
 50
330.351383
 51
382.123477
  0
ARC
  8
0
 62
    72
  6
CONTINUOUS
 10
0.716733
 20
0.364604
 30
0.000000
 40
0.010677
 50
45.808355
 51
130.822941
  0
ARC
  8
0
 62
    72
  6
CONTINUOUS
 10
0.877195
 20
0.020599
 30
0.000000
 40
0.389872
 50
115.434480
 51
131.886946
  0
ARC
  8
0
 62
    72
  6
CONTINUOUS
 10
0.725284
 20
0.189071
 30
0.000000
 40
0.163026
 50
131.672516
 51
171.000245
  0
ARC
  8
0
 62
    72
  6
CONTINUOUS
 10
0.932881
 20
-0.272181
 30
0.000000
 40
0.162631
 50
233.888923
 51
261.154501
  0
ARC
  8
0
 62
    72
  6
CONTINUOUS
 10
0.792384
 20
-0.437616
 30
0.000000
 40
0.056152
 50
37.328671
 51
81.922359
  0
ARC
  8
0
 62
    72
  6
CONTINUOUS
 10
0.802320
 20
-0.389096
 30
0.000000
 40
0.007364
 50
106.131913
 51
185.345678
  0
ARC
  8
0
 62
    72
  6
CONTINUOUS
 10
0.839113
 20
-0.389363
 30
0.000000
 40
0.044127
 50
180.544144
 51
203.879721
  0
ARC
  8
0
 62
    72
  6
CONTINUOUS
 10
0.943870
 20
-0.316921
 30
0.000000
 40
0.170911
 50
211.895647
 51
253.486037
  0
ARC
  8
0
 62
    72
  6
CONTINUOUS
 10
1.009351
 20
-0.048547
 30
0.000000
 40
0.447032
 50
255.217155
 51
270.055246
  0
ARC
  8
0
 62
    72
  6
CONTINUOUS
 10
0.998796
 20
-1.070484
 30
0.000000
 40
0.575010
 50
81.325243
 51
88.905230
  0
ARC
  8
0
 62
    72
  6
CONTINUOUS
 10
1.064866
 20
-0.645053
 30
0.000000
 40
0.144486
 50
54.462196
 51
81.780646
  0
ARC
  8
0
 62
    72
  6
CONTINUOUS
 10
1.053261
 20
-0.639745
 30
0.000000
 40
0.147445
 50
40.680163
 51
49.587461
  0
ARC
  8
0
 62
    72
  6
CONTINUOUS
 10
1.306463
 20
-0.420058
 30
0.000000
 40
0.187780
 50
221.154777
 51
228.313961
  0
ARC
  8
0
 62
    72
  6
CONTINUOUS
 10
0.895012
 20
2.510002
 30
0.000000
 40
0.015905
 50
263.303054
 51
318.580090
  0
ARC
  8
0
 62
    72
  6
CONTINUOUS
 10
0.895895
 20
2.500247
 30
0.000000
 40
0.006633
 50
132.561826
 51
245.626837
  0
ARC
  8
0
 62
    72
  6
CONTINUOUS
 10
0.682161
 20
2.626681
 30
0.000000
 40
0.241989
 50
329.848221
 51
347.976974
  0
ARC
  8
0
 62
    72
  6
CONTINUOUS
 10
0.789448
 20
2.605030
 30
0.000000
 40
0.132550
 50
347.470457
 51
379.768899
  0
ARC
  8
0
 62
    72
  6
CONTINUOUS
 10
0.763392
 20
2.574717
 30
0.000000
 40
0.168481
 50
26.488152
 51
61.930692
  0
ARC
  8
0
 62
    72
  6
CONTINUOUS
 10
0.739869
 20
2.540636
 30
0.000000
 40
0.209675
 50
60.640913
 51
90.050372
  0
ARC
  8
0
 62
    72
  6
CONTINUOUS
 10
0.764319
 20
2.899100
 30
0.000000
 40
0.150814
 50
224.058337
 51
260.598862
  0
ARC
  8
0
 62
    72
  6
CONTINUOUS
 10
1.218145
 20
-0.522205
 30
0.000000
 40
0.052798
 50
226.168213
 51
244.099036
  0
ARC
  8
0
 62
    72
  6
CONTINUOUS
 10
1.197640
 20
-0.566273
 30
0.000000
 40
0.004276
 50
233.250431
 51
324.483677
  0
ARC
  8
0
 62
    72
  6
CONTINUOUS
 10
1.167169
 20
-0.564209
 30
0.000000
 40
0.034256
 50
352.371504
 51
390.080592
  0
ARC
  8
0
 62
    72
  6
CONTINUOUS
 10
1.070637
 20
-0.583774
 30
0.000000
 40
0.131412
 50
16.232354
 51
70.424358
  0
ARC
  8
0
 62
    72
  6
CONTINUOUS
 10
0.990850
 20
-0.860526
 30
0.000000
 40
0.419269
 50
72.823476
 51
89.814168
  0
ARC
  8
0
 62
    72
  6
CONTINUOUS
 10
1.013981
 20
0.206245
 30
0.000000
 40
0.647871
 50
260.573729
 51
268.074276
  0
ARC
  8
0
 62
    72
  6
CONTINUOUS
 10
1.254425
 20
0.076675
 30
0.000000
 40
0.237302
 50
256.403867
 51
270.526791
  0
ARC
  8
0
 62
    72
  6
CONTINUOUS
 10
1.221856
 20
-1.203096
 30
0.000000
 40
1.043059
 50
86.853405
 51
88.090752
  0
ARC
  8
0
 62
    72
  6
CONTINUOUS
 10
1.281890
 20
-0.127031
 30
0.000000
 40
0.034690
 50
265.403594
 51
322.846533
  0
ARC
  8
0
 62
    72
  6
CONTINUOUS
 10
1.303430
 20
-0.144110
 30
0.000000
 40
0.007233
 50
327.629048
 51
479.522042
  0
ARC
  8
0
 62
    72
  6
CONTINUOUS
 10
1.284465
 20
0.007619
 30
0.000000
 40
0.146248
 50
220.904384
 51
276.044604
  0
ARC
  8
0
 62
    72
  6
CONTINUOUS
 10
1.477714
 20
0.130433
 30
0.000000
 40
0.374246
 50
195.510421
 51
215.735646
  0
ARC
  8
0
 62
    72
  6
CONTINUOUS
 10
-1.656636
 20
-0.932918
 30
0.000000
 40
2.936237
 50
19.151300
 51
19.571622
  0
ARC
  8
0
 62
    72
  6
CONTINUOUS
 10
0.779595
 20
-0.059243
 30
0.000000
 40
0.348168
 50
18.403728
 51
37.864657
  0
ARC
  8
0
 62
    72
  6
CONTINUOUS
 10
0.749647
 20
2.902898
 30
0.000000
 40
0.143495
 50
184.362923
 51
229.229007
  0
ARC
  8
0
 62
    72
  6
CONTINUOUS
 10
0.644924
 20
2.880586
 30
0.000000
 40
0.040014
 50
48.600450
 51
163.454046
  0
ARC
  8
0
 62
    72
  6
CONTINUOUS
 10
0.819797
 20
3.069489
 30
0.000000
 40
0.217419
 50
226.952611
 51
273.047389
  0
ARC
  8
0
 62
    72
  6
CONTINUOUS
 10
0.799850
 20
2.670757
 30
0.000000
 40
0.184332
 50
41.653441
 51
80.158968
  0
ARC
  8
0
 62
    72
  6
CONTINUOUS
 10
0.734418
 20
2.622240
 30
0.000000
 40
0.265566
 50
14.455094
 51
40.091992
  0
ARC
  8
0
 62
    72
  6
CONTINUOUS
 10
2.398225
 20
0.915025
 30
0.000000
 40
0.060121
 50
311.188051
 51
338.872909
  0
ARC
  8
0
 62
    72
  6
CONTINUOUS
 10
2.445843
 20
0.896666
 30
0.000000
 40
0.009087
 50
338.633372
 51
458.543408
  0
ARC
  8
0
 62
    72
  6
CONTINUOUS
 10
2.432081
 20
0.694910
 30
0.000000
 40
0.211107
 50
86.629283
 51
131.786148
  0
ARC
  8
0
 62
    72
  6
CONTINUOUS
 10
2.326834
 20
0.810430
 30
0.000000
 40
0.054859
 50
130.220475
 51
180.955752
  0
ARC
  8
0
 62
    72
  6
CONTINUOUS
 10
2.298478
 20
0.807663
 30
0.000000
 40
0.026560
 50
176.002113
 51
211.665233
  0
ARC
  8
0
 62
    72
  6
CONTINUOUS
 10
2.280768
 20
0.797723
 30
0.000000
 40
0.006324
 50
219.260708
 51
328.593233
  0
ARC
  8
0
 62
    72
  6
CONTINUOUS
 10
2.391021
 20
0.693872
 30
0.000000
 40
0.145279
 50
99.241073
 51
136.199245
  0
ARC
  8
0
 62
    72
  6
CONTINUOUS
 10
2.340237
 20
0.988353
 30
0.000000
 40
0.153561
 50
280.298662
 51
309.452898
  0
ARC
  8
0
 62
    72
  6
CONTINUOUS
 10
0.954280
 20
-0.069102
 30
0.000000
 40
0.010914
 50
12.791149
 51
172.451863
  0
ARC
  8
0
 62
    72
  6
CONTINUOUS
 10
0.960094
 20
0.086400
 30
0.000000
 40
0.116350
 50
35.800954
 51
78.257214
  0
ARC
  8
0
 62
    72
  6
CONTINUOUS
 10
0.980187
 20
0.170661
 30
0.000000
 40
0.029871
 50
83.103335
 51
142.289539
  0
ARC
  8
0
 62
    72
  6
CONTINUOUS
 10
0.969684
 20
0.180894
 30
0.000000
 40
0.015394
 50
148.522991
 51
265.076063
  0
ARC
  8
0
 62
    72
  6
CONTINUOUS
 10
0.889437
 20
0.007869
 30
0.000000
 40
0.176337
 50
30.478723
 51
63.411134
  0
ARC
  8
0
 62
    72
  6
CONTINUOUS
 10
0.584655
 20
-0.163892
 30
0.000000
 40
0.526165
 50
18.776328
 51
29.763879
  0
ARC
  8
0
 62
    72
  6
CONTINUOUS
 10
1.461200
 20
0.122470
 30
0.000000
 40
0.396058
 50
197.182651
 51
217.851689
  0
ARC
  8
0
 62
    72
  6
CONTINUOUS
 10
1.228418
 20
-0.054904
 30
0.000000
 40
0.103450
 50
219.394154
 51
253.271519
  0
ARC
  8
0
 62
    72
  6
CONTINUOUS
 10
1.277158
 20
0.399033
 30
0.000000
 40
0.195823
 50
226.784706
 51
263.099555
  0
ARC
  8
0
 62
    72
  6
CONTINUOUS
 10
1.473104
 20
0.581439
 30
0.000000
 40
0.463276
 50
210.379038
 51
224.570227
  0
ARC
  8
0
 62
    72
  6
CONTINUOUS
 10
0.655975
 20
0.103266
 30
0.000000
 40
0.483481
 50
30.293958
 51
46.033983
  0
ARC
  8
0
 62
    72
  6
CONTINUOUS
 10
0.861085
 20
0.233852
 30
0.000000
 40
0.253581
 50
59.017490
 51
72.473391
  0
ARC
  8
0
 62
    72
  6
CONTINUOUS
 10
1.139452
 20
1.046182
 30
0.000000
 40
0.605227
 50
247.505948
 51
250.502804
  0
ARC
  8
0
 62
    72
  6
CONTINUOUS
 10
0.955590
 20
0.576682
 30
0.000000
 40
0.101572
 50
226.281702
 51
241.996408
  0
ARC
  8
0
 62
    72
  6
CONTINUOUS
 10
0.817086
 20
0.432354
 30
0.000000
 40
0.098463
 50
46.074085
 51
62.881742
  0
ARC
  8
0
 62
    72
  6
CONTINUOUS
 10
0.853460
 20
0.502846
 30
0.000000
 40
0.019142
 50
63.609504
 51
138.431233
  0
ARC
  8
0
 62
    72
  6
CONTINUOUS
 10
0.975402
 20
0.521227
 30
0.000000
 40
0.136382
 50
182.387082
 51
202.145138
  0
ARC
  8
0
 62
    72
  6
CONTINUOUS
 10
0.882252
 20
0.483793
 30
0.000000
 40
0.035995
 50
202.846959
 51
274.171207
  0
ARC
  8
0
 62
    72
  6
CONTINUOUS
 10
0.860352
 20
0.268986
 30
0.000000
 40
0.180580
 50
46.026458
 51
82.196703
  0
ARC
  8
0
 62
    72
  6
CONTINUOUS
 10
0.688600
 20
0.110143
 30
0.000000
 40
0.414359
 50
29.584919
 51
44.185185
  0
ARC
  8
0
 62
    72
  6
CONTINUOUS
 10
1.407794
 20
0.516799
 30
0.000000
 40
0.411843
 50
209.385073
 51
230.336190
  0
ARC
  8
0
 62
    72
  6
CONTINUOUS
 10
1.216546
 20
0.286102
 30
0.000000
 40
0.112182
 50
230.322769
 51
281.092727
  0
ARC
  8
0
 62
    72
  6
CONTINUOUS
 10
1.227660
 20
0.245491
 30
0.000000
 40
0.070259
 50
278.569797
 51
308.725564
  0
ARC
  8
0
 62
    72
  6
CONTINUOUS
 10
1.268477
 20
0.194826
 30
0.000000
 40
0.005200
 50
307.097649
 51
409.852520
  0
ARC
  8
0
 62
    72
  6
CONTINUOUS
 10
1.252106
 20
0.168536
 30
0.000000
 40
0.036125
 50
56.907239
 51
87.579547
  0
ARC
  8
0
 62
    72
  6
CONTINUOUS
 10
1.905365
 20
0.491335
 30
0.000000
 40
0.291299
 50
234.420480
 51
258.356501
  0
ARC
  8
0
 62
    72
  6
CONTINUOUS
 10
1.823073
 20
0.372842
 30
0.000000
 40
0.147062
 50
177.310971
 51
233.635804
  0
ARC
  8
0
 62
    72
  6
CONTINUOUS
 10
1.826044
 20
0.379767
 30
0.000000
 40
0.149871
 50
161.737613
 51
180.009615
  0
ARC
  8
0
 62
    72
  6
CONTINUOUS
 10
1.549207
 20
0.471530
 30
0.000000
 40
0.141778
 50
341.580031
 51
360.137348
  0
ARC
  8
0
 62
    72
  6
CONTINUOUS
 10
1.644133
 20
0.468738
 30
0.000000
 40
0.046957
 50
3.824386
 51
60.615576
  0
ARC
  8
0
 62
    72
  6
CONTINUOUS
 10
1.641522
 20
0.454253
 30
0.000000
 40
0.061051
 50
65.155897
 51
76.005564
  0
ARC
  8
0
 62
    72
  6
CONTINUOUS
 10
1.657337
 20
0.537147
 30
0.000000
 40
0.023678
 50
187.414022
 51
267.455661
  0
ARC
  8
0
 62
    72
  6
CONTINUOUS
 10
1.665395
 20
0.545096
 30
0.000000
 40
0.033403
 50
143.805048
 51
199.235063
  0
ARC
  8
0
 62
    72
  6
CONTINUOUS
 10
1.651864
 20
0.545735
 30
0.000000
 40
0.023336
 50
67.656733
 51
125.121610
  0
ARC
  8
0
 62
    72
  6
CONTINUOUS
 10
1.615591
 20
0.432053
 30
0.000000
 40
0.142600
 50
49.461920
 51
71.544109
  0
ARC
  8
0
 62
    72
  6
CONTINUOUS
 10
1.613703
 20
0.434430
 30
0.000000
 40
0.142052
 50
1.739445
 51
48.259832
  0
ARC
  8
0
 62
    72
  6
CONTINUOUS
 10
1.509120
 20
0.481241
 30
0.000000
 40
0.250205
 50
341.193630
 51
350.220607
  0
ARC
  8
0
 62
    72
  6
CONTINUOUS
 10
1.887537
 20
0.347113
 30
0.000000
 40
0.151330
 50
159.308921
 51
177.840511
  0
ARC
  8
0
 62
    72
  6
CONTINUOUS
 10
1.797656
 20
0.355017
 30
0.000000
 40
0.061382
 50
182.056075
 51
230.846299
  0
ARC
  8
0
 62
    72
  6
CONTINUOUS
 10
1.970891
 20
0.566959
 30
0.000000
 40
0.335115
 50
230.758274
 51
254.291616
  0
ARC
  8
0
 62
    72
  6
CONTINUOUS
 10
-2.891400
 20
4.320842
 30
0.000000
 40
0.286481
 50
276.642702
 51
277.658206
  0
ARC
  8
0
 62
    72
  6
CONTINUOUS
 10
-2.857549
 20
3.995966
 30
0.000000
 40
0.040325
 50
91.011706
 51
118.536871
  0
ARC
  8
0
 62
    72
  6
CONTINUOUS
 10
-2.866225
 20
4.021277
 30
0.000000
 40
0.014643
 50
136.310457
 51
216.850889
  0
ARC
  8
0
 62
    72
  6
CONTINUOUS
 10
-2.896998
 20
3.780058
 30
0.000000
 40
0.233217
 50
39.914666
 51
85.313259
  0
ARC
  8
0
 62
    72
  6
CONTINUOUS
 10
-2.683485
 20
3.952374
 30
0.000000
 40
0.041397
 50
213.210475
 51
270.120979
  0
ARC
  8
0
 62
    72
  6
CONTINUOUS
 10
-2.684874
 20
3.922659
 30
0.000000
 40
0.011775
 50
277.204942
 51
399.268223
  0
ARC
  8
0
 62
    72
  6
CONTINUOUS
 10
-2.923483
 20
3.763796
 30
0.000000
 40
0.298377
 50
33.876416
 51
54.480665
  0
ARC
  8
0
 62
    72
  6
CONTINUOUS
 10
-2.844623
 20
3.875508
 30
0.000000
 40
0.161637
 50
54.226776
 51
93.049905
  0
ARC
  8
0
 62
     1
  6
CONTINUOUS
 10
-1.549782
 20
3.391336
 30
0.000000
 40
0.079469
 50
116.137498
 51
153.794841
  0
ARC
  8
0
 62
     1
  6
CONTINUOUS
 10
-1.364015
 20
3.299577
 30
0.000000
 40
0.286663
 50
153.735761
 51
164.708907
  0
ARC
  8
0
 62
     1
  6
CONTINUOUS
 10
-1.849312
 20
3.427486
 30
0.000000
 40
0.215235
 50
328.742158
 51
345.934323
  0
ARC
  8
0
 62
     1
  6
CONTINUOUS
 10
-1.720361
 20
3.352806
 30
0.000000
 40
0.066323
 50
270.940286
 51
326.087423
  0
ARC
  8
0
 62
     1
  6
CONTINUOUS
 10
-1.765535
 20
2.843986
 30
0.000000
 40
0.444917
 50
84.031576
 51
124.541717
  0
ARC
  8
0
 62
     1
  6
CONTINUOUS
 10
-1.771151
 20
2.985663
 30
0.000000
 40
0.333732
 50
137.653141
 51
170.551879
  0
ARC
  8
0
 62
     1
  6
CONTINUOUS
 10
-1.821248
 20
2.989607
 30
0.000000
 40
0.283701
 50
169.676815
 51
207.277278
  0
ARC
  8
0
 62
     1
  6
CONTINUOUS
 10
-2.205117
 20
2.807875
 30
0.000000
 40
0.141504
 50
342.523419
 51
381.435387
  0
ARC
  8
0
 62
     1
  6
CONTINUOUS
 10
-2.507276
 20
2.909731
 30
0.000000
 40
0.460349
 50
329.452215
 51
341.725371
  0
ARC
  8
0
 62
     1
  6
CONTINUOUS
 10
-1.775839
 20
2.469384
 30
0.000000
 40
0.393449
 50
148.364100
 51
167.658691
  0
ARC
  8
0
 62
     1
  6
CONTINUOUS
 10
-1.873554
 20
2.476632
 30
0.000000
 40
0.296764
 50
164.992454
 51
189.760116
  0
ARC
  8
0
 62
     1
  6
CONTINUOUS
 10
-2.002928
 20
2.451944
 30
0.000000
 40
0.165094
 50
188.927624
 51
231.663679
  0
ARC
  8
0
 62
     1
  6
CONTINUOUS
 10
-1.967775
 20
2.513483
 30
0.000000
 40
0.235408
 50
234.243817
 51
260.701496
  0
ARC
  8
0
 62
     1
  6
CONTINUOUS
 10
-1.934939
 20
2.714491
 30
0.000000
 40
0.439081
 50
260.711125
 51
274.282589
  0
ARC
  8
0
 62
     1
  6
CONTINUOUS
 10
-1.948886
 20
2.642891
 30
0.000000
 40
0.369225
 50
277.271898
 51
318.860957
  0
ARC
  8
0
 62
     1
  6
CONTINUOUS
 10
-1.699380
 20
2.423027
 30
0.000000
 40
0.036700
 50
321.103959
 51
383.728834
  0
ARC
  8
0
 62
     1
  6
CONTINUOUS
 10
-1.681288
 20
2.431085
 30
0.000000
 40
0.016895
 50
23.403482
 51
140.077511
  0
ARC
  8
0
 62
     1
  6
CONTINUOUS
 10
-1.438182
 20
2.004887
 30
0.000000
 40
0.506530
 50
120.366105
 51
128.857119
  0
ARC
  8
0
 62
     1
  6
CONTINUOUS
 10
-2.029810
 20
2.733580
 30
0.000000
 40
0.432104
 50
298.143109
 51
309.326610
  0
ARC
  8
0
 62
     1
  6
CONTINUOUS
 10
-1.910809
 20
2.520526
 30
0.000000
 40
0.188161
 50
268.642694
 51
296.791118
  0
ARC
  8
0
 62
     1
  6
CONTINUOUS
 10
-2.019469
 20
1.620163
 30
0.000000
 40
0.719837
 50
81.676658
 51
83.440416
  0
ARC
  8
0
 62
     1
  6
CONTINUOUS
 10
-1.916225
 20
2.617158
 30
0.000000
 40
0.282653
 50
250.176426
 51
265.736695
  0
ARC
  8
0
 62
     1
  6
CONTINUOUS
 10
-1.989018
 20
2.416842
 30
0.000000
 40
0.069523
 50
189.538099
 51
250.626984
  0
ARC
  8
0
 62
     1
  6
CONTINUOUS
 10
-1.895975
 20
2.463605
 30
0.000000
 40
0.171794
 50
162.022410
 51
199.832080
  0
ARC
  8
0
 62
     1
  6
CONTINUOUS
 10
-1.575836
 20
2.350608
 30
0.000000
 40
0.511252
 50
148.496396
 51
161.050622
  0
ARC
  8
0
 62
     1
  6
CONTINUOUS
 10
-2.452911
 20
2.887444
 30
0.000000
 40
0.517073
 50
328.563698
 51
340.677109
  0
ARC
  8
0
 62
     1
  6
CONTINUOUS
 10
-2.124531
 20
2.769806
 30
0.000000
 40
0.168283
 50
341.478278
 51
378.675090
  0
LINE
  8
0
 62
     1
  6
CONTINUOUS
 10
-1.965109
 20
2.823690
 30
0.000000
 11
-1.965110
 21
2.823694
 31
0.000000
  0
ARC
  8
0
 62
     1
  6
CONTINUOUS
 10
-1.434805
 20
3.095916
 30
0.000000
 40
0.596095
 50
194.376185
 51
207.172831
  0
ARC
  8
0
 62
     1
  6
CONTINUOUS
 10
-1.818792
 20
2.994536
 30
0.000000
 40
0.198980
 50
154.477106
 51
193.550690
  0
ARC
  8
0
 62
     1
  6
CONTINUOUS
 10
-1.819422
 20
2.980894
 30
0.000000
 40
0.204677
 50
110.726682
 51
150.952920
  0
ARC
  8
0
 62
     1
  6
CONTINUOUS
 10
-1.747147
 20
2.777157
 30
0.000000
 40
0.420831
 50
90.591757
 51
110.112981
  0
ARC
  8
0
 62
     1
  6
CONTINUOUS
 10
-1.737026
 20
3.329242
 30
0.000000
 40
0.132071
 50
263.710925
 51
312.939965
  0
ARC
  8
0
 62
     1
  6
CONTINUOUS
 10
-1.883057
 20
3.454372
 30
0.000000
 40
0.323881
 50
316.774925
 51
335.279875
  0
ARC
  8
0
 62
     1
  6
CONTINUOUS
 10
-1.209109
 20
3.133800
 30
0.000000
 40
0.422470
 50
142.401887
 51
154.010388
  0
ARC
  8
0
 62
     1
  6
CONTINUOUS
 10
-1.437202
 20
3.307624
 30
0.000000
 40
0.135704
 50
105.774519
 51
141.793424
  0
ARC
  8
0
 62
     1
  6
CONTINUOUS
 10
-1.423868
 20
3.312775
 30
0.000000
 40
0.135124
 50
82.548971
 51
111.820231
  0
ARC
  8
0
 62
     1
  6
CONTINUOUS
 10
-1.434032
 20
3.211431
 30
0.000000
 40
0.236949
 50
64.278129
 51
83.289830
  0
ARC
  8
0
 62
     1
  6
CONTINUOUS
 10
-1.423542
 20
3.265376
 30
0.000000
 40
0.184327
 50
27.831654
 51
59.934168
  0
ARC
  8
0
 62
     1
  6
CONTINUOUS
 10
-1.619829
 20
3.151508
 30
0.000000
 40
0.411170
 50
14.293570
 51
29.093548
  0
ARC
  8
0
 62
     1
  6
CONTINUOUS
 10
-1.198469
 20
3.255884
 30
0.000000
 40
0.023097
 50
187.118967
 51
326.041481
  0
ARC
  8
0
 62
     1
  6
CONTINUOUS
 10
-1.262049
 20
3.284986
 30
0.000000
 40
0.092788
 50
333.084193
 51
375.610635
  0
ARC
  8
0
 62
     1
  6
CONTINUOUS
 10
0.182204
 20
3.509772
 30
0.000000
 40
1.369542
 50
188.110731
 51
188.389418
  0
ARC
  8
0
 62
     1
  6
CONTINUOUS
 10
-1.407654
 20
3.275878
 30
0.000000
 40
0.237523
 50
9.859005
 51
74.336603
  0
ARC
  8
0
 62
     1
  6
CONTINUOUS
 10
-1.424932
 20
3.257766
 30
0.000000
 40
0.259893
 50
71.746260
 51
127.958959
  0
ARC
  8
0
 62
     1
  6
CONTINUOUS
 10
-2.116748
 20
3.437260
 30
0.000000
 40
0.303115
 50
28.955513
 51
50.180009
  0
ARC
  8
0
 62
     1
  6
CONTINUOUS
 10
-2.143887
 20
3.240071
 30
0.000000
 40
0.483581
 50
62.772841
 51
87.440151
  0
ARC
  8
0
 62
     1
  6
CONTINUOUS
 10
-2.136968
 20
3.352074
 30
0.000000
 40
0.371385
 50
87.734821
 51
118.752366
  0
ARC
  8
0
 62
     1
  6
CONTINUOUS
 10
-2.195435
 20
3.444099
 30
0.000000
 40
0.262676
 50
117.227036
 51
149.787616
  0
ARC
  8
0
 62
     1
  6
CONTINUOUS
 10
-2.075198
 20
3.371276
 30
0.000000
 40
0.403232
 50
149.442776
 51
171.478416
  0
ARC
  8
0
 62
     1
  6
CONTINUOUS
 10
-2.368089
 20
3.386323
 30
0.000000
 40
0.114940
 50
157.111172
 51
193.579311
  0
ARC
  8
0
 62
     1
  6
CONTINUOUS
 10
-2.195075
 20
3.436033
 30
0.000000
 40
0.294890
 50
195.075286
 51
208.395059
  0
ARC
  8
0
 62
     1
  6
CONTINUOUS
 10
-2.660311
 20
3.179803
 30
0.000000
 40
0.236260
 50
10.866142
 51
29.404107
  0
ARC
  8
0
 62
     1
  6
CONTINUOUS
 10
-2.532928
 20
3.211806
 30
0.000000
 40
0.105389
 50
320.617327
 51
366.831132
  0
ARC
  8
0
 62
     1
  6
CONTINUOUS
 10
-3.506749
 20
4.635176
 30
0.000000
 40
1.826041
 50
303.912474
 51
305.303369
  0
ARC
  8
0
 62
     1
  6
CONTINUOUS
 10
-2.176414
 20
2.620642
 30
0.000000
 40
0.588368
 50
121.971594
 51
134.630012
  0
ARC
  8
0
 62
     1
  6
CONTINUOUS
 10
-2.438751
 20
2.892674
 30
0.000000
 40
0.210521
 50
135.831691
 51
172.333790
  0
ARC
  8
0
 62
     1
  6
CONTINUOUS
 10
-2.116525
 20
2.846624
 30
0.000000
 40
0.536018
 50
172.050129
 51
192.411561
  0
ARC
  8
0
 62
     1
  6
CONTINUOUS
 10
-2.422043
 20
2.777514
 30
0.000000
 40
0.222794
 50
191.941176
 51
241.138932
  0
ARC
  8
0
 62
     1
  6
CONTINUOUS
 10
-2.701086
 20
2.552194
 30
0.000000
 40
0.174143
 50
344.603286
 51
369.986213
  0
ARC
  8
0
 62
     1
  6
CONTINUOUS
 10
-3.152584
 20
2.671445
 30
0.000000
 40
0.641116
 50
337.732196
 51
345.041346
  0
ARC
  8
0
 62
     1
  6
CONTINUOUS
 10
-2.263746
 20
2.290349
 30
0.000000
 40
0.326232
 50
154.945217
 51
176.169940
  0
ARC
  8
0
 62
     1
  6
CONTINUOUS
 10
-2.258507
 20
2.337591
 30
0.000000
 40
0.331720
 50
184.400298
 51
230.263109
  0
ARC
  8
0
 62
     1
  6
CONTINUOUS
 10
-2.354740
 20
2.252342
 30
0.000000
 40
0.205573
 50
235.707698
 51
278.405687
  0
ARC
  8
0
 62
     1
  6
CONTINUOUS
 10
-2.381142
 20
2.421198
 30
0.000000
 40
0.376478
 50
278.624029
 51
301.090343
  0
ARC
  8
0
 62
     1
  6
CONTINUOUS
 10
-1.897602
 20
1.682679
 30
0.000000
 40
0.506708
 50
121.009311
 51
124.792552
  0
ARC
  8
0
 62
     1
  6
CONTINUOUS
 10
-2.268312
 20
2.315435
 30
0.000000
 40
0.226748
 50
298.923739
 51
314.187416
  0
ARC
  8
0
 62
     1
  6
CONTINUOUS
 10
-2.174019
 20
2.212955
 30
0.000000
 40
0.087623
 50
316.682653
 51
358.094756
  0
ARC
  8
0
 62
     1
  6
CONTINUOUS
 10
-2.304087
 20
2.558308
 30
0.000000
 40
0.410679
 50
268.979055
 51
302.002601
  0
ARC
  8
0
 62
     1
  6
CONTINUOUS
 10
-2.290921
 20
2.348157
 30
0.000000
 40
0.201507
 50
203.686928
 51
264.165813
  0
ARC
  8
0
 62
     1
  6
CONTINUOUS
 10
-2.367634
 20
2.323895
 30
0.000000
 40
0.121814
 50
165.851642
 51
207.735739
  0
ARC
  8
0
 62
     1
  6
CONTINUOUS
 10
-2.021171
 20
2.239582
 30
0.000000
 40
0.478385
 50
154.704708
 51
166.202794
  0
ARC
  8
0
 62
     1
  6
CONTINUOUS
 10
-2.799468
 20
2.613689
 30
0.000000
 40
0.385179
 50
333.859308
 51
349.398133
  0
ARC
  8
0
 62
     1
  6
CONTINUOUS
 10
-2.499320
 20
2.550778
 30
0.000000
 40
0.078858
 50
354.209515
 51
429.696563
  0
ARC
  8
0
 62
     1
  6
CONTINUOUS
 10
-2.423491
 20
2.756217
 30
0.000000
 40
0.140129
 50
201.143061
 51
249.765102
  0
ARC
  8
0
 62
     1
  6
CONTINUOUS
 10
-2.220186
 20
2.848141
 30
0.000000
 40
0.363116
 50
184.502614
 51
203.100686
  0
ARC
  8
0
 62
     1
  6
CONTINUOUS
 10
-2.426632
 20
2.853659
 30
0.000000
 40
0.159228
 50
145.504544
 51
192.338376
  0
ARC
  8
0
 62
     1
  6
CONTINUOUS
 10
-2.227515
 20
2.690398
 30
0.000000
 40
0.416365
 50
125.557650
 51
142.505036
  0
ARC
  8
0
 62
     1
  6
CONTINUOUS
 10
-2.883034
 20
3.570812
 30
0.000000
 40
0.681410
 50
307.349341
 51
314.490438
  0
ARC
  8
0
 62
     1
  6
CONTINUOUS
 10
-2.554868
 20
3.236840
 30
0.000000
 40
0.213189
 50
314.474763
 51
336.953789
  0
ARC
  8
0
 62
     1
  6
CONTINUOUS
 10
-2.488057
 20
3.195252
 30
0.000000
 40
0.135970
 50
342.065229
 51
375.664073
  0
ARC
  8
0
 62
     1
  6
CONTINUOUS
 10
-2.583492
 20
3.173921
 30
0.000000
 40
0.233679
 50
14.381999
 51
35.017848
  0
ARC
  8
0
 62
     1
  6
CONTINUOUS
 10
-2.119427
 20
3.387901
 30
0.000000
 40
0.284149
 50
138.090644
 51
196.328685
  0
ARC
  8
0
 62
     1
  6
CONTINUOUS
 10
-2.226841
 20
3.490076
 30
0.000000
 40
0.136031
 50
95.395015
 51
139.898464
  0
ARC
  8
0
 62
     1
  6
CONTINUOUS
 10
-2.184855
 20
3.091549
 30
0.000000
 40
0.536758
 50
83.791971
 51
95.857158
  0
ARC
  8
0
 62
     1
  6
CONTINUOUS
 10
-2.054620
 20
4.467860
 30
0.000000
 40
0.845787
 50
265.103673
 51
269.536667
  0
ARC
  8
0
 62
     1
  6
CONTINUOUS
 10
-2.049514
 20
3.487281
 30
0.000000
 40
0.135348
 50
53.133208
 51
95.063399
  0
ARC
  8
0
 62
     1
  6
CONTINUOUS
 10
-2.191830
 20
3.318516
 30
0.000000
 40
0.355972
 50
36.047356
 51
51.103843
  0
ARC
  8
0
 62
     1
  6
CONTINUOUS
 10
-1.635746
 20
3.720996
 30
0.000000
 40
0.330485
 50
215.733198
 51
232.299206
  0
ARC
  8
0
 62
     1
  6
CONTINUOUS
 10
-1.764780
 20
3.564208
 30
0.000000
 40
0.127675
 50
235.087732
 51
280.616953
  0
ARC
  8
0
 62
     1
  6
CONTINUOUS
 10
-1.746629
 20
3.466473
 30
0.000000
 40
0.028269
 50
280.956131
 51
340.830125
  0
ARC
  8
0
 62
     1
  6
CONTINUOUS
 10
-1.735148
 20
3.462261
 30
0.000000
 40
0.016043
 50
341.572473
 51
445.540888
  0
ARC
  8
0
 62
     1
  6
CONTINUOUS
 10
-1.693458
 20
3.626891
 30
0.000000
 40
0.154039
 50
223.560675
 51
254.778906
  0
ARC
  8
0
 62
     1
  6
CONTINUOUS
 10
-1.522444
 20
3.776882
 30
0.000000
 40
0.381437
 50
210.374821
 51
222.184706
  0
ARC
  8
0
 62
    72
  6
CONTINUOUS
 10
1.034892
 20
-0.051299
 30
0.000000
 40
0.071641
 50
165.797039
 51
192.402831
  0
ARC
  8
0
 62
    72
  6
CONTINUOUS
 10
0.891891
 20
-0.015872
 30
0.000000
 40
0.075685
 50
346.359579
 51
369.031753
  0
ARC
  8
0
 62
    72
  6
CONTINUOUS
 10
0.703144
 20
-0.017986
 30
0.000000
 40
0.263865
 50
3.040284
 51
18.660322
  0
ARC
  8
0
 62
    72
  6
CONTINUOUS
 10
0.884311
 20
0.046452
 30
0.000000
 40
0.071670
 50
16.193403
 51
70.998871
  0
ARC
  8
0
 62
    72
  6
CONTINUOUS
 10
0.911155
 20
0.097811
 30
0.000000
 40
0.016777
 50
102.070866
 51
184.119989
  0
ARC
  8
0
 62
    72
  6
CONTINUOUS
 10
0.936950
 20
0.098176
 30
0.000000
 40
0.042558
 50
182.113705
 51
214.427649
  0
ARC
  8
0
 62
    72
  6
CONTINUOUS
 10
0.580054
 20
-0.097331
 30
0.000000
 40
0.364615
 50
4.666318
 51
28.047938
  0
ARC
  8
0
 62
    72
  6
CONTINUOUS
 10
1.249136
 20
1.476154
 30
0.000000
 40
0.009635
 50
338.406857
 51
415.683399
  0
ARC
  8
0
 62
    72
  6
CONTINUOUS
 10
1.252097
 20
1.458658
 30
0.000000
 40
0.025574
 50
84.455173
 51
131.696920
  0
ARC
  8
0
 62
    72
  6
CONTINUOUS
 10
0.717481
 20
2.070277
 30
0.000000
 40
0.786764
 50
308.335177
 51
311.139093
  0
ARC
  8
0
 62
    72
  6
CONTINUOUS
 10
1.396438
 20
1.192741
 30
0.000000
 40
0.322915
 50
126.253364
 51
140.812544
  0
ARC
  8
0
 62
    72
  6
CONTINUOUS
 10
1.241978
 20
1.324088
 30
0.000000
 40
0.120276
 50
142.817318
 51
183.536418
  0
ARC
  8
0
 62
    72
  6
CONTINUOUS
 10
1.133952
 20
1.316087
 30
0.000000
 40
0.012035
 50
177.230145
 51
354.659992
  0
ARC
  8
0
 62
    72
  6
CONTINUOUS
 10
1.701412
 20
-0.292727
 30
0.000000
 40
0.566052
 50
62.694193
 51
71.591879
  0
ARC
  8
0
 62
    72
  6
CONTINUOUS
 10
1.892680
 20
0.075809
 30
0.000000
 40
0.150842
 50
31.902707
 51
63.033199
  0
ARC
  8
0
 62
    72
  6
CONTINUOUS
 10
1.992880
 20
0.144497
 30
0.000000
 40
0.029961
 50
351.836578
 51
381.599891
  0
ARC
  8
0
 62
    72
  6
CONTINUOUS
 10
2.017405
 20
0.138272
 30
0.000000
 40
0.005497
 50
250.388466
 51
381.002772
  0
ARC
  8
0
 62
    72
  6
CONTINUOUS
 10
2.468256
 20
1.123813
 30
0.000000
 40
1.089246
 50
242.699162
 51
245.442582
  0
ARC
  8
0
 62
    72
  6
CONTINUOUS
 10
1.695033
 20
-0.336738
 30
0.000000
 40
0.563526
 50
60.950698
 51
74.400203
  0
ARC
  8
0
 62
    72
  6
CONTINUOUS
 10
2.308679
 20
0.285667
 30
0.000000
 40
0.153029
 50
234.925694
 51
277.717515
  0
ARC
  8
0
 62
    72
  6
CONTINUOUS
 10
2.253935
 20
0.554490
 30
0.000000
 40
0.427154
 50
280.152474
 51
295.250036
  0
LINE
  8
0
 62
    72
  6
CONTINUOUS
 10
2.436146
 20
0.168149
 30
0.000000
 11
2.438485
 21
0.169118
 31
0.000000
  0
ARC
  8
0
 62
    72
  6
CONTINUOUS
 10
2.466019
 20
0.020534
 30
0.000000
 40
0.151113
 50
79.548092
 51
100.498299
  0
ARC
  8
0
 62
    72
  6
CONTINUOUS
 10
2.524302
 20
0.369920
 30
0.000000
 40
0.203139
 50
261.259480
 51
272.036886
  0
ARC
  8
0
 62
    72
  6
CONTINUOUS
 10
2.529179
 20
0.225708
 30
0.000000
 40
0.058846
 50
272.281883
 51
307.857316
  0
ARC
  8
0
 62
    72
  6
CONTINUOUS
 10
2.556967
 20
0.191690
 30
0.000000
 40
0.014971
 50
303.787741
 51
447.284804
  0
ARC
  8
0
 62
     1
  6
CONTINUOUS
 10
-2.381550
 20
3.176999
 30
0.000000
 40
0.122785
 50
4.488168
 51
38.440865
  0
ARC
  8
0
 62
     1
  6
CONTINUOUS
 10
-2.613855
 20
3.161497
 30
0.000000
 40
0.355601
 50
352.756934
 51
364.049264
  0
ARC
  8
0
 62
     1
  6
CONTINUOUS
 10
-1.967239
 20
3.078068
 30
0.000000
 40
0.296377
 50
172.517638
 51
183.738179
  0
LINE
  8
0
 62
     1
  6
CONTINUOUS
 10
-2.262985
 20
3.058745
 30
0.000000
 11
-2.261141
 21
3.049355
 31
0.000000
  0
ARC
  8
0
 62
     1
  6
CONTINUOUS
 10
-1.915440
 20
3.102873
 30
0.000000
 40
0.349819
 50
188.800097
 51
202.493741
  0
ARC
  8
0
 62
     1
  6
CONTINUOUS
 10
-2.150524
 20
3.004535
 30
0.000000
 40
0.095002
 50
201.940265
 51
251.835473
  0
ARC
  8
0
 62
     1
  6
CONTINUOUS
 10
-2.219011
 20
2.942644
 30
0.000000
 40
0.048127
 50
323.870250
 51
373.708648
  0
ARC
  8
0
 62
     1
  6
CONTINUOUS
 10
-2.249381
 20
2.933974
 30
0.000000
 40
0.079695
 50
14.589975
 51
46.216403
  0
ARC
  8
0
 62
     1
  6
CONTINUOUS
 10
-2.108553
 20
3.037686
 30
0.000000
 40
0.097334
 50
175.191802
 51
208.320387
  0
ARC
  8
0
 62
     1
  6
CONTINUOUS
 10
-1.852873
 20
3.017318
 30
0.000000
 40
0.353823
 50
165.720392
 51
175.375661
  0
ARC
  8
0
 62
     1
  6
CONTINUOUS
 10
-2.378861
 20
3.163778
 30
0.000000
 40
0.192425
 50
342.086098
 51
371.171781
  0
ARC
  8
0
 62
    72
  6
CONTINUOUS
 10
-2.630182
 20
3.864615
 30
0.000000
 40
0.036190
 50
209.953776
 51
227.253960
  0
ARC
  8
0
 62
    72
  6
CONTINUOUS
 10
-2.675991
 20
3.842577
 30
0.000000
 40
0.014988
 50
15.353036
 51
111.269690
  0
ARC
  8
0
 62
    72
  6
CONTINUOUS
 10
-2.627752
 20
3.812197
 30
0.000000
 40
0.069627
 50
140.436157
 51
194.553859
  0
ARC
  8
0
 62
    72
  6
CONTINUOUS
 10
-2.547048
 20
3.825915
 30
0.000000
 40
0.151350
 50
191.902329
 51
246.406793
  0
ARC
  8
0
 62
    72
  6
CONTINUOUS
 10
-2.594906
 20
3.721129
 30
0.000000
 40
0.036220
 50
249.441556
 51
289.002647
  0
ARC
  8
0
 62
    72
  6
CONTINUOUS
 10
-2.582808
 20
3.692988
 30
0.000000
 40
0.006112
 50
267.143134
 51
444.327740
  0
ARC
  8
0
 62
    72
  6
CONTINUOUS
 10
-2.519692
 20
3.790214
 30
0.000000
 40
0.110521
 50
204.434179
 51
235.555673
  0
ARC
  8
0
 62
    72
  6
CONTINUOUS
 10
-2.260575
 20
3.913342
 30
0.000000
 40
0.397393
 50
196.268828
 51
205.143174
  0
ARC
  8
0
 62
    72
  6
CONTINUOUS
 10
-3.027063
 20
3.686641
 30
0.000000
 40
0.401922
 50
16.681762
 51
22.128419
  0
ARC
  8
0
 62
     1
  6
CONTINUOUS
 10
-2.297013
 20
3.160551
 30
0.000000
 40
0.114347
 50
20.748569
 51
53.296122
  0
ARC
  8
0
 62
     1
  6
CONTINUOUS
 10
-2.257685
 20
3.218959
 30
0.000000
 40
0.044143
 50
48.906328
 51
128.856088
  0
ARC
  8
0
 62
     1
  6
CONTINUOUS
 10
-2.167599
 20
3.021641
 30
0.000000
 40
0.196892
 50
231.570859
 51
276.465388
  0
ARC
  8
0
 62
     1
  6
CONTINUOUS
 10
-2.143193
 20
2.802732
 30
0.000000
 40
0.023377
 50
4.068506
 51
95.487863
  0
ARC
  8
0
 62
     1
  6
CONTINUOUS
 10
-2.172542
 20
2.816341
 30
0.000000
 40
0.054006
 50
292.913460
 51
347.215270
  0
ARC
  8
0
 62
     1
  6
CONTINUOUS
 10
-2.195496
 20
2.887657
 30
0.000000
 40
0.128802
 50
266.571458
 51
289.966005
  0
ARC
  8
0
 62
     1
  6
CONTINUOUS
 10
-2.193226
 20
2.957742
 30
0.000000
 40
0.198907
 50
212.918326
 51
267.125926
  0
ARC
  8
0
 62
     1
  6
CONTINUOUS
 10
-2.214954
 20
2.945336
 30
0.000000
 40
0.173931
 50
169.550340
 51
213.377329
  0
ARC
  8
0
 62
     1
  6
CONTINUOUS
 10
-2.065521
 20
3.161115
 30
0.000000
 40
0.369660
 50
209.893189
 51
232.613021
  0
ARC
  8
0
 62
     1
  6
CONTINUOUS
 10
-1.490900
 20
2.083981
 30
0.000000
 40
0.263816
 50
169.095177
 51
184.148471
  0
ARC
  8
0
 62
     1
  6
CONTINUOUS
 10
-1.929368
 20
2.178680
 30
0.000000
 40
0.184922
 50
345.982660
 51
379.604830
  0
ARC
  8
0
 62
     1
  6
CONTINUOUS
 10
-1.786136
 20
2.208804
 30
0.000000
 40
0.044478
 50
45.867405
 51
86.453054
  0
ARC
  8
0
 62
     1
  6
CONTINUOUS
 10
-1.783347
 20
2.233074
 30
0.000000
 40
0.020123
 50
90.106047
 51
178.270271
  0
LINE
  8
0
 62
     1
  6
CONTINUOUS
 10
-1.803461
 20
2.233681
 30
0.000000
 11
-1.805518
 21
2.225529
 31
0.000000
  0
ARC
  8
0
 62
     1
  6
CONTINUOUS
 10
-0.641701
 20
1.914949
 30
0.000000
 40
1.204545
 50
165.058039
 51
169.635363
  0
ARC
  8
0
 62
     1
  6
CONTINUOUS
 10
-1.551514
 20
2.077102
 30
0.000000
 40
0.280436
 50
168.781414
 51
186.652556
  0
ARC
  8
0
 62
     1
  6
CONTINUOUS
 10
-1.592050
 20
2.133813
 30
0.000000
 40
0.254177
 50
200.544358
 51
244.079462
  0
ARC
  8
0
 62
     1
  6
CONTINUOUS
 10
-1.552247
 20
2.186464
 30
0.000000
 40
0.319187
 50
241.784072
 51
277.200434
  0
ARC
  8
0
 62
     1
  6
CONTINUOUS
 10
-1.567083
 20
2.330930
 30
0.000000
 40
0.464385
 50
276.782291
 51
299.839985
  0
ARC
  8
0
 62
     1
  6
CONTINUOUS
 10
-1.404988
 20
1.757698
 30
0.000000
 40
0.183845
 50
43.384149
 51
67.964918
  0
ARC
  8
0
 62
     1
  6
CONTINUOUS
 10
-1.131692
 20
2.013526
 30
0.000000
 40
0.190510
 50
222.843871
 51
261.767193
  0
ARC
  8
0
 62
     1
  6
CONTINUOUS
 10
-0.994007
 20
2.492378
 30
0.000000
 40
0.687485
 50
256.116140
 51
273.324486
  0
ARC
  8
0
 62
     1
  6
CONTINUOUS
 10
-0.977720
 20
2.226857
 30
0.000000
 40
0.421467
 50
273.207300
 51
300.268820
  0
ARC
  8
0
 62
     1
  6
CONTINUOUS
 10
-0.012442
 20
1.065200
 30
0.000000
 40
1.096815
 50
128.125938
 51
133.344452
  0
ARC
  8
0
 62
     1
  6
CONTINUOUS
 10
-1.119565
 20
2.504288
 30
0.000000
 40
0.718995
 50
306.726761
 51
320.377929
  0
ARC
  8
0
 62
     1
  6
CONTINUOUS
 10
-0.759303
 20
2.199852
 30
0.000000
 40
0.247398
 50
321.478159
 51
362.449428
  0
ARC
  8
0
 62
     1
  6
CONTINUOUS
 10
-0.583774
 20
2.249956
 30
0.000000
 40
0.081825
 50
331.111127
 51
372.155853
  0
ARC
  8
0
 62
     1
  6
CONTINUOUS
 10
-0.348202
 20
2.118813
 30
0.000000
 40
0.214989
 50
136.358624
 51
154.487377
  0
ARC
  8
0
 62
     1
  6
CONTINUOUS
 10
-1.150759
 20
2.530504
 30
0.000000
 40
0.687118
 50
330.750029
 51
332.329076
  0
ARC
  8
0
 62
     1
  6
CONTINUOUS
 10
-1.053324
 20
2.413944
 30
0.000000
 40
0.547830
 50
310.176603
 51
336.416258
  0
ARC
  8
0
 62
     1
  6
CONTINUOUS
 10
-1.141302
 20
2.508375
 30
0.000000
 40
0.676769
 50
289.666241
 51
310.709854
  0
ARC
  8
0
 62
     1
  6
CONTINUOUS
 10
-0.971863
 20
2.212826
 30
0.000000
 40
0.346684
 50
250.922751
 51
279.684541
  0
ARC
  8
0
 62
     1
  6
CONTINUOUS
 10
-0.954546
 20
2.290787
 30
0.000000
 40
0.426120
 50
228.657172
 51
252.148560
  0
ARC
  8
0
 62
     1
  6
CONTINUOUS
 10
-1.331640
 20
1.862957
 30
0.000000
 40
0.144176
 50
48.457674
 51
102.243151
  0
ARC
  8
0
 62
     1
  6
CONTINUOUS
 10
-1.249678
 20
1.512683
 30
0.000000
 40
0.503899
 50
102.904692
 51
118.387168
  0
LINE
  8
0
 62
     1
  6
CONTINUOUS
 10
-1.489245
 20
1.955991
 30
0.000000
 11
-1.491618
 21
1.954846
 31
0.000000
  0
ARC
  8
0
 62
     1
  6
CONTINUOUS
 10
-1.559523
 20
2.194843
 30
0.000000
 40
0.249418
 50
229.549920
 51
285.798419
  0
ARC
  8
0
 62
     1
  6
CONTINUOUS
 10
-1.665678
 20
2.074287
 30
0.000000
 40
0.088844
 50
186.067635
 51
231.205325
  0
ARC
  8
0
 62
     1
  6
CONTINUOUS
 10
-1.713539
 20
2.073308
 30
0.000000
 40
0.476024
 50
239.484850
 51
264.824085
  0
ARC
  8
0
 62
     1
  6
CONTINUOUS
 10
-1.746148
 20
1.830040
 30
0.000000
 40
0.231046
 50
267.436158
 51
287.873305
  0
ARC
  8
0
 62
     1
  6
CONTINUOUS
 10
-1.923583
 20
2.391895
 30
0.000000
 40
0.820250
 50
287.624006
 51
293.705556
  0
ARC
  8
0
 62
     1
  6
CONTINUOUS
 10
-1.383140
 20
1.200279
 30
0.000000
 40
0.488354
 50
99.036941
 51
115.555983
  0
ARC
  8
0
 62
     1
  6
CONTINUOUS
 10
-1.439672
 20
1.505507
 30
0.000000
 40
0.178210
 50
49.090591
 51
96.500074
  0
ARC
  8
0
 62
    12
  6
CONTINUOUS
 10
-1.591866
 20
1.243626
 30
0.000000
 40
1.077471
 50
154.858631
 51
159.778208
  0
ARC
  8
0
 62
    12
  6
CONTINUOUS
 10
-2.274655
 20
1.565011
 30
0.000000
 40
0.322828
 50
139.099535
 51
155.009945
  0
ARC
  8
0
 62
    12
  6
CONTINUOUS
 10
-2.419309
 20
1.709493
 30
0.000000
 40
0.119773
 50
113.448725
 51
146.050178
  0
ARC
  8
0
 62
    12
  6
CONTINUOUS
 10
-2.318296
 20
1.469851
 30
0.000000
 40
0.379829
 50
102.614625
 51
113.043046
  0
ARC
  8
0
 62
    12
  6
CONTINUOUS
 10
-2.498010
 20
2.260423
 30
0.000000
 40
0.430916
 50
282.976377
 51
291.456177
  0
ARC
  8
0
 62
    12
  6
CONTINUOUS
 10
-2.390706
 20
1.986557
 30
0.000000
 40
0.136779
 50
291.585910
 51
318.019845
  0
ARC
  8
0
 62
    12
  6
CONTINUOUS
 10
-2.303494
 20
1.909678
 30
0.000000
 40
0.020560
 50
314.720930
 51
349.878811
  0
ARC
  8
0
 62
    12
  6
CONTINUOUS
 10
-2.288988
 20
1.904072
 30
0.000000
 40
0.006070
 50
19.171045
 51
129.321731
  0
ARC
  8
0
 62
    12
  6
CONTINUOUS
 10
-2.252180
 20
1.038454
 30
0.000000
 40
0.871262
 50
92.674419
 51
103.436275
  0
ARC
  8
0
 62
    12
  6
CONTINUOUS
 10
-2.398841
 20
1.630272
 30
0.000000
 40
0.261614
 50
102.312849
 51
137.616877
  0
ARC
  8
0
 62
    12
  6
CONTINUOUS
 10
-2.486991
 20
1.665684
 30
0.000000
 40
0.175807
 50
126.710503
 51
159.470043
  0
ARC
  8
0
 62
    12
  6
CONTINUOUS
 10
-2.107792
 20
1.525555
 30
0.000000
 40
0.580068
 50
159.643347
 51
169.810340
  0
ARC
  8
0
 62
    12
  6
CONTINUOUS
 10
-3.174437
 20
1.712812
 30
0.000000
 40
0.502899
 50
337.501159
 51
350.310828
  0
ARC
  8
0
 62
    12
  6
CONTINUOUS
 10
-2.852311
 20
1.581809
 30
0.000000
 40
0.155177
 50
295.905496
 51
336.676547
  0
ARC
  8
0
 62
    12
  6
CONTINUOUS
 10
-2.777857
 20
1.421474
 30
0.000000
 40
0.021793
 50
107.791312
 51
185.969744
  0
ARC
  8
0
 62
    12
  6
CONTINUOUS
 10
-2.783108
 20
1.423770
 30
0.000000
 40
0.017047
 50
195.525829
 51
281.444182
  0
ARC
  8
0
 62
    12
  6
CONTINUOUS
 10
-2.818758
 20
1.586961
 30
0.000000
 40
0.184085
 50
282.241877
 51
326.469008
  0
ARC
  8
0
 62
    12
  6
CONTINUOUS
 10
-3.174324
 20
1.808346
 30
0.000000
 40
0.602887
 50
327.596795
 51
341.400965
  0
ARC
  8
0
 62
    12
  6
CONTINUOUS
 10
-1.264140
 20
0.588313
 30
0.000000
 40
0.118111
 50
235.314883
 51
293.160708
  0
ARC
  8
0
 62
    12
  6
CONTINUOUS
 10
-1.341027
 20
0.475669
 30
0.000000
 40
0.018291
 50
58.067789
 51
172.695442
  0
ARC
  8
0
 62
    12
  6
CONTINUOUS
 10
-1.319567
 20
0.462906
 30
0.000000
 40
0.042379
 50
159.143024
 51
220.684676
  0
ARC
  8
0
 62
    12
  6
CONTINUOUS
 10
-1.277514
 20
0.500864
 30
0.000000
 40
0.099023
 50
221.477295
 51
282.425391
  0
ARC
  8
0
 62
    12
  6
CONTINUOUS
 10
-1.327982
 20
0.735943
 30
0.000000
 40
0.339457
 50
282.206679
 51
298.962362
  0
ARC
  8
0
 62
    12
  6
CONTINUOUS
 10
-0.212654
 20
-1.471808
 30
0.000000
 40
2.134306
 50
116.213850
 51
116.458847
  0
ARC
  8
0
 62
    12
  6
CONTINUOUS
 10
-1.891538
 20
1.463331
 30
0.000000
 40
1.258158
 50
305.808023
 51
317.800074
  0
ARC
  8
0
 62
    12
  6
CONTINUOUS
 10
0.719842
 20
-0.984062
 30
0.000000
 40
2.321077
 50
132.555646
 51
136.345302
  0
ARC
  8
0
 62
    72
  6
CONTINUOUS
 10
1.230711
 20
1.312479
 30
0.000000
 40
0.084812
 50
140.509571
 51
178.318572
  0
ARC
  8
0
 62
    72
  6
CONTINUOUS
 10
1.321759
 20
1.229293
 30
0.000000
 40
0.208074
 50
124.630192
 51
138.775718
  0
ARC
  8
0
 62
    72
  6
CONTINUOUS
 10
1.104880
 20
1.546205
 30
0.000000
 40
0.175949
 50
304.096608
 51
320.248993
  0
ARC
  8
0
 62
    72
  6
CONTINUOUS
 10
1.157874
 20
1.495220
 30
0.000000
 40
0.102741
 50
323.212547
 51
347.285709
  0
ARC
  8
0
 62
    72
  6
CONTINUOUS
 10
0.988427
 20
1.109901
 30
0.000000
 40
0.279305
 50
283.487253
 51
296.271105
  0
ARC
  8
0
 62
    72
  6
CONTINUOUS
 10
1.082232
 20
0.840051
 30
0.000000
 40
0.035572
 50
33.038580
 51
94.960779
  0
ARC
  8
0
 62
    72
  6
CONTINUOUS
 10
1.095167
 20
0.731127
 30
0.000000
 40
0.145248
 50
96.328595
 51
112.754157
  0
ARC
  8
0
 62
    72
  6
CONTINUOUS
 10
0.981589
 20
1.002907
 30
0.000000
 40
0.149310
 50
276.893900
 51
292.608606
  0
ARC
  8
0
 62
    72
  6
CONTINUOUS
 10
0.998619
 20
0.844597
 30
0.000000
 40
0.010119
 50
84.946463
 51
150.725697
  0
ARC
  8
0
 62
    72
  6
CONTINUOUS
 10
0.995664
 20
0.848231
 30
0.000000
 40
0.006017
 50
167.384292
 51
263.553186
  0
ARC
  8
0
 62
    72
  6
CONTINUOUS
 10
1.030190
 20
0.927876
 30
0.000000
 40
0.092578
 50
247.651339
 51
284.627373
  0
ARC
  8
0
 62
    72
  6
CONTINUOUS
 10
-3.604238
 20
3.146644
 30
0.000000
 40
0.014125
 50
165.077489
 51
220.267210
  0
ARC
  8
0
 62
    72
  6
CONTINUOUS
 10
-3.611787
 20
3.144621
 30
0.000000
 40
0.008321
 50
38.449492
 51
137.143233
  0
ARC
  8
0
 62
    72
  6
CONTINUOUS
 10
-3.312610
 20
3.639466
 30
0.000000
 40
0.570462
 50
239.134676
 51
266.484758
  0
ARC
  8
0
 62
    72
  6
CONTINUOUS
 10
-3.345351
 20
3.052487
 30
0.000000
 40
0.017733
 50
44.908612
 51
97.245496
  0
ARC
  8
0
 62
    72
  6
CONTINUOUS
 10
-3.341910
 20
3.060081
 30
0.000000
 40
0.010363
 50
322.875207
 51
388.375431
  0
ARC
  8
0
 62
    72
  6
CONTINUOUS
 10
-3.378975
 20
3.084932
 30
0.000000
 40
0.054974
 50
285.758814
 51
325.539843
  0
ARC
  8
0
 62
    72
  6
CONTINUOUS
 10
-3.393576
 20
3.147576
 30
0.000000
 40
0.119266
 50
262.146299
 51
284.336110
  0
ARC
  8
0
 62
     1
  6
CONTINUOUS
 10
-1.086050
 20
1.829375
 30
0.000000
 40
0.303186
 50
218.608408
 51
271.573502
  0
LINE
  8
0
 62
     1
  6
CONTINUOUS
 10
-1.063389
 20
1.528409
 30
0.000000
 11
-1.077724
 21
1.526303
 31
0.000000
  0
ARC
  8
0
 62
     1
  6
CONTINUOUS
 10
-1.159699
 20
2.380892
 30
0.000000
 40
0.857906
 50
276.445704
 51
287.394840
  0
ARC
  8
0
 62
     1
  6
CONTINUOUS
 10
-0.974627
 20
1.791731
 30
0.000000
 40
0.240362
 50
287.281575
 51
324.753537
  0
ARC
  8
0
 62
     1
  6
CONTINUOUS
 10
-1.360781
 20
1.987255
 30
0.000000
 40
0.671538
 50
330.151001
 51
349.848999
  0
ARC
  8
0
 62
     1
  6
CONTINUOUS
 10
-0.762630
 20
1.818429
 30
0.000000
 40
0.080627
 50
2.549367
 51
38.754928
  0
ARC
  8
0
 62
     1
  6
CONTINUOUS
 10
-0.869941
 20
1.807155
 30
0.000000
 40
0.188445
 50
347.723358
 51
364.522808
  0
ARC
  8
0
 62
     1
  6
CONTINUOUS
 10
-0.891195
 20
1.721291
 30
0.000000
 40
0.210433
 50
342.841715
 51
372.569424
  0
ARC
  8
0
 62
     1
  6
CONTINUOUS
 10
-0.995048
 20
1.753850
 30
0.000000
 40
0.319270
 50
323.249794
 51
342.756912
  0
ARC
  8
0
 62
     1
  6
CONTINUOUS
 10
-1.092453
 20
1.819692
 30
0.000000
 40
0.436745
 50
298.886166
 51
323.974527
  0
ARC
  8
0
 62
     1
  6
CONTINUOUS
 10
-1.107237
 20
1.962100
 30
0.000000
 40
0.571313
 50
272.689508
 51
293.276253
  0
ARC
  8
0
 62
     1
  6
CONTINUOUS
 10
-1.097357
 20
1.731371
 30
0.000000
 40
0.340376
 50
238.118066
 51
272.850768
  0
ARC
  8
0
 62
     1
  6
CONTINUOUS
 10
-1.153097
 20
1.620619
 30
0.000000
 40
0.217179
 50
213.750514
 51
235.171315
  0
ARC
  8
0
 62
     1
  6
CONTINUOUS
 10
-1.535150
 20
1.360629
 30
0.000000
 40
0.244960
 50
34.665652
 51
50.018540
  0
ARC
  8
0
 62
     1
  6
CONTINUOUS
 10
-1.442791
 20
1.463309
 30
0.000000
 40
0.107044
 50
52.585569
 51
91.253257
  0
ARC
  8
0
 62
     1
  6
CONTINUOUS
 10
-1.425620
 20
1.323959
 30
0.000000
 40
0.247140
 50
94.528309
 51
120.426130
  0
ARC
  8
0
 62
     1
  6
CONTINUOUS
 10
-1.707448
 20
1.824340
 30
0.000000
 40
0.327220
 50
283.998570
 51
298.606368
  0
ARC
  8
0
 62
     1
  6
CONTINUOUS
 10
-1.735749
 20
1.940284
 30
0.000000
 40
0.446567
 50
258.709560
 51
283.923366
  0
ARC
  8
0
 62
     1
  6
CONTINUOUS
 10
-1.756146
 20
1.867295
 30
0.000000
 40
0.371041
 50
228.927008
 51
259.591662
  0
ARC
  8
0
 62
     1
  6
CONTINUOUS
 10
-1.706144
 20
1.932263
 30
0.000000
 40
0.452898
 50
198.415434
 51
229.558301
  0
ARC
  8
0
 62
     1
  6
CONTINUOUS
 10
-1.776575
 20
1.902342
 30
0.000000
 40
0.376672
 50
158.788063
 51
197.481586
  0
ARC
  8
0
 62
     1
  6
CONTINUOUS
 10
-2.112406
 20
2.035873
 30
0.000000
 40
0.015567
 50
14.960333
 51
169.802194
  0
ARC
  8
0
 62
     1
  6
CONTINUOUS
 10
-2.315272
 20
1.981641
 30
0.000000
 40
0.225556
 50
348.678548
 51
374.966380
  0
ARC
  8
0
 62
     1
  6
CONTINUOUS
 10
-1.693079
 20
1.879446
 30
0.000000
 40
0.405186
 50
171.782335
 51
180.676360
  0
ARC
  8
0
 62
     1
  6
CONTINUOUS
 10
-1.967370
 20
1.876715
 30
0.000000
 40
0.130882
 50
180.898258
 51
208.302111
  0
ARC
  8
0
 62
     1
  6
CONTINUOUS
 10
-1.809722
 20
1.914871
 30
0.000000
 40
0.290703
 50
200.164404
 51
239.960330
  0
ARC
  8
0
 62
     1
  6
CONTINUOUS
 10
-0.374158
 20
1.953214
 30
0.000000
 40
0.439023
 50
239.661052
 51
270.339887
  0
ARC
  8
0
 62
     1
  6
CONTINUOUS
 10
-0.373265
 20
1.893720
 30
0.000000
 40
0.379524
 50
270.258264
 51
305.617790
  0
ARC
  8
0
 62
     1
  6
CONTINUOUS
 10
-0.315695
 20
1.859772
 30
0.000000
 40
0.319546
 50
300.765505
 51
332.372820
  0
ARC
  8
0
 62
     1
  6
CONTINUOUS
 10
-0.477237
 20
1.954001
 30
0.000000
 40
0.506437
 50
331.402600
 51
352.547565
  0
ARC
  8
0
 62
     1
  6
CONTINUOUS
 10
0.094083
 20
1.854405
 30
0.000000
 40
0.077026
 50
105.672021
 51
153.881705
  0
ARC
  8
0
 62
     1
  6
CONTINUOUS
 10
0.156159
 20
1.645494
 30
0.000000
 40
0.294959
 50
93.292020
 51
106.319864
  0
ARC
  8
0
 62
     1
  6
CONTINUOUS
 10
0.106215
 20
2.349218
 30
0.000000
 40
0.410581
 50
274.610942
 51
279.190786
  0
ARC
  8
0
 62
     1
  6
CONTINUOUS
 10
0.115415
 20
2.117680
 30
0.000000
 40
0.182690
 50
287.975239
 51
318.799027
  0
ARC
  8
0
 62
     1
  6
CONTINUOUS
 10
-0.162273
 20
2.353630
 30
0.000000
 40
0.547070
 50
319.362942
 51
329.623256
  0
ARC
  8
0
 62
     1
  6
CONTINUOUS
 10
1.248190
 20
1.497694
 30
0.000000
 40
1.102883
 50
145.599804
 51
148.314810
  0
ARC
  8
0
 62
     1
  6
CONTINUOUS
 10
-0.011877
 20
2.326519
 30
0.000000
 40
0.406042
 50
329.557775
 51
353.371149
  0
ARC
  8
0
 62
     1
  6
CONTINUOUS
 10
0.114273
 20
2.323157
 30
0.000000
 40
0.280571
 50
351.078711
 51
389.083480
  0
ARC
  8
0
 62
     1
  6
CONTINUOUS
 10
0.325953
 20
2.451375
 30
0.000000
 40
0.034495
 50
13.689185
 51
70.101551
  0
ARC
  8
0
 62
     1
  6
CONTINUOUS
 10
0.337378
 20
2.474615
 30
0.000000
 40
0.009201
 50
88.037314
 51
158.544394
  0
ARC
  8
0
 62
     1
  6
CONTINUOUS
 10
0.368653
 20
2.460952
 30
0.000000
 40
0.043325
 50
156.856883
 51
184.102351
  0
ARC
  8
0
 62
     1
  6
CONTINUOUS
 10
0.134759
 20
2.369004
 30
0.000000
 40
0.210365
 50
359.710608
 51
384.983508
  0
ARC
  8
0
 62
     1
  6
CONTINUOUS
 10
-0.016826
 20
2.367209
 30
0.000000
 40
0.361947
 50
343.990014
 51
360.115946
  0
ARC
  8
0
 62
     1
  6
CONTINUOUS
 10
-0.136390
 20
2.397133
 30
0.000000
 40
0.485146
 50
320.100933
 51
344.487525
  0
ARC
  8
0
 62
     1
  6
CONTINUOUS
 10
0.132063
 20
2.161006
 30
0.000000
 40
0.128048
 50
286.157264
 51
324.111201
  0
ARC
  8
0
 62
     1
  6
CONTINUOUS
 10
0.101087
 20
2.314604
 30
0.000000
 40
0.284495
 50
268.171888
 51
283.540291
  0
ARC
  8
0
 62
     1
  6
CONTINUOUS
 10
0.075120
 20
1.828677
 30
0.000000
 40
0.202283
 50
85.209953
 51
120.091574
  0
ARC
  8
0
 62
     1
  6
CONTINUOUS
 10
0.066329
 20
1.883896
 30
0.000000
 40
0.151435
 50
127.711057
 51
160.757048
  0
ARC
  8
0
 62
     1
  6
CONTINUOUS
 10
0.368866
 20
1.782904
 30
0.000000
 40
0.470375
 50
161.288071
 51
172.011737
  0
ARC
  8
0
 62
     1
  6
CONTINUOUS
 10
-0.705505
 20
1.941562
 30
0.000000
 40
0.615669
 50
344.600576
 51
351.284639
  0
ARC
  8
0
 62
     1
  6
CONTINUOUS
 10
-0.356521
 20
1.887342
 30
0.000000
 40
0.267881
 50
292.883152
 51
335.926965
  0
ARC
  8
0
 62
     1
  6
CONTINUOUS
 10
-0.434379
 20
2.090361
 30
0.000000
 40
0.485252
 50
268.250768
 51
292.031268
  0
ARC
  8
0
 62
     1
  6
CONTINUOUS
 10
-2.355053
 20
2.695705
 30
0.000000
 40
0.009090
 50
34.172454
 51
160.332871
  0
ARC
  8
0
 62
     1
  6
CONTINUOUS
 10
-2.331744
 20
2.697509
 30
0.000000
 40
0.031893
 50
177.744696
 51
231.216158
  0
ARC
  8
0
 62
     1
  6
CONTINUOUS
 10
-2.243821
 20
2.766337
 30
0.000000
 40
0.142899
 50
220.967194
 51
258.485785
  0
ARC
  8
0
 62
     1
  6
CONTINUOUS
 10
-2.259663
 20
2.735844
 30
0.000000
 40
0.110262
 50
263.395276
 51
289.253950
  0
ARC
  8
0
 62
     1
  6
CONTINUOUS
 10
-2.304458
 20
2.862650
 30
0.000000
 40
0.244748
 50
289.365140
 51
305.475108
  0
ARC
  8
0
 62
     1
  6
CONTINUOUS
 10
-2.190406
 20
2.702781
 30
0.000000
 40
0.048365
 50
305.356060
 51
346.718704
  0
ARC
  8
0
 62
     1
  6
CONTINUOUS
 10
-2.157747
 20
2.695290
 30
0.000000
 40
0.014861
 50
345.903316
 51
402.591751
  0
ARC
  8
0
 62
     1
  6
CONTINUOUS
 10
-2.162602
 20
2.685090
 30
0.000000
 40
0.025687
 50
52.056829
 51
98.413609
  0
ARC
  8
0
 62
     1
  6
CONTINUOUS
 10
-2.009350
 20
2.257296
 30
0.000000
 40
0.479631
 50
109.108352
 51
112.540342
  0
ARC
  8
0
 62
     1
  6
CONTINUOUS
 10
-2.309285
 20
2.955829
 30
0.000000
 40
0.280669
 50
278.612596
 51
294.429262
  0
ARC
  8
0
 62
     1
  6
CONTINUOUS
 10
-2.280712
 20
2.784822
 30
0.000000
 40
0.107343
 50
231.502473
 51
277.202588
  0
ARC
  8
0
 62
     1
  6
CONTINUOUS
 10
-0.452533
 20
1.739878
 30
0.000000
 40
0.134584
 50
225.364084
 51
271.422995
  0
ARC
  8
0
 62
     1
  6
CONTINUOUS
 10
-0.597228
 20
1.602456
 30
0.000000
 40
0.065182
 50
39.720505
 51
112.078804
  0
ARC
  8
0
 62
     1
  6
CONTINUOUS
 10
-0.602221
 20
1.636033
 30
0.000000
 40
0.033168
 50
126.024584
 51
213.505505
  0
ARC
  8
0
 62
     1
  6
CONTINUOUS
 10
-0.513474
 20
1.673808
 30
0.000000
 40
0.129210
 50
205.724943
 51
230.354647
  0
ARC
  8
0
 62
     1
  6
CONTINUOUS
 10
-0.043736
 20
1.521686
 30
0.000000
 40
0.116028
 50
332.145222
 51
379.502019
  0
ARC
  8
0
 62
     1
  6
CONTINUOUS
 10
0.337317
 20
1.680472
 30
0.000000
 40
0.297023
 50
176.146197
 51
203.839638
  0
ARC
  8
0
 62
     1
  6
CONTINUOUS
 10
0.251668
 20
1.687618
 30
0.000000
 40
0.211092
 50
136.862908
 51
176.518966
  0
ARC
  8
0
 62
     1
  6
CONTINUOUS
 10
0.277577
 20
1.630203
 30
0.000000
 40
0.270339
 50
114.311167
 51
131.730983
  0
ARC
  8
0
 62
     1
  6
CONTINUOUS
 10
-0.063492
 20
2.338885
 30
0.000000
 40
0.516267
 50
296.427484
 51
300.928979
  0
ARC
  8
0
 62
     1
  6
CONTINUOUS
 10
0.216542
 20
1.880855
 30
0.000000
 40
0.021116
 50
351.688703
 51
494.062687
  0
ARC
  8
0
 62
     1
  6
CONTINUOUS
 10
0.056085
 20
1.917104
 30
0.000000
 40
0.185561
 50
324.598718
 51
347.772110
  0
ARC
  8
0
 62
     1
  6
CONTINUOUS
 10
0.468641
 20
1.637359
 30
0.000000
 40
0.312968
 50
146.607204
 51
166.056984
  0
ARC
  8
0
 62
     1
  6
CONTINUOUS
 10
0.985896
 20
1.514463
 30
0.000000
 40
0.844612
 50
166.420690
 51
173.363044
  0
ARC
  8
0
 62
     1
  6
CONTINUOUS
 10
-0.368493
 20
1.654188
 30
0.000000
 40
0.517154
 50
336.248221
 51
355.329797
  0
LINE
  8
0
 62
     1
  6
CONTINUOUS
 10
0.101929
 20
1.441606
 30
0.000000
 11
0.104858
 21
1.445891
 31
0.000000
  0
ARC
  8
0
 62
     1
  6
CONTINUOUS
 10
-0.063833
 20
1.540709
 30
0.000000
 40
0.193128
 50
310.385339
 51
329.126158
  0
ARC
  8
0
 62
     1
  6
CONTINUOUS
 10
0.029323
 20
1.435502
 30
0.000000
 40
0.052707
 50
240.606753
 51
307.350530
  0
ARC
  8
0
 62
     1
  6
CONTINUOUS
 10
-0.166576
 20
1.569139
 30
0.000000
 40
0.247290
 50
313.438594
 51
335.724894
  0
ARC
  8
0
 62
     1
  6
CONTINUOUS
 10
0.818839
 20
1.830803
 30
0.000000
 40
0.561279
 50
194.039018
 51
207.304200
  0
ARC
  8
0
 62
     1
  6
CONTINUOUS
 10
0.473484
 20
1.738936
 30
0.000000
 40
0.204023
 50
154.838127
 51
192.537403
  0
ARC
  8
0
 62
     1
  6
CONTINUOUS
 10
0.553618
 20
1.749245
 30
0.000000
 40
0.275609
 50
143.367199
 51
163.898700
  0
ARC
  8
0
 62
     1
  6
CONTINUOUS
 10
0.897447
 20
1.486012
 30
0.000000
 40
0.708617
 50
135.324151
 51
142.875521
  0
ARC
  8
0
 62
     1
  6
CONTINUOUS
 10
-0.012173
 20
2.393778
 30
0.000000
 40
0.576487
 50
314.731834
 51
325.743394
  0
ARC
  8
0
 62
     1
  6
CONTINUOUS
 10
0.258488
 20
2.202882
 30
0.000000
 40
0.245383
 50
327.010265
 51
355.157109
  0
ARC
  8
0
 62
    72
  6
CONTINUOUS
 10
-2.983778
 20
2.634463
 30
0.000000
 40
0.852140
 50
73.875183
 51
79.432014
  0
ARC
  8
0
 62
    72
  6
CONTINUOUS
 10
-2.677165
 20
4.284760
 30
0.000000
 40
0.826399
 50
253.377086
 51
259.519098
  0
ARC
  8
0
 62
    72
  6
CONTINUOUS
 10
-2.843845
 20
3.728812
 30
0.000000
 40
0.246003
 50
233.573746
 51
253.533792
  0
ARC
  8
0
 62
    72
  6
CONTINUOUS
 10
-3.000733
 20
3.518369
 30
0.000000
 40
0.016530
 50
49.142958
 51
209.927913
  0
ARC
  8
0
 62
    72
  6
CONTINUOUS
 10
-2.881757
 20
3.594030
 30
0.000000
 40
0.157512
 50
212.188689
 51
248.072993
  0
ARC
  8
0
 62
    72
  6
CONTINUOUS
 10
-2.746531
 20
3.937150
 30
0.000000
 40
0.526314
 50
248.365408
 51
259.411266
  0
ARC
  8
0
 62
    72
  6
CONTINUOUS
 10
-2.913563
 20
3.003723
 30
0.000000
 40
0.421975
 50
63.900884
 51
80.407614
  0
ARC
  8
0
 62
    72
  6
CONTINUOUS
 10
-2.800052
 20
3.250598
 30
0.000000
 40
0.150484
 50
13.353975
 51
61.360649
  0
ARC
  8
0
 62
    72
  6
CONTINUOUS
 10
-2.492380
 20
3.310436
 30
0.000000
 40
0.163195
 50
188.840451
 51
217.883963
  0
ARC
  8
0
 62
    72
  6
CONTINUOUS
 10
-2.752895
 20
3.294220
 30
0.000000
 40
0.156216
 50
327.473256
 51
352.526744
  0
ARC
  8
0
 62
    72
  6
CONTINUOUS
 10
-2.697895
 20
3.278998
 30
0.000000
 40
0.100019
 50
357.079167
 51
387.940990
  0
ARC
  8
0
 62
    72
  6
CONTINUOUS
 10
-2.827281
 20
3.217672
 30
0.000000
 40
0.243143
 50
26.421419
 51
41.842525
  0
ARC
  8
0
 62
    72
  6
CONTINUOUS
 10
-2.838826
 20
3.220358
 30
0.000000
 40
0.250141
 50
39.619587
 51
68.491009
  0
ARC
  8
0
 62
     1
  6
CONTINUOUS
 10
0.429035
 20
2.215103
 30
0.000000
 40
0.080963
 50
335.995016
 51
374.727290
  0
ARC
  8
0
 62
     1
  6
CONTINUOUS
 10
0.324913
 20
2.179428
 30
0.000000
 40
0.190902
 50
17.139046
 51
32.213789
  0
ARC
  8
0
 62
     1
  6
CONTINUOUS
 10
0.613874
 20
2.366740
 30
0.000000
 40
0.153494
 50
188.199402
 51
213.870702
  0
ARC
  8
0
 62
     1
  6
CONTINUOUS
 10
0.475285
 20
2.346769
 30
0.000000
 40
0.013473
 50
71.283359
 51
188.192632
  0
ARC
  8
0
 62
     1
  6
CONTINUOUS
 10
0.387992
 20
2.084232
 30
0.000000
 40
0.290142
 50
44.619483
 51
71.593084
  0
ARC
  8
0
 62
     1
  6
CONTINUOUS
 10
0.450470
 20
2.145337
 30
0.000000
 40
0.202752
 50
7.060892
 51
44.729833
  0
ARC
  8
0
 62
     1
  6
CONTINUOUS
 10
0.345680
 20
2.151130
 30
0.000000
 40
0.306601
 50
328.872992
 51
363.577251
  0
ARC
  8
0
 62
     1
  6
CONTINUOUS
 10
0.367048
 20
2.149701
 30
0.000000
 40
0.287739
 50
310.860887
 51
326.916577
  0
ARC
  8
0
 62
     1
  6
CONTINUOUS
 10
-0.215237
 20
2.807567
 30
0.000000
 40
1.166271
 50
306.980347
 51
311.351714
  0
ARC
  8
0
 62
     1
  6
CONTINUOUS
 10
1.141549
 20
1.002482
 30
0.000000
 40
1.091871
 50
126.876706
 51
131.826063
  0
ARC
  8
0
 62
     1
  6
CONTINUOUS
 10
0.585856
 20
1.619240
 30
0.000000
 40
0.261719
 50
131.215555
 51
149.760123
  0
ARC
  8
0
 62
     1
  6
CONTINUOUS
 10
0.466122
 20
1.690449
 30
0.000000
 40
0.122421
 50
150.330614
 51
187.040238
  0
ARC
  8
0
 62
     1
  6
CONTINUOUS
 10
0.533671
 20
1.708073
 30
0.000000
 40
0.191842
 50
189.792442
 51
220.277444
  0
ARC
  8
0
 62
     1
  6
CONTINUOUS
 10
0.507618
 20
1.757165
 30
0.000000
 40
0.210815
 50
235.202500
 51
237.510525
  0
ARC
  8
0
 62
     1
  6
CONTINUOUS
 10
0.362631
 20
1.521478
 30
0.000000
 40
0.066004
 50
39.270729
 51
61.248237
  0
ARC
  8
0
 62
     1
  6
CONTINUOUS
 10
0.399077
 20
1.553919
 30
0.000000
 40
0.017375
 50
309.699105
 51
392.512037
  0
ARC
  8
0
 62
     1
  6
CONTINUOUS
 10
0.385643
 20
1.591334
 30
0.000000
 40
0.056398
 50
244.391754
 51
295.783842
  0
ARC
  8
0
 62
     1
  6
CONTINUOUS
 10
0.392028
 20
1.621237
 30
0.000000
 40
0.086422
 50
213.660221
 51
249.148628
  0
ARC
  8
0
 62
     1
  6
CONTINUOUS
 10
-0.935966
 20
2.489286
 30
0.000000
 40
0.157742
 50
226.979839
 51
256.424014
  0
ARC
  8
0
 62
     1
  6
CONTINUOUS
 10
-0.986912
 20
2.434992
 30
0.000000
 40
0.083289
 50
190.037011
 51
227.120429
  0
ARC
  8
0
 62
     1
  6
CONTINUOUS
 10
-0.842594
 20
2.455381
 30
0.000000
 40
0.229007
 50
175.804603
 51
188.767111
  0
ARC
  8
0
 62
     1
  6
CONTINUOUS
 10
-1.194956
 20
2.491492
 30
0.000000
 40
0.125470
 50
351.124748
 51
390.405973
  0
ARC
  8
0
 62
     1
  6
CONTINUOUS
 10
-0.895079
 20
2.716154
 30
0.000000
 40
0.250413
 50
219.116156
 51
220.058552
  0
ARC
  8
0
 62
     1
  6
CONTINUOUS
 10
-1.143050
 20
2.518888
 30
0.000000
 40
0.066520
 50
36.194796
 51
54.295079
  0
ARC
  8
0
 62
     1
  6
CONTINUOUS
 10
-1.112799
 20
2.560847
 30
0.000000
 40
0.014793
 50
54.592577
 51
132.979563
  0
ARC
  8
0
 62
     1
  6
CONTINUOUS
 10
-1.749258
 20
2.579931
 30
0.000000
 40
0.626428
 50
354.152109
 51
359.244407
  0
ARC
  8
0
 62
     1
  6
CONTINUOUS
 10
-0.636167
 20
2.460227
 30
0.000000
 40
0.493099
 50
173.493298
 51
182.690518
  0
ARC
  8
0
 62
     1
  6
CONTINUOUS
 10
-0.975695
 20
2.444343
 30
0.000000
 40
0.153200
 50
182.716942
 51
212.025177
  0
ARC
  8
0
 62
     1
  6
CONTINUOUS
 10
-0.898654
 20
2.531190
 30
0.000000
 40
0.266593
 50
219.087125
 51
256.098435
  0
ARC
  8
0
 62
     1
  6
CONTINUOUS
 10
-0.964001
 20
2.380753
 30
0.000000
 40
0.108356
 50
270.686017
 51
318.370483
  0
ARC
  8
0
 62
     1
  6
CONTINUOUS
 10
-1.164839
 20
2.551412
 30
0.000000
 40
0.371890
 50
319.273167
 51
333.548141
  0
LINE
  8
0
 62
     1
  6
CONTINUOUS
 10
-0.831882
 20
2.385755
 30
0.000000
 11
-0.831491
 21
2.386462
 31
0.000000
  0
ARC
  8
0
 62
     1
  6
CONTINUOUS
 10
-0.773761
 20
2.302846
 30
0.000000
 40
0.101609
 50
104.453427
 51
124.622027
  0
ARC
  8
0
 62
     1
  6
CONTINUOUS
 10
-0.835918
 20
2.533923
 30
0.000000
 40
0.137692
 50
285.500028
 51
302.898880
  0
ARC
  8
0
 62
     1
  6
CONTINUOUS
 10
-0.784918
 20
2.452466
 30
0.000000
 40
0.041621
 50
304.857509
 51
362.992482
  0
ARC
  8
0
 62
     1
  6
CONTINUOUS
 10
-0.686348
 20
2.492658
 30
0.000000
 40
0.068521
 50
170.775083
 51
213.700545
  0
ARC
  8
0
 62
     1
  6
CONTINUOUS
 10
-0.831041
 20
2.514265
 30
0.000000
 40
0.077787
 50
352.150960
 51
388.489945
  0
ARC
  8
0
 62
     1
  6
CONTINUOUS
 10
-0.985894
 20
2.401671
 30
0.000000
 40
0.268770
 50
33.847227
 51
73.549095
  0
ARC
  8
0
 62
     1
  6
CONTINUOUS
 10
-0.910405
 20
2.661283
 30
0.000000
 40
0.001948
 50
165.708535
 51
288.711839
  0
ARC
  8
0
 62
     1
  6
CONTINUOUS
 10
-0.900273
 20
2.656697
 30
0.000000
 40
0.013044
 50
130.082200
 51
157.145076
  0
ARC
  8
0
 62
     1
  6
CONTINUOUS
 10
-0.873790
 20
2.630125
 30
0.000000
 40
0.050525
 50
114.681518
 51
133.660215
  0
ARC
  8
0
 62
     1
  6
CONTINUOUS
 10
-0.915602
 20
2.708114
 30
0.000000
 40
0.038186
 50
302.849849
 51
408.725070
  0
ARC
  8
0
 62
     1
  6
CONTINUOUS
 10
-0.891143
 20
2.704479
 30
0.000000
 40
0.032343
 50
88.703141
 51
159.054686
  0
ARC
  8
0
 62
     1
  6
CONTINUOUS
 10
-0.963475
 20
2.737123
 30
0.000000
 40
0.047107
 50
293.112191
 51
333.415082
  0
ARC
  8
0
 62
     1
  6
CONTINUOUS
 10
-0.991454
 20
2.818081
 30
0.000000
 40
0.132688
 50
257.227887
 51
290.500766
  0
ARC
  8
0
 62
     1
  6
CONTINUOUS
 10
-1.040286
 20
2.608364
 30
0.000000
 40
0.082645
 50
76.353894
 51
103.243185
  0
ARC
  8
0
 62
     1
  6
CONTINUOUS
 10
-1.052393
 20
2.672074
 30
0.000000
 40
0.018076
 50
112.184785
 51
160.368822
  0
ARC
  8
0
 62
     1
  6
CONTINUOUS
 10
-1.019345
 20
2.662051
 30
0.000000
 40
0.052596
 50
162.180878
 51
187.742859
  0
ARC
  8
0
 62
     1
  6
CONTINUOUS
 10
-1.037587
 20
2.667541
 30
0.000000
 40
0.036134
 50
200.366795
 51
255.074907
  0
ARC
  8
0
 62
     1
  6
CONTINUOUS
 10
-1.014330
 20
2.759769
 30
0.000000
 40
0.131246
 50
255.634480
 51
271.024101
  0
ARC
  8
0
 62
     1
  6
CONTINUOUS
 10
-1.016614
 20
2.370754
 30
0.000000
 40
0.257831
 50
85.617300
 51
88.971156
  0
ARC
  8
0
 62
     1
  6
CONTINUOUS
 10
-0.957920
 20
2.596234
 30
0.000000
 40
0.050186
 50
76.175766
 51
140.979812
  0
ARC
  8
0
 62
     1
  6
CONTINUOUS
 10
-0.995451
 20
2.512431
 30
0.000000
 40
0.141486
 50
47.538992
 51
69.511504
  0
ARC
  8
0
 62
     1
  6
CONTINUOUS
 10
-0.794215
 20
2.734837
 30
0.000000
 40
0.158453
 50
228.147974
 51
247.547694
  0
ARC
  8
0
 62
     1
  6
CONTINUOUS
 10
-0.948007
 20
2.471768
 30
0.000000
 40
0.149340
 50
22.235390
 51
51.347684
  0
ARC
  8
0
 62
     1
  6
CONTINUOUS
 10
-0.871821
 20
2.504765
 30
0.000000
 40
0.066355
 50
311.891241
 51
380.755921
  0
ARC
  8
0
 62
     1
  6
CONTINUOUS
 10
-0.818261
 20
2.373642
 30
0.000000
 40
0.082250
 50
96.459601
 51
137.432646
  0
ARC
  8
0
 62
     1
  6
CONTINUOUS
 10
-0.648658
 20
2.211085
 30
0.000000
 40
0.317161
 50
136.531000
 51
147.626703
  0
ARC
  8
0
 62
     1
  6
CONTINUOUS
 10
-1.115266
 20
2.504874
 30
0.000000
 40
0.234236
 50
316.826090
 51
328.045030
  0
ARC
  8
0
 62
     1
  6
CONTINUOUS
 10
-0.964912
 20
2.360712
 30
0.000000
 40
0.026046
 50
251.924369
 51
321.803903
  0
ARC
  8
0
 62
     1
  6
CONTINUOUS
 10
-1.187479
 20
2.118784
 30
0.000000
 40
0.074848
 50
166.522621
 51
213.215359
  0
ARC
  8
0
 62
     1
  6
CONTINUOUS
 10
-1.147248
 20
2.144579
 30
0.000000
 40
0.122637
 50
213.001462
 51
240.279016
  0
ARC
  8
0
 62
     1
  6
CONTINUOUS
 10
-1.243143
 20
2.043975
 30
0.000000
 40
0.035587
 50
350.456266
 51
395.558029
  0
ARC
  8
0
 62
     1
  6
CONTINUOUS
 10
-1.175854
 20
2.089974
 30
0.000000
 40
0.045936
 50
177.094101
 51
213.425488
  0
ARC
  8
0
 62
     1
  6
CONTINUOUS
 10
-1.512318
 20
2.176511
 30
0.000000
 40
0.302543
 50
343.839141
 51
348.171790
  0
ARC
  8
0
 62
    72
  6
CONTINUOUS
 10
2.473986
 20
0.035370
 30
0.000000
 40
0.190627
 50
63.958294
 51
97.561175
  0
ARC
  8
0
 62
    72
  6
CONTINUOUS
 10
2.522850
 20
-0.314366
 30
0.000000
 40
0.543757
 50
97.816057
 51
108.977152
  0
LINE
  8
0
 62
    72
  6
CONTINUOUS
 10
2.346025
 20
0.199837
 30
0.000000
 11
2.339931
 21
0.197953
 31
0.000000
  0
ARC
  8
0
 62
    72
  6
CONTINUOUS
 10
2.316857
 20
0.335090
 30
0.000000
 40
0.139065
 50
235.185343
 51
279.550871
  0
ARC
  8
0
 62
    72
  6
CONTINUOUS
 10
2.482681
 20
0.555295
 30
0.000000
 40
0.414656
 50
219.159474
 51
233.745132
  0
ARC
  8
0
 62
    72
  6
CONTINUOUS
 10
1.902976
 20
0.091462
 30
0.000000
 40
0.327806
 50
38.037077
 51
57.952997
  0
ARC
  8
0
 62
    72
  6
CONTINUOUS
 10
2.243854
 20
0.358446
 30
0.000000
 40
0.167293
 50
176.274949
 51
221.102883
  0
ARC
  8
0
 62
    72
  6
CONTINUOUS
 10
2.404681
 20
0.479730
 30
0.000000
 40
0.368494
 50
218.872973
 51
240.055432
  0
ARC
  8
0
 62
    72
  6
CONTINUOUS
 10
2.641990
 20
0.771284
 30
0.000000
 40
0.378026
 50
257.576286
 51
279.292848
  0
ARC
  8
0
 62
    72
  6
CONTINUOUS
 10
2.606060
 20
0.634913
 30
0.000000
 40
0.237189
 50
223.566465
 51
258.965374
  0
ARC
  8
0
 62
    72
  6
CONTINUOUS
 10
2.462468
 20
0.456269
 30
0.000000
 40
0.032084
 50
80.938776
 51
151.774194
  0
ARC
  8
0
 62
     1
  6
CONTINUOUS
 10
-1.027064
 20
2.080346
 30
0.000000
 40
0.192194
 50
155.935105
 51
169.764851
  0
ARC
  8
0
 62
     1
  6
CONTINUOUS
 10
-1.162407
 20
2.141644
 30
0.000000
 40
0.043626
 50
100.807953
 51
156.961124
  0
ARC
  8
0
 62
     1
  6
CONTINUOUS
 10
-1.182766
 20
2.206646
 30
0.000000
 40
0.025277
 50
298.802430
 51
371.119309
  0
ARC
  8
0
 62
     1
  6
CONTINUOUS
 10
-1.176487
 20
2.214748
 30
0.000000
 40
0.018803
 50
350.117700
 51
458.246763
  0
ARC
  8
0
 62
     1
  6
CONTINUOUS
 10
-1.154443
 20
2.142851
 30
0.000000
 40
0.093826
 50
105.289708
 51
144.850132
  0
ARC
  8
0
 62
     1
  6
CONTINUOUS
 10
-1.059082
 20
2.076968
 30
0.000000
 40
0.209730
 50
145.131931
 51
163.587243
  0
ARC
  8
0
 62
     1
  6
CONTINUOUS
 10
-0.942253
 20
2.025611
 30
0.000000
 40
0.146679
 50
161.883272
 51
192.678477
  0
ARC
  8
0
 62
     1
  6
CONTINUOUS
 10
-1.211311
 20
2.122581
 30
0.000000
 40
0.180411
 50
314.279859
 51
353.039969
  0
ARC
  8
0
 62
     1
  6
CONTINUOUS
 10
-1.224031
 20
2.110202
 30
0.000000
 40
0.192036
 50
357.169622
 51
395.976719
  0
ARC
  8
0
 62
     1
  6
CONTINUOUS
 10
-0.996939
 20
2.245639
 30
0.000000
 40
0.075172
 50
175.682940
 51
197.515561
  0
ARC
  8
0
 62
     1
  6
CONTINUOUS
 10
-1.152295
 20
2.256314
 30
0.000000
 40
0.080554
 50
356.429386
 51
373.631123
  0
ARC
  8
0
 62
     1
  6
CONTINUOUS
 10
-1.095090
 20
2.269233
 30
0.000000
 40
0.021935
 50
16.051083
 51
76.001644
  0
ARC
  8
0
 62
     1
  6
CONTINUOUS
 10
-1.027487
 20
2.226085
 30
0.000000
 40
0.089624
 50
134.034590
 51
183.155109
  0
ARC
  8
0
 62
     1
  6
CONTINUOUS
 10
-0.867207
 20
2.246290
 30
0.000000
 40
0.251030
 50
185.747180
 51
202.571933
  0
ARC
  8
0
 62
     1
  6
CONTINUOUS
 10
-1.287030
 20
2.067226
 30
0.000000
 40
0.205410
 50
1.114517
 51
23.743798
  0
ARC
  8
0
 62
     1
  6
CONTINUOUS
 10
-1.031572
 20
2.112856
 30
0.000000
 40
0.147017
 50
13.688260
 51
42.164179
  0
ARC
  8
0
 62
     1
  6
CONTINUOUS
 10
-0.987530
 20
2.148792
 30
0.000000
 40
0.090297
 50
44.021501
 51
89.753982
  0
ARC
  8
0
 62
     1
  6
CONTINUOUS
 10
-0.975188
 20
2.210660
 30
0.000000
 40
0.030839
 50
112.808271
 51
176.659922
  0
ARC
  8
0
 62
     1
  6
CONTINUOUS
 10
-0.965478
 20
2.200363
 30
0.000000
 40
0.042264
 50
163.372551
 51
213.161344
  0
ARC
  8
0
 62
     1
  6
CONTINUOUS
 10
-1.235148
 20
1.934793
 30
0.000000
 40
0.337156
 50
22.802315
 51
45.980924
  0
ARC
  8
0
 62
     1
  6
CONTINUOUS
 10
-0.386513
 20
2.321810
 30
0.000000
 40
0.595798
 50
205.484385
 51
213.113593
  0
ARC
  8
0
 62
     1
  6
CONTINUOUS
 10
-1.223051
 20
2.064917
 30
0.000000
 40
0.344404
 50
348.512114
 51
373.898890
  0
ARC
  8
0
 62
     1
  6
CONTINUOUS
 10
-1.328891
 20
2.481781
 30
0.000000
 40
0.176071
 50
281.570597
 51
306.199168
  0
ARC
  8
0
 62
     1
  6
CONTINUOUS
 10
-1.258825
 20
2.401591
 30
0.000000
 40
0.070580
 50
298.724628
 51
315.883064
  0
ARC
  8
0
 62
     1
  6
CONTINUOUS
 10
-1.139897
 20
2.284529
 30
0.000000
 40
0.096299
 50
118.838275
 51
135.137743
  0
ARC
  8
0
 62
     1
  6
CONTINUOUS
 10
-1.180440
 20
2.359238
 30
0.000000
 40
0.011311
 50
12.621514
 51
121.472055
  0
ARC
  8
0
 62
     1
  6
CONTINUOUS
 10
-1.288644
 20
2.373641
 30
0.000000
 40
0.119838
 50
291.732106
 51
354.286003
  0
ARC
  8
0
 62
     1
  6
CONTINUOUS
 10
-1.297695
 20
2.437745
 30
0.000000
 40
0.183379
 50
238.392406
 51
286.937346
  0
ARC
  8
0
 62
     1
  6
CONTINUOUS
 10
-1.278535
 20
2.426199
 30
0.000000
 40
0.184945
 50
198.368593
 51
231.445333
  0
ARC
  8
0
 62
     1
  6
CONTINUOUS
 10
-1.196502
 20
2.454062
 30
0.000000
 40
0.271579
 50
176.583907
 51
198.493515
  0
ARC
  8
0
 62
     1
  6
CONTINUOUS
 10
-1.450419
 20
2.659163
 30
0.000000
 40
0.189698
 50
207.928262
 51
264.804094
  0
ARC
  8
0
 62
     1
  6
CONTINUOUS
 10
-1.491412
 20
2.650855
 30
0.000000
 40
0.150058
 50
137.843995
 51
212.460873
  0
ARC
  8
0
 62
     1
  6
CONTINUOUS
 10
-1.470596
 20
2.642627
 30
0.000000
 40
0.171192
 50
100.374496
 51
140.479404
  0
ARC
  8
0
 62
     1
  6
CONTINUOUS
 10
-1.434642
 20
2.484300
 30
0.000000
 40
0.333476
 50
80.806609
 51
101.552253
  0
ARC
  8
0
 62
     1
  6
CONTINUOUS
 10
-1.397780
 20
2.761859
 30
0.000000
 40
0.054181
 50
25.827245
 51
72.362583
  0
ARC
  8
0
 62
     1
  6
CONTINUOUS
 10
-1.367029
 20
2.770553
 30
0.000000
 40
0.023387
 50
307.736934
 51
399.607023
  0
ARC
  8
0
 62
     1
  6
CONTINUOUS
 10
-1.443494
 20
2.417437
 30
0.000000
 40
0.346716
 50
74.821651
 51
94.622473
  0
ARC
  8
0
 62
     1
  6
CONTINUOUS
 10
-1.461092
 20
2.605382
 30
0.000000
 40
0.157983
 50
93.754176
 51
125.238938
  0
ARC
  8
0
 62
     1
  6
CONTINUOUS
 10
-1.503408
 20
2.667670
 30
0.000000
 40
0.082704
 50
126.193332
 51
174.451016
  0
ARC
  8
0
 62
     1
  6
CONTINUOUS
 10
-1.457847
 20
2.669999
 30
0.000000
 40
0.128003
 50
177.462153
 51
215.192876
  0
ARC
  8
0
 62
     1
  6
CONTINUOUS
 10
-1.487026
 20
2.650262
 30
0.000000
 40
0.092785
 50
215.616923
 51
247.881441
  0
ARC
  8
0
 62
     1
  6
CONTINUOUS
 10
-1.405296
 20
2.851206
 30
0.000000
 40
0.309714
 50
247.871349
 51
257.748293
  0
ARC
  8
0
 62
     1
  6
CONTINUOUS
 10
-1.504986
 20
2.359975
 30
0.000000
 40
0.191605
 50
59.873662
 51
79.789127
  0
ARC
  8
0
 62
     1
  6
CONTINUOUS
 10
-1.446768
 20
2.471647
 30
0.000000
 40
0.066044
 50
355.816055
 51
414.926413
  0
ARC
  8
0
 62
     1
  6
CONTINUOUS
 10
-2.195019
 20
2.612155
 30
0.000000
 40
0.826988
 50
348.521655
 51
349.878861
  0
ARC
  8
0
 62
     1
  6
CONTINUOUS
 10
-1.122859
 20
2.384415
 30
0.000000
 40
0.269228
 50
166.429601
 51
179.993757
  0
ARC
  8
0
 62
    72
  6
CONTINUOUS
 10
-3.311279
 20
3.615240
 30
0.000000
 40
0.594050
 50
248.771462
 51
260.446483
  0
ARC
  8
0
 62
    72
  6
CONTINUOUS
 10
-3.466827
 20
3.220627
 30
0.000000
 40
0.169905
 50
209.286165
 51
249.482406
  0
ARC
  8
0
 62
    72
  6
CONTINUOUS
 10
-3.169402
 20
3.034251
 30
0.000000
 40
0.079558
 50
61.361824
 51
89.064073
  0
ARC
  8
0
 62
    72
  6
CONTINUOUS
 10
-3.100532
 20
3.153885
 30
0.000000
 40
0.058530
 50
238.319150
 51
279.523853
  0
ARC
  8
0
 62
    72
  6
CONTINUOUS
 10
-3.092291
 20
3.104809
 30
0.000000
 40
0.008768
 50
279.479368
 51
363.496340
  0
ARC
  8
0
 62
    72
  6
CONTINUOUS
 10
-3.111402
 20
3.097106
 30
0.000000
 40
0.029054
 50
16.471988
 51
52.429633
  0
ARC
  8
0
 62
    72
  6
CONTINUOUS
 10
-3.175228
 20
3.034919
 30
0.000000
 40
0.117944
 50
46.261923
 51
80.935274
  0
ARC
  8
0
 62
    72
  6
CONTINUOUS
 10
-3.190161
 20
2.884383
 30
0.000000
 40
0.269102
 50
82.845661
 51
96.576529
  0
ARC
  8
0
 62
    72
  6
CONTINUOUS
 10
-3.250417
 20
3.308696
 30
0.000000
 40
0.159718
 50
242.347203
 51
280.620114
  0
ARC
  8
0
 62
    72
  6
CONTINUOUS
 10
-3.337304
 20
3.152888
 30
0.000000
 40
0.019190
 50
48.324929
 51
125.195470
  0
ARC
  8
0
 62
     1
  6
CONTINUOUS
 10
-1.313884
 20
2.384949
 30
0.000000
 40
0.078205
 50
180.369510
 51
226.262918
  0
ARC
  8
0
 62
     1
  6
CONTINUOUS
 10
-1.310455
 20
2.397714
 30
0.000000
 40
0.090023
 50
230.306531
 51
280.807042
  0
ARC
  8
0
 62
     1
  6
CONTINUOUS
 10
-1.693036
 20
2.687552
 30
0.000000
 40
0.135534
 50
61.485674
 51
99.884484
  0
ARC
  8
0
 62
     1
  6
CONTINUOUS
 10
-1.691978
 20
2.845907
 30
0.000000
 40
0.074778
 50
287.905123
 51
328.329529
  0
ARC
  8
0
 62
     1
  6
CONTINUOUS
 10
-1.755222
 20
3.041915
 30
0.000000
 40
0.280737
 50
276.357112
 51
287.888803
  0
ARC
  8
0
 62
     1
  6
CONTINUOUS
 10
-1.705372
 20
2.546111
 30
0.000000
 40
0.217604
 50
94.947238
 51
114.398610
  0
ARC
  8
0
 62
     1
  6
CONTINUOUS
 10
-1.755598
 20
2.656972
 30
0.000000
 40
0.095896
 50
114.430748
 51
140.627878
  0
ARC
  8
0
 62
    72
  6
CONTINUOUS
 10
2.437507
 20
0.315781
 30
0.000000
 40
0.174769
 50
64.256172
 51
80.111386
  0
ARC
  8
0
 62
    72
  6
CONTINUOUS
 10
2.687985
 20
0.878722
 30
0.000000
 40
0.441496
 50
246.709174
 51
251.070232
  0
ARC
  8
0
 62
    72
  6
CONTINUOUS
 10
2.617524
 20
0.713153
 30
0.000000
 40
0.262343
 50
253.896925
 51
287.686619
  0
ARC
  8
0
 62
    72
  6
CONTINUOUS
 10
2.597315
 20
0.780032
 30
0.000000
 40
0.332203
 50
287.502984
 51
313.652836
  0
ARC
  8
0
 62
    72
  6
CONTINUOUS
 10
2.846193
 20
0.515135
 30
0.000000
 40
0.031380
 50
54.486094
 51
128.564547
  0
ARC
  8
0
 62
    72
  6
CONTINUOUS
 10
2.855716
 20
0.527044
 30
0.000000
 40
0.016176
 50
357.040281
 51
417.441839
  0
ARC
  8
0
 62
    72
  6
CONTINUOUS
 10
2.844028
 20
0.532073
 30
0.000000
 40
0.028454
 50
298.838302
 51
348.105626
  0
ARC
  8
0
 62
    72
  6
CONTINUOUS
 10
3.047336
 20
0.270740
 30
0.000000
 40
0.303035
 50
128.727266
 51
137.100182
  0
ARC
  8
0
 62
    72
  6
CONTINUOUS
 10
2.484247
 20
0.798213
 30
0.000000
 40
0.468523
 50
307.775026
 51
316.721913
  0
ARC
  8
0
 62
    72
  6
CONTINUOUS
 10
2.681504
 20
0.540990
 30
0.000000
 40
0.144386
 50
278.575603
 51
308.429499
  0
ARC
  8
0
 62
    72
  6
CONTINUOUS
 10
2.674471
 20
0.634388
 30
0.000000
 40
0.480759
 50
201.464753
 51
220.578419
  0
ARC
  8
0
 62
    72
  6
CONTINUOUS
 10
2.290862
 20
0.349979
 30
0.000000
 40
0.033807
 50
229.619797
 51
303.105724
  0
ARC
  8
0
 62
    72
  6
CONTINUOUS
 10
2.336109
 20
0.424843
 30
0.000000
 40
0.120966
 50
210.172664
 51
236.281797
  0
ARC
  8
0
 62
    72
  6
CONTINUOUS
 10
1.465699
 20
-0.017529
 30
0.000000
 40
0.855628
 50
26.484622
 51
46.133936
  0
ARC
  8
0
 62
    72
  6
CONTINUOUS
 10
2.080552
 20
0.615506
 30
0.000000
 40
0.027236
 50
148.827427
 51
216.393387
  0
ARC
  8
0
 62
    72
  6
CONTINUOUS
 10
2.075320
 20
0.612953
 30
0.000000
 40
0.024573
 50
64.888967
 51
137.344376
  0
ARC
  8
0
 62
    72
  6
CONTINUOUS
 10
1.973909
 20
0.418718
 30
0.000000
 40
0.243668
 50
34.573117
 51
62.678424
  0
ARC
  8
0
 62
    72
  6
CONTINUOUS
 10
1.675242
 20
0.227620
 30
0.000000
 40
0.598154
 50
22.701377
 51
33.411094
  0
ARC
  8
0
 62
    72
  6
CONTINUOUS
 10
0.747799
 20
2.002727
 30
0.000000
 40
1.644965
 50
317.718303
 51
318.136332
  0
ARC
  8
0
 62
    72
  6
CONTINUOUS
 10
2.104959
 20
0.751202
 30
0.000000
 40
0.201532
 50
134.056549
 51
159.025339
  0
ARC
  8
0
 62
    72
  6
CONTINUOUS
 10
1.905821
 20
0.825797
 30
0.000000
 40
0.011231
 50
225.921421
 51
347.369191
  0
ARC
  8
0
 62
    72
  6
CONTINUOUS
 10
1.922551
 20
0.840478
 30
0.000000
 40
0.033465
 50
159.241014
 51
222.828614
  0
ARC
  8
0
 62
    72
  6
CONTINUOUS
 10
2.266896
 20
0.683705
 30
0.000000
 40
0.411753
 50
142.011288
 51
155.823222
  0
ARC
  8
0
 62
    72
  6
CONTINUOUS
 10
2.107907
 20
0.813761
 30
0.000000
 40
0.206451
 50
125.240058
 51
143.300028
  0
ARC
  8
0
 62
    72
  6
CONTINUOUS
 10
2.026376
 20
0.933378
 30
0.000000
 40
0.061759
 50
77.249720
 51
127.494396
  0
ARC
  8
0
 62
     1
  6
CONTINUOUS
 10
-1.873385
 20
2.747536
 30
0.000000
 40
0.052819
 50
276.163929
 51
325.743103
  0
ARC
  8
0
 62
     1
  6
CONTINUOUS
 10
-1.683146
 20
2.627285
 30
0.000000
 40
0.196606
 50
99.709095
 51
159.846525
  0
ARC
  8
0
 62
     1
  6
CONTINUOUS
 10
-1.669350
 20
2.820514
 30
0.000000
 40
0.138942
 50
36.948778
 51
57.731473
  0
ARC
  8
0
 62
     1
  6
CONTINUOUS
 10
-1.609478
 20
2.865049
 30
0.000000
 40
0.064325
 50
356.252245
 51
397.303628
  0
ARC
  8
0
 62
     1
  6
CONTINUOUS
 10
-1.588005
 20
2.872991
 30
0.000000
 40
0.044409
 50
306.406058
 51
344.126522
  0
ARC
  8
0
 62
     1
  6
CONTINUOUS
 10
-1.577251
 20
2.856169
 30
0.000000
 40
0.024523
 50
243.047497
 51
309.512540
  0
ARC
  8
0
 62
     1
  6
CONTINUOUS
 10
-1.334041
 20
3.250087
 30
0.000000
 40
0.487393
 50
228.432775
 51
238.546473
  0
ARC
  8
0
 62
     1
  6
CONTINUOUS
 10
-1.873783
 20
2.662280
 30
0.000000
 40
0.310815
 50
45.885442
 51
72.537133
  0
ARC
  8
0
 62
     1
  6
CONTINUOUS
 10
-1.744353
 20
2.937938
 30
0.000000
 40
0.041730
 50
91.667220
 51
150.051662
  0
ARC
  8
0
 62
     1
  6
CONTINUOUS
 10
-1.737898
 20
2.798737
 30
0.000000
 40
0.181075
 50
77.940279
 51
92.427555
  0
ARC
  8
0
 62
     1
  6
CONTINUOUS
 10
-1.646415
 20
3.270727
 30
0.000000
 40
0.299751
 50
259.689436
 51
263.817265
  0
ARC
  8
0
 62
     1
  6
CONTINUOUS
 10
-1.728408
 20
2.735309
 30
0.000000
 40
0.242559
 50
56.681000
 51
78.174044
  0
ARC
  8
0
 62
     1
  6
CONTINUOUS
 10
-1.562691
 20
2.998913
 30
0.000000
 40
0.055724
 50
316.577063
 51
346.987536
  0
ARC
  8
0
 62
     1
  6
CONTINUOUS
 10
-1.536426
 20
2.975180
 30
0.000000
 40
0.020350
 50
234.070469
 51
314.279202
  0
ARC
  8
0
 62
    72
  6
CONTINUOUS
 10
2.040385
 20
0.979983
 30
0.000000
 40
0.013636
 50
349.504625
 51
451.590022
  0
ARC
  8
0
 62
    72
  6
CONTINUOUS
 10
1.940914
 20
1.054095
 30
0.000000
 40
0.136414
 50
299.836446
 51
325.840381
  0
ARC
  8
0
 62
    72
  6
CONTINUOUS
 10
2.076528
 20
0.820463
 30
0.000000
 40
0.133729
 50
120.436364
 51
140.822808
  0
ARC
  8
0
 62
    72
  6
CONTINUOUS
 10
2.235769
 20
0.927615
 30
0.000000
 40
0.029263
 50
168.381392
 51
237.657155
  0
ARC
  8
0
 62
    72
  6
CONTINUOUS
 10
2.315157
 20
0.918457
 30
0.000000
 40
0.109095
 50
149.098954
 51
172.069526
  0
ARC
  8
0
 62
    72
  6
CONTINUOUS
 10
2.474954
 20
0.850634
 30
0.000000
 40
0.282052
 50
129.942204
 51
153.953484
  0
ARC
  8
0
 62
    72
  6
CONTINUOUS
 10
2.386324
 20
0.957963
 30
0.000000
 40
0.142865
 50
85.502568
 51
130.324989
  0
ARC
  8
0
 62
    72
  6
CONTINUOUS
 10
2.307072
 20
0.569271
 30
0.000000
 40
0.538764
 50
69.078534
 51
80.334742
  0
ARC
  8
0
 62
    72
  6
CONTINUOUS
 10
2.697847
 20
1.602350
 30
0.000000
 40
0.565759
 50
249.472359
 51
257.453183
  0
ARC
  8
0
 62
    72
  6
CONTINUOUS
 10
2.615674
 20
1.240166
 30
0.000000
 40
0.194378
 50
257.904351
 51
281.185037
  0
ARC
  8
0
 62
    72
  6
CONTINUOUS
 10
2.664809
 20
1.011769
 30
0.000000
 40
0.039404
 50
48.466077
 51
106.861680
  0
ARC
  8
0
 62
     1
  6
CONTINUOUS
 10
-1.490634
 20
3.057112
 30
0.000000
 40
0.114095
 50
196.718876
 51
239.601639
  0
ARC
  8
0
 62
     1
  6
CONTINUOUS
 10
-1.305366
 20
3.108561
 30
0.000000
 40
0.306359
 50
180.030391
 51
195.966573
  0
ARC
  8
0
 62
     1
  6
CONTINUOUS
 10
-1.428643
 20
3.090602
 30
0.000000
 40
0.183945
 50
134.888152
 51
174.447909
  0
ARC
  8
0
 62
     1
  6
CONTINUOUS
 10
-1.634055
 20
3.179928
 30
0.000000
 40
0.085998
 50
344.550262
 51
388.470686
  0
ARC
  8
0
 62
     1
  6
CONTINUOUS
 10
-1.388437
 20
3.129197
 30
0.000000
 40
0.165089
 50
170.297572
 51
187.440511
  0
ARC
  8
0
 62
     1
  6
CONTINUOUS
 10
-1.249828
 20
3.148085
 30
0.000000
 40
0.304978
 50
187.587122
 51
212.023338
  0
ARC
  8
0
 62
     1
  6
CONTINUOUS
 10
-1.324206
 20
2.982848
 30
0.000000
 40
0.136717
 50
124.628555
 51
163.372186
  0
ARC
  8
0
 62
     1
  6
CONTINUOUS
 10
-1.119171
 20
2.902177
 30
0.000000
 40
0.356749
 50
160.379365
 51
175.774690
  0
ARC
  8
0
 62
     1
  6
CONTINUOUS
 10
-1.405448
 20
2.928716
 30
0.000000
 40
0.069503
 50
180.209676
 51
220.521676
  0
ARC
  8
0
 62
     1
  6
CONTINUOUS
 10
-1.340555
 20
2.974620
 30
0.000000
 40
0.148835
 50
217.722208
 51
237.911048
  0
ARC
  8
0
 62
     1
  6
CONTINUOUS
 10
-1.428065
 20
2.877720
 30
0.000000
 40
0.030393
 50
286.130183
 51
348.171989
  0
ARC
  8
0
 62
     1
  6
CONTINUOUS
 10
-1.477531
 20
2.878824
 30
0.000000
 40
0.079552
 50
354.710121
 51
376.795489
  0
ARC
  8
0
 62
     1
  6
CONTINUOUS
 10
-1.335156
 20
2.923338
 30
0.000000
 40
0.069627
 50
169.585931
 51
198.009270
  0
ARC
  8
0
 62
     1
  6
CONTINUOUS
 10
-1.229224
 20
2.911671
 30
0.000000
 40
0.176090
 50
139.176139
 51
172.083632
  0
ARC
  8
0
 62
     1
  6
CONTINUOUS
 10
-1.297662
 20
2.972301
 30
0.000000
 40
0.084674
 50
112.077215
 51
139.947257
  0
ARC
  8
0
 62
     1
  6
CONTINUOUS
 10
-1.315525
 20
3.015630
 30
0.000000
 40
0.037808
 50
58.917855
 51
111.672259
  0
ARC
  8
0
 62
     1
  6
CONTINUOUS
 10
-1.188090
 20
3.209298
 30
0.000000
 40
0.194061
 50
236.213827
 51
278.843203
  0
ARC
  8
0
 62
     1
  6
CONTINUOUS
 10
-1.248016
 20
3.431783
 30
0.000000
 40
0.423852
 50
282.226227
 51
299.590900
  0
ARC
  8
0
 62
     1
  6
CONTINUOUS
 10
-0.799080
 20
2.627677
 30
0.000000
 40
0.497108
 50
105.789520
 51
118.820105
  0
ARC
  8
0
 62
     1
  6
CONTINUOUS
 10
-0.886886
 20
2.920192
 30
0.000000
 40
0.191801
 50
68.546224
 51
104.326095
  0
ARC
  8
0
 62
     1
  6
CONTINUOUS
 10
-0.822461
 20
3.070890
 30
0.000000
 40
0.028397
 50
2.637028
 51
78.367772
  0
ARC
  8
0
 62
     1
  6
CONTINUOUS
 10
-0.867717
 20
3.088451
 30
0.000000
 40
0.075396
 50
320.708383
 51
347.549525
  0
ARC
  8
0
 62
     1
  6
CONTINUOUS
 10
-0.116387
 20
2.576666
 30
0.000000
 40
0.833997
 50
146.192546
 51
146.586969
  0
ARC
  8
0
 62
     1
  6
CONTINUOUS
 10
-0.702634
 20
2.962183
 30
0.000000
 40
0.132354
 50
146.141551
 51
183.702529
  0
ARC
  8
0
 62
     1
  6
CONTINUOUS
 10
-0.762881
 20
2.959491
 30
0.000000
 40
0.072069
 50
184.659523
 51
256.920892
  0
ARC
  8
0
 62
     1
  6
CONTINUOUS
 10
-0.661596
 20
3.304998
 30
0.000000
 40
0.432019
 50
254.204973
 51
258.834071
  0
ARC
  8
0
 62
     1
  6
CONTINUOUS
 10
-0.778566
 20
2.665382
 30
0.000000
 40
0.218330
 50
63.317613
 51
81.224518
  0
ARC
  8
0
 62
     1
  6
CONTINUOUS
 10
-0.713923
 20
2.801187
 30
0.000000
 40
0.068036
 50
2.689559
 51
60.601780
  0
ARC
  8
0
 62
     1
  6
CONTINUOUS
 10
-0.808045
 20
2.826076
 30
0.000000
 40
0.163529
 50
316.914765
 51
352.375876
  0
ARC
  8
0
 62
    12
  6
CONTINUOUS
 10
-0.382316
 20
0.218761
 30
0.000000
 40
0.689659
 50
120.397640
 51
132.688850
  0
ARC
  8
0
 62
    12
  6
CONTINUOUS
 10
-0.537606
 20
0.485049
 30
0.000000
 40
0.381400
 50
73.865926
 51
120.517559
  0
ARC
  8
0
 62
    12
  6
CONTINUOUS
 10
-0.572530
 20
0.558370
 30
0.000000
 40
0.325174
 50
38.099075
 51
64.320634
  0
ARC
  8
0
 62
    12
  6
CONTINUOUS
 10
-0.663796
 20
0.481255
 30
0.000000
 40
0.444598
 50
19.888482
 51
38.662539
  0
ARC
  8
0
 62
    12
  6
CONTINUOUS
 10
-0.235546
 20
0.635448
 30
0.000000
 40
0.010586
 50
196.154893
 51
310.103432
  0
ARC
  8
0
 62
    12
  6
CONTINUOUS
 10
-0.240637
 20
0.645343
 30
0.000000
 40
0.021576
 50
303.502841
 51
365.638693
  0
ARC
  8
0
 62
    12
  6
CONTINUOUS
 10
-0.792013
 20
0.473826
 30
0.000000
 40
0.598586
 50
16.862590
 51
33.137888
  0
ARC
  8
0
 62
    12
  6
CONTINUOUS
 10
-0.637515
 20
0.572721
 30
0.000000
 40
0.415158
 50
33.365254
 51
56.324254
  0
ARC
  8
0
 62
    12
  6
CONTINUOUS
 10
-0.573087
 20
0.589048
 30
0.000000
 40
0.368549
 50
63.269172
 51
99.370569
  0
ARC
  8
0
 62
    12
  6
CONTINUOUS
 10
-0.507115
 20
0.300636
 30
0.000000
 40
0.664101
 50
100.935160
 51
120.278903
  0
ARC
  8
0
 62
    12
  6
CONTINUOUS
 10
-0.511528
 20
0.347029
 30
0.000000
 40
0.622121
 50
122.082554
 51
142.480139
  0
ARC
  8
0
 62
    12
  6
CONTINUOUS
 10
-0.107465
 20
-0.011730
 30
0.000000
 40
1.161734
 50
140.583046
 51
145.905325
  0
ARC
  8
0
 62
    12
  6
CONTINUOUS
 10
-1.984620
 20
1.256955
 30
0.000000
 40
1.103939
 50
320.198583
 51
325.990869
  0
ARC
  8
0
 62
    12
  6
CONTINUOUS
 10
-1.392474
 20
0.762791
 30
0.000000
 40
0.332684
 50
301.694296
 51
320.301931
  0
ARC
  8
0
 62
    12
  6
CONTINUOUS
 10
0.001794
 20
0.005369
 30
0.000000
 40
0.005661
 50
251.528910
 51
383.089643
  0
ARC
  8
0
 62
    12
  6
CONTINUOUS
 10
0.008024
 20
0.030118
 30
0.000000
 40
0.031168
 50
214.336128
 51
255.082314
  0
ARC
  8
0
 62
    12
  6
CONTINUOUS
 10
0.456057
 20
0.334323
 30
0.000000
 40
0.572716
 50
181.569267
 51
214.184419
  0
ARC
  8
0
 62
    12
  6
CONTINUOUS
 10
0.914032
 20
0.353672
 30
0.000000
 40
1.031072
 50
173.142140
 51
181.947146
  0
ARC
  8
0
 62
     1
  6
CONTINUOUS
 10
-0.950182
 20
2.957249
 30
0.000000
 40
0.356942
 50
301.323740
 51
317.121930
  0
ARC
  8
0
 62
     1
  6
CONTINUOUS
 10
-0.755957
 20
2.627953
 30
0.000000
 40
0.025873
 50
109.555146
 51
169.305706
  0
ARC
  8
0
 62
     1
  6
CONTINUOUS
 10
-0.768545
 20
2.632800
 30
0.000000
 40
0.012836
 50
180.202378
 51
274.247211
  0
LINE
  8
0
 62
     1
  6
CONTINUOUS
 10
-0.767594
 20
2.619999
 30
0.000000
 11
-0.763902
 21
2.621295
 31
0.000000
  0
ARC
  8
0
 62
     1
  6
CONTINUOUS
 10
-0.899825
 20
3.071632
 30
0.000000
 40
0.470402
 50
286.795160
 51
301.313252
  0
ARC
  8
0
 62
     1
  6
CONTINUOUS
 10
-0.740545
 20
2.801270
 30
0.000000
 40
0.156703
 50
302.934095
 51
346.869760
  0
ARC
  8
0
 62
     1
  6
CONTINUOUS
 10
-0.689140
 20
2.796176
 30
0.000000
 40
0.105699
 50
343.226234
 51
379.843384
  0
ARC
  8
0
 62
     1
  6
CONTINUOUS
 10
-0.884856
 20
2.726614
 30
0.000000
 40
0.313409
 50
19.659992
 51
31.620502
  0
ARC
  8
0
 62
     1
  6
CONTINUOUS
 10
-0.701544
 20
2.827323
 30
0.000000
 40
0.105022
 50
37.276388
 51
66.874287
  0
ARC
  8
0
 62
     1
  6
CONTINUOUS
 10
-0.778958
 20
2.638161
 30
0.000000
 40
0.309404
 50
67.448340
 51
77.418387
  0
ARC
  8
0
 62
    72
  6
CONTINUOUS
 10
2.674759
 20
1.029827
 30
0.000000
 40
0.019813
 50
314.023623
 51
395.264095
  0
ARC
  8
0
 62
    72
  6
CONTINUOUS
 10
2.620742
 20
1.078306
 30
0.000000
 40
0.092355
 50
304.189912
 51
317.220269
  0
ARC
  8
0
 62
    72
  6
CONTINUOUS
 10
2.696402
 20
0.963203
 30
0.000000
 40
0.045421
 50
121.543398
 51
142.824017
  0
ARC
  8
0
 62
    72
  6
CONTINUOUS
 10
2.667007
 20
0.988313
 30
0.000000
 40
0.007186
 50
161.033775
 51
271.505333
  0
ARC
  8
0
 62
    72
  6
CONTINUOUS
 10
2.744476
 20
1.267851
 30
0.000000
 40
0.296953
 50
254.915455
 51
259.305837
  0
ARC
  8
0
 62
    72
  6
CONTINUOUS
 10
2.685964
 20
0.906801
 30
0.000000
 40
0.069338
 50
46.170510
 51
87.183280
  0
ARC
  8
0
 62
    72
  6
CONTINUOUS
 10
2.726186
 20
0.941060
 30
0.000000
 40
0.017584
 50
347.372447
 51
423.682996
  0
ARC
  8
0
 62
    72
  6
CONTINUOUS
 10
2.722462
 20
0.950783
 30
0.000000
 40
0.024903
 50
278.972656
 51
326.988978
  0
LINE
  8
0
 62
    72
  6
CONTINUOUS
 10
2.711735
 20
0.921480
 30
0.000000
 11
2.726346
 21
0.926185
 31
0.000000
  0
ARC
  8
0
 62
    72
  6
CONTINUOUS
 10
2.901041
 20
0.278159
 30
0.000000
 40
0.670595
 50
106.397184
 51
114.583788
  0
ARC
  8
0
 62
    72
  6
CONTINUOUS
 10
2.690046
 20
0.733237
 30
0.000000
 40
0.169009
 50
113.720673
 51
143.984547
  0
ARC
  8
0
 62
    72
  6
CONTINUOUS
 10
2.546164
 20
0.856546
 30
0.000000
 40
0.024984
 50
168.066891
 51
286.695636
  0
ARC
  8
0
 62
    72
  6
CONTINUOUS
 10
2.618376
 20
0.839684
 30
0.000000
 40
0.099135
 50
130.773339
 51
167.161486
  0
ARC
  8
0
 62
    72
  6
CONTINUOUS
 10
2.736202
 20
0.695399
 30
0.000000
 40
0.285394
 50
117.420305
 51
129.769788
  0
ARC
  8
0
 62
    72
  6
CONTINUOUS
 10
2.444109
 20
1.249999
 30
0.000000
 40
0.341433
 50
298.070732
 51
306.605918
  0
ARC
  8
0
 62
    72
  6
CONTINUOUS
 10
2.605853
 20
0.859931
 30
0.000000
 40
0.123301
 50
70.156682
 51
96.290700
  0
ARC
  8
0
 62
    72
  6
CONTINUOUS
 10
2.581326
 20
1.240275
 30
0.000000
 40
0.258020
 50
264.892941
 51
272.447059
  0
ARC
  8
0
 62
    72
  6
CONTINUOUS
 10
2.647438
 20
1.489504
 30
0.000000
 40
0.514003
 50
251.278037
 51
260.019881
  0
ARC
  8
0
 62
    72
  6
CONTINUOUS
 10
2.373880
 20
0.719289
 30
0.000000
 40
0.303496
 50
69.037949
 51
89.332303
  0
ARC
  8
0
 62
    72
  6
CONTINUOUS
 10
2.386669
 20
0.905460
 30
0.000000
 40
0.117668
 50
94.509696
 51
150.235155
  0
ARC
  8
0
 62
    72
  6
CONTINUOUS
 10
2.702019
 20
0.671040
 30
0.000000
 40
0.509955
 50
144.953738
 51
147.200348
  0
ARC
  8
0
 62
    72
  6
CONTINUOUS
 10
2.091736
 20
1.056889
 30
0.000000
 40
0.212138
 50
317.709274
 51
328.891175
  0
ARC
  8
0
 62
    72
  6
CONTINUOUS
 10
2.224685
 20
0.933141
 30
0.000000
 40
0.030592
 50
261.405486
 51
321.608536
  0
ARC
  8
0
 62
    72
  6
CONTINUOUS
 10
2.423031
 20
0.400782
 30
0.000000
 40
0.507437
 50
40.615138
 51
50.438782
  0
ARC
  8
0
 62
    72
  6
CONTINUOUS
 10
3.159257
 20
1.029353
 30
0.000000
 40
0.460621
 50
220.351951
 51
231.479207
  0
ARC
  8
0
 62
    72
  6
CONTINUOUS
 10
2.977722
 20
0.806361
 30
0.000000
 40
0.173125
 50
232.521771
 51
263.405424
  0
ARC
  8
0
 62
    72
  6
CONTINUOUS
 10
2.956465
 20
0.616288
 30
0.000000
 40
0.018146
 50
289.858797
 51
445.655728
  0
ARC
  8
0
 62
    72
  6
CONTINUOUS
 10
2.929379
 20
0.652508
 30
0.000000
 40
0.062811
 50
261.380285
 51
301.963270
  0
ARC
  8
0
 62
    72
  6
CONTINUOUS
 10
2.940957
 20
0.749197
 30
0.000000
 40
0.160172
 50
243.865085
 51
262.469533
  0
ARC
  8
0
 62
    72
  6
CONTINUOUS
 10
2.998492
 20
0.876298
 30
0.000000
 40
0.299653
 50
225.626281
 51
244.693745
  0
ARC
  8
0
 62
    72
  6
CONTINUOUS
 10
4.625720
 20
2.436119
 30
0.000000
 40
2.553604
 50
223.515124
 51
224.003971
  0
ARC
  8
0
 62
    72
  6
CONTINUOUS
 10
2.481315
 20
0.429911
 30
0.000000
 40
0.383479
 50
40.281057
 51
58.723617
  0
ARC
  8
0
 62
    72
  6
CONTINUOUS
 10
2.616843
 20
0.636432
 30
0.000000
 40
0.136881
 50
62.331231
 51
116.126030
  0
ARC
  8
0
 62
    72
  6
CONTINUOUS
 10
2.548062
 20
0.777142
 30
0.000000
 40
0.019741
 50
188.437817
 51
295.523970
  0
ARC
  8
0
 62
    72
  6
CONTINUOUS
 10
2.556286
 20
0.782865
 30
0.000000
 40
0.029060
 50
122.614587
 51
197.255329
  0
ARC
  8
0
 62
    72
  6
CONTINUOUS
 10
2.412283
 20
1.170124
 30
0.000000
 40
0.384814
 50
289.482081
 51
292.765592
  0
ARC
  8
0
 62
    72
  6
CONTINUOUS
 10
2.689881
 20
0.520457
 30
0.000000
 40
0.321693
 50
104.189702
 51
113.580493
  0
ARC
  8
0
 62
    72
  6
CONTINUOUS
 10
2.635339
 20
0.742201
 30
0.000000
 40
0.093357
 50
72.365508
 51
105.097430
  0
ARC
  8
0
 62
    72
  6
CONTINUOUS
 10
2.622752
 20
0.638368
 30
0.000000
 40
0.197086
 50
51.210311
 51
78.031786
  0
ARC
  8
0
 62
    72
  6
CONTINUOUS
 10
2.023066
 20
1.367305
 30
0.000000
 40
0.335839
 50
305.872224
 51
318.150865
  0
ARC
  8
0
 62
    72
  6
CONTINUOUS
 10
2.821813
 20
0.323004
 30
0.000000
 40
0.979071
 50
127.938808
 51
129.440623
  0
ARC
  8
0
 62
    72
  6
CONTINUOUS
 10
2.271288
 20
1.001160
 30
0.000000
 40
0.105757
 50
132.506342
 51
159.250728
  0
ARC
  8
0
 62
    72
  6
CONTINUOUS
 10
-3.340587
 20
3.158995
 30
0.000000
 40
0.012336
 50
129.085198
 51
229.767094
  0
ARC
  8
0
 62
    72
  6
CONTINUOUS
 10
-3.250247
 20
3.235964
 30
0.000000
 40
0.130870
 50
221.306743
 51
263.220535
  0
ARC
  8
0
 62
    72
  6
CONTINUOUS
 10
-3.235376
 20
3.341394
 30
0.000000
 40
0.237330
 50
262.660137
 51
286.466936
  0
ARC
  8
0
 62
    72
  6
CONTINUOUS
 10
-2.854265
 20
3.163114
 30
0.000000
 40
0.119764
 50
7.981542
 51
40.419711
  0
ARC
  8
0
 62
    72
  6
CONTINUOUS
 10
-2.608095
 20
3.415207
 30
0.000000
 40
0.233348
 50
223.243058
 51
228.378421
  0
ARC
  8
0
 62
    72
  6
CONTINUOUS
 10
-2.893113
 20
3.152323
 30
0.000000
 40
0.154421
 50
41.845643
 51
55.229142
  0
ARC
  8
0
 62
    72
  6
CONTINUOUS
 10
-2.829117
 20
3.244341
 30
0.000000
 40
0.042336
 50
55.352923
 51
102.380536
  0
ARC
  8
0
 62
    72
  6
CONTINUOUS
 10
-2.808514
 20
3.263583
 30
0.000000
 40
0.037010
 50
143.315844
 51
212.588473
  0
ARC
  8
0
 62
    72
  6
CONTINUOUS
 10
-2.697813
 20
3.338574
 30
0.000000
 40
0.170710
 50
213.783629
 51
230.619096
  0
ARC
  8
0
 62
    72
  6
CONTINUOUS
 10
-2.908851
 20
3.080248
 30
0.000000
 40
0.162863
 50
32.740610
 51
50.893504
  0
ARC
  8
0
 62
    72
  6
CONTINUOUS
 10
-2.725664
 20
3.176812
 30
0.000000
 40
0.046971
 50
190.403352
 51
224.999875
  0
ARC
  8
0
 62
    72
  6
CONTINUOUS
 10
2.555023
 20
0.887534
 30
0.000000
 40
0.411385
 50
158.451999
 51
165.776717
  0
ARC
  8
0
 62
    72
  6
CONTINUOUS
 10
1.487027
 20
1.168835
 30
0.000000
 40
0.693064
 50
342.802114
 51
344.927727
  0
ARC
  8
0
 62
    72
  6
CONTINUOUS
 10
2.178048
 20
1.014216
 30
0.000000
 40
0.058035
 50
174.157539
 51
240.083894
  0
ARC
  8
0
 62
    72
  6
CONTINUOUS
 10
2.299428
 20
1.007074
 30
0.000000
 40
0.179588
 50
138.411219
 51
175.832980
  0
ARC
  8
0
 62
    72
  6
CONTINUOUS
 10
2.332780
 20
0.981548
 30
0.000000
 40
0.221498
 50
109.797334
 51
139.199354
  0
ARC
  8
0
 62
    72
  6
CONTINUOUS
 10
2.272044
 20
1.153796
 30
0.000000
 40
0.038878
 50
75.948007
 51
111.556100
  0
ARC
  8
0
 62
    72
  6
CONTINUOUS
 10
2.277402
 20
1.180479
 30
0.000000
 40
0.011762
 50
359.675174
 51
429.694604
  0
ARC
  8
0
 62
    72
  6
CONTINUOUS
 10
2.225925
 20
1.185518
 30
0.000000
 40
0.063445
 50
318.216624
 51
355.384420
  0
ARC
  8
0
 62
    72
  6
CONTINUOUS
 10
1.911583
 20
1.030791
 30
0.000000
 40
0.138135
 50
103.437792
 51
146.063405
  0
ARC
  8
0
 62
    72
  6
CONTINUOUS
 10
1.890376
 20
1.000495
 30
0.000000
 40
0.142341
 50
131.007672
 51
161.571023
  0
ARC
  8
0
 62
    72
  6
CONTINUOUS
 10
2.146205
 20
0.919608
 30
0.000000
 40
0.410641
 50
162.148107
 51
172.512717
  0
ARC
  8
0
 62
    72
  6
CONTINUOUS
 10
1.402598
 20
1.013251
 30
0.000000
 40
0.338852
 50
339.213503
 51
353.197835
  0
ARC
  8
0
 62
    72
  6
CONTINUOUS
 10
1.606588
 20
0.939630
 30
0.000000
 40
0.122065
 50
297.467944
 51
337.540405
  0
ARC
  8
0
 62
    72
  6
CONTINUOUS
 10
1.669955
 20
0.816629
 30
0.000000
 40
0.016306
 50
115.674672
 51
226.553577
  0
ARC
  8
0
 62
    72
  6
CONTINUOUS
 10
1.682197
 20
0.825982
 30
0.000000
 40
0.031610
 50
222.096838
 51
288.544203
  0
ARC
  8
0
 62
    72
  6
CONTINUOUS
 10
1.646283
 20
0.910773
 30
0.000000
 40
0.123625
 50
291.828858
 51
333.319466
  0
ARC
  8
0
 62
    72
  6
CONTINUOUS
 10
1.403147
 20
1.025265
 30
0.000000
 40
0.392341
 50
334.322872
 51
347.536661
  0
ARC
  8
0
 62
    72
  6
CONTINUOUS
 10
2.190032
 20
0.850061
 30
0.000000
 40
0.413814
 50
154.945267
 51
167.363077
  0
ARC
  8
0
 62
    72
  6
CONTINUOUS
 10
1.935213
 20
0.967168
 30
0.000000
 40
0.133392
 50
115.655989
 51
154.161962
  0
ARC
  8
0
 62
     1
  6
CONTINUOUS
 10
-0.587430
 20
3.450520
 30
0.000000
 40
0.525263
 50
252.602714
 51
256.330507
  0
ARC
  8
0
 62
     1
  6
CONTINUOUS
 10
-0.737829
 20
2.968529
 30
0.000000
 40
0.020361
 50
168.806944
 51
250.928635
  0
ARC
  8
0
 62
     1
  6
CONTINUOUS
 10
-0.703837
 20
2.942610
 30
0.000000
 40
0.061681
 50
124.377102
 51
151.034671
  0
ARC
  8
0
 62
     1
  6
CONTINUOUS
 10
-0.771732
 20
3.047025
 30
0.000000
 40
0.062900
 50
301.716260
 51
347.654350
  0
ARC
  8
0
 62
     1
  6
CONTINUOUS
 10
-0.874297
 20
3.025999
 30
0.000000
 40
0.164186
 50
2.645275
 51
61.500789
  0
ARC
  8
0
 62
     1
  6
CONTINUOUS
 10
-0.915230
 20
2.928193
 30
0.000000
 40
0.269882
 50
63.771750
 51
94.719763
  0
ARC
  8
0
 62
     1
  6
CONTINUOUS
 10
-0.937754
 20
2.992848
 30
0.000000
 40
0.204313
 50
89.911022
 51
113.681318
  0
ARC
  8
0
 62
     1
  6
CONTINUOUS
 10
-0.786012
 20
2.657543
 30
0.000000
 40
0.572347
 50
114.110751
 51
122.381815
  0
ARC
  8
0
 62
     1
  6
CONTINUOUS
 10
-1.367242
 20
3.567599
 30
0.000000
 40
0.507489
 50
292.142480
 51
302.772385
  0
ARC
  8
0
 62
     1
  6
CONTINUOUS
 10
-1.286868
 20
2.883936
 30
0.000000
 40
0.240677
 50
62.561124
 51
118.550551
  0
ARC
  8
0
 62
     1
  6
CONTINUOUS
 10
-0.551179
 20
2.748174
 30
0.000000
 40
0.269821
 50
75.718977
 51
91.883905
  0
ARC
  8
0
 62
     1
  6
CONTINUOUS
 10
-0.411579
 20
3.308302
 30
0.000000
 40
0.307448
 50
256.256751
 51
269.800125
  0
ARC
  8
0
 62
     1
  6
CONTINUOUS
 10
-0.414512
 20
3.105542
 30
0.000000
 40
0.104702
 50
271.017997
 51
311.608532
  0
ARC
  8
0
 62
     1
  6
CONTINUOUS
 10
-0.363370
 20
3.048898
 30
0.000000
 40
0.028396
 50
310.347027
 51
369.652973
  0
ARC
  8
0
 62
    72
  6
CONTINUOUS
 10
2.099549
 20
-0.467524
 30
0.000000
 40
1.570714
 50
95.881949
 51
98.128559
  0
ARC
  8
0
 62
    72
  6
CONTINUOUS
 10
1.880805
 20
1.834748
 30
0.000000
 40
0.742081
 50
274.465611
 51
284.999008
  0
ARC
  8
0
 62
    72
  6
CONTINUOUS
 10
2.019369
 20
1.320134
 30
0.000000
 40
0.209139
 50
284.818087
 51
320.767235
  0
ARC
  8
0
 62
    72
  6
CONTINUOUS
 10
2.156689
 20
1.205496
 30
0.000000
 40
0.030331
 50
324.444182
 51
395.814743
  0
ARC
  8
0
 62
    72
  6
CONTINUOUS
 10
2.168440
 20
1.205429
 30
0.000000
 40
0.021964
 50
54.209464
 51
148.338883
  0
ARC
  8
0
 62
    72
  6
CONTINUOUS
 10
2.041110
 20
1.328047
 30
0.000000
 40
0.155378
 50
279.582721
 51
314.359990
  0
ARC
  8
0
 62
    72
  6
CONTINUOUS
 10
2.003694
 20
1.596767
 30
0.000000
 40
0.426649
 50
266.365659
 51
278.529806
  0
ARC
  8
0
 62
    72
  6
CONTINUOUS
 10
1.949635
 20
0.808655
 30
0.000000
 40
0.363327
 50
85.736011
 51
101.132932
  0
ARC
  8
0
 62
    72
  6
CONTINUOUS
 10
-2.738412
 20
3.157873
 30
0.000000
 40
0.024952
 50
214.896059
 51
308.108037
  0
ARC
  8
0
 62
    72
  6
CONTINUOUS
 10
-2.493744
 20
3.230786
 30
0.000000
 40
0.247243
 50
191.914096
 51
201.982046
  0
ARC
  8
0
 62
    72
  6
CONTINUOUS
 10
-3.381289
 20
2.927204
 30
0.000000
 40
0.313757
 50
312.568941
 51
332.682961
  0
ARC
  8
0
 62
    72
  6
CONTINUOUS
 10
-2.678207
 20
2.545473
 30
0.000000
 40
0.486379
 50
140.473928
 51
150.738130
  0
ARC
  8
0
 62
    72
  6
CONTINUOUS
 10
-2.938285
 20
2.759538
 30
0.000000
 40
0.149535
 50
107.416580
 51
140.318685
  0
ARC
  8
0
 62
    72
  6
CONTINUOUS
 10
-2.980870
 20
2.910221
 30
0.000000
 40
0.008293
 50
254.807957
 51
425.192043
  0
ARC
  8
0
 62
    72
  6
CONTINUOUS
 10
-2.985268
 20
2.759146
 30
0.000000
 40
0.158798
 50
87.156630
 51
139.241005
  0
ARC
  8
0
 62
    72
  6
CONTINUOUS
 10
-2.708315
 20
2.499068
 30
0.000000
 40
0.538622
 50
137.519364
 51
153.240000
  0
ARC
  8
0
 62
    72
  6
CONTINUOUS
 10
-3.251987
 20
2.798443
 30
0.000000
 40
0.084668
 50
281.435169
 51
317.813707
  0
ARC
  8
0
 62
    72
  6
CONTINUOUS
 10
-3.198949
 20
2.586681
 30
0.000000
 40
0.133780
 50
105.722610
 51
120.451607
  0
ARC
  8
0
 62
    72
  6
CONTINUOUS
 10
-3.254055
 20
2.679991
 30
0.000000
 40
0.025414
 50
119.969598
 51
185.293836
  0
ARC
  8
0
 62
    72
  6
CONTINUOUS
 10
-3.241569
 20
2.790541
 30
0.000000
 40
0.119052
 50
251.492148
 51
307.533574
  0
ARC
  8
0
 62
    72
  6
CONTINUOUS
 10
-3.090731
 20
3.066933
 30
0.000000
 40
0.300552
 50
309.938033
 51
321.237680
  0
ARC
  8
0
 62
    72
  6
CONTINUOUS
 10
-2.958258
 20
2.910118
 30
0.000000
 40
0.095279
 50
274.104283
 51
309.394436
  0
ARC
  8
0
 62
    72
  6
CONTINUOUS
 10
-2.812503
 20
2.791961
 30
0.000000
 40
0.140847
 50
141.131925
 51
170.550853
  0
ARC
  8
0
 62
    72
  6
CONTINUOUS
 10
-2.533317
 20
2.578220
 30
0.000000
 40
0.492426
 50
133.825527
 51
142.153582
  0
ARC
  8
0
 62
    72
  6
CONTINUOUS
 10
-4.371771
 20
4.428857
 30
0.000000
 40
2.116259
 50
315.040018
 51
315.322143
  0
ARC
  8
0
 62
    72
  6
CONTINUOUS
 10
-2.808887
 20
2.869727
 30
0.000000
 40
0.091838
 50
93.559083
 51
129.223098
  0
ARC
  8
0
 62
    72
  6
CONTINUOUS
 10
-2.788849
 20
2.616353
 30
0.000000
 40
0.345994
 50
84.346136
 51
94.266315
  0
ARC
  8
0
 62
    72
  6
CONTINUOUS
 10
-2.608945
 20
5.025943
 30
0.000000
 40
2.070420
 50
265.961404
 51
266.213964
  0
ARC
  8
0
 62
    72
  6
CONTINUOUS
 10
-2.745698
 20
2.954372
 30
0.000000
 40
0.005670
 50
316.779654
 51
449.585967
  0
ARC
  8
0
 62
    72
  6
CONTINUOUS
 10
-2.757570
 20
2.964115
 30
0.000000
 40
0.021019
 50
271.273960
 51
319.587968
  0
ARC
  8
0
 62
     1
  6
CONTINUOUS
 10
-1.062834
 20
2.883384
 30
0.000000
 40
0.124301
 50
343.010271
 51
364.633706
  0
ARC
  8
0
 62
     1
  6
CONTINUOUS
 10
-0.973073
 20
2.850104
 30
0.000000
 40
0.029274
 50
286.125589
 51
354.037827
  0
ARC
  8
0
 62
     1
  6
CONTINUOUS
 10
-0.956020
 20
2.755837
 30
0.000000
 40
0.066744
 50
97.682647
 51
124.829592
  0
ARC
  8
0
 62
     1
  6
CONTINUOUS
 10
-0.983386
 20
2.792317
 30
0.000000
 40
0.021231
 50
120.429907
 51
213.432053
  0
ARC
  8
0
 62
     1
  6
CONTINUOUS
 10
-1.037061
 20
2.747436
 30
0.000000
 40
0.048928
 50
350.629591
 51
402.704176
  0
ARC
  8
0
 62
     1
  6
CONTINUOUS
 10
-1.007739
 20
2.744282
 30
0.000000
 40
0.019555
 50
293.450154
 51
345.754422
  0
ARC
  8
0
 62
     1
  6
CONTINUOUS
 10
-1.013008
 20
2.762710
 30
0.000000
 40
0.038639
 50
252.602628
 51
289.741184
  0
ARC
  8
0
 62
     1
  6
CONTINUOUS
 10
-0.963019
 20
2.835539
 30
0.000000
 40
0.125784
 50
190.920179
 51
240.707441
  0
ARC
  8
0
 62
     1
  6
CONTINUOUS
 10
-0.975182
 20
2.828348
 30
0.000000
 40
0.112579
 50
131.501469
 51
188.498531
  0
ARC
  8
0
 62
     1
  6
CONTINUOUS
 10
-0.990058
 20
2.840176
 30
0.000000
 40
0.093921
 50
86.964079
 51
129.485872
  0
ARC
  8
0
 62
     1
  6
CONTINUOUS
 10
-0.986358
 20
2.885983
 30
0.000000
 40
0.047999
 50
8.920657
 51
88.479126
  0
ARC
  8
0
 62
     1
  6
CONTINUOUS
 10
-0.381917
 20
3.112949
 30
0.000000
 40
0.075375
 50
256.735408
 51
308.131417
  0
ARC
  8
0
 62
     1
  6
CONTINUOUS
 10
-0.336806
 20
3.256509
 30
0.000000
 40
0.225723
 50
236.970697
 51
253.950221
  0
ARC
  8
0
 62
     1
  6
CONTINUOUS
 10
-0.605166
 20
2.837069
 30
0.000000
 40
0.272231
 50
57.735184
 51
71.123707
  0
ARC
  8
0
 62
     1
  6
CONTINUOUS
 10
-0.544649
 20
3.009062
 30
0.000000
 40
0.089925
 50
72.155270
 51
113.200218
  0
ARC
  8
0
 62
     1
  6
CONTINUOUS
 10
-0.527916
 20
2.971328
 30
0.000000
 40
0.131199
 50
113.424958
 51
168.218312
  0
ARC
  8
0
 62
     1
  6
CONTINUOUS
 10
-0.638389
 20
2.996166
 30
0.000000
 40
0.018068
 50
173.799963
 51
309.139862
  0
ARC
  8
0
 62
     1
  6
CONTINUOUS
 10
-0.552989
 20
2.924005
 30
0.000000
 40
0.094109
 50
94.302497
 51
141.839064
  0
ARC
  8
0
 62
     1
  6
CONTINUOUS
 10
-0.555090
 20
2.682461
 30
0.000000
 40
0.083269
 50
314.705748
 51
345.273151
  0
ARC
  8
0
 62
     1
  6
CONTINUOUS
 10
-0.724104
 20
2.729542
 30
0.000000
 40
0.258712
 50
344.704188
 51
357.028762
  0
ARC
  8
0
 62
     1
  6
CONTINUOUS
 10
-0.183669
 20
2.704637
 30
0.000000
 40
0.282305
 50
159.897879
 51
177.666283
  0
ARC
  8
0
 62
     1
  6
CONTINUOUS
 10
-0.343323
 20
2.761805
 30
0.000000
 40
0.112735
 50
115.769714
 51
159.294872
  0
ARC
  8
0
 62
     1
  6
CONTINUOUS
 10
-0.275350
 20
2.770857
 30
0.000000
 40
0.149119
 50
141.675268
 51
172.753338
  0
ARC
  8
0
 62
     1
  6
CONTINUOUS
 10
0.007292
 20
2.738579
 30
0.000000
 40
0.433590
 50
173.233386
 51
183.664094
  0
ARC
  8
0
 62
     1
  6
CONTINUOUS
 10
-0.711735
 20
2.684073
 30
0.000000
 40
0.287574
 50
346.489228
 51
365.346601
  0
ARC
  8
0
 62
     1
  6
CONTINUOUS
 10
-0.538008
 20
2.650806
 30
0.000000
 40
0.111190
 50
290.670905
 51
342.238768
  0
ARC
  8
0
 62
     1
  6
CONTINUOUS
 10
-0.528928
 20
2.612838
 30
0.000000
 40
0.072626
 50
245.691315
 51
294.544812
  0
ARC
  8
0
 62
    72
  6
CONTINUOUS
 10
1.346184
 20
0.836302
 30
0.000000
 40
0.050320
 50
109.886766
 51
149.195360
  0
ARC
  8
0
 62
    72
  6
CONTINUOUS
 10
1.382286
 20
0.729000
 30
0.000000
 40
0.163524
 50
96.558415
 51
108.992905
  0
ARC
  8
0
 62
    72
  6
CONTINUOUS
 10
1.330015
 20
1.139811
 30
0.000000
 40
0.250619
 50
277.703203
 51
284.136974
  0
ARC
  8
0
 62
    72
  6
CONTINUOUS
 10
1.393087
 20
0.902224
 30
0.000000
 40
0.005751
 50
79.909043
 51
251.128393
  0
ARC
  8
0
 62
    72
  6
CONTINUOUS
 10
1.336592
 20
0.823282
 30
0.000000
 40
0.102296
 50
55.797649
 51
73.211541
  0
ARC
  8
0
 62
    72
  6
CONTINUOUS
 10
1.195412
 20
0.236237
 30
0.000000
 40
0.705937
 50
76.004576
 51
91.618227
  0
ARC
  8
0
 62
    72
  6
CONTINUOUS
 10
1.176062
 20
0.907224
 30
0.000000
 40
0.034673
 50
90.966828
 51
134.022807
  0
ARC
  8
0
 62
    72
  6
CONTINUOUS
 10
1.161480
 20
0.931936
 30
0.000000
 40
0.009516
 50
178.671684
 51
271.911112
  0
ARC
  8
0
 62
    72
  6
CONTINUOUS
 10
1.195026
 20
1.052776
 30
0.000000
 40
0.134520
 50
255.698671
 51
261.659755
  0
ARC
  8
0
 62
    72
  6
CONTINUOUS
 10
1.076773
 20
0.325851
 30
0.000000
 40
0.601981
 50
75.615686
 51
80.559315
  0
ARC
  8
0
 62
    72
  6
CONTINUOUS
 10
1.198155
 20
0.778047
 30
0.000000
 40
0.133909
 50
55.561333
 51
77.858303
  0
ARC
  8
0
 62
    72
  6
CONTINUOUS
 10
1.258597
 20
0.879448
 30
0.000000
 40
0.017759
 50
306.405503
 51
390.593202
  0
ARC
  8
0
 62
    72
  6
CONTINUOUS
 10
1.137562
 20
0.982215
 30
0.000000
 40
0.176111
 50
303.767125
 51
318.340913
  0
ARC
  8
0
 62
    72
  6
CONTINUOUS
 10
0.958694
 20
1.229156
 30
0.000000
 40
0.480948
 50
294.271878
 51
305.130005
  0
ARC
  8
0
 62
    72
  6
CONTINUOUS
 10
-2.753704
 20
2.847403
 30
0.000000
 40
0.095759
 50
92.034082
 51
128.657264
  0
ARC
  8
0
 62
    72
  6
CONTINUOUS
 10
-2.627339
 20
2.695566
 30
0.000000
 40
0.293288
 50
129.405754
 51
141.345694
  0
ARC
  8
0
 62
    72
  6
CONTINUOUS
 10
-2.623518
 20
4.092857
 30
0.000000
 40
0.123824
 50
358.222098
 51
374.602970
  0
LINE
  8
0
 62
    72
  6
CONTINUOUS
 10
-2.503694
 20
4.124075
 30
0.000000
 11
-2.504134
 21
4.126197
 31
0.000000
  0
ARC
  8
0
 62
    72
  6
CONTINUOUS
 10
-2.697513
 20
4.075401
 30
0.000000
 40
0.199939
 50
14.717823
 51
35.044466
  0
ARC
  8
0
 62
    72
  6
CONTINUOUS
 10
-2.570186
 20
4.169983
 30
0.000000
 40
0.041611
 50
29.082573
 51
124.067686
  0
ARC
  8
0
 62
    72
  6
CONTINUOUS
 10
-2.363417
 20
4.269200
 30
0.000000
 40
0.239016
 50
195.717480
 51
212.632043
  0
ARC
  8
0
 62
    72
  6
CONTINUOUS
 10
-2.698390
 20
4.044971
 30
0.000000
 40
0.164201
 50
2.725440
 51
35.495758
  0
ARC
  8
0
 62
    72
  6
CONTINUOUS
 10
-2.530389
 20
4.051196
 30
0.000000
 40
0.004288
 50
158.341250
 51
299.610164
  0
ARC
  8
0
 62
    72
  6
CONTINUOUS
 10
-2.544162
 20
4.087515
 30
0.000000
 40
0.043086
 50
291.644216
 51
310.783827
  0
ARC
  8
0
 62
    72
  6
CONTINUOUS
 10
-2.553408
 20
4.093650
 30
0.000000
 40
0.053854
 50
313.970848
 51
355.062840
  0
ARC
  8
0
 62
    72
  6
CONTINUOUS
 10
-2.596172
 20
4.303077
 30
0.000000
 40
0.211780
 50
342.004016
 51
352.842250
  0
ARC
  8
0
 62
    72
  6
CONTINUOUS
 10
-2.448000
 20
4.251700
 30
0.000000
 40
0.055070
 50
307.359842
 51
345.215672
  0
ARC
  8
0
 62
    72
  6
CONTINUOUS
 10
-2.404940
 20
4.229113
 30
0.000000
 40
0.023276
 50
164.920636
 51
245.528740
  0
ARC
  8
0
 62
    72
  6
CONTINUOUS
 10
-2.462543
 20
4.239699
 30
0.000000
 40
0.035419
 50
352.650742
 51
396.455420
  0
ARC
  8
0
 62
    72
  6
CONTINUOUS
 10
-2.266740
 20
4.360106
 30
0.000000
 40
0.194594
 50
195.946190
 51
210.704172
  0
ARC
  8
0
 62
    72
  6
CONTINUOUS
 10
-2.399721
 20
4.325461
 30
0.000000
 40
0.057302
 50
149.863075
 51
199.170429
  0
ARC
  8
0
 62
    72
  6
CONTINUOUS
 10
-2.459338
 20
4.281472
 30
0.000000
 40
0.073451
 50
356.266308
 51
442.128095
  0
ARC
  8
0
 62
    72
  6
CONTINUOUS
 10
-2.087984
 20
4.423290
 30
0.000000
 40
0.029558
 50
122.159637
 51
167.142581
  0
ARC
  8
0
 62
     1
  6
CONTINUOUS
 10
-0.485898
 20
2.719929
 30
0.000000
 40
0.187999
 50
227.526439
 51
247.175526
  0
ARC
  8
0
 62
     1
  6
CONTINUOUS
 10
-0.598401
 20
2.597832
 30
0.000000
 40
0.021980
 50
176.055840
 51
228.919728
  0
ARC
  8
0
 62
     1
  6
CONTINUOUS
 10
-0.610609
 20
2.598269
 30
0.000000
 40
0.009778
 50
77.287648
 51
173.692877
  0
ARC
  8
0
 62
     1
  6
CONTINUOUS
 10
-0.563517
 20
2.826168
 30
0.000000
 40
0.222937
 50
258.370314
 51
276.375164
  0
ARC
  8
0
 62
     1
  6
CONTINUOUS
 10
-0.547019
 20
2.680435
 30
0.000000
 40
0.076273
 50
276.214663
 51
311.466100
  0
ARC
  8
0
 62
     1
  6
CONTINUOUS
 10
-1.184797
 20
2.674470
 30
0.000000
 40
0.077364
 50
30.976494
 51
73.094128
  0
ARC
  8
0
 62
     1
  6
CONTINUOUS
 10
-1.143020
 20
2.701090
 30
0.000000
 40
0.027875
 50
351.987014
 51
388.258731
  0
ARC
  8
0
 62
     1
  6
CONTINUOUS
 10
-1.126403
 20
2.696770
 30
0.000000
 40
0.010995
 50
285.765509
 51
362.263919
  0
ARC
  8
0
 62
     1
  6
CONTINUOUS
 10
-1.139032
 20
2.831215
 30
0.000000
 40
0.145865
 50
262.310067
 51
276.145978
  0
ARC
  8
0
 62
     1
  6
CONTINUOUS
 10
-1.177702
 20
2.548949
 30
0.000000
 40
0.139039
 50
82.082937
 51
97.120484
  0
ARC
  8
0
 62
     1
  6
CONTINUOUS
 10
-1.189167
 20
2.647621
 30
0.000000
 40
0.039716
 50
98.353223
 51
149.123181
  0
ARC
  8
0
 62
    72
  6
CONTINUOUS
 10
1.043065
 20
1.087818
 30
0.000000
 40
0.317978
 50
267.197707
 51
290.880030
  0
ARC
  8
0
 62
    72
  6
CONTINUOUS
 10
1.048755
 20
1.340381
 30
0.000000
 40
0.570556
 50
254.071697
 51
267.866962
  0
ARC
  8
0
 62
    72
  6
CONTINUOUS
 10
0.858791
 20
0.691860
 30
0.000000
 40
0.105302
 50
71.517014
 51
103.150187
  0
ARC
  8
0
 62
    72
  6
CONTINUOUS
 10
0.846495
 20
0.753272
 30
0.000000
 40
0.042750
 50
105.828372
 51
174.970432
  0
ARC
  8
0
 62
    72
  6
CONTINUOUS
 10
0.513814
 20
-0.620757
 30
0.000000
 40
1.407986
 50
74.457439
 51
78.109851
  0
ARC
  8
0
 62
    72
  6
CONTINUOUS
 10
1.176541
 20
1.727674
 30
0.000000
 40
1.032188
 50
253.945603
 51
260.556619
  0
ARC
  8
0
 62
    72
  6
CONTINUOUS
 10
1.058391
 20
1.013934
 30
0.000000
 40
0.308736
 50
260.453418
 51
281.816058
  0
ARC
  8
0
 62
    72
  6
CONTINUOUS
 10
1.105113
 20
0.866761
 30
0.000000
 40
0.155897
 50
276.074763
 51
303.305093
  0
ARC
  8
0
 62
    72
  6
CONTINUOUS
 10
1.025934
 20
0.995237
 30
0.000000
 40
0.306780
 50
302.488646
 51
316.669789
  0
ARC
  8
0
 62
    72
  6
CONTINUOUS
 10
1.103122
 20
0.943830
 30
0.000000
 40
0.215919
 50
312.533920
 51
337.749763
  0
ARC
  8
0
 62
    72
  6
CONTINUOUS
 10
1.409645
 20
1.186295
 30
0.000000
 40
0.095797
 50
321.899098
 51
358.720167
  0
ARC
  8
0
 62
    72
  6
CONTINUOUS
 10
1.802193
 20
1.184733
 30
0.000000
 40
0.296776
 50
165.772703
 51
180.111599
  0
ARC
  8
0
 62
    72
  6
CONTINUOUS
 10
1.594057
 20
1.239425
 30
0.000000
 40
0.081603
 50
119.267640
 51
167.079126
  0
ARC
  8
0
 62
    72
  6
CONTINUOUS
 10
1.569723
 20
1.282353
 30
0.000000
 40
0.032259
 50
79.307599
 51
118.840887
  0
ARC
  8
0
 62
    72
  6
CONTINUOUS
 10
1.571583
 20
1.307056
 30
0.000000
 40
0.008122
 50
293.161752
 51
419.474096
  0
ARC
  8
0
 62
    72
  6
CONTINUOUS
 10
1.716799
 20
1.211678
 30
0.000000
 40
0.167028
 50
148.242582
 51
183.483724
  0
ARC
  8
0
 62
    72
  6
CONTINUOUS
 10
-1.769948
 20
4.306332
 30
0.000000
 40
0.368196
 50
160.396103
 51
166.083947
  0
ARC
  8
0
 62
    72
  6
CONTINUOUS
 10
-2.323479
 20
4.435878
 30
0.000000
 40
0.200381
 50
333.153259
 51
348.194686
  0
ARC
  8
0
 62
    72
  6
CONTINUOUS
 10
-2.430338
 20
4.514162
 30
0.000000
 40
0.331779
 50
328.179365
 51
329.422442
  0
ARC
  8
0
 62
    72
  6
CONTINUOUS
 10
-2.043200
 20
4.268568
 30
0.000000
 40
0.126748
 50
146.118075
 51
160.031851
  0
ARC
  8
0
 62
    72
  6
CONTINUOUS
 10
-2.141948
 20
4.302825
 30
0.000000
 40
0.022290
 50
156.108201
 51
226.532628
  0
ARC
  8
0
 62
    72
  6
CONTINUOUS
 10
-2.173354
 20
4.344751
 30
0.000000
 40
0.060286
 50
285.461815
 51
328.735846
  0
ARC
  8
0
 62
    72
  6
CONTINUOUS
 10
-2.011078
 20
4.230484
 30
0.000000
 40
0.138384
 50
134.780127
 51
143.156248
  0
ARC
  8
0
 62
    72
  6
CONTINUOUS
 10
-2.187419
 20
4.392888
 30
0.000000
 40
0.101677
 50
320.862967
 51
355.347482
  0
ARC
  8
0
 62
    72
  6
CONTINUOUS
 10
1.034759
 20
1.289103
 30
0.000000
 40
0.129060
 50
187.691496
 51
241.796199
  0
ARC
  8
0
 62
    72
  6
CONTINUOUS
 10
0.993694
 20
1.219541
 30
0.000000
 40
0.048464
 50
245.717176
 51
286.995087
  0
ARC
  8
0
 62
    72
  6
CONTINUOUS
 10
1.006109
 20
1.180205
 30
0.000000
 40
0.007226
 50
284.016606
 51
360.246903
  0
ARC
  8
0
 62
    72
  6
CONTINUOUS
 10
0.996816
 20
1.174957
 30
0.000000
 40
0.017342
 50
17.721364
 51
65.577815
  0
ARC
  8
0
 62
    72
  6
CONTINUOUS
 10
1.085744
 20
1.298584
 30
0.000000
 40
0.135326
 50
181.760537
 51
232.832064
  0
ARC
  8
0
 62
    72
  6
CONTINUOUS
 10
1.308058
 20
1.304402
 30
0.000000
 40
0.357716
 50
161.467312
 51
181.597934
  0
ARC
  8
0
 62
    72
  6
CONTINUOUS
 10
0.955671
 20
1.425783
 30
0.000000
 40
0.015293
 50
329.840727
 51
417.488386
  0
ARC
  8
0
 62
    72
  6
CONTINUOUS
 10
0.959359
 20
1.420303
 30
0.000000
 40
0.018926
 50
76.149444
 51
146.256620
  0
ARC
  8
0
 62
    72
  6
CONTINUOUS
 10
1.127341
 20
1.304592
 30
0.000000
 40
0.222903
 50
145.509132
 51
188.452072
  0
ARC
  8
0
 62
    12
  6
CONTINUOUS
 10
0.211031
 20
2.377714
 30
0.000000
 40
1.664178
 50
286.713516
 51
293.533367
  0
LINE
  8
0
 62
    12
  6
CONTINUOUS
 10
0.672736
 20
0.778380
 30
0.000000
 11
0.689626
 21
0.783839
 31
0.000000
  0
ARC
  8
0
 62
    12
  6
CONTINUOUS
 10
0.669352
 20
0.795035
 30
0.000000
 40
0.016995
 50
179.290669
 51
281.482986
  0
ARC
  8
0
 62
    12
  6
CONTINUOUS
 10
0.689871
 20
0.800486
 30
0.000000
 40
0.037877
 50
131.640490
 51
187.952386
  0
ARC
  8
0
 62
    12
  6
CONTINUOUS
 10
1.394882
 20
-0.572181
 30
0.000000
 40
1.579838
 50
111.961111
 51
117.528249
  0
ARC
  8
0
 62
    12
  6
CONTINUOUS
 10
0.218605
 20
2.346403
 30
0.000000
 40
1.566868
 50
291.940645
 51
297.640171
  0
ARC
  8
0
 62
    12
  6
CONTINUOUS
 10
0.725414
 20
1.380405
 30
0.000000
 40
0.475994
 50
297.540501
 51
315.772422
  0
ARC
  8
0
 62
    12
  6
CONTINUOUS
 10
0.652051
 20
1.419366
 30
0.000000
 40
0.556226
 50
318.168272
 51
347.829726
  0
ARC
  8
0
 62
    12
  6
CONTINUOUS
 10
1.246576
 20
1.293456
 30
0.000000
 40
0.051530
 50
152.433209
 51
170.339203
  0
ARC
  8
0
 62
    12
  6
CONTINUOUS
 10
1.206485
 20
1.315274
 30
0.000000
 40
0.005946
 50
88.200245
 51
160.040860
  0
ARC
  8
0
 62
    12
  6
CONTINUOUS
 10
1.192604
 20
1.300807
 30
0.000000
 40
0.024789
 50
4.612250
 51
55.423432
  0
ARC
  8
0
 62
    12
  6
CONTINUOUS
 10
1.050537
 20
1.263205
 30
0.000000
 40
0.171411
 50
343.411275
 51
373.355518
  0
ARC
  8
0
 62
    12
  6
CONTINUOUS
 10
0.634912
 20
1.406229
 30
0.000000
 40
0.610849
 50
316.339119
 51
341.684239
  0
ARC
  8
0
 62
    12
  6
CONTINUOUS
 10
0.615136
 20
1.466524
 30
0.000000
 40
0.667455
 50
292.960646
 51
313.765844
  0
ARC
  8
0
 62
    72
  6
CONTINUOUS
 10
1.284271
 20
1.199919
 30
0.000000
 40
0.265813
 50
341.577298
 51
360.347029
  0
ARC
  8
0
 62
    72
  6
CONTINUOUS
 10
1.366953
 20
1.185263
 30
0.000000
 40
0.183145
 50
302.150472
 51
337.750065
  0
ARC
  8
0
 62
    72
  6
CONTINUOUS
 10
1.161511
 20
1.653267
 30
0.000000
 40
0.692791
 50
276.365563
 51
295.926603
  0
ARC
  8
0
 62
    72
  6
CONTINUOUS
 10
1.228173
 20
0.998645
 30
0.000000
 40
0.035385
 50
214.567630
 51
286.667803
  0
ARC
  8
0
 62
    72
  6
CONTINUOUS
 10
1.213189
 20
0.987459
 30
0.000000
 40
0.016715
 50
113.886067
 51
212.132599
  0
ARC
  8
0
 62
    72
  6
CONTINUOUS
 10
2.370032
 20
-2.530876
 30
0.000000
 40
3.720275
 50
107.188381
 51
108.226574
  0
ARC
  8
0
 62
    72
  6
CONTINUOUS
 10
1.040080
 20
1.875755
 30
0.000000
 40
0.883135
 50
285.133356
 51
296.455180
  0
ARC
  8
0
 62
    72
  6
CONTINUOUS
 10
1.354562
 20
1.234313
 30
0.000000
 40
0.168815
 50
297.884431
 51
320.609937
  0
ARC
  8
0
 62
    72
  6
CONTINUOUS
 10
1.486525
 20
1.059507
 30
0.000000
 40
0.184974
 50
114.545704
 51
140.741703
  0
ARC
  8
0
 62
    72
  6
CONTINUOUS
 10
1.412676
 20
1.211582
 30
0.000000
 40
0.016458
 50
337.591141
 51
460.479986
  0
ARC
  8
0
 62
    72
  6
CONTINUOUS
 10
1.250631
 20
1.287083
 30
0.000000
 40
0.195213
 50
283.218209
 51
335.234921
  0
ARC
  8
0
 62
    72
  6
CONTINUOUS
 10
1.283801
 20
1.146755
 30
0.000000
 40
0.051019
 50
241.824397
 51
282.988943
  0
ARC
  8
0
 62
    72
  6
CONTINUOUS
 10
1.261181
 20
1.110017
 30
0.000000
 40
0.008366
 50
92.487430
 51
259.879455
  0
ARC
  8
0
 62
    72
  6
CONTINUOUS
 10
1.202039
 20
1.289247
 30
0.000000
 40
0.180700
 50
288.983183
 51
321.420230
  0
ARC
  8
0
 62
    72
  6
CONTINUOUS
 10
1.245108
 20
1.691790
 30
0.000000
 40
0.407106
 50
290.690969
 51
310.273168
  0
ARC
  8
0
 62
    72
  6
CONTINUOUS
 10
1.398422
 20
1.300984
 30
0.000000
 40
0.013744
 50
133.565133
 51
253.825669
  0
ARC
  8
0
 62
    72
  6
CONTINUOUS
 10
1.431215
 20
1.370393
 30
0.000000
 40
0.090363
 50
246.091790
 51
303.134063
  0
ARC
  8
0
 62
    72
  6
CONTINUOUS
 10
1.294013
 20
1.576434
 30
0.000000
 40
0.337903
 50
303.518966
 51
319.147444
  0
ARC
  8
0
 62
    72
  6
CONTINUOUS
 10
2.009634
 20
0.928153
 30
0.000000
 40
0.627834
 50
133.550818
 51
137.115703
  0
ARC
  8
0
 62
    72
  6
CONTINUOUS
 10
1.560751
 20
1.401871
 30
0.000000
 40
0.024801
 50
311.110714
 51
389.531666
  0
ARC
  8
0
 62
    72
  6
CONTINUOUS
 10
1.568092
 20
1.397149
 30
0.000000
 40
0.022132
 50
49.965136
 51
133.784501
  0
ARC
  8
0
 62
    72
  6
CONTINUOUS
 10
2.044160
 20
0.681651
 30
0.000000
 40
0.881201
 50
123.891920
 51
127.454513
  0
ARC
  8
0
 62
    72
  6
CONTINUOUS
 10
0.890805
 20
1.848666
 30
0.000000
 40
0.439274
 50
310.426642
 51
330.986333
  0
ARC
  8
0
 62
    72
  6
CONTINUOUS
 10
1.263011
 20
1.644266
 30
0.000000
 40
0.014747
 50
324.061944
 51
413.572940
  0
ARC
  8
0
 62
    72
  6
CONTINUOUS
 10
1.265237
 20
1.612314
 30
0.000000
 40
0.044301
 50
81.521828
 51
130.360876
  0
ARC
  8
0
 62
    72
  6
CONTINUOUS
 10
1.645626
 20
1.059509
 30
0.000000
 40
0.715123
 50
124.892588
 51
139.809186
  0
ARC
  8
0
 62
    72
  6
CONTINUOUS
 10
1.337601
 20
1.320151
 30
0.000000
 40
0.311621
 50
139.868935
 51
175.255312
  0
ARC
  8
0
 62
    72
  6
CONTINUOUS
 10
0.272134
 20
1.373319
 30
0.000000
 40
0.755411
 50
356.479756
 51
357.921987
  0
ARC
  8
0
 62
    72
  6
CONTINUOUS
 10
1.249298
 20
1.304727
 30
0.000000
 40
0.224281
 50
174.317315
 51
187.729593
  0
ARC
  8
0
 62
    72
  6
CONTINUOUS
 10
1.095469
 20
1.285287
 30
0.000000
 40
0.069250
 50
188.909628
 51
231.277540
  0
ARC
  8
0
 62
    72
  6
CONTINUOUS
 10
0.927459
 20
1.286082
 30
0.000000
 40
0.136211
 50
336.266312
 51
364.085770
  0
ARC
  8
0
 62
    72
  6
CONTINUOUS
 10
1.268527
 20
1.312648
 30
0.000000
 40
0.205895
 50
147.745616
 51
184.697090
  0
ARC
  8
0
 62
    72
  6
CONTINUOUS
 10
1.501644
 20
1.143697
 30
0.000000
 40
0.493550
 50
131.336720
 51
145.600965
  0
ARC
  8
0
 62
    72
  6
CONTINUOUS
 10
1.223948
 20
1.662860
 30
0.000000
 40
0.155137
 50
331.902921
 51
349.060218
  0
ARC
  8
0
 62
    72
  6
CONTINUOUS
 10
1.303585
 20
1.643230
 30
0.000000
 40
0.073340
 50
352.311861
 51
393.657204
  0
ARC
  8
0
 62
    72
  6
CONTINUOUS
 10
1.507310
 20
1.527738
 30
0.000000
 40
0.211510
 50
132.420993
 51
178.924010
  0
ARC
  8
0
 62
    72
  6
CONTINUOUS
 10
1.694097
 20
1.520248
 30
0.000000
 40
0.398424
 50
178.351443
 51
201.631449
  0
ARC
  8
0
 62
    72
  6
CONTINUOUS
 10
1.433699
 20
1.382753
 30
0.000000
 40
0.110367
 50
184.874402
 51
228.400223
  0
ARC
  8
0
 62
    72
  6
CONTINUOUS
 10
0.995477
 20
1.352874
 30
0.000000
 40
0.368726
 50
351.790139
 51
373.123015
  0
ARC
  8
0
 62
    72
  6
CONTINUOUS
 10
1.800616
 20
1.530032
 30
0.000000
 40
0.455725
 50
178.996325
 51
191.831811
  0
ARC
  8
0
 62
    72
  6
CONTINUOUS
 10
1.469854
 20
1.528120
 30
0.000000
 40
0.125284
 50
150.508885
 51
175.469975
  0
ARC
  8
0
 62
    72
  6
CONTINUOUS
 10
0.644037
 20
1.352737
 30
0.000000
 40
0.230618
 50
325.636782
 51
343.431611
  0
ARC
  8
0
 62
    72
  6
CONTINUOUS
 10
0.807563
 20
1.304151
 30
0.000000
 40
0.060027
 50
343.372417
 51
374.487836
  0
ARC
  8
0
 62
    72
  6
CONTINUOUS
 10
0.834304
 20
1.308879
 30
0.000000
 40
0.033021
 50
18.155982
 51
73.103338
  0
ARC
  8
0
 62
    72
  6
CONTINUOUS
 10
0.623376
 20
1.387849
 30
0.000000
 40
0.225557
 50
315.291550
 51
347.875711
  0
ARC
  8
0
 62
    72
  6
CONTINUOUS
 10
0.535858
 20
1.494960
 30
0.000000
 40
0.363400
 50
297.309682
 51
312.996102
  0
ARC
  8
0
 62
    72
  6
CONTINUOUS
 10
0.787748
 20
0.991376
 30
0.000000
 40
0.199752
 50
115.235335
 51
137.272564
  0
ARC
  8
0
 62
    72
  6
CONTINUOUS
 10
0.705691
 20
1.081976
 30
0.000000
 40
0.078756
 50
145.211215
 51
202.887245
  0
ARC
  8
0
 62
    72
  6
CONTINUOUS
 10
0.498397
 20
0.988246
 30
0.000000
 40
0.148781
 50
345.023262
 51
385.094389
  0
ARC
  8
0
 62
    72
  6
CONTINUOUS
 10
0.228428
 20
1.042173
 30
0.000000
 40
0.423885
 50
332.373524
 51
347.412669
  0
ARC
  8
0
 62
    72
  6
CONTINUOUS
 10
0.623439
 20
0.836984
 30
0.000000
 40
0.021283
 50
156.071877
 51
226.187598
  0
ARC
  8
0
 62
    72
  6
CONTINUOUS
 10
0.616448
 20
0.829738
 30
0.000000
 40
0.011214
 50
226.333722
 51
352.326593
  0
ARC
  8
0
 62
    72
  6
CONTINUOUS
 10
1.040636
 20
0.639309
 30
0.000000
 40
0.454231
 50
148.412042
 51
155.421713
  0
ARC
  8
0
 62
    72
  6
CONTINUOUS
 10
0.483406
 20
0.999662
 30
0.000000
 40
0.209737
 50
324.288730
 51
355.245520
  0
ARC
  8
0
 62
    72
  6
CONTINUOUS
 10
0.783681
 20
1.034606
 30
0.000000
 40
0.105198
 50
150.417547
 51
209.829710
  0
ARC
  8
0
 62
    72
  6
CONTINUOUS
 10
0.909011
 20
0.932105
 30
0.000000
 40
0.266193
 50
122.950605
 51
144.538150
  0
ARC
  8
0
 62
    72
  6
CONTINUOUS
 10
0.624479
 20
1.371918
 30
0.000000
 40
0.257633
 50
302.848297
 51
324.570538
  0
ARC
  8
0
 62
    72
  6
CONTINUOUS
 10
0.600876
 20
1.064990
 30
0.000000
 40
0.193105
 50
337.754914
 51
354.451782
  0
ARC
  8
0
 62
    72
  6
CONTINUOUS
 10
0.714336
 20
1.022407
 30
0.000000
 40
0.072057
 50
288.008340
 51
334.939511
  0
ARC
  8
0
 62
    72
  6
CONTINUOUS
 10
0.753405
 20
0.954329
 30
0.000000
 40
0.016798
 50
181.527684
 51
271.089626
  0
ARC
  8
0
 62
    72
  6
CONTINUOUS
 10
0.752472
 20
0.976114
 30
0.000000
 40
0.038601
 50
271.859280
 51
317.540458
  0
ARC
  8
0
 62
    72
  6
CONTINUOUS
 10
0.646813
 20
1.100507
 30
0.000000
 40
0.201566
 50
311.719097
 51
327.117159
  0
ARC
  8
0
 62
    72
  6
CONTINUOUS
 10
0.752625
 20
1.032352
 30
0.000000
 40
0.075703
 50
326.956764
 51
368.808061
  0
ARC
  8
0
 62
    72
  6
CONTINUOUS
 10
0.923352
 20
1.017914
 30
0.000000
 40
0.099386
 50
145.430438
 51
164.816506
  0
ARC
  8
0
 62
    72
  6
CONTINUOUS
 10
0.753156
 20
1.134664
 30
0.000000
 40
0.107005
 50
325.662510
 51
344.533541
  0
ARC
  8
0
 62
    72
  6
CONTINUOUS
 10
0.814029
 20
1.114838
 30
0.000000
 40
0.043146
 50
348.353823
 51
399.392216
  0
ARC
  8
0
 62
    72
  6
CONTINUOUS
 10
0.879458
 20
1.069159
 30
0.000000
 40
0.079795
 50
113.709235
 51
156.607043
  0
ARC
  8
0
 62
    72
  6
CONTINUOUS
 10
1.001169
 20
1.024994
 30
0.000000
 40
0.209182
 50
158.740726
 51
174.148598
  0
ARC
  8
0
 62
    72
  6
CONTINUOUS
 10
1.627147
 20
1.970140
 30
0.000000
 40
0.264044
 50
60.184696
 51
84.135452
  0
ARC
  8
0
 62
    72
  6
CONTINUOUS
 10
1.670541
 20
2.034531
 30
0.000000
 40
0.186687
 50
30.638038
 51
61.914080
  0
ARC
  8
0
 62
    72
  6
CONTINUOUS
 10
1.844653
 20
2.139611
 30
0.000000
 40
0.016755
 50
216.395959
 51
307.692684
  0
ARC
  8
0
 62
    72
  6
CONTINUOUS
 10
1.848477
 20
2.138804
 30
0.000000
 40
0.014009
 50
297.276767
 51
416.013826
  0
ARC
  8
0
 62
    72
  6
CONTINUOUS
 10
1.876316
 20
2.182949
 30
0.000000
 40
0.038189
 50
175.087945
 51
238.405382
  0
ARC
  8
0
 62
    72
  6
CONTINUOUS
 10
1.894362
 20
2.164006
 30
0.000000
 40
0.060333
 50
126.624991
 51
158.396657
  0
ARC
  8
0
 62
    72
  6
CONTINUOUS
 10
1.818974
 20
2.265870
 30
0.000000
 40
0.066394
 50
306.394433
 51
342.977405
  0
ARC
  8
0
 62
    72
  6
CONTINUOUS
 10
1.761088
 20
2.280534
 30
0.000000
 40
0.126071
 50
344.306485
 51
382.759213
  0
ARC
  8
0
 62
    72
  6
CONTINUOUS
 10
1.472644
 20
2.161194
 30
0.000000
 40
0.438227
 50
22.557940
 51
33.855072
  0
LINE
  8
0
 62
    72
  6
CONTINUOUS
 10
1.836569
 20
2.405328
 30
0.000000
 11
1.832098
 21
2.412507
 31
0.000000
  0
ARC
  8
0
 62
     1
  6
CONTINUOUS
 10
-1.054115
 20
2.484974
 30
0.000000
 40
0.249213
 50
132.741451
 51
137.521518
  0
ARC
  8
0
 62
     1
  6
CONTINUOUS
 10
-1.303185
 20
2.700314
 30
0.000000
 40
0.080454
 50
278.370815
 51
324.217337
  0
ARC
  8
0
 62
     1
  6
CONTINUOUS
 10
-1.285968
 20
2.683551
 30
0.000000
 40
0.063074
 50
226.832469
 51
264.993723
  0
ARC
  8
0
 62
     1
  6
CONTINUOUS
 10
-1.309617
 20
2.664118
 30
0.000000
 40
0.032960
 50
180.302724
 51
233.721035
  0
ARC
  8
0
 62
     1
  6
CONTINUOUS
 10
-1.225509
 20
2.627689
 30
0.000000
 40
0.122552
 50
124.426022
 51
162.792970
  0
ARC
  8
0
 62
     1
  6
CONTINUOUS
 10
-1.199112
 20
2.578596
 30
0.000000
 40
0.178071
 50
97.187477
 51
122.501129
  0
ARC
  8
0
 62
     1
  6
CONTINUOUS
 10
-1.207638
 20
2.614190
 30
0.000000
 40
0.141747
 50
71.345806
 51
95.568329
  0
ARC
  8
0
 62
     1
  6
CONTINUOUS
 10
2.198048
 20
2.736076
 30
0.000000
 40
2.711721
 50
192.671854
 51
193.838615
  0
ARC
  8
0
 62
     1
  6
CONTINUOUS
 10
-0.429246
 20
2.151095
 30
0.000000
 40
0.020865
 50
84.593995
 51
208.268791
  0
ARC
  8
0
 62
     1
  6
CONTINUOUS
 10
-0.430736
 20
2.099835
 30
0.000000
 40
0.072114
 50
50.121290
 51
87.253372
  0
ARC
  8
0
 62
     1
  6
CONTINUOUS
 10
-0.725390
 20
1.912936
 30
0.000000
 40
0.418196
 50
24.953002
 51
35.397890
  0
ARC
  8
0
 62
     1
  6
CONTINUOUS
 10
-0.476179
 20
2.024899
 30
0.000000
 40
0.145058
 50
358.632742
 51
386.384677
  0
ARC
  8
0
 62
     1
  6
CONTINUOUS
 10
0.150721
 20
1.906347
 30
0.000000
 40
0.495437
 50
166.567422
 51
173.885043
  0
ARC
  8
0
 62
     1
  6
CONTINUOUS
 10
-0.698037
 20
1.988664
 30
0.000000
 40
0.357364
 50
340.163074
 51
355.258355
  0
ARC
  8
0
 62
     1
  6
CONTINUOUS
 10
-0.446033
 20
1.898487
 30
0.000000
 40
0.089715
 50
283.383632
 51
339.722481
  0
ARC
  8
0
 62
     1
  6
CONTINUOUS
 10
-0.677828
 20
1.912602
 30
0.000000
 40
0.272154
 50
338.126381
 51
366.938026
  0
ARC
  8
0
 62
     1
  6
CONTINUOUS
 10
-1.384100
 20
1.831401
 30
0.000000
 40
0.983074
 50
6.663604
 51
15.098087
  0
ARC
  8
0
 62
     1
  6
CONTINUOUS
 10
-0.256953
 20
2.333418
 30
0.000000
 40
0.048186
 50
182.133252
 51
226.487965
  0
ARC
  8
0
 62
     1
  6
CONTINUOUS
 10
-0.274126
 20
2.333609
 30
0.000000
 40
0.031043
 50
117.410511
 51
183.664844
  0
ARC
  8
0
 62
     1
  6
CONTINUOUS
 10
-0.086589
 20
2.870447
 30
0.000000
 40
0.547815
 50
248.381582
 51
268.707997
  0
ARC
  8
0
 62
     1
  6
CONTINUOUS
 10
-0.138268
 20
1.551626
 30
0.000000
 40
0.772147
 50
77.488887
 51
87.080555
  0
ARC
  8
0
 62
     1
  6
CONTINUOUS
 10
-0.017977
 20
2.325875
 30
0.000000
 40
0.051231
 50
295.050635
 51
336.488686
  0
ARC
  8
0
 62
     1
  6
CONTINUOUS
 10
-0.118861
 20
2.520379
 30
0.000000
 40
0.270305
 50
264.988072
 51
296.966758
  0
ARC
  8
0
 62
     1
  6
CONTINUOUS
 10
-0.115038
 20
2.590465
 30
0.000000
 40
0.340466
 50
239.051428
 51
265.377711
  0
ARC
  8
0
 62
     1
  6
CONTINUOUS
 10
-1.156170
 20
-0.971172
 30
0.000000
 40
3.308258
 50
72.182204
 51
73.100994
  0
ARC
  8
0
 62
     1
  6
CONTINUOUS
 10
-0.202675
 20
2.205187
 30
0.000000
 40
0.064614
 50
283.681130
 51
335.511125
  0
ARC
  8
0
 62
     1
  6
CONTINUOUS
 10
-0.225127
 20
2.259495
 30
0.000000
 40
0.123019
 50
260.041333
 51
287.862598
  0
ARC
  8
0
 62
     1
  6
CONTINUOUS
 10
-0.148455
 20
2.478070
 30
0.000000
 40
0.353578
 50
224.712104
 51
253.917976
  0
ARC
  8
0
 62
     1
  6
CONTINUOUS
 10
-0.369217
 20
2.245311
 30
0.000000
 40
0.034449
 50
159.340676
 51
207.672654
  0
ARC
  8
0
 62
     1
  6
CONTINUOUS
 10
-0.385081
 20
2.256440
 30
0.000000
 40
0.016402
 50
85.862054
 51
176.417923
  0
ARC
  8
0
 62
     1
  6
CONTINUOUS
 10
-0.014494
 20
2.895703
 30
0.000000
 40
0.724201
 50
239.330554
 51
255.607220
  0
ARC
  8
0
 62
    12
  6
CONTINUOUS
 10
2.530273
 20
0.639184
 30
0.000000
 40
0.009209
 50
37.427460
 51
101.529015
  0
ARC
  8
0
 62
    12
  6
CONTINUOUS
 10
2.532203
 20
0.643124
 30
0.000000
 40
0.005633
 50
281.984116
 51
377.099194
  0
ARC
  8
0
 62
    12
  6
CONTINUOUS
 10
2.439844
 20
0.871075
 30
0.000000
 40
0.251498
 50
261.583722
 51
291.831831
  0
ARC
  8
0
 62
    12
  6
CONTINUOUS
 10
2.523803
 20
1.399866
 30
0.000000
 40
0.786904
 50
251.367268
 51
261.171695
  0
ARC
  8
0
 62
    12
  6
CONTINUOUS
 10
1.412624
 20
-2.146438
 30
0.000000
 40
2.929642
 50
72.934167
 51
73.719117
  0
ARC
  8
0
 62
    12
  6
CONTINUOUS
 10
1.683267
 20
-1.619361
 30
0.000000
 40
2.350499
 50
76.450902
 51
82.450233
  0
ARC
  8
0
 62
    12
  6
CONTINUOUS
 10
1.944928
 20
-0.146429
 30
0.000000
 40
0.858488
 50
86.850604
 51
105.372175
  0
ARC
  8
0
 62
    12
  6
CONTINUOUS
 10
1.711336
 20
0.744711
 30
0.000000
 40
0.063651
 50
234.427588
 51
275.424601
  0
ARC
  8
0
 62
    12
  6
CONTINUOUS
 10
1.677807
 20
0.705041
 30
0.000000
 40
0.012597
 50
98.287495
 51
253.874963
  0
ARC
  8
0
 62
    12
  6
CONTINUOUS
 10
1.941769
 20
0.022069
 30
0.000000
 40
0.744494
 50
70.893044
 51
110.915498
  0
ARC
  8
0
 62
    12
  6
CONTINUOUS
 10
1.018315
 20
-3.569055
 30
0.000000
 40
4.450376
 50
73.815883
 51
74.795864
  0
ARC
  8
0
 62
    12
  6
CONTINUOUS
 10
2.650829
 20
1.899015
 30
0.000000
 40
1.256783
 50
251.821782
 51
264.411196
  0
ARC
  8
0
 62
    72
  6
CONTINUOUS
 10
1.767712
 20
2.376508
 30
0.000000
 40
0.073767
 50
29.209849
 51
56.839598
  0
ARC
  8
0
 62
    72
  6
CONTINUOUS
 10
1.804210
 20
2.421577
 30
0.000000
 40
0.017122
 50
77.004324
 51
167.692134
  0
ARC
  8
0
 62
    72
  6
CONTINUOUS
 10
1.922177
 20
2.424104
 30
0.000000
 40
0.134700
 50
179.522331
 51
215.248079
  0
ARC
  8
0
 62
    72
  6
CONTINUOUS
 10
1.683248
 20
2.260189
 30
0.000000
 40
0.155075
 50
8.940757
 51
33.760063
  0
ARC
  8
0
 62
    72
  6
CONTINUOUS
 10
2.122129
 20
2.310823
 30
0.000000
 40
0.286920
 50
185.306214
 51
187.856000
  0
ARC
  8
0
 62
    72
  6
CONTINUOUS
 10
1.706770
 20
2.248680
 30
0.000000
 40
0.133121
 50
355.397698
 51
369.916704
  0
ARC
  8
0
 62
    72
  6
CONTINUOUS
 10
1.810458
 20
2.239759
 30
0.000000
 40
0.029057
 50
295.575224
 51
356.526734
  0
ARC
  8
0
 62
    72
  6
CONTINUOUS
 10
1.681243
 20
2.094640
 30
0.000000
 40
0.185027
 50
39.990287
 51
71.024257
  0
ARC
  8
0
 62
    72
  6
CONTINUOUS
 10
1.572776
 20
1.760850
 30
0.000000
 40
0.535980
 50
71.661988
 51
82.183720
  0
ARC
  8
0
 62
    72
  6
CONTINUOUS
 10
1.720797
 20
2.833299
 30
0.000000
 40
0.546636
 50
252.105815
 51
262.100338
  0
ARC
  8
0
 62
    72
  6
CONTINUOUS
 10
1.610498
 20
2.486603
 30
0.000000
 40
0.182827
 50
221.563002
 51
251.616054
  0
ARC
  8
0
 62
    72
  6
CONTINUOUS
 10
1.596978
 20
2.493879
 30
0.000000
 40
0.178122
 50
209.717060
 51
226.204639
  0
ARC
  8
0
 62
    72
  6
CONTINUOUS
 10
1.272688
 20
2.306222
 30
0.000000
 40
0.196556
 50
30.364460
 51
42.523351
  0
ARC
  8
0
 62
    72
  6
CONTINUOUS
 10
1.368915
 20
2.392794
 30
0.000000
 40
0.067134
 50
43.577912
 51
79.541817
  0
ARC
  8
0
 62
    72
  6
CONTINUOUS
 10
1.415960
 20
2.424420
 30
0.000000
 40
0.048969
 50
135.384573
 51
193.634637
  0
ARC
  8
0
 62
    72
  6
CONTINUOUS
 10
1.531080
 20
2.465211
 30
0.000000
 40
0.170919
 50
197.830072
 51
215.761578
  0
LINE
  8
0
 62
    72
  6
CONTINUOUS
 10
1.392386
 20
2.365323
 30
0.000000
 11
1.392649
 21
2.364907
 31
0.000000
  0
ARC
  8
0
 62
    72
  6
CONTINUOUS
 10
1.595103
 20
2.480082
 30
0.000000
 40
0.232923
 50
209.635251
 51
247.144250
  0
ARC
  8
0
 62
    72
  6
CONTINUOUS
 10
1.669740
 20
2.662923
 30
0.000000
 40
0.430403
 50
247.442577
 51
267.921104
  0
ARC
  8
0
 62
    72
  6
CONTINUOUS
 10
1.581241
 20
2.326897
 30
0.000000
 40
0.123367
 50
26.994763
 51
67.765814
  0
ARC
  8
0
 62
    72
  6
CONTINUOUS
 10
1.680735
 20
2.381501
 30
0.000000
 40
0.010524
 50
269.395403
 51
367.607617
  0
ARC
  8
0
 62
    72
  6
CONTINUOUS
 10
1.684778
 20
2.407248
 30
0.000000
 40
0.036508
 50
222.122913
 51
263.466038
  0
ARC
  8
0
 62
    72
  6
CONTINUOUS
 10
1.504895
 20
2.161398
 30
0.000000
 40
0.268981
 50
55.383137
 51
71.349425
  0
ARC
  8
0
 62
    72
  6
CONTINUOUS
 10
1.674233
 20
2.664407
 30
0.000000
 40
0.261767
 50
235.178453
 51
251.440297
  0
ARC
  8
0
 62
    72
  6
CONTINUOUS
 10
1.559504
 20
2.497618
 30
0.000000
 40
0.059341
 50
169.589260
 51
234.159703
  0
ARC
  8
0
 62
    72
  6
CONTINUOUS
 10
1.512214
 20
2.508457
 30
0.000000
 40
0.011075
 50
104.106518
 51
180.596130
  0
ARC
  8
0
 62
    72
  6
CONTINUOUS
 10
1.512446
 20
2.492172
 30
0.000000
 40
0.027184
 50
63.299465
 51
96.189448
  0
ARC
  8
0
 62
    72
  6
CONTINUOUS
 10
1.418012
 20
2.360703
 30
0.000000
 40
0.188768
 50
47.391027
 51
55.599604
  0
ARC
  8
0
 62
    72
  6
CONTINUOUS
 10
1.804403
 20
2.775491
 30
0.000000
 40
0.378113
 50
226.849659
 51
242.176993
  0
ARC
  8
0
 62
    72
  6
CONTINUOUS
 10
1.883920
 20
2.328635
 30
0.000000
 40
0.147081
 50
44.767609
 51
67.585474
  0
ARC
  8
0
 62
    72
  6
CONTINUOUS
 10
1.934120
 20
2.452200
 30
0.000000
 40
0.013728
 50
64.624519
 51
133.317274
  0
ARC
  8
0
 62
    72
  6
CONTINUOUS
 10
1.949990
 20
2.448520
 30
0.000000
 40
0.028746
 50
151.609358
 51
198.690348
  0
ARC
  8
0
 62
    72
  6
CONTINUOUS
 10
2.071031
 20
2.459309
 30
0.000000
 40
0.149614
 50
187.682231
 51
245.166464
  0
ARC
  8
0
 62
    72
  6
CONTINUOUS
 10
2.146669
 20
2.709940
 30
0.000000
 40
0.410473
 50
250.284426
 51
270.404814
  0
ARC
  8
0
 62
    72
  6
CONTINUOUS
 10
2.135948
 20
1.697879
 30
0.000000
 40
0.601753
 50
76.758177
 51
88.702916
  0
ARC
  8
0
 62
    72
  6
CONTINUOUS
 10
2.227624
 20
2.095427
 30
0.000000
 40
0.193784
 50
38.930833
 51
76.218705
  0
ARC
  8
0
 62
    72
  6
CONTINUOUS
 10
2.381834
 20
2.220744
 30
0.000000
 40
0.004958
 50
225.677437
 51
356.219270
  0
ARC
  8
0
 62
    72
  6
CONTINUOUS
 10
2.360270
 20
2.230545
 30
0.000000
 40
0.028380
 50
339.092234
 51
380.521414
  0
ARC
  8
0
 62
    72
  6
CONTINUOUS
 10
2.224622
 20
2.155119
 30
0.000000
 40
0.183320
 50
27.756422
 51
69.008822
  0
ARC
  8
0
 62
    72
  6
CONTINUOUS
 10
2.084095
 20
1.767114
 30
0.000000
 40
0.595967
 50
69.757905
 51
82.641139
  0
LINE
  8
0
 62
    72
  6
CONTINUOUS
 10
2.160428
 20
2.358172
 30
0.000000
 11
2.157458
 21
2.358674
 31
0.000000
  0
ARC
  8
0
 62
    72
  6
CONTINUOUS
 10
2.214047
 20
2.781653
 30
0.000000
 40
0.426748
 50
248.398402
 51
262.379766
  0
ARC
  8
0
 62
    72
  6
CONTINUOUS
 10
2.157387
 20
2.603812
 30
0.000000
 40
0.240877
 50
225.429456
 51
245.354247
  0
ARC
  8
0
 62
    72
  6
CONTINUOUS
 10
2.140902
 20
2.189482
 30
0.000000
 40
0.298847
 50
83.749482
 51
95.819927
  0
ARC
  8
0
 62
    72
  6
CONTINUOUS
 10
2.158524
 20
2.370526
 30
0.000000
 40
0.116981
 50
49.553947
 51
82.674678
  0
ARC
  8
0
 62
    72
  6
CONTINUOUS
 10
2.246529
 20
2.470948
 30
0.000000
 40
0.016634
 50
223.250284
 51
272.705921
  0
ARC
  8
0
 62
    72
  6
CONTINUOUS
 10
2.223576
 20
2.453868
 30
0.000000
 40
0.023744
 50
1.121188
 51
49.691975
  0
ARC
  8
0
 62
    72
  6
CONTINUOUS
 10
2.164837
 20
2.432523
 30
0.000000
 40
0.083946
 50
28.031849
 51
73.568999
  0
ARC
  8
0
 62
    72
  6
CONTINUOUS
 10
2.141025
 20
2.310896
 30
0.000000
 40
0.207663
 50
76.761136
 51
93.880145
  0
ARC
  8
0
 62
    72
  6
CONTINUOUS
 10
2.113848
 20
2.786619
 30
0.000000
 40
0.268856
 50
261.376162
 51
272.798121
  0
ARC
  8
0
 62
    72
  6
CONTINUOUS
 10
2.089241
 20
2.615206
 30
0.000000
 40
0.095701
 50
227.400079
 51
260.553351
  0
ARC
  8
0
 62
    72
  6
CONTINUOUS
 10
2.007538
 20
2.524584
 30
0.000000
 40
0.026336
 50
50.008080
 51
104.458425
  0
ARC
  8
0
 62
    72
  6
CONTINUOUS
 10
2.002186
 20
2.537245
 30
0.000000
 40
0.012899
 50
95.445584
 51
200.984840
  0
ARC
  8
0
 62
    72
  6
CONTINUOUS
 10
2.064660
 20
2.569383
 30
0.000000
 40
0.083089
 50
206.256055
 51
255.241329
  0
ARC
  8
0
 62
    72
  6
CONTINUOUS
 10
2.084129
 20
2.699447
 30
0.000000
 40
0.214300
 50
259.069351
 51
277.095156
  0
ARC
  8
0
 62
    72
  6
CONTINUOUS
 10
2.637661
 20
2.592185
 30
0.000000
 40
0.003795
 50
338.396154
 51
451.007332
  0
ARC
  8
0
 62
    72
  6
CONTINUOUS
 10
2.621228
 20
2.603617
 30
0.000000
 40
0.023730
 50
306.577182
 51
327.270999
  0
ARC
  8
0
 62
    72
  6
CONTINUOUS
 10
2.683369
 20
2.528046
 30
0.000000
 40
0.074148
 50
130.342814
 51
133.310340
  0
ARC
  8
0
 62
    72
  6
CONTINUOUS
 10
2.423219
 20
2.960661
 30
0.000000
 40
0.432649
 50
254.458930
 51
298.929723
  0
ARC
  8
0
 62
    72
  6
CONTINUOUS
 10
2.349067
 20
2.531728
 30
0.000000
 40
0.043486
 50
98.948417
 51
163.841639
  0
ARC
  8
0
 62
    72
  6
CONTINUOUS
 10
2.351997
 20
2.429392
 30
0.000000
 40
0.145616
 50
73.909686
 51
93.817191
  0
ARC
  8
0
 62
    72
  6
CONTINUOUS
 10
2.460741
 20
2.855021
 30
0.000000
 40
0.293788
 50
256.539660
 51
263.718992
  0
ARC
  8
0
 62
    72
  6
CONTINUOUS
 10
2.435190
 20
2.875053
 30
0.000000
 40
0.312126
 50
268.790108
 51
288.976446
  0
ARC
  8
0
 62
    72
  6
CONTINUOUS
 10
2.632406
 20
2.304031
 30
0.000000
 40
0.291994
 50
88.981770
 51
109.136043
  0
ARC
  8
0
 62
    72
  6
CONTINUOUS
 10
2.312043
 20
2.656909
 30
0.000000
 40
0.189250
 50
59.201766
 51
93.849584
  0
LINE
  8
0
 62
    72
  6
CONTINUOUS
 10
2.299338
 20
2.845732
 30
0.000000
 11
2.298733
 21
2.845697
 31
0.000000
  0
ARC
  8
0
 62
    72
  6
CONTINUOUS
 10
2.299698
 20
2.723282
 30
0.000000
 40
0.122419
 50
90.451439
 51
108.088619
  0
ARC
  8
0
 62
    72
  6
CONTINUOUS
 10
2.268623
 20
2.816070
 30
0.000000
 40
0.024580
 50
106.386832
 51
191.545308
  0
ARC
  8
0
 62
    72
  6
CONTINUOUS
 10
4.312470
 20
7.928676
 30
0.000000
 40
5.519548
 50
247.996971
 51
248.245864
  0
ARC
  8
0
 62
    72
  6
CONTINUOUS
 10
2.010486
 20
2.095079
 30
0.000000
 40
0.752153
 50
59.534413
 51
70.076729
  0
ARC
  8
0
 62
    72
  6
CONTINUOUS
 10
2.228892
 20
2.509089
 30
0.000000
 40
0.285390
 50
48.448920
 51
55.181758
  0
ARC
  8
0
 62
    72
  6
CONTINUOUS
 10
2.681602
 20
3.005598
 30
0.000000
 40
0.386572
 50
227.046084
 51
253.458987
  0
ARC
  8
0
 62
    72
  6
CONTINUOUS
 10
2.628019
 20
2.828485
 30
0.000000
 40
0.201536
 50
253.726659
 51
292.289660
  0
ARC
  8
0
 62
    72
  6
CONTINUOUS
 10
2.690614
 20
2.675510
 30
0.000000
 40
0.036249
 50
292.452711
 51
316.160656
  0
ARC
  8
0
 62
    72
  6
CONTINUOUS
 10
2.713546
 20
2.654352
 30
0.000000
 40
0.005093
 50
309.139388
 51
395.101993
  0
ARC
  8
0
 62
    72
  6
CONTINUOUS
 10
2.700442
 20
2.623569
 30
0.000000
 40
0.037878
 50
62.873541
 51
110.957394
  0
ARC
  8
0
 62
    72
  6
CONTINUOUS
 10
2.649630
 20
0.391675
 30
0.000000
 40
0.139777
 50
227.426953
 51
260.221070
  0
ARC
  8
0
 62
    72
  6
CONTINUOUS
 10
2.811972
 20
0.557669
 30
0.000000
 40
0.371918
 50
214.542671
 51
226.309811
  0
ARC
  8
0
 62
    72
  6
CONTINUOUS
 10
2.210705
 20
0.145064
 30
0.000000
 40
0.357305
 50
34.371875
 51
47.151843
  0
ARC
  8
0
 62
    72
  6
CONTINUOUS
 10
2.360914
 20
0.301753
 30
0.000000
 40
0.140322
 50
48.609236
 51
83.244061
  0
ARC
  8
0
 62
    72
  6
CONTINUOUS
 10
2.372828
 20
0.386972
 30
0.000000
 40
0.054323
 50
85.149332
 51
167.472755
  0
ARC
  8
0
 62
    72
  6
CONTINUOUS
 10
2.335153
 20
0.230626
 30
0.000000
 40
0.168829
 50
56.712579
 51
95.218106
  0
ARC
  8
0
 62
    72
  6
CONTINUOUS
 10
1.896008
 20
-0.057790
 30
0.000000
 40
0.683612
 50
34.324267
 51
38.928166
  0
ARC
  8
0
 62
    72
  6
CONTINUOUS
 10
2.798059
 20
0.543274
 30
0.000000
 40
0.400469
 50
212.571248
 51
227.601265
  0
ARC
  8
0
 62
    72
  6
CONTINUOUS
 10
2.618727
 20
0.352282
 30
0.000000
 40
0.138554
 50
229.110084
 51
274.245790
  0
ARC
  8
0
 62
    72
  6
CONTINUOUS
 10
2.623892
 20
0.251270
 30
0.000000
 40
0.037508
 50
277.803576
 51
312.001722
  0
ARC
  8
0
 62
    72
  6
CONTINUOUS
 10
2.639808
 20
0.232895
 30
0.000000
 40
0.013212
 50
314.032289
 51
374.340694
  0
ARC
  8
0
 62
    72
  6
CONTINUOUS
 10
2.625913
 20
0.224988
 30
0.000000
 40
0.028941
 50
22.723656
 51
90.047599
  0
ARC
  8
0
 62
    72
  6
CONTINUOUS
 10
2.674190
 20
2.847761
 30
0.000000
 40
0.189247
 50
239.201377
 51
273.849194
  0
ARC
  8
0
 62
    72
  6
CONTINUOUS
 10
2.836630
 20
3.096711
 30
0.000000
 40
0.486411
 50
225.071822
 51
237.780277
  0
ARC
  8
0
 62
    72
  6
CONTINUOUS
 10
2.149605
 20
2.407970
 30
0.000000
 40
0.486403
 50
45.071203
 51
57.779887
  0
ARC
  8
0
 62
    72
  6
CONTINUOUS
 10
1.926852
 20
2.820647
 30
0.000000
 40
0.261815
 50
67.779477
 51
109.850809
  0
ARC
  8
0
 62
    72
  6
CONTINUOUS
 10
1.921645
 20
2.855481
 30
0.000000
 40
0.227389
 50
111.597431
 51
155.816173
  0
ARC
  8
0
 62
    72
  6
CONTINUOUS
 10
1.748439
 20
2.929787
 30
0.000000
 40
0.039072
 50
151.159888
 51
185.523639
  0
ARC
  8
0
 62
    72
  6
CONTINUOUS
 10
1.725189
 20
2.928381
 30
0.000000
 40
0.015817
 50
188.560970
 51
242.369210
  0
ARC
  8
0
 62
    72
  6
CONTINUOUS
 10
1.730005
 20
2.941618
 30
0.000000
 40
0.029837
 50
245.966959
 51
303.644493
  0
ARC
  8
0
 62
    72
  6
CONTINUOUS
 10
1.878043
 20
2.802047
 30
0.000000
 40
0.174520
 50
115.567803
 51
138.897255
  0
ARC
  8
0
 62
    72
  6
CONTINUOUS
 10
2.027839
 20
2.480258
 30
0.000000
 40
0.529460
 50
107.344396
 51
115.162007
  0
ARC
  8
0
 62
    72
  6
CONTINUOUS
 10
1.110183
 20
5.238729
 30
0.000000
 40
2.377753
 50
288.635842
 51
289.099020
  0
ARC
  8
0
 62
    72
  6
CONTINUOUS
 10
1.928139
 20
2.407028
 30
0.000000
 40
0.586195
 50
77.400910
 51
93.907869
  0
ARC
  8
0
 62
    72
  6
CONTINUOUS
 10
2.189467
 20
3.603644
 30
0.000000
 40
0.638638
 50
257.937342
 51
271.035089
  0
ARC
  8
0
 62
    72
  6
CONTINUOUS
 10
2.192269
 20
3.183402
 30
0.000000
 40
0.218467
 50
272.291513
 51
311.126443
  0
ARC
  8
0
 62
    72
  6
CONTINUOUS
 10
2.289475
 20
3.066283
 30
0.000000
 40
0.066421
 50
314.415780
 51
336.944061
  0
ARC
  8
0
 62
    72
  6
CONTINUOUS
 10
-2.160018
 20
4.398435
 30
0.000000
 40
0.075217
 50
349.432604
 51
401.538516
  0
ARC
  8
0
 62
    72
  6
CONTINUOUS
 10
-1.670491
 20
3.654754
 30
0.000000
 40
0.718179
 50
131.288303
 51
138.120977
  0
ARC
  8
0
 62
    72
  6
CONTINUOUS
 10
-4.162660
 20
6.409794
 30
0.000000
 40
2.996907
 50
312.334233
 51
312.647067
  0
ARC
  8
0
 62
    72
  6
CONTINUOUS
 10
-2.128620
 20
4.188575
 30
0.000000
 40
0.017271
 50
347.161863
 51
462.351189
  0
ARC
  8
0
 62
    72
  6
CONTINUOUS
 10
-2.218097
 20
4.216022
 30
0.000000
 40
0.110824
 50
324.109351
 51
343.602816
  0
ARC
  8
0
 62
    72
  6
CONTINUOUS
 10
-1.996662
 20
4.064348
 30
0.000000
 40
0.157639
 50
146.631568
 51
151.468218
  0
ARC
  8
0
 62
    72
  6
CONTINUOUS
 10
-2.236356
 20
4.198586
 30
0.000000
 40
0.117114
 50
297.224753
 51
329.781739
  0
ARC
  8
0
 62
    72
  6
CONTINUOUS
 10
1.868922
 20
0.567962
 30
0.000000
 40
0.041311
 50
125.659098
 51
194.829573
  0
ARC
  8
0
 62
    72
  6
CONTINUOUS
 10
2.002960
 20
0.607552
 30
0.000000
 40
0.181061
 50
196.084386
 51
213.277919
  0
ARC
  8
0
 62
    72
  6
CONTINUOUS
 10
1.599286
 20
0.354974
 30
0.000000
 40
0.295188
 50
24.864780
 51
31.271300
  0
ARC
  8
0
 62
    72
  6
CONTINUOUS
 10
1.810458
 20
0.449521
 30
0.000000
 40
0.063908
 50
358.486206
 51
387.564673
  0
ARC
  8
0
 62
    72
  6
CONTINUOUS
 10
1.965228
 20
0.449605
 30
0.000000
 40
0.090902
 50
181.117553
 51
198.268925
  0
ARC
  8
0
 62
    72
  6
CONTINUOUS
 10
1.897223
 20
0.427640
 30
0.000000
 40
0.019444
 50
199.625265
 51
271.089471
  0
ARC
  8
0
 62
    72
  6
CONTINUOUS
 10
1.773182
 20
0.464060
 30
0.000000
 40
0.136376
 50
335.819800
 51
380.178706
  0
ARC
  8
0
 62
    72
  6
CONTINUOUS
 10
1.665450
 20
0.426972
 30
0.000000
 40
0.250300
 50
19.640728
 51
44.217645
  0
ARC
  8
0
 62
    12
  6
CONTINUOUS
 10
3.306440
 20
0.069291
 30
0.000000
 40
3.440322
 50
170.430688
 51
173.197481
  0
ARC
  8
0
 62
    12
  6
CONTINUOUS
 10
0.656751
 20
0.442345
 30
0.000000
 40
0.768923
 50
134.276494
 51
165.011153
  0
ARC
  8
0
 62
    12
  6
CONTINUOUS
 10
1.014673
 20
0.083073
 30
0.000000
 40
1.276039
 50
125.863551
 51
134.521177
  0
ARC
  8
0
 62
    12
  6
CONTINUOUS
 10
2.559363
 20
-2.052987
 30
0.000000
 40
3.912100
 50
123.023765
 51
125.869615
  0
ARC
  8
0
 62
    12
  6
CONTINUOUS
 10
-1.047046
 20
3.539701
 30
0.000000
 40
2.742610
 50
302.518877
 51
308.410565
  0
ARC
  8
0
 62
    12
  6
CONTINUOUS
 10
0.062111
 20
2.136618
 30
0.000000
 40
0.954077
 50
308.567472
 51
325.798607
  0
ARC
  8
0
 62
    12
  6
CONTINUOUS
 10
-0.212128
 20
2.425187
 30
0.000000
 40
1.345753
 50
322.197995
 51
337.461671
  0
ARC
  8
0
 62
    12
  6
CONTINUOUS
 10
0.524233
 20
2.111586
 30
0.000000
 40
0.545480
 50
338.239076
 51
357.113066
  0
ARC
  8
0
 62
    12
  6
CONTINUOUS
 10
0.743217
 20
2.099199
 30
0.000000
 40
0.326153
 50
357.348931
 51
387.918360
  0
ARC
  8
0
 62
    12
  6
CONTINUOUS
 10
0.683945
 20
2.149110
 30
0.000000
 40
0.362353
 50
16.480891
 51
33.337557
  0
ARC
  8
0
 62
    12
  6
CONTINUOUS
 10
1.345789
 20
2.577471
 30
0.000000
 40
0.426038
 50
200.718740
 51
212.549882
  0
ARC
  8
0
 62
    12
  6
CONTINUOUS
 10
0.969619
 20
2.435409
 30
0.000000
 40
0.023938
 50
73.540219
 51
201.215333
  0
ARC
  8
0
 62
    12
  6
CONTINUOUS
 10
0.908455
 20
2.309608
 30
0.000000
 40
0.163542
 50
40.667667
 51
65.450959
  0
ARC
  8
0
 62
    12
  6
CONTINUOUS
 10
0.660913
 20
2.100010
 30
0.000000
 40
0.487898
 50
32.130147
 51
40.393429
  0
ARC
  8
0
 62
    12
  6
CONTINUOUS
 10
0.568414
 20
2.083795
 30
0.000000
 40
0.575946
 50
328.477293
 51
388.599973
  0
ARC
  8
0
 62
    12
  6
CONTINUOUS
 10
-2.285589
 20
3.581803
 30
0.000000
 40
3.798109
 50
329.160870
 51
331.725780
  0
ARC
  8
0
 62
    12
  6
CONTINUOUS
 10
0.105552
 20
2.145065
 30
0.000000
 40
1.008568
 50
320.802197
 51
329.605601
  0
ARC
  8
0
 62
    12
  6
CONTINUOUS
 10
-0.780620
 20
3.148447
 30
0.000000
 40
2.339594
 50
301.626347
 51
315.467282
  0
ARC
  8
0
 62
    12
  6
CONTINUOUS
 10
1.180328
 20
0.014365
 30
0.000000
 40
1.357563
 50
122.735434
 51
137.470593
  0
ARC
  8
0
 62
    12
  6
CONTINUOUS
 10
0.810161
 20
0.366596
 30
0.000000
 40
0.846730
 50
138.103205
 51
163.504696
  0
ARC
  8
0
 62
    72
  6
CONTINUOUS
 10
2.348772
 20
3.043456
 30
0.000000
 40
0.003667
 50
150.833846
 51
299.706486
  0
ARC
  8
0
 62
    72
  6
CONTINUOUS
 10
2.222852
 20
3.269393
 30
0.000000
 40
0.255544
 50
261.718781
 51
298.699951
  0
ARC
  8
0
 62
    72
  6
CONTINUOUS
 10
2.311210
 20
3.746750
 30
0.000000
 40
0.740885
 50
247.347395
 51
260.273808
  0
ARC
  8
0
 62
    72
  6
CONTINUOUS
 10
1.616253
 20
3.118787
 30
0.000000
 40
0.029415
 50
168.863560
 51
211.309634
  0
ARC
  8
0
 62
    72
  6
CONTINUOUS
 10
1.595423
 20
3.119856
 30
0.000000
 40
0.009262
 50
68.319832
 51
150.130023
  0
ARC
  8
0
 62
    72
  6
CONTINUOUS
 10
1.570647
 20
3.035635
 30
0.000000
 40
0.097016
 50
44.144926
 51
73.103186
  0
ARC
  8
0
 62
    72
  6
CONTINUOUS
 10
1.501028
 20
3.010300
 30
0.000000
 40
0.167385
 50
352.334227
 51
393.713062
  0
ARC
  8
0
 62
    72
  6
CONTINUOUS
 10
1.502377
 20
3.008733
 30
0.000000
 40
0.165844
 50
321.143494
 51
352.808369
  0
ARC
  8
0
 62
    72
  6
CONTINUOUS
 10
1.425898
 20
3.074495
 30
0.000000
 40
0.266677
 50
302.457813
 51
320.449680
  0
ARC
  8
0
 62
    72
  6
CONTINUOUS
 10
1.582148
 20
2.859314
 30
0.000000
 40
0.016407
 50
154.079529
 51
216.839952
  0
ARC
  8
0
 62
    72
  6
CONTINUOUS
 10
1.661282
 20
2.826276
 30
0.000000
 40
0.102138
 50
144.258430
 51
156.816083
  0
ARC
  8
0
 62
    72
  6
CONTINUOUS
 10
1.495478
 20
2.945595
 30
0.000000
 40
0.102137
 50
324.260959
 51
336.818613
  0
ARC
  8
0
 62
    72
  6
CONTINUOUS
 10
1.289758
 20
3.007104
 30
0.000000
 40
0.316405
 50
341.248116
 51
377.737926
  0
ARC
  8
0
 62
    72
  6
CONTINUOUS
 10
-2.133201
 20
3.997389
 30
0.000000
 40
0.108987
 50
117.057933
 51
148.208674
  0
ARC
  8
0
 62
    72
  6
CONTINUOUS
 10
-2.236894
 20
4.058707
 30
0.000000
 40
0.011725
 50
254.324150
 51
340.565803
  0
ARC
  8
0
 62
    72
  6
CONTINUOUS
 10
-2.232469
 20
4.060645
 30
0.000000
 40
0.015251
 50
172.184019
 51
240.140488
  0
ARC
  8
0
 62
    72
  6
CONTINUOUS
 10
-2.056302
 20
3.997620
 30
0.000000
 40
0.202051
 50
137.477448
 51
161.204439
  0
ARC
  8
0
 62
    72
  6
CONTINUOUS
 10
-2.297958
 20
4.049521
 30
0.000000
 40
0.133898
 50
308.727649
 51
337.119618
  0
ARC
  8
0
 62
    72
  6
CONTINUOUS
 10
-2.176026
 20
3.978218
 30
0.000000
 40
0.019296
 50
8.329353
 51
85.747917
  0
ARC
  8
0
 62
    72
  6
CONTINUOUS
 10
-2.232558
 20
3.977406
 30
0.000000
 40
0.075711
 50
339.245586
 51
362.731078
  0
ARC
  8
0
 62
    72
  6
CONTINUOUS
 10
-2.280466
 20
3.994899
 30
0.000000
 40
0.126711
 50
290.253273
 51
339.525191
  0
ARC
  8
0
 62
    72
  6
CONTINUOUS
 10
-2.343133
 20
4.143422
 30
0.000000
 40
0.287838
 50
270.513432
 51
291.722022
  0
ARC
  8
0
 62
    72
  6
CONTINUOUS
 10
-2.149175
 20
3.673590
 30
0.000000
 40
0.264106
 50
116.866214
 51
136.437948
  0
ARC
  8
0
 62
    72
  6
CONTINUOUS
 10
-2.454486
 20
4.249942
 30
0.000000
 40
0.388192
 50
298.622692
 51
308.244331
  0
ARC
  8
0
 62
    72
  6
CONTINUOUS
 10
1.240930
 20
3.260625
 30
0.000000
 40
0.340021
 50
296.838676
 51
322.666577
  0
ARC
  8
0
 62
    72
  6
CONTINUOUS
 10
1.352654
 20
3.181883
 30
0.000000
 40
0.203499
 50
321.217526
 51
341.028584
  0
ARC
  8
0
 62
    72
  6
CONTINUOUS
 10
1.483624
 20
3.139444
 30
0.000000
 40
0.065892
 50
338.902858
 51
386.273266
  0
ARC
  8
0
 62
    72
  6
CONTINUOUS
 10
0.997366
 20
3.862009
 30
0.000000
 40
0.407679
 50
302.241080
 51
314.450934
  0
ARC
  8
0
 62
    72
  6
CONTINUOUS
 10
0.824344
 20
3.988114
 30
0.000000
 40
0.619868
 50
317.706377
 51
329.255213
  0
ARC
  8
0
 62
    72
  6
CONTINUOUS
 10
1.153041
 20
3.797594
 30
0.000000
 40
0.240009
 50
328.230545
 51
359.019673
  0
ARC
  8
0
 62
    72
  6
CONTINUOUS
 10
1.584145
 20
3.776166
 30
0.000000
 40
0.191913
 50
146.809496
 51
174.821336
  0
ARC
  8
0
 62
    72
  6
CONTINUOUS
 10
1.528816
 20
3.828392
 30
0.000000
 40
0.117787
 50
99.941163
 51
153.350579
  0
ARC
  8
0
 62
    72
  6
CONTINUOUS
 10
1.475750
 20
3.917532
 30
0.000000
 40
0.042354
 50
39.392283
 51
108.499238
  0
ARC
  8
0
 62
    72
  6
CONTINUOUS
 10
1.498556
 20
3.797701
 30
0.000000
 40
0.164050
 50
102.763908
 51
142.015092
  0
ARC
  8
0
 62
    72
  6
CONTINUOUS
 10
1.700104
 20
3.642604
 30
0.000000
 40
0.418364
 50
142.261660
 51
158.722791
  0
ARC
  8
0
 62
    72
  6
CONTINUOUS
 10
0.842380
 20
3.981815
 30
0.000000
 40
0.504010
 50
328.560526
 51
338.172784
  0
ARC
  8
0
 62
    72
  6
CONTINUOUS
 10
1.114049
 20
3.817616
 30
0.000000
 40
0.186585
 50
308.249283
 51
328.066711
  0
ARC
  8
0
 62
    72
  6
CONTINUOUS
 10
1.051622
 20
3.909521
 30
0.000000
 40
0.297512
 50
292.992210
 51
306.733126
  0
ARC
  8
0
 62
    72
  6
CONTINUOUS
 10
0.378466
 20
5.448081
 30
0.000000
 40
1.976873
 50
290.577926
 51
293.534453
  0
LINE
  8
0
 62
    72
  6
CONTINUOUS
 10
1.073299
 20
3.597342
 30
0.000000
 11
1.043807
 21
3.585882
 31
0.000000
  0
ARC
  8
0
 62
    72
  6
CONTINUOUS
 10
1.238347
 20
3.287138
 30
0.000000
 40
0.356502
 50
123.071866
 51
151.640303
  0
ARC
  8
0
 62
    72
  6
CONTINUOUS
 10
1.710168
 20
3.012726
 30
0.000000
 40
0.902211
 50
150.537735
 51
162.207269
  0
ARC
  8
0
 62
    72
  6
CONTINUOUS
 10
0.753266
 20
3.329812
 30
0.000000
 40
0.106242
 50
328.295872
 51
337.069297
  0
ARC
  8
0
 62
    72
  6
CONTINUOUS
 10
0.918608
 20
3.224372
 30
0.000000
 40
0.089883
 50
146.502632
 51
165.921011
  0
ARC
  8
0
 62
    72
  6
CONTINUOUS
 10
0.847351
 20
3.243058
 30
0.000000
 40
0.016240
 50
168.712270
 51
266.258642
  0
ARC
  8
0
 62
    72
  6
CONTINUOUS
 10
0.791088
 20
3.400284
 30
0.000000
 40
0.182006
 50
287.656101
 51
314.373358
  0
ARC
  8
0
 62
    72
  6
CONTINUOUS
 10
0.510663
 20
3.685423
 30
0.000000
 40
0.581933
 50
314.475887
 51
322.968504
  0
ARC
  8
0
 62
    72
  6
CONTINUOUS
 10
1.327841
 20
3.079024
 30
0.000000
 40
0.435704
 50
129.600234
 51
144.028160
  0
ARC
  8
0
 62
    72
  6
CONTINUOUS
 10
1.784549
 20
2.327740
 30
0.000000
 40
1.311856
 50
120.003530
 51
124.045213
  0
ARC
  8
0
 62
    72
  6
CONTINUOUS
 10
0.061819
 20
5.284664
 30
0.000000
 40
2.110323
 50
300.363423
 51
303.118988
  0
ARC
  8
0
 62
    72
  6
CONTINUOUS
 10
0.957428
 20
3.183541
 30
0.000000
 40
0.266724
 50
137.549950
 51
171.029012
  0
ARC
  8
0
 62
    72
  6
CONTINUOUS
 10
1.275031
 20
3.122304
 30
0.000000
 40
0.590093
 50
169.964513
 51
185.069606
  0
ARC
  8
0
 62
    72
  6
CONTINUOUS
 10
0.648369
 20
3.062209
 30
0.000000
 40
0.039682
 50
322.417075
 51
371.559037
  0
ARC
  8
0
 62
    72
  6
CONTINUOUS
 10
0.669749
 20
3.045025
 30
0.000000
 40
0.012273
 50
215.072767
 51
325.116390
  0
ARC
  8
0
 62
    72
  6
CONTINUOUS
 10
0.867274
 20
3.201000
 30
0.000000
 40
0.263938
 50
179.770995
 51
218.146187
  0
ARC
  8
0
 62
    72
  6
CONTINUOUS
 10
1.122621
 20
3.197836
 30
0.000000
 40
0.519299
 50
158.665908
 51
179.534521
  0
ARC
  8
0
 62
    72
  6
CONTINUOUS
 10
1.595880
 20
2.878069
 30
0.000000
 40
1.083773
 50
147.903039
 51
152.006583
  0
ARC
  8
0
 62
    72
  6
CONTINUOUS
 10
0.193785
 20
3.782044
 30
0.000000
 40
0.584712
 50
325.864967
 51
341.488883
  0
ARC
  8
0
 62
    72
  6
CONTINUOUS
 10
0.617204
 20
3.639946
 30
0.000000
 40
0.138086
 50
341.619951
 51
403.151162
  0
ARC
  8
0
 62
    72
  6
CONTINUOUS
 10
0.856624
 20
3.995288
 30
0.000000
 40
0.295468
 50
190.612083
 51
242.007657
  0
ARC
  8
0
 62
    72
  6
CONTINUOUS
 10
0.886582
 20
3.996510
 30
0.000000
 40
0.325168
 50
157.735981
 51
189.851529
  0
ARC
  8
0
 62
    72
  6
CONTINUOUS
 10
0.659546
 20
4.091492
 30
0.000000
 40
0.079094
 50
135.056152
 51
159.100074
  0
ARC
  8
0
 62
    72
  6
CONTINUOUS
 10
0.620720
 20
4.131137
 30
0.000000
 40
0.023615
 50
91.956206
 51
136.593574
  0
ARC
  8
0
 62
    72
  6
CONTINUOUS
 10
0.619108
 20
4.142788
 30
0.000000
 40
0.011978
 50
317.748723
 51
446.143161
  0
ARC
  8
0
 62
    72
  6
CONTINUOUS
 10
0.725677
 20
4.074285
 30
0.000000
 40
0.114891
 50
148.254830
 51
187.712042
  0
ARC
  8
0
 62
    72
  6
CONTINUOUS
 10
0.819557
 20
4.091431
 30
0.000000
 40
0.210269
 50
188.909210
 51
212.158140
  0
ARC
  8
0
 62
    72
  6
CONTINUOUS
 10
1.462202
 20
4.520821
 30
0.000000
 40
0.983101
 50
213.409001
 51
225.450419
  0
ARC
  8
0
 62
    72
  6
CONTINUOUS
 10
-0.329877
 20
2.752594
 30
0.000000
 40
1.534643
 50
39.620805
 51
44.081750
  0
ARC
  8
0
 62
    72
  6
CONTINUOUS
 10
0.683070
 20
3.633020
 30
0.000000
 40
0.195609
 50
0.934538
 51
30.141087
  0
ARC
  8
0
 62
    72
  6
CONTINUOUS
 10
0.591257
 20
3.633427
 30
0.000000
 40
0.287409
 50
340.532935
 51
360.554846
  0
ARC
  8
0
 62
    72
  6
CONTINUOUS
 10
0.325642
 20
3.734172
 30
0.000000
 40
0.571451
 50
319.568702
 51
339.884658
  0
ARC
  8
0
 62
    72
  6
CONTINUOUS
 10
-2.654494
 20
4.461922
 30
0.000000
 40
0.098674
 50
40.565942
 51
89.612496
  0
ARC
  8
0
 62
    72
  6
CONTINUOUS
 10
-2.655658
 20
4.548241
 30
0.000000
 40
0.012487
 50
81.564511
 51
179.109171
  0
ARC
  8
0
 62
    72
  6
CONTINUOUS
 10
-2.627570
 20
4.554675
 30
0.000000
 40
0.041051
 50
188.742570
 51
218.023976
  0
ARC
  8
0
 62
    72
  6
CONTINUOUS
 10
-2.766978
 20
4.307622
 30
0.000000
 40
0.246259
 50
44.006685
 51
64.228499
  0
ARC
  8
0
 62
    72
  6
CONTINUOUS
 10
-2.430830
 20
4.631438
 30
0.000000
 40
0.220487
 50
223.843363
 51
243.057621
  0
ARC
  8
0
 62
    72
  6
CONTINUOUS
 10
-1.985757
 20
4.697499
 30
0.000000
 40
0.604950
 50
203.201986
 51
205.728856
  0
ARC
  8
0
 62
    72
  6
CONTINUOUS
 10
-2.779866
 20
4.368967
 30
0.000000
 40
0.254598
 50
20.748865
 51
38.108069
  0
ARC
  8
0
 62
    72
  6
CONTINUOUS
 10
-2.812649
 20
4.415901
 30
0.000000
 40
0.118780
 50
348.065767
 51
396.794023
  0
ARC
  8
0
 62
    72
  6
CONTINUOUS
 10
-2.708161
 20
4.496782
 30
0.000000
 40
0.013514
 50
90.531568
 51
226.106602
  0
ARC
  8
0
 62
    72
  6
CONTINUOUS
 10
2.364556
 20
0.367786
 30
0.000000
 40
0.333543
 50
206.323579
 51
222.285078
  0
ARC
  8
0
 62
    72
  6
CONTINUOUS
 10
3.061550
 20
0.717884
 30
0.000000
 40
1.113519
 50
201.682820
 51
206.566431
  0
ARC
  8
0
 62
    72
  6
CONTINUOUS
 10
0.702468
 20
-0.230105
 30
0.000000
 40
1.428925
 50
22.056017
 51
24.523078
  0
ARC
  8
0
 62
    72
  6
CONTINUOUS
 10
1.983067
 20
0.357659
 30
0.000000
 40
0.020145
 50
15.327318
 51
93.041564
  0
ARC
  8
0
 62
    72
  6
CONTINUOUS
 10
1.993562
 20
0.361951
 30
0.000000
 40
0.019600
 50
126.159343
 51
199.634536
  0
ARC
  8
0
 62
    72
  6
CONTINUOUS
 10
1.665295
 20
0.204011
 30
0.000000
 40
0.344803
 50
11.221539
 51
26.037493
  0
ARC
  8
0
 62
    72
  6
CONTINUOUS
 10
2.346656
 20
0.339552
 30
0.000000
 40
0.349909
 50
191.279546
 51
205.820009
  0
ARC
  8
0
 62
    72
  6
CONTINUOUS
 10
2.137880
 20
0.242280
 30
0.000000
 40
0.119657
 50
207.434126
 51
250.831081
  0
ARC
  8
0
 62
    72
  6
CONTINUOUS
 10
2.111372
 20
0.152573
 30
0.000000
 40
0.026590
 50
241.266996
 51
292.990761
  0
ARC
  8
0
 62
    72
  6
CONTINUOUS
 10
2.114942
 20
0.134480
 30
0.000000
 40
0.009339
 50
316.868526
 51
432.189284
  0
ARC
  8
0
 62
    72
  6
CONTINUOUS
 10
-2.701409
 20
4.458270
 30
0.000000
 40
0.052478
 50
46.067951
 51
97.531272
  0
ARC
  8
0
 62
    72
  6
CONTINUOUS
 10
-2.755054
 20
4.407918
 30
0.000000
 40
0.126013
 50
3.988203
 51
44.385953
  0
ARC
  8
0
 62
    72
  6
CONTINUOUS
 10
-2.828474
 20
4.399246
 30
0.000000
 40
0.199890
 50
341.361868
 51
365.004283
  0
ARC
  8
0
 62
    72
  6
CONTINUOUS
 10
-2.092003
 20
4.131318
 30
0.000000
 40
0.583878
 50
159.545313
 51
174.666607
  0
ARC
  8
0
 62
    72
  6
CONTINUOUS
 10
-2.400922
 20
4.161927
 30
0.000000
 40
0.273457
 50
175.035889
 51
205.828619
  0
ARC
  8
0
 62
    72
  6
CONTINUOUS
 10
-2.664822
 20
4.033419
 30
0.000000
 40
0.020080
 50
303.646965
 51
387.808113
  0
ARC
  8
0
 62
    72
  6
CONTINUOUS
 10
-2.668731
 20
4.039992
 30
0.000000
 40
0.027720
 50
231.733070
 51
302.844785
  0
ARC
  8
0
 62
    72
  6
CONTINUOUS
 10
-2.627371
 20
4.140684
 30
0.000000
 40
0.135723
 50
187.355415
 51
244.454517
  0
ARC
  8
0
 62
    72
  6
CONTINUOUS
 10
-2.643766
 20
4.173510
 30
0.000000
 40
0.128430
 50
163.929329
 51
203.010259
  0
ARC
  8
0
 62
    72
  6
CONTINUOUS
 10
-2.319271
 20
4.079741
 30
0.000000
 40
0.466202
 50
152.531574
 51
163.895235
  0
ARC
  8
0
 62
    72
  6
CONTINUOUS
 10
-3.084776
 20
4.482880
 30
0.000000
 40
0.398982
 50
331.871730
 51
346.736066
  0
ARC
  8
0
 62
    72
  6
CONTINUOUS
 10
0.716477
 20
3.752239
 30
0.000000
 40
1.011573
 50
319.234746
 51
324.763632
  0
ARC
  8
0
 62
    72
  6
CONTINUOUS
 10
1.293060
 20
3.243714
 30
0.000000
 40
0.242981
 50
303.697602
 51
321.278735
  0
ARC
  8
0
 62
    72
  6
CONTINUOUS
 10
1.709813
 20
2.417942
 30
0.000000
 40
0.684391
 50
114.328322
 51
133.662053
  0
ARC
  8
0
 62
    72
  6
CONTINUOUS
 10
1.419068
 20
2.725553
 30
0.000000
 40
0.261134
 50
134.110347
 51
186.505936
  0
ARC
  8
0
 62
    72
  6
CONTINUOUS
 10
1.370123
 20
2.689398
 30
0.000000
 40
0.210609
 50
178.213219
 51
197.540123
  0
ARC
  8
0
 62
    72
  6
CONTINUOUS
 10
1.213862
 20
2.638746
 30
0.000000
 40
0.046364
 50
196.052533
 51
233.248230
  0
ARC
  8
0
 62
    72
  6
CONTINUOUS
 10
1.198254
 20
2.624183
 30
0.000000
 40
0.025639
 50
241.752499
 51
308.157772
  0
ARC
  8
0
 62
    72
  6
CONTINUOUS
 10
-0.375611
 20
1.123528
 30
0.000000
 40
0.068781
 50
137.826024
 51
199.654343
  0
ARC
  8
0
 62
    72
  6
CONTINUOUS
 10
-0.344989
 20
1.120729
 30
0.000000
 40
0.097539
 50
192.033070
 51
231.883468
  0
ARC
  8
0
 62
    72
  6
CONTINUOUS
 10
-0.458628
 20
0.967097
 30
0.000000
 40
0.093635
 50
10.567413
 51
55.204561
  0
ARC
  8
0
 62
    72
  6
CONTINUOUS
 10
-0.280140
 20
1.000176
 30
0.000000
 40
0.087893
 50
190.426801
 51
233.230350
  0
ARC
  8
0
 62
    72
  6
CONTINUOUS
 10
-0.478394
 20
0.966383
 30
0.000000
 40
0.150173
 50
345.888484
 51
380.730246
  0
ARC
  8
0
 62
    72
  6
CONTINUOUS
 10
-0.590710
 20
0.920304
 30
0.000000
 40
0.271548
 50
21.434679
 51
41.774055
  0
ARC
  8
0
 62
    72
  6
CONTINUOUS
 10
-0.324151
 20
1.135622
 30
0.000000
 40
0.072705
 50
186.304204
 51
208.250374
  0
ARC
  8
0
 62
    72
  6
CONTINUOUS
 10
-0.481627
 20
1.116916
 30
0.000000
 40
0.085883
 50
7.171798
 51
25.283697
  0
ARC
  8
0
 62
    72
  6
CONTINUOUS
 10
-0.431806
 20
1.138451
 30
0.000000
 40
0.031688
 50
28.551532
 51
80.516893
  0
ARC
  8
0
 62
    72
  6
CONTINUOUS
 10
0.742433
 20
2.679198
 30
0.000000
 40
0.477614
 50
350.944221
 51
362.689646
  0
ARC
  8
0
 62
    72
  6
CONTINUOUS
 10
2.235312
 20
2.723574
 30
0.000000
 40
1.016029
 50
178.818580
 51
181.238663
  0
ARC
  8
0
 62
    12
  6
CONTINUOUS
 10
1.508305
 20
0.307170
 30
0.000000
 40
1.539507
 50
168.768926
 51
180.150420
  0
ARC
  8
0
 62
    12
  6
CONTINUOUS
 10
1.173545
 20
0.308603
 30
0.000000
 40
1.204755
 50
180.260387
 51
194.468927
  0
ARC
  8
0
 62
    12
  6
CONTINUOUS
 10
0.361940
 20
0.134439
 30
0.000000
 40
0.563555
 50
81.634083
 51
95.603573
  0
ARC
  8
0
 62
    12
  6
CONTINUOUS
 10
0.279681
 20
-0.454060
 30
0.000000
 40
1.157768
 50
74.795724
 51
81.843861
  0
ARC
  8
0
 62
    12
  6
CONTINUOUS
 10
1.831421
 20
4.381703
 30
0.000000
 40
3.922392
 50
251.445931
 51
255.453018
  0
ARC
  8
0
 62
    12
  6
CONTINUOUS
 10
1.268288
 20
2.200406
 30
0.000000
 40
1.669581
 50
255.356760
 51
264.697215
  0
ARC
  8
0
 62
    12
  6
CONTINUOUS
 10
1.202143
 20
1.471527
 30
0.000000
 40
0.937710
 50
264.605545
 51
280.679937
  0
ARC
  8
0
 62
    12
  6
CONTINUOUS
 10
1.243520
 20
1.229551
 30
0.000000
 40
0.692270
 50
281.026164
 51
303.075428
  0
ARC
  8
0
 62
    12
  6
CONTINUOUS
 10
1.604336
 20
0.675647
 30
0.000000
 40
0.031212
 50
302.970398
 51
353.478983
  0
ARC
  8
0
 62
    12
  6
CONTINUOUS
 10
1.625811
 20
0.667836
 30
0.000000
 40
0.010446
 50
24.104628
 51
135.461991
  0
ARC
  8
0
 62
    12
  6
CONTINUOUS
 10
1.295768
 20
1.505941
 30
0.000000
 40
0.891213
 50
275.942120
 51
291.221540
  0
ARC
  8
0
 62
    12
  6
CONTINUOUS
 10
1.129216
 20
3.172012
 30
0.000000
 40
2.565583
 50
270.549281
 51
275.789786
  0
ARC
  8
0
 62
    12
  6
CONTINUOUS
 10
1.358483
 20
-8.077946
 30
0.000000
 40
8.686904
 50
91.350068
 51
91.819893
  0
ARC
  8
0
 62
    12
  6
CONTINUOUS
 10
1.102415
 20
1.326048
 30
0.000000
 40
0.721743
 50
255.099775
 51
268.427315
  0
ARC
  8
0
 62
    12
  6
CONTINUOUS
 10
1.535130
 20
2.974366
 30
0.000000
 40
2.425910
 50
251.120020
 51
255.233873
  0
ARC
  8
0
 62
    12
  6
CONTINUOUS
 10
0.082208
 20
-1.242561
 30
0.000000
 40
2.034311
 50
70.832429
 51
76.607308
  0
ARC
  8
0
 62
    72
  6
CONTINUOUS
 10
-2.238491
 20
4.887654
 30
0.000000
 40
0.151860
 50
305.321459
 51
344.965285
  0
ARC
  8
0
 62
    72
  6
CONTINUOUS
 10
-2.105270
 20
4.856202
 30
0.000000
 40
0.015612
 50
329.423607
 51
396.812006
  0
ARC
  8
0
 62
    72
  6
CONTINUOUS
 10
-2.094594
 20
4.853360
 30
0.000000
 40
0.012333
 50
81.500390
 51
169.088074
  0
ARC
  8
0
 62
    72
  6
CONTINUOUS
 10
-2.271225
 20
4.952391
 30
0.000000
 40
0.190834
 50
298.586076
 51
329.555243
  0
ARC
  8
0
 62
    72
  6
CONTINUOUS
 10
-2.431998
 20
5.256406
 30
0.000000
 40
0.534733
 50
287.562401
 51
298.126442
  0
ARC
  8
0
 62
    72
  6
CONTINUOUS
 10
-2.167799
 20
4.397197
 30
0.000000
 40
0.364223
 50
106.401936
 51
121.785397
  0
ARC
  8
0
 62
    72
  6
CONTINUOUS
 10
-2.151420
 20
4.446387
 30
0.000000
 40
0.333425
 50
128.646649
 51
156.137026
  0
ARC
  8
0
 62
    72
  6
CONTINUOUS
 10
-2.246433
 20
4.476293
 30
0.000000
 40
0.234698
 50
153.429256
 51
193.017482
  0
ARC
  8
0
 62
    72
  6
CONTINUOUS
 10
-2.461855
 20
4.436445
 30
0.000000
 40
0.018570
 50
224.503480
 51
302.827202
  0
ARC
  8
0
 62
    72
  6
CONTINUOUS
 10
-2.453584
 20
4.435870
 30
0.000000
 40
0.015136
 50
276.810941
 51
376.704621
  0
ARC
  8
0
 62
    72
  6
CONTINUOUS
 10
-2.371329
 20
4.472399
 30
0.000000
 40
0.075009
 50
160.378051
 51
205.403543
  0
ARC
  8
0
 62
    72
  6
CONTINUOUS
 10
-2.210772
 20
4.425863
 30
0.000000
 40
0.242080
 50
145.078664
 51
162.765283
  0
ARC
  8
0
 62
    72
  6
CONTINUOUS
 10
-2.110672
 20
4.370716
 30
0.000000
 40
0.355930
 50
124.050213
 51
147.024415
  0
LINE
  8
0
 62
    72
  6
CONTINUOUS
 10
-2.309965
 20
4.665621
 30
0.000000
 11
-2.279861
 21
4.682824
 31
0.000000
  0
ARC
  8
0
 62
    72
  6
CONTINUOUS
 10
-2.770302
 20
5.609221
 30
0.000000
 40
1.048209
 50
297.897043
 51
306.236085
  0
ARC
  8
0
 62
    72
  6
CONTINUOUS
 10
-2.321772
 20
4.647856
 30
0.000000
 40
0.341413
 50
358.281500
 51
382.921398
  0
ARC
  8
0
 62
    12
  6
CONTINUOUS
 10
0.414101
 20
0.159441
 30
0.000000
 40
0.593565
 50
76.426904
 51
95.398317
  0
ARC
  8
0
 62
    12
  6
CONTINUOUS
 10
0.417621
 20
0.274532
 30
0.000000
 40
0.479529
 50
97.110971
 51
117.576766
  0
ARC
  8
0
 62
    12
  6
CONTINUOUS
 10
0.351540
 20
0.369567
 30
0.000000
 40
0.364991
 50
115.287654
 51
143.722276
  0
ARC
  8
0
 62
    12
  6
CONTINUOUS
 10
0.082528
 20
0.572486
 30
0.000000
 40
0.028402
 50
152.655419
 51
212.441707
  0
ARC
  8
0
 62
    12
  6
CONTINUOUS
 10
0.067586
 20
0.563273
 30
0.000000
 40
0.010852
 50
213.711349
 51
344.601953
  0
ARC
  8
0
 62
    12
  6
CONTINUOUS
 10
0.331778
 20
0.391538
 30
0.000000
 40
0.304779
 50
94.679720
 51
146.356676
  0
ARC
  8
0
 62
    12
  6
CONTINUOUS
 10
0.873870
 20
-0.206788
 30
0.000000
 40
0.072112
 50
228.172377
 51
271.472278
  0
ARC
  8
0
 62
    12
  6
CONTINUOUS
 10
0.875930
 20
-0.272665
 30
0.000000
 40
0.006215
 50
268.085459
 51
369.308530
  0
ARC
  8
0
 62
    12
  6
CONTINUOUS
 10
0.858082
 20
-0.282749
 30
0.000000
 40
0.026421
 50
24.816918
 51
66.291117
  0
ARC
  8
0
 62
    12
  6
CONTINUOUS
 10
0.956385
 20
-0.127143
 30
0.000000
 40
0.157980
 50
175.002533
 51
236.289085
  0
ARC
  8
0
 62
    12
  6
CONTINUOUS
 10
1.459987
 20
-0.177368
 30
0.000000
 40
0.664072
 50
158.687741
 51
174.470649
  0
ARC
  8
0
 62
    12
  6
CONTINUOUS
 10
-0.221084
 20
0.438619
 30
0.000000
 40
1.126530
 50
340.576255
 51
345.990615
  0
ARC
  8
0
 62
    12
  6
CONTINUOUS
 10
0.517947
 20
0.223189
 30
0.000000
 40
0.358596
 50
350.808360
 51
388.376254
  0
ARC
  8
0
 62
    12
  6
CONTINUOUS
 10
0.415060
 20
0.193644
 30
0.000000
 40
0.463728
 50
25.545426
 51
54.813529
  0
ARC
  8
0
 62
    12
  6
CONTINUOUS
 10
0.679915
 20
0.547714
 30
0.000000
 40
0.025038
 50
84.584096
 51
157.823680
  0
ARC
  8
0
 62
    12
  6
CONTINUOUS
 10
0.671573
 20
0.542369
 30
0.000000
 40
0.020957
 50
135.093158
 51
225.894902
  0
ARC
  8
0
 62
    72
  6
CONTINUOUS
 10
-1.843030
 20
4.802476
 30
0.000000
 40
0.165707
 50
170.267969
 51
187.507308
  0
ARC
  8
0
 62
    72
  6
CONTINUOUS
 10
-2.105150
 20
4.854910
 30
0.000000
 40
0.101772
 50
346.114713
 51
384.454254
  0
ARC
  8
0
 62
    72
  6
CONTINUOUS
 10
-1.886606
 20
4.788764
 30
0.000000
 40
0.166057
 50
139.304512
 51
178.177740
  0
ARC
  8
0
 62
    72
  6
CONTINUOUS
 10
-1.635269
 20
4.796313
 30
0.000000
 40
0.417316
 50
180.311440
 51
194.839805
  0
ARC
  8
0
 62
    72
  6
CONTINUOUS
 10
-2.565619
 20
4.558802
 30
0.000000
 40
0.542903
 50
4.296411
 51
13.922625
  0
ARC
  8
0
 62
    72
  6
CONTINUOUS
 10
-2.226308
 20
4.586515
 30
0.000000
 40
0.202482
 50
336.627544
 51
363.669627
  0
ARC
  8
0
 62
    72
  6
CONTINUOUS
 10
-2.162911
 20
4.641411
 30
0.000000
 40
0.182438
 50
312.166968
 51
358.808489
  0
ARC
  8
0
 62
    72
  6
CONTINUOUS
 10
1.427581
 20
2.736792
 30
0.000000
 40
0.208225
 50
135.963884
 51
177.872358
  0
ARC
  8
0
 62
    72
  6
CONTINUOUS
 10
1.537785
 20
2.608945
 30
0.000000
 40
0.376630
 50
112.370388
 51
133.634875
  0
ARC
  8
0
 62
    72
  6
CONTINUOUS
 10
1.599011
 20
2.672533
 30
0.000000
 40
0.263645
 50
126.274181
 51
143.373134
  0
ARC
  8
0
 62
    72
  6
CONTINUOUS
 10
1.332691
 20
3.048445
 30
0.000000
 40
0.197132
 50
304.034912
 51
333.637093
  0
ARC
  8
0
 62
    72
  6
CONTINUOUS
 10
1.496163
 20
2.934899
 30
0.000000
 40
0.029148
 50
340.883850
 51
423.164085
  0
ARC
  8
0
 62
    72
  6
CONTINUOUS
 10
1.470319
 20
2.931705
 30
0.000000
 40
0.053761
 50
309.870530
 51
353.214207
  0
ARC
  8
0
 62
    72
  6
CONTINUOUS
 10
1.571878
 20
2.756658
 30
0.000000
 40
0.149668
 50
116.634435
 51
186.793082
  0
ARC
  8
0
 62
    72
  6
CONTINUOUS
 10
1.402577
 20
2.747195
 30
0.000000
 40
0.022265
 50
249.600420
 51
338.277516
  0
ARC
  8
0
 62
    72
  6
CONTINUOUS
 10
1.405592
 20
2.759698
 30
0.000000
 40
0.035068
 50
198.256208
 51
252.104551
  0
ARC
  8
0
 62
    72
  6
CONTINUOUS
 10
1.475317
 20
2.771454
 30
0.000000
 40
0.105508
 50
146.411318
 51
192.447343
  0
ARC
  8
0
 62
    72
  6
CONTINUOUS
 10
-1.888776
 20
4.195293
 30
0.000000
 40
0.105541
 50
282.725432
 51
321.157441
  0
ARC
  8
0
 62
    72
  6
CONTINUOUS
 10
-1.864116
 20
4.179559
 30
0.000000
 40
0.076533
 50
318.752778
 51
338.259895
  0
ARC
  8
0
 62
    72
  6
CONTINUOUS
 10
-1.807348
 20
4.160784
 30
0.000000
 40
0.017226
 50
326.237438
 51
401.345667
  0
ARC
  8
0
 62
    72
  6
CONTINUOUS
 10
-1.877325
 20
4.269930
 30
0.000000
 40
0.128189
 50
279.579022
 51
310.299275
  0
ARC
  8
0
 62
    72
  6
CONTINUOUS
 10
-1.925671
 20
4.560977
 30
0.000000
 40
0.423224
 50
269.934894
 51
279.476001
  0
ARC
  8
0
 62
    72
  6
CONTINUOUS
 10
-1.928696
 20
3.755049
 30
0.000000
 40
0.382713
 50
89.619065
 51
100.833661
  0
ARC
  8
0
 62
    72
  6
CONTINUOUS
 10
-1.978154
 20
4.017653
 30
0.000000
 40
0.115497
 50
101.221860
 51
137.387635
  0
ARC
  8
0
 62
    72
  6
CONTINUOUS
 10
-2.038311
 20
4.083669
 30
0.000000
 40
0.027667
 50
153.884370
 51
204.903142
  0
ARC
  8
0
 62
    72
  6
CONTINUOUS
 10
-2.051544
 20
4.074462
 30
0.000000
 40
0.012111
 50
191.637951
 51
304.610850
  0
ARC
  8
0
 62
    72
  6
CONTINUOUS
 10
-1.949111
 20
3.858585
 30
0.000000
 40
0.227001
 50
86.862112
 51
114.893820
  0
ARC
  8
0
 62
    72
  6
CONTINUOUS
 10
-1.933926
 20
4.417721
 30
0.000000
 40
0.332488
 50
269.524411
 51
281.871380
  0
ARC
  8
0
 62
    72
  6
CONTINUOUS
 10
-2.335899
 20
3.838368
 30
0.000000
 40
0.454175
 50
184.182341
 51
196.827507
  0
ARC
  8
0
 62
    72
  6
CONTINUOUS
 10
-3.330281
 20
3.759537
 30
0.000000
 40
0.543342
 50
4.825542
 51
13.804694
  0
ARC
  8
0
 62
    72
  6
CONTINUOUS
 10
-2.967738
 20
3.848110
 30
0.000000
 40
0.170137
 50
13.970662
 51
42.182067
  0
ARC
  8
0
 62
    72
  6
CONTINUOUS
 10
-2.880327
 20
3.935673
 30
0.000000
 40
0.046977
 50
34.611076
 51
70.586160
  0
ARC
  8
0
 62
    72
  6
CONTINUOUS
 10
-2.873647
 20
3.965329
 30
0.000000
 40
0.017159
 50
58.620207
 51
149.297674
  0
ARC
  8
0
 62
    72
  6
CONTINUOUS
 10
-3.057433
 20
3.882595
 30
0.000000
 40
0.192206
 50
2.933186
 51
28.426131
  0
ARC
  8
0
 62
    72
  6
CONTINUOUS
 10
-3.497051
 20
3.857374
 30
0.000000
 40
0.632544
 50
355.348205
 51
363.177033
  0
ARC
  8
0
 62
    72
  6
CONTINUOUS
 10
-1.438749
 20
3.716571
 30
0.000000
 40
1.430643
 50
176.413118
 51
177.727927
  0
ARC
  8
0
 62
    72
  6
CONTINUOUS
 10
-2.517225
 20
3.803116
 30
0.000000
 40
0.352308
 50
184.856673
 51
245.853624
  0
ARC
  8
0
 62
    72
  6
CONTINUOUS
 10
-0.678711
 20
0.868594
 30
0.000000
 40
0.168457
 50
122.361540
 51
123.012418
  0
ARC
  8
0
 62
    72
  6
CONTINUOUS
 10
-0.785417
 20
1.041499
 30
0.000000
 40
0.034794
 50
298.379492
 51
321.712574
  0
ARC
  8
0
 62
    72
  6
CONTINUOUS
 10
-0.765422
 20
1.023913
 30
0.000000
 40
0.008324
 50
331.499795
 51
435.975756
  0
ARC
  8
0
 62
    72
  6
CONTINUOUS
 10
-0.886096
 20
0.722717
 30
0.000000
 40
0.332719
 50
68.361342
 51
84.235031
  0
ARC
  8
0
 62
    72
  6
CONTINUOUS
 10
-0.794986
 20
1.537213
 30
0.000000
 40
0.486890
 50
249.831028
 51
263.195341
  0
ARC
  8
0
 62
    72
  6
CONTINUOUS
 10
-0.975978
 20
1.058039
 30
0.000000
 40
0.025735
 50
59.354411
 51
121.952299
  0
ARC
  8
0
 62
    72
  6
CONTINUOUS
 10
-0.981977
 20
1.074578
 30
0.000000
 40
0.009280
 50
145.196053
 51
212.952285
  0
ARC
  8
0
 62
    72
  6
CONTINUOUS
 10
-0.942117
 20
1.095832
 30
0.000000
 40
0.054425
 50
208.899564
 51
231.990380
  0
ARC
  8
0
 62
    72
  6
CONTINUOUS
 10
-0.778171
 20
1.349536
 30
0.000000
 40
0.356306
 50
236.345230
 51
254.846081
  0
ARC
  8
0
 62
    72
  6
CONTINUOUS
 10
-0.826225
 20
1.134510
 30
0.000000
 40
0.136548
 50
250.718630
 51
294.089941
  0
ARC
  8
0
 62
    72
  6
CONTINUOUS
 10
-2.633886
 20
3.535659
 30
0.000000
 40
0.060601
 50
243.058542
 51
307.870196
  0
ARC
  8
0
 62
    72
  6
CONTINUOUS
 10
-2.615030
 20
3.511779
 30
0.000000
 40
0.030177
 50
307.440601
 51
411.129805
  0
ARC
  8
0
 62
    72
  6
CONTINUOUS
 10
-2.340602
 20
3.974928
 30
0.000000
 40
0.508499
 50
223.291261
 51
239.838346
  0
ARC
  8
0
 62
    72
  6
CONTINUOUS
 10
-2.621476
 20
3.755109
 30
0.000000
 40
0.156752
 50
197.916393
 51
235.293527
  0
LINE
  8
0
 62
    72
  6
CONTINUOUS
 10
-3.047072
 20
3.314252
 30
0.000000
 11
-3.045620
 21
3.310183
 31
0.000000
  0
ARC
  8
0
 62
    72
  6
CONTINUOUS
 10
-2.815204
 20
3.409754
 30
0.000000
 40
0.250765
 50
185.955876
 51
202.385770
  0
ARC
  8
0
 62
    72
  6
CONTINUOUS
 10
-2.988160
 20
3.390434
 30
0.000000
 40
0.076749
 50
129.622698
 51
185.008423
  0
ARC
  8
0
 62
    72
  6
CONTINUOUS
 10
-3.091599
 20
3.389444
 30
0.000000
 40
0.081132
 50
15.312845
 51
47.803575
  0
ARC
  8
0
 62
    72
  6
CONTINUOUS
 10
-3.291674
 20
3.334570
 30
0.000000
 40
0.288595
 50
5.673879
 51
15.330520
  0
ARC
  8
0
 62
    72
  6
CONTINUOUS
 10
1.118271
 20
0.547403
 30
0.000000
 40
0.281902
 50
219.730634
 51
229.237651
  0
ARC
  8
0
 62
    72
  6
CONTINUOUS
 10
0.807696
 20
0.174701
 30
0.000000
 40
0.203335
 50
28.608729
 51
51.523031
  0
ARC
  8
0
 62
    72
  6
CONTINUOUS
 10
1.002947
 20
0.275796
 30
0.000000
 40
0.017152
 50
192.568198
 51
286.779288
  0
ARC
  8
0
 62
    72
  6
CONTINUOUS
 10
1.004353
 20
0.271324
 30
0.000000
 40
0.012465
 50
286.527836
 51
402.102073
  0
ARC
  8
0
 62
    72
  6
CONTINUOUS
 10
0.800117
 20
0.138638
 30
0.000000
 40
0.255868
 50
33.451581
 51
44.590041
  0
ARC
  8
0
 62
    72
  6
CONTINUOUS
 10
1.107358
 20
0.444167
 30
0.000000
 40
0.177433
 50
206.232104
 51
225.200103
  0
ARC
  8
0
 62
    72
  6
CONTINUOUS
 10
0.883249
 20
0.333687
 30
0.000000
 40
0.072428
 50
26.266292
 51
54.962207
  0
ARC
  8
0
 62
    72
  6
CONTINUOUS
 10
0.911343
 20
0.374368
 30
0.000000
 40
0.022993
 50
54.082387
 51
105.377958
  0
ARC
  8
0
 62
    72
  6
CONTINUOUS
 10
0.912134
 20
0.380748
 30
0.000000
 40
0.017227
 50
113.567809
 51
231.763933
  0
ARC
  8
0
 62
    72
  6
CONTINUOUS
 10
-2.740349
 20
3.387355
 30
0.000000
 40
0.265255
 50
185.246007
 51
197.690780
  0
ARC
  8
0
 62
    72
  6
CONTINUOUS
 10
-2.907439
 20
3.335529
 30
0.000000
 40
0.090329
 50
198.579156
 51
235.895593
  0
ARC
  8
0
 62
    72
  6
CONTINUOUS
 10
-3.014857
 20
3.165078
 30
0.000000
 40
0.111236
 50
38.768943
 51
59.311583
  0
ARC
  8
0
 62
    72
  6
CONTINUOUS
 10
-2.932205
 20
3.230716
 30
0.000000
 40
0.005721
 50
318.433067
 51
404.570629
  0
ARC
  8
0
 62
    72
  6
CONTINUOUS
 10
-2.937700
 20
3.244618
 30
0.000000
 40
0.020218
 50
259.764010
 51
298.913715
  0
ARC
  8
0
 62
    72
  6
CONTINUOUS
 10
-2.930796
 20
3.343946
 30
0.000000
 40
0.119685
 50
196.385518
 51
264.968425
  0
ARC
  8
0
 62
    72
  6
CONTINUOUS
 10
-3.253030
 20
3.162358
 30
0.000000
 40
0.097304
 50
70.878612
 51
98.029851
  0
ARC
  8
0
 62
    72
  6
CONTINUOUS
 10
-3.344266
 20
2.888052
 30
0.000000
 40
0.386379
 50
63.920946
 51
71.420348
  0
ARC
  8
0
 62
    72
  6
CONTINUOUS
 10
-3.032233
 20
3.516691
 30
0.000000
 40
0.315455
 50
243.211226
 51
254.846244
  0
ARC
  8
0
 62
    72
  6
CONTINUOUS
 10
-0.360090
 20
0.701946
 30
0.000000
 40
0.015821
 50
329.073700
 51
405.152448
  0
ARC
  8
0
 62
    72
  6
CONTINUOUS
 10
-0.377888
 20
0.680109
 30
0.000000
 40
0.043943
 50
48.782088
 51
78.658740
  0
ARC
  8
0
 62
    72
  6
CONTINUOUS
 10
-0.387679
 20
0.630377
 30
0.000000
 40
0.094629
 50
78.767530
 51
116.603513
  0
ARC
  8
0
 62
    72
  6
CONTINUOUS
 10
-0.350679
 20
0.558168
 30
0.000000
 40
0.175764
 50
116.846962
 51
136.747187
  0
ARC
  8
0
 62
    72
  6
CONTINUOUS
 10
-0.322943
 20
0.591945
 30
0.000000
 40
0.178237
 50
150.908434
 51
171.556331
  0
ARC
  8
0
 62
    72
  6
CONTINUOUS
 10
-0.425455
 20
0.605213
 30
0.000000
 40
0.074913
 50
170.080903
 51
191.575083
  0
ARC
  8
0
 62
    72
  6
CONTINUOUS
 10
-0.481427
 20
0.592753
 30
0.000000
 40
0.017606
 50
188.398576
 51
254.250535
  0
ARC
  8
0
 62
    72
  6
CONTINUOUS
 10
-0.490869
 20
0.600826
 30
0.000000
 40
0.025449
 50
280.558737
 51
338.841863
  0
ARC
  8
0
 62
    72
  6
CONTINUOUS
 10
-0.537894
 20
0.612424
 30
0.000000
 40
0.073747
 50
343.630753
 51
363.315102
  0
ARC
  8
0
 62
    72
  6
CONTINUOUS
 10
-0.411563
 20
0.623823
 30
0.000000
 40
0.053188
 50
141.419074
 51
187.708771
  0
ARC
  8
0
 62
    72
  6
CONTINUOUS
 10
-0.419436
 20
0.638863
 30
0.000000
 40
0.038272
 50
101.901991
 51
151.725311
  0
ARC
  8
0
 62
    72
  6
CONTINUOUS
 10
-0.411511
 20
0.575956
 30
0.000000
 40
0.101595
 50
81.374043
 51
98.957227
  0
ARC
  8
0
 62
    72
  6
CONTINUOUS
 10
-0.381978
 20
0.768716
 30
0.000000
 40
0.093415
 50
261.197410
 51
278.790391
  0
ARC
  8
0
 62
    72
  6
CONTINUOUS
 10
-0.373811
 20
0.705419
 30
0.000000
 40
0.029656
 50
281.886982
 51
336.967319
  0
ARC
  8
0
 62
    72
  6
CONTINUOUS
 10
-3.107388
 20
3.224945
 30
0.000000
 40
0.014687
 50
240.157707
 51
335.681453
  0
ARC
  8
0
 62
    72
  6
CONTINUOUS
 10
-3.114879
 20
3.219936
 30
0.000000
 40
0.020901
 50
357.149544
 51
431.347697
  0
ARC
  8
0
 62
    72
  6
CONTINUOUS
 10
-2.901671
 20
3.617357
 30
0.000000
 40
0.430403
 50
233.430582
 51
241.325337
  0
ARC
  8
0
 62
    72
  6
CONTINUOUS
 10
-3.372803
 20
2.989956
 30
0.000000
 40
0.354213
 50
52.689798
 51
64.988550
  0
ARC
  8
0
 62
    72
  6
CONTINUOUS
 10
-3.268197
 20
3.211752
 30
0.000000
 40
0.108993
 50
65.525498
 51
104.995390
  0
ARC
  8
0
 62
    72
  6
CONTINUOUS
 10
-3.044735
 20
2.664146
 30
0.000000
 40
0.699711
 50
111.079669
 51
118.740926
  0
ARC
  8
0
 62
    72
  6
CONTINUOUS
 10
-3.674011
 20
3.801981
 30
0.000000
 40
0.600551
 50
288.928313
 51
299.181995
  0
ARC
  8
0
 62
    72
  6
CONTINUOUS
 10
-3.551948
 20
3.457770
 30
0.000000
 40
0.235387
 50
260.279796
 51
288.001920
  0
ARC
  8
0
 62
    72
  6
CONTINUOUS
 10
-3.561995
 20
3.361710
 30
0.000000
 40
0.139154
 50
244.482613
 51
257.678356
  0
ARC
  8
0
 62
    72
  6
CONTINUOUS
 10
-3.650742
 20
3.184085
 30
0.000000
 40
0.059483
 50
61.040133
 51
85.776762
  0
ARC
  8
0
 62
    72
  6
CONTINUOUS
 10
-3.642818
 20
3.227828
 30
0.000000
 40
0.015976
 50
102.813776
 51
188.383832
  0
ARC
  8
0
 62
    72
  6
CONTINUOUS
 10
-3.533542
 20
3.403897
 30
0.000000
 40
0.217879
 50
234.964284
 51
277.552488
  0
ARC
  8
0
 62
    72
  6
CONTINUOUS
 10
-3.606909
 20
3.861034
 30
0.000000
 40
0.680811
 50
278.616876
 51
292.247262
  0
ARC
  8
0
 62
    72
  6
CONTINUOUS
 10
-2.889811
 20
2.003905
 30
0.000000
 40
1.310159
 50
106.714759
 51
110.523890
  0
ARC
  8
0
 62
    72
  6
CONTINUOUS
 10
-3.513972
 20
2.797437
 30
0.000000
 40
0.178437
 50
78.235090
 51
116.420193
  0
ARC
  8
0
 62
    72
  6
CONTINUOUS
 10
-3.483919
 20
2.951315
 30
0.000000
 40
0.021752
 50
12.040130
 51
73.083158
  0
ARC
  8
0
 62
    72
  6
CONTINUOUS
 10
-3.479572
 20
2.957339
 30
0.000000
 40
0.016993
 50
271.139569
 51
354.978720
  0
ARC
  8
0
 62
    72
  6
CONTINUOUS
 10
-3.353520
 20
2.509544
 30
0.000000
 40
0.448774
 50
106.267859
 51
127.475541
  0
ARC
  8
0
 62
    72
  6
CONTINUOUS
 10
-2.841282
 20
1.852390
 30
0.000000
 40
1.281974
 50
127.774614
 51
135.069340
  0
ARC
  8
0
 62
    72
  6
CONTINUOUS
 10
-4.522254
 20
3.515293
 30
0.000000
 40
1.082561
 50
305.068495
 51
315.594115
  0
ARC
  8
0
 62
    72
  6
CONTINUOUS
 10
-3.958290
 20
2.784013
 30
0.000000
 40
0.165280
 50
251.156300
 51
290.553668
  0
ARC
  8
0
 62
    72
  6
CONTINUOUS
 10
-3.973583
 20
2.620575
 30
0.000000
 40
0.038731
 50
119.910688
 51
169.563315
  0
ARC
  8
0
 62
    72
  6
CONTINUOUS
 10
-3.965099
 20
2.585432
 30
0.000000
 40
0.074125
 50
89.134823
 51
112.024393
  0
ARC
  8
0
 62
    72
  6
CONTINUOUS
 10
-3.966404
 20
2.787117
 30
0.000000
 40
0.127591
 50
271.088639
 51
287.808075
  0
ARC
  8
0
 62
    72
  6
CONTINUOUS
 10
-4.065596
 20
2.939178
 30
0.000000
 40
0.306474
 50
296.806296
 51
315.386382
  0
ARC
  8
0
 62
    72
  6
CONTINUOUS
 10
-4.574793
 20
3.446711
 30
0.000000
 40
1.025409
 50
315.181254
 51
320.886735
  0
ARC
  8
0
 62
    72
  6
CONTINUOUS
 10
-3.253929
 20
2.387955
 30
0.000000
 40
0.667475
 50
131.056541
 51
141.898433
  0
ARC
  8
0
 62
    72
  6
CONTINUOUS
 10
-3.402960
 20
2.564369
 30
0.000000
 40
0.436578
 50
115.857657
 51
131.514650
  0
ARC
  8
0
 62
    72
  6
CONTINUOUS
 10
-3.926847
 20
2.560089
 30
0.000000
 40
0.017940
 50
65.763355
 51
146.055400
  0
ARC
  8
0
 62
    72
  6
CONTINUOUS
 10
-3.921739
 20
2.568515
 30
0.000000
 40
0.020055
 50
175.446963
 51
257.776010
  0
ARC
  8
0
 62
    72
  6
CONTINUOUS
 10
-3.684590
 20
3.032367
 30
0.000000
 40
0.540368
 50
243.466326
 51
268.626016
  0
ARC
  8
0
 62
    72
  6
CONTINUOUS
 10
-3.683923
 20
2.935163
 30
0.000000
 40
0.443218
 50
268.238530
 51
297.056942
  0
ARC
  8
0
 62
    72
  6
CONTINUOUS
 10
-3.516565
 20
2.604859
 30
0.000000
 40
0.072948
 50
298.003899
 51
340.396611
  0
ARC
  8
0
 62
    72
  6
CONTINUOUS
 10
-3.467542
 20
2.588639
 30
0.000000
 40
0.021356
 50
337.263062
 51
381.794534
  0
ARC
  8
0
 62
    72
  6
CONTINUOUS
 10
-3.455895
 20
2.590682
 30
0.000000
 40
0.010080
 50
35.726481
 51
119.325307
  0
ARC
  8
0
 62
    72
  6
CONTINUOUS
 10
-3.722306
 20
3.228407
 30
0.000000
 40
0.681124
 50
253.172749
 51
292.574567
  0
ARC
  8
0
 62
    72
  6
CONTINUOUS
 10
-3.515846
 20
2.444628
 30
0.000000
 40
0.105986
 50
309.465306
 51
348.776570
  0
ARC
  8
0
 62
    72
  6
CONTINUOUS
 10
-3.443995
 20
2.354436
 30
0.000000
 40
0.009495
 50
118.185026
 51
226.470419
  0
ARC
  8
0
 62
    72
  6
CONTINUOUS
 10
-3.439996
 20
2.361466
 30
0.000000
 40
0.017455
 50
232.859539
 51
290.798402
  0
ARC
  8
0
 62
    72
  6
CONTINUOUS
 10
-3.497014
 20
2.461748
 30
0.000000
 40
0.132633
 50
298.464811
 51
350.411675
  0
ARC
  8
0
 62
    72
  6
CONTINUOUS
 10
-3.926888
 20
2.559353
 30
0.000000
 40
0.573290
 50
347.948563
 51
360.336894
  0
LINE
  8
0
 62
    72
  6
CONTINUOUS
 10
-3.353608
 20
2.562724
 30
0.000000
 11
-3.353528
 21
2.565690
 31
0.000000
  0
ARC
  8
0
 62
    72
  6
CONTINUOUS
 10
-3.239259
 20
2.510105
 30
0.000000
 40
0.127071
 50
148.284060
 51
154.059627
  0
ARC
  8
0
 62
    72
  6
CONTINUOUS
 10
-3.394533
 20
2.610293
 30
0.000000
 40
0.057797
 50
324.715006
 51
348.916678
  0
ARC
  8
0
 62
    72
  6
CONTINUOUS
 10
-3.358667
 20
2.599882
 30
0.000000
 40
0.020865
 50
358.079128
 51
430.011191
  0
ARC
  8
0
 62
    72
  6
CONTINUOUS
 10
-3.318734
 20
2.535777
 30
0.000000
 40
0.089910
 50
111.396457
 51
161.805519
  0
ARC
  8
0
 62
    72
  6
CONTINUOUS
 10
-3.195868
 20
2.513447
 30
0.000000
 40
0.214292
 50
166.396153
 51
185.818400
  0
ARC
  8
0
 62
    72
  6
CONTINUOUS
 10
2.004522
 20
2.840892
 30
0.000000
 40
0.039068
 50
21.815739
 51
85.669509
  0
ARC
  8
0
 62
    72
  6
CONTINUOUS
 10
2.025931
 20
2.932901
 30
0.000000
 40
0.078903
 50
259.219277
 51
280.856341
  0
ARC
  8
0
 62
    72
  6
CONTINUOUS
 10
1.994144
 20
2.753929
 30
0.000000
 40
0.102881
 50
80.472542
 51
97.226629
  0
ARC
  8
0
 62
    72
  6
CONTINUOUS
 10
1.997926
 20
2.678192
 30
0.000000
 40
0.178585
 50
95.373520
 51
127.769010
  0
ARC
  8
0
 62
    72
  6
CONTINUOUS
 10
1.750700
 20
3.015504
 30
0.000000
 40
0.239736
 50
288.475159
 51
305.099076
  0
ARC
  8
0
 62
    72
  6
CONTINUOUS
 10
1.803637
 20
2.869730
 30
0.000000
 40
0.084796
 50
237.388068
 51
285.761900
  0
ARC
  8
0
 62
    72
  6
CONTINUOUS
 10
1.780409
 20
2.796917
 30
0.000000
 40
0.022515
 50
110.440359
 51
176.468487
  0
ARC
  8
0
 62
    72
  6
CONTINUOUS
 10
1.812484
 20
2.713394
 30
0.000000
 40
0.111984
 50
95.684343
 51
110.893715
  0
ARC
  8
0
 62
    72
  6
CONTINUOUS
 10
-3.681210
 20
2.469174
 30
0.000000
 40
0.273086
 50
350.478206
 51
364.736515
  0
ARC
  8
0
 62
    72
  6
CONTINUOUS
 10
-3.287304
 20
2.755934
 30
0.000000
 40
0.275947
 50
284.293095
 51
298.848622
  0
ARC
  8
0
 62
    72
  6
CONTINUOUS
 10
-3.159677
 20
2.247030
 30
0.000000
 40
0.248721
 50
103.840660
 51
120.545963
  0
ARC
  8
0
 62
    72
  6
CONTINUOUS
 10
-3.242932
 20
2.394730
 30
0.000000
 40
0.079277
 50
122.978750
 51
175.336942
  0
ARC
  8
0
 62
    72
  6
CONTINUOUS
 10
-3.305418
 20
2.430096
 30
0.000000
 40
0.033310
 50
240.251729
 51
289.682655
  0
ARC
  8
0
 62
    72
  6
CONTINUOUS
 10
-3.328869
 20
2.478850
 30
0.000000
 40
0.087298
 50
293.399739
 51
311.357439
  0
ARC
  8
0
 62
    72
  6
CONTINUOUS
 10
-3.222056
 20
2.362212
 30
0.000000
 40
0.070896
 50
99.093141
 51
133.867499
  0
ARC
  8
0
 62
    72
  6
CONTINUOUS
 10
-3.291539
 20
2.844145
 30
0.000000
 40
0.416030
 50
278.052657
 51
309.496489
  0
ARC
  8
0
 62
    72
  6
CONTINUOUS
 10
-3.262943
 20
2.790960
 30
0.000000
 40
0.356995
 50
311.384307
 51
349.373024
  0
ARC
  8
0
 62
    72
  6
CONTINUOUS
 10
-2.790423
 20
2.728573
 30
0.000000
 40
0.121697
 50
171.208684
 51
181.623382
  0
ARC
  8
0
 62
    72
  6
CONTINUOUS
 10
-2.990852
 20
2.763400
 30
0.000000
 40
0.081789
 50
348.555892
 51
369.501099
  0
ARC
  8
0
 62
    72
  6
CONTINUOUS
 10
-2.913899
 20
2.775525
 30
0.000000
 40
0.003960
 50
20.337869
 51
138.642191
  0
ARC
  8
0
 62
    72
  6
CONTINUOUS
 10
-2.876238
 20
2.724382
 30
0.000000
 40
0.067387
 50
127.083242
 51
145.792189
  0
LINE
  8
0
 62
    72
  6
CONTINUOUS
 10
-2.931967
 20
2.762267
 30
0.000000
 11
-2.934617
 21
2.757092
 31
0.000000
  0
ARC
  8
0
 62
    72
  6
CONTINUOUS
 10
-3.753149
 20
3.142400
 30
0.000000
 40
0.904686
 50
323.904349
 51
334.792204
  0
ARC
  8
0
 62
    72
  6
CONTINUOUS
 10
-3.236070
 20
2.767007
 30
0.000000
 40
0.265715
 50
287.954641
 51
323.624248
  0
ARC
  8
0
 62
    72
  6
CONTINUOUS
 10
-2.806519
 20
2.650820
 30
0.000000
 40
0.070549
 50
143.422988
 51
188.850220
  0
ARC
  8
0
 62
    72
  6
CONTINUOUS
 10
-2.846394
 20
2.682209
 30
0.000000
 40
0.019875
 50
96.383517
 51
147.593885
  0
ARC
  8
0
 62
    72
  6
CONTINUOUS
 10
-2.851474
 20
2.687973
 30
0.000000
 40
0.014279
 50
4.502320
 51
78.402484
  0
ARC
  8
0
 62
    72
  6
CONTINUOUS
 10
-3.754095
 20
2.546579
 30
0.000000
 40
0.927866
 50
1.267677
 51
8.835302
  0
ARC
  8
0
 62
    72
  6
CONTINUOUS
 10
-3.130108
 20
2.559349
 30
0.000000
 40
0.303751
 50
337.933200
 51
361.463367
  0
ARC
  8
0
 62
    72
  6
CONTINUOUS
 10
-2.855363
 20
2.446003
 30
0.000000
 40
0.006799
 50
353.502928
 51
506.497072
  0
ARC
  8
0
 62
    72
  6
CONTINUOUS
 10
-3.492360
 20
2.495032
 30
0.000000
 40
0.632949
 50
355.898009
 51
373.237160
  0
ARC
  8
0
 62
    72
  6
CONTINUOUS
 10
-2.728979
 20
2.458031
 30
0.000000
 40
0.081858
 50
116.185699
 51
155.404171
  0
ARC
  8
0
 62
    72
  6
CONTINUOUS
 10
-2.782100
 20
2.483874
 30
0.000000
 40
0.022842
 50
158.887908
 51
228.032475
  0
ARC
  8
0
 62
    72
  6
CONTINUOUS
 10
-2.785731
 20
2.478029
 30
0.000000
 40
0.016114
 50
223.729110
 51
317.967930
  0
ARC
  8
0
 62
    72
  6
CONTINUOUS
 10
-2.646441
 20
2.328885
 30
0.000000
 40
0.188023
 50
104.698710
 51
132.621589
  0
ARC
  8
0
 62
    72
  6
CONTINUOUS
 10
-2.752222
 20
2.716801
 30
0.000000
 40
0.214074
 50
285.740132
 51
307.629529
  0
ARC
  8
0
 62
    72
  6
CONTINUOUS
 10
1.792978
 20
2.920190
 30
0.000000
 40
0.095733
 50
275.042584
 51
292.727380
  0
ARC
  8
0
 62
    72
  6
CONTINUOUS
 10
1.968005
 20
2.673442
 30
0.000000
 40
0.210145
 50
79.174879
 51
131.062550
  0
ARC
  8
0
 62
    72
  6
CONTINUOUS
 10
2.254951
 20
2.555337
 30
0.000000
 40
0.150814
 50
43.496665
 51
61.163007
  0
ARC
  8
0
 62
    72
  6
CONTINUOUS
 10
2.342334
 20
2.632814
 30
0.000000
 40
0.034323
 50
0.160518
 51
50.093961
  0
ARC
  8
0
 62
    72
  6
CONTINUOUS
 10
2.468757
 20
3.081622
 30
0.000000
 40
0.458066
 50
248.629237
 51
258.400951
  0
ARC
  8
0
 62
    72
  6
CONTINUOUS
 10
2.364739
 20
2.821796
 30
0.000000
 40
0.178214
 50
225.253117
 51
249.331492
  0
ARC
  8
0
 62
    72
  6
CONTINUOUS
 10
2.270874
 20
2.649174
 30
0.000000
 40
0.055846
 50
79.378223
 51
124.452653
  0
ARC
  8
0
 62
    72
  6
CONTINUOUS
 10
2.260152
 20
2.571765
 30
0.000000
 40
0.133957
 50
59.722292
 51
80.973600
  0
ARC
  8
0
 62
    72
  6
CONTINUOUS
 10
-2.223480
 20
4.722959
 30
0.000000
 40
0.603677
 50
286.825819
 51
305.858459
  0
ARC
  8
0
 62
    72
  6
CONTINUOUS
 10
-2.011434
 20
4.428096
 30
0.000000
 40
0.240489
 50
306.065632
 51
355.301016
  0
ARC
  8
0
 62
    72
  6
CONTINUOUS
 10
-1.706276
 20
4.419102
 30
0.000000
 40
0.066346
 50
149.944101
 51
189.286738
  0
ARC
  8
0
 62
    72
  6
CONTINUOUS
 10
-1.866562
 20
4.500523
 30
0.000000
 40
0.113590
 50
334.895855
 51
349.181787
  0
ARC
  8
0
 62
    72
  6
CONTINUOUS
 10
-2.670221
 20
2.603063
 30
0.000000
 40
0.074067
 50
311.113201
 51
343.519474
  0
ARC
  8
0
 62
    72
  6
CONTINUOUS
 10
-2.611942
 20
2.586201
 30
0.000000
 40
0.013404
 50
341.961298
 51
402.737396
  0
ARC
  8
0
 62
    72
  6
CONTINUOUS
 10
-2.614217
 20
2.576770
 30
0.000000
 40
0.022139
 50
56.810330
 51
106.910006
  0
ARC
  8
0
 62
    72
  6
CONTINUOUS
 10
-2.741028
 20
2.721651
 30
0.000000
 40
0.172601
 50
280.498902
 51
314.219079
  0
ARC
  8
0
 62
    72
  6
CONTINUOUS
 10
-2.635986
 20
2.266560
 30
0.000000
 40
0.294716
 50
104.460016
 51
115.982791
  0
ARC
  8
0
 62
    72
  6
CONTINUOUS
 10
-2.997825
 20
2.107365
 30
0.000000
 40
0.259178
 50
191.929126
 51
210.827928
  0
ARC
  8
0
 62
    72
  6
CONTINUOUS
 10
-2.911659
 20
2.154510
 30
0.000000
 40
0.357349
 50
210.239023
 51
240.646794
  0
ARC
  8
0
 62
    72
  6
CONTINUOUS
 10
-3.442782
 20
1.212911
 30
0.000000
 40
0.723716
 50
48.232719
 51
60.538326
  0
ARC
  8
0
 62
    72
  6
CONTINUOUS
 10
-2.052496
 20
2.813036
 30
0.000000
 40
1.396126
 50
229.418837
 51
232.107720
  0
ARC
  8
0
 62
    72
  6
CONTINUOUS
 10
-2.947386
 20
1.666210
 30
0.000000
 40
0.058564
 50
357.226117
 51
410.286318
  0
ARC
  8
0
 62
    72
  6
CONTINUOUS
 10
-2.817497
 20
1.662415
 30
0.000000
 40
0.071401
 50
179.228834
 51
219.873773
  0
ARC
  8
0
 62
    72
  6
CONTINUOUS
 10
-2.881036
 20
1.654093
 30
0.000000
 40
0.038459
 50
283.137615
 51
349.382262
  0
ARC
  8
0
 62
    72
  6
CONTINUOUS
 10
-2.949771
 20
1.664495
 30
0.000000
 40
0.107962
 50
350.677388
 51
374.314588
  0
ARC
  8
0
 62
    72
  6
CONTINUOUS
 10
-3.261796
 20
1.558896
 30
0.000000
 40
0.437134
 50
17.616023
 51
43.086104
  0
ARC
  8
0
 62
    72
  6
CONTINUOUS
 10
-3.404380
 20
1.399590
 30
0.000000
 40
0.650364
 50
44.755480
 51
57.691031
  0
ARC
  8
0
 62
    72
  6
CONTINUOUS
 10
-2.733209
 20
2.451845
 30
0.000000
 40
0.597729
 50
229.907131
 51
237.226584
  0
ARC
  8
0
 62
    72
  6
CONTINUOUS
 10
-3.026976
 20
2.090737
 30
0.000000
 40
0.132518
 50
193.417608
 51
226.519037
  0
ARC
  8
0
 62
    72
  6
CONTINUOUS
 10
-2.779533
 20
2.144698
 30
0.000000
 40
0.385760
 50
181.511896
 51
192.685337
  0
ARC
  8
0
 62
    72
  6
CONTINUOUS
 10
-3.395879
 20
2.141303
 30
0.000000
 40
0.230820
 50
358.316036
 51
387.551672
  0
ARC
  8
0
 62
    72
  6
CONTINUOUS
 10
-3.258872
 20
2.204771
 30
0.000000
 40
0.080309
 50
32.625163
 51
60.976508
  0
ARC
  8
0
 62
    72
  6
CONTINUOUS
 10
-3.240366
 20
2.235892
 30
0.000000
 40
0.044130
 50
62.383897
 51
111.196672
  0
ARC
  8
0
 62
    72
  6
CONTINUOUS
 10
-3.439129
 20
2.191180
 30
0.000000
 40
0.201965
 50
341.239234
 51
385.157449
  0
ARC
  8
0
 62
    72
  6
CONTINUOUS
 10
-3.118005
 20
2.083625
 30
0.000000
 40
0.136696
 50
161.842343
 51
192.605812
  0
ARC
  8
0
 62
    72
  6
CONTINUOUS
 10
-2.947150
 20
2.211701
 30
0.000000
 40
0.140492
 50
329.950591
 51
369.545934
  0
ARC
  8
0
 62
    72
  6
CONTINUOUS
 10
0.610289
 20
0.046050
 30
0.000000
 40
0.144173
 50
116.277684
 51
177.829775
  0
ARC
  8
0
 62
    72
  6
CONTINUOUS
 10
0.585611
 20
0.052674
 30
0.000000
 40
0.119398
 50
180.558750
 51
198.907494
  0
ARC
  8
0
 62
    72
  6
CONTINUOUS
 10
0.500163
 20
0.021549
 30
0.000000
 40
0.028529
 50
195.376994
 51
272.126536
  0
ARC
  8
0
 62
    72
  6
CONTINUOUS
 10
0.634637
 20
0.022243
 30
0.000000
 40
0.136574
 50
154.940442
 51
192.347030
  0
ARC
  8
0
 62
    72
  6
CONTINUOUS
 10
0.698310
 20
-0.000222
 30
0.000000
 40
0.203876
 50
131.751109
 51
156.800974
  0
ARC
  8
0
 62
    72
  6
CONTINUOUS
 10
0.554004
 20
0.163258
 30
0.000000
 40
0.014230
 50
306.908424
 51
482.013409
  0
ARC
  8
0
 62
    72
  6
CONTINUOUS
 10
-3.014491
 20
2.205223
 30
0.000000
 40
0.208030
 50
8.229472
 51
34.748209
  0
ARC
  8
0
 62
    72
  6
CONTINUOUS
 10
-3.332706
 20
2.432506
 30
0.000000
 40
0.501080
 50
325.562830
 51
347.469713
  0
ARC
  8
0
 62
    72
  6
CONTINUOUS
 10
-2.783445
 20
2.058803
 30
0.000000
 40
0.163268
 50
146.404298
 51
200.208419
  0
ARC
  8
0
 62
    72
  6
CONTINUOUS
 10
-2.585251
 20
2.170192
 30
0.000000
 40
0.389413
 50
205.522964
 51
226.129032
  0
ARC
  8
0
 62
    72
  6
CONTINUOUS
 10
-3.128542
 20
1.603559
 30
0.000000
 40
0.395596
 50
24.065640
 51
46.279290
  0
ARC
  8
0
 62
    72
  6
CONTINUOUS
 10
-2.818755
 20
1.750619
 30
0.000000
 40
0.053363
 50
343.886155
 51
375.497067
  0
ARC
  8
0
 62
    72
  6
CONTINUOUS
 10
-2.683325
 20
1.717331
 30
0.000000
 40
0.086168
 50
167.618201
 51
177.485538
  0
ARC
  8
0
 62
    72
  6
CONTINUOUS
 10
-2.732324
 20
1.716702
 30
0.000000
 40
0.037347
 50
173.218632
 51
205.625354
  0
ARC
  8
0
 62
    72
  6
CONTINUOUS
 10
-2.758721
 20
1.704293
 30
0.000000
 40
0.008183
 50
207.221571
 51
327.211555
  0
ARC
  8
0
 62
    72
  6
CONTINUOUS
 10
-2.801314
 20
1.757081
 30
0.000000
 40
0.075642
 50
310.846919
 51
358.195154
  0
ARC
  8
0
 62
    72
  6
CONTINUOUS
 10
-2.884489
 20
1.760500
 30
0.000000
 40
0.158885
 50
357.907809
 51
381.932691
  0
ARC
  8
0
 62
    72
  6
CONTINUOUS
 10
-3.144512
 20
1.644708
 30
0.000000
 40
0.443458
 50
23.262023
 51
37.486772
  0
ARC
  8
0
 62
    72
  6
CONTINUOUS
 10
-2.516969
 20
2.134313
 30
0.000000
 40
0.352519
 50
199.104923
 51
218.557888
  0
ARC
  8
0
 62
    72
  6
CONTINUOUS
 10
-2.711726
 20
2.054878
 30
0.000000
 40
0.142938
 50
142.773903
 51
194.564064
  0
ARC
  8
0
 62
    72
  6
CONTINUOUS
 10
-3.563884
 20
1.055934
 30
0.000000
 40
0.196869
 50
153.070395
 51
182.058878
  0
ARC
  8
0
 62
    72
  6
CONTINUOUS
 10
1.044762
 20
-0.140978
 30
0.000000
 40
0.014229
 50
42.597442
 51
217.709835
  0
ARC
  8
0
 62
    72
  6
CONTINUOUS
 10
1.155804
 20
-0.073339
 30
0.000000
 40
0.144171
 50
211.973481
 51
273.525145
  0
ARC
  8
0
 62
    72
  6
CONTINUOUS
 10
1.151663
 20
-0.098539
 30
0.000000
 40
0.119408
 50
276.252905
 51
294.600283
  0
ARC
  8
0
 62
    72
  6
CONTINUOUS
 10
1.191115
 20
-0.180492
 30
0.000000
 40
0.028525
 50
291.071853
 51
367.828550
  0
ARC
  8
0
 62
    72
  6
CONTINUOUS
 10
1.177076
 20
-0.046762
 30
0.000000
 40
0.136561
 50
250.635224
 51
288.043598
  0
ARC
  8
0
 62
    72
  6
CONTINUOUS
 10
1.193121
 20
0.018863
 30
0.000000
 40
0.203901
 50
227.449756
 51
252.496450
  0
ARC
  8
0
 62
    72
  6
CONTINUOUS
 10
-3.276822
 20
1.102464
 30
0.000000
 40
0.486764
 50
186.322258
 51
196.144300
  0
ARC
  8
0
 62
    72
  6
CONTINUOUS
 10
-4.181223
 20
0.838747
 30
0.000000
 40
0.455303
 50
5.213544
 51
16.376011
  0
ARC
  8
0
 62
    72
  6
CONTINUOUS
 10
-3.892303
 20
0.867703
 30
0.000000
 40
0.164967
 50
332.450539
 51
364.316393
  0
ARC
  8
0
 62
    72
  6
CONTINUOUS
 10
-3.795431
 20
0.890257
 30
0.000000
 40
0.110504
 50
296.548095
 51
333.358891
  0
ARC
  8
0
 62
    72
  6
CONTINUOUS
 10
-3.834877
 20
0.917464
 30
0.000000
 40
0.158102
 50
330.955049
 51
358.726857
  0
ARC
  8
0
 62
    72
  6
CONTINUOUS
 10
-3.389633
 20
0.970165
 30
0.000000
 40
0.292631
 50
133.640534
 51
191.075084
  0
LINE
  8
0
 62
    72
  6
CONTINUOUS
 10
-3.591587
 20
1.181937
 30
0.000000
 11
-3.590631
 21
1.182552
 31
0.000000
  0
ARC
  8
0
 62
    72
  6
CONTINUOUS
 10
-3.369273
 20
0.862502
 30
0.000000
 40
0.389142
 50
114.850713
 51
124.669094
  0
ARC
  8
0
 62
    72
  6
CONTINUOUS
 10
-3.474794
 20
1.077694
 30
0.000000
 40
0.149624
 50
88.000122
 51
112.815124
  0
ARC
  8
0
 62
    72
  6
CONTINUOUS
 10
-3.466875
 20
1.511962
 30
0.000000
 40
0.284748
 50
269.457197
 51
312.914500
  0
ARC
  8
0
 62
    72
  6
CONTINUOUS
 10
-3.278703
 20
1.311734
 30
0.000000
 40
0.010088
 50
125.506599
 51
304.507499
  0
ARC
  8
0
 62
    72
  6
CONTINUOUS
 10
-3.340709
 20
1.418189
 30
0.000000
 40
0.113155
 50
265.366616
 51
299.748292
  0
ARC
  8
0
 62
    72
  6
CONTINUOUS
 10
-3.317849
 20
1.677145
 30
0.000000
 40
0.373116
 50
254.392217
 51
265.079980
  0
ARC
  8
0
 62
    72
  6
CONTINUOUS
 10
-3.558147
 20
0.781119
 30
0.000000
 40
0.554606
 50
75.388036
 51
80.414362
  0
ARC
  8
0
 62
    72
  6
CONTINUOUS
 10
-3.491273
 20
1.134365
 30
0.000000
 40
0.195285
 50
82.503013
 51
115.645962
  0
ARC
  8
0
 62
    72
  6
CONTINUOUS
 10
-3.438825
 20
1.018300
 30
0.000000
 40
0.322630
 50
115.121600
 51
136.382451
  0
ARC
  8
0
 62
    72
  6
CONTINUOUS
 10
-3.417507
 20
0.991192
 30
0.000000
 40
0.356798
 50
135.592414
 51
154.447055
  0
ARC
  8
0
 62
    72
  6
CONTINUOUS
 10
-3.461947
 20
0.924952
 30
0.000000
 40
0.113041
 50
147.947544
 51
207.864100
  0
ARC
  8
0
 62
    72
  6
CONTINUOUS
 10
-3.554632
 20
0.892709
 30
0.000000
 40
0.021828
 50
250.599762
 51
318.067717
  0
ARC
  8
0
 62
    72
  6
CONTINUOUS
 10
-3.620083
 20
0.950302
 30
0.000000
 40
0.109010
 50
318.536857
 51
334.291937
  0
ARC
  8
0
 62
    72
  6
CONTINUOUS
 10
-3.379625
 20
0.830359
 30
0.000000
 40
0.159720
 50
143.355390
 51
152.942025
  0
LINE
  8
0
 62
    72
  6
CONTINUOUS
 10
-3.507777
 20
0.925688
 30
0.000000
 11
-3.507419
 21
0.926137
 31
0.000000
  0
ARC
  8
0
 62
    72
  6
CONTINUOUS
 10
-3.335197
 20
0.797660
 30
0.000000
 40
0.214864
 50
131.527825
 51
143.277136
  0
ARC
  8
0
 62
    72
  6
CONTINUOUS
 10
-3.444468
 20
0.867798
 30
0.000000
 40
0.096594
 50
70.152932
 51
110.090920
  0
ARC
  8
0
 62
    72
  6
CONTINUOUS
 10
-3.363179
 20
1.155129
 30
0.000000
 40
0.202370
 50
256.135414
 51
265.437429
  0
ARC
  8
0
 62
    72
  6
CONTINUOUS
 10
-3.381864
 20
1.068629
 30
0.000000
 40
0.115258
 50
271.285916
 51
317.796189
  0
ARC
  8
0
 62
    72
  6
CONTINUOUS
 10
-3.544972
 20
1.213986
 30
0.000000
 40
0.333734
 50
318.121776
 51
334.923278
  0
ARC
  8
0
 62
    72
  6
CONTINUOUS
 10
-3.011167
 20
1.008239
 30
0.000000
 40
0.240291
 50
156.370921
 51
164.479014
  0
ARC
  8
0
 62
    72
  6
CONTINUOUS
 10
-3.338701
 20
1.160574
 30
0.000000
 40
0.121124
 50
332.449989
 51
362.305236
  0
ARC
  8
0
 62
    72
  6
CONTINUOUS
 10
-3.221311
 20
1.129390
 30
0.000000
 40
0.036239
 50
84.241733
 51
131.663070
  0
ARC
  8
0
 62
    72
  6
CONTINUOUS
 10
-3.157388
 20
1.060473
 30
0.000000
 40
0.130231
 50
132.517763
 51
146.423319
  0
ARC
  8
0
 62
    72
  6
CONTINUOUS
 10
-3.379580
 20
1.208154
 30
0.000000
 40
0.136562
 50
312.336221
 51
326.357770
  0
ARC
  8
0
 62
    72
  6
CONTINUOUS
 10
-3.316039
 20
1.139615
 30
0.000000
 40
0.043112
 50
266.892065
 51
311.259799
  0
ARC
  8
0
 62
    72
  6
CONTINUOUS
 10
-3.333890
 20
0.778521
 30
0.000000
 40
0.318424
 50
87.207412
 51
112.282865
  0
ARC
  8
0
 62
    72
  6
CONTINUOUS
 10
-3.368659
 20
0.868287
 30
0.000000
 40
0.222186
 50
112.763847
 51
148.329214
  0
ARC
  8
0
 62
    72
  6
CONTINUOUS
 10
-3.294072
 20
1.341625
 30
0.000000
 40
0.681160
 50
249.509723
 51
264.144455
  0
ARC
  8
0
 62
    72
  6
CONTINUOUS
 10
-3.911901
 20
-0.407316
 30
0.000000
 40
1.173876
 50
71.143810
 51
77.006411
  0
ARC
  8
0
 62
    72
  6
CONTINUOUS
 10
-3.648300
 20
0.751029
 30
0.000000
 40
0.014530
 50
200.842668
 51
271.323518
  0
ARC
  8
0
 62
    72
  6
CONTINUOUS
 10
-3.647441
 20
0.744812
 30
0.000000
 40
0.014477
 50
118.695712
 51
175.852712
  0
ARC
  8
0
 62
    72
  6
CONTINUOUS
 10
-3.584146
 20
0.657857
 30
0.000000
 40
0.121924
 50
83.649287
 51
125.180031
  0
ARC
  8
0
 62
    72
  6
CONTINUOUS
 10
-3.621659
 20
0.313532
 30
0.000000
 40
0.468286
 50
72.106666
 51
83.747626
  0
ARC
  8
0
 62
    72
  6
CONTINUOUS
 10
-3.300602
 20
1.334137
 30
0.000000
 40
0.601650
 50
252.873192
 51
260.386331
  0
ARC
  8
0
 62
    72
  6
CONTINUOUS
 10
-3.373349
 20
0.897062
 30
0.000000
 40
0.158569
 50
259.928066
 51
286.426677
  0
ARC
  8
0
 62
    72
  6
CONTINUOUS
 10
-3.408054
 20
1.057298
 30
0.000000
 40
0.322303
 50
284.288646
 51
311.184492
  0
ARC
  8
0
 62
    72
  6
CONTINUOUS
 10
-3.367865
 20
1.001238
 30
0.000000
 40
0.253736
 50
312.690499
 51
346.898954
  0
ARC
  8
0
 62
    72
  6
CONTINUOUS
 10
-3.595092
 20
0.952242
 30
0.000000
 40
0.474436
 50
358.971297
 51
361.856102
  0
ARC
  8
0
 62
    72
  6
CONTINUOUS
 10
-2.843727
 20
0.980610
 30
0.000000
 40
0.277483
 50
175.448579
 51
182.685609
  0
ARC
  8
0
 62
    72
  6
CONTINUOUS
 10
-3.076013
 20
1.001043
 30
0.000000
 40
0.044350
 50
142.303565
 51
177.949685
  0
ARC
  8
0
 62
    72
  6
CONTINUOUS
 10
-3.093927
 20
1.014355
 30
0.000000
 40
0.022039
 50
83.120917
 51
141.212508
  0
ARC
  8
0
 62
    72
  6
CONTINUOUS
 10
-3.099479
 20
1.019111
 30
0.000000
 40
0.018983
 50
10.049656
 51
64.435050
  0
ARC
  8
0
 62
    72
  6
CONTINUOUS
 10
-3.234840
 20
0.986999
 30
0.000000
 40
0.158074
 50
353.919781
 51
372.950146
  0
ARC
  8
0
 62
    72
  6
CONTINUOUS
 10
-3.493637
 20
1.018759
 30
0.000000
 40
0.418800
 50
313.895429
 51
353.349304
  0
ARC
  8
0
 62
    72
  6
CONTINUOUS
 10
-3.347529
 20
0.884593
 30
0.000000
 40
0.221156
 50
265.841944
 51
310.716848
  0
ARC
  8
0
 62
    72
  6
CONTINUOUS
 10
-2.921341
 20
1.172855
 30
0.000000
 40
0.123461
 50
278.335840
 51
308.671328
  0
ARC
  8
0
 62
    12
  6
CONTINUOUS
 10
0.465520
 20
0.254998
 30
0.000000
 40
0.332895
 50
28.435681
 51
54.889291
  0
ARC
  8
0
 62
    12
  6
CONTINUOUS
 10
0.352887
 20
0.187573
 30
0.000000
 40
0.464080
 50
10.638095
 51
29.134164
  0
ARC
  8
0
 62
    72
  6
CONTINUOUS
 10
0.707758
 20
-0.227611
 30
0.000000
 40
0.048670
 50
219.178707
 51
245.848033
  0
ARC
  8
0
 62
    72
  6
CONTINUOUS
 10
0.690168
 20
-0.266935
 30
0.000000
 40
0.005591
 50
245.447803
 51
319.297039
  0
ARC
  8
0
 62
    72
  6
CONTINUOUS
 10
0.679356
 20
-0.262412
 30
0.000000
 40
0.017125
 50
331.508257
 51
371.250596
  0
ARC
  8
0
 62
    72
  6
CONTINUOUS
 10
0.958569
 20
-0.171456
 30
0.000000
 40
0.276657
 50
169.108171
 51
198.462849
  0
ARC
  8
0
 62
    72
  6
CONTINUOUS
 10
0.670553
 20
-0.114553
 30
0.000000
 40
0.016986
 50
344.188822
 51
418.672768
  0
ARC
  8
0
 62
    72
  6
CONTINUOUS
 10
0.673121
 20
-0.110024
 30
0.000000
 40
0.011783
 50
57.888625
 51
167.866075
  0
ARC
  8
0
 62
    72
  6
CONTINUOUS
 10
0.795321
 20
-0.175714
 30
0.000000
 40
0.150093
 50
152.988597
 51
213.409381
  0
ARC
  8
0
 62
    72
  6
CONTINUOUS
 10
1.112807
 20
-0.272722
 30
0.000000
 40
0.072800
 50
186.772758
 51
234.576128
  0
ARC
  8
0
 62
    72
  6
CONTINUOUS
 10
0.952094
 20
-0.296274
 30
0.000000
 40
0.089679
 50
9.607112
 51
40.420097
  0
ARC
  8
0
 62
    72
  6
CONTINUOUS
 10
1.022700
 20
-0.259031
 30
0.000000
 40
0.021034
 50
96.366560
 51
165.602008
  0
ARC
  8
0
 62
    72
  6
CONTINUOUS
 10
1.076403
 20
-0.265391
 30
0.000000
 40
0.074978
 50
171.107411
 51
191.375160
  0
ARC
  8
0
 62
    72
  6
CONTINUOUS
 10
0.755514
 20
-0.314454
 30
0.000000
 40
0.249747
 50
5.143612
 51
7.887948
  0
ARC
  8
0
 62
    72
  6
CONTINUOUS
 10
1.128876
 20
-0.265849
 30
0.000000
 40
0.127348
 50
191.878876
 51
231.009440
  0
ARC
  8
0
 62
    72
  6
CONTINUOUS
 10
1.264399
 20
-0.082910
 30
0.000000
 40
0.354942
 50
232.586670
 51
246.225962
  0
ARC
  8
0
 62
    72
  6
CONTINUOUS
 10
1.020655
 20
-0.659145
 30
0.000000
 40
0.270814
 50
42.478724
 51
68.180803
  0
ARC
  8
0
 62
    72
  6
CONTINUOUS
 10
1.166455
 20
-0.535888
 30
0.000000
 40
0.080400
 50
16.370620
 51
47.871124
  0
ARC
  8
0
 62
    72
  6
CONTINUOUS
 10
1.297790
 20
-0.500748
 30
0.000000
 40
0.055612
 50
192.967908
 51
239.599977
  0
ARC
  8
0
 62
    72
  6
CONTINUOUS
 10
1.099596
 20
-0.548449
 30
0.000000
 40
0.170052
 50
359.910809
 51
411.225990
  0
ARC
  8
0
 62
    72
  6
CONTINUOUS
 10
0.842902
 20
-0.851459
 30
0.000000
 40
0.567135
 50
50.178834
 51
66.327570
  0
ARC
  8
0
 62
    72
  6
CONTINUOUS
 10
-2.993291
 20
1.255418
 30
0.000000
 40
0.232925
 50
309.799099
 51
328.902296
  0
ARC
  8
0
 62
    72
  6
CONTINUOUS
 10
-2.946588
 20
1.228136
 30
0.000000
 40
0.178844
 50
328.658470
 51
354.892470
  0
ARC
  8
0
 62
    72
  6
CONTINUOUS
 10
-3.366725
 20
1.267792
 30
0.000000
 40
0.600848
 50
354.692620
 51
362.691758
  0
ARC
  8
0
 62
    72
  6
CONTINUOUS
 10
-1.959814
 20
1.324649
 30
0.000000
 40
0.807235
 50
178.109267
 51
182.033186
  0
ARC
  8
0
 62
    72
  6
CONTINUOUS
 10
-2.778699
 20
1.350832
 30
0.000000
 40
0.012098
 50
2.131132
 51
131.003389
  0
ARC
  8
0
 62
    72
  6
CONTINUOUS
 10
-2.756630
 20
1.301961
 30
0.000000
 40
0.065304
 50
117.354503
 51
145.715553
  0
ARC
  8
0
 62
    72
  6
CONTINUOUS
 10
-2.364063
 20
1.159704
 30
0.000000
 40
0.481083
 50
158.150653
 51
170.612336
  0
LINE
  8
0
 62
    72
  6
CONTINUOUS
 10
-2.838703
 20
1.238175
 30
0.000000
 11
-2.838885
 21
1.237248
 31
0.000000
  0
ARC
  8
0
 62
    72
  6
CONTINUOUS
 10
-3.037668
 20
1.296673
 30
0.000000
 40
0.207475
 50
319.172151
 51
343.356372
  0
ARC
  8
0
 62
    72
  6
CONTINUOUS
 10
-2.396678
 20
0.795702
 30
0.000000
 40
0.606396
 50
142.954182
 51
144.940921
  0
ARC
  8
0
 62
    72
  6
CONTINUOUS
 10
-2.958470
 20
1.190153
 30
0.000000
 40
0.080045
 50
283.441512
 51
324.813915
  0
ARC
  8
0
 62
    72
  6
CONTINUOUS
 10
-2.988515
 20
1.341273
 30
0.000000
 40
0.234083
 50
268.093808
 51
281.995939
  0
ARC
  8
0
 62
    72
  6
CONTINUOUS
 10
-3.010516
 20
0.961262
 30
0.000000
 40
0.146747
 50
84.441425
 51
119.025628
  0
ARC
  8
0
 62
    72
  6
CONTINUOUS
 10
-2.819128
 20
1.710108
 30
0.000000
 40
0.673803
 50
247.063414
 51
256.199769
  0
ARC
  8
0
 62
    72
  6
CONTINUOUS
 10
-2.928168
 20
1.256891
 30
0.000000
 40
0.207671
 50
255.588037
 51
276.837982
  0
ARC
  8
0
 62
    72
  6
CONTINUOUS
 10
-3.009942
 20
1.341416
 30
0.000000
 40
0.089067
 50
313.869107
 51
353.919565
  0
ARC
  8
0
 62
    72
  6
CONTINUOUS
 10
-3.026691
 20
1.345322
 30
0.000000
 40
0.106157
 50
352.780988
 51
387.176331
  0
ARC
  8
0
 62
    72
  6
CONTINUOUS
 10
-2.943885
 20
1.389901
 30
0.000000
 40
0.012269
 50
18.562841
 51
98.813031
  0
ARC
  8
0
 62
    72
  6
CONTINUOUS
 10
-2.926551
 20
1.375967
 30
0.000000
 40
0.032376
 50
126.403262
 51
174.598698
  0
ARC
  8
0
 62
    72
  6
CONTINUOUS
 10
-3.056470
 20
1.391183
 30
0.000000
 40
0.098443
 50
320.169788
 51
352.899689
  0
ARC
  8
0
 62
    72
  6
CONTINUOUS
 10
-3.174963
 20
1.496621
 30
0.000000
 40
0.257023
 50
307.178927
 51
319.038640
  0
ARC
  8
0
 62
    72
  6
CONTINUOUS
 10
-2.889772
 20
1.116411
 30
0.000000
 40
0.218267
 50
126.513242
 51
141.973132
  0
ARC
  8
0
 62
    72
  6
CONTINUOUS
 10
-2.987244
 20
1.197713
 30
0.000000
 40
0.091489
 50
144.476869
 51
184.585556
  0
ARC
  8
0
 62
    72
  6
CONTINUOUS
 10
-3.048640
 20
1.192580
 30
0.000000
 40
0.029880
 50
184.186350
 51
228.328926
  0
ARC
  8
0
 62
    72
  6
CONTINUOUS
 10
-3.065963
 20
1.173373
 30
0.000000
 40
0.004019
 50
230.752866
 51
324.654284
  0
ARC
  8
0
 62
    72
  6
CONTINUOUS
 10
-3.082174
 20
1.182130
 30
0.000000
 40
0.022420
 50
330.377046
 51
363.799128
  0
ARC
  8
0
 62
    72
  6
CONTINUOUS
 10
-2.985630
 20
1.161929
 30
0.000000
 40
0.077279
 50
128.789908
 51
163.702876
  0
ARC
  8
0
 62
    12
  6
CONTINUOUS
 10
0.553690
 20
0.210310
 30
0.000000
 40
0.262943
 50
349.725616
 51
373.847962
  0
ARC
  8
0
 62
    12
  6
CONTINUOUS
 10
-0.179204
 20
0.334322
 30
0.000000
 40
1.006241
 50
343.421853
 51
350.220867
  0
ARC
  8
0
 62
    12
  6
CONTINUOUS
 10
1.365815
 20
-0.145112
 30
0.000000
 40
0.611632
 50
161.672177
 51
177.687272
  0
ARC
  8
0
 62
    12
  6
CONTINUOUS
 10
0.924480
 20
-0.122344
 30
0.000000
 40
0.169809
 50
179.354152
 51
234.461730
  0
ARC
  8
0
 62
    12
  6
CONTINUOUS
 10
1.156947
 20
2.391589
 30
0.000000
 40
0.083766
 50
324.555422
 51
356.749614
  0
ARC
  8
0
 62
    12
  6
CONTINUOUS
 10
1.188962
 20
2.368567
 30
0.000000
 40
0.044334
 50
280.492347
 51
324.800710
  0
ARC
  8
0
 62
    12
  6
CONTINUOUS
 10
1.192164
 20
2.358137
 30
0.000000
 40
0.033519
 50
224.704604
 51
278.356303
  0
ARC
  8
0
 62
    12
  6
CONTINUOUS
 10
1.215768
 20
2.378450
 30
0.000000
 40
0.064621
 50
184.311074
 51
222.782739
  0
ARC
  8
0
 62
    12
  6
CONTINUOUS
 10
1.300488
 20
2.399247
 30
0.000000
 40
0.151348
 50
142.426725
 51
189.759372
  0
ARC
  8
0
 62
    12
  6
CONTINUOUS
 10
1.565499
 20
2.191438
 30
0.000000
 40
0.488116
 50
127.746365
 51
142.061976
  0
LINE
  8
0
 62
    12
  6
CONTINUOUS
 10
1.275795
 20
2.585084
 30
0.000000
 11
1.266690
 21
2.577405
 31
0.000000
  0
ARC
  8
0
 62
    12
  6
CONTINUOUS
 10
1.642456
 20
2.069496
 30
0.000000
 40
0.632670
 50
96.534732
 51
125.418560
  0
ARC
  8
0
 62
    72
  6
CONTINUOUS
 10
-2.896098
 20
1.044505
 30
0.000000
 40
0.224925
 50
115.993514
 51
127.827627
  0
ARC
  8
0
 62
    72
  6
CONTINUOUS
 10
-3.080703
 20
1.428212
 30
0.000000
 40
0.200887
 50
295.355553
 51
311.262085
  0
ARC
  8
0
 62
    72
  6
CONTINUOUS
 10
-3.100945
 20
1.406648
 30
0.000000
 40
0.124099
 50
110.152310
 51
148.092870
  0
ARC
  8
0
 62
    72
  6
CONTINUOUS
 10
-3.075257
 20
1.385415
 30
0.000000
 40
0.157192
 50
146.471387
 51
196.581109
  0
ARC
  8
0
 62
    72
  6
CONTINUOUS
 10
-3.012806
 20
1.447948
 30
0.000000
 40
0.238636
 50
206.745210
 51
234.321200
  0
ARC
  8
0
 62
    72
  6
CONTINUOUS
 10
-3.262218
 20
1.251921
 30
0.000000
 40
0.110252
 50
1.134620
 51
31.282278
  0
ARC
  8
0
 62
    72
  6
CONTINUOUS
 10
-3.073737
 20
1.366447
 30
0.000000
 40
0.110296
 50
181.139115
 51
211.285872
  0
ARC
  8
0
 62
    72
  6
CONTINUOUS
 10
-2.979571
 20
1.331518
 30
0.000000
 40
0.207046
 50
154.821508
 51
170.902513
  0
ARC
  8
0
 62
    72
  6
CONTINUOUS
 10
-3.073190
 20
1.377341
 30
0.000000
 40
0.102840
 50
123.939245
 51
155.735189
  0
ARC
  8
0
 62
    72
  6
CONTINUOUS
 10
-3.086824
 20
1.332803
 30
0.000000
 40
0.137039
 50
80.221190
 51
108.631891
  0
ARC
  8
0
 62
    72
  6
CONTINUOUS
 10
-3.102831
 20
1.217545
 30
0.000000
 40
0.253369
 50
64.577742
 51
81.081053
  0
ARC
  8
0
 62
    72
  6
CONTINUOUS
 10
-2.953447
 20
1.584660
 30
0.000000
 40
0.144122
 50
253.631397
 51
328.741681
  0
ARC
  8
0
 62
    72
  6
CONTINUOUS
 10
-2.846142
 20
1.519284
 30
0.000000
 40
0.018471
 50
329.380520
 51
423.688271
  0
ARC
  8
0
 62
    72
  6
CONTINUOUS
 10
-2.848691
 20
1.509462
 30
0.000000
 40
0.028480
 50
67.855436
 51
126.255760
  0
ARC
  8
0
 62
    72
  6
CONTINUOUS
 10
-2.936773
 20
1.612322
 30
0.000000
 40
0.107042
 50
272.072951
 51
311.722338
  0
ARC
  8
0
 62
    72
  6
CONTINUOUS
 10
-2.942066
 20
1.801583
 30
0.000000
 40
0.296375
 50
251.120921
 51
271.772229
  0
ARC
  8
0
 62
    72
  6
CONTINUOUS
 10
-3.093814
 20
1.364346
 30
0.000000
 40
0.166454
 50
70.395857
 51
107.439316
  0
ARC
  8
0
 62
    12
  6
CONTINUOUS
 10
1.801029
 20
0.668285
 30
0.000000
 40
2.042825
 50
87.407849
 51
96.480821
  0
ARC
  8
0
 62
    12
  6
CONTINUOUS
 10
1.983355
 20
5.520718
 30
0.000000
 40
2.813137
 50
268.167932
 51
272.676987
  0
ARC
  8
0
 62
    12
  6
CONTINUOUS
 10
2.124949
 20
2.653208
 30
0.000000
 40
0.058343
 50
57.493121
 51
100.074463
  0
ARC
  8
0
 62
    12
  6
CONTINUOUS
 10
2.152141
 20
2.697794
 30
0.000000
 40
0.006216
 50
312.421315
 51
407.960773
  0
ARC
  8
0
 62
    12
  6
CONTINUOUS
 10
2.131306
 20
2.721264
 30
0.000000
 40
0.037598
 50
281.184625
 51
311.732216
  0
ARC
  8
0
 62
    12
  6
CONTINUOUS
 10
1.813759
 20
4.093889
 30
0.000000
 40
1.446457
 50
271.180887
 51
282.977971
  0
ARC
  8
0
 62
    12
  6
CONTINUOUS
 10
1.910278
 20
0.736915
 30
0.000000
 40
1.911989
 50
91.999448
 51
99.132989
  0
ARC
  8
0
 62
    12
  6
CONTINUOUS
 10
1.780347
 20
1.785152
 30
0.000000
 40
0.857264
 50
101.680237
 51
118.321024
  0
ARC
  8
0
 62
    12
  6
CONTINUOUS
 10
1.551091
 20
2.207144
 30
0.000000
 40
0.377025
 50
118.075270
 51
135.704249
  0
ARC
  8
0
 62
    12
  6
CONTINUOUS
 10
1.378142
 20
2.371627
 30
0.000000
 40
0.138402
 50
134.440085
 51
173.689712
  0
ARC
  8
0
 62
    12
  6
CONTINUOUS
 10
-2.234372
 20
3.756384
 30
0.000000
 40
0.244689
 50
149.042435
 51
176.084971
  0
ARC
  8
0
 62
    12
  6
CONTINUOUS
 10
-1.856634
 20
3.814338
 30
0.000000
 40
0.623223
 50
183.794793
 51
184.559574
  0
ARC
  8
0
 62
    12
  6
CONTINUOUS
 10
-2.601274
 20
3.749363
 30
0.000000
 40
0.124351
 50
352.482721
 51
367.128637
  0
ARC
  8
0
 62
    12
  6
CONTINUOUS
 10
-2.511411
 20
3.738252
 30
0.000000
 40
0.033814
 50
300.813492
 51
351.226920
  0
ARC
  8
0
 62
    12
  6
CONTINUOUS
 10
-2.299430
 20
3.837432
 30
0.000000
 40
0.233094
 50
153.560369
 51
213.372757
  0
ARC
  8
0
 62
    12
  6
CONTINUOUS
 10
-1.147515
 20
3.141177
 30
0.000000
 40
1.578409
 50
143.181275
 51
149.544742
  0
ARC
  8
0
 62
    72
  6
CONTINUOUS
 10
0.495672
 20
-0.354378
 30
0.000000
 40
0.222865
 50
337.392487
 51
363.920268
  0
ARC
  8
0
 62
    72
  6
CONTINUOUS
 10
1.131265
 20
-0.588590
 30
0.000000
 40
0.454794
 50
160.937044
 51
167.872986
  0
ARC
  8
0
 62
    72
  6
CONTINUOUS
 10
0.695683
 20
-0.497143
 30
0.000000
 40
0.009946
 50
344.320910
 51
515.679090
  0
ARC
  8
0
 62
    72
  6
CONTINUOUS
 10
0.377818
 20
-0.278264
 30
0.000000
 40
0.395360
 50
325.915280
 51
337.702764
  0
ARC
  8
0
 62
    72
  6
CONTINUOUS
 10
0.624111
 20
-0.378471
 30
0.000000
 40
0.129466
 50
337.378485
 51
372.244655
  0
ARC
  8
0
 62
    72
  6
CONTINUOUS
 10
0.673462
 20
-0.378739
 30
0.000000
 40
0.081999
 50
19.763353
 51
45.769550
  0
ARC
  8
0
 62
    72
  6
CONTINUOUS
 10
0.726133
 20
-0.323730
 30
0.000000
 40
0.005876
 50
39.609269
 51
137.522290
  0
ARC
  8
0
 62
    72
  6
CONTINUOUS
 10
0.751441
 20
-0.335609
 30
0.000000
 40
0.033611
 50
151.868972
 51
186.031930
  0
ARC
  8
0
 62
    12
  6
CONTINUOUS
 10
-3.642037
 20
5.011838
 30
0.000000
 40
1.539606
 50
323.084503
 51
330.172252
  0
ARC
  8
0
 62
    12
  6
CONTINUOUS
 10
-2.822438
 20
4.537021
 30
0.000000
 40
0.592427
 50
330.583439
 51
350.008189
  0
ARC
  8
0
 62
    72
  6
CONTINUOUS
 10
-2.278468
 20
1.839490
 30
0.000000
 40
0.533451
 50
237.791403
 51
245.111542
  0
ARC
  8
0
 62
    72
  6
CONTINUOUS
 10
-2.474547
 20
1.528020
 30
0.000000
 40
0.165402
 50
214.946784
 51
237.753530
  0
ARC
  8
0
 62
    72
  6
CONTINUOUS
 10
-2.585907
 20
1.438761
 30
0.000000
 40
0.024832
 50
107.729926
 51
192.762228
  0
ARC
  8
0
 62
    72
  6
CONTINUOUS
 10
-2.581308
 20
1.377618
 30
0.000000
 40
0.085662
 50
74.319094
 51
98.161034
  0
ARC
  8
0
 62
    72
  6
CONTINUOUS
 10
-2.609170
 20
1.199080
 30
0.000000
 40
0.265951
 50
36.452661
 51
78.941024
  0
ARC
  8
0
 62
    72
  6
CONTINUOUS
 10
-2.483441
 20
1.293094
 30
0.000000
 40
0.108965
 50
5.261887
 51
35.970211
  0
ARC
  8
0
 62
    72
  6
CONTINUOUS
 10
-2.739042
 20
1.275794
 30
0.000000
 40
0.365129
 50
354.371190
 51
364.286794
  0
ARC
  8
0
 62
    72
  6
CONTINUOUS
 10
-0.954290
 20
1.142146
 30
0.000000
 40
1.424748
 50
176.062487
 51
177.178141
  0
ARC
  8
0
 62
    72
  6
CONTINUOUS
 10
-2.337412
 20
1.210141
 30
0.000000
 40
0.039955
 50
176.920064
 51
225.516698
  0
ARC
  8
0
 62
    72
  6
CONTINUOUS
 10
-2.316207
 20
1.233835
 30
0.000000
 40
0.071733
 50
226.693570
 51
257.791665
  0
ARC
  8
0
 62
    72
  6
CONTINUOUS
 10
-2.297891
 20
1.327928
 30
0.000000
 40
0.167584
 50
258.473873
 51
294.984238
  0
ARC
  8
0
 62
    72
  6
CONTINUOUS
 10
-2.305196
 20
1.192790
 30
0.000000
 40
0.079866
 50
263.450684
 51
347.883420
  0
ARC
  8
0
 62
    72
  6
CONTINUOUS
 10
-2.307849
 20
1.249876
 30
0.000000
 40
0.136584
 50
219.603450
 51
267.290549
  0
ARC
  8
0
 62
    72
  6
CONTINUOUS
 10
-2.055285
 20
1.335541
 30
0.000000
 40
0.397311
 50
194.063597
 51
205.769706
  0
ARC
  8
0
 62
    72
  6
CONTINUOUS
 10
-2.860744
 20
1.130562
 30
0.000000
 40
0.433827
 50
14.474226
 51
23.421341
  0
ARC
  8
0
 62
    72
  6
CONTINUOUS
 10
-2.590267
 20
1.246910
 30
0.000000
 40
0.139390
 50
23.729617
 51
51.225189
  0
ARC
  8
0
 62
    72
  6
CONTINUOUS
 10
-2.382699
 20
1.199315
 30
0.000000
 40
0.258079
 50
206.381610
 51
272.708789
  0
ARC
  8
0
 62
    72
  6
CONTINUOUS
 10
-2.365866
 20
0.911753
 30
0.000000
 40
0.030130
 50
29.582184
 51
98.851472
  0
ARC
  8
0
 62
    72
  6
CONTINUOUS
 10
-2.483825
 20
0.821048
 30
0.000000
 40
0.178688
 50
19.187983
 51
36.217878
  0
ARC
  8
0
 62
    72
  6
CONTINUOUS
 10
-2.569448
 20
0.776072
 30
0.000000
 40
0.274711
 50
3.109876
 51
22.179388
  0
ARC
  8
0
 62
    72
  6
CONTINUOUS
 10
-2.401063
 20
0.862104
 30
0.000000
 40
0.127588
 50
326.117632
 51
363.012839
  0
ARC
  8
0
 62
    72
  6
CONTINUOUS
 10
-2.517812
 20
0.857335
 30
0.000000
 40
0.244431
 50
2.690873
 51
21.167133
  0
ARC
  8
0
 62
    72
  6
CONTINUOUS
 10
-2.408326
 20
0.885659
 30
0.000000
 40
0.132753
 50
26.839345
 51
60.528125
  0
ARC
  8
0
 62
    72
  6
CONTINUOUS
 10
-2.648085
 20
0.492202
 30
0.000000
 40
0.593450
 50
59.064901
 51
67.420193
  0
ARC
  8
0
 62
    72
  6
CONTINUOUS
 10
-2.248508
 20
1.460554
 30
0.000000
 40
0.454108
 50
238.756128
 51
247.782419
  0
ARC
  8
0
 62
    72
  6
CONTINUOUS
 10
-2.462821
 20
1.116179
 30
0.000000
 40
0.048737
 50
186.584752
 51
244.182525
  0
ARC
  8
0
 62
    72
  6
CONTINUOUS
 10
-2.802671
 20
1.112324
 30
0.000000
 40
0.291440
 50
359.659151
 51
430.631809
  0
ARC
  8
0
 62
    72
  6
CONTINUOUS
 10
-2.710057
 20
1.373953
 30
0.000000
 40
0.013917
 50
73.128491
 51
181.021035
  0
ARC
  8
0
 62
    72
  6
CONTINUOUS
 10
-2.697937
 20
1.368010
 30
0.000000
 40
0.026651
 50
167.661584
 51
225.917445
  0
ARC
  8
0
 62
    72
  6
CONTINUOUS
 10
-2.813011
 20
1.214471
 30
0.000000
 40
0.165470
 50
21.121315
 51
54.310942
  0
ARC
  8
0
 62
    72
  6
CONTINUOUS
 10
-3.007021
 20
1.153675
 30
0.000000
 40
0.368591
 50
5.589075
 51
19.069186
  0
ARC
  8
0
 62
    72
  6
CONTINUOUS
 10
-2.299300
 20
1.219192
 30
0.000000
 40
0.342166
 50
184.965753
 51
203.156225
  0
ARC
  8
0
 62
    72
  6
CONTINUOUS
 10
-1.778864
 20
4.483829
 30
0.000000
 40
0.024318
 50
349.034750
 51
407.399660
  0
ARC
  8
0
 62
    72
  6
CONTINUOUS
 10
-1.725375
 20
4.403255
 30
0.000000
 40
0.105206
 50
110.607776
 51
175.186466
  0
ARC
  8
0
 62
    72
  6
CONTINUOUS
 10
-1.964351
 20
4.405749
 30
0.000000
 40
0.134290
 50
318.233756
 51
362.703225
  0
ARC
  8
0
 62
    72
  6
CONTINUOUS
 10
-2.103388
 20
4.552000
 30
0.000000
 40
0.335814
 50
298.878506
 51
315.422171
  0
ARC
  8
0
 62
    72
  6
CONTINUOUS
 10
-1.728761
 20
3.888780
 30
0.000000
 40
0.425929
 50
119.919113
 51
130.664047
  0
ARC
  8
0
 62
    72
  6
CONTINUOUS
 10
-1.913754
 20
4.106166
 30
0.000000
 40
0.140493
 50
131.205636
 51
163.900508
  0
ARC
  8
0
 62
    12
  6
CONTINUOUS
 10
-2.479962
 20
4.468160
 30
0.000000
 40
0.243343
 50
351.985058
 51
359.641737
  0
ARC
  8
0
 62
    12
  6
CONTINUOUS
 10
-2.036885
 20
4.468498
 30
0.000000
 40
0.199747
 50
167.461467
 51
180.533400
  0
ARC
  8
0
 62
    12
  6
CONTINUOUS
 10
-2.180681
 20
4.500551
 30
0.000000
 40
0.052422
 50
120.379609
 51
167.538568
  0
ARC
  8
0
 62
    12
  6
CONTINUOUS
 10
-2.592064
 20
4.470431
 30
0.000000
 40
0.392177
 50
349.120400
 51
371.076336
  0
ARC
  8
0
 62
    12
  6
CONTINUOUS
 10
-2.993121
 20
4.538503
 30
0.000000
 40
0.798922
 50
338.506163
 51
349.755054
  0
ARC
  8
0
 62
    12
  6
CONTINUOUS
 10
-3.561636
 20
4.762043
 30
0.000000
 40
1.409807
 50
329.222246
 51
338.518770
  0
ARC
  8
0
 62
    12
  6
CONTINUOUS
 10
-3.906422
 20
4.970156
 30
0.000000
 40
1.812527
 50
327.664938
 51
329.147274
  0
ARC
  8
0
 62
    12
  6
CONTINUOUS
 10
-1.040809
 20
3.141153
 30
0.000000
 40
1.587057
 50
147.207905
 51
152.162530
  0
ARC
  8
0
 62
    72
  6
CONTINUOUS
 10
1.069074
 20
0.191258
 30
0.000000
 40
0.014229
 50
42.602746
 51
217.706536
  0
ARC
  8
0
 62
    72
  6
CONTINUOUS
 10
1.180114
 20
0.258896
 30
0.000000
 40
0.144169
 50
211.973546
 51
273.525850
  0
ARC
  8
0
 62
    72
  6
CONTINUOUS
 10
1.175976
 20
0.233685
 30
0.000000
 40
0.119396
 50
276.252980
 51
294.601952
  0
ARC
  8
0
 62
    72
  6
CONTINUOUS
 10
1.215425
 20
0.151749
 30
0.000000
 40
0.028528
 50
291.072444
 51
367.822191
  0
ARC
  8
0
 62
    72
  6
CONTINUOUS
 10
1.201386
 20
0.285487
 30
0.000000
 40
0.136572
 50
250.636590
 51
288.043401
  0
ARC
  8
0
 62
    72
  6
CONTINUOUS
 10
1.217422
 20
0.351078
 30
0.000000
 40
0.203877
 50
227.447647
 51
252.496831
  0
POINT
  8
Default
 62
     7
 10
0.000000
 20
0.000000
 30
0.000000
  0
POINT
  8
Default
 62
     7
 10
0.000000
 20
0.000000
 30
0.000000
  0
ENDSEC
  0
EOF
