  0
SECTION
  2
HEADER
  9
$ACADVER
  1
AC1021
  9
$ACADMAINTVER
 70
    25
  9
$DWGCODEPAGE
  3
ANSI_1252
  9
$INSBASE
 10
0.0
 20
0.0
 30
0.0
  9
$EXTMIN
 10
-3.993074803149606
 20
-4.247755905511811
 30
0.0
  9
$EXTMAX
 10
2.452291338582677
 20
4.922881889763779
 30
0.0
  9
$LIMMIN
 10
0.0
 20
0.0
  9
$LIMMAX
 10
12.0
 20
9.0
  9
$ORTHOMODE
 70
     0
  9
$REGENMODE
 70
     1
  9
$FILLMODE
 70
     1
  9
$QTEXTMODE
 70
     0
  9
$MIRRTEXT
 70
     1
  9
$LTSCALE
 40
1.0
  9
$ATTMODE
 70
     1
  9
$TEXTSIZE
 40
0.2
  9
$TRACEWID
 40
0.05
  9
$TEXTSTYLE
  7
Standard
  9
$CLAYER
  8
0
  9
$CELTYPE
  6
ByLayer
  9
$CECOLOR
 62
   256
  9
$CELTSCALE
 40
1.0
  9
$DISPSILH
 70
     0
  9
$DIMSCALE
 40
1.0
  9
$DIMASZ
 40
0.18
  9
$DIMEXO
 40
0.0625
  9
$DIMDLI
 40
0.38
  9
$DIMRND
 40
0.0
  9
$DIMDLE
 40
0.0
  9
$DIMEXE
 40
0.18
  9
$DIMTP
 40
0.0
  9
$DIMTM
 40
0.0
  9
$DIMTXT
 40
0.18
  9
$DIMCEN
 40
0.09
  9
$DIMTSZ
 40
0.0
  9
$DIMTOL
 70
     0
  9
$DIMLIM
 70
     0
  9
$DIMTIH
 70
     1
  9
$DIMTOH
 70
     1
  9
$DIMSE1
 70
     0
  9
$DIMSE2
 70
     0
  9
$DIMTAD
 70
     0
  9
$DIMZIN
 70
     0
  9
$DIMBLK
  1

  9
$DIMASO
 70
     1
  9
$DIMSHO
 70
     1
  9
$DIMPOST
  1

  9
$DIMAPOST
  1

  9
$DIMALT
 70
     0
  9
$DIMALTD
 70
     2
  9
$DIMALTF
 40
25.4
  9
$DIMLFAC
 40
1.0
  9
$DIMTOFL
 70
     0
  9
$DIMTVP
 40
0.0
  9
$DIMTIX
 70
     0
  9
$DIMSOXD
 70
     0
  9
$DIMSAH
 70
     0
  9
$DIMBLK1
  1

  9
$DIMBLK2
  1

  9
$DIMSTYLE
  2
Standard
  9
$DIMCLRD
 70
     0
  9
$DIMCLRE
 70
     0
  9
$DIMCLRT
 70
     0
  9
$DIMTFAC
 40
1.0
  9
$DIMGAP
 40
0.09
  9
$DIMJUST
 70
     0
  9
$DIMSD1
 70
     0
  9
$DIMSD2
 70
     0
  9
$DIMTOLJ
 70
     1
  9
$DIMTZIN
 70
     0
  9
$DIMALTZ
 70
     0
  9
$DIMALTTZ
 70
     0
  9
$DIMUPT
 70
     0
  9
$DIMDEC
 70
     4
  9
$DIMTDEC
 70
     4
  9
$DIMALTU
 70
     2
  9
$DIMALTTD
 70
     2
  9
$DIMTXSTY
  7
Standard
  9
$DIMAUNIT
 70
     0
  9
$DIMADEC
 70
     0
  9
$DIMALTRND
 40
0.0
  9
$DIMAZIN
 70
     0
  9
$DIMDSEP
 70
    46
  9
$DIMATFIT
 70
     3
  9
$DIMFRAC
 70
     0
  9
$DIMLDRBLK
  1

  9
$DIMLUNIT
 70
     2
  9
$DIMLWD
 70
    -2
  9
$DIMLWE
 70
    -2
  9
$DIMTMOVE
 70
     0
  9
$DIMFXL
 40
1.0
  9
$DIMFXLON
 70
     0
  9
$DIMJOGANG
 40
0.7853981633974483
  9
$DIMTFILL
 70
     0
  9
$DIMTFILLCLR
 70
     0
  9
$DIMARCSYM
 70
     0
  9
$DIMLTYPE
  6

  9
$DIMLTEX1
  6

  9
$DIMLTEX2
  6

  9
$LUNITS
 70
     2
  9
$LUPREC
 70
     4
  9
$SKETCHINC
 40
0.1
  9
$FILLETRAD
 40
0.5
  9
$AUNITS
 70
     0
  9
$AUPREC
 70
     0
  9
$MENU
  1
.
  9
$ELEVATION
 40
0.0
  9
$PELEVATION
 40
0.0
  9
$THICKNESS
 40
0.0
  9
$LIMCHECK
 70
     0
  9
$CHAMFERA
 40
0.5
  9
$CHAMFERB
 40
0.5
  9
$CHAMFERC
 40
1.0
  9
$CHAMFERD
 40
0.0
  9
$SKPOLY
 70
     0
  9
$TDCREATE
 40
2457413.877049201
  9
$TDUCREATE
 40
2457414.127049201
  9
$TDUPDATE
 40
2457413.877049213
  9
$TDUUPDATE
 40
2457414.127049213
  9
$TDINDWG
 40
0.0000000116
  9
$TDUSRTIMER
 40
0.0000000116
  9
$USRTIMER
 70
     1
  9
$ANGBASE
 50
0.0
  9
$ANGDIR
 70
     0
  9
$PDMODE
 70
     0
  9
$PDSIZE
 40
0.0
  9
$PLINEWID
 40
0.0
  9
$SPLFRAME
 70
     0
  9
$SPLINETYPE
 70
     6
  9
$SPLINESEGS
 70
     8
  9
$HANDSEED
  5
9F
  9
$SURFTAB1
 70
     6
  9
$SURFTAB2
 70
     6
  9
$SURFTYPE
 70
     6
  9
$SURFU
 70
     6
  9
$SURFV
 70
     6
  9
$UCSBASE
  2

  9
$UCSNAME
  2

  9
$UCSORG
 10
0.0
 20
0.0
 30
0.0
  9
$UCSXDIR
 10
1.0
 20
0.0
 30
0.0
  9
$UCSYDIR
 10
0.0
 20
1.0
 30
0.0
  9
$UCSORTHOREF
  2

  9
$UCSORTHOVIEW
 70
     0
  9
$UCSORGTOP
 10
0.0
 20
0.0
 30
0.0
  9
$UCSORGBOTTOM
 10
0.0
 20
0.0
 30
0.0
  9
$UCSORGLEFT
 10
0.0
 20
0.0
 30
0.0
  9
$UCSORGRIGHT
 10
0.0
 20
0.0
 30
0.0
  9
$UCSORGFRONT
 10
0.0
 20
0.0
 30
0.0
  9
$UCSORGBACK
 10
0.0
 20
0.0
 30
0.0
  9
$PUCSBASE
  2

  9
$PUCSNAME
  2

  9
$PUCSORG
 10
0.0
 20
0.0
 30
0.0
  9
$PUCSXDIR
 10
1.0
 20
0.0
 30
0.0
  9
$PUCSYDIR
 10
0.0
 20
1.0
 30
0.0
  9
$PUCSORTHOREF
  2

  9
$PUCSORTHOVIEW
 70
     0
  9
$PUCSORGTOP
 10
0.0
 20
0.0
 30
0.0
  9
$PUCSORGBOTTOM
 10
0.0
 20
0.0
 30
0.0
  9
$PUCSORGLEFT
 10
0.0
 20
0.0
 30
0.0
  9
$PUCSORGRIGHT
 10
0.0
 20
0.0
 30
0.0
  9
$PUCSORGFRONT
 10
0.0
 20
0.0
 30
0.0
  9
$PUCSORGBACK
 10
0.0
 20
0.0
 30
0.0
  9
$USERI1
 70
     0
  9
$USERI2
 70
     0
  9
$USERI3
 70
     0
  9
$USERI4
 70
     0
  9
$USERI5
 70
     0
  9
$USERR1
 40
0.0
  9
$USERR2
 40
0.0
  9
$USERR3
 40
0.0
  9
$USERR4
 40
0.0
  9
$USERR5
 40
0.0
  9
$WORLDVIEW
 70
     1
  9
$SHADEDGE
 70
     3
  9
$SHADEDIF
 70
    70
  9
$TILEMODE
 70
     1
  9
$MAXACTVP
 70
    64
  9
$PINSBASE
 10
0.0
 20
0.0
 30
0.0
  9
$PLIMCHECK
 70
     0
  9
$PEXTMIN
 10
1.000000000000000E+20
 20
1.000000000000000E+20
 30
1.000000000000000E+20
  9
$PEXTMAX
 10
-1.000000000000000E+20
 20
-1.000000000000000E+20
 30
-1.000000000000000E+20
  9
$PLIMMIN
 10
0.0
 20
0.0
  9
$PLIMMAX
 10
12.0
 20
9.0
  9
$UNITMODE
 70
     0
  9
$VISRETAIN
 70
     1
  9
$PLINEGEN
 70
     0
  9
$PSLTSCALE
 70
     1
  9
$TREEDEPTH
 70
  3020
  9
$CMLSTYLE
  2
Standard
  9
$CMLJUST
 70
     0
  9
$CMLSCALE
 40
1.0
  9
$PROXYGRAPHICS
 70
     1
  9
$MEASUREMENT
 70
     0
  9
$CELWEIGHT
370
    -1
  9
$ENDCAPS
280
     0
  9
$JOINSTYLE
280
     0
  9
$LWDISPLAY
290
     0
  9
$INSUNITS
 70
     1
  9
$HYPERLINKBASE
  1

  9
$STYLESHEET
  1

  9
$XEDIT
290
     1
  9
$CEPSNTYPE
380
     0
  9
$PSTYLEMODE
290
     1
  9
$FINGERPRINTGUID
  2
{0C57BAD6-C128-4E6A-89D2-68D1F2D82C1E}
  9
$VERSIONGUID
  2
{FAEB1C32-E019-11D5-929B-00C0DF256EC4}
  9
$EXTNAMES
290
     1
  9
$PSVPSCALE
 40
0.0
  9
$OLESTARTUP
290
     0
  9
$SORTENTS
280
   127
  9
$INDEXCTL
280
     0
  9
$HIDETEXT
280
     1
  9
$XCLIPFRAME
290
     0
  9
$HALOGAP
280
     0
  9
$OBSCOLOR
 70
   257
  9
$OBSLTYPE
280
     0
  9
$INTERSECTIONDISPLAY
280
     0
  9
$INTERSECTIONCOLOR
 70
   257
  9
$DIMASSOC
280
     2
  9
$PROJECTNAME
  1

  9
$CAMERADISPLAY
290
     0
  9
$LENSLENGTH
 40
50.0
  9
$CAMERAHEIGHT
 40
0.0
  9
$STEPSPERSEC
 40
2.0
  9
$STEPSIZE
 40
6.0
  9
$3DDWFPREC
 40
2.0
  9
$PSOLWIDTH
 40
0.25
  9
$PSOLHEIGHT
 40
4.0
  9
$LOFTANG1
 40
1.570796326794897
  9
$LOFTANG2
 40
1.570796326794897
  9
$LOFTMAG1
 40
0.0
  9
$LOFTMAG2
 40
0.0
  9
$LOFTPARAM
 70
     7
  9
$LOFTNORMALS
280
     1
  9
$LATITUDE
 40
37.795
  9
$LONGITUDE
 40
-122.394
  9
$NORTHDIRECTION
 40
0.0
  9
$TIMEZONE
 70
 -8000
  9
$LIGHTGLYPHDISPLAY
280
     1
  9
$TILEMODELIGHTSYNCH
280
     1
  9
$SOLIDHIST
280
     1
  9
$SHOWHIST
280
     1
  9
$DWFFRAME
280
     2
  9
$DGNFRAME
280
     2
  9
$REALWORLDSCALE
290
     1
  9
$INTERFERECOLOR
 62
   256
  9
$CSHADOW
280
     0
  9
$SHADOWPLANELOCATION
 40
0.0
  0
ENDSEC
  0
SECTION
  2
CLASSES
  0
CLASS
  1
ACDBDICTIONARYWDFLT
  2
AcDbDictionaryWithDefault
  3
ObjectDBX Classes
 90
        0
 91
        4
280
     0
281
     0
  0
CLASS
  1
VISUALSTYLE
  2
AcDbVisualStyle
  3
ObjectDBX Classes
 90
     4095
 91
        4
280
     0
281
     0
  0
CLASS
  1
MATERIAL
  2
AcDbMaterial
  3
ObjectDBX Classes
 90
     1153
 91
        4
280
     0
281
     0
  0
ENDSEC
  0
SECTION
  2
TABLES
  0
TABLE
  2
VPORT
  5
8
330
0
100
AcDbSymbolTable
 70
     1
  0
VPORT
  5
29
330
8
100
AcDbSymbolTableRecord
100
AcDbViewportTableRecord
  2
*Active
 70
     0
 10
0.0
 20
0.0
 11
1.0
 21
1.0
 12
10.42990654205607
 22
4.5
 13
0.0
 23
0.0
 14
0.5
 24
0.5
 15
0.5
 25
0.5
 16
0.0
 26
0.0
 36
1.0
 17
0.0
 27
0.0
 37
0.0
 40
9.0
 41
1.972972972850329
 42
50.0
 43
0.0
 44
0.0
 50
0.0
 51
0.0
 71
     0
 72
   100
 73
     1
 74
     3
 75
     0
 76
     0
 77
     0
 78
     0
281
     0
 65
     1
110
0.0
120
0.0
130
0.0
111
1.0
121
0.0
131
0.0
112
0.0
122
1.0
132
0.0
 79
     0
146
0.0
 60
     3
 61
     5
292
     1
282
     1
141
0.0
142
0.0
 63
   250
  0
ENDTAB
  0
TABLE
  2
LTYPE
  5
5
330
0
100
AcDbSymbolTable
 70
     1
  0
LTYPE
  5
14
330
5
100
AcDbSymbolTableRecord
100
AcDbLinetypeTableRecord
  2
ByBlock
 70
     0
  3

 72
    65
 73
     0
 40
0.0
  0
LTYPE
  5
15
330
5
100
AcDbSymbolTableRecord
100
AcDbLinetypeTableRecord
  2
ByLayer
 70
     0
  3

 72
    65
 73
     0
 40
0.0
  0
LTYPE
  5
16
330
5
100
AcDbSymbolTableRecord
100
AcDbLinetypeTableRecord
  2
Continuous
 70
     0
  3
Solid line
 72
    65
 73
     0
 40
0.0
  0
ENDTAB
  0
TABLE
  2
LAYER
  5
2
330
0
100
AcDbSymbolTable
 70
     2
  0
LAYER
  5
10
330
2
100
AcDbSymbolTableRecord
100
AcDbLayerTableRecord
  2
0
 70
     0
 62
     7
  6
Continuous
370
    -3
390
F
347
3E
  0
LAYER
  5
40
330
2
100
AcDbSymbolTableRecord
100
AcDbLayerTableRecord
  2
Layer 1
 70
     0
 62
     7
  6
Continuous
370
    -3
390
F
347
3E
  0
ENDTAB
  0
TABLE
  2
STYLE
  5
3
330
0
100
AcDbSymbolTable
 70
     1
  0
STYLE
  5
11
330
3
100
AcDbSymbolTableRecord
100
AcDbTextStyleTableRecord
  2
Standard
 70
     0
 40
0.0
 41
1.0
 50
0.0
 71
     0
 42
0.2
  3
txt
  4

  0
ENDTAB
  0
TABLE
  2
VIEW
  5
6
330
0
100
AcDbSymbolTable
 70
     0
  0
ENDTAB
  0
TABLE
  2
UCS
  5
7
330
0
100
AcDbSymbolTable
 70
     0
  0
ENDTAB
  0
TABLE
  2
APPID
  5
9
330
0
100
AcDbSymbolTable
 70
     2
  0
APPID
  5
12
330
9
100
AcDbSymbolTableRecord
100
AcDbRegAppTableRecord
  2
ACAD
 70
     0
  0
APPID
  5
3F
330
9
100
AcDbSymbolTableRecord
100
AcDbRegAppTableRecord
  2
ODA
 70
     0
  0
ENDTAB
  0
TABLE
  2
DIMSTYLE
  5
A
330
0
100
AcDbSymbolTable
 70
     1
100
AcDbDimStyleTable
  0
DIMSTYLE
105
27
330
A
100
AcDbSymbolTableRecord
100
AcDbDimStyleTableRecord
  2
Standard
 70
     0
178
     0
340
11
  0
ENDTAB
  0
TABLE
  2
BLOCK_RECORD
  5
1
330
0
100
AcDbSymbolTable
 70
     1
  0
BLOCK_RECORD
  5
1F
330
1
100
AcDbSymbolTableRecord
100
AcDbBlockTableRecord
  2
*Model_Space
340
22
 70
     0
280
     1
281
     0
  0
BLOCK_RECORD
  5
1B
330
1
100
AcDbSymbolTableRecord
100
AcDbBlockTableRecord
  2
*Paper_Space
340
1E
 70
     0
280
     1
281
     0
  0
BLOCK_RECORD
  5
23
330
1
100
AcDbSymbolTableRecord
100
AcDbBlockTableRecord
  2
*Paper_Space0
340
26
 70
     0
280
     1
281
     0
  0
ENDTAB
  0
ENDSEC
  0
SECTION
  2
BLOCKS
  0
BLOCK
  5
20
330
1F
100
AcDbEntity
  8
0
100
AcDbBlockBegin
  2
*Model_Space
 70
     0
 10
0.0
 20
0.0
 30
0.0
  3
*Model_Space
  1

  0
ENDBLK
  5
21
330
1F
100
AcDbEntity
  8
0
100
AcDbBlockEnd
  0
BLOCK
  5
1C
330
1B
100
AcDbEntity
 67
     1
  8
0
100
AcDbBlockBegin
  2
*Paper_Space
 70
     0
 10
0.0
 20
0.0
 30
0.0
  3
*Paper_Space
  1

  0
ENDBLK
  5
1D
330
1B
100
AcDbEntity
 67
     1
  8
0
100
AcDbBlockEnd
  0
BLOCK
  5
24
330
23
100
AcDbEntity
  8
0
100
AcDbBlockBegin
  2
*Paper_Space0
 70
     0
 10
0.0
 20
0.0
 30
0.0
  3
*Paper_Space0
  1

  0
ENDBLK
  5
25
330
23
100
AcDbEntity
  8
0
100
AcDbBlockEnd
  0
ENDSEC
  0
SECTION
  2
ENTITIES
  0
SPLINE
  5
41
330
1F
100
AcDbEntity
  8
Layer 1
370
     9
100
AcDbSpline
210
0.0
220
0.0
230
1.0
 70
    11
 71
     3
 72
    36
 73
    32
 74
     0
 42
0.0000000001
 43
0.0000000001
 40
0.0
 40
0.0
 40
0.0
 40
0.0
 40
0.1111111111111111
 40
0.1111111111111111
 40
0.1111111111111111
 40
0.1111111111111111
 40
0.2222222222222222
 40
0.2222222222222222
 40
0.2222222222222222
 40
0.2222222222222222
 40
0.3333333333333333
 40
0.3333333333333333
 40
0.3333333333333333
 40
0.3333333333333333
 40
0.4444444444444444
 40
0.4444444444444444
 40
0.4444444444444444
 40
0.4444444444444444
 40
0.5555555555555556
 40
0.5555555555555556
 40
0.5555555555555556
 40
0.5555555555555556
 40
0.6666666666666666
 40
0.6666666666666666
 40
0.6666666666666666
 40
0.6666666666666666
 40
0.7777777777777778
 40
0.7777777777777778
 40
0.7777777777777778
 40
0.7777777777777778
 40
1.0
 40
1.0
 40
1.0
 40
1.0
 10
-0.3695314960629921
 20
-4.246255905511811
 30
0.0
 10
-0.3695314960629921
 20
-4.246255905511811
 30
0.0
 10
-3.794720472440945
 20
-4.246255905511811
 30
0.0
 10
-3.794720472440945
 20
-4.246255905511811
 30
0.0
 10
-3.794720472440945
 20
-4.246255905511811
 30
0.0
 10
-3.902992125984252
 20
-4.246255905511811
 30
0.0
 10
-3.991574803149606
 20
-4.157673228346456
 30
0.0
 10
-3.991574803149606
 20
-4.049405511811024
 30
0.0
 10
-3.991574803149606
 20
-4.049405511811024
 30
0.0
 10
-3.991574803149606
 20
-4.049405511811024
 30
0.0
 10
-3.991574803149606
 20
-2.632082677165354
 30
0.0
 10
-3.991574803149606
 20
-2.632082677165354
 30
0.0
 10
-3.991574803149606
 20
-2.632082677165354
 30
0.0
 10
-3.991574803149606
 20
-2.523814960629921
 30
0.0
 10
-3.902992125984252
 20
-2.435232283464567
 30
0.0
 10
-3.794720472440945
 20
-2.435232283464567
 30
0.0
 10
-3.794720472440945
 20
-2.435232283464567
 30
0.0
 10
-3.794720472440945
 20
-2.435232283464567
 30
0.0
 10
-0.3695314960629921
 20
-2.435232283464567
 30
0.0
 10
-0.3695314960629921
 20
-2.435232283464567
 30
0.0
 10
-0.3695314960629921
 20
-2.435232283464567
 30
0.0
 10
-0.261259842519685
 20
-2.435232283464567
 30
0.0
 10
-0.1726771653543307
 20
-2.523814960629921
 30
0.0
 10
-0.1726771653543307
 20
-2.632082677165354
 30
0.0
 10
-0.1726771653543307
 20
-2.632082677165354
 30
0.0
 10
-0.1726771653543307
 20
-2.632082677165354
 30
0.0
 10
-0.1726771653543307
 20
-4.049405511811024
 30
0.0
 10
-0.1726771653543307
 20
-4.049405511811024
 30
0.0
 10
-0.1726771653543307
 20
-4.049405511811024
 30
0.0
 10
-0.1726771653543307
 20
-4.157673228346456
 30
0.0
 10
-0.261259842519685
 20
-4.246255905511811
 30
0.0
 10
-0.3695314960629921
 20
-4.246255905511811
 30
0.0
  0
SPLINE
  5
42
330
1F
100
AcDbEntity
  8
Layer 1
370
     9
100
AcDbSpline
210
0.0
220
0.0
230
1.0
 70
    11
 71
     3
 72
    20
 73
    16
 74
     0
 42
0.0000000001
 43
0.0000000001
 40
0.0
 40
0.0
 40
0.0
 40
0.0
 40
0.2
 40
0.2
 40
0.2
 40
0.2
 40
0.4
 40
0.4
 40
0.4
 40
0.4
 40
0.6
 40
0.6
 40
0.6
 40
0.6
 40
1.0
 40
1.0
 40
1.0
 40
1.0
 10
-3.625062992125984
 20
-3.859444881889764
 30
0.0
 10
-3.625062992125984
 20
-3.859444881889764
 30
0.0
 10
-3.625062992125984
 20
-3.609444881889764
 30
0.0
 10
-3.625062992125984
 20
-3.609444881889764
 30
0.0
 10
-3.625062992125984
 20
-3.609444881889764
 30
0.0
 10
-3.625062992125984
 20
-3.609444881889764
 30
0.0
 10
-3.531314960629921
 20
-3.609444881889764
 30
0.0
 10
-3.531314960629921
 20
-3.609444881889764
 30
0.0
 10
-3.531314960629921
 20
-3.609444881889764
 30
0.0
 10
-3.531314960629921
 20
-3.609444881889764
 30
0.0
 10
-3.531314960629921
 20
-3.859444881889764
 30
0.0
 10
-3.531314960629921
 20
-3.859444881889764
 30
0.0
 10
-3.531314960629921
 20
-3.859444881889764
 30
0.0
 10
-3.531314960629921
 20
-3.859444881889764
 30
0.0
 10
-3.625062992125984
 20
-3.859444881889764
 30
0.0
 10
-3.625062992125984
 20
-3.859444881889764
 30
0.0
  0
LWPOLYLINE
  5
43
330
1F
100
AcDbEntity
  8
Layer 1
370
     9
100
AcDbPolyline
 90
        5
 70
     1
 43
0.0
 10
-3.558503937007874
 20
-4.128145669291339
 10
-3.164803149606299
 20
-4.128145669291339
 10
-3.164803149606299
 20
-4.010035433070867
 10
-3.558503937007874
 20
-4.010035433070867
 10
-3.558503937007874
 20
-4.128145669291339
  0
LWPOLYLINE
  5
44
330
1F
100
AcDbEntity
  8
Layer 1
370
     9
100
AcDbPolyline
 90
        5
 70
     1
 43
0.0
 10
-0.9994488188976378
 20
-4.128145669291339
 10
-0.605748031496063
 20
-4.128145669291339
 10
-0.605748031496063
 20
-4.010035433070867
 10
-0.9994488188976378
 20
-4.010035433070867
 10
-0.9994488188976378
 20
-4.128145669291339
  0
SPLINE
  5
45
330
1F
100
AcDbEntity
  8
Layer 1
370
     9
100
AcDbSpline
210
0.0
220
0.0
230
1.0
 70
    11
 71
     3
 72
    20
 73
    16
 74
     0
 42
0.0000000001
 43
0.0000000001
 40
0.0
 40
0.0
 40
0.0
 40
0.0
 40
0.2
 40
0.2
 40
0.2
 40
0.2
 40
0.4
 40
0.4
 40
0.4
 40
0.4
 40
0.6
 40
0.6
 40
0.6
 40
0.6
 40
1.0
 40
1.0
 40
1.0
 40
1.0
 10
-0.6329370078740157
 20
-3.859444881889764
 30
0.0
 10
-0.6329370078740157
 20
-3.859444881889764
 30
0.0
 10
-0.6329370078740157
 20
-3.609444881889764
 30
0.0
 10
-0.6329370078740157
 20
-3.609444881889764
 30
0.0
 10
-0.6329370078740157
 20
-3.609444881889764
 30
0.0
 10
-0.6329370078740157
 20
-3.609444881889764
 30
0.0
 10
-0.5391889763779527
 20
-3.609444881889764
 30
0.0
 10
-0.5391889763779527
 20
-3.609444881889764
 30
0.0
 10
-0.5391889763779527
 20
-3.609444881889764
 30
0.0
 10
-0.5391889763779527
 20
-3.609444881889764
 30
0.0
 10
-0.5391889763779527
 20
-3.859444881889764
 30
0.0
 10
-0.5391889763779527
 20
-3.859444881889764
 30
0.0
 10
-0.5391889763779527
 20
-3.859444881889764
 30
0.0
 10
-0.5391889763779527
 20
-3.859444881889764
 30
0.0
 10
-0.6329370078740157
 20
-3.859444881889764
 30
0.0
 10
-0.6329370078740157
 20
-3.859444881889764
 30
0.0
  0
LWPOLYLINE
  5
46
330
1F
100
AcDbEntity
  8
Layer 1
370
     9
100
AcDbPolyline
 90
        5
 70
     1
 43
0.0
 10
-3.558503937007874
 20
-2.671452755905512
 10
-3.164803149606299
 20
-2.671452755905512
 10
-3.164803149606299
 20
-2.553342519685039
 10
-3.558503937007874
 20
-2.553342519685039
 10
-3.558503937007874
 20
-2.671452755905512
  0
LWPOLYLINE
  5
47
330
1F
100
AcDbEntity
  8
Layer 1
370
     9
100
AcDbPolyline
 90
        5
 70
     1
 43
0.0
 10
-0.9994488188976378
 20
-2.671452755905512
 10
-0.605748031496063
 20
-2.671452755905512
 10
-0.605748031496063
 20
-2.553342519685039
 10
-0.9994488188976378
 20
-2.553342519685039
 10
-0.9994488188976378
 20
-2.671452755905512
  0
SPLINE
  5
48
330
1F
100
AcDbEntity
  8
Layer 1
370
     9
100
AcDbSpline
210
0.0
220
0.0
230
1.0
 70
    11
 71
     3
 72
    36
 73
    32
 74
     0
 42
0.0000000001
 43
0.0000000001
 40
0.0
 40
0.0
 40
0.0
 40
0.0
 40
0.1111111111111111
 40
0.1111111111111111
 40
0.1111111111111111
 40
0.1111111111111111
 40
0.2222222222222222
 40
0.2222222222222222
 40
0.2222222222222222
 40
0.2222222222222222
 40
0.3333333333333333
 40
0.3333333333333333
 40
0.3333333333333333
 40
0.3333333333333333
 40
0.4444444444444444
 40
0.4444444444444444
 40
0.4444444444444444
 40
0.4444444444444444
 40
0.5555555555555556
 40
0.5555555555555556
 40
0.5555555555555556
 40
0.5555555555555556
 40
0.6666666666666666
 40
0.6666666666666666
 40
0.6666666666666666
 40
0.6666666666666666
 40
0.7777777777777778
 40
0.7777777777777778
 40
0.7777777777777778
 40
0.7777777777777778
 40
1.0
 40
1.0
 40
1.0
 40
1.0
 10
-3.36742125984252
 20
-2.789562992125984
 30
0.0
 10
-3.36742125984252
 20
-2.789562992125984
 30
0.0
 10
-2.824381889763779
 20
-2.789562992125984
 30
0.0
 10
-2.824381889763779
 20
-2.789562992125984
 30
0.0
 10
-2.824381889763779
 20
-2.789562992125984
 30
0.0
 10
-2.800492125984252
 20
-2.789562992125984
 30
0.0
 10
-2.78094094488189
 20
-2.809106299212599
 30
0.0
 10
-2.78094094488189
 20
-2.833
 30
0.0
 10
-2.78094094488189
 20
-2.833
 30
0.0
 10
-2.78094094488189
 20
-2.833
 30
0.0
 10
-2.78094094488189
 20
-3.415417322834646
 30
0.0
 10
-2.78094094488189
 20
-3.415417322834646
 30
0.0
 10
-2.78094094488189
 20
-3.415417322834646
 30
0.0
 10
-2.78094094488189
 20
-3.439311023622047
 30
0.0
 10
-2.800492125984252
 20
-3.458854330708661
 30
0.0
 10
-2.824381889763779
 20
-3.458854330708661
 30
0.0
 10
-2.824381889763779
 20
-3.458854330708661
 30
0.0
 10
-2.824381889763779
 20
-3.458854330708661
 30
0.0
 10
-3.36742125984252
 20
-3.458854330708661
 30
0.0
 10
-3.36742125984252
 20
-3.458854330708661
 30
0.0
 10
-3.36742125984252
 20
-3.458854330708661
 30
0.0
 10
-3.391311023622047
 20
-3.458854330708661
 30
0.0
 10
-3.410862204724409
 20
-3.439311023622047
 30
0.0
 10
-3.410862204724409
 20
-3.415417322834646
 30
0.0
 10
-3.410862204724409
 20
-3.415417322834646
 30
0.0
 10
-3.410862204724409
 20
-3.415417322834646
 30
0.0
 10
-3.410862204724409
 20
-2.833
 30
0.0
 10
-3.410862204724409
 20
-2.833
 30
0.0
 10
-3.410862204724409
 20
-2.833
 30
0.0
 10
-3.410862204724409
 20
-2.809106299212599
 30
0.0
 10
-3.391311023622047
 20
-2.789562992125984
 30
0.0
 10
-3.36742125984252
 20
-2.789562992125984
 30
0.0
  0
SPLINE
  5
49
330
1F
100
AcDbEntity
  8
Layer 1
370
     9
100
AcDbSpline
210
0.0
220
0.0
230
1.0
 70
    11
 71
     3
 72
    36
 73
    32
 74
     0
 42
0.0000000001
 43
0.0000000001
 40
0.0
 40
0.0
 40
0.0
 40
0.0
 40
0.1111111111111111
 40
0.1111111111111111
 40
0.1111111111111111
 40
0.1111111111111111
 40
0.2222222222222222
 40
0.2222222222222222
 40
0.2222222222222222
 40
0.2222222222222222
 40
0.3333333333333333
 40
0.3333333333333333
 40
0.3333333333333333
 40
0.3333333333333333
 40
0.4444444444444444
 40
0.4444444444444444
 40
0.4444444444444444
 40
0.4444444444444444
 40
0.5555555555555556
 40
0.5555555555555556
 40
0.5555555555555556
 40
0.5555555555555556
 40
0.6666666666666666
 40
0.6666666666666666
 40
0.6666666666666666
 40
0.6666666666666666
 40
0.7777777777777778
 40
0.7777777777777778
 40
0.7777777777777778
 40
0.7777777777777778
 40
1.0
 40
1.0
 40
1.0
 40
1.0
 10
-2.402988188976378
 20
-3.025783464566929
 30
0.0
 10
-2.402988188976378
 20
-3.025783464566929
 30
0.0
 10
-0.7100748031496062
 20
-3.025783464566929
 30
0.0
 10
-0.7100748031496062
 20
-3.025783464566929
 30
0.0
 10
-0.7100748031496062
 20
-3.025783464566929
 30
0.0
 10
-0.6884212598425197
 20
-3.025783464566929
 30
0.0
 10
-0.6707047244094488
 20
-3.0435
 30
0.0
 10
-0.6707047244094488
 20
-3.065153543307086
 30
0.0
 10
-0.6707047244094488
 20
-3.065153543307086
 30
0.0
 10
-0.6707047244094488
 20
-3.065153543307086
 30
0.0
 10
-0.6707047244094488
 20
-3.380114173228347
 30
0.0
 10
-0.6707047244094488
 20
-3.380114173228347
 30
0.0
 10
-0.6707047244094488
 20
-3.380114173228347
 30
0.0
 10
-0.6707047244094488
 20
-3.401767716535433
 30
0.0
 10
-0.6884212598425197
 20
-3.419484251968504
 30
0.0
 10
-0.7100748031496062
 20
-3.419484251968504
 30
0.0
 10
-0.7100748031496062
 20
-3.419484251968504
 30
0.0
 10
-0.7100748031496062
 20
-3.419484251968504
 30
0.0
 10
-2.402988188976378
 20
-3.419484251968504
 30
0.0
 10
-2.402988188976378
 20
-3.419484251968504
 30
0.0
 10
-2.402988188976378
 20
-3.419484251968504
 30
0.0
 10
-2.424641732283464
 20
-3.419484251968504
 30
0.0
 10
-2.442358267716536
 20
-3.401767716535433
 30
0.0
 10
-2.442358267716536
 20
-3.380114173228347
 30
0.0
 10
-2.442358267716536
 20
-3.380114173228347
 30
0.0
 10
-2.442358267716536
 20
-3.380114173228347
 30
0.0
 10
-2.442358267716536
 20
-3.065153543307086
 30
0.0
 10
-2.442358267716536
 20
-3.065153543307086
 30
0.0
 10
-2.442358267716536
 20
-3.065153543307086
 30
0.0
 10
-2.442358267716536
 20
-3.0435
 30
0.0
 10
-2.424641732283464
 20
-3.025783464566929
 30
0.0
 10
-2.402988188976378
 20
-3.025783464566929
 30
0.0
  0
LWPOLYLINE
  5
4A
330
1F
100
AcDbEntity
  8
Layer 1
370
     9
100
AcDbPolyline
 90
        5
 70
     1
 43
0.0
 10
-0.4088976377952756
 20
-3.931295275590551
 10
-0.2907874015748032
 20
-3.931295275590551
 10
-0.2907874015748032
 20
-2.750192913385827
 10
-0.4088976377952756
 20
-2.750192913385827
 10
-0.4088976377952756
 20
-3.931295275590551
  0
LWPOLYLINE
  5
4B
330
1F
100
AcDbEntity
  8
Layer 1
370
     9
100
AcDbPolyline
 90
        5
 70
     1
 43
0.0
 10
-3.873464566929134
 20
-3.931295275590551
 10
-3.755354330708661
 20
-3.931295275590551
 10
-3.755354330708661
 20
-2.750192913385827
 10
-3.873464566929134
 20
-2.750192913385827
 10
-3.873464566929134
 20
-3.931295275590551
  0
SPLINE
  5
4C
330
1F
100
AcDbEntity
  8
Layer 1
370
     9
100
AcDbSpline
210
0.0
220
0.0
230
1.0
 70
    11
 71
     3
 72
    52
 73
    48
 74
     0
 42
0.0000000001
 43
0.0000000001
 40
0.0
 40
0.0
 40
0.0
 40
0.0
 40
0.0769230769230769
 40
0.0769230769230769
 40
0.0769230769230769
 40
0.0769230769230769
 40
0.1538461538461539
 40
0.1538461538461539
 40
0.1538461538461539
 40
0.1538461538461539
 40
0.2307692307692308
 40
0.2307692307692308
 40
0.2307692307692308
 40
0.2307692307692308
 40
0.3076923076923077
 40
0.3076923076923077
 40
0.3076923076923077
 40
0.3076923076923077
 40
0.3846153846153846
 40
0.3846153846153846
 40
0.3846153846153846
 40
0.3846153846153846
 40
0.4615384615384616
 40
0.4615384615384616
 40
0.4615384615384616
 40
0.4615384615384616
 40
0.5384615384615384
 40
0.5384615384615384
 40
0.5384615384615384
 40
0.5384615384615384
 40
0.6153846153846154
 40
0.6153846153846154
 40
0.6153846153846154
 40
0.6153846153846154
 40
0.6923076923076923
 40
0.6923076923076923
 40
0.6923076923076923
 40
0.6923076923076923
 40
0.7692307692307693
 40
0.7692307692307693
 40
0.7692307692307693
 40
0.7692307692307693
 40
0.8461538461538461
 40
0.8461538461538461
 40
0.8461538461538461
 40
0.8461538461538461
 40
1.0
 40
1.0
 40
1.0
 40
1.0
 10
-0.0688937007874016
 20
2.87413779527559
 30
0.0
 10
-0.0688937007874016
 20
2.87413779527559
 30
0.0
 10
2.332681102362205
 20
2.87413779527559
 30
0.0
 10
2.332681102362205
 20
2.87413779527559
 30
0.0
 10
2.332681102362205
 20
2.87413779527559
 30
0.0
 10
2.332681102362205
 20
2.87413779527559
 30
0.0
 10
2.332681102362205
 20
3.189098425196851
 30
0.0
 10
2.332681102362205
 20
3.189098425196851
 30
0.0
 10
2.332681102362205
 20
3.189098425196851
 30
0.0
 10
2.332681102362205
 20
3.189098425196851
 30
0.0
 10
2.450791338582677
 20
3.189098425196851
 30
0.0
 10
2.450791338582677
 20
3.189098425196851
 30
0.0
 10
2.450791338582677
 20
3.189098425196851
 30
0.0
 10
2.450791338582677
 20
3.189098425196851
 30
0.0
 10
2.450791338582677
 20
4.370200787401575
 30
0.0
 10
2.450791338582677
 20
4.370200787401575
 30
0.0
 10
2.450791338582677
 20
4.370200787401575
 30
0.0
 10
2.450791338582677
 20
4.370200787401575
 30
0.0
 10
2.332681102362205
 20
4.370200787401575
 30
0.0
 10
2.332681102362205
 20
4.370200787401575
 30
0.0
 10
2.332681102362205
 20
4.370200787401575
 30
0.0
 10
2.332681102362205
 20
4.370200787401575
 30
0.0
 10
2.332681102362205
 20
4.685161417322835
 30
0.0
 10
2.332681102362205
 20
4.685161417322835
 30
0.0
 10
2.332681102362205
 20
4.685161417322835
 30
0.0
 10
2.332681102362205
 20
4.685161417322835
 30
0.0
 10
-0.0688937007874016
 20
4.685161417322835
 30
0.0
 10
-0.0688937007874016
 20
4.685161417322835
 30
0.0
 10
-0.0688937007874016
 20
4.685161417322835
 30
0.0
 10
-0.0688937007874016
 20
4.685161417322835
 30
0.0
 10
-0.0688937007874016
 20
4.370200787401575
 30
0.0
 10
-0.0688937007874016
 20
4.370200787401575
 30
0.0
 10
-0.0688937007874016
 20
4.370200787401575
 30
0.0
 10
-0.0688937007874016
 20
4.370200787401575
 30
0.0
 10
-0.187003937007874
 20
4.370200787401575
 30
0.0
 10
-0.187003937007874
 20
4.370200787401575
 30
0.0
 10
-0.187003937007874
 20
4.370200787401575
 30
0.0
 10
-0.187003937007874
 20
4.370200787401575
 30
0.0
 10
-0.187003937007874
 20
3.189098425196851
 30
0.0
 10
-0.187003937007874
 20
3.189098425196851
 30
0.0
 10
-0.187003937007874
 20
3.189098425196851
 30
0.0
 10
-0.187003937007874
 20
3.189098425196851
 30
0.0
 10
-0.0688937007874016
 20
3.189098425196851
 30
0.0
 10
-0.0688937007874016
 20
3.189098425196851
 30
0.0
 10
-0.0688937007874016
 20
3.189098425196851
 30
0.0
 10
-0.0688937007874016
 20
3.189098425196851
 30
0.0
 10
-0.0688937007874016
 20
2.87413779527559
 30
0.0
 10
-0.0688937007874016
 20
2.87413779527559
 30
0.0
  0
SPLINE
  5
4D
330
1F
100
AcDbEntity
  8
Layer 1
370
     9
100
AcDbSpline
210
0.0
220
0.0
230
1.0
 70
    11
 71
     3
 72
    20
 73
    16
 74
     0
 42
0.0000000001
 43
0.0000000001
 40
0.0
 40
0.0
 40
0.0
 40
0.0
 40
0.2
 40
0.2
 40
0.2
 40
0.2
 40
0.4
 40
0.4
 40
0.4
 40
0.4
 40
0.6
 40
0.6
 40
0.6
 40
0.6
 40
1.0
 40
1.0
 40
1.0
 40
1.0
 10
1.899610236220473
 20
2.992248031496063
 30
0.0
 10
1.899610236220473
 20
2.992248031496063
 30
0.0
 10
1.899610236220473
 20
3.110358267716535
 30
0.0
 10
1.899610236220473
 20
3.110358267716535
 30
0.0
 10
1.899610236220473
 20
3.110358267716535
 30
0.0
 10
1.899610236220473
 20
3.110358267716535
 30
0.0
 10
1.505909448818898
 20
3.110358267716535
 30
0.0
 10
1.505909448818898
 20
3.110358267716535
 30
0.0
 10
1.505909448818898
 20
3.110358267716535
 30
0.0
 10
1.505909448818898
 20
3.110358267716535
 30
0.0
 10
1.505909448818898
 20
2.992248031496063
 30
0.0
 10
1.505909448818898
 20
2.992248031496063
 30
0.0
 10
1.505909448818898
 20
2.992248031496063
 30
0.0
 10
1.505909448818898
 20
2.992248031496063
 30
0.0
 10
1.899610236220473
 20
2.992248031496063
 30
0.0
 10
1.899610236220473
 20
2.992248031496063
 30
0.0
  0
SPLINE
  5
4E
330
1F
100
AcDbEntity
  8
Layer 1
370
     9
100
AcDbSpline
210
0.0
220
0.0
230
1.0
 70
    11
 71
     3
 72
    20
 73
    16
 74
     0
 42
0.0000000001
 43
0.0000000001
 40
0.0
 40
0.0
 40
0.0
 40
0.0
 40
0.2
 40
0.2
 40
0.2
 40
0.2
 40
0.4
 40
0.4
 40
0.4
 40
0.4
 40
0.6
 40
0.6
 40
0.6
 40
0.6
 40
1.0
 40
1.0
 40
1.0
 40
1.0
 10
0.7578779527559055
 20
2.992248031496063
 30
0.0
 10
0.7578779527559055
 20
2.992248031496063
 30
0.0
 10
0.7578779527559055
 20
3.110358267716535
 30
0.0
 10
0.7578779527559055
 20
3.110358267716535
 30
0.0
 10
0.7578779527559055
 20
3.110358267716535
 30
0.0
 10
0.7578779527559055
 20
3.110358267716535
 30
0.0
 10
0.3641771653543307
 20
3.110358267716535
 30
0.0
 10
0.3641771653543307
 20
3.110358267716535
 30
0.0
 10
0.3641771653543307
 20
3.110358267716535
 30
0.0
 10
0.3641771653543307
 20
3.110358267716535
 30
0.0
 10
0.3641771653543307
 20
2.992248031496063
 30
0.0
 10
0.3641771653543307
 20
2.992248031496063
 30
0.0
 10
0.3641771653543307
 20
2.992248031496063
 30
0.0
 10
0.3641771653543307
 20
2.992248031496063
 30
0.0
 10
0.7578779527559055
 20
2.992248031496063
 30
0.0
 10
0.7578779527559055
 20
2.992248031496063
 30
0.0
  0
SPLINE
  5
4F
330
1F
100
AcDbEntity
  8
Layer 1
370
     9
100
AcDbSpline
210
0.0
220
0.0
230
1.0
 70
    11
 71
     3
 72
    20
 73
    16
 74
     0
 42
0.0000000001
 43
0.0000000001
 40
0.0
 40
0.0
 40
0.0
 40
0.0
 40
0.2
 40
0.2
 40
0.2
 40
0.2
 40
0.4
 40
0.4
 40
0.4
 40
0.4
 40
0.6
 40
0.6
 40
0.6
 40
0.6
 40
1.0
 40
1.0
 40
1.0
 40
1.0
 10
1.899610236220473
 20
4.44894094488189
 30
0.0
 10
1.899610236220473
 20
4.44894094488189
 30
0.0
 10
1.899610236220473
 20
4.567051181102363
 30
0.0
 10
1.899610236220473
 20
4.567051181102363
 30
0.0
 10
1.899610236220473
 20
4.567051181102363
 30
0.0
 10
1.899610236220473
 20
4.567051181102363
 30
0.0
 10
1.505909448818898
 20
4.567051181102363
 30
0.0
 10
1.505909448818898
 20
4.567051181102363
 30
0.0
 10
1.505909448818898
 20
4.567051181102363
 30
0.0
 10
1.505909448818898
 20
4.567051181102363
 30
0.0
 10
1.505909448818898
 20
4.44894094488189
 30
0.0
 10
1.505909448818898
 20
4.44894094488189
 30
0.0
 10
1.505909448818898
 20
4.44894094488189
 30
0.0
 10
1.505909448818898
 20
4.44894094488189
 30
0.0
 10
1.899610236220473
 20
4.44894094488189
 30
0.0
 10
1.899610236220473
 20
4.44894094488189
 30
0.0
  0
SPLINE
  5
50
330
1F
100
AcDbEntity
  8
Layer 1
370
     9
100
AcDbSpline
210
0.0
220
0.0
230
1.0
 70
    11
 71
     3
 72
    20
 73
    16
 74
     0
 42
0.0000000001
 43
0.0000000001
 40
0.0
 40
0.0
 40
0.0
 40
0.0
 40
0.2
 40
0.2
 40
0.2
 40
0.2
 40
0.4
 40
0.4
 40
0.4
 40
0.4
 40
0.6
 40
0.6
 40
0.6
 40
0.6
 40
1.0
 40
1.0
 40
1.0
 40
1.0
 10
0.7578779527559055
 20
4.44894094488189
 30
0.0
 10
0.7578779527559055
 20
4.44894094488189
 30
0.0
 10
0.7578779527559055
 20
4.567051181102363
 30
0.0
 10
0.7578779527559055
 20
4.567051181102363
 30
0.0
 10
0.7578779527559055
 20
4.567051181102363
 30
0.0
 10
0.7578779527559055
 20
4.567051181102363
 30
0.0
 10
0.3641771653543307
 20
4.567051181102363
 30
0.0
 10
0.3641771653543307
 20
4.567051181102363
 30
0.0
 10
0.3641771653543307
 20
4.567051181102363
 30
0.0
 10
0.3641771653543307
 20
4.567051181102363
 30
0.0
 10
0.3641771653543307
 20
4.44894094488189
 30
0.0
 10
0.3641771653543307
 20
4.44894094488189
 30
0.0
 10
0.3641771653543307
 20
4.44894094488189
 30
0.0
 10
0.3641771653543307
 20
4.44894094488189
 30
0.0
 10
0.7578779527559055
 20
4.44894094488189
 30
0.0
 10
0.7578779527559055
 20
4.44894094488189
 30
0.0
  0
SPLINE
  5
51
330
1F
100
AcDbEntity
  8
Layer 1
370
     9
100
AcDbSpline
210
0.0
220
0.0
230
1.0
 70
    11
 71
     3
 72
    36
 73
    32
 74
     0
 42
0.0000000001
 43
0.0000000001
 40
0.0
 40
0.0
 40
0.0
 40
0.0
 40
0.1111111111111111
 40
0.1111111111111111
 40
0.1111111111111111
 40
0.1111111111111111
 40
0.2222222222222222
 40
0.2222222222222222
 40
0.2222222222222222
 40
0.2222222222222222
 40
0.3333333333333333
 40
0.3333333333333333
 40
0.3333333333333333
 40
0.3333333333333333
 40
0.4444444444444444
 40
0.4444444444444444
 40
0.4444444444444444
 40
0.4444444444444444
 40
0.5555555555555556
 40
0.5555555555555556
 40
0.5555555555555556
 40
0.5555555555555556
 40
0.6666666666666666
 40
0.6666666666666666
 40
0.6666666666666666
 40
0.6666666666666666
 40
0.7777777777777778
 40
0.7777777777777778
 40
0.7777777777777778
 40
0.7777777777777778
 40
1.0
 40
1.0
 40
1.0
 40
1.0
 10
0.1469330708661417
 20
3.740275590551181
 30
0.0
 10
0.1469330708661417
 20
3.740275590551181
 30
0.0
 10
0.1469330708661417
 20
4.133984251968504
 30
0.0
 10
0.1469330708661417
 20
4.133984251968504
 30
0.0
 10
0.1469330708661417
 20
4.133984251968504
 30
0.0
 10
0.1469330708661417
 20
4.155629921259843
 30
0.0
 10
0.1646496062992126
 20
4.173350393700788
 30
0.0
 10
0.1863031496062992
 20
4.173350393700788
 30
0.0
 10
0.1863031496062992
 20
4.173350393700788
 30
0.0
 10
0.1863031496062992
 20
4.173350393700788
 30
0.0
 10
1.013074803149606
 20
4.173350393700788
 30
0.0
 10
1.013074803149606
 20
4.173350393700788
 30
0.0
 10
1.013074803149606
 20
4.173350393700788
 30
0.0
 10
1.034728346456693
 20
4.173350393700788
 30
0.0
 10
1.052444881889764
 20
4.155629921259843
 30
0.0
 10
1.052444881889764
 20
4.133984251968504
 30
0.0
 10
1.052444881889764
 20
4.133984251968504
 30
0.0
 10
1.052444881889764
 20
4.133984251968504
 30
0.0
 10
1.052444881889764
 20
3.740275590551181
 30
0.0
 10
1.052444881889764
 20
3.740275590551181
 30
0.0
 10
1.052444881889764
 20
3.740275590551181
 30
0.0
 10
1.052444881889764
 20
3.718622047244094
 30
0.0
 10
1.034728346456693
 20
3.700909448818898
 30
0.0
 10
1.013074803149606
 20
3.700909448818898
 30
0.0
 10
1.013074803149606
 20
3.700909448818898
 30
0.0
 10
1.013074803149606
 20
3.700909448818898
 30
0.0
 10
0.1863031496062992
 20
3.700909448818898
 30
0.0
 10
0.1863031496062992
 20
3.700909448818898
 30
0.0
 10
0.1863031496062992
 20
3.700909448818898
 30
0.0
 10
0.1646496062992126
 20
3.700909448818898
 30
0.0
 10
0.1469330708661417
 20
3.718622047244094
 30
0.0
 10
0.1469330708661417
 20
3.740275590551181
 30
0.0
  0
SPLINE
  5
52
330
1F
100
AcDbEntity
  8
Layer 1
370
     9
100
AcDbSpline
210
0.0
220
0.0
230
1.0
 70
    11
 71
     3
 72
    36
 73
    32
 74
     0
 42
0.0000000001
 43
0.0000000001
 40
0.0
 40
0.0
 40
0.0
 40
0.0
 40
0.1111111111111111
 40
0.1111111111111111
 40
0.1111111111111111
 40
0.1111111111111111
 40
0.2222222222222222
 40
0.2222222222222222
 40
0.2222222222222222
 40
0.2222222222222222
 40
0.3333333333333333
 40
0.3333333333333333
 40
0.3333333333333333
 40
0.3333333333333333
 40
0.4444444444444444
 40
0.4444444444444444
 40
0.4444444444444444
 40
0.4444444444444444
 40
0.5555555555555556
 40
0.5555555555555556
 40
0.5555555555555556
 40
0.5555555555555556
 40
0.6666666666666666
 40
0.6666666666666666
 40
0.6666666666666666
 40
0.6666666666666666
 40
0.7777777777777778
 40
0.7777777777777778
 40
0.7777777777777778
 40
0.7777777777777778
 40
1.0
 40
1.0
 40
1.0
 40
1.0
 10
1.564255905511811
 20
3.773594488188976
 30
0.0
 10
1.564255905511811
 20
3.773594488188976
 30
0.0
 10
1.564255905511811
 20
4.100665354330709
 30
0.0
 10
1.564255905511811
 20
4.100665354330709
 30
0.0
 10
1.564255905511811
 20
4.100665354330709
 30
0.0
 10
1.564255905511811
 20
4.140641732283465
 30
0.0
 10
1.59696062992126
 20
4.173350393700788
 30
0.0
 10
1.636937007874016
 20
4.173350393700788
 30
0.0
 10
1.636937007874016
 20
4.173350393700788
 30
0.0
 10
1.636937007874016
 20
4.173350393700788
 30
0.0
 10
1.964015748031496
 20
4.173350393700788
 30
0.0
 10
1.964015748031496
 20
4.173350393700788
 30
0.0
 10
1.964015748031496
 20
4.173350393700788
 30
0.0
 10
2.003992125984252
 20
4.173350393700788
 30
0.0
 10
2.036696850393701
 20
4.140641732283465
 30
0.0
 10
2.036696850393701
 20
4.100665354330709
 30
0.0
 10
2.036696850393701
 20
4.100665354330709
 30
0.0
 10
2.036696850393701
 20
4.100665354330709
 30
0.0
 10
2.036696850393701
 20
3.773594488188976
 30
0.0
 10
2.036696850393701
 20
3.773594488188976
 30
0.0
 10
2.036696850393701
 20
3.773594488188976
 30
0.0
 10
2.036696850393701
 20
3.73361811023622
 30
0.0
 10
2.003992125984252
 20
3.700909448818898
 30
0.0
 10
1.964015748031496
 20
3.700909448818898
 30
0.0
 10
1.964015748031496
 20
3.700909448818898
 30
0.0
 10
1.964015748031496
 20
3.700909448818898
 30
0.0
 10
1.636937007874016
 20
3.700909448818898
 30
0.0
 10
1.636937007874016
 20
3.700909448818898
 30
0.0
 10
1.636937007874016
 20
3.700909448818898
 30
0.0
 10
1.59696062992126
 20
3.700909448818898
 30
0.0
 10
1.564255905511811
 20
3.73361811023622
 30
0.0
 10
1.564255905511811
 20
3.773594488188976
 30
0.0
  0
SPLINE
  5
53
330
1F
100
AcDbEntity
  8
Layer 1
370
     9
100
AcDbSpline
210
0.0
220
0.0
230
1.0
 70
    11
 71
     3
 72
    52
 73
    48
 74
     0
 42
0.0000000001
 43
0.0000000001
 40
0.0
 40
0.0
 40
0.0
 40
0.0
 40
0.0769230769230769
 40
0.0769230769230769
 40
0.0769230769230769
 40
0.0769230769230769
 40
0.1538461538461539
 40
0.1538461538461539
 40
0.1538461538461539
 40
0.1538461538461539
 40
0.2307692307692308
 40
0.2307692307692308
 40
0.2307692307692308
 40
0.2307692307692308
 40
0.3076923076923077
 40
0.3076923076923077
 40
0.3076923076923077
 40
0.3076923076923077
 40
0.3846153846153846
 40
0.3846153846153846
 40
0.3846153846153846
 40
0.3846153846153846
 40
0.4615384615384616
 40
0.4615384615384616
 40
0.4615384615384616
 40
0.4615384615384616
 40
0.5384615384615384
 40
0.5384615384615384
 40
0.5384615384615384
 40
0.5384615384615384
 40
0.6153846153846154
 40
0.6153846153846154
 40
0.6153846153846154
 40
0.6153846153846154
 40
0.6923076923076923
 40
0.6923076923076923
 40
0.6923076923076923
 40
0.6923076923076923
 40
0.7692307692307693
 40
0.7692307692307693
 40
0.7692307692307693
 40
0.7692307692307693
 40
0.8461538461538461
 40
0.8461538461538461
 40
0.8461538461538461
 40
0.8461538461538461
 40
1.0
 40
1.0
 40
1.0
 40
1.0
 10
2.332681102362205
 20
0.9631141732283465
 30
0.0
 10
2.332681102362205
 20
0.9631141732283465
 30
0.0
 10
-0.0688937007874016
 20
0.9631141732283465
 30
0.0
 10
-0.0688937007874016
 20
0.9631141732283465
 30
0.0
 10
-0.0688937007874016
 20
0.9631141732283465
 30
0.0
 10
-0.0688937007874016
 20
0.9631141732283465
 30
0.0
 10
-0.0688937007874016
 20
1.278074803149606
 30
0.0
 10
-0.0688937007874016
 20
1.278074803149606
 30
0.0
 10
-0.0688937007874016
 20
1.278074803149606
 30
0.0
 10
-0.0688937007874016
 20
1.278074803149606
 30
0.0
 10
-0.187003937007874
 20
1.278074803149606
 30
0.0
 10
-0.187003937007874
 20
1.278074803149606
 30
0.0
 10
-0.187003937007874
 20
1.278074803149606
 30
0.0
 10
-0.187003937007874
 20
1.278074803149606
 30
0.0
 10
-0.187003937007874
 20
2.459177165354331
 30
0.0
 10
-0.187003937007874
 20
2.459177165354331
 30
0.0
 10
-0.187003937007874
 20
2.459177165354331
 30
0.0
 10
-0.187003937007874
 20
2.459177165354331
 30
0.0
 10
-0.0688937007874016
 20
2.459177165354331
 30
0.0
 10
-0.0688937007874016
 20
2.459177165354331
 30
0.0
 10
-0.0688937007874016
 20
2.459177165354331
 30
0.0
 10
-0.0688937007874016
 20
2.459177165354331
 30
0.0
 10
-0.0688937007874016
 20
2.77413779527559
 30
0.0
 10
-0.0688937007874016
 20
2.77413779527559
 30
0.0
 10
-0.0688937007874016
 20
2.77413779527559
 30
0.0
 10
-0.0688937007874016
 20
2.77413779527559
 30
0.0
 10
2.332681102362205
 20
2.77413779527559
 30
0.0
 10
2.332681102362205
 20
2.77413779527559
 30
0.0
 10
2.332681102362205
 20
2.77413779527559
 30
0.0
 10
2.332681102362205
 20
2.77413779527559
 30
0.0
 10
2.332681102362205
 20
2.459177165354331
 30
0.0
 10
2.332681102362205
 20
2.459177165354331
 30
0.0
 10
2.332681102362205
 20
2.459177165354331
 30
0.0
 10
2.332681102362205
 20
2.459177165354331
 30
0.0
 10
2.450791338582677
 20
2.459177165354331
 30
0.0
 10
2.450791338582677
 20
2.459177165354331
 30
0.0
 10
2.450791338582677
 20
2.459177165354331
 30
0.0
 10
2.450791338582677
 20
2.459177165354331
 30
0.0
 10
2.450791338582677
 20
1.278074803149606
 30
0.0
 10
2.450791338582677
 20
1.278074803149606
 30
0.0
 10
2.450791338582677
 20
1.278074803149606
 30
0.0
 10
2.450791338582677
 20
1.278074803149606
 30
0.0
 10
2.332681102362205
 20
1.278074803149606
 30
0.0
 10
2.332681102362205
 20
1.278074803149606
 30
0.0
 10
2.332681102362205
 20
1.278074803149606
 30
0.0
 10
2.332681102362205
 20
1.278074803149606
 30
0.0
 10
2.332681102362205
 20
0.9631141732283465
 30
0.0
 10
2.332681102362205
 20
0.9631141732283465
 30
0.0
  0
SPLINE
  5
54
330
1F
100
AcDbEntity
  8
Layer 1
370
     9
100
AcDbSpline
210
0.0
220
0.0
230
1.0
 70
    11
 71
     3
 72
    20
 73
    16
 74
     0
 42
0.0000000001
 43
0.0000000001
 40
0.0
 40
0.0
 40
0.0
 40
0.0
 40
0.2
 40
0.2
 40
0.2
 40
0.2
 40
0.4
 40
0.4
 40
0.4
 40
0.4
 40
0.6
 40
0.6
 40
0.6
 40
0.6
 40
1.0
 40
1.0
 40
1.0
 40
1.0
 10
0.3641771653543307
 20
1.081224409448819
 30
0.0
 10
0.3641771653543307
 20
1.081224409448819
 30
0.0
 10
0.3641771653543307
 20
1.199334645669291
 30
0.0
 10
0.3641771653543307
 20
1.199334645669291
 30
0.0
 10
0.3641771653543307
 20
1.199334645669291
 30
0.0
 10
0.3641771653543307
 20
1.199334645669291
 30
0.0
 10
0.7578779527559055
 20
1.199334645669291
 30
0.0
 10
0.7578779527559055
 20
1.199334645669291
 30
0.0
 10
0.7578779527559055
 20
1.199334645669291
 30
0.0
 10
0.7578779527559055
 20
1.199334645669291
 30
0.0
 10
0.7578779527559055
 20
1.081224409448819
 30
0.0
 10
0.7578779527559055
 20
1.081224409448819
 30
0.0
 10
0.7578779527559055
 20
1.081224409448819
 30
0.0
 10
0.7578779527559055
 20
1.081224409448819
 30
0.0
 10
0.3641771653543307
 20
1.081224409448819
 30
0.0
 10
0.3641771653543307
 20
1.081224409448819
 30
0.0
  0
SPLINE
  5
55
330
1F
100
AcDbEntity
  8
Layer 1
370
     9
100
AcDbSpline
210
0.0
220
0.0
230
1.0
 70
    11
 71
     3
 72
    20
 73
    16
 74
     0
 42
0.0000000001
 43
0.0000000001
 40
0.0
 40
0.0
 40
0.0
 40
0.0
 40
0.2
 40
0.2
 40
0.2
 40
0.2
 40
0.4
 40
0.4
 40
0.4
 40
0.4
 40
0.6
 40
0.6
 40
0.6
 40
0.6
 40
1.0
 40
1.0
 40
1.0
 40
1.0
 10
1.505909448818898
 20
1.081224409448819
 30
0.0
 10
1.505909448818898
 20
1.081224409448819
 30
0.0
 10
1.505909448818898
 20
1.199334645669291
 30
0.0
 10
1.505909448818898
 20
1.199334645669291
 30
0.0
 10
1.505909448818898
 20
1.199334645669291
 30
0.0
 10
1.505909448818898
 20
1.199334645669291
 30
0.0
 10
1.899610236220473
 20
1.199334645669291
 30
0.0
 10
1.899610236220473
 20
1.199334645669291
 30
0.0
 10
1.899610236220473
 20
1.199334645669291
 30
0.0
 10
1.899610236220473
 20
1.199334645669291
 30
0.0
 10
1.899610236220473
 20
1.081224409448819
 30
0.0
 10
1.899610236220473
 20
1.081224409448819
 30
0.0
 10
1.899610236220473
 20
1.081224409448819
 30
0.0
 10
1.899610236220473
 20
1.081224409448819
 30
0.0
 10
1.505909448818898
 20
1.081224409448819
 30
0.0
 10
1.505909448818898
 20
1.081224409448819
 30
0.0
  0
SPLINE
  5
56
330
1F
100
AcDbEntity
  8
Layer 1
370
     9
100
AcDbSpline
210
0.0
220
0.0
230
1.0
 70
    11
 71
     3
 72
    20
 73
    16
 74
     0
 42
0.0000000001
 43
0.0000000001
 40
0.0
 40
0.0
 40
0.0
 40
0.0
 40
0.2
 40
0.2
 40
0.2
 40
0.2
 40
0.4
 40
0.4
 40
0.4
 40
0.4
 40
0.6
 40
0.6
 40
0.6
 40
0.6
 40
1.0
 40
1.0
 40
1.0
 40
1.0
 10
0.3641771653543307
 20
2.537917322834646
 30
0.0
 10
0.3641771653543307
 20
2.537917322834646
 30
0.0
 10
0.3641771653543307
 20
2.656027559055118
 30
0.0
 10
0.3641771653543307
 20
2.656027559055118
 30
0.0
 10
0.3641771653543307
 20
2.656027559055118
 30
0.0
 10
0.3641771653543307
 20
2.656027559055118
 30
0.0
 10
0.7578779527559055
 20
2.656027559055118
 30
0.0
 10
0.7578779527559055
 20
2.656027559055118
 30
0.0
 10
0.7578779527559055
 20
2.656027559055118
 30
0.0
 10
0.7578779527559055
 20
2.656027559055118
 30
0.0
 10
0.7578779527559055
 20
2.537917322834646
 30
0.0
 10
0.7578779527559055
 20
2.537917322834646
 30
0.0
 10
0.7578779527559055
 20
2.537917322834646
 30
0.0
 10
0.7578779527559055
 20
2.537917322834646
 30
0.0
 10
0.3641771653543307
 20
2.537917322834646
 30
0.0
 10
0.3641771653543307
 20
2.537917322834646
 30
0.0
  0
SPLINE
  5
57
330
1F
100
AcDbEntity
  8
Layer 1
370
     9
100
AcDbSpline
210
0.0
220
0.0
230
1.0
 70
    11
 71
     3
 72
    20
 73
    16
 74
     0
 42
0.0000000001
 43
0.0000000001
 40
0.0
 40
0.0
 40
0.0
 40
0.0
 40
0.2
 40
0.2
 40
0.2
 40
0.2
 40
0.4
 40
0.4
 40
0.4
 40
0.4
 40
0.6
 40
0.6
 40
0.6
 40
0.6
 40
1.0
 40
1.0
 40
1.0
 40
1.0
 10
1.505909448818898
 20
2.537917322834646
 30
0.0
 10
1.505909448818898
 20
2.537917322834646
 30
0.0
 10
1.505909448818898
 20
2.656027559055118
 30
0.0
 10
1.505909448818898
 20
2.656027559055118
 30
0.0
 10
1.505909448818898
 20
2.656027559055118
 30
0.0
 10
1.505909448818898
 20
2.656027559055118
 30
0.0
 10
1.899610236220473
 20
2.656027559055118
 30
0.0
 10
1.899610236220473
 20
2.656027559055118
 30
0.0
 10
1.899610236220473
 20
2.656027559055118
 30
0.0
 10
1.899610236220473
 20
2.656027559055118
 30
0.0
 10
1.899610236220473
 20
2.537917322834646
 30
0.0
 10
1.899610236220473
 20
2.537917322834646
 30
0.0
 10
1.899610236220473
 20
2.537917322834646
 30
0.0
 10
1.899610236220473
 20
2.537917322834646
 30
0.0
 10
1.505909448818898
 20
2.537917322834646
 30
0.0
 10
1.505909448818898
 20
2.537917322834646
 30
0.0
  0
SPLINE
  5
58
330
1F
100
AcDbEntity
  8
Layer 1
370
     9
100
AcDbSpline
210
0.0
220
0.0
230
1.0
 70
    11
 71
     3
 72
    44
 73
    40
 74
     0
 42
0.0000000001
 43
0.0000000001
 40
0.0
 40
0.0
 40
0.0
 40
0.0
 40
0.0909090909090909
 40
0.0909090909090909
 40
0.0909090909090909
 40
0.0909090909090909
 40
0.1818181818181818
 40
0.1818181818181818
 40
0.1818181818181818
 40
0.1818181818181818
 40
0.2727272727272727
 40
0.2727272727272727
 40
0.2727272727272727
 40
0.2727272727272727
 40
0.3636363636363636
 40
0.3636363636363636
 40
0.3636363636363636
 40
0.3636363636363636
 40
0.4545454545454545
 40
0.4545454545454545
 40
0.4545454545454545
 40
0.4545454545454545
 40
0.5454545454545454
 40
0.5454545454545454
 40
0.5454545454545454
 40
0.5454545454545454
 40
0.6363636363636364
 40
0.6363636363636364
 40
0.6363636363636364
 40
0.6363636363636364
 40
0.7272727272727273
 40
0.7272727272727273
 40
0.7272727272727273
 40
0.7272727272727273
 40
0.8181818181818182
 40
0.8181818181818182
 40
0.8181818181818182
 40
0.8181818181818182
 40
1.0
 40
1.0
 40
1.0
 40
1.0
 10
1.246775590551181
 20
1.789885826771654
 30
0.0
 10
1.246775590551181
 20
1.789885826771654
 30
0.0
 10
0.9601614173228347
 20
1.789885826771654
 30
0.0
 10
0.9601614173228347
 20
1.789885826771654
 30
0.0
 10
0.9601614173228347
 20
1.789885826771654
 30
0.0
 10
0.9359094488188976
 20
1.789885826771654
 30
0.0
 10
0.9160669291338582
 20
1.807606299212599
 30
0.0
 10
0.9160669291338582
 20
1.829259842519685
 30
0.0
 10
0.9160669291338582
 20
1.829259842519685
 30
0.0
 10
0.9160669291338582
 20
1.829259842519685
 30
0.0
 10
0.9160669291338582
 20
2.144216535433071
 30
0.0
 10
0.9160669291338582
 20
2.144216535433071
 30
0.0
 10
0.9160669291338582
 20
2.144216535433071
 30
0.0
 10
0.9160669291338582
 20
2.165870078740157
 30
0.0
 10
0.9359094488188976
 20
2.183586614173228
 30
0.0
 10
0.9601614173228347
 20
2.183586614173228
 30
0.0
 10
0.9601614173228347
 20
2.183586614173228
 30
0.0
 10
0.9601614173228347
 20
2.183586614173228
 30
0.0
 10
1.246775590551181
 20
2.183586614173228
 30
0.0
 10
1.246775590551181
 20
2.183586614173228
 30
0.0
 10
1.246775590551181
 20
2.183586614173228
 30
0.0
 10
1.246775590551181
 20
2.183586614173228
 30
0.0
 10
1.974334645669291
 20
2.183586614173228
 30
0.0
 10
1.974334645669291
 20
2.183586614173228
 30
0.0
 10
1.974334645669291
 20
2.183586614173228
 30
0.0
 10
1.998586614173228
 20
2.183586614173228
 30
0.0
 10
2.018429133858268
 20
2.165870078740157
 30
0.0
 10
2.018429133858268
 20
2.144216535433071
 30
0.0
 10
2.018429133858268
 20
2.144216535433071
 30
0.0
 10
2.018429133858268
 20
2.144216535433071
 30
0.0
 10
2.018429133858268
 20
1.829259842519685
 30
0.0
 10
2.018429133858268
 20
1.829259842519685
 30
0.0
 10
2.018429133858268
 20
1.829259842519685
 30
0.0
 10
2.018429133858268
 20
1.807606299212599
 30
0.0
 10
1.998586614173228
 20
1.789885826771654
 30
0.0
 10
1.974334645669291
 20
1.789885826771654
 30
0.0
 10
1.974334645669291
 20
1.789885826771654
 30
0.0
 10
1.974334645669291
 20
1.789885826771654
 30
0.0
 10
1.246775590551181
 20
1.789885826771654
 30
0.0
 10
1.246775590551181
 20
1.789885826771654
 30
0.0
  0
SPLINE
  5
59
330
1F
100
AcDbEntity
  8
Layer 1
370
     9
100
AcDbSpline
210
0.0
220
0.0
230
1.0
 70
    11
 71
     3
 72
    36
 73
    32
 74
     0
 42
0.0000000001
 43
0.0000000001
 40
0.0
 40
0.0
 40
0.0
 40
0.0
 40
0.1111111111111111
 40
0.1111111111111111
 40
0.1111111111111111
 40
0.1111111111111111
 40
0.2222222222222222
 40
0.2222222222222222
 40
0.2222222222222222
 40
0.2222222222222222
 40
0.3333333333333333
 40
0.3333333333333333
 40
0.3333333333333333
 40
0.3333333333333333
 40
0.4444444444444444
 40
0.4444444444444444
 40
0.4444444444444444
 40
0.4444444444444444
 40
0.5555555555555556
 40
0.5555555555555556
 40
0.5555555555555556
 40
0.5555555555555556
 40
0.6666666666666666
 40
0.6666666666666666
 40
0.6666666666666666
 40
0.6666666666666666
 40
0.7777777777777778
 40
0.7777777777777778
 40
0.7777777777777778
 40
0.7777777777777778
 40
1.0
 40
1.0
 40
1.0
 40
1.0
 10
-0.3695275590551181
 20
-2.335232283464567
 30
0.0
 10
-0.3695275590551181
 20
-2.335232283464567
 30
0.0
 10
-3.794724409448819
 20
-2.335232283464567
 30
0.0
 10
-3.794724409448819
 20
-2.335232283464567
 30
0.0
 10
-3.794724409448819
 20
-2.335232283464567
 30
0.0
 10
-3.902988188976378
 20
-2.335232283464567
 30
0.0
 10
-3.991570866141732
 20
-2.246649606299213
 30
0.0
 10
-3.991570866141732
 20
-2.138381889763779
 30
0.0
 10
-3.991570866141732
 20
-2.138381889763779
 30
0.0
 10
-3.991570866141732
 20
-2.138381889763779
 30
0.0
 10
-3.991570866141732
 20
-0.7210590551181102
 30
0.0
 10
-3.991570866141732
 20
-0.7210590551181102
 30
0.0
 10
-3.991570866141732
 20
-0.7210590551181102
 30
0.0
 10
-3.991570866141732
 20
-0.6127913385826772
 30
0.0
 10
-3.902988188976378
 20
-0.5242086614173228
 30
0.0
 10
-3.794724409448819
 20
-0.5242086614173228
 30
0.0
 10
-3.794724409448819
 20
-0.5242086614173228
 30
0.0
 10
-3.794724409448819
 20
-0.5242086614173228
 30
0.0
 10
-0.3695275590551181
 20
-0.5242086614173228
 30
0.0
 10
-0.3695275590551181
 20
-0.5242086614173228
 30
0.0
 10
-0.3695275590551181
 20
-0.5242086614173228
 30
0.0
 10
-0.261255905511811
 20
-0.5242086614173228
 30
0.0
 10
-0.1726732283464567
 20
-0.6127913385826772
 30
0.0
 10
-0.1726732283464567
 20
-0.7210590551181102
 30
0.0
 10
-0.1726732283464567
 20
-0.7210590551181102
 30
0.0
 10
-0.1726732283464567
 20
-0.7210590551181102
 30
0.0
 10
-0.1726732283464567
 20
-2.138381889763779
 30
0.0
 10
-0.1726732283464567
 20
-2.138381889763779
 30
0.0
 10
-0.1726732283464567
 20
-2.138381889763779
 30
0.0
 10
-0.1726732283464567
 20
-2.246649606299213
 30
0.0
 10
-0.261255905511811
 20
-2.335232283464567
 30
0.0
 10
-0.3695275590551181
 20
-2.335232283464567
 30
0.0
  0
SPLINE
  5
5A
330
1F
100
AcDbEntity
  8
Layer 1
370
     9
100
AcDbSpline
210
0.0
220
0.0
230
1.0
 70
    11
 71
     3
 72
    20
 73
    16
 74
     0
 42
0.0000000001
 43
0.0000000001
 40
0.0
 40
0.0
 40
0.0
 40
0.0
 40
0.2
 40
0.2
 40
0.2
 40
0.2
 40
0.4
 40
0.4
 40
0.4
 40
0.4
 40
0.6
 40
0.6
 40
0.6
 40
0.6
 40
1.0
 40
1.0
 40
1.0
 40
1.0
 10
-3.62505905511811
 20
-1.94842125984252
 30
0.0
 10
-3.62505905511811
 20
-1.94842125984252
 30
0.0
 10
-3.62505905511811
 20
-1.69842125984252
 30
0.0
 10
-3.62505905511811
 20
-1.69842125984252
 30
0.0
 10
-3.62505905511811
 20
-1.69842125984252
 30
0.0
 10
-3.62505905511811
 20
-1.69842125984252
 30
0.0
 10
-3.531311023622047
 20
-1.69842125984252
 30
0.0
 10
-3.531311023622047
 20
-1.69842125984252
 30
0.0
 10
-3.531311023622047
 20
-1.69842125984252
 30
0.0
 10
-3.531311023622047
 20
-1.69842125984252
 30
0.0
 10
-3.531311023622047
 20
-1.94842125984252
 30
0.0
 10
-3.531311023622047
 20
-1.94842125984252
 30
0.0
 10
-3.531311023622047
 20
-1.94842125984252
 30
0.0
 10
-3.531311023622047
 20
-1.94842125984252
 30
0.0
 10
-3.62505905511811
 20
-1.94842125984252
 30
0.0
 10
-3.62505905511811
 20
-1.94842125984252
 30
0.0
  0
LWPOLYLINE
  5
5B
330
1F
100
AcDbEntity
  8
Layer 1
370
     9
100
AcDbPolyline
 90
        5
 70
     1
 43
0.0
 10
-3.5585
 20
-2.217122047244095
 10
-3.164799212598425
 20
-2.217122047244095
 10
-3.164799212598425
 20
-2.099011811023622
 10
-3.5585
 20
-2.099011811023622
 10
-3.5585
 20
-2.217122047244095
  0
LWPOLYLINE
  5
5C
330
1F
100
AcDbEntity
  8
Layer 1
370
     9
100
AcDbPolyline
 90
        5
 70
     1
 43
0.0
 10
-0.9994448818897638
 20
-2.217122047244095
 10
-0.605744094488189
 20
-2.217122047244095
 10
-0.605744094488189
 20
-2.099011811023622
 10
-0.9994448818897638
 20
-2.099011811023622
 10
-0.9994448818897638
 20
-2.217122047244095
  0
SPLINE
  5
5D
330
1F
100
AcDbEntity
  8
Layer 1
370
     9
100
AcDbSpline
210
0.0
220
0.0
230
1.0
 70
    11
 71
     3
 72
    20
 73
    16
 74
     0
 42
0.0000000001
 43
0.0000000001
 40
0.0
 40
0.0
 40
0.0
 40
0.0
 40
0.2
 40
0.2
 40
0.2
 40
0.2
 40
0.4
 40
0.4
 40
0.4
 40
0.4
 40
0.6
 40
0.6
 40
0.6
 40
0.6
 40
1.0
 40
1.0
 40
1.0
 40
1.0
 10
-0.6329330708661417
 20
-1.94842125984252
 30
0.0
 10
-0.6329330708661417
 20
-1.94842125984252
 30
0.0
 10
-0.6329330708661417
 20
-1.69842125984252
 30
0.0
 10
-0.6329330708661417
 20
-1.69842125984252
 30
0.0
 10
-0.6329330708661417
 20
-1.69842125984252
 30
0.0
 10
-0.6329330708661417
 20
-1.69842125984252
 30
0.0
 10
-0.5391850393700788
 20
-1.69842125984252
 30
0.0
 10
-0.5391850393700788
 20
-1.69842125984252
 30
0.0
 10
-0.5391850393700788
 20
-1.69842125984252
 30
0.0
 10
-0.5391850393700788
 20
-1.69842125984252
 30
0.0
 10
-0.5391850393700788
 20
-1.94842125984252
 30
0.0
 10
-0.5391850393700788
 20
-1.94842125984252
 30
0.0
 10
-0.5391850393700788
 20
-1.94842125984252
 30
0.0
 10
-0.5391850393700788
 20
-1.94842125984252
 30
0.0
 10
-0.6329330708661417
 20
-1.94842125984252
 30
0.0
 10
-0.6329330708661417
 20
-1.94842125984252
 30
0.0
  0
LWPOLYLINE
  5
5E
330
1F
100
AcDbEntity
  8
Layer 1
370
     9
100
AcDbPolyline
 90
        5
 70
     1
 43
0.0
 10
-3.5585
 20
-0.7604291338582677
 10
-3.164799212598425
 20
-0.7604291338582677
 10
-3.164799212598425
 20
-0.6423188976377953
 10
-3.5585
 20
-0.6423188976377953
 10
-3.5585
 20
-0.7604291338582677
  0
LWPOLYLINE
  5
5F
330
1F
100
AcDbEntity
  8
Layer 1
370
     9
100
AcDbPolyline
 90
        5
 70
     1
 43
0.0
 10
-0.9994448818897638
 20
-0.7604291338582677
 10
-0.605744094488189
 20
-0.7604291338582677
 10
-0.605744094488189
 20
-0.6423188976377953
 10
-0.9994448818897638
 20
-0.6423188976377953
 10
-0.9994448818897638
 20
-0.7604291338582677
  0
SPLINE
  5
60
330
1F
100
AcDbEntity
  8
Layer 1
370
     9
100
AcDbSpline
210
0.0
220
0.0
230
1.0
 70
    11
 71
     3
 72
    96
 73
    92
 74
     0
 42
0.0000000001
 43
0.0000000001
 40
0.0
 40
0.0
 40
0.0
 40
0.0
 40
0.0416666666666667
 40
0.0416666666666667
 40
0.0416666666666667
 40
0.0416666666666667
 40
0.0833333333333333
 40
0.0833333333333333
 40
0.0833333333333333
 40
0.0833333333333333
 40
0.125
 40
0.125
 40
0.125
 40
0.125
 40
0.1666666666666667
 40
0.1666666666666667
 40
0.1666666666666667
 40
0.1666666666666667
 40
0.2083333333333333
 40
0.2083333333333333
 40
0.2083333333333333
 40
0.2083333333333333
 40
0.25
 40
0.25
 40
0.25
 40
0.25
 40
0.2916666666666667
 40
0.2916666666666667
 40
0.2916666666666667
 40
0.2916666666666667
 40
0.3333333333333333
 40
0.3333333333333333
 40
0.3333333333333333
 40
0.3333333333333333
 40
0.375
 40
0.375
 40
0.375
 40
0.375
 40
0.4166666666666667
 40
0.4166666666666667
 40
0.4166666666666667
 40
0.4166666666666667
 40
0.4583333333333333
 40
0.4583333333333333
 40
0.4583333333333333
 40
0.4583333333333333
 40
0.5
 40
0.5
 40
0.5
 40
0.5
 40
0.5416666666666666
 40
0.5416666666666666
 40
0.5416666666666666
 40
0.5416666666666666
 40
0.5833333333333334
 40
0.5833333333333334
 40
0.5833333333333334
 40
0.5833333333333334
 40
0.625
 40
0.625
 40
0.625
 40
0.625
 40
0.6666666666666666
 40
0.6666666666666666
 40
0.6666666666666666
 40
0.6666666666666666
 40
0.7083333333333334
 40
0.7083333333333334
 40
0.7083333333333334
 40
0.7083333333333334
 40
0.75
 40
0.75
 40
0.75
 40
0.75
 40
0.7916666666666666
 40
0.7916666666666666
 40
0.7916666666666666
 40
0.7916666666666666
 40
0.8333333333333334
 40
0.8333333333333334
 40
0.8333333333333334
 40
0.8333333333333334
 40
0.875
 40
0.875
 40
0.875
 40
0.875
 40
0.9166666666666666
 40
0.9166666666666666
 40
0.9166666666666666
 40
0.9166666666666666
 40
1.0
 40
1.0
 40
1.0
 40
1.0
 10
-1.277145669291339
 20
-1.232870078740157
 30
0.0
 10
-1.277145669291339
 20
-1.232870078740157
 30
0.0
 10
-0.7435433070866142
 20
-1.232870078740157
 30
0.0
 10
-0.7435433070866142
 20
-1.232870078740157
 30
0.0
 10
-0.7435433070866142
 20
-1.232870078740157
 30
0.0
 10
-0.7218897637795275
 20
-1.232870078740157
 30
0.0
 10
-0.7041732283464567
 20
-1.250586614173228
 30
0.0
 10
-0.7041732283464567
 20
-1.272240157480315
 30
0.0
 10
-0.7041732283464567
 20
-1.272240157480315
 30
0.0
 10
-0.7041732283464567
 20
-1.272240157480315
 30
0.0
 10
-0.7041732283464567
 20
-1.50846062992126
 30
0.0
 10
-0.7041732283464567
 20
-1.50846062992126
 30
0.0
 10
-0.7041732283464567
 20
-1.50846062992126
 30
0.0
 10
-0.7041732283464567
 20
-1.53011811023622
 30
0.0
 10
-0.7218897637795275
 20
-1.547830708661417
 30
0.0
 10
-0.7435433070866142
 20
-1.547830708661417
 30
0.0
 10
-0.7435433070866142
 20
-1.547830708661417
 30
0.0
 10
-0.7435433070866142
 20
-1.547830708661417
 30
0.0
 10
-1.11003937007874
 20
-1.547830708661417
 30
0.0
 10
-1.11003937007874
 20
-1.547830708661417
 30
0.0
 10
-1.11003937007874
 20
-1.547830708661417
 30
0.0
 10
-1.11003937007874
 20
-1.547830708661417
 30
0.0
 10
-1.373464566929134
 20
-1.547830708661417
 30
0.0
 10
-1.373464566929134
 20
-1.547830708661417
 30
0.0
 10
-1.373464566929134
 20
-1.547830708661417
 30
0.0
 10
-1.373464566929134
 20
-1.547830708661417
 30
0.0
 10
-1.452204724409449
 20
-1.547830708661417
 30
0.0
 10
-1.452204724409449
 20
-1.547830708661417
 30
0.0
 10
-1.452204724409449
 20
-1.547830708661417
 30
0.0
 10
-1.452204724409449
 20
-1.547830708661417
 30
0.0
 10
-1.625665354330709
 20
-1.547830708661417
 30
0.0
 10
-1.625665354330709
 20
-1.547830708661417
 30
0.0
 10
-1.625665354330709
 20
-1.547830708661417
 30
0.0
 10
-1.625665354330709
 20
-1.547830708661417
 30
0.0
 10
-2.016181102362205
 20
-1.547830708661417
 30
0.0
 10
-2.016181102362205
 20
-1.547830708661417
 30
0.0
 10
-2.016181102362205
 20
-1.547830708661417
 30
0.0
 10
-2.016181102362205
 20
-1.547830708661417
 30
0.0
 10
-2.397086614173229
 20
-1.547830708661417
 30
0.0
 10
-2.397086614173229
 20
-1.547830708661417
 30
0.0
 10
-2.397086614173229
 20
-1.547830708661417
 30
0.0
 10
-2.397086614173229
 20
-1.547830708661417
 30
0.0
 10
-2.69236220472441
 20
-1.547830708661417
 30
0.0
 10
-2.69236220472441
 20
-1.547830708661417
 30
0.0
 10
-2.69236220472441
 20
-1.547830708661417
 30
0.0
 10
-2.69236220472441
 20
-1.547830708661417
 30
0.0
 10
-3.361653543307086
 20
-1.547830708661417
 30
0.0
 10
-3.361653543307086
 20
-1.547830708661417
 30
0.0
 10
-3.361653543307086
 20
-1.547830708661417
 30
0.0
 10
-3.383307086614173
 20
-1.547830708661417
 30
0.0
 10
-3.401023622047244
 20
-1.530114173228347
 30
0.0
 10
-3.401023622047244
 20
-1.508456692913386
 30
0.0
 10
-3.401023622047244
 20
-1.508456692913386
 30
0.0
 10
-3.401023622047244
 20
-1.508456692913386
 30
0.0
 10
-3.401023622047244
 20
-0.9966496062992126
 30
0.0
 10
-3.401023622047244
 20
-0.9966496062992126
 30
0.0
 10
-3.401023622047244
 20
-0.9966496062992126
 30
0.0
 10
-3.401023622047244
 20
-0.974992125984252
 30
0.0
 10
-3.383307086614173
 20
-0.9572795275590551
 30
0.0
 10
-3.361653543307086
 20
-0.9572795275590551
 30
0.0
 10
-3.361653543307086
 20
-0.9572795275590551
 30
0.0
 10
-3.361653543307086
 20
-0.9572795275590551
 30
0.0
 10
-2.69236220472441
 20
-0.9572795275590551
 30
0.0
 10
-2.69236220472441
 20
-0.9572795275590551
 30
0.0
 10
-2.69236220472441
 20
-0.9572795275590551
 30
0.0
 10
-2.69236220472441
 20
-0.9572795275590551
 30
0.0
 10
-2.69236220472441
 20
-0.9179094488188977
 30
0.0
 10
-2.69236220472441
 20
-0.9179094488188977
 30
0.0
 10
-2.69236220472441
 20
-0.9179094488188977
 30
0.0
 10
-2.69236220472441
 20
-0.9179094488188977
 30
0.0
 10
-2.436456692913386
 20
-0.9179094488188977
 30
0.0
 10
-2.436456692913386
 20
-0.9179094488188977
 30
0.0
 10
-2.436456692913386
 20
-0.9179094488188977
 30
0.0
 10
-2.414803149606299
 20
-0.9179094488188977
 30
0.0
 10
-2.397086614173229
 20
-0.9356259842519685
 30
0.0
 10
-2.397086614173229
 20
-0.9572795275590551
 30
0.0
 10
-2.397086614173229
 20
-0.9572795275590551
 30
0.0
 10
-2.397086614173229
 20
-0.9572795275590551
 30
0.0
 10
-2.397086614173229
 20
-1.114759842519685
 30
0.0
 10
-2.397086614173229
 20
-1.114759842519685
 30
0.0
 10
-2.397086614173229
 20
-1.114759842519685
 30
0.0
 10
-2.397086614173229
 20
-1.114759842519685
 30
0.0
 10
-2.087732283464567
 20
-1.114759842519685
 30
0.0
 10
-2.087732283464567
 20
-1.114759842519685
 30
0.0
 10
-2.087732283464567
 20
-1.114759842519685
 30
0.0
 10
-2.014102362204724
 20
-1.032850393700787
 30
0.0
 10
-1.872149606299213
 20
-0.9773700787401575
 30
0.0
 10
-1.709094488188976
 20
-0.9773700787401575
 30
0.0
 10
-1.709094488188976
 20
-0.9773700787401575
 30
0.0
 10
-1.475870078740158
 20
-0.9773700787401575
 30
0.0
 10
-1.285811023622047
 20
-1.090866141732283
 30
0.0
 10
-1.277145669291339
 20
-1.232870078740157
 30
0.0
  0
LWPOLYLINE
  5
61
330
1F
100
AcDbEntity
  8
Layer 1
370
     9
100
AcDbPolyline
 90
        5
 70
     1
 43
0.0
 10
-3.87346062992126
 20
-2.020271653543307
 10
-3.755350393700787
 20
-2.020271653543307
 10
-3.755350393700787
 20
-0.8391692913385826
 10
-3.87346062992126
 20
-0.8391692913385826
 10
-3.87346062992126
 20
-2.020271653543307
  0
LWPOLYLINE
  5
62
330
1F
100
AcDbEntity
  8
Layer 1
370
     9
100
AcDbPolyline
 90
        5
 70
     1
 43
0.0
 10
-0.4088937007874016
 20
-2.020271653543307
 10
-0.2907834645669291
 20
-2.020271653543307
 10
-0.2907834645669291
 20
-0.8391692913385826
 10
-0.4088937007874016
 20
-0.8391692913385826
 10
-0.4088937007874016
 20
-2.020271653543307
  0
SPLINE
  5
63
330
1F
100
AcDbEntity
  8
Layer 1
370
     9
100
AcDbSpline
210
0.0
220
0.0
230
1.0
 70
    11
 71
     3
 72
    20
 73
    16
 74
     0
 42
0.0000000001
 43
0.0000000001
 40
0.0
 40
0.0
 40
0.0
 40
0.0
 40
0.2
 40
0.2
 40
0.2
 40
0.2
 40
0.4
 40
0.4
 40
0.4
 40
0.4
 40
0.6
 40
0.6
 40
0.6
 40
0.6
 40
1.0
 40
1.0
 40
1.0
 40
1.0
 10
-1.881492125984252
 20
2.716657480314961
 30
0.0
 10
-1.881492125984252
 20
2.716657480314961
 30
0.0
 10
-1.938102362204724
 20
2.716657480314961
 30
0.0
 10
-1.938102362204724
 20
2.716657480314961
 30
0.0
 10
-1.938102362204724
 20
2.716657480314961
 30
0.0
 10
-1.938102362204724
 20
2.716657480314961
 30
0.0
 10
-1.76338188976378
 20
2.891377952755906
 30
0.0
 10
-1.76338188976378
 20
2.891377952755906
 30
0.0
 10
-1.76338188976378
 20
2.891377952755906
 30
0.0
 10
-1.76338188976378
 20
2.891377952755906
 30
0.0
 10
-1.76338188976378
 20
2.834767716535433
 30
0.0
 10
-1.76338188976378
 20
2.834767716535433
 30
0.0
 10
-1.76338188976378
 20
2.834767716535433
 30
0.0
 10
-1.76338188976378
 20
2.769807086614173
 30
0.0
 10
-1.816531496062992
 20
2.716657480314961
 30
0.0
 10
-1.881492125984252
 20
2.716657480314961
 30
0.0
  0
SPLINE
  5
64
330
1F
100
AcDbEntity
  8
Layer 1
370
     9
100
AcDbSpline
210
0.0
220
0.0
230
1.0
 70
    11
 71
     3
 72
    20
 73
    16
 74
     0
 42
0.0000000001
 43
0.0000000001
 40
0.0
 40
0.0
 40
0.0
 40
0.0
 40
0.2
 40
0.2
 40
0.2
 40
0.2
 40
0.4
 40
0.4
 40
0.4
 40
0.4
 40
0.6
 40
0.6
 40
0.6
 40
0.6
 40
1.0
 40
1.0
 40
1.0
 40
1.0
 10
-2.105133858267716
 20
2.716657480314961
 30
0.0
 10
-2.105133858267716
 20
2.716657480314961
 30
0.0
 10
-2.272165354330709
 20
2.716657480314961
 30
0.0
 10
-2.272165354330709
 20
2.716657480314961
 30
0.0
 10
-2.272165354330709
 20
2.716657480314961
 30
0.0
 10
-2.272165354330709
 20
2.716657480314961
 30
0.0
 10
-1.76338188976378
 20
3.22544094488189
 30
0.0
 10
-1.76338188976378
 20
3.22544094488189
 30
0.0
 10
-1.76338188976378
 20
3.22544094488189
 30
0.0
 10
-1.76338188976378
 20
3.22544094488189
 30
0.0
 10
-1.76338188976378
 20
3.058409448818898
 30
0.0
 10
-1.76338188976378
 20
3.058409448818898
 30
0.0
 10
-1.76338188976378
 20
3.058409448818898
 30
0.0
 10
-1.76338188976378
 20
3.058409448818898
 30
0.0
 10
-2.105133858267716
 20
2.716657480314961
 30
0.0
 10
-2.105133858267716
 20
2.716657480314961
 30
0.0
  0
SPLINE
  5
65
330
1F
100
AcDbEntity
  8
Layer 1
370
     9
100
AcDbSpline
210
0.0
220
0.0
230
1.0
 70
    11
 71
     3
 72
    20
 73
    16
 74
     0
 42
0.0000000001
 43
0.0000000001
 40
0.0
 40
0.0
 40
0.0
 40
0.0
 40
0.2
 40
0.2
 40
0.2
 40
0.2
 40
0.4
 40
0.4
 40
0.4
 40
0.4
 40
0.6
 40
0.6
 40
0.6
 40
0.6
 40
1.0
 40
1.0
 40
1.0
 40
1.0
 10
-2.439196850393701
 20
2.716657480314961
 30
0.0
 10
-2.439196850393701
 20
2.716657480314961
 30
0.0
 10
-2.606228346456693
 20
2.716657480314961
 30
0.0
 10
-2.606228346456693
 20
2.716657480314961
 30
0.0
 10
-2.606228346456693
 20
2.716657480314961
 30
0.0
 10
-2.606228346456693
 20
2.716657480314961
 30
0.0
 10
-1.76338188976378
 20
3.559503937007874
 30
0.0
 10
-1.76338188976378
 20
3.559503937007874
 30
0.0
 10
-1.76338188976378
 20
3.559503937007874
 30
0.0
 10
-1.76338188976378
 20
3.559503937007874
 30
0.0
 10
-1.76338188976378
 20
3.392472440944882
 30
0.0
 10
-1.76338188976378
 20
3.392472440944882
 30
0.0
 10
-1.76338188976378
 20
3.392472440944882
 30
0.0
 10
-1.76338188976378
 20
3.392472440944882
 30
0.0
 10
-2.439196850393701
 20
2.716657480314961
 30
0.0
 10
-2.439196850393701
 20
2.716657480314961
 30
0.0
  0
SPLINE
  5
66
330
1F
100
AcDbEntity
  8
Layer 1
370
     9
100
AcDbSpline
210
0.0
220
0.0
230
1.0
 70
    11
 71
     3
 72
    20
 73
    16
 74
     0
 42
0.0000000001
 43
0.0000000001
 40
0.0
 40
0.0
 40
0.0
 40
0.0
 40
0.2
 40
0.2
 40
0.2
 40
0.2
 40
0.4
 40
0.4
 40
0.4
 40
0.4
 40
0.6
 40
0.6
 40
0.6
 40
0.6
 40
1.0
 40
1.0
 40
1.0
 40
1.0
 10
-2.773259842519685
 20
2.716657480314961
 30
0.0
 10
-2.773259842519685
 20
2.716657480314961
 30
0.0
 10
-2.940291338582677
 20
2.716657480314961
 30
0.0
 10
-2.940291338582677
 20
2.716657480314961
 30
0.0
 10
-2.940291338582677
 20
2.716657480314961
 30
0.0
 10
-2.940291338582677
 20
2.716657480314961
 30
0.0
 10
-1.76338188976378
 20
3.893566929133858
 30
0.0
 10
-1.76338188976378
 20
3.893566929133858
 30
0.0
 10
-1.76338188976378
 20
3.893566929133858
 30
0.0
 10
-1.76338188976378
 20
3.893566929133858
 30
0.0
 10
-1.76338188976378
 20
3.726535433070866
 30
0.0
 10
-1.76338188976378
 20
3.726535433070866
 30
0.0
 10
-1.76338188976378
 20
3.726535433070866
 30
0.0
 10
-1.76338188976378
 20
3.726535433070866
 30
0.0
 10
-2.773259842519685
 20
2.716657480314961
 30
0.0
 10
-2.773259842519685
 20
2.716657480314961
 30
0.0
  0
SPLINE
  5
67
330
1F
100
AcDbEntity
  8
Layer 1
370
     9
100
AcDbSpline
210
0.0
220
0.0
230
1.0
 70
    11
 71
     3
 72
    28
 73
    24
 74
     0
 42
0.0000000001
 43
0.0000000001
 40
0.0
 40
0.0
 40
0.0
 40
0.0
 40
0.1428571428571428
 40
0.1428571428571428
 40
0.1428571428571428
 40
0.1428571428571428
 40
0.2857142857142857
 40
0.2857142857142857
 40
0.2857142857142857
 40
0.2857142857142857
 40
0.4285714285714285
 40
0.4285714285714285
 40
0.4285714285714285
 40
0.4285714285714285
 40
0.5714285714285714
 40
0.5714285714285714
 40
0.5714285714285714
 40
0.5714285714285714
 40
0.7142857142857143
 40
0.7142857142857143
 40
0.7142857142857143
 40
0.7142857142857143
 40
1.0
 40
1.0
 40
1.0
 40
1.0
 10
-3.107322834645669
 20
2.716657480314961
 30
0.0
 10
-3.107322834645669
 20
2.716657480314961
 30
0.0
 10
-3.239759842519685
 20
2.716657480314961
 30
0.0
 10
-3.239759842519685
 20
2.716657480314961
 30
0.0
 10
-3.239759842519685
 20
2.716657480314961
 30
0.0
 10
-3.250314960629921
 20
2.716657480314961
 30
0.0
 10
-3.260555118110236
 20
2.718070866141732
 30
0.0
 10
-3.270311023622047
 20
2.720700787401575
 30
0.0
 10
-3.270311023622047
 20
2.720700787401575
 30
0.0
 10
-3.270311023622047
 20
2.720700787401575
 30
0.0
 10
-1.767425196850394
 20
4.223586614173229
 30
0.0
 10
-1.767425196850394
 20
4.223586614173229
 30
0.0
 10
-1.767425196850394
 20
4.223586614173229
 30
0.0
 10
-1.764795275590551
 20
4.213830708661417
 30
0.0
 10
-1.76338188976378
 20
4.203590551181103
 30
0.0
 10
-1.76338188976378
 20
4.193035433070866
 30
0.0
 10
-1.76338188976378
 20
4.193035433070866
 30
0.0
 10
-1.76338188976378
 20
4.193035433070866
 30
0.0
 10
-1.76338188976378
 20
4.060598425196851
 30
0.0
 10
-1.76338188976378
 20
4.060598425196851
 30
0.0
 10
-1.76338188976378
 20
4.060598425196851
 30
0.0
 10
-1.76338188976378
 20
4.060598425196851
 30
0.0
 10
-3.107322834645669
 20
2.716657480314961
 30
0.0
 10
-3.107322834645669
 20
2.716657480314961
 30
0.0
  0
SPLINE
  5
68
330
1F
100
AcDbEntity
  8
Layer 1
370
     9
100
AcDbSpline
210
0.0
220
0.0
230
1.0
 70
    11
 71
     3
 72
    28
 73
    24
 74
     0
 42
0.0000000001
 43
0.0000000001
 40
0.0
 40
0.0
 40
0.0
 40
0.0
 40
0.1428571428571428
 40
0.1428571428571428
 40
0.1428571428571428
 40
0.1428571428571428
 40
0.2857142857142857
 40
0.2857142857142857
 40
0.2857142857142857
 40
0.2857142857142857
 40
0.4285714285714285
 40
0.4285714285714285
 40
0.4285714285714285
 40
0.4285714285714285
 40
0.5714285714285714
 40
0.5714285714285714
 40
0.5714285714285714
 40
0.5714285714285714
 40
0.7142857142857143
 40
0.7142857142857143
 40
0.7142857142857143
 40
0.7142857142857143
 40
1.0
 40
1.0
 40
1.0
 40
1.0
 10
-3.353826771653543
 20
2.804216535433071
 30
0.0
 10
-3.356452755905512
 20
2.813972440944882
 30
0.0
 10
-3.357870078740158
 20
2.824212598425197
 30
0.0
 10
-3.357870078740158
 20
2.834767716535433
 30
0.0
 10
-3.357870078740158
 20
2.834767716535433
 30
0.0
 10
-3.357870078740158
 20
2.834767716535433
 30
0.0
 10
-3.357870078740158
 20
2.967204724409449
 30
0.0
 10
-3.357870078740158
 20
2.967204724409449
 30
0.0
 10
-3.357870078740158
 20
2.967204724409449
 30
0.0
 10
-3.357870078740158
 20
2.967204724409449
 30
0.0
 10
-2.013929133858268
 20
4.311145669291339
 30
0.0
 10
-2.013929133858268
 20
4.311145669291339
 30
0.0
 10
-2.013929133858268
 20
4.311145669291339
 30
0.0
 10
-2.013929133858268
 20
4.311145669291339
 30
0.0
 10
-1.881492125984252
 20
4.311145669291339
 30
0.0
 10
-1.881492125984252
 20
4.311145669291339
 30
0.0
 10
-1.881492125984252
 20
4.311145669291339
 30
0.0
 10
-1.870937007874016
 20
4.311145669291339
 30
0.0
 10
-1.860696850393701
 20
4.309728346456693
 30
0.0
 10
-1.85094094488189
 20
4.307102362204724
 30
0.0
 10
-1.85094094488189
 20
4.307102362204724
 30
0.0
 10
-1.85094094488189
 20
4.307102362204724
 30
0.0
 10
-3.353826771653543
 20
2.804216535433071
 30
0.0
 10
-3.353826771653543
 20
2.804216535433071
 30
0.0
  0
SPLINE
  5
69
330
1F
100
AcDbEntity
  8
Layer 1
370
     9
100
AcDbSpline
210
0.0
220
0.0
230
1.0
 70
    11
 71
     3
 72
    20
 73
    16
 74
     0
 42
0.0000000001
 43
0.0000000001
 40
0.0
 40
0.0
 40
0.0
 40
0.0
 40
0.2
 40
0.2
 40
0.2
 40
0.2
 40
0.4
 40
0.4
 40
0.4
 40
0.4
 40
0.6
 40
0.6
 40
0.6
 40
0.6
 40
1.0
 40
1.0
 40
1.0
 40
1.0
 10
-3.357870078740158
 20
3.134236220472441
 30
0.0
 10
-3.357870078740158
 20
3.134236220472441
 30
0.0
 10
-3.357870078740158
 20
3.301267716535433
 30
0.0
 10
-3.357870078740158
 20
3.301267716535433
 30
0.0
 10
-3.357870078740158
 20
3.301267716535433
 30
0.0
 10
-3.357870078740158
 20
3.301267716535433
 30
0.0
 10
-2.347992125984252
 20
4.311145669291339
 30
0.0
 10
-2.347992125984252
 20
4.311145669291339
 30
0.0
 10
-2.347992125984252
 20
4.311145669291339
 30
0.0
 10
-2.347992125984252
 20
4.311145669291339
 30
0.0
 10
-2.18096062992126
 20
4.311145669291339
 30
0.0
 10
-2.18096062992126
 20
4.311145669291339
 30
0.0
 10
-2.18096062992126
 20
4.311145669291339
 30
0.0
 10
-2.18096062992126
 20
4.311145669291339
 30
0.0
 10
-3.357870078740158
 20
3.134236220472441
 30
0.0
 10
-3.357870078740158
 20
3.134236220472441
 30
0.0
  0
SPLINE
  5
6A
330
1F
100
AcDbEntity
  8
Layer 1
370
     9
100
AcDbSpline
210
0.0
220
0.0
230
1.0
 70
    11
 71
     3
 72
    20
 73
    16
 74
     0
 42
0.0000000001
 43
0.0000000001
 40
0.0
 40
0.0
 40
0.0
 40
0.0
 40
0.2
 40
0.2
 40
0.2
 40
0.2
 40
0.4
 40
0.4
 40
0.4
 40
0.4
 40
0.6
 40
0.6
 40
0.6
 40
0.6
 40
1.0
 40
1.0
 40
1.0
 40
1.0
 10
-3.357870078740158
 20
3.468299212598425
 30
0.0
 10
-3.357870078740158
 20
3.468299212598425
 30
0.0
 10
-3.357870078740158
 20
3.635330708661417
 30
0.0
 10
-3.357870078740158
 20
3.635330708661417
 30
0.0
 10
-3.357870078740158
 20
3.635330708661417
 30
0.0
 10
-3.357870078740158
 20
3.635330708661417
 30
0.0
 10
-2.682055118110236
 20
4.311145669291339
 30
0.0
 10
-2.682055118110236
 20
4.311145669291339
 30
0.0
 10
-2.682055118110236
 20
4.311145669291339
 30
0.0
 10
-2.682055118110236
 20
4.311145669291339
 30
0.0
 10
-2.515023622047244
 20
4.311145669291339
 30
0.0
 10
-2.515023622047244
 20
4.311145669291339
 30
0.0
 10
-2.515023622047244
 20
4.311145669291339
 30
0.0
 10
-2.515023622047244
 20
4.311145669291339
 30
0.0
 10
-3.357870078740158
 20
3.468299212598425
 30
0.0
 10
-3.357870078740158
 20
3.468299212598425
 30
0.0
  0
SPLINE
  5
6B
330
1F
100
AcDbEntity
  8
Layer 1
370
     9
100
AcDbSpline
210
0.0
220
0.0
230
1.0
 70
    11
 71
     3
 72
    20
 73
    16
 74
     0
 42
0.0000000001
 43
0.0000000001
 40
0.0
 40
0.0
 40
0.0
 40
0.0
 40
0.2
 40
0.2
 40
0.2
 40
0.2
 40
0.4
 40
0.4
 40
0.4
 40
0.4
 40
0.6
 40
0.6
 40
0.6
 40
0.6
 40
1.0
 40
1.0
 40
1.0
 40
1.0
 10
-3.357870078740158
 20
3.802362204724409
 30
0.0
 10
-3.357870078740158
 20
3.802362204724409
 30
0.0
 10
-3.357870078740158
 20
3.969393700787402
 30
0.0
 10
-3.357870078740158
 20
3.969393700787402
 30
0.0
 10
-3.357870078740158
 20
3.969393700787402
 30
0.0
 10
-3.357870078740158
 20
3.969393700787402
 30
0.0
 10
-3.016118110236221
 20
4.311145669291339
 30
0.0
 10
-3.016118110236221
 20
4.311145669291339
 30
0.0
 10
-3.016118110236221
 20
4.311145669291339
 30
0.0
 10
-3.016118110236221
 20
4.311145669291339
 30
0.0
 10
-2.849086614173229
 20
4.311145669291339
 30
0.0
 10
-2.849086614173229
 20
4.311145669291339
 30
0.0
 10
-2.849086614173229
 20
4.311145669291339
 30
0.0
 10
-2.849086614173229
 20
4.311145669291339
 30
0.0
 10
-3.357870078740158
 20
3.802362204724409
 30
0.0
 10
-3.357870078740158
 20
3.802362204724409
 30
0.0
  0
SPLINE
  5
6C
330
1F
100
AcDbEntity
  8
Layer 1
370
     9
100
AcDbSpline
210
0.0
220
0.0
230
1.0
 70
    11
 71
     3
 72
    20
 73
    16
 74
     0
 42
0.0000000001
 43
0.0000000001
 40
0.0
 40
0.0
 40
0.0
 40
0.0
 40
0.2
 40
0.2
 40
0.2
 40
0.2
 40
0.4
 40
0.4
 40
0.4
 40
0.4
 40
0.6
 40
0.6
 40
0.6
 40
0.6
 40
1.0
 40
1.0
 40
1.0
 40
1.0
 10
-3.357870078740158
 20
4.136425196850394
 30
0.0
 10
-3.357870078740158
 20
4.136425196850394
 30
0.0
 10
-3.357870078740158
 20
4.193035433070866
 30
0.0
 10
-3.357870078740158
 20
4.193035433070866
 30
0.0
 10
-3.357870078740158
 20
4.193035433070866
 30
0.0
 10
-3.357870078740158
 20
4.257996062992126
 30
0.0
 10
-3.304720472440945
 20
4.311145669291339
 30
0.0
 10
-3.239759842519685
 20
4.311145669291339
 30
0.0
 10
-3.239759842519685
 20
4.311145669291339
 30
0.0
 10
-3.239759842519685
 20
4.311145669291339
 30
0.0
 10
-3.183149606299212
 20
4.311145669291339
 30
0.0
 10
-3.183149606299212
 20
4.311145669291339
 30
0.0
 10
-3.183149606299212
 20
4.311145669291339
 30
0.0
 10
-3.183149606299212
 20
4.311145669291339
 30
0.0
 10
-3.357870078740158
 20
4.136425196850394
 30
0.0
 10
-3.357870078740158
 20
4.136425196850394
 30
0.0
  0
SPLINE
  5
6D
330
1F
100
AcDbEntity
  8
Layer 1
370
     9
100
AcDbSpline
210
0.0
220
0.0
230
1.0
 70
    11
 71
     3
 72
   148
 73
   144
 74
     0
 42
0.0000000001
 43
0.0000000001
 40
0.0
 40
0.0
 40
0.0
 40
0.0
 40
0.027027027027027
 40
0.027027027027027
 40
0.027027027027027
 40
0.027027027027027
 40
0.0540540540540541
 40
0.0540540540540541
 40
0.0540540540540541
 40
0.0540540540540541
 40
0.0810810810810811
 40
0.0810810810810811
 40
0.0810810810810811
 40
0.0810810810810811
 40
0.1081081081081081
 40
0.1081081081081081
 40
0.1081081081081081
 40
0.1081081081081081
 40
0.1351351351351351
 40
0.1351351351351351
 40
0.1351351351351351
 40
0.1351351351351351
 40
0.1621621621621622
 40
0.1621621621621622
 40
0.1621621621621622
 40
0.1621621621621622
 40
0.1891891891891892
 40
0.1891891891891892
 40
0.1891891891891892
 40
0.1891891891891892
 40
0.2162162162162162
 40
0.2162162162162162
 40
0.2162162162162162
 40
0.2162162162162162
 40
0.2432432432432433
 40
0.2432432432432433
 40
0.2432432432432433
 40
0.2432432432432433
 40
0.2702702702702703
 40
0.2702702702702703
 40
0.2702702702702703
 40
0.2702702702702703
 40
0.2972972972972973
 40
0.2972972972972973
 40
0.2972972972972973
 40
0.2972972972972973
 40
0.3243243243243243
 40
0.3243243243243243
 40
0.3243243243243243
 40
0.3243243243243243
 40
0.3513513513513514
 40
0.3513513513513514
 40
0.3513513513513514
 40
0.3513513513513514
 40
0.3783783783783784
 40
0.3783783783783784
 40
0.3783783783783784
 40
0.3783783783783784
 40
0.4054054054054054
 40
0.4054054054054054
 40
0.4054054054054054
 40
0.4054054054054054
 40
0.4324324324324325
 40
0.4324324324324325
 40
0.4324324324324325
 40
0.4324324324324325
 40
0.4594594594594595
 40
0.4594594594594595
 40
0.4594594594594595
 40
0.4594594594594595
 40
0.4864864864864865
 40
0.4864864864864865
 40
0.4864864864864865
 40
0.4864864864864865
 40
0.5135135135135135
 40
0.5135135135135135
 40
0.5135135135135135
 40
0.5135135135135135
 40
0.5405405405405406
 40
0.5405405405405406
 40
0.5405405405405406
 40
0.5405405405405406
 40
0.5675675675675675
 40
0.5675675675675675
 40
0.5675675675675675
 40
0.5675675675675675
 40
0.5945945945945946
 40
0.5945945945945946
 40
0.5945945945945946
 40
0.5945945945945946
 40
0.6216216216216216
 40
0.6216216216216216
 40
0.6216216216216216
 40
0.6216216216216216
 40
0.6486486486486487
 40
0.6486486486486487
 40
0.6486486486486487
 40
0.6486486486486487
 40
0.6756756756756757
 40
0.6756756756756757
 40
0.6756756756756757
 40
0.6756756756756757
 40
0.7027027027027027
 40
0.7027027027027027
 40
0.7027027027027027
 40
0.7027027027027027
 40
0.7297297297297297
 40
0.7297297297297297
 40
0.7297297297297297
 40
0.7297297297297297
 40
0.7567567567567568
 40
0.7567567567567568
 40
0.7567567567567568
 40
0.7567567567567568
 40
0.7837837837837838
 40
0.7837837837837838
 40
0.7837837837837838
 40
0.7837837837837838
 40
0.8108108108108109
 40
0.8108108108108109
 40
0.8108108108108109
 40
0.8108108108108109
 40
0.8378378378378378
 40
0.8378378378378378
 40
0.8378378378378378
 40
0.8378378378378378
 40
0.8648648648648649
 40
0.8648648648648649
 40
0.8648648648648649
 40
0.8648648648648649
 40
0.8918918918918919
 40
0.8918918918918919
 40
0.8918918918918919
 40
0.8918918918918919
 40
0.918918918918919
 40
0.918918918918919
 40
0.918918918918919
 40
0.918918918918919
 40
0.9459459459459459
 40
0.9459459459459459
 40
0.9459459459459459
 40
0.9459459459459459
 40
1.0
 40
1.0
 40
1.0
 40
1.0
 10
-0.4051141732283465
 20
2.401696850393701
 30
0.0
 10
-0.4051141732283465
 20
2.401696850393701
 30
0.0
 10
-0.6019645669291338
 20
2.401696850393701
 30
0.0
 10
-0.6019645669291338
 20
2.401696850393701
 30
0.0
 10
-0.6019645669291338
 20
2.401696850393701
 30
0.0
 10
-0.6019645669291338
 20
2.401696850393701
 30
0.0
 10
-0.6019645669291338
 20
2.283586614173228
 30
0.0
 10
-0.6019645669291338
 20
2.283586614173228
 30
0.0
 10
-0.6019645669291338
 20
2.283586614173228
 30
0.0
 10
-0.6019645669291338
 20
2.283586614173228
 30
0.0
 10
-0.9956653543307087
 20
2.283586614173228
 30
0.0
 10
-0.9956653543307087
 20
2.283586614173228
 30
0.0
 10
-0.9956653543307087
 20
2.283586614173228
 30
0.0
 10
-0.9956653543307087
 20
2.283586614173228
 30
0.0
 10
-0.9956653543307087
 20
2.401696850393701
 30
0.0
 10
-0.9956653543307087
 20
2.401696850393701
 30
0.0
 10
-0.9956653543307087
 20
2.401696850393701
 30
0.0
 10
-0.9956653543307087
 20
2.401696850393701
 30
0.0
 10
-3.16101968503937
 20
2.401696850393701
 30
0.0
 10
-3.16101968503937
 20
2.401696850393701
 30
0.0
 10
-3.16101968503937
 20
2.401696850393701
 30
0.0
 10
-3.16101968503937
 20
2.401696850393701
 30
0.0
 10
-3.16101968503937
 20
2.283586614173228
 30
0.0
 10
-3.16101968503937
 20
2.283586614173228
 30
0.0
 10
-3.16101968503937
 20
2.283586614173228
 30
0.0
 10
-3.16101968503937
 20
2.283586614173228
 30
0.0
 10
-3.554720472440945
 20
2.283586614173228
 30
0.0
 10
-3.554720472440945
 20
2.283586614173228
 30
0.0
 10
-3.554720472440945
 20
2.283586614173228
 30
0.0
 10
-3.554720472440945
 20
2.283586614173228
 30
0.0
 10
-3.554720472440945
 20
2.401696850393701
 30
0.0
 10
-3.554720472440945
 20
2.401696850393701
 30
0.0
 10
-3.554720472440945
 20
2.401696850393701
 30
0.0
 10
-3.554720472440945
 20
2.401696850393701
 30
0.0
 10
-3.751570866141732
 20
2.401696850393701
 30
0.0
 10
-3.751570866141732
 20
2.401696850393701
 30
0.0
 10
-3.751570866141732
 20
2.401696850393701
 30
0.0
 10
-3.751570866141732
 20
2.401696850393701
 30
0.0
 10
-3.751570866141732
 20
2.834767716535433
 30
0.0
 10
-3.751570866141732
 20
2.834767716535433
 30
0.0
 10
-3.751570866141732
 20
2.834767716535433
 30
0.0
 10
-3.751570866141732
 20
2.834767716535433
 30
0.0
 10
-3.869681102362205
 20
2.834767716535433
 30
0.0
 10
-3.869681102362205
 20
2.834767716535433
 30
0.0
 10
-3.869681102362205
 20
2.834767716535433
 30
0.0
 10
-3.869681102362205
 20
2.834767716535433
 30
0.0
 10
-3.869681102362205
 20
3.228468503937008
 30
0.0
 10
-3.869681102362205
 20
3.228468503937008
 30
0.0
 10
-3.869681102362205
 20
3.228468503937008
 30
0.0
 10
-3.869681102362205
 20
3.228468503937008
 30
0.0
 10
-3.751570866141732
 20
3.228468503937008
 30
0.0
 10
-3.751570866141732
 20
3.228468503937008
 30
0.0
 10
-3.751570866141732
 20
3.228468503937008
 30
0.0
 10
-3.751570866141732
 20
3.228468503937008
 30
0.0
 10
-3.751570866141732
 20
3.9765
 30
0.0
 10
-3.751570866141732
 20
3.9765
 30
0.0
 10
-3.751570866141732
 20
3.9765
 30
0.0
 10
-3.751570866141732
 20
3.9765
 30
0.0
 10
-3.869681102362205
 20
3.9765
 30
0.0
 10
-3.869681102362205
 20
3.9765
 30
0.0
 10
-3.869681102362205
 20
3.9765
 30
0.0
 10
-3.869681102362205
 20
3.9765
 30
0.0
 10
-3.869681102362205
 20
4.370200787401575
 30
0.0
 10
-3.869681102362205
 20
4.370200787401575
 30
0.0
 10
-3.869681102362205
 20
4.370200787401575
 30
0.0
 10
-3.869681102362205
 20
4.370200787401575
 30
0.0
 10
-3.751570866141732
 20
4.370200787401575
 30
0.0
 10
-3.751570866141732
 20
4.370200787401575
 30
0.0
 10
-3.751570866141732
 20
4.370200787401575
 30
0.0
 10
-3.751570866141732
 20
4.370200787401575
 30
0.0
 10
-3.751570866141732
 20
4.803271653543307
 30
0.0
 10
-3.751570866141732
 20
4.803271653543307
 30
0.0
 10
-3.751570866141732
 20
4.803271653543307
 30
0.0
 10
-3.751570866141732
 20
4.803271653543307
 30
0.0
 10
-3.554720472440945
 20
4.803271653543307
 30
0.0
 10
-3.554720472440945
 20
4.803271653543307
 30
0.0
 10
-3.554720472440945
 20
4.803271653543307
 30
0.0
 10
-3.554720472440945
 20
4.803271653543307
 30
0.0
 10
-3.554720472440945
 20
4.921381889763779
 30
0.0
 10
-3.554720472440945
 20
4.921381889763779
 30
0.0
 10
-3.554720472440945
 20
4.921381889763779
 30
0.0
 10
-3.554720472440945
 20
4.921381889763779
 30
0.0
 10
-3.16101968503937
 20
4.921381889763779
 30
0.0
 10
-3.16101968503937
 20
4.921381889763779
 30
0.0
 10
-3.16101968503937
 20
4.921381889763779
 30
0.0
 10
-3.16101968503937
 20
4.921381889763779
 30
0.0
 10
-3.16101968503937
 20
4.803271653543307
 30
0.0
 10
-3.16101968503937
 20
4.803271653543307
 30
0.0
 10
-3.16101968503937
 20
4.803271653543307
 30
0.0
 10
-3.16101968503937
 20
4.803271653543307
 30
0.0
 10
-0.9956653543307087
 20
4.803271653543307
 30
0.0
 10
-0.9956653543307087
 20
4.803271653543307
 30
0.0
 10
-0.9956653543307087
 20
4.803271653543307
 30
0.0
 10
-0.9956653543307087
 20
4.803271653543307
 30
0.0
 10
-0.9956653543307087
 20
4.921381889763779
 30
0.0
 10
-0.9956653543307087
 20
4.921381889763779
 30
0.0
 10
-0.9956653543307087
 20
4.921381889763779
 30
0.0
 10
-0.9956653543307087
 20
4.921381889763779
 30
0.0
 10
-0.6019645669291338
 20
4.921381889763779
 30
0.0
 10
-0.6019645669291338
 20
4.921381889763779
 30
0.0
 10
-0.6019645669291338
 20
4.921381889763779
 30
0.0
 10
-0.6019645669291338
 20
4.921381889763779
 30
0.0
 10
-0.6019645669291338
 20
4.803271653543307
 30
0.0
 10
-0.6019645669291338
 20
4.803271653543307
 30
0.0
 10
-0.6019645669291338
 20
4.803271653543307
 30
0.0
 10
-0.6019645669291338
 20
4.803271653543307
 30
0.0
 10
-0.4051141732283465
 20
4.803271653543307
 30
0.0
 10
-0.4051141732283465
 20
4.803271653543307
 30
0.0
 10
-0.4051141732283465
 20
4.803271653543307
 30
0.0
 10
-0.4051141732283465
 20
4.803271653543307
 30
0.0
 10
-0.4051141732283465
 20
4.370200787401575
 30
0.0
 10
-0.4051141732283465
 20
4.370200787401575
 30
0.0
 10
-0.4051141732283465
 20
4.370200787401575
 30
0.0
 10
-0.4051141732283465
 20
4.370200787401575
 30
0.0
 10
-0.287003937007874
 20
4.370200787401575
 30
0.0
 10
-0.287003937007874
 20
4.370200787401575
 30
0.0
 10
-0.287003937007874
 20
4.370200787401575
 30
0.0
 10
-0.287003937007874
 20
4.370200787401575
 30
0.0
 10
-0.287003937007874
 20
3.9765
 30
0.0
 10
-0.287003937007874
 20
3.9765
 30
0.0
 10
-0.287003937007874
 20
3.9765
 30
0.0
 10
-0.287003937007874
 20
3.9765
 30
0.0
 10
-0.4051141732283465
 20
3.9765
 30
0.0
 10
-0.4051141732283465
 20
3.9765
 30
0.0
 10
-0.4051141732283465
 20
3.9765
 30
0.0
 10
-0.4051141732283465
 20
3.9765
 30
0.0
 10
-0.4051141732283465
 20
3.228468503937008
 30
0.0
 10
-0.4051141732283465
 20
3.228468503937008
 30
0.0
 10
-0.4051141732283465
 20
3.228468503937008
 30
0.0
 10
-0.4051141732283465
 20
3.228468503937008
 30
0.0
 10
-0.287003937007874
 20
3.228468503937008
 30
0.0
 10
-0.287003937007874
 20
3.228468503937008
 30
0.0
 10
-0.287003937007874
 20
3.228468503937008
 30
0.0
 10
-0.287003937007874
 20
3.228468503937008
 30
0.0
 10
-0.287003937007874
 20
2.834767716535433
 30
0.0
 10
-0.287003937007874
 20
2.834767716535433
 30
0.0
 10
-0.287003937007874
 20
2.834767716535433
 30
0.0
 10
-0.287003937007874
 20
2.834767716535433
 30
0.0
 10
-0.4051141732283465
 20
2.834767716535433
 30
0.0
 10
-0.4051141732283465
 20
2.834767716535433
 30
0.0
 10
-0.4051141732283465
 20
2.834767716535433
 30
0.0
 10
-0.4051141732283465
 20
2.834767716535433
 30
0.0
 10
-0.4051141732283465
 20
2.401696850393701
 30
0.0
 10
-0.4051141732283465
 20
2.401696850393701
 30
0.0
  0
LWPOLYLINE
  5
6E
330
1F
100
AcDbEntity
  8
Layer 1
370
     9
100
AcDbPolyline
 90
        5
 70
     1
 43
0.0
 10
-1.645263779527559
 20
2.508366141732283
 10
-1.448413385826772
 20
2.508366141732283
 10
-1.448413385826772
 20
2.602114173228347
 10
-1.645263779527559
 20
2.602114173228347
 10
-1.645263779527559
 20
2.508366141732283
  0
SPLINE
  5
6F
330
1F
100
AcDbEntity
  8
Layer 1
370
     9
100
AcDbSpline
210
0.0
220
0.0
230
1.0
 70
    11
 71
     3
 72
   148
 73
   144
 74
     0
 42
0.0000000001
 43
0.0000000001
 40
0.0
 40
0.0
 40
0.0
 40
0.0
 40
0.027027027027027
 40
0.027027027027027
 40
0.027027027027027
 40
0.027027027027027
 40
0.0540540540540541
 40
0.0540540540540541
 40
0.0540540540540541
 40
0.0540540540540541
 40
0.0810810810810811
 40
0.0810810810810811
 40
0.0810810810810811
 40
0.0810810810810811
 40
0.1081081081081081
 40
0.1081081081081081
 40
0.1081081081081081
 40
0.1081081081081081
 40
0.1351351351351351
 40
0.1351351351351351
 40
0.1351351351351351
 40
0.1351351351351351
 40
0.1621621621621622
 40
0.1621621621621622
 40
0.1621621621621622
 40
0.1621621621621622
 40
0.1891891891891892
 40
0.1891891891891892
 40
0.1891891891891892
 40
0.1891891891891892
 40
0.2162162162162162
 40
0.2162162162162162
 40
0.2162162162162162
 40
0.2162162162162162
 40
0.2432432432432433
 40
0.2432432432432433
 40
0.2432432432432433
 40
0.2432432432432433
 40
0.2702702702702703
 40
0.2702702702702703
 40
0.2702702702702703
 40
0.2702702702702703
 40
0.2972972972972973
 40
0.2972972972972973
 40
0.2972972972972973
 40
0.2972972972972973
 40
0.3243243243243243
 40
0.3243243243243243
 40
0.3243243243243243
 40
0.3243243243243243
 40
0.3513513513513514
 40
0.3513513513513514
 40
0.3513513513513514
 40
0.3513513513513514
 40
0.3783783783783784
 40
0.3783783783783784
 40
0.3783783783783784
 40
0.3783783783783784
 40
0.4054054054054054
 40
0.4054054054054054
 40
0.4054054054054054
 40
0.4054054054054054
 40
0.4324324324324325
 40
0.4324324324324325
 40
0.4324324324324325
 40
0.4324324324324325
 40
0.4594594594594595
 40
0.4594594594594595
 40
0.4594594594594595
 40
0.4594594594594595
 40
0.4864864864864865
 40
0.4864864864864865
 40
0.4864864864864865
 40
0.4864864864864865
 40
0.5135135135135135
 40
0.5135135135135135
 40
0.5135135135135135
 40
0.5135135135135135
 40
0.5405405405405406
 40
0.5405405405405406
 40
0.5405405405405406
 40
0.5405405405405406
 40
0.5675675675675675
 40
0.5675675675675675
 40
0.5675675675675675
 40
0.5675675675675675
 40
0.5945945945945946
 40
0.5945945945945946
 40
0.5945945945945946
 40
0.5945945945945946
 40
0.6216216216216216
 40
0.6216216216216216
 40
0.6216216216216216
 40
0.6216216216216216
 40
0.6486486486486487
 40
0.6486486486486487
 40
0.6486486486486487
 40
0.6486486486486487
 40
0.6756756756756757
 40
0.6756756756756757
 40
0.6756756756756757
 40
0.6756756756756757
 40
0.7027027027027027
 40
0.7027027027027027
 40
0.7027027027027027
 40
0.7027027027027027
 40
0.7297297297297297
 40
0.7297297297297297
 40
0.7297297297297297
 40
0.7297297297297297
 40
0.7567567567567568
 40
0.7567567567567568
 40
0.7567567567567568
 40
0.7567567567567568
 40
0.7837837837837838
 40
0.7837837837837838
 40
0.7837837837837838
 40
0.7837837837837838
 40
0.8108108108108109
 40
0.8108108108108109
 40
0.8108108108108109
 40
0.8108108108108109
 40
0.8378378378378378
 40
0.8378378378378378
 40
0.8378378378378378
 40
0.8378378378378378
 40
0.8648648648648649
 40
0.8648648648648649
 40
0.8648648648648649
 40
0.8648648648648649
 40
0.8918918918918919
 40
0.8918918918918919
 40
0.8918918918918919
 40
0.8918918918918919
 40
0.918918918918919
 40
0.918918918918919
 40
0.918918918918919
 40
0.918918918918919
 40
0.9459459459459459
 40
0.9459459459459459
 40
0.9459459459459459
 40
0.9459459459459459
 40
1.0
 40
1.0
 40
1.0
 40
1.0
 10
-3.751570866141732
 20
2.105476377952756
 30
0.0
 10
-3.751570866141732
 20
2.105476377952756
 30
0.0
 10
-3.554720472440945
 20
2.105476377952756
 30
0.0
 10
-3.554720472440945
 20
2.105476377952756
 30
0.0
 10
-3.554720472440945
 20
2.105476377952756
 30
0.0
 10
-3.554720472440945
 20
2.105476377952756
 30
0.0
 10
-3.554720472440945
 20
2.223586614173228
 30
0.0
 10
-3.554720472440945
 20
2.223586614173228
 30
0.0
 10
-3.554720472440945
 20
2.223586614173228
 30
0.0
 10
-3.554720472440945
 20
2.223586614173228
 30
0.0
 10
-3.16101968503937
 20
2.223586614173228
 30
0.0
 10
-3.16101968503937
 20
2.223586614173228
 30
0.0
 10
-3.16101968503937
 20
2.223586614173228
 30
0.0
 10
-3.16101968503937
 20
2.223586614173228
 30
0.0
 10
-3.16101968503937
 20
2.105476377952756
 30
0.0
 10
-3.16101968503937
 20
2.105476377952756
 30
0.0
 10
-3.16101968503937
 20
2.105476377952756
 30
0.0
 10
-3.16101968503937
 20
2.105476377952756
 30
0.0
 10
-0.9956653543307087
 20
2.105476377952756
 30
0.0
 10
-0.9956653543307087
 20
2.105476377952756
 30
0.0
 10
-0.9956653543307087
 20
2.105476377952756
 30
0.0
 10
-0.9956653543307087
 20
2.105476377952756
 30
0.0
 10
-0.9956653543307087
 20
2.223586614173228
 30
0.0
 10
-0.9956653543307087
 20
2.223586614173228
 30
0.0
 10
-0.9956653543307087
 20
2.223586614173228
 30
0.0
 10
-0.9956653543307087
 20
2.223586614173228
 30
0.0
 10
-0.6019645669291338
 20
2.223586614173228
 30
0.0
 10
-0.6019645669291338
 20
2.223586614173228
 30
0.0
 10
-0.6019645669291338
 20
2.223586614173228
 30
0.0
 10
-0.6019645669291338
 20
2.223586614173228
 30
0.0
 10
-0.6019645669291338
 20
2.105476377952756
 30
0.0
 10
-0.6019645669291338
 20
2.105476377952756
 30
0.0
 10
-0.6019645669291338
 20
2.105476377952756
 30
0.0
 10
-0.6019645669291338
 20
2.105476377952756
 30
0.0
 10
-0.4051141732283465
 20
2.105476377952756
 30
0.0
 10
-0.4051141732283465
 20
2.105476377952756
 30
0.0
 10
-0.4051141732283465
 20
2.105476377952756
 30
0.0
 10
-0.4051141732283465
 20
2.105476377952756
 30
0.0
 10
-0.4051141732283465
 20
1.672405511811024
 30
0.0
 10
-0.4051141732283465
 20
1.672405511811024
 30
0.0
 10
-0.4051141732283465
 20
1.672405511811024
 30
0.0
 10
-0.4051141732283465
 20
1.672405511811024
 30
0.0
 10
-0.287003937007874
 20
1.672405511811024
 30
0.0
 10
-0.287003937007874
 20
1.672405511811024
 30
0.0
 10
-0.287003937007874
 20
1.672405511811024
 30
0.0
 10
-0.287003937007874
 20
1.672405511811024
 30
0.0
 10
-0.287003937007874
 20
1.278704724409449
 30
0.0
 10
-0.287003937007874
 20
1.278704724409449
 30
0.0
 10
-0.287003937007874
 20
1.278704724409449
 30
0.0
 10
-0.287003937007874
 20
1.278704724409449
 30
0.0
 10
-0.4051141732283465
 20
1.278704724409449
 30
0.0
 10
-0.4051141732283465
 20
1.278704724409449
 30
0.0
 10
-0.4051141732283465
 20
1.278704724409449
 30
0.0
 10
-0.4051141732283465
 20
1.278704724409449
 30
0.0
 10
-0.4051141732283465
 20
0.5306732283464567
 30
0.0
 10
-0.4051141732283465
 20
0.5306732283464567
 30
0.0
 10
-0.4051141732283465
 20
0.5306732283464567
 30
0.0
 10
-0.4051141732283465
 20
0.5306732283464567
 30
0.0
 10
-0.287003937007874
 20
0.5306732283464567
 30
0.0
 10
-0.287003937007874
 20
0.5306732283464567
 30
0.0
 10
-0.287003937007874
 20
0.5306732283464567
 30
0.0
 10
-0.287003937007874
 20
0.5306732283464567
 30
0.0
 10
-0.287003937007874
 20
0.1369724409448819
 30
0.0
 10
-0.287003937007874
 20
0.1369724409448819
 30
0.0
 10
-0.287003937007874
 20
0.1369724409448819
 30
0.0
 10
-0.287003937007874
 20
0.1369724409448819
 30
0.0
 10
-0.4051141732283465
 20
0.1369724409448819
 30
0.0
 10
-0.4051141732283465
 20
0.1369724409448819
 30
0.0
 10
-0.4051141732283465
 20
0.1369724409448819
 30
0.0
 10
-0.4051141732283465
 20
0.1369724409448819
 30
0.0
 10
-0.4051141732283465
 20
-0.2960984251968504
 30
0.0
 10
-0.4051141732283465
 20
-0.2960984251968504
 30
0.0
 10
-0.4051141732283465
 20
-0.2960984251968504
 30
0.0
 10
-0.4051141732283465
 20
-0.2960984251968504
 30
0.0
 10
-0.6019645669291338
 20
-0.2960984251968504
 30
0.0
 10
-0.6019645669291338
 20
-0.2960984251968504
 30
0.0
 10
-0.6019645669291338
 20
-0.2960984251968504
 30
0.0
 10
-0.6019645669291338
 20
-0.2960984251968504
 30
0.0
 10
-0.6019645669291338
 20
-0.4142086614173228
 30
0.0
 10
-0.6019645669291338
 20
-0.4142086614173228
 30
0.0
 10
-0.6019645669291338
 20
-0.4142086614173228
 30
0.0
 10
-0.6019645669291338
 20
-0.4142086614173228
 30
0.0
 10
-0.9956653543307087
 20
-0.4142086614173228
 30
0.0
 10
-0.9956653543307087
 20
-0.4142086614173228
 30
0.0
 10
-0.9956653543307087
 20
-0.4142086614173228
 30
0.0
 10
-0.9956653543307087
 20
-0.4142086614173228
 30
0.0
 10
-0.9956653543307087
 20
-0.2960984251968504
 30
0.0
 10
-0.9956653543307087
 20
-0.2960984251968504
 30
0.0
 10
-0.9956653543307087
 20
-0.2960984251968504
 30
0.0
 10
-0.9956653543307087
 20
-0.2960984251968504
 30
0.0
 10
-3.16101968503937
 20
-0.2960984251968504
 30
0.0
 10
-3.16101968503937
 20
-0.2960984251968504
 30
0.0
 10
-3.16101968503937
 20
-0.2960984251968504
 30
0.0
 10
-3.16101968503937
 20
-0.2960984251968504
 30
0.0
 10
-3.16101968503937
 20
-0.4142086614173228
 30
0.0
 10
-3.16101968503937
 20
-0.4142086614173228
 30
0.0
 10
-3.16101968503937
 20
-0.4142086614173228
 30
0.0
 10
-3.16101968503937
 20
-0.4142086614173228
 30
0.0
 10
-3.554720472440945
 20
-0.4142086614173228
 30
0.0
 10
-3.554720472440945
 20
-0.4142086614173228
 30
0.0
 10
-3.554720472440945
 20
-0.4142086614173228
 30
0.0
 10
-3.554720472440945
 20
-0.4142086614173228
 30
0.0
 10
-3.554720472440945
 20
-0.2960984251968504
 30
0.0
 10
-3.554720472440945
 20
-0.2960984251968504
 30
0.0
 10
-3.554720472440945
 20
-0.2960984251968504
 30
0.0
 10
-3.554720472440945
 20
-0.2960984251968504
 30
0.0
 10
-3.751570866141732
 20
-0.2960984251968504
 30
0.0
 10
-3.751570866141732
 20
-0.2960984251968504
 30
0.0
 10
-3.751570866141732
 20
-0.2960984251968504
 30
0.0
 10
-3.751570866141732
 20
-0.2960984251968504
 30
0.0
 10
-3.751570866141732
 20
0.1369724409448819
 30
0.0
 10
-3.751570866141732
 20
0.1369724409448819
 30
0.0
 10
-3.751570866141732
 20
0.1369724409448819
 30
0.0
 10
-3.751570866141732
 20
0.1369724409448819
 30
0.0
 10
-3.869681102362205
 20
0.1369724409448819
 30
0.0
 10
-3.869681102362205
 20
0.1369724409448819
 30
0.0
 10
-3.869681102362205
 20
0.1369724409448819
 30
0.0
 10
-3.869681102362205
 20
0.1369724409448819
 30
0.0
 10
-3.869681102362205
 20
0.5306732283464567
 30
0.0
 10
-3.869681102362205
 20
0.5306732283464567
 30
0.0
 10
-3.869681102362205
 20
0.5306732283464567
 30
0.0
 10
-3.869681102362205
 20
0.5306732283464567
 30
0.0
 10
-3.751570866141732
 20
0.5306732283464567
 30
0.0
 10
-3.751570866141732
 20
0.5306732283464567
 30
0.0
 10
-3.751570866141732
 20
0.5306732283464567
 30
0.0
 10
-3.751570866141732
 20
0.5306732283464567
 30
0.0
 10
-3.751570866141732
 20
1.278704724409449
 30
0.0
 10
-3.751570866141732
 20
1.278704724409449
 30
0.0
 10
-3.751570866141732
 20
1.278704724409449
 30
0.0
 10
-3.751570866141732
 20
1.278704724409449
 30
0.0
 10
-3.869681102362205
 20
1.278704724409449
 30
0.0
 10
-3.869681102362205
 20
1.278704724409449
 30
0.0
 10
-3.869681102362205
 20
1.278704724409449
 30
0.0
 10
-3.869681102362205
 20
1.278704724409449
 30
0.0
 10
-3.869681102362205
 20
1.672405511811024
 30
0.0
 10
-3.869681102362205
 20
1.672405511811024
 30
0.0
 10
-3.869681102362205
 20
1.672405511811024
 30
0.0
 10
-3.869681102362205
 20
1.672405511811024
 30
0.0
 10
-3.751570866141732
 20
1.672405511811024
 30
0.0
 10
-3.751570866141732
 20
1.672405511811024
 30
0.0
 10
-3.751570866141732
 20
1.672405511811024
 30
0.0
 10
-3.751570866141732
 20
1.672405511811024
 30
0.0
 10
-3.751570866141732
 20
2.105476377952756
 30
0.0
 10
-3.751570866141732
 20
2.105476377952756
 30
0.0
  0
SPLINE
  5
70
330
1F
100
AcDbEntity
  8
Layer 1
 62
     1
370
     9
100
AcDbSpline
210
0.0
220
0.0
230
1.0
 70
    11
 71
     3
 72
    32
 73
    28
 74
     0
 42
0.0000000001
 43
0.0000000001
 40
0.0
 40
0.0
 40
0.0
 40
0.0
 40
0.125
 40
0.125
 40
0.125
 40
0.125
 40
0.25
 40
0.25
 40
0.25
 40
0.25
 40
0.375
 40
0.375
 40
0.375
 40
0.375
 40
0.5
 40
0.5
 40
0.5
 40
0.5
 40
0.625
 40
0.625
 40
0.625
 40
0.625
 40
0.75
 40
0.75
 40
0.75
 40
0.75
 40
1.0
 40
1.0
 40
1.0
 40
1.0
 10
-2.982720472440945
 20
0.7456062992125985
 30
0.0
 10
-2.982720472440945
 20
0.7456062992125985
 30
0.0
 10
-2.982720472440945
 20
1.118763779527559
 30
0.0
 10
-2.982720472440945
 20
1.118763779527559
 30
0.0
 10
-2.982720472440945
 20
1.118763779527559
 30
0.0
 10
-2.982720472440945
 20
1.118763779527559
 30
0.0
 10
-3.052566929133858
 20
1.118763779527559
 30
0.0
 10
-3.052566929133858
 20
1.118763779527559
 30
0.0
 10
-3.052566929133858
 20
1.118763779527559
 30
0.0
 10
-3.052566929133858
 20
1.118763779527559
 30
0.0
 10
-3.052566929133858
 20
0.9618858267716536
 30
0.0
 10
-3.052566929133858
 20
0.9618858267716536
 30
0.0
 10
-3.052566929133858
 20
0.9618858267716536
 30
0.0
 10
-3.041181102362205
 20
0.9567637795275591
 30
0.0
 10
-3.033027559055118
 20
0.9454921259842519
 30
0.0
 10
-3.033027559055118
 20
0.932228346456693
 30
0.0
 10
-3.033027559055118
 20
0.932228346456693
 30
0.0
 10
-3.033027559055118
 20
0.9188267716535433
 30
0.0
 10
-3.041181102362205
 20
0.9075551181102363
 30
0.0
 10
-3.052566929133858
 20
0.9025118110236221
 30
0.0
 10
-3.052566929133858
 20
0.9025118110236221
 30
0.0
 10
-3.052566929133858
 20
0.9025118110236221
 30
0.0
 10
-3.052566929133858
 20
0.7456062992125985
 30
0.0
 10
-3.052566929133858
 20
0.7456062992125985
 30
0.0
 10
-3.052566929133858
 20
0.7456062992125985
 30
0.0
 10
-3.052566929133858
 20
0.7456062992125985
 30
0.0
 10
-2.982720472440945
 20
0.7456062992125985
 30
0.0
 10
-2.982720472440945
 20
0.7456062992125985
 30
0.0
  0
SPLINE
  5
71
330
1F
100
AcDbEntity
  8
Layer 1
 62
     1
370
     9
100
AcDbSpline
210
0.0
220
0.0
230
1.0
 70
    11
 71
     3
 72
    44
 73
    40
 74
     0
 42
0.0000000001
 43
0.0000000001
 40
0.0
 40
0.0
 40
0.0
 40
0.0
 40
0.0909090909090909
 40
0.0909090909090909
 40
0.0909090909090909
 40
0.0909090909090909
 40
0.1818181818181818
 40
0.1818181818181818
 40
0.1818181818181818
 40
0.1818181818181818
 40
0.2727272727272727
 40
0.2727272727272727
 40
0.2727272727272727
 40
0.2727272727272727
 40
0.3636363636363636
 40
0.3636363636363636
 40
0.3636363636363636
 40
0.3636363636363636
 40
0.4545454545454545
 40
0.4545454545454545
 40
0.4545454545454545
 40
0.4545454545454545
 40
0.5454545454545454
 40
0.5454545454545454
 40
0.5454545454545454
 40
0.5454545454545454
 40
0.6363636363636364
 40
0.6363636363636364
 40
0.6363636363636364
 40
0.6363636363636364
 40
0.7272727272727273
 40
0.7272727272727273
 40
0.7272727272727273
 40
0.7272727272727273
 40
0.8181818181818182
 40
0.8181818181818182
 40
0.8181818181818182
 40
0.8181818181818182
 40
1.0
 40
1.0
 40
1.0
 40
1.0
 10
-3.098425196850394
 20
0.932228346456693
 30
0.0
 10
-3.098425196850394
 20
0.9457401574803149
 30
0.0
 10
-3.090208661417323
 20
0.957251968503937
 30
0.0
 10
-3.078511811023622
 20
0.962248031496063
 30
0.0
 10
-3.078511811023622
 20
0.962248031496063
 30
0.0
 10
-3.078511811023622
 20
0.962248031496063
 30
0.0
 10
-3.078511811023622
 20
1.118763779527559
 30
0.0
 10
-3.078511811023622
 20
1.118763779527559
 30
0.0
 10
-3.078511811023622
 20
1.118763779527559
 30
0.0
 10
-3.078511811023622
 20
1.118763779527559
 30
0.0
 10
-3.148358267716536
 20
1.118763779527559
 30
0.0
 10
-3.148358267716536
 20
1.118763779527559
 30
0.0
 10
-3.148358267716536
 20
1.118763779527559
 30
0.0
 10
-3.148358267716536
 20
1.118763779527559
 30
0.0
 10
-3.148358267716536
 20
0.957236220472441
 30
0.0
 10
-3.148358267716536
 20
0.957236220472441
 30
0.0
 10
-3.148358267716536
 20
0.957236220472441
 30
0.0
 10
-3.140905511811024
 20
0.951263779527559
 30
0.0
 10
-3.135842519685039
 20
0.9425393700787401
 30
0.0
 10
-3.135842519685039
 20
0.932228346456693
 30
0.0
 10
-3.135842519685039
 20
0.932228346456693
 30
0.0
 10
-3.135842519685039
 20
0.9218582677165355
 30
0.0
 10
-3.140905511811024
 20
0.9130551181102362
 30
0.0
 10
-3.148358267716536
 20
0.9071181102362205
 30
0.0
 10
-3.148358267716536
 20
0.9071181102362205
 30
0.0
 10
-3.148358267716536
 20
0.9071181102362205
 30
0.0
 10
-3.148358267716536
 20
0.7456062992125985
 30
0.0
 10
-3.148358267716536
 20
0.7456062992125985
 30
0.0
 10
-3.148358267716536
 20
0.7456062992125985
 30
0.0
 10
-3.148358267716536
 20
0.7456062992125985
 30
0.0
 10
-3.078511811023622
 20
0.7456062992125985
 30
0.0
 10
-3.078511811023622
 20
0.7456062992125985
 30
0.0
 10
-3.078511811023622
 20
0.7456062992125985
 30
0.0
 10
-3.078511811023622
 20
0.7456062992125985
 30
0.0
 10
-3.078511811023622
 20
0.9021220472440945
 30
0.0
 10
-3.078511811023622
 20
0.9021220472440945
 30
0.0
 10
-3.078511811023622
 20
0.9021220472440945
 30
0.0
 10
-3.090208661417323
 20
0.9070708661417323
 30
0.0
 10
-3.098425196850394
 20
0.9186141732283465
 30
0.0
 10
-3.098425196850394
 20
0.932228346456693
 30
0.0
  0
SPLINE
  5
72
330
1F
100
AcDbEntity
  8
Layer 1
 62
     1
370
     9
100
AcDbSpline
210
0.0
220
0.0
230
1.0
 70
    11
 71
     3
 72
    32
 73
    28
 74
     0
 42
0.0000000001
 43
0.0000000001
 40
0.0
 40
0.0
 40
0.0
 40
0.0
 40
0.125
 40
0.125
 40
0.125
 40
0.125
 40
0.25
 40
0.25
 40
0.25
 40
0.25
 40
0.375
 40
0.375
 40
0.375
 40
0.375
 40
0.5
 40
0.5
 40
0.5
 40
0.5
 40
0.625
 40
0.625
 40
0.625
 40
0.625
 40
0.75
 40
0.75
 40
0.75
 40
0.75
 40
1.0
 40
1.0
 40
1.0
 40
1.0
 10
-3.201240157480315
 20
0.932228346456693
 30
0.0
 10
-3.201240157480315
 20
0.9482086614173229
 30
0.0
 10
-3.189543307086614
 20
0.9608582677165355
 30
0.0
 10
-3.174377952755906
 20
0.9636377952755906
 30
0.0
 10
-3.174377952755906
 20
0.9636377952755906
 30
0.0
 10
-3.174377952755906
 20
0.9636377952755906
 30
0.0
 10
-3.174377952755906
 20
1.118763779527559
 30
0.0
 10
-3.174377952755906
 20
1.118763779527559
 30
0.0
 10
-3.174377952755906
 20
1.118763779527559
 30
0.0
 10
-3.174377952755906
 20
1.118763779527559
 30
0.0
 10
-3.244086614173229
 20
1.118763779527559
 30
0.0
 10
-3.244086614173229
 20
1.118763779527559
 30
0.0
 10
-3.244086614173229
 20
1.118763779527559
 30
0.0
 10
-3.244086614173229
 20
1.118763779527559
 30
0.0
 10
-3.244086614173229
 20
0.7456062992125985
 30
0.0
 10
-3.244086614173229
 20
0.7456062992125985
 30
0.0
 10
-3.244086614173229
 20
0.7456062992125985
 30
0.0
 10
-3.244086614173229
 20
0.7456062992125985
 30
0.0
 10
-3.174377952755906
 20
0.7456062992125985
 30
0.0
 10
-3.174377952755906
 20
0.7456062992125985
 30
0.0
 10
-3.174377952755906
 20
0.7456062992125985
 30
0.0
 10
-3.174377952755906
 20
0.7456062992125985
 30
0.0
 10
-3.174377952755906
 20
0.9007322834645669
 30
0.0
 10
-3.174377952755906
 20
0.9007322834645669
 30
0.0
 10
-3.174377952755906
 20
0.9007322834645669
 30
0.0
 10
-3.189543307086614
 20
0.9035
 30
0.0
 10
-3.201240157480315
 20
0.9161102362204725
 30
0.0
 10
-3.201240157480315
 20
0.932228346456693
 30
0.0
  0
SPLINE
  5
73
330
1F
100
AcDbEntity
  8
Layer 1
 62
     1
370
     9
100
AcDbSpline
210
0.0
220
0.0
230
1.0
 70
     8
 71
     3
 72
    96
 73
    92
 74
     0
 42
0.0000000001
 43
0.0000000001
 40
0.0
 40
0.0
 40
0.0
 40
0.0
 40
0.0416666666666667
 40
0.0416666666666667
 40
0.0416666666666667
 40
0.0416666666666667
 40
0.0833333333333333
 40
0.0833333333333333
 40
0.0833333333333333
 40
0.0833333333333333
 40
0.125
 40
0.125
 40
0.125
 40
0.125
 40
0.1666666666666667
 40
0.1666666666666667
 40
0.1666666666666667
 40
0.1666666666666667
 40
0.2083333333333333
 40
0.2083333333333333
 40
0.2083333333333333
 40
0.2083333333333333
 40
0.25
 40
0.25
 40
0.25
 40
0.25
 40
0.2916666666666667
 40
0.2916666666666667
 40
0.2916666666666667
 40
0.2916666666666667
 40
0.3333333333333333
 40
0.3333333333333333
 40
0.3333333333333333
 40
0.3333333333333333
 40
0.375
 40
0.375
 40
0.375
 40
0.375
 40
0.4166666666666667
 40
0.4166666666666667
 40
0.4166666666666667
 40
0.4166666666666667
 40
0.4583333333333333
 40
0.4583333333333333
 40
0.4583333333333333
 40
0.4583333333333333
 40
0.5
 40
0.5
 40
0.5
 40
0.5
 40
0.5416666666666666
 40
0.5416666666666666
 40
0.5416666666666666
 40
0.5416666666666666
 40
0.5833333333333334
 40
0.5833333333333334
 40
0.5833333333333334
 40
0.5833333333333334
 40
0.625
 40
0.625
 40
0.625
 40
0.625
 40
0.6666666666666666
 40
0.6666666666666666
 40
0.6666666666666666
 40
0.6666666666666666
 40
0.7083333333333334
 40
0.7083333333333334
 40
0.7083333333333334
 40
0.7083333333333334
 40
0.75
 40
0.75
 40
0.75
 40
0.75
 40
0.7916666666666666
 40
0.7916666666666666
 40
0.7916666666666666
 40
0.7916666666666666
 40
0.8333333333333334
 40
0.8333333333333334
 40
0.8333333333333334
 40
0.8333333333333334
 40
0.875
 40
0.875
 40
0.875
 40
0.875
 40
0.9166666666666666
 40
0.9166666666666666
 40
0.9166666666666666
 40
0.9166666666666666
 40
1.0
 40
1.0
 40
1.0
 40
1.0
 10
-1.942173228346457
 20
0.3313740157480315
 30
0.0
 10
-1.942173228346457
 20
0.3313740157480315
 30
0.0
 10
-1.942173228346457
 20
0.2173661417322835
 30
0.0
 10
-1.942173228346457
 20
0.2173661417322835
 30
0.0
 10
-1.942173228346457
 20
0.2173661417322835
 30
0.0
 10
-1.942173228346457
 20
0.2173661417322835
 30
0.0
 10
-2.123263779527559
 20
0.2173661417322835
 30
0.0
 10
-2.123263779527559
 20
0.2173661417322835
 30
0.0
 10
-2.123263779527559
 20
0.2173661417322835
 30
0.0
 10
-2.123263779527559
 20
0.2173661417322835
 30
0.0
 10
-2.058629921259842
 20
-0.0534291338582677
 30
0.0
 10
-2.058629921259842
 20
-0.0534291338582677
 30
0.0
 10
-2.058629921259842
 20
-0.0534291338582677
 30
0.0
 10
-2.058629921259842
 20
-0.0534291338582677
 30
0.0
 10
-1.852496062992126
 20
-0.0534291338582677
 30
0.0
 10
-1.852496062992126
 20
-0.0534291338582677
 30
0.0
 10
-1.852496062992126
 20
-0.0534291338582677
 30
0.0
 10
-1.852496062992126
 20
-0.0534291338582677
 30
0.0
 10
-1.810917322834646
 20
0.1205629921259843
 30
0.0
 10
-1.810917322834646
 20
0.1205629921259843
 30
0.0
 10
-1.810917322834646
 20
0.1205629921259843
 30
0.0
 10
-1.691358267716536
 20
0.1401220472440945
 30
0.0
 10
-1.58046062992126
 20
0.1852795275590551
 30
0.0
 10
-1.484633858267717
 20
0.251244094488189
 30
0.0
 10
-1.484633858267717
 20
0.251244094488189
 30
0.0
 10
-1.484633858267717
 20
0.251244094488189
 30
0.0
 10
-1.330090551181102
 20
0.156263779527559
 30
0.0
 10
-1.330090551181102
 20
0.156263779527559
 30
0.0
 10
-1.330090551181102
 20
0.156263779527559
 30
0.0
 10
-1.330090551181102
 20
0.156263779527559
 30
0.0
 10
-1.184322834645669
 20
0.302
 30
0.0
 10
-1.184322834645669
 20
0.302
 30
0.0
 10
-1.184322834645669
 20
0.302
 30
0.0
 10
-1.184322834645669
 20
0.302
 30
0.0
 10
-1.27892125984252
 20
0.4559488188976378
 30
0.0
 10
-1.27892125984252
 20
0.4559488188976378
 30
0.0
 10
-1.27892125984252
 20
0.4559488188976378
 30
0.0
 10
-1.213295275590551
 20
0.5501259842519685
 30
0.0
 10
-1.16757874015748
 20
0.6588700787401575
 30
0.0
 10
-1.146854330708661
 20
0.7763740157480314
 30
0.0
 10
-1.146854330708661
 20
0.7763740157480314
 30
0.0
 10
-1.146854330708661
 20
0.7763740157480314
 30
0.0
 10
-0.9768188976377953
 20
0.8170511811023622
 30
0.0
 10
-0.9768188976377953
 20
0.8170511811023622
 30
0.0
 10
-0.9768188976377953
 20
0.8170511811023622
 30
0.0
 10
-0.9768188976377953
 20
0.8170511811023622
 30
0.0
 10
-0.9768188976377953
 20
1.023125984251968
 30
0.0
 10
-0.9768188976377953
 20
1.023125984251968
 30
0.0
 10
-0.9768188976377953
 20
1.023125984251968
 30
0.0
 10
-0.9768188976377953
 20
1.023125984251968
 30
0.0
 10
-1.147720472440945
 20
1.063972440944882
 30
0.0
 10
-1.147720472440945
 20
1.063972440944882
 30
0.0
 10
-1.147720472440945
 20
1.063972440944882
 30
0.0
 10
-1.168791338582677
 20
1.178763779527559
 30
0.0
 10
-1.213799212598425
 20
1.28501968503937
 30
0.0
 10
-1.277854330708661
 20
1.377330708661417
 30
0.0
 10
-1.277854330708661
 20
1.377330708661417
 30
0.0
 10
-1.277854330708661
 20
1.377330708661417
 30
0.0
 10
-1.17290157480315
 20
1.548181102362205
 30
0.0
 10
-1.17290157480315
 20
1.548181102362205
 30
0.0
 10
-1.17290157480315
 20
1.548181102362205
 30
0.0
 10
-1.17290157480315
 20
1.548181102362205
 30
0.0
 10
-1.318665354330709
 20
1.693913385826772
 30
0.0
 10
-1.318665354330709
 20
1.693913385826772
 30
0.0
 10
-1.318665354330709
 20
1.693913385826772
 30
0.0
 10
-1.318665354330709
 20
1.693913385826772
 30
0.0
 10
-1.49092125984252
 20
1.58809842519685
 30
0.0
 10
-1.49092125984252
 20
1.58809842519685
 30
0.0
 10
-1.49092125984252
 20
1.58809842519685
 30
0.0
 10
-1.57896062992126
 20
1.647464566929134
 30
0.0
 10
-1.67942125984252
 20
1.689610236220472
 30
0.0
 10
-1.787484251968504
 20
1.710594488188976
 30
0.0
 10
-1.787484251968504
 20
1.710594488188976
 30
0.0
 10
-1.787484251968504
 20
1.710594488188976
 30
0.0
 10
-1.836314960629921
 20
1.915074803149606
 30
0.0
 10
-1.836314960629921
 20
1.915074803149606
 30
0.0
 10
-1.836314960629921
 20
1.915074803149606
 30
0.0
 10
-1.836314960629921
 20
1.915074803149606
 30
0.0
 10
-2.042409448818898
 20
1.915074803149606
 30
0.0
 10
-2.042409448818898
 20
1.915074803149606
 30
0.0
 10
-2.042409448818898
 20
1.915074803149606
 30
0.0
 10
-2.042409448818898
 20
1.915074803149606
 30
0.0
 10
-2.107133858267717
 20
1.644283464566929
 30
0.0
 10
-2.107133858267717
 20
1.644283464566929
 30
0.0
 10
-2.107133858267717
 20
1.644283464566929
 30
0.0
 10
-2.107133858267717
 20
1.644283464566929
 30
0.0
 10
-1.942173228346457
 20
1.644283464566929
 30
0.0
 10
-1.942173228346457
 20
1.644283464566929
 30
0.0
 10
-1.942173228346457
 20
1.644283464566929
 30
0.0
 10
-1.942173228346457
 20
1.644283464566929
 30
0.0
 10
-1.942173228346457
 20
1.527708661417323
 30
0.0
 10
-1.942173228346457
 20
1.527708661417323
 30
0.0
  0
SPLINE
  5
74
330
1F
100
AcDbEntity
  8
Layer 1
 62
     1
370
     9
100
AcDbSpline
210
0.0
220
0.0
230
1.0
 70
    11
 71
     3
 72
    20
 73
    16
 74
     0
 42
0.0000000001
 43
0.0000000001
 40
0.0
 40
0.0
 40
0.0
 40
0.0
 40
0.2
 40
0.2
 40
0.2
 40
0.2
 40
0.4
 40
0.4
 40
0.4
 40
0.4
 40
0.6
 40
0.6
 40
0.6
 40
0.6
 40
1.0
 40
1.0
 40
1.0
 40
1.0
 10
-2.53903937007874
 20
1.693913385826772
 30
0.0
 10
-2.53903937007874
 20
1.693913385826772
 30
0.0
 10
-2.684775590551181
 20
1.548181102362205
 30
0.0
 10
-2.684775590551181
 20
1.548181102362205
 30
0.0
 10
-2.684775590551181
 20
1.548181102362205
 30
0.0
 10
-2.684775590551181
 20
1.548181102362205
 30
0.0
 10
-2.58196062992126
 20
1.380877952755905
 30
0.0
 10
-2.58196062992126
 20
1.380877952755905
 30
0.0
 10
-2.58196062992126
 20
1.380877952755905
 30
0.0
 10
-2.50192125984252
 20
1.447944881889764
 30
0.0
 10
-2.421822834645669
 20
1.517484251968504
 30
0.0
 10
-2.33040157480315
 20
1.565763779527559
 30
0.0
 10
-2.33040157480315
 20
1.565763779527559
 30
0.0
 10
-2.33040157480315
 20
1.565763779527559
 30
0.0
 10
-2.53903937007874
 20
1.693913385826772
 30
0.0
 10
-2.53903937007874
 20
1.693913385826772
 30
0.0
  0
SPLINE
  5
75
330
1F
100
AcDbEntity
  8
Layer 1
 62
     1
370
     9
100
AcDbSpline
210
0.0
220
0.0
230
1.0
 70
    11
 71
     3
 72
    20
 73
    16
 74
     0
 42
0.0000000001
 43
0.0000000001
 40
0.0
 40
0.0
 40
0.0
 40
0.0
 40
0.2
 40
0.2
 40
0.2
 40
0.2
 40
0.4
 40
0.4
 40
0.4
 40
0.4
 40
0.6
 40
0.6
 40
0.6
 40
0.6
 40
1.0
 40
1.0
 40
1.0
 40
1.0
 10
-2.586027559055118
 20
0.4814606299212598
 30
0.0
 10
-2.586027559055118
 20
0.4814606299212598
 30
0.0
 10
-2.696311023622047
 20
0.302
 30
0.0
 10
-2.696311023622047
 20
0.302
 30
0.0
 10
-2.696311023622047
 20
0.302
 30
0.0
 10
-2.696311023622047
 20
0.302
 30
0.0
 10
-2.5505
 20
0.156263779527559
 30
0.0
 10
-2.5505
 20
0.156263779527559
 30
0.0
 10
-2.5505
 20
0.156263779527559
 30
0.0
 10
-2.5505
 20
0.156263779527559
 30
0.0
 10
-2.328736220472441
 20
0.2924842519685039
 30
0.0
 10
-2.328736220472441
 20
0.2924842519685039
 30
0.0
 10
-2.328736220472441
 20
0.2924842519685039
 30
0.0
 10
-2.422346456692913
 20
0.3415984251968504
 30
0.0
 10
-2.50403937007874
 20
0.4129566929133858
 30
0.0
 10
-2.586027559055118
 20
0.4814606299212598
 30
0.0
  0
SPLINE
  5
76
330
1F
100
AcDbEntity
  8
Layer 1
 62
     1
370
     9
100
AcDbSpline
210
0.0
220
0.0
230
1.0
 70
    11
 71
     3
 72
    20
 73
    16
 74
     0
 42
0.0000000001
 43
0.0000000001
 40
0.0
 40
0.0
 40
0.0
 40
0.0
 40
0.2
 40
0.2
 40
0.2
 40
0.2
 40
0.4
 40
0.4
 40
0.4
 40
0.4
 40
0.6
 40
0.6
 40
0.6
 40
0.6
 40
1.0
 40
1.0
 40
1.0
 40
1.0
 10
-1.866633858267716
 20
0.936511811023622
 30
0.0
 10
-1.866633858267716
 20
0.9545472440944882
 30
0.0
 10
-1.858031496062992
 20
0.9691968503937007
 30
0.0
 10
-1.847511811023622
 20
0.9691968503937007
 30
0.0
 10
-1.847511811023622
 20
0.9691968503937007
 30
0.0
 10
-1.836842519685039
 20
0.9691968503937007
 30
0.0
 10
-1.828314960629921
 20
0.9545472440944882
 30
0.0
 10
-1.828314960629921
 20
0.936511811023622
 30
0.0
 10
-1.828314960629921
 20
0.936511811023622
 30
0.0
 10
-1.828311023622047
 20
0.9184173228346457
 30
0.0
 10
-1.836842519685039
 20
0.9038661417322834
 30
0.0
 10
-1.847511811023622
 20
0.9038661417322834
 30
0.0
 10
-1.847511811023622
 20
0.9038661417322834
 30
0.0
 10
-1.858031496062992
 20
0.9038661417322834
 30
0.0
 10
-1.866633858267716
 20
0.9184173228346457
 30
0.0
 10
-1.866633858267716
 20
0.936511811023622
 30
0.0
  0
SPLINE
  5
77
330
1F
100
AcDbEntity
  8
Layer 1
 62
     1
370
     9
100
AcDbSpline
210
0.0
220
0.0
230
1.0
 70
    11
 71
     3
 72
    40
 73
    36
 74
     0
 42
0.0000000001
 43
0.0000000001
 40
0.0
 40
0.0
 40
0.0
 40
0.0
 40
0.1
 40
0.1
 40
0.1
 40
0.1
 40
0.2
 40
0.2
 40
0.2
 40
0.2
 40
0.3
 40
0.3
 40
0.3
 40
0.3
 40
0.4
 40
0.4
 40
0.4
 40
0.4
 40
0.5
 40
0.5
 40
0.5
 40
0.5
 40
0.6
 40
0.6
 40
0.6
 40
0.6
 40
0.7
 40
0.7
 40
0.7
 40
0.7
 40
0.8
 40
0.8
 40
0.8
 40
0.8
 40
1.0
 40
1.0
 40
1.0
 40
1.0
 10
-2.260318897637795
 20
0.4583779527559055
 30
0.0
 10
-2.366228346456693
 20
0.5035511811023622
 30
0.0
 10
-2.448984251968504
 20
0.5927834645669291
 30
0.0
 10
-2.540330708661418
 20
0.6606811023622047
 30
0.0
 10
-2.540330708661418
 20
0.6606811023622047
 30
0.0
 10
-2.633929133858268
 20
0.7303661417322834
 30
0.0
 10
-2.735681102362205
 20
0.7895866141732284
 30
0.0
 10
-2.848531496062992
 20
0.8217204724409449
 30
0.0
 10
-2.848531496062992
 20
0.8217204724409449
 30
0.0
 10
-2.848531496062992
 20
0.8217204724409449
 30
0.0
 10
-2.848531496062992
 20
0.9072598425196851
 30
0.0
 10
-2.848531496062992
 20
0.9072598425196851
 30
0.0
 10
-2.848531496062992
 20
0.9072598425196851
 30
0.0
 10
-2.848531496062992
 20
0.9072598425196851
 30
0.0
 10
-2.62840157480315
 20
0.9072598425196851
 30
0.0
 10
-2.62840157480315
 20
0.9072598425196851
 30
0.0
 10
-2.62840157480315
 20
0.9072598425196851
 30
0.0
 10
-2.62840157480315
 20
0.9072598425196851
 30
0.0
 10
-1.97886220472441
 20
0.5577677165354331
 30
0.0
 10
-1.97886220472441
 20
0.5577677165354331
 30
0.0
 10
-1.97886220472441
 20
0.5577677165354331
 30
0.0
 10
-1.97348031496063
 20
0.5383503937007874
 30
0.0
 10
-1.961196850393701
 20
0.5218346456692914
 30
0.0
 10
-1.944814960629921
 20
0.511003937007874
 30
0.0
 10
-1.944814960629921
 20
0.511003937007874
 30
0.0
 10
-1.944814960629921
 20
0.511003937007874
 30
0.0
 10
-1.944814960629921
 20
0.429748031496063
 30
0.0
 10
-1.944814960629921
 20
0.429748031496063
 30
0.0
 10
-1.944814960629921
 20
0.429748031496063
 30
0.0
 10
-1.981326771653543
 20
0.4215275590551181
 30
0.0
 10
-2.019311023622047
 20
0.4171771653543307
 30
0.0
 10
-2.058318897637795
 20
0.4171771653543307
 30
0.0
 10
-2.058318897637795
 20
0.4171771653543307
 30
0.0
 10
-2.127708661417323
 20
0.4171771653543307
 30
0.0
 10
-2.1965
 20
0.4312283464566929
 30
0.0
 10
-2.260318897637795
 20
0.4583779527559055
 30
0.0
  0
SPLINE
  5
78
330
1F
100
AcDbEntity
  8
Layer 1
 62
     1
370
     9
100
AcDbSpline
210
0.0
220
0.0
230
1.0
 70
    11
 71
     3
 72
    40
 73
    36
 74
     0
 42
0.0000000001
 43
0.0000000001
 40
0.0
 40
0.0
 40
0.0
 40
0.0
 40
0.1
 40
0.1
 40
0.1
 40
0.1
 40
0.2
 40
0.2
 40
0.2
 40
0.2
 40
0.3
 40
0.3
 40
0.3
 40
0.3
 40
0.4
 40
0.4
 40
0.4
 40
0.4
 40
0.5
 40
0.5
 40
0.5
 40
0.5
 40
0.6
 40
0.6
 40
0.6
 40
0.6
 40
0.7
 40
0.7
 40
0.7
 40
0.7
 40
0.8
 40
0.8
 40
0.8
 40
0.8
 40
1.0
 40
1.0
 40
1.0
 40
1.0
 10
-2.848531496062992
 20
0.9719015748031496
 30
0.0
 10
-2.848531496062992
 20
0.9719015748031496
 30
0.0
 10
-2.848531496062992
 20
1.03736220472441
 30
0.0
 10
-2.848531496062992
 20
1.03736220472441
 30
0.0
 10
-2.848531496062992
 20
1.03736220472441
 30
0.0
 10
-2.735681102362205
 20
1.069496062992126
 30
0.0
 10
-2.633929133858268
 20
1.128720472440945
 30
0.0
 10
-2.540330708661418
 20
1.19840157480315
 30
0.0
 10
-2.540330708661418
 20
1.19840157480315
 30
0.0
 10
-2.448984251968504
 20
1.266377952755906
 30
0.0
 10
-2.366228346456693
 20
1.355610236220472
 30
0.0
 10
-2.260318897637795
 20
1.400712598425197
 30
0.0
 10
-2.260318897637795
 20
1.400712598425197
 30
0.0
 10
-2.1965
 20
1.427885826771653
 30
0.0
 10
-2.127708661417323
 20
1.441905511811024
 30
0.0
 10
-2.058318897637795
 20
1.441905511811024
 30
0.0
 10
-2.058318897637795
 20
1.441905511811024
 30
0.0
 10
-2.019066929133858
 20
1.441905511811024
 30
0.0
 10
-1.980850393700787
 20
1.4375
 30
0.0
 10
-1.944125984251968
 20
1.429185039370079
 30
0.0
 10
-1.944125984251968
 20
1.429185039370079
 30
0.0
 10
-1.944125984251968
 20
1.429185039370079
 30
0.0
 10
-1.944125984251968
 20
1.354503937007874
 30
0.0
 10
-1.944125984251968
 20
1.354503937007874
 30
0.0
 10
-1.944125984251968
 20
1.354503937007874
 30
0.0
 10
-1.961149606299213
 20
1.343492125984252
 30
0.0
 10
-1.973854330708661
 20
1.32638188976378
 30
0.0
 10
-1.979145669291339
 20
1.306244094488189
 30
0.0
 10
-1.979145669291339
 20
1.306244094488189
 30
0.0
 10
-1.979145669291339
 20
1.306244094488189
 30
0.0
 10
-2.628551181102362
 20
0.9719015748031496
 30
0.0
 10
-2.628551181102362
 20
0.9719015748031496
 30
0.0
 10
-2.628551181102362
 20
0.9719015748031496
 30
0.0
 10
-2.628551181102362
 20
0.9719015748031496
 30
0.0
 10
-2.848531496062992
 20
0.9719015748031496
 30
0.0
 10
-2.848531496062992
 20
0.9719015748031496
 30
0.0
  0
SPLINE
  5
79
330
1F
100
AcDbEntity
  8
Layer 1
 62
     1
370
     9
100
AcDbSpline
210
0.0
220
0.0
230
1.0
 70
    11
 71
     3
 72
    68
 73
    64
 74
     0
 42
0.0000000001
 43
0.0000000001
 40
0.0
 40
0.0
 40
0.0
 40
0.0
 40
0.0588235294117647
 40
0.0588235294117647
 40
0.0588235294117647
 40
0.0588235294117647
 40
0.1176470588235294
 40
0.1176470588235294
 40
0.1176470588235294
 40
0.1176470588235294
 40
0.1764705882352941
 40
0.1764705882352941
 40
0.1764705882352941
 40
0.1764705882352941
 40
0.2352941176470588
 40
0.2352941176470588
 40
0.2352941176470588
 40
0.2352941176470588
 40
0.2941176470588235
 40
0.2941176470588235
 40
0.2941176470588235
 40
0.2941176470588235
 40
0.3529411764705883
 40
0.3529411764705883
 40
0.3529411764705883
 40
0.3529411764705883
 40
0.4117647058823529
 40
0.4117647058823529
 40
0.4117647058823529
 40
0.4117647058823529
 40
0.4705882352941176
 40
0.4705882352941176
 40
0.4705882352941176
 40
0.4705882352941176
 40
0.5294117647058824
 40
0.5294117647058824
 40
0.5294117647058824
 40
0.5294117647058824
 40
0.5882352941176471
 40
0.5882352941176471
 40
0.5882352941176471
 40
0.5882352941176471
 40
0.6470588235294118
 40
0.6470588235294118
 40
0.6470588235294118
 40
0.6470588235294118
 40
0.7058823529411765
 40
0.7058823529411765
 40
0.7058823529411765
 40
0.7058823529411765
 40
0.7647058823529411
 40
0.7647058823529411
 40
0.7647058823529411
 40
0.7647058823529411
 40
0.8235294117647058
 40
0.8235294117647058
 40
0.8235294117647058
 40
0.8235294117647058
 40
0.8823529411764706
 40
0.8823529411764706
 40
0.8823529411764706
 40
0.8823529411764706
 40
1.0
 40
1.0
 40
1.0
 40
1.0
 10
-1.879456692913386
 20
1.40996062992126
 30
0.0
 10
-1.68492125984252
 20
1.337889763779528
 30
0.0
 10
-1.54588188976378
 20
1.151653543307087
 30
0.0
 10
-1.543417322834646
 20
0.9325314960629921
 30
0.0
 10
-1.543417322834646
 20
0.9325314960629921
 30
0.0
 10
-1.543417322834646
 20
0.9325314960629921
 30
0.0
 10
-1.54303937007874
 20
0.9326062992125984
 30
0.0
 10
-1.54303937007874
 20
0.9326062992125984
 30
0.0
 10
-1.54303937007874
 20
0.9326062992125984
 30
0.0
 10
-1.54303937007874
 20
0.9326062992125984
 30
0.0
 10
-1.543153543307087
 20
0.9295866141732283
 30
0.0
 10
-1.543153543307087
 20
0.9295866141732283
 30
0.0
 10
-1.543153543307087
 20
0.9295866141732283
 30
0.0
 10
-1.543153543307087
 20
0.9295866141732283
 30
0.0
 10
-1.54303937007874
 20
0.9264803149606299
 30
0.0
 10
-1.54303937007874
 20
0.9264803149606299
 30
0.0
 10
-1.54303937007874
 20
0.9264803149606299
 30
0.0
 10
-1.54303937007874
 20
0.9264803149606299
 30
0.0
 10
-1.543417322834646
 20
0.9265551181102363
 30
0.0
 10
-1.543417322834646
 20
0.9265551181102363
 30
0.0
 10
-1.543417322834646
 20
0.9265551181102363
 30
0.0
 10
-1.545885826771654
 20
0.7072322834645669
 30
0.0
 10
-1.685244094488189
 20
0.5207795275590551
 30
0.0
 10
-1.880133858267717
 20
0.4488700787401575
 30
0.0
 10
-1.880133858267717
 20
0.4488700787401575
 30
0.0
 10
-1.880133858267717
 20
0.4488700787401575
 30
0.0
 10
-1.880133858267717
 20
0.4996102362204725
 30
0.0
 10
-1.880133858267717
 20
0.4996102362204725
 30
0.0
 10
-1.880133858267717
 20
0.4996102362204725
 30
0.0
 10
-1.843795275590551
 20
0.5082519685039371
 30
0.0
 10
-1.816803149606299
 20
0.5408661417322834
 30
0.0
 10
-1.816803149606299
 20
0.5798976377952756
 30
0.0
 10
-1.816803149606299
 20
0.5798976377952756
 30
0.0
 10
-1.816803149606299
 20
0.6188503937007874
 30
0.0
 10
-1.843795275590551
 20
0.6515196850393701
 30
0.0
 10
-1.880133858267717
 20
0.6601732283464566
 30
0.0
 10
-1.880133858267717
 20
0.6601732283464566
 30
0.0
 10
-1.880133858267717
 20
0.6601732283464566
 30
0.0
 10
-1.880133858267717
 20
0.8582204724409449
 30
0.0
 10
-1.880133858267717
 20
0.8582204724409449
 30
0.0
 10
-1.880133858267717
 20
0.8582204724409449
 30
0.0
 10
-1.843795275590551
 20
0.8668740157480315
 30
0.0
 10
-1.816803149606299
 20
0.8995354330708661
 30
0.0
 10
-1.816803149606299
 20
0.938492125984252
 30
0.0
 10
-1.816803149606299
 20
0.938492125984252
 30
0.0
 10
-1.816803149606299
 20
0.977259842519685
 30
0.0
 10
-1.843464566929134
 20
1.009759842519685
 30
0.0
 10
-1.879456692913386
 20
1.018657480314961
 30
0.0
 10
-1.879456692913386
 20
1.018657480314961
 30
0.0
 10
-1.879456692913386
 20
1.018657480314961
 30
0.0
 10
-1.879456692913386
 20
1.205051181102362
 30
0.0
 10
-1.879456692913386
 20
1.205051181102362
 30
0.0
 10
-1.879456692913386
 20
1.205051181102362
 30
0.0
 10
-1.843464566929134
 20
1.213948818897638
 30
0.0
 10
-1.816803149606299
 20
1.246444881889764
 30
0.0
 10
-1.816803149606299
 20
1.285165354330709
 30
0.0
 10
-1.816803149606299
 20
1.285165354330709
 30
0.0
 10
-1.816803149606299
 20
1.323948818897638
 30
0.0
 10
-1.843464566929134
 20
1.356397637795276
 30
0.0
 10
-1.879456692913386
 20
1.365283464566929
 30
0.0
 10
-1.879456692913386
 20
1.365283464566929
 30
0.0
 10
-1.879456692913386
 20
1.365283464566929
 30
0.0
 10
-1.879456692913386
 20
1.40996062992126
 30
0.0
 10
-1.879456692913386
 20
1.40996062992126
 30
0.0
  0
SPLINE
  5
7A
330
1F
100
AcDbEntity
  8
Layer 1
 62
     1
370
     9
100
AcDbSpline
210
0.0
220
0.0
230
1.0
 70
    11
 71
     3
 72
    24
 73
    20
 74
     0
 42
0.0000000001
 43
0.0000000001
 40
0.0
 40
0.0
 40
0.0
 40
0.0
 40
0.1666666666666667
 40
0.1666666666666667
 40
0.1666666666666667
 40
0.1666666666666667
 40
0.3333333333333333
 40
0.3333333333333333
 40
0.3333333333333333
 40
0.3333333333333333
 40
0.5
 40
0.5
 40
0.5
 40
0.5
 40
0.6666666666666666
 40
0.6666666666666666
 40
0.6666666666666666
 40
0.6666666666666666
 40
1.0
 40
1.0
 40
1.0
 40
1.0
 10
-1.944125984251968
 20
1.215842519685039
 30
0.0
 10
-1.953582677165354
 20
1.22196062992126
 30
0.0
 10
-1.961700787401575
 20
1.22996062992126
 30
0.0
 10
-1.96796062992126
 20
1.239311023622047
 30
0.0
 10
-1.96796062992126
 20
1.239311023622047
 30
0.0
 10
-1.96796062992126
 20
1.239311023622047
 30
0.0
 10
-2.487283464566929
 20
0.9719015748031496
 30
0.0
 10
-2.487283464566929
 20
0.9719015748031496
 30
0.0
 10
-2.487283464566929
 20
0.9719015748031496
 30
0.0
 10
-2.487283464566929
 20
0.9719015748031496
 30
0.0
 10
-1.974826771653543
 20
0.9719015748031496
 30
0.0
 10
-1.974826771653543
 20
0.9719015748031496
 30
0.0
 10
-1.974826771653543
 20
0.9719015748031496
 30
0.0
 10
-1.968291338582677
 20
0.9866732283464567
 30
0.0
 10
-1.957551181102362
 20
0.9991653543307086
 30
0.0
 10
-1.944125984251968
 20
1.007858267716536
 30
0.0
 10
-1.944125984251968
 20
1.007858267716536
 30
0.0
 10
-1.944125984251968
 20
1.007858267716536
 30
0.0
 10
-1.944125984251968
 20
1.215842519685039
 30
0.0
 10
-1.944125984251968
 20
1.215842519685039
 30
0.0
  0
SPLINE
  5
7B
330
1F
100
AcDbEntity
  8
Layer 1
 62
     1
370
     9
100
AcDbSpline
210
0.0
220
0.0
230
1.0
 70
    11
 71
     3
 72
    24
 73
    20
 74
     0
 42
0.0000000001
 43
0.0000000001
 40
0.0
 40
0.0
 40
0.0
 40
0.0
 40
0.1666666666666667
 40
0.1666666666666667
 40
0.1666666666666667
 40
0.1666666666666667
 40
0.3333333333333333
 40
0.3333333333333333
 40
0.3333333333333333
 40
0.3333333333333333
 40
0.5
 40
0.5
 40
0.5
 40
0.5
 40
0.6666666666666666
 40
0.6666666666666666
 40
0.6666666666666666
 40
0.6666666666666666
 40
1.0
 40
1.0
 40
1.0
 40
1.0
 10
-2.491881889763779
 20
0.9072598425196851
 30
0.0
 10
-2.491881889763779
 20
0.9072598425196851
 30
0.0
 10
-1.968149606299213
 20
0.6254606299212598
 30
0.0
 10
-1.968149606299213
 20
0.6254606299212598
 30
0.0
 10
-1.968149606299213
 20
0.6254606299212598
 30
0.0
 10
-1.962015748031496
 20
0.6347047244094488
 30
0.0
 10
-1.954070866141732
 20
0.6426377952755905
 30
0.0
 10
-1.944814960629921
 20
0.648763779527559
 30
0.0
 10
-1.944814960629921
 20
0.648763779527559
 30
0.0
 10
-1.944814960629921
 20
0.648763779527559
 30
0.0
 10
-1.944814960629921
 20
0.8696299212598425
 30
0.0
 10
-1.944814960629921
 20
0.8696299212598425
 30
0.0
 10
-1.944814960629921
 20
0.8696299212598425
 30
0.0
 10
-1.958562992125984
 20
0.8787244094488189
 30
0.0
 10
-1.96942125984252
 20
0.8918188976377953
 30
0.0
 10
-1.975740157480315
 20
0.9072598425196851
 30
0.0
 10
-1.975740157480315
 20
0.9072598425196851
 30
0.0
 10
-1.975740157480315
 20
0.9072598425196851
 30
0.0
 10
-2.491881889763779
 20
0.9072598425196851
 30
0.0
 10
-2.491881889763779
 20
0.9072598425196851
 30
0.0
  0
SPLINE
  5
7C
330
1F
100
AcDbEntity
  8
Layer 1
 62
     1
370
     9
100
AcDbSpline
210
0.0
220
0.0
230
1.0
 70
    11
 71
     3
 72
    60
 73
    56
 74
     0
 42
0.0000000001
 43
0.0000000001
 40
0.0
 40
0.0
 40
0.0
 40
0.0
 40
0.0666666666666667
 40
0.0666666666666667
 40
0.0666666666666667
 40
0.0666666666666667
 40
0.1333333333333333
 40
0.1333333333333333
 40
0.1333333333333333
 40
0.1333333333333333
 40
0.2
 40
0.2
 40
0.2
 40
0.2
 40
0.2666666666666667
 40
0.2666666666666667
 40
0.2666666666666667
 40
0.2666666666666667
 40
0.3333333333333333
 40
0.3333333333333333
 40
0.3333333333333333
 40
0.3333333333333333
 40
0.4
 40
0.4
 40
0.4
 40
0.4
 40
0.4666666666666667
 40
0.4666666666666667
 40
0.4666666666666667
 40
0.4666666666666667
 40
0.5333333333333333
 40
0.5333333333333333
 40
0.5333333333333333
 40
0.5333333333333333
 40
0.6
 40
0.6
 40
0.6
 40
0.6
 40
0.6666666666666666
 40
0.6666666666666666
 40
0.6666666666666666
 40
0.6666666666666666
 40
0.7333333333333333
 40
0.7333333333333333
 40
0.7333333333333333
 40
0.7333333333333333
 40
0.8
 40
0.8
 40
0.8
 40
0.8
 40
0.8666666666666667
 40
0.8666666666666667
 40
0.8666666666666667
 40
0.8666666666666667
 40
1.0
 40
1.0
 40
1.0
 40
1.0
 10
-1.457996062992126
 20
0.8139448818897638
 30
0.0
 10
-1.457996062992126
 20
0.8139448818897638
 30
0.0
 10
-1.45792125984252
 20
1.044988188976378
 30
0.0
 10
-1.45792125984252
 20
1.044988188976378
 30
0.0
 10
-1.45792125984252
 20
1.044988188976378
 30
0.0
 10
-1.51346062992126
 20
1.325744094488189
 30
0.0
 10
-1.762688976377953
 20
1.538909448818898
 30
0.0
 10
-2.058318897637795
 20
1.538909448818898
 30
0.0
 10
-2.058318897637795
 20
1.538909448818898
 30
0.0
 10
-2.141299212598425
 20
1.538909448818898
 30
0.0
 10
-2.222007874015748
 20
1.522472440944882
 30
0.0
 10
-2.298342519685039
 20
1.489968503937008
 30
0.0
 10
-2.298342519685039
 20
1.489968503937008
 30
0.0
 10
-2.384854330708662
 20
1.45307874015748
 30
0.0
 10
-2.453267716535433
 20
1.39559842519685
 30
0.0
 10
-2.519492125984252
 20
1.339929133858268
 30
0.0
 10
-2.519492125984252
 20
1.339929133858268
 30
0.0
 10
-2.545590551181102
 20
1.317964566929134
 30
0.0
 10
-2.571476377952756
 20
1.29609842519685
 30
0.0
 10
-2.598251968503937
 20
1.276188976377953
 30
0.0
 10
-2.598251968503937
 20
1.276188976377953
 30
0.0
 10
-2.695933070866142
 20
1.203543307086614
 30
0.0
 10
-2.786452755905512
 20
1.155870078740157
 30
0.0
 10
-2.87515748031496
 20
1.13059842519685
 30
0.0
 10
-2.87515748031496
 20
1.13059842519685
 30
0.0
 10
-2.87515748031496
 20
1.13059842519685
 30
0.0
 10
-2.945527559055118
 20
1.110622047244094
 30
0.0
 10
-2.945527559055118
 20
1.110622047244094
 30
0.0
 10
-2.945527559055118
 20
1.110622047244094
 30
0.0
 10
-2.945527559055118
 20
1.110622047244094
 30
0.0
 10
-2.945527559055118
 20
0.7484724409448819
 30
0.0
 10
-2.945527559055118
 20
0.7484724409448819
 30
0.0
 10
-2.945527559055118
 20
0.7484724409448819
 30
0.0
 10
-2.945527559055118
 20
0.7484724409448819
 30
0.0
 10
-2.87515748031496
 20
0.7284881889763779
 30
0.0
 10
-2.87515748031496
 20
0.7284881889763779
 30
0.0
 10
-2.87515748031496
 20
0.7284881889763779
 30
0.0
 10
-2.786452755905512
 20
0.7032165354330708
 30
0.0
 10
-2.695933070866142
 20
0.6556259842519685
 30
0.0
 10
-2.598251968503937
 20
0.5829015748031496
 30
0.0
 10
-2.598251968503937
 20
0.5829015748031496
 30
0.0
 10
-2.571476377952756
 20
0.5629881889763779
 30
0.0
 10
-2.545590551181102
 20
0.5411259842519685
 30
0.0
 10
-2.519492125984252
 20
0.5191574803149607
 30
0.0
 10
-2.519492125984252
 20
0.5191574803149607
 30
0.0
 10
-2.453267716535433
 20
0.4635905511811024
 30
0.0
 10
-2.384854330708662
 20
0.4060354330708661
 30
0.0
 10
-2.298342519685039
 20
0.3691496062992126
 30
0.0
 10
-2.298342519685039
 20
0.3691496062992126
 30
0.0
 10
-2.222007874015748
 20
0.3367165354330708
 30
0.0
 10
-2.141299212598425
 20
0.3201732283464567
 30
0.0
 10
-2.058318897637795
 20
0.3201732283464567
 30
0.0
 10
-2.058318897637795
 20
0.3201732283464567
 30
0.0
 10
-1.762763779527559
 20
0.3201732283464567
 30
0.0
 10
-1.513610236220472
 20
0.5332716535433071
 30
0.0
 10
-1.457996062992126
 20
0.8139448818897638
 30
0.0
  0
ENDSEC
  0
SECTION
  2
OBJECTS
  0
DICTIONARY
  5
C
330
0
100
AcDbDictionary
281
     1
  3
ACAD_GROUP
350
D
  3
ACAD_LAYOUT
350
1A
  3
ACAD_MATERIAL
350
3B
  3
ACAD_MLEADERSTYLE
350
9E
  3
ACAD_MLINESTYLE
350
17
  3
ACAD_PLOTSETTINGS
350
19
  3
ACAD_PLOTSTYLENAME
350
E
  3
ACAD_TABLESTYLE
350
9D
  3
ACAD_VISUALSTYLE
350
2A
  0
DICTIONARY
  5
D
102
{ACAD_REACTORS
330
C
102
}
330
C
100
AcDbDictionary
281
     1
  0
DICTIONARY
  5
1A
102
{ACAD_REACTORS
330
C
102
}
330
C
100
AcDbDictionary
281
     1
  3
Layout1
350
1E
  3
Layout2
350
26
  3
Model
350
22
  0
DICTIONARY
  5
3B
102
{ACAD_REACTORS
330
C
102
}
330
C
100
AcDbDictionary
281
     1
  3
ByBlock
350
3D
  3
ByLayer
350
3C
  3
Global
350
3E
  0
DICTIONARY
  5
9E
102
{ACAD_REACTORS
330
C
102
}
330
C
100
AcDbDictionary
281
     1
  0
DICTIONARY
  5
17
102
{ACAD_REACTORS
330
C
102
}
330
C
100
AcDbDictionary
281
     1
  3
Standard
350
18
  0
DICTIONARY
  5
19
102
{ACAD_REACTORS
330
C
102
}
330
C
100
AcDbDictionary
281
     1
  0
ACDBDICTIONARYWDFLT
  5
E
102
{ACAD_REACTORS
330
C
102
}
330
C
100
AcDbDictionary
281
     1
  3
Normal
350
F
100
AcDbDictionaryWithDefault
340
F
  0
DICTIONARY
  5
9D
102
{ACAD_REACTORS
330
C
102
}
330
C
100
AcDbDictionary
281
     1
  0
DICTIONARY
  5
2A
102
{ACAD_REACTORS
330
C
102
}
330
C
100
AcDbDictionary
281
     1
  3
2dWireframe
350
2F
  3
3D Hidden
350
31
  3
3dWireframe
350
30
  3
Basic
350
32
  3
Brighten
350
36
  3
ColorChange
350
3A
  3
Conceptual
350
34
  3
Dim
350
35
  3
Facepattern
350
39
  3
Flat
350
2B
  3
FlatWithEdges
350
2C
  3
Gouraud
350
2D
  3
GouraudWithEdges
350
2E
  3
Linepattern
350
38
  3
Realistic
350
33
  3
Thicken
350
37
  0
LAYOUT
  5
1E
102
{ACAD_REACTORS
330
1A
102
}
330
1A
100
AcDbPlotSettings
  1

  2
none_device
  4

  6

 40
0.0
 41
0.0
 42
0.0
 43
0.0
 44
0.0
 45
0.0
 46
0.0
 47
0.0
 48
0.0
 49
0.0
140
0.0
141
0.0
142
1.0
143
1.0
 70
   688
 72
     0
 73
     0
 74
     5
  7

 75
    16
 76
     0
 77
     2
 78
   300
147
1.0
148
0.0
149
0.0
100
AcDbLayout
  1
Layout1
 70
     1
 71
     1
 10
0.0
 20
0.0
 11
12.0
 21
9.0
 12
0.0
 22
0.0
 32
0.0
 14
1.000000000000000E+20
 24
1.000000000000000E+20
 34
1.000000000000000E+20
 15
-1.000000000000000E+20
 25
-1.000000000000000E+20
 35
-1.000000000000000E+20
146
0.0
 13
0.0
 23
0.0
 33
0.0
 16
1.0
 26
0.0
 36
0.0
 17
0.0
 27
1.0
 37
0.0
 76
     0
330
1B
  0
LAYOUT
  5
26
102
{ACAD_REACTORS
330
1A
102
}
330
1A
100
AcDbPlotSettings
  1

  2
none_device
  4

  6

 40
0.0
 41
0.0
 42
0.0
 43
0.0
 44
0.0
 45
0.0
 46
0.0
 47
0.0
 48
0.0
 49
0.0
140
0.0
141
0.0
142
1.0
143
1.0
 70
   688
 72
     0
 73
     0
 74
     5
  7

 75
    16
 76
     0
 77
     2
 78
   300
147
1.0
148
0.0
149
0.0
100
AcDbLayout
  1
Layout2
 70
     1
 71
     2
 10
0.0
 20
0.0
 11
0.0
 21
0.0
 12
0.0
 22
0.0
 32
0.0
 14
0.0
 24
0.0
 34
0.0
 15
0.0
 25
0.0
 35
0.0
146
0.0
 13
0.0
 23
0.0
 33
0.0
 16
1.0
 26
0.0
 36
0.0
 17
0.0
 27
1.0
 37
0.0
 76
     0
330
23
  0
LAYOUT
  5
22
102
{ACAD_REACTORS
330
1A
102
}
330
1A
100
AcDbPlotSettings
  1

  2
none_device
  4

  6

 40
0.0
 41
0.0
 42
0.0
 43
0.0
 44
0.0
 45
0.0
 46
0.0
 47
0.0
 48
0.0
 49
0.0
140
0.0
141
0.0
142
1.0
143
1.0
 70
  1712
 72
     0
 73
     0
 74
     0
  7

 75
     0
 76
     0
 77
     2
 78
   300
147
1.0
148
0.0
149
0.0
100
AcDbLayout
  1
Model
 70
     1
 71
     0
 10
0.0
 20
0.0
 11
12.0
 21
9.0
 12
0.0
 22
0.0
 32
0.0
 14
-3.993074803149606
 24
-4.247755905511811
 34
0.0
 15
2.452291338582677
 25
4.922881889763779
 35
0.0
146
0.0
 13
0.0
 23
0.0
 33
0.0
 16
1.0
 26
0.0
 36
0.0
 17
0.0
 27
1.0
 37
0.0
 76
     0
330
1F
331
29
  0
MATERIAL
  5
3D
102
{ACAD_REACTORS
330
3B
102
}
330
3B
100
AcDbMaterial
  1
ByBlock
 72
     1
 94
      127
  0
MATERIAL
  5
3C
102
{ACAD_REACTORS
330
3B
102
}
330
3B
100
AcDbMaterial
  1
ByLayer
 72
     1
 94
      127
  0
MATERIAL
  5
3E
102
{ACAD_REACTORS
330
3B
102
}
330
3B
100
AcDbMaterial
  1
Global
 72
     1
 94
      127
  0
MLINESTYLE
  5
18
102
{ACAD_REACTORS
330
17
102
}
330
17
100
AcDbMlineStyle
  2
Standard
 70
     0
  3

 62
   256
 51
90.0
 52
90.0
 71
     2
 49
0.5
 62
   256
  6
BYLAYER
 49
-0.5
 62
   256
  6
BYLAYER
  0
ACDBPLACEHOLDER
  5
F
102
{ACAD_REACTORS
330
E
102
}
330
E
  0
VISUALSTYLE
  5
2F
102
{ACAD_REACTORS
330
2A
102
}
102
{ACAD_XDICTIONARY
360
85
102
}
330
2A
100
AcDbVisualStyle
  2
2dWireframe
 70
     4
 71
     0
 72
     2
 73
     0
 90
        0
 40
-0.6
 41
-30.0
 62
     5
 63
     7
421
 16777215
 74
     1
 91
        4
 64
     7
 65
   257
 75
     1
175
     1
 42
1.0
 92
        0
 66
   257
 43
1.0
 76
     1
 77
     6
 78
     2
 67
     7
 79
     5
170
     0
171
     0
290
     0
174
     0
 93
        1
 44
0.0
173
     0
291
     0
 45
0.0
  0
VISUALSTYLE
  5
31
102
{ACAD_REACTORS
330
2A
102
}
102
{ACAD_XDICTIONARY
360
89
102
}
330
2A
100
AcDbVisualStyle
  2
3D Hidden
 70
     6
 71
     1
 72
     2
 73
     2
 90
        0
 40
-0.6
 41
-30.0
 62
     5
 63
     7
421
 16777215
 74
     2
 91
        2
 64
     7
 65
   257
 75
     2
175
     1
 42
40.0
 92
        0
 66
   257
 43
1.0
 76
     1
 77
     6
 78
     2
 67
     7
 79
     3
170
     0
171
     0
290
     0
174
     0
 93
        1
 44
0.0
173
     0
291
     0
 45
0.0
  0
VISUALSTYLE
  5
30
102
{ACAD_REACTORS
330
2A
102
}
102
{ACAD_XDICTIONARY
360
87
102
}
330
2A
100
AcDbVisualStyle
  2
3dWireframe
 70
     5
 71
     0
 72
     2
 73
     0
 90
        0
 40
-0.6
 41
-30.0
 62
     5
 63
     7
421
 16777215
 74
     1
 91
        4
 64
     7
 65
   257
 75
     1
175
     1
 42
1.0
 92
        0
 66
   257
 43
1.0
 76
     1
 77
     6
 78
     2
 67
     7
 79
     5
170
     0
171
     0
290
     0
174
     0
 93
        1
 44
0.0
173
     0
291
     0
 45
0.0
  0
VISUALSTYLE
  5
32
102
{ACAD_REACTORS
330
2A
102
}
102
{ACAD_XDICTIONARY
360
8B
102
}
330
2A
100
AcDbVisualStyle
  2
Basic
 70
     7
 71
     1
 72
     0
 73
     1
 90
        0
 40
-0.6
 41
-30.0
 62
     5
 63
     7
421
 16777215
 74
     0
 91
        4
 64
     7
 65
   257
 75
     1
175
     1
 42
1.0
 92
        8
 66
     7
 43
1.0
 76
     1
 77
     6
 78
     2
 67
     7
 79
     5
170
     0
171
     0
290
     0
174
     0
 93
        1
 44
0.0
173
     0
291
     1
 45
0.0
  0
VISUALSTYLE
  5
36
102
{ACAD_REACTORS
330
2A
102
}
102
{ACAD_XDICTIONARY
360
93
102
}
330
2A
100
AcDbVisualStyle
  2
Brighten
 70
    12
 71
     2
 72
     2
 73
     0
 90
        0
 40
-0.6
 41
-30.0
 62
     5
 63
     7
421
 16777215
 74
     1
 91
        4
 64
     7
 65
   257
 75
     1
175
     1
 42
1.0
 92
        8
 66
     7
 43
1.0
 76
     1
 77
     6
 78
     2
 67
     7
 79
     5
170
     0
171
     0
290
     0
174
     0
 93
        1
 44
50.0
173
     0
291
     1
 45
0.0
  0
VISUALSTYLE
  5
3A
102
{ACAD_REACTORS
330
2A
102
}
102
{ACAD_XDICTIONARY
360
9B
102
}
330
2A
100
AcDbVisualStyle
  2
ColorChange
 70
    16
 71
     2
 72
     2
 73
     3
 90
        0
 40
-0.6
 41
-30.0
 62
     5
 63
     8
421
  8421504
 74
     1
 91
        4
 64
     7
 65
   257
 75
     1
175
     1
 42
1.0
 92
        8
 66
     8
424
  8421504
 43
1.0
 76
     1
 77
     6
 78
     2
 67
     7
 79
     5
170
     0
171
     0
290
     0
174
     0
 93
        1
 44
0.0
173
     0
291
     1
 45
0.0
  0
VISUALSTYLE
  5
34
102
{ACAD_REACTORS
330
2A
102
}
102
{ACAD_XDICTIONARY
360
8F
102
}
330
2A
100
AcDbVisualStyle
  2
Conceptual
 70
     9
 71
     3
 72
     2
 73
     0
 90
        0
 40
-0.6
 41
-30.0
 62
     5
 63
     7
421
 16777215
 74
     2
 91
        2
 64
     7
 65
   257
 75
     1
175
     1
 42
40.0
 92
        8
 66
     7
 43
1.0
 76
     1
 77
     6
 78
     2
 67
     7
 79
     3
170
     0
171
     0
290
     0
174
     0
 93
        1
 44
0.0
173
     0
291
     0
 45
0.0
  0
VISUALSTYLE
  5
35
102
{ACAD_REACTORS
330
2A
102
}
102
{ACAD_XDICTIONARY
360
91
102
}
330
2A
100
AcDbVisualStyle
  2
Dim
 70
    11
 71
     2
 72
     2
 73
     0
 90
        0
 40
-0.6
 41
-30.0
 62
     5
 63
     7
421
 16777215
 74
     1
 91
        4
 64
     7
 65
   257
 75
     1
175
     1
 42
1.0
 92
        8
 66
     7
 43
1.0
 76
     1
 77
     6
 78
     2
 67
     7
 79
     5
170
     0
171
     0
290
     0
174
     0
 93
        1
 44
-50.0
173
     0
291
     1
 45
0.0
  0
VISUALSTYLE
  5
39
102
{ACAD_REACTORS
330
2A
102
}
102
{ACAD_XDICTIONARY
360
99
102
}
330
2A
100
AcDbVisualStyle
  2
Facepattern
 70
    15
 71
     2
 72
     2
 73
     0
 90
        0
 40
-0.6
 41
-30.0
 62
     5
 63
     7
421
 16777215
 74
     1
 91
        4
 64
     7
 65
   257
 75
     1
175
     1
 42
1.0
 92
        8
 66
     7
 43
1.0
 76
     1
 77
     6
 78
     2
 67
     7
 79
     5
170
     0
171
     0
290
     0
174
     0
 93
        1
 44
0.0
173
     0
291
     1
 45
0.0
  0
VISUALSTYLE
  5
2B
102
{ACAD_REACTORS
330
2A
102
}
102
{ACAD_XDICTIONARY
360
7D
102
}
330
2A
100
AcDbVisualStyle
  2
Flat
 70
     0
 71
     2
 72
     1
 73
     1
 90
        2
 40
-0.6
 41
30.0
 62
     5
 63
     7
421
 16777215
 74
     0
 91
        4
 64
     7
 65
   257
 75
     1
175
     1
 42
1.0
 92
        8
 66
     7
 43
1.0
 76
     1
 77
     6
 78
     2
 67
     7
 79
     5
170
     0
171
     0
290
     0
174
     0
 93
       13
 44
0.0
173
     0
291
     1
 45
0.0
  0
VISUALSTYLE
  5
2C
102
{ACAD_REACTORS
330
2A
102
}
102
{ACAD_XDICTIONARY
360
7F
102
}
330
2A
100
AcDbVisualStyle
  2
FlatWithEdges
 70
     1
 71
     2
 72
     1
 73
     1
 90
        2
 40
-0.6
 41
30.0
 62
     5
 63
     7
421
 16777215
 74
     1
 91
        4
 64
     7
 65
   257
 75
     1
175
     1
 42
1.0
 92
        0
 66
   257
 43
1.0
 76
     1
 77
     6
 78
     2
 67
     7
 79
     5
170
     0
171
     0
290
     0
174
     0
 93
       13
 44
0.0
173
     0
291
     1
 45
0.0
  0
VISUALSTYLE
  5
2D
102
{ACAD_REACTORS
330
2A
102
}
102
{ACAD_XDICTIONARY
360
81
102
}
330
2A
100
AcDbVisualStyle
  2
Gouraud
 70
     2
 71
     2
 72
     2
 73
     1
 90
        2
 40
-0.6
 41
30.0
 62
     5
 63
     7
421
 16777215
 74
     0
 91
        4
 64
     7
 65
   257
 75
     1
175
     1
 42
1.0
 92
        0
 66
     7
 43
1.0
 76
     1
 77
     6
 78
     2
 67
     7
 79
     5
170
     0
171
     0
290
     0
174
     0
 93
       13
 44
0.0
173
     0
291
     1
 45
0.0
  0
VISUALSTYLE
  5
2E
102
{ACAD_REACTORS
330
2A
102
}
102
{ACAD_XDICTIONARY
360
83
102
}
330
2A
100
AcDbVisualStyle
  2
GouraudWithEdges
 70
     3
 71
     2
 72
     2
 73
     1
 90
        2
 40
-0.6
 41
30.0
 62
     5
 63
     7
421
 16777215
 74
     1
 91
        4
 64
     7
 65
   257
 75
     1
175
     1
 42
1.0
 92
        0
 66
   257
 43
1.0
 76
     1
 77
     6
 78
     2
 67
     7
 79
     5
170
     0
171
     0
290
     0
174
     0
 93
       13
 44
0.0
173
     0
291
     1
 45
0.0
  0
VISUALSTYLE
  5
38
102
{ACAD_REACTORS
330
2A
102
}
102
{ACAD_XDICTIONARY
360
97
102
}
330
2A
100
AcDbVisualStyle
  2
Linepattern
 70
    14
 71
     2
 72
     2
 73
     0
 90
        0
 40
-0.6
 41
-30.0
 62
     5
 63
     7
421
 16777215
 74
     1
 91
        4
 64
     7
 65
   257
 75
     7
175
     7
 42
1.0
 92
        8
 66
     7
 43
1.0
 76
     1
 77
     6
 78
     2
 67
     7
 79
     5
170
     0
171
     0
290
     0
174
     0
 93
        1
 44
0.0
173
     0
291
     1
 45
0.0
  0
VISUALSTYLE
  5
33
102
{ACAD_REACTORS
330
2A
102
}
102
{ACAD_XDICTIONARY
360
8D
102
}
330
2A
100
AcDbVisualStyle
  2
Realistic
 70
     8
 71
     2
 72
     2
 73
     0
 90
        0
 40
-0.6
 41
-30.0
 62
     5
 63
     7
421
 16777215
 74
     1
 91
        0
 64
     7
 65
   257
 75
     1
175
     1
 42
1.0
 92
        8
 66
     8
424
  7895160
 43
1.0
 76
     1
 77
     6
 78
     2
 67
     7
 79
     5
170
     0
171
     0
290
     0
174
     0
 93
       13
 44
0.0
173
     0
291
     0
 45
0.0
  0
VISUALSTYLE
  5
37
102
{ACAD_REACTORS
330
2A
102
}
102
{ACAD_XDICTIONARY
360
95
102
}
330
2A
100
AcDbVisualStyle
  2
Thicken
 70
    13
 71
     2
 72
     2
 73
     0
 90
        0
 40
-0.6
 41
-30.0
 62
     5
 63
     7
421
 16777215
 74
     1
 91
        4
 64
     7
 65
   257
 75
     1
175
     1
 42
1.0
 92
       12
 66
     7
 43
1.0
 76
     1
 77
     6
 78
     2
 67
     7
 79
     5
170
     0
171
     0
290
     0
174
     0
 93
        1
 44
0.0
173
     0
291
     1
 45
0.0
  0
DICTIONARY
  5
85
330
2F
100
AcDbDictionary
280
     1
281
     1
  3
ACAD_XREC_ROUNDTRIP
360
86
  0
DICTIONARY
  5
89
330
31
100
AcDbDictionary
280
     1
281
     1
  3
ACAD_XREC_ROUNDTRIP
360
8A
  0
DICTIONARY
  5
87
330
30
100
AcDbDictionary
280
     1
281
     1
  3
ACAD_XREC_ROUNDTRIP
360
88
  0
DICTIONARY
  5
8B
330
32
100
AcDbDictionary
280
     1
281
     1
  3
ACAD_XREC_ROUNDTRIP
360
8C
  0
DICTIONARY
  5
93
330
36
100
AcDbDictionary
280
     1
281
     1
  3
ACAD_XREC_ROUNDTRIP
360
94
  0
DICTIONARY
  5
9B
330
3A
100
AcDbDictionary
280
     1
281
     1
  3
ACAD_XREC_ROUNDTRIP
360
9C
  0
DICTIONARY
  5
8F
330
34
100
AcDbDictionary
280
     1
281
     1
  3
ACAD_XREC_ROUNDTRIP
360
90
  0
DICTIONARY
  5
91
330
35
100
AcDbDictionary
280
     1
281
     1
  3
ACAD_XREC_ROUNDTRIP
360
92
  0
DICTIONARY
  5
99
330
39
100
AcDbDictionary
280
     1
281
     1
  3
ACAD_XREC_ROUNDTRIP
360
9A
  0
DICTIONARY
  5
7D
330
2B
100
AcDbDictionary
280
     1
281
     1
  3
ACAD_XREC_ROUNDTRIP
360
7E
  0
DICTIONARY
  5
7F
330
2C
100
AcDbDictionary
280
     1
281
     1
  3
ACAD_XREC_ROUNDTRIP
360
80
  0
DICTIONARY
  5
81
330
2D
100
AcDbDictionary
280
     1
281
     1
  3
ACAD_XREC_ROUNDTRIP
360
82
  0
DICTIONARY
  5
83
330
2E
100
AcDbDictionary
280
     1
281
     1
  3
ACAD_XREC_ROUNDTRIP
360
84
  0
DICTIONARY
  5
97
330
38
100
AcDbDictionary
280
     1
281
     1
  3
ACAD_XREC_ROUNDTRIP
360
98
  0
DICTIONARY
  5
8D
330
33
100
AcDbDictionary
280
     1
281
     1
  3
ACAD_XREC_ROUNDTRIP
360
8E
  0
DICTIONARY
  5
95
330
37
100
AcDbDictionary
280
     1
281
     1
  3
ACAD_XREC_ROUNDTRIP
360
96
  0
XRECORD
  5
86
102
{ACAD_REACTORS
330
85
102
}
330
85
100
AcDbXrecord
280
     1
102
RTVSPropertyOp0
 70
     1
102
RTVSPropertyOp1
 70
     1
102
RTVSPropertyOp2
 70
     1
102
RTVSPropertyOp3
 70
     1
102
RTVSPropertyOp4
 70
     1
102
RTVSPropertyOp5
 70
     1
102
RTVSPropertyOp6
 70
     1
102
RTVSPropertyOp7
 70
     1
102
RTVSPropertyOp8
 70
     1
102
RTVSPropertyOp9
 70
     1
102
RTVSPropertyOp10
 70
     1
102
RTVSPropertyOp11
 70
     1
102
RTVSPropertyOp12
 70
     1
102
RTVSPropertyOp13
 70
     1
102
RTVSPropertyOp14
 70
     1
102
RTVSPropertyOp15
 70
     1
102
RTVSPropertyOp16
 70
     1
102
RTVSPropertyOp17
 70
     1
102
RTVSPropertyOp18
 70
     1
102
RTVSPropertyOp19
 70
     1
102
RTVSPropertyOp20
 70
     1
102
RTVSPropertyOp21
 70
     1
102
RTVSPropertyOp22
 70
     1
102
RTVSPropertyOp23
 70
     1
102
RTVSPropertyOp24
 70
     1
102
RTVSPropertyOp25
 70
     1
102
RTVSPropertyOp26
 70
     1
102
RTVSPropertyOp27
 70
     1
  0
XRECORD
  5
8A
102
{ACAD_REACTORS
330
89
102
}
330
89
100
AcDbXrecord
280
     1
102
RTVSPropertyOp0
 70
     1
102
RTVSPropertyOp1
 70
     1
102
RTVSPropertyOp2
 70
     1
102
RTVSPropertyOp3
 70
     1
102
RTVSPropertyOp4
 70
     1
102
RTVSPropertyOp5
 70
     1
102
RTVSPropertyOp6
 70
     1
102
RTVSPropertyOp7
 70
     1
102
RTVSPropertyOp8
 70
     1
102
RTVSPropertyOp9
 70
     1
102
RTVSPropertyOp10
 70
     1
102
RTVSPropertyOp11
 70
     1
102
RTVSPropertyOp12
 70
     1
102
RTVSPropertyOp13
 70
     1
102
RTVSPropertyOp14
 70
     1
102
RTVSPropertyOp15
 70
     1
102
RTVSPropertyOp16
 70
     1
102
RTVSPropertyOp17
 70
     1
102
RTVSPropertyOp18
 70
     1
102
RTVSPropertyOp19
 70
     1
102
RTVSPropertyOp20
 70
     1
102
RTVSPropertyOp21
 70
     1
102
RTVSPropertyOp22
 70
     1
102
RTVSPropertyOp23
 70
     1
102
RTVSPropertyOp24
 70
     1
102
RTVSPropertyOp25
 70
     1
102
RTVSPropertyOp26
 70
     1
102
RTVSPropertyOp27
 70
     1
  0
XRECORD
  5
88
102
{ACAD_REACTORS
330
87
102
}
330
87
100
AcDbXrecord
280
     1
102
RTVSPropertyOp0
 70
     1
102
RTVSPropertyOp1
 70
     1
102
RTVSPropertyOp2
 70
     1
102
RTVSPropertyOp3
 70
     1
102
RTVSPropertyOp4
 70
     1
102
RTVSPropertyOp5
 70
     1
102
RTVSPropertyOp6
 70
     1
102
RTVSPropertyOp7
 70
     1
102
RTVSPropertyOp8
 70
     1
102
RTVSPropertyOp9
 70
     1
102
RTVSPropertyOp10
 70
     1
102
RTVSPropertyOp11
 70
     1
102
RTVSPropertyOp12
 70
     1
102
RTVSPropertyOp13
 70
     1
102
RTVSPropertyOp14
 70
     1
102
RTVSPropertyOp15
 70
     1
102
RTVSPropertyOp16
 70
     1
102
RTVSPropertyOp17
 70
     1
102
RTVSPropertyOp18
 70
     1
102
RTVSPropertyOp19
 70
     1
102
RTVSPropertyOp20
 70
     1
102
RTVSPropertyOp21
 70
     1
102
RTVSPropertyOp22
 70
     1
102
RTVSPropertyOp23
 70
     1
102
RTVSPropertyOp24
 70
     1
102
RTVSPropertyOp25
 70
     1
102
RTVSPropertyOp26
 70
     1
102
RTVSPropertyOp27
 70
     1
  0
XRECORD
  5
8C
102
{ACAD_REACTORS
330
8B
102
}
330
8B
100
AcDbXrecord
280
     1
102
RTVSPropertyOp0
 70
     1
102
RTVSPropertyOp1
 70
     1
102
RTVSPropertyOp2
 70
     1
102
RTVSPropertyOp3
 70
     1
102
RTVSPropertyOp4
 70
     1
102
RTVSPropertyOp5
 70
     1
102
RTVSPropertyOp6
 70
     1
102
RTVSPropertyOp7
 70
     1
102
RTVSPropertyOp8
 70
     1
102
RTVSPropertyOp9
 70
     1
102
RTVSPropertyOp10
 70
     1
102
RTVSPropertyOp11
 70
     1
102
RTVSPropertyOp12
 70
     1
102
RTVSPropertyOp13
 70
     1
102
RTVSPropertyOp14
 70
     1
102
RTVSPropertyOp15
 70
     1
102
RTVSPropertyOp16
 70
     1
102
RTVSPropertyOp17
 70
     1
102
RTVSPropertyOp18
 70
     1
102
RTVSPropertyOp19
 70
     1
102
RTVSPropertyOp20
 70
     1
102
RTVSPropertyOp21
 70
     1
102
RTVSPropertyOp22
 70
     1
102
RTVSPropertyOp23
 70
     1
102
RTVSPropertyOp24
 70
     1
102
RTVSPropertyOp25
 70
     1
102
RTVSPropertyOp26
 70
     1
102
RTVSPropertyOp27
 70
     1
  0
XRECORD
  5
94
102
{ACAD_REACTORS
330
93
102
}
330
93
100
AcDbXrecord
280
     1
102
RTVSPropertyOp0
 70
     1
102
RTVSPropertyOp1
 70
     1
102
RTVSPropertyOp2
 70
     1
102
RTVSPropertyOp3
 70
     1
102
RTVSPropertyOp4
 70
     1
102
RTVSPropertyOp5
 70
     1
102
RTVSPropertyOp6
 70
     1
102
RTVSPropertyOp7
 70
     1
102
RTVSPropertyOp8
 70
     1
102
RTVSPropertyOp9
 70
     1
102
RTVSPropertyOp10
 70
     1
102
RTVSPropertyOp11
 70
     1
102
RTVSPropertyOp12
 70
     1
102
RTVSPropertyOp13
 70
     1
102
RTVSPropertyOp14
 70
     1
102
RTVSPropertyOp15
 70
     1
102
RTVSPropertyOp16
 70
     1
102
RTVSPropertyOp17
 70
     1
102
RTVSPropertyOp18
 70
     1
102
RTVSPropertyOp19
 70
     1
102
RTVSPropertyOp20
 70
     1
102
RTVSPropertyOp21
 70
     1
102
RTVSPropertyOp22
 70
     1
102
RTVSPropertyOp23
 70
     1
102
RTVSPropertyOp24
 70
     1
102
RTVSPropertyOp25
 70
     1
102
RTVSPropertyOp26
 70
     1
102
RTVSPropertyOp27
 70
     1
  0
XRECORD
  5
9C
102
{ACAD_REACTORS
330
9B
102
}
330
9B
100
AcDbXrecord
280
     1
102
RTVSPropertyOp0
 70
     1
102
RTVSPropertyOp1
 70
     1
102
RTVSPropertyOp2
 70
     1
102
RTVSPropertyOp3
 70
     1
102
RTVSPropertyOp4
 70
     1
102
RTVSPropertyOp5
 70
     1
102
RTVSPropertyOp6
 70
     1
102
RTVSPropertyOp7
 70
     1
102
RTVSPropertyOp8
 70
     1
102
RTVSPropertyOp9
 70
     1
102
RTVSPropertyOp10
 70
     1
102
RTVSPropertyOp11
 70
     1
102
RTVSPropertyOp12
 70
     1
102
RTVSPropertyOp13
 70
     1
102
RTVSPropertyOp14
 70
     1
102
RTVSPropertyOp15
 70
     1
102
RTVSPropertyOp16
 70
     1
102
RTVSPropertyOp17
 70
     1
102
RTVSPropertyOp18
 70
     1
102
RTVSPropertyOp19
 70
     1
102
RTVSPropertyOp20
 70
     1
102
RTVSPropertyOp21
 70
     1
102
RTVSPropertyOp22
 70
     1
102
RTVSPropertyOp23
 70
     1
102
RTVSPropertyOp24
 70
     1
102
RTVSPropertyOp25
 70
     1
102
RTVSPropertyOp26
 70
     1
102
RTVSPropertyOp27
 70
     1
  0
XRECORD
  5
90
102
{ACAD_REACTORS
330
8F
102
}
330
8F
100
AcDbXrecord
280
     1
102
RTVSPropertyOp0
 70
     1
102
RTVSPropertyOp1
 70
     1
102
RTVSPropertyOp2
 70
     1
102
RTVSPropertyOp3
 70
     1
102
RTVSPropertyOp4
 70
     1
102
RTVSPropertyOp5
 70
     1
102
RTVSPropertyOp6
 70
     1
102
RTVSPropertyOp7
 70
     1
102
RTVSPropertyOp8
 70
     1
102
RTVSPropertyOp9
 70
     1
102
RTVSPropertyOp10
 70
     1
102
RTVSPropertyOp11
 70
     1
102
RTVSPropertyOp12
 70
     1
102
RTVSPropertyOp13
 70
     1
102
RTVSPropertyOp14
 70
     1
102
RTVSPropertyOp15
 70
     1
102
RTVSPropertyOp16
 70
     1
102
RTVSPropertyOp17
 70
     1
102
RTVSPropertyOp18
 70
     1
102
RTVSPropertyOp19
 70
     1
102
RTVSPropertyOp20
 70
     1
102
RTVSPropertyOp21
 70
     1
102
RTVSPropertyOp22
 70
     1
102
RTVSPropertyOp23
 70
     1
102
RTVSPropertyOp24
 70
     1
102
RTVSPropertyOp25
 70
     1
102
RTVSPropertyOp26
 70
     1
102
RTVSPropertyOp27
 70
     1
  0
XRECORD
  5
92
102
{ACAD_REACTORS
330
91
102
}
330
91
100
AcDbXrecord
280
     1
102
RTVSPropertyOp0
 70
     1
102
RTVSPropertyOp1
 70
     1
102
RTVSPropertyOp2
 70
     1
102
RTVSPropertyOp3
 70
     1
102
RTVSPropertyOp4
 70
     1
102
RTVSPropertyOp5
 70
     1
102
RTVSPropertyOp6
 70
     1
102
RTVSPropertyOp7
 70
     1
102
RTVSPropertyOp8
 70
     1
102
RTVSPropertyOp9
 70
     1
102
RTVSPropertyOp10
 70
     1
102
RTVSPropertyOp11
 70
     1
102
RTVSPropertyOp12
 70
     1
102
RTVSPropertyOp13
 70
     1
102
RTVSPropertyOp14
 70
     1
102
RTVSPropertyOp15
 70
     1
102
RTVSPropertyOp16
 70
     1
102
RTVSPropertyOp17
 70
     1
102
RTVSPropertyOp18
 70
     1
102
RTVSPropertyOp19
 70
     1
102
RTVSPropertyOp20
 70
     1
102
RTVSPropertyOp21
 70
     1
102
RTVSPropertyOp22
 70
     1
102
RTVSPropertyOp23
 70
     1
102
RTVSPropertyOp24
 70
     1
102
RTVSPropertyOp25
 70
     1
102
RTVSPropertyOp26
 70
     1
102
RTVSPropertyOp27
 70
     1
  0
XRECORD
  5
9A
102
{ACAD_REACTORS
330
99
102
}
330
99
100
AcDbXrecord
280
     1
102
RTVSPropertyOp0
 70
     1
102
RTVSPropertyOp1
 70
     1
102
RTVSPropertyOp2
 70
     1
102
RTVSPropertyOp3
 70
     1
102
RTVSPropertyOp4
 70
     1
102
RTVSPropertyOp5
 70
     1
102
RTVSPropertyOp6
 70
     1
102
RTVSPropertyOp7
 70
     1
102
RTVSPropertyOp8
 70
     1
102
RTVSPropertyOp9
 70
     1
102
RTVSPropertyOp10
 70
     1
102
RTVSPropertyOp11
 70
     1
102
RTVSPropertyOp12
 70
     1
102
RTVSPropertyOp13
 70
     1
102
RTVSPropertyOp14
 70
     1
102
RTVSPropertyOp15
 70
     1
102
RTVSPropertyOp16
 70
     1
102
RTVSPropertyOp17
 70
     1
102
RTVSPropertyOp18
 70
     1
102
RTVSPropertyOp19
 70
     1
102
RTVSPropertyOp20
 70
     1
102
RTVSPropertyOp21
 70
     1
102
RTVSPropertyOp22
 70
     1
102
RTVSPropertyOp23
 70
     1
102
RTVSPropertyOp24
 70
     1
102
RTVSPropertyOp25
 70
     1
102
RTVSPropertyOp26
 70
     1
102
RTVSPropertyOp27
 70
     1
  0
XRECORD
  5
7E
102
{ACAD_REACTORS
330
7D
102
}
330
7D
100
AcDbXrecord
280
     1
102
RTVSPropertyOp0
 70
     1
102
RTVSPropertyOp1
 70
     1
102
RTVSPropertyOp2
 70
     1
102
RTVSPropertyOp3
 70
     1
102
RTVSPropertyOp4
 70
     1
102
RTVSPropertyOp5
 70
     1
102
RTVSPropertyOp6
 70
     1
102
RTVSPropertyOp7
 70
     1
102
RTVSPropertyOp8
 70
     1
102
RTVSPropertyOp9
 70
     1
102
RTVSPropertyOp10
 70
     1
102
RTVSPropertyOp11
 70
     1
102
RTVSPropertyOp12
 70
     1
102
RTVSPropertyOp13
 70
     1
102
RTVSPropertyOp14
 70
     1
102
RTVSPropertyOp15
 70
     1
102
RTVSPropertyOp16
 70
     1
102
RTVSPropertyOp17
 70
     1
102
RTVSPropertyOp18
 70
     1
102
RTVSPropertyOp19
 70
     1
102
RTVSPropertyOp20
 70
     1
102
RTVSPropertyOp21
 70
     1
102
RTVSPropertyOp22
 70
     1
102
RTVSPropertyOp23
 70
     1
102
RTVSPropertyOp24
 70
     1
102
RTVSPropertyOp25
 70
     1
102
RTVSPropertyOp26
 70
     1
102
RTVSPropertyOp27
 70
     1
  0
XRECORD
  5
80
102
{ACAD_REACTORS
330
7F
102
}
330
7F
100
AcDbXrecord
280
     1
102
RTVSPropertyOp0
 70
     1
102
RTVSPropertyOp1
 70
     1
102
RTVSPropertyOp2
 70
     1
102
RTVSPropertyOp3
 70
     1
102
RTVSPropertyOp4
 70
     1
102
RTVSPropertyOp5
 70
     1
102
RTVSPropertyOp6
 70
     1
102
RTVSPropertyOp7
 70
     1
102
RTVSPropertyOp8
 70
     1
102
RTVSPropertyOp9
 70
     1
102
RTVSPropertyOp10
 70
     1
102
RTVSPropertyOp11
 70
     1
102
RTVSPropertyOp12
 70
     1
102
RTVSPropertyOp13
 70
     1
102
RTVSPropertyOp14
 70
     1
102
RTVSPropertyOp15
 70
     1
102
RTVSPropertyOp16
 70
     1
102
RTVSPropertyOp17
 70
     1
102
RTVSPropertyOp18
 70
     1
102
RTVSPropertyOp19
 70
     1
102
RTVSPropertyOp20
 70
     1
102
RTVSPropertyOp21
 70
     1
102
RTVSPropertyOp22
 70
     1
102
RTVSPropertyOp23
 70
     1
102
RTVSPropertyOp24
 70
     1
102
RTVSPropertyOp25
 70
     1
102
RTVSPropertyOp26
 70
     1
102
RTVSPropertyOp27
 70
     1
  0
XRECORD
  5
82
102
{ACAD_REACTORS
330
81
102
}
330
81
100
AcDbXrecord
280
     1
102
RTVSPropertyOp0
 70
     1
102
RTVSPropertyOp1
 70
     1
102
RTVSPropertyOp2
 70
     1
102
RTVSPropertyOp3
 70
     1
102
RTVSPropertyOp4
 70
     1
102
RTVSPropertyOp5
 70
     1
102
RTVSPropertyOp6
 70
     1
102
RTVSPropertyOp7
 70
     1
102
RTVSPropertyOp8
 70
     1
102
RTVSPropertyOp9
 70
     1
102
RTVSPropertyOp10
 70
     1
102
RTVSPropertyOp11
 70
     1
102
RTVSPropertyOp12
 70
     1
102
RTVSPropertyOp13
 70
     1
102
RTVSPropertyOp14
 70
     1
102
RTVSPropertyOp15
 70
     1
102
RTVSPropertyOp16
 70
     1
102
RTVSPropertyOp17
 70
     1
102
RTVSPropertyOp18
 70
     1
102
RTVSPropertyOp19
 70
     1
102
RTVSPropertyOp20
 70
     1
102
RTVSPropertyOp21
 70
     1
102
RTVSPropertyOp22
 70
     1
102
RTVSPropertyOp23
 70
     1
102
RTVSPropertyOp24
 70
     1
102
RTVSPropertyOp25
 70
     1
102
RTVSPropertyOp26
 70
     1
102
RTVSPropertyOp27
 70
     1
  0
XRECORD
  5
84
102
{ACAD_REACTORS
330
83
102
}
330
83
100
AcDbXrecord
280
     1
102
RTVSPropertyOp0
 70
     1
102
RTVSPropertyOp1
 70
     1
102
RTVSPropertyOp2
 70
     1
102
RTVSPropertyOp3
 70
     1
102
RTVSPropertyOp4
 70
     1
102
RTVSPropertyOp5
 70
     1
102
RTVSPropertyOp6
 70
     1
102
RTVSPropertyOp7
 70
     1
102
RTVSPropertyOp8
 70
     1
102
RTVSPropertyOp9
 70
     1
102
RTVSPropertyOp10
 70
     1
102
RTVSPropertyOp11
 70
     1
102
RTVSPropertyOp12
 70
     1
102
RTVSPropertyOp13
 70
     1
102
RTVSPropertyOp14
 70
     1
102
RTVSPropertyOp15
 70
     1
102
RTVSPropertyOp16
 70
     1
102
RTVSPropertyOp17
 70
     1
102
RTVSPropertyOp18
 70
     1
102
RTVSPropertyOp19
 70
     1
102
RTVSPropertyOp20
 70
     1
102
RTVSPropertyOp21
 70
     1
102
RTVSPropertyOp22
 70
     1
102
RTVSPropertyOp23
 70
     1
102
RTVSPropertyOp24
 70
     1
102
RTVSPropertyOp25
 70
     1
102
RTVSPropertyOp26
 70
     1
102
RTVSPropertyOp27
 70
     1
  0
XRECORD
  5
98
102
{ACAD_REACTORS
330
97
102
}
330
97
100
AcDbXrecord
280
     1
102
RTVSPropertyOp0
 70
     1
102
RTVSPropertyOp1
 70
     1
102
RTVSPropertyOp2
 70
     1
102
RTVSPropertyOp3
 70
     1
102
RTVSPropertyOp4
 70
     1
102
RTVSPropertyOp5
 70
     1
102
RTVSPropertyOp6
 70
     1
102
RTVSPropertyOp7
 70
     1
102
RTVSPropertyOp8
 70
     1
102
RTVSPropertyOp9
 70
     1
102
RTVSPropertyOp10
 70
     1
102
RTVSPropertyOp11
 70
     1
102
RTVSPropertyOp12
 70
     1
102
RTVSPropertyOp13
 70
     1
102
RTVSPropertyOp14
 70
     1
102
RTVSPropertyOp15
 70
     1
102
RTVSPropertyOp16
 70
     1
102
RTVSPropertyOp17
 70
     1
102
RTVSPropertyOp18
 70
     1
102
RTVSPropertyOp19
 70
     1
102
RTVSPropertyOp20
 70
     1
102
RTVSPropertyOp21
 70
     1
102
RTVSPropertyOp22
 70
     1
102
RTVSPropertyOp23
 70
     1
102
RTVSPropertyOp24
 70
     1
102
RTVSPropertyOp25
 70
     1
102
RTVSPropertyOp26
 70
     1
102
RTVSPropertyOp27
 70
     1
  0
XRECORD
  5
8E
102
{ACAD_REACTORS
330
8D
102
}
330
8D
100
AcDbXrecord
280
     1
102
RTVSPropertyOp0
 70
     1
102
RTVSPropertyOp1
 70
     1
102
RTVSPropertyOp2
 70
     1
102
RTVSPropertyOp3
 70
     1
102
RTVSPropertyOp4
 70
     1
102
RTVSPropertyOp5
 70
     1
102
RTVSPropertyOp6
 70
     1
102
RTVSPropertyOp7
 70
     1
102
RTVSPropertyOp8
 70
     1
102
RTVSPropertyOp9
 70
     1
102
RTVSPropertyOp10
 70
     1
102
RTVSPropertyOp11
 70
     1
102
RTVSPropertyOp12
 70
     1
102
RTVSPropertyOp13
 70
     1
102
RTVSPropertyOp14
 70
     1
102
RTVSPropertyOp15
 70
     1
102
RTVSPropertyOp16
 70
     1
102
RTVSPropertyOp17
 70
     1
102
RTVSPropertyOp18
 70
     1
102
RTVSPropertyOp19
 70
     1
102
RTVSPropertyOp20
 70
     1
102
RTVSPropertyOp21
 70
     1
102
RTVSPropertyOp22
 70
     1
102
RTVSPropertyOp23
 70
     1
102
RTVSPropertyOp24
 70
     1
102
RTVSPropertyOp25
 70
     1
102
RTVSPropertyOp26
 70
     1
102
RTVSPropertyOp27
 70
     1
  0
XRECORD
  5
96
102
{ACAD_REACTORS
330
95
102
}
330
95
100
AcDbXrecord
280
     1
102
RTVSPropertyOp0
 70
     1
102
RTVSPropertyOp1
 70
     1
102
RTVSPropertyOp2
 70
     1
102
RTVSPropertyOp3
 70
     1
102
RTVSPropertyOp4
 70
     1
102
RTVSPropertyOp5
 70
     1
102
RTVSPropertyOp6
 70
     1
102
RTVSPropertyOp7
 70
     1
102
RTVSPropertyOp8
 70
     1
102
RTVSPropertyOp9
 70
     1
102
RTVSPropertyOp10
 70
     1
102
RTVSPropertyOp11
 70
     1
102
RTVSPropertyOp12
 70
     1
102
RTVSPropertyOp13
 70
     1
102
RTVSPropertyOp14
 70
     1
102
RTVSPropertyOp15
 70
     1
102
RTVSPropertyOp16
 70
     1
102
RTVSPropertyOp17
 70
     1
102
RTVSPropertyOp18
 70
     1
102
RTVSPropertyOp19
 70
     1
102
RTVSPropertyOp20
 70
     1
102
RTVSPropertyOp21
 70
     1
102
RTVSPropertyOp22
 70
     1
102
RTVSPropertyOp23
 70
     1
102
RTVSPropertyOp24
 70
     1
102
RTVSPropertyOp25
 70
     1
102
RTVSPropertyOp26
 70
     1
102
RTVSPropertyOp27
 70
     1
  0
ENDSEC
  0
EOF
