  0
SECTION
  2
HEADER
  9
$ACADVER
  1
AC1014
  9
$HANDSEED
  5
FFFF
  9
$MEASUREMENT
 70
     1
  0
ENDSEC
  0
SECTION
  2
TABLES
  0
TABLE
  2
VPORT
  5
8
330
0
100
AcDbSymbolTable
 70
     4
  0
VPORT
  5
2E
330
8
100
AcDbSymbolTableRecord
100
AcDbViewportTableRecord
  2
*ACTIVE
 70
     0
 10
0.0
 20
0.0
 11
1.0
 21
1.0
 12
210.0
 22
148.5
 13
0.0
 23
0.0
 14
10.0
 24
10.0
 15
10.0
 25
10.0
 16
0.0
 26
0.0
 36
1.0
 17
0.0
 27
0.0
 37
0.0
 40
341.0
 41
1.24
 42
50.0
 43
0.0
 44
0.0
 50
0.0
 51
0.0
 71
     0
 72
   100
 73
     1
 74
     3
 75
     0
 76
     0
 77
     0
 78
     0
  0
ENDTAB
  0
TABLE
  2
LTYPE
  5
5
330
0
100
AcDbSymbolTable
 70
     1
  0
LTYPE
  5
14
330
5
100
AcDbSymbolTableRecord
100
AcDbLinetypeTableRecord
  2
BYBLOCK
 70
     0
  3

 72
    65
 73
     0
 40
0.0
  0
LTYPE
  5
15
330
5
100
AcDbSymbolTableRecord
100
AcDbLinetypeTableRecord
  2
BYLAYER
 70
     0
  3

 72
    65
 73
     0
 40
0.0
  0
LTYPE
  5
16
330
5
100
AcDbSymbolTableRecord
100
AcDbLinetypeTableRecord
  2
CONTINUOUS
 70
     0
  3
Solid line
 72
    65
 73
     0
 40
0.0
  0
ENDTAB
  0
TABLE
  2
LAYER
  5
2
100
AcDbSymbolTable
 70
1
  0
LAYER
  5
50
100
AcDbSymbolTableRecord
100
AcDbLayerTableRecord
  2
0
 70
0
  6
CONTINUOUS
  0
ENDTAB
  0
TABLE
  2
STYLE
  5
3
330
0
100
AcDbSymbolTable
 70
     1
  0
STYLE
  5
11
330
3
100
AcDbSymbolTableRecord
100
AcDbTextStyleTableRecord
  2
STANDARD
 70
     0
 40
0.0
 41
1.0
 50
0.0
 71
     0
 42
2.5
  3
txt
  4

  0
ENDTAB
  0
TABLE
  2
VIEW
  5
6
330
0
100
AcDbSymbolTable
 70
     0
  0
ENDTAB
  0
TABLE
  2
UCS
  5
7
330
0
100
AcDbSymbolTable
 70
     0
  0
ENDTAB
  0
TABLE
  2
APPID
  5
9
330
0
100
AcDbSymbolTable
 70
     2
  0
APPID
  5
12
330
9
100
AcDbSymbolTableRecord
100
AcDbRegAppTableRecord
  2
ACAD
 70
     0
  0
ENDTAB
  0
TABLE
  2
DIMSTYLE
  5
A
330
0
100
AcDbSymbolTable
 70
     1
  0
DIMSTYLE
105
27
330
A
100
AcDbSymbolTableRecord
100
AcDbDimStyleTableRecord
  2
ISO-25
 70
     0
  3

  4

  5

  6

  7

 40
1.0
 41
2.5
 42
0.625
 43
3.75
 44
1.25
 45
0.0
 46
0.0
 47
0.0
 48
0.0
140
2.5
141
2.5
142
0.0
143
0.03937007874016
144
1.0
145
0.0
146
1.0
147
0.625
 71
     0
 72
     0
 73
     0
 74
     0
 75
     0
 76
     0
 77
     1
 78
     8
170
     0
171
     3
172
     1
173
     0
174
     0
175
     0
176
     0
177
     0
178
     0
270
     2
271
     2
272
     2
273
     2
274
     3
340
11
275
     0
280
     0
281
     0
282
     0
283
     0
284
     8
285
     0
286
     0
287
     3
288
     0
  0
ENDTAB
  0
TABLE
  2
BLOCK_RECORD
  5
1
330
0
100
AcDbSymbolTable
 70
     1
  0
BLOCK_RECORD
  5
1F
330
1
100
AcDbSymbolTableRecord
100
AcDbBlockTableRecord
  2
*MODEL_SPACE
  0
BLOCK_RECORD
  5
1B
330
1
100
AcDbSymbolTableRecord
100
AcDbBlockTableRecord
  2
*PAPER_SPACE
  0
ENDTAB
  0
ENDSEC
  0
SECTION
  2
BLOCKS
  0
BLOCK
  5
20
330
1F
100
AcDbEntity
  8
0
100
AcDbBlockBegin
  2
*MODEL_SPACE
 70
     0
 10
0.0
 20
0.0
 30
0.0
  3
*MODEL_SPACE
  1

  0
ENDBLK
  5
21
330
1F
100
AcDbEntity
  8
0
100
AcDbBlockEnd
  0
BLOCK
  5
1C
330
1B
100
AcDbEntity
 67
     1
  8
0
100
AcDbBlockBegin
  2
*PAPER_SPACE
  1

  0
ENDBLK
  5
1D
330
1B
100
AcDbEntity
 67
     1
  8
0
100
AcDbBlockEnd
  0
ENDSEC
  0
SECTION
  2
ENTITIES
  0
SPLINE
  5
100
100
AcDbEntity
  8
0
 62
7
100
AcDbSpline
 70
8
 71
3
 72
8
 73
4
 74
0
 40
0
 40
0
 40
0
 40
0
 40
1
 40
1
 40
1
 40
1
 10
19.819296
 20
5.510821
 30
0.0
 10
16.758864
 20
9.808792
 30
0.0
 10
10.057243
 20
12.061216
 30
0.0
 10
6.780884
 20
9.893009
 30
0.0
  0
LWPOLYLINE
  5
101
100
AcDbEntity
  8
0
 62
7
100
AcDbPolyline
 90
8
 70
1
 10
0.223663
 20
139.016224
 30
0.0
 10
0.223663
 20
278.848517
 30
0.0
 10
74.836163
 20
278.848517
 30
0.0
 10
149.448663
 20
278.848517
 30
0.0
 10
149.448663
 20
139.016224
 30
0.0
 10
149.448663
 20
-0.816054
 30
0.0
 10
74.836163
 20
-0.816054
 30
0.0
 10
0.223663
 20
-0.816054
 30
0.0
  0
SPLINE
  5
102
100
AcDbEntity
  8
0
 62
7
100
AcDbSpline
 70
8
 71
3
 72
8
 73
4
 74
0
 40
0
 40
0
 40
0
 40
0
 40
1
 40
1
 40
1
 40
1
 10
39.514288
 20
5.173874
 30
0.0
 10
38.391687
 20
6.058244
 30
0.0
 10
35.307558
 20
7.356792
 30
0.0
 10
33.613688
 20
7.658312
 30
0.0
  0
SPLINE
  5
103
100
AcDbEntity
  8
0
 62
7
100
AcDbSpline
 70
8
 71
3
 72
8
 73
4
 74
0
 40
0
 40
0
 40
0
 40
0
 40
1
 40
1
 40
1
 40
1
 10
33.613688
 20
7.658312
 30
0.0
 10
31.308606
 20
8.068654
 30
0.0
 10
29.817044
 20
7.698237
 30
0.0
 10
28.606692
 20
6.414876
 30
0.0
  0
SPLINE
  5
104
100
AcDbEntity
  8
0
 62
7
100
AcDbSpline
 70
8
 71
3
 72
8
 73
4
 74
0
 40
0
 40
0
 40
0
 40
0
 40
1
 40
1
 40
1
 40
1
 10
28.606692
 20
6.414876
 30
0.0
 10
27.028108
 20
4.741095
 30
0.0
 10
27.034016
 20
4.739217
 30
0.0
 10
33.891892
 20
4.748609
 30
0.0
  0
SPLINE
  5
105
100
AcDbEntity
  8
0
 62
7
100
AcDbSpline
 70
8
 71
3
 72
8
 73
4
 74
0
 40
0
 40
0
 40
0
 40
0
 40
1
 40
1
 40
1
 40
1
 10
33.891892
 20
4.748609
 30
0.0
 10
39.539426
 20
4.756282
 30
0.0
 10
40.000097
 20
4.791181
 30
0.0
 10
39.514288
 20
5.173874
 30
0.0
  0
LWPOLYLINE
  5
106
100
AcDbEntity
  8
0
 62
7
100
AcDbPolyline
 90
7
 70
0
 10
6.780884
 20
9.893009
 30
0.0
 10
5.779913
 20
9.230598
 30
0.0
 10
5.779913
 20
6.985397
 30
0.0
 10
5.779913
 20
4.740196
 30
0.0
 10
13.073971
 20
4.740196
 30
0.0
 10
20.368029
 20
4.740196
 30
0.0
 10
19.819296
 20
5.510821
 30
0.0
  0
SPLINE
  5
107
100
AcDbEntity
  8
0
 62
7
100
AcDbSpline
 70
8
 71
3
 72
8
 73
4
 74
0
 40
0
 40
0
 40
0
 40
0
 40
1
 40
1
 40
1
 40
1
 10
56.712205
 20
5.712963
 30
0.0
 10
55.140249
 20
7.125123
 30
0.0
 10
50.815105
 20
9.913223
 30
0.0
 10
49.222734
 20
10.540868
 30
0.0
  0
SPLINE
  5
108
100
AcDbEntity
  8
0
 62
7
100
AcDbSpline
 70
8
 71
3
 72
8
 73
4
 74
0
 40
0
 40
0
 40
0
 40
0
 40
1
 40
1
 40
1
 40
1
 10
49.222734
 20
10.540868
 30
0.0
 10
47.664108
 20
11.155230
 30
0.0
 10
45.394772
 20
11.251565
 30
0.0
 10
44.478086
 20
10.742321
 30
0.0
  0
LWPOLYLINE
  5
109
100
AcDbEntity
  8
0
 62
7
100
AcDbPolyline
 90
1
 70
1
 10
39.514288
 20
5.173874
 30
0.0
  0
SPLINE
  5
10a
100
AcDbEntity
  8
0
 62
7
100
AcDbSpline
 70
8
 71
3
 72
8
 73
4
 74
0
 40
0
 40
0
 40
0
 40
0
 40
1
 40
1
 40
1
 40
1
 10
44.775551
 20
9.098042
 30
0.0
 10
45.265007
 20
8.374724
 30
0.0
 10
46.385975
 20
7.098295
 30
0.0
 10
47.266590
 20
6.261550
 30
0.0
  0
LWPOLYLINE
  5
10b
100
AcDbEntity
  8
0
 62
7
100
AcDbPolyline
 90
3
 70
0
 10
44.478086
 20
10.742321
 30
0.0
 10
43.885633
 20
10.413180
 30
0.0
 10
44.775551
 20
9.098042
 30
0.0
  0
SPLINE
  5
10c
100
AcDbEntity
  8
0
 62
7
100
AcDbSpline
 70
8
 71
3
 72
8
 73
4
 74
0
 40
0
 40
0
 40
0
 40
0
 40
1
 40
1
 40
1
 40
1
 10
73.010670
 20
5.932620
 30
0.0
 10
71.546543
 20
7.521019
 30
0.0
 10
69.188018
 20
11.171079
 30
0.0
 10
68.089539
 20
13.548598
 30
0.0
  0
SPLINE
  5
10d
100
AcDbEntity
  8
0
 62
7
100
AcDbSpline
 70
8
 71
3
 72
8
 73
4
 74
0
 40
0
 40
0
 40
0
 40
0
 40
1
 40
1
 40
1
 40
1
 10
68.089539
 20
13.548598
 30
0.0
 10
66.975244
 20
15.960315
 30
0.0
 10
66.356074
 20
16.572323
 30
0.0
 10
65.378282
 20
16.228470
 30
0.0
  0
SPLINE
  5
10e
100
AcDbEntity
  8
0
 62
7
100
AcDbSpline
 70
8
 71
3
 72
8
 73
4
 74
0
 40
0
 40
0
 40
0
 40
0
 40
1
 40
1
 40
1
 40
1
 10
65.378282
 20
16.228470
 30
0.0
 10
64.479233
 20
15.912293
 30
0.0
 10
62.279056
 20
13.201835
 30
0.0
 10
61.708295
 20
11.707310
 30
0.0
  0
SPLINE
  5
10f
100
AcDbEntity
  8
0
 62
7
100
AcDbSpline
 70
8
 71
3
 72
8
 73
4
 74
0
 40
0
 40
0
 40
0
 40
0
 40
1
 40
1
 40
1
 40
1
 10
61.708295
 20
11.707310
 30
0.0
 10
61.114432
 20
10.152327
 30
0.0
 10
61.441634
 20
9.458828
 30
0.0
 10
64.004862
 20
6.839876
 30
0.0
  0
LWPOLYLINE
  5
110
100
AcDbEntity
  8
0
 62
7
100
AcDbPolyline
 90
6
 70
0
 10
47.266590
 20
6.261550
 30
0.0
 10
48.867714
 20
4.740196
 30
0.0
 10
53.319124
 20
4.751308
 30
0.0
 10
57.770538
 20
4.762421
 30
0.0
 10
56.712205
 20
5.713148
 30
0.0
 10
56.712205
 20
5.712963
 30
0.0
  0
SPLINE
  5
111
100
AcDbEntity
  8
0
 62
7
100
AcDbSpline
 70
8
 71
3
 72
8
 73
4
 74
0
 40
0
 40
0
 40
0
 40
0
 40
1
 40
1
 40
1
 40
1
 10
81.181578
 20
8.642800
 30
0.0
 10
81.174302
 20
14.828494
 30
0.0
 10
80.537489
 20
19.614766
 30
0.0
 10
79.148588
 20
23.922474
 30
0.0
  0
SPLINE
  5
112
100
AcDbEntity
  8
0
 62
7
100
AcDbSpline
 70
8
 71
3
 72
8
 73
4
 74
0
 40
0
 40
0
 40
0
 40
0
 40
1
 40
1
 40
1
 40
1
 10
79.148588
 20
23.922474
 30
0.0
 10
77.430482
 20
29.251233
 30
0.0
 10
75.403017
 20
31.506824
 30
0.0
 10
73.857014
 20
29.809453
 30
0.0
  0
SPLINE
  5
113
100
AcDbEntity
  8
0
 62
7
100
AcDbSpline
 70
8
 71
3
 72
8
 73
4
 74
0
 40
0
 40
0
 40
0
 40
0
 40
1
 40
1
 40
1
 40
1
 10
73.857014
 20
29.809453
 30
0.0
 10
72.535097
 20
28.358110
 30
0.0
 10
71.933091
 20
26.124188
 30
0.0
 10
71.928887
 20
22.654548
 30
0.0
  0
SPLINE
  5
114
100
AcDbEntity
  8
0
 62
7
100
AcDbSpline
 70
8
 71
3
 72
8
 73
4
 74
0
 40
0
 40
0
 40
0
 40
0
 40
1
 40
1
 40
1
 40
1
 10
71.928887
 20
22.654548
 30
0.0
 10
71.921902
 20
16.892521
 30
0.0
 10
74.307113
 20
10.419265
 30
0.0
 10
78.090477
 20
5.932461
 30
0.0
  0
SPLINE
  5
115
100
AcDbEntity
  8
0
 62
7
100
AcDbSpline
 70
8
 71
3
 72
8
 73
4
 74
0
 40
0
 40
0
 40
0
 40
0
 40
1
 40
1
 40
1
 40
1
 10
78.090477
 20
5.932461
 30
0.0
 10
78.969476
 20
4.890056
 30
0.0
 10
79.227193
 20
4.740196
 30
0.0
 10
80.140998
 20
4.740196
 30
0.0
  0
LWPOLYLINE
  5
116
100
AcDbEntity
  8
0
 62
7
100
AcDbPolyline
 90
5
 70
0
 10
64.004862
 20
6.839876
 30
0.0
 10
66.059883
 20
4.740196
 30
0.0
 10
70.084844
 20
4.740196
 30
0.0
 10
74.109808
 20
4.740196
 30
0.0
 10
73.010670
 20
5.932620
 30
0.0
  0
SPLINE
  5
117
100
AcDbEntity
  8
0
 62
7
100
AcDbSpline
 70
8
 71
3
 72
8
 73
4
 74
0
 40
0
 40
0
 40
0
 40
0
 40
1
 40
1
 40
1
 40
1
 10
104.889731
 20
5.946801
 30
0.0
 10
106.623326
 20
8.904975
 30
0.0
 10
107.798963
 20
13.094150
 30
0.0
 10
107.490329
 20
15.213608
 30
0.0
  0
SPLINE
  5
118
100
AcDbEntity
  8
0
 62
7
100
AcDbSpline
 70
8
 71
3
 72
8
 73
4
 74
0
 40
0
 40
0
 40
0
 40
0
 40
1
 40
1
 40
1
 40
1
 10
107.490329
 20
15.213608
 30
0.0
 10
107.226682
 20
17.024125
 30
0.0
 10
107.149019
 20
17.069872
 30
0.0
 10
104.972810
 20
16.696703
 30
0.0
  0
SPLINE
  5
119
100
AcDbEntity
  8
0
 62
7
100
AcDbSpline
 70
8
 71
3
 72
8
 73
4
 74
0
 40
0
 40
0
 40
0
 40
0
 40
1
 40
1
 40
1
 40
1
 10
104.972810
 20
16.696703
 30
0.0
 10
101.360790
 20
16.077314
 30
0.0
 10
97.649271
 20
13.704676
 30
0.0
 10
94.081888
 20
9.734497
 30
0.0
  0
SPLINE
  5
11a
100
AcDbEntity
  8
0
 62
7
100
AcDbSpline
 70
8
 71
3
 72
8
 73
4
 74
0
 40
0
 40
0
 40
0
 40
0
 40
1
 40
1
 40
1
 40
1
 10
94.081888
 20
9.734497
 30
0.0
 10
92.515425
 20
7.991184
 30
0.0
 10
90.181996
 20
5.053489
 30
0.0
 10
90.181996
 20
4.824704
 30
0.0
  0
SPLINE
  5
11b
100
AcDbEntity
  8
0
 62
7
100
AcDbSpline
 70
8
 71
3
 72
8
 73
4
 74
0
 40
0
 40
0
 40
0
 40
0
 40
1
 40
1
 40
1
 40
1
 10
90.181996
 20
4.824704
 30
0.0
 10
90.181996
 20
4.778216
 30
0.0
 10
93.332133
 20
4.740196
 30
0.0
 10
97.182302
 20
4.740196
 30
0.0
  0
LWPOLYLINE
  5
11c
100
AcDbEntity
  8
0
 62
7
100
AcDbPolyline
 90
4
 70
0
 10
80.140998
 20
4.740196
 30
0.0
 10
81.186163
 20
4.740196
 30
0.0
 10
81.181586
 20
8.642800
 30
0.0
 10
81.181578
 20
8.642800
 30
0.0
  0
SPLINE
  5
11d
100
AcDbEntity
  8
0
 62
7
100
AcDbSpline
 70
8
 71
3
 72
8
 73
4
 74
0
 40
0
 40
0
 40
0
 40
0
 40
1
 40
1
 40
1
 40
1
 10
118.454252
 20
6.636676
 30
0.0
 10
119.566648
 20
7.679743
 30
0.0
 10
121.816241
 20
9.532117
 30
0.0
 10
123.453350
 20
10.753037
 30
0.0
  0
SPLINE
  5
11e
100
AcDbEntity
  8
0
 62
7
100
AcDbSpline
 70
8
 71
3
 72
8
 73
4
 74
0
 40
0
 40
0
 40
0
 40
0
 40
1
 40
1
 40
1
 40
1
 10
123.453350
 20
10.753037
 30
0.0
 10
126.648562
 20
13.135954
 30
0.0
 10
126.853744
 20
13.471869
 30
0.0
 10
126.056141
 20
15.014257
 30
0.0
  0
SPLINE
  5
11f
100
AcDbEntity
  8
0
 62
7
100
AcDbSpline
 70
8
 71
3
 72
8
 73
4
 74
0
 40
0
 40
0
 40
0
 40
0
 40
1
 40
1
 40
1
 40
1
 10
126.056141
 20
15.014257
 30
0.0
 10
125.546779
 20
15.999262
 30
0.0
 10
123.294320
 20
18.068092
 30
0.0
 10
122.027759
 20
18.714257
 30
0.0
  0
SPLINE
  5
120
100
AcDbEntity
  8
0
 62
7
100
AcDbSpline
 70
8
 71
3
 72
8
 73
4
 74
0
 40
0
 40
0
 40
0
 40
0
 40
1
 40
1
 40
1
 40
1
 10
122.027759
 20
18.714257
 30
0.0
 10
120.543783
 20
19.471309
 30
0.0
 10
118.388617
 20
20.035001
 30
0.0
 10
116.200859
 20
20.238283
 30
0.0
  0
LWPOLYLINE
  5
121
100
AcDbEntity
  8
0
 62
7
100
AcDbPolyline
 90
3
 70
0
 10
97.182302
 20
4.740196
 30
0.0
 10
104.182606
 20
4.740196
 30
0.0
 10
104.889731
 20
5.946801
 30
0.0
  0
SPLINE
  5
122
100
AcDbEntity
  8
0
 62
7
100
AcDbSpline
 70
8
 71
3
 72
8
 73
4
 74
0
 40
0
 40
0
 40
0
 40
0
 40
1
 40
1
 40
1
 40
1
 10
113.488197
 20
18.993392
 30
0.0
 10
112.014762
 20
16.433893
 30
0.0
 10
109.746902
 20
9.629272
 30
0.0
 10
109.109079
 20
5.854012
 30
0.0
  0
LWPOLYLINE
  5
123
100
AcDbEntity
  8
0
 62
7
100
AcDbPolyline
 90
3
 70
0
 10
116.200859
 20
20.238283
 30
0.0
 10
114.306183
 20
20.414332
 30
0.0
 10
113.488197
 20
18.993392
 30
0.0
  0
SPLINE
  5
124
100
AcDbEntity
  8
0
 62
7
100
AcDbSpline
 70
8
 71
3
 72
8
 73
4
 74
0
 40
0
 40
0
 40
0
 40
0
 40
1
 40
1
 40
1
 40
1
 10
134.329440
 20
6.167358
 30
0.0
 10
130.468209
 20
9.807919
 30
0.0
 10
127.275008
 20
9.855438
 30
0.0
 10
123.585642
 20
6.327166
 30
0.0
  0
SPLINE
  5
125
100
AcDbEntity
  8
0
 62
7
100
AcDbSpline
 70
8
 71
3
 72
8
 73
4
 74
0
 40
0
 40
0
 40
0
 40
0
 40
1
 40
1
 40
1
 40
1
 10
123.585642
 20
6.327166
 30
0.0
 10
122.821658
 20
5.596546
 30
0.0
 10
122.196580
 20
4.940591
 30
0.0
 10
122.196580
 20
4.869471
 30
0.0
  0
SPLINE
  5
126
100
AcDbEntity
  8
0
 62
7
100
AcDbSpline
 70
8
 71
3
 72
8
 73
4
 74
0
 40
0
 40
0
 40
0
 40
0
 40
1
 40
1
 40
1
 40
1
 10
122.196580
 20
4.869471
 30
0.0
 10
122.196580
 20
4.798378
 30
0.0
 10
125.262439
 20
4.744535
 30
0.0
 10
129.009600
 20
4.749853
 30
0.0
  0
LWPOLYLINE
  5
127
100
AcDbEntity
  8
0
 62
7
100
AcDbPolyline
 90
5
 70
0
 10
109.109079
 20
5.854012
 30
0.0
 10
108.920899
 20
4.740196
 30
0.0
 10
112.676310
 20
4.740196
 30
0.0
 10
116.431719
 20
4.740196
 30
0.0
 10
118.454252
 20
6.636676
 30
0.0
  0
SPLINE
  5
128
100
AcDbEntity
  8
0
 62
7
100
AcDbSpline
 70
8
 71
3
 72
8
 73
4
 74
0
 40
0
 40
0
 40
0
 40
0
 40
1
 40
1
 40
1
 40
1
 10
143.892413
 20
8.667935
 30
0.0
 10
143.892413
 20
13.111692
 30
0.0
 10
144.011989
 20
12.833297
 30
0.0
 10
141.511163
 20
14.211882
 30
0.0
  0
SPLINE
  5
129
100
AcDbEntity
  8
0
 62
7
100
AcDbSpline
 70
8
 71
3
 72
8
 73
4
 74
0
 40
0
 40
0
 40
0
 40
0
 40
1
 40
1
 40
1
 40
1
 10
141.511163
 20
14.211882
 30
0.0
 10
138.188983
 20
16.043209
 30
0.0
 10
133.408322
 20
16.745678
 30
0.0
 10
132.237213
 20
15.574579
 30
0.0
  0
SPLINE
  5
12a
100
AcDbEntity
  8
0
 62
7
100
AcDbSpline
 70
8
 71
3
 72
8
 73
4
 74
0
 40
0
 40
0
 40
0
 40
0
 40
1
 40
1
 40
1
 40
1
 10
132.237213
 20
15.574579
 30
0.0
 10
131.255177
 20
14.592538
 30
0.0
 10
132.057939
 20
13.265124
 30
0.0
 10
135.248626
 20
10.595001
 30
0.0
  0
SPLINE
  5
12b
100
AcDbEntity
  8
0
 62
7
100
AcDbSpline
 70
8
 71
3
 72
8
 73
4
 74
0
 40
0
 40
0
 40
0
 40
0
 40
1
 40
1
 40
1
 40
1
 10
135.248626
 20
10.595001
 30
0.0
 10
136.437449
 20
9.600142
 30
0.0
 10
138.243559
 20
7.885747
 30
0.0
 10
139.262205
 20
6.785292
 30
0.0
  0
SPLINE
  5
12c
100
AcDbEntity
  8
0
 62
7
100
AcDbSpline
 70
8
 71
3
 72
8
 73
4
 74
0
 40
0
 40
0
 40
0
 40
0
 40
1
 40
1
 40
1
 40
1
 10
139.262205
 20
6.785292
 30
0.0
 10
141.103644
 20
4.795917
 30
0.0
 10
141.122270
 20
4.784275
 30
0.0
 10
142.503350
 20
4.762315
 30
0.0
  0
LWPOLYLINE
  5
12d
100
AcDbEntity
  8
0
 62
7
100
AcDbPolyline
 90
4
 70
0
 10
129.009600
 20
4.749853
 30
0.0
 10
135.822621
 20
4.759378
 30
0.0
 10
134.329440
 20
6.167252
 30
0.0
 10
134.329440
 20
6.167358
 30
0.0
  0
SPLINE
  5
12e
100
AcDbEntity
  8
0
 62
7
100
AcDbSpline
 70
8
 71
3
 72
8
 73
4
 74
0
 40
0
 40
0
 40
0
 40
0
 40
1
 40
1
 40
1
 40
1
 10
60.571301
 20
16.335521
 30
0.0
 10
65.367638
 20
21.812610
 30
0.0
 10
65.776668
 20
22.410962
 30
0.0
 10
66.033526
 20
24.325995
 30
0.0
  0
SPLINE
  5
12f
100
AcDbEntity
  8
0
 62
7
100
AcDbSpline
 70
8
 71
3
 72
8
 73
4
 74
0
 40
0
 40
0
 40
0
 40
0
 40
1
 40
1
 40
1
 40
1
 10
66.033526
 20
24.325995
 30
0.0
 10
66.106559
 20
24.870489
 30
0.0
 10
66.025562
 20
25.742466
 30
0.0
 10
65.853532
 20
26.263722
 30
0.0
  0
SPLINE
  5
130
100
AcDbEntity
  8
0
 62
7
100
AcDbSpline
 70
8
 71
3
 72
8
 73
4
 74
0
 40
0
 40
0
 40
0
 40
0
 40
1
 40
1
 40
1
 40
1
 10
65.853532
 20
26.263722
 30
0.0
 10
65.473720
 20
27.414564
 30
0.0
 10
63.636324
 20
29.506198
 30
0.0
 10
61.859253
 20
30.810689
 30
0.0
  0
LWPOLYLINE
  5
131
100
AcDbEntity
  8
0
 62
7
100
AcDbPolyline
 90
4
 70
0
 10
142.503350
 20
4.762315
 30
0.0
 10
143.892413
 20
4.740090
 30
0.0
 10
143.892413
 20
8.667829
 30
0.0
 10
143.892413
 20
8.667935
 30
0.0
  0
SPLINE
  5
132
100
AcDbEntity
  8
0
 62
7
100
AcDbSpline
 70
8
 71
3
 72
8
 73
4
 74
0
 40
0
 40
0
 40
0
 40
0
 40
1
 40
1
 40
1
 40
1
 10
59.506260
 20
30.946550
 30
0.0
 10
57.738931
 20
29.546799
 30
0.0
 10
56.006862
 20
27.440411
 30
0.0
 10
55.182045
 20
25.687827
 30
0.0
  0
SPLINE
  5
133
100
AcDbEntity
  8
0
 62
7
100
AcDbSpline
 70
8
 71
3
 72
8
 73
4
 74
0
 40
0
 40
0
 40
0
 40
0
 40
1
 40
1
 40
1
 40
1
 10
55.182045
 20
25.687827
 30
0.0
 10
54.486585
 20
24.210103
 30
0.0
 10
54.410245
 20
23.812487
 30
0.0
 10
54.531638
 20
22.300181
 30
0.0
  0
SPLINE
  5
134
100
AcDbEntity
  8
0
 62
7
100
AcDbSpline
 70
8
 71
3
 72
8
 73
4
 74
0
 40
0
 40
0
 40
0
 40
0
 40
1
 40
1
 40
1
 40
1
 10
54.531638
 20
22.300181
 30
0.0
 10
54.625505
 20
21.130824
 30
0.0
 10
54.929209
 20
20.058563
 30
0.0
 10
55.488112
 20
18.923278
 30
0.0
  0
SPLINE
  5
135
100
AcDbEntity
  8
0
 62
7
100
AcDbSpline
 70
8
 71
3
 72
8
 73
4
 74
0
 40
0
 40
0
 40
0
 40
0
 40
1
 40
1
 40
1
 40
1
 10
55.488112
 20
18.923278
 30
0.0
 10
56.317960
 20
17.237617
 30
0.0
 10
58.435116
 20
14.234425
 30
0.0
 10
58.719217
 20
14.339940
 30
0.0
  0
SPLINE
  5
136
100
AcDbEntity
  8
0
 62
7
100
AcDbSpline
 70
8
 71
3
 72
8
 73
4
 74
0
 40
0
 40
0
 40
0
 40
0
 40
1
 40
1
 40
1
 40
1
 10
58.719217
 20
14.339940
 30
0.0
 10
58.804426
 20
14.371585
 30
0.0
 10
59.637864
 20
15.269594
 30
0.0
 10
60.571301
 20
16.335521
 30
0.0
  0
LWPOLYLINE
  5
137
100
AcDbEntity
  8
0
 62
7
100
AcDbPolyline
 90
3
 70
0
 10
61.859253
 20
30.810689
 30
0.0
 10
60.549057
 20
31.772460
 30
0.0
 10
59.506260
 20
30.946550
 30
0.0
  0
SPLINE
  5
138
100
AcDbEntity
  8
0
 62
7
100
AcDbSpline
 70
8
 71
3
 72
8
 73
4
 74
0
 40
0
 40
0
 40
0
 40
0
 40
1
 40
1
 40
1
 40
1
 10
36.785563
 20
14.746817
 30
0.0
 10
37.135591
 20
14.887866
 30
0.0
 10
36.793236
 20
15.275335
 30
0.0
 10
35.198063
 20
16.543483
 30
0.0
  0
SPLINE
  5
139
100
AcDbEntity
  8
0
 62
7
100
AcDbSpline
 70
8
 71
3
 72
8
 73
4
 74
0
 40
0
 40
0
 40
0
 40
0
 40
1
 40
1
 40
1
 40
1
 10
35.198063
 20
16.543483
 30
0.0
 10
31.635274
 20
19.375848
 30
0.0
 10
28.085391
 20
22.666714
 30
0.0
 10
25.733391
 20
25.317548
 30
0.0
  0
SPLINE
  5
13a
100
AcDbEntity
  8
0
 62
7
100
AcDbSpline
 70
8
 71
3
 72
8
 73
4
 74
0
 40
0
 40
0
 40
0
 40
0
 40
1
 40
1
 40
1
 40
1
 10
25.733391
 20
25.317548
 30
0.0
 10
23.088213
 20
28.298807
 30
0.0
 10
21.540507
 20
29.440793
 30
0.0
 10
19.384003
 20
30.002491
 30
0.0
  0
SPLINE
  5
13b
100
AcDbEntity
  8
0
 62
7
100
AcDbSpline
 70
8
 71
3
 72
8
 73
4
 74
0
 40
0
 40
0
 40
0
 40
0
 40
1
 40
1
 40
1
 40
1
 10
19.384003
 20
30.002491
 30
0.0
 10
17.700637
 20
30.440953
 30
0.0
 10
15.040329
 20
30.544606
 30
0.0
 10
15.040329
 20
30.171734
 30
0.0
  0
SPLINE
  5
13c
100
AcDbEntity
  8
0
 62
7
100
AcDbSpline
 70
8
 71
3
 72
8
 73
4
 74
0
 40
0
 40
0
 40
0
 40
0
 40
1
 40
1
 40
1
 40
1
 10
15.040329
 20
30.171734
 30
0.0
 10
15.040329
 20
30.043567
 30
0.0
 10
16.017358
 20
28.465989
 30
0.0
 10
17.211503
 20
26.666005
 30
0.0
  0
SPLINE
  5
13d
100
AcDbEntity
  8
0
 62
7
100
AcDbSpline
 70
8
 71
3
 72
8
 73
4
 74
0
 40
0
 40
0
 40
0
 40
0
 40
1
 40
1
 40
1
 40
1
 10
17.211503
 20
26.666005
 30
0.0
 10
21.668983
 20
19.947067
 30
0.0
 10
27.298827
 20
15.536399
 30
0.0
 10
32.369551
 20
14.790526
 30
0.0
  0
SPLINE
  5
13e
100
AcDbEntity
  8
0
 62
7
100
AcDbSpline
 70
8
 71
3
 72
8
 73
4
 74
0
 40
0
 40
0
 40
0
 40
0
 40
1
 40
1
 40
1
 40
1
 10
32.369551
 20
14.790526
 30
0.0
 10
34.079386
 20
14.539039
 30
0.0
 10
36.217413
 20
14.517873
 30
0.0
 10
36.785563
 20
14.746817
 30
0.0
  0
LWPOLYLINE
  5
13f
100
AcDbEntity
  8
0
 62
7
100
AcDbPolyline
 90
1
 70
1
 10
60.571301
 20
16.335521
 30
0.0
  0
SPLINE
  5
140
100
AcDbEntity
  8
0
 62
7
100
AcDbSpline
 70
8
 71
3
 72
8
 73
4
 74
0
 40
0
 40
0
 40
0
 40
0
 40
1
 40
1
 40
1
 40
1
 10
95.516671
 20
17.863754
 30
0.0
 10
98.302572
 20
20.098626
 30
0.0
 10
98.463986
 20
20.422629
 30
0.0
 10
98.339206
 20
23.529330
 30
0.0
  0
SPLINE
  5
141
100
AcDbEntity
  8
0
 62
7
100
AcDbSpline
 70
8
 71
3
 72
8
 73
4
 74
0
 40
0
 40
0
 40
0
 40
0
 40
1
 40
1
 40
1
 40
1
 10
98.339206
 20
23.529330
 30
0.0
 10
98.281424
 20
24.967935
 30
0.0
 10
98.150032
 20
26.229090
 30
0.0
 10
98.047228
 20
26.331897
 30
0.0
  0
SPLINE
  5
142
100
AcDbEntity
  8
0
 62
7
100
AcDbSpline
 70
8
 71
3
 72
8
 73
4
 74
0
 40
0
 40
0
 40
0
 40
0
 40
1
 40
1
 40
1
 40
1
 10
98.047228
 20
26.331897
 30
0.0
 10
97.658629
 20
26.720493
 30
0.0
 10
95.655596
 20
25.491427
 30
0.0
 10
94.311499
 20
24.039645
 30
0.0
  0
SPLINE
  5
143
100
AcDbEntity
  8
0
 62
7
100
AcDbSpline
 70
8
 71
3
 72
8
 73
4
 74
0
 40
0
 40
0
 40
0
 40
0
 40
1
 40
1
 40
1
 40
1
 10
94.311499
 20
24.039645
 30
0.0
 10
93.215809
 20
22.856169
 30
0.0
 10
92.794307
 20
22.138950
 30
0.0
 10
92.356535
 20
20.713128
 30
0.0
  0
SPLINE
  5
144
100
AcDbEntity
  8
0
 62
7
100
AcDbSpline
 70
8
 71
3
 72
8
 73
4
 74
0
 40
0
 40
0
 40
0
 40
0
 40
1
 40
1
 40
1
 40
1
 10
92.356535
 20
20.713128
 30
0.0
 10
91.709433
 20
18.605513
 30
0.0
 10
91.401408
 20
16.224925
 30
0.0
 10
91.648449
 20
15.240622
 30
0.0
  0
LWPOLYLINE
  5
145
100
AcDbEntity
  8
0
 62
7
100
AcDbPolyline
 90
1
 70
1
 10
36.785563
 20
14.746817
 30
0.0
  0
SPLINE
  5
146
100
AcDbEntity
  8
0
 62
7
100
AcDbSpline
 70
8
 71
3
 72
8
 73
4
 74
0
 40
0
 40
0
 40
0
 40
0
 40
1
 40
1
 40
1
 40
1
 10
92.787317
 20
15.501845
 30
0.0
 10
93.318920
 20
16.023127
 30
0.0
 10
94.547132
 20
17.085958
 30
0.0
 10
95.516671
 20
17.863754
 30
0.0
  0
LWPOLYLINE
  5
147
100
AcDbEntity
  8
0
 62
7
100
AcDbPolyline
 90
3
 70
0
 10
91.648449
 20
15.240622
 30
0.0
 10
91.820759
 20
14.554094
 30
0.0
 10
92.787317
 20
15.501845
 30
0.0
  0
SPLINE
  5
148
100
AcDbEntity
  8
0
 62
7
100
AcDbSpline
 70
8
 71
3
 72
8
 73
4
 74
0
 40
0
 40
0
 40
0
 40
0
 40
1
 40
1
 40
1
 40
1
 10
19.538246
 20
15.205564
 30
0.0
 10
19.538246
 20
15.286236
 30
0.0
 10
19.175732
 20
15.732720
 30
0.0
 10
18.732659
 20
16.197752
 30
0.0
  0
SPLINE
  5
149
100
AcDbEntity
  8
0
 62
7
100
AcDbSpline
 70
8
 71
3
 72
8
 73
4
 74
0
 40
0
 40
0
 40
0
 40
0
 40
1
 40
1
 40
1
 40
1
 10
18.732659
 20
16.197752
 30
0.0
 10
17.341966
 20
17.657432
 30
0.0
 10
15.714006
 20
20.327048
 30
0.0
 10
13.346876
 20
25.029642
 30
0.0
  0
SPLINE
  5
14a
100
AcDbEntity
  8
0
 62
7
100
AcDbSpline
 70
8
 71
3
 72
8
 73
4
 74
0
 40
0
 40
0
 40
0
 40
0
 40
1
 40
1
 40
1
 40
1
 10
13.346876
 20
25.029642
 30
0.0
 10
10.789762
 20
30.109660
 30
0.0
 10
9.276058
 20
32.310983
 30
0.0
 10
7.385866
 20
33.698511
 30
0.0
  0
SPLINE
  5
14b
100
AcDbEntity
  8
0
 62
7
100
AcDbSpline
 70
8
 71
3
 72
8
 73
4
 74
0
 40
0
 40
0
 40
0
 40
0
 40
1
 40
1
 40
1
 40
1
 10
7.385866
 20
33.698511
 30
0.0
 10
6.681880
 20
34.215284
 30
0.0
 10
6.032546
 20
34.638099
 30
0.0
 10
5.942902
 20
34.638099
 30
0.0
  0
SPLINE
  5
14c
100
AcDbEntity
  8
0
 62
7
100
AcDbSpline
 70
8
 71
3
 72
8
 73
4
 74
0
 40
0
 40
0
 40
0
 40
0
 40
1
 40
1
 40
1
 40
1
 10
5.942902
 20
34.638099
 30
0.0
 10
5.853258
 20
34.638099
 30
0.0
 10
5.779913
 20
31.939852
 30
0.0
 10
5.779913
 20
28.641992
 30
0.0
  0
LWPOLYLINE
  5
14d
100
AcDbEntity
  8
0
 62
7
100
AcDbPolyline
 90
1
 70
1
 10
95.516671
 20
17.863754
 30
0.0
  0
SPLINE
  5
14e
100
AcDbEntity
  8
0
 62
7
100
AcDbSpline
 70
8
 71
3
 72
8
 73
4
 74
0
 40
0
 40
0
 40
0
 40
0
 40
1
 40
1
 40
1
 40
1
 10
6.601668
 20
21.365289
 30
0.0
 10
8.390300
 20
18.577944
 30
0.0
 10
11.985083
 20
16.255325
 30
0.0
 10
15.701788
 20
15.485626
 30
0.0
  0
SPLINE
  5
14f
100
AcDbEntity
  8
0
 62
7
100
AcDbSpline
 70
8
 71
3
 72
8
 73
4
 74
0
 40
0
 40
0
 40
0
 40
0
 40
1
 40
1
 40
1
 40
1
 10
15.701788
 20
15.485626
 30
0.0
 10
17.616199
 20
15.089174
 30
0.0
 10
19.538246
 20
14.948879
 30
0.0
 10
19.538246
 20
15.205564
 30
0.0
  0
LWPOLYLINE
  5
150
100
AcDbEntity
  8
0
 62
7
100
AcDbPolyline
 90
3
 70
0
 10
5.779913
 20
28.641992
 30
0.0
 10
5.779913
 20
22.645883
 30
0.0
 10
6.601668
 20
21.365289
 30
0.0
  0
SPLINE
  5
151
100
AcDbEntity
  8
0
 62
7
100
AcDbSpline
 70
8
 71
3
 72
8
 73
4
 74
0
 40
0
 40
0
 40
0
 40
0
 40
1
 40
1
 40
1
 40
1
 10
48.731919
 20
17.638620
 30
0.0
 10
47.972088
 20
19.465541
 30
0.0
 10
46.918774
 20
20.738364
 30
0.0
 10
45.173953
 20
21.938099
 30
0.0
  0
SPLINE
  5
152
100
AcDbEntity
  8
0
 62
7
100
AcDbSpline
 70
8
 71
3
 72
8
 73
4
 74
0
 40
0
 40
0
 40
0
 40
0
 40
1
 40
1
 40
1
 40
1
 10
45.173953
 20
21.938099
 30
0.0
 10
41.363114
 20
24.558427
 30
0.0
 10
35.743253
 20
27.049854
 30
0.0
 10
30.488946
 20
28.448344
 30
0.0
  0
SPLINE
  5
153
100
AcDbEntity
  8
0
 62
7
100
AcDbSpline
 70
8
 71
3
 72
8
 73
4
 74
0
 40
0
 40
0
 40
0
 40
0
 40
1
 40
1
 40
1
 40
1
 10
30.488946
 20
28.448344
 30
0.0
 10
26.556973
 20
29.494882
 30
0.0
 10
26.456158
 20
29.365522
 30
0.0
 10
29.061137
 20
26.616247
 30
0.0
  0
SPLINE
  5
154
100
AcDbEntity
  8
0
 62
7
100
AcDbSpline
 70
8
 71
3
 72
8
 73
4
 74
0
 40
0
 40
0
 40
0
 40
0
 40
1
 40
1
 40
1
 40
1
 10
29.061137
 20
26.616247
 30
0.0
 10
34.971837
 20
20.378140
 30
0.0
 10
41.746702
 20
16.749620
 30
0.0
 10
47.636724
 20
16.667467
 30
0.0
  0
LWPOLYLINE
  5
155
100
AcDbEntity
  8
0
 62
7
100
AcDbPolyline
 90
1
 70
1
 10
19.538246
 20
15.205564
 30
0.0
  0
SPLINE
  5
156
100
AcDbEntity
  8
0
 62
7
100
AcDbSpline
 70
8
 71
3
 72
8
 73
4
 74
0
 40
0
 40
0
 40
0
 40
0
 40
1
 40
1
 40
1
 40
1
 10
87.590987
 20
23.194870
 30
0.0
 10
90.172641
 20
29.744649
 30
0.0
 10
91.041114
 20
33.631426
 30
0.0
 10
91.034687
 20
38.606849
 30
0.0
  0
SPLINE
  5
157
100
AcDbEntity
  8
0
 62
7
100
AcDbSpline
 70
8
 71
3
 72
8
 73
4
 74
0
 40
0
 40
0
 40
0
 40
0
 40
1
 40
1
 40
1
 40
1
 10
91.034687
 20
38.606849
 30
0.0
 10
91.031142
 20
41.347406
 30
0.0
 10
90.904915
 20
42.648920
 30
0.0
 10
90.492307
 20
44.198990
 30
0.0
  0
SPLINE
  5
158
100
AcDbEntity
  8
0
 62
7
100
AcDbSpline
 70
8
 71
3
 72
8
 73
4
 74
0
 40
0
 40
0
 40
0
 40
0
 40
1
 40
1
 40
1
 40
1
 10
90.492307
 20
44.198990
 30
0.0
 10
89.898154
 20
46.431081
 30
0.0
 10
88.577224
 20
49.218686
 30
0.0
 10
87.254223
 20
51.032439
 30
0.0
  0
LWPOLYLINE
  5
159
100
AcDbEntity
  8
0
 62
7
100
AcDbPolyline
 90
3
 70
0
 10
47.636724
 20
16.667467
 30
0.0
 10
49.144579
 20
16.646565
 30
0.0
 10
48.731919
 20
17.638620
 30
0.0
  0
SPLINE
  5
15a
100
AcDbEntity
  8
0
 62
7
100
AcDbSpline
 70
8
 71
3
 72
8
 73
4
 74
0
 40
0
 40
0
 40
0
 40
0
 40
1
 40
1
 40
1
 40
1
 10
85.094884
 20
50.767856
 30
0.0
 10
83.453753
 20
48.940424
 30
0.0
 10
81.827836
 20
45.669184
 30
0.0
 10
81.286072
 20
43.104766
 30
0.0
  0
SPLINE
  5
15b
100
AcDbEntity
  8
0
 62
7
100
AcDbSpline
 70
8
 71
3
 72
8
 73
4
 74
0
 40
0
 40
0
 40
0
 40
0
 40
1
 40
1
 40
1
 40
1
 10
81.286072
 20
43.104766
 30
0.0
 10
80.441969
 20
39.109229
 30
0.0
 10
81.169838
 20
32.987620
 30
0.0
 10
83.201163
 20
26.998229
 30
0.0
  0
SPLINE
  5
15c
100
AcDbEntity
  8
0
 62
7
100
AcDbSpline
 70
8
 71
3
 72
8
 73
4
 74
0
 40
0
 40
0
 40
0
 40
0
 40
1
 40
1
 40
1
 40
1
 10
83.201163
 20
26.998229
 30
0.0
 10
84.067520
 20
24.443764
 30
0.0
 10
85.949248
 20
20.086016
 30
0.0
 10
86.185941
 20
20.086016
 30
0.0
  0
SPLINE
  5
15d
100
AcDbEntity
  8
0
 62
7
100
AcDbSpline
 70
8
 71
3
 72
8
 73
4
 74
0
 40
0
 40
0
 40
0
 40
0
 40
1
 40
1
 40
1
 40
1
 10
86.185941
 20
20.086016
 30
0.0
 10
86.284755
 20
20.086016
 30
0.0
 10
86.917027
 20
21.485000
 30
0.0
 10
87.590987
 20
23.194870
 30
0.0
  0
LWPOLYLINE
  5
15e
100
AcDbEntity
  8
0
 62
7
100
AcDbPolyline
 90
3
 70
0
 10
87.254223
 20
51.032439
 30
0.0
 10
86.392917
 20
52.213237
 30
0.0
 10
85.094884
 20
50.767856
 30
0.0
  0
SPLINE
  5
15f
100
AcDbEntity
  8
0
 62
7
100
AcDbSpline
 70
8
 71
3
 72
8
 73
4
 74
0
 40
0
 40
0
 40
0
 40
0
 40
1
 40
1
 40
1
 40
1
 10
138.948869
 20
22.235851
 30
0.0
 10
140.206801
 20
22.883953
 30
0.0
 10
142.250925
 20
24.633666
 30
0.0
 10
143.049903
 20
25.746223
 30
0.0
  0
SPLINE
  5
160
100
AcDbEntity
  8
0
 62
7
100
AcDbSpline
 70
8
 71
3
 72
8
 73
4
 74
0
 40
0
 40
0
 40
0
 40
0
 40
1
 40
1
 40
1
 40
1
 10
143.049903
 20
25.746223
 30
0.0
 10
143.862078
 20
26.877158
 30
0.0
 10
143.892413
 20
27.014376
 30
0.0
 10
143.892413
 20
29.557300
 30
0.0
  0
LWPOLYLINE
  5
161
100
AcDbEntity
  8
0
 62
7
100
AcDbPolyline
 90
1
 70
1
 10
87.590987
 20
23.194870
 30
0.0
  0
SPLINE
  5
162
100
AcDbEntity
  8
0
 62
7
100
AcDbSpline
 70
8
 71
3
 72
8
 73
4
 74
0
 40
0
 40
0
 40
0
 40
0
 40
1
 40
1
 40
1
 40
1
 10
142.207231
 20
32.375671
 30
0.0
 10
140.199025
 20
32.590732
 30
0.0
 10
136.875171
 20
32.177567
 30
0.0
 10
134.574894
 20
31.426952
 30
0.0
  0
SPLINE
  5
163
100
AcDbEntity
  8
0
 62
7
100
AcDbSpline
 70
8
 71
3
 72
8
 73
4
 74
0
 40
0
 40
0
 40
0
 40
0
 40
1
 40
1
 40
1
 40
1
 10
134.574894
 20
31.426952
 30
0.0
 10
131.281805
 20
30.352365
 30
0.0
 10
126.112312
 20
27.199140
 30
0.0
 10
124.093565
 20
25.033676
 30
0.0
  0
LWPOLYLINE
  5
164
100
AcDbEntity
  8
0
 62
7
100
AcDbPolyline
 90
3
 70
0
 10
143.892413
 20
29.557300
 30
0.0
 10
143.892413
 20
32.195204
 30
0.0
 10
142.207231
 20
32.375671
 30
0.0
  0
SPLINE
  5
165
100
AcDbEntity
  8
0
 62
7
100
AcDbSpline
 70
8
 71
3
 72
8
 73
4
 74
0
 40
0
 40
0
 40
0
 40
0
 40
1
 40
1
 40
1
 40
1
 10
124.887315
 20
24.069643
 30
0.0
 10
128.303941
 20
23.336396
 30
0.0
 10
133.633112
 20
22.442334
 30
0.0
 10
135.822621
 20
22.235049
 30
0.0
  0
SPLINE
  5
166
100
AcDbEntity
  8
0
 62
7
100
AcDbSpline
 70
8
 71
3
 72
8
 73
4
 74
0
 40
0
 40
0
 40
0
 40
0
 40
1
 40
1
 40
1
 40
1
 10
135.822621
 20
22.235049
 30
0.0
 10
137.132309
 20
22.111060
 30
0.0
 10
138.241463
 20
21.993524
 30
0.0
 10
138.287411
 20
21.973858
 30
0.0
  0
SPLINE
  5
167
100
AcDbEntity
  8
0
 62
7
100
AcDbSpline
 70
8
 71
3
 72
8
 73
4
 74
0
 40
0
 40
0
 40
0
 40
0
 40
1
 40
1
 40
1
 40
1
 10
138.287411
 20
21.973858
 30
0.0
 10
138.333358
 20
21.954199
 30
0.0
 10
138.631015
 20
22.072087
 30
0.0
 10
138.948869
 20
22.235851
 30
0.0
  0
LWPOLYLINE
  5
168
100
AcDbEntity
  8
0
 62
7
100
AcDbPolyline
 90
3
 70
0
 10
124.093565
 20
25.033676
 30
0.0
 10
123.477009
 20
24.372311
 30
0.0
 10
124.887315
 20
24.069643
 30
0.0
  0
SPLINE
  5
169
100
AcDbEntity
  8
0
 62
7
100
AcDbSpline
 70
8
 71
3
 72
8
 73
4
 74
0
 40
0
 40
0
 40
0
 40
0
 40
1
 40
1
 40
1
 40
1
 10
106.503489
 20
24.151365
 30
0.0
 10
107.203804
 20
24.509653
 30
0.0
 10
108.218168
 20
25.259567
 30
0.0
 10
108.757633
 20
25.817843
 30
0.0
  0
SPLINE
  5
16a
100
AcDbEntity
  8
0
 62
7
100
AcDbSpline
 70
8
 71
3
 72
8
 73
4
 74
0
 40
0
 40
0
 40
0
 40
0
 40
1
 40
1
 40
1
 40
1
 10
108.757633
 20
25.817843
 30
0.0
 10
110.212267
 20
27.323201
 30
0.0
 10
110.554913
 20
28.585737
 30
0.0
 10
110.554913
 20
32.440234
 30
0.0
  0
LWPOLYLINE
  5
16b
100
AcDbEntity
  8
0
 62
7
100
AcDbPolyline
 90
1
 70
1
 10
138.948869
 20
22.235851
 30
0.0
  0
SPLINE
  5
16c
100
AcDbEntity
  8
0
 62
7
100
AcDbSpline
 70
8
 71
3
 72
8
 73
4
 74
0
 40
0
 40
0
 40
0
 40
0
 40
1
 40
1
 40
1
 40
1
 10
109.959600
 20
35.547705
 30
0.0
 10
107.570881
 20
34.807842
 30
0.0
 10
104.444739
 20
32.628020
 30
0.0
 10
103.527304
 20
31.062536
 30
0.0
  0
SPLINE
  5
16d
100
AcDbEntity
  8
0
 62
7
100
AcDbSpline
 70
8
 71
3
 72
8
 73
4
 74
0
 40
0
 40
0
 40
0
 40
0
 40
1
 40
1
 40
1
 40
1
 10
103.527304
 20
31.062536
 30
0.0
 10
102.252121
 20
28.886597
 30
0.0
 10
102.186251
 20
24.469053
 30
0.0
 10
103.414116
 20
23.471494
 30
0.0
  0
SPLINE
  5
16e
100
AcDbEntity
  8
0
 62
7
100
AcDbSpline
 70
8
 71
3
 72
8
 73
4
 74
0
 40
0
 40
0
 40
0
 40
0
 40
1
 40
1
 40
1
 40
1
 10
103.414116
 20
23.471494
 30
0.0
 10
104.029039
 20
22.971911
 30
0.0
 10
104.325722
 20
23.037199
 30
0.0
 10
106.503489
 20
24.151365
 30
0.0
  0
LWPOLYLINE
  5
16f
100
AcDbEntity
  8
0
 62
7
100
AcDbPolyline
 90
3
 70
0
 10
110.554913
 20
32.440234
 30
0.0
 10
110.554913
 20
35.732093
 30
0.0
 10
109.959600
 20
35.547705
 30
0.0
  0
SPLINE
  5
170
100
AcDbEntity
  8
0
 62
7
100
AcDbSpline
 70
8
 71
3
 72
8
 73
4
 74
0
 40
0
 40
0
 40
0
 40
0
 40
1
 40
1
 40
1
 40
1
 10
116.904339
 20
25.509678
 30
0.0
 10
118.473781
 20
26.321266
 30
0.0
 10
119.396121
 20
28.254153
 30
0.0
 10
119.240194
 20
30.404766
 30
0.0
  0
LWPOLYLINE
  5
171
100
AcDbEntity
  8
0
 62
7
100
AcDbPolyline
 90
1
 70
1
 10
106.503489
 20
24.151365
 30
0.0
  0
SPLINE
  5
172
100
AcDbEntity
  8
0
 62
7
100
AcDbSpline
 70
8
 71
3
 72
8
 73
4
 74
0
 40
0
 40
0
 40
0
 40
0
 40
1
 40
1
 40
1
 40
1
 10
117.517090
 20
31.593539
 30
0.0
 10
114.738700
 20
31.590311
 30
0.0
 10
113.471672
 20
30.154504
 30
0.0
 10
113.253988
 20
26.762519
 30
0.0
  0
LWPOLYLINE
  5
173
100
AcDbEntity
  8
0
 62
7
100
AcDbPolyline
 90
3
 70
0
 10
119.240194
 20
30.404766
 30
0.0
 10
119.153871
 20
31.595391
 30
0.0
 10
117.517090
 20
31.593539
 30
0.0
  0
SPLINE
  5
174
100
AcDbEntity
  8
0
 62
7
100
AcDbSpline
 70
8
 71
3
 72
8
 73
4
 74
0
 40
0
 40
0
 40
0
 40
0
 40
1
 40
1
 40
1
 40
1
 10
114.641328
 20
24.945015
 30
0.0
 10
115.474803
 20
25.042971
 30
0.0
 10
116.493158
 20
25.297090
 30
0.0
 10
116.904339
 20
25.509720
 30
0.0
  0
LWPOLYLINE
  5
175
100
AcDbEntity
  8
0
 62
7
100
AcDbPolyline
 90
3
 70
0
 10
113.253988
 20
26.762519
 30
0.0
 10
113.125917
 20
24.766908
 30
0.0
 10
114.641328
 20
24.945015
 30
0.0
  0
SPLINE
  5
176
100
AcDbEntity
  8
0
 62
7
100
AcDbSpline
 70
8
 71
3
 72
8
 73
4
 74
0
 40
0
 40
0
 40
0
 40
0
 40
1
 40
1
 40
1
 40
1
 10
52.397938
 20
27.692787
 30
0.0
 10
53.929886
 20
29.711264
 30
0.0
 10
55.178703
 20
32.017287
 30
0.0
 10
55.956660
 20
34.264219
 30
0.0
  0
SPLINE
  5
177
100
AcDbEntity
  8
0
 62
7
100
AcDbSpline
 70
8
 71
3
 72
8
 73
4
 74
0
 40
0
 40
0
 40
0
 40
0
 40
1
 40
1
 40
1
 40
1
 10
55.956660
 20
34.264219
 30
0.0
 10
56.576275
 20
36.053813
 30
0.0
 10
56.678669
 20
36.761378
 30
0.0
 10
56.661677
 20
39.136016
 30
0.0
  0
SPLINE
  5
178
100
AcDbEntity
  8
0
 62
7
100
AcDbSpline
 70
8
 71
3
 72
8
 73
4
 74
0
 40
0
 40
0
 40
0
 40
0
 40
1
 40
1
 40
1
 40
1
 10
56.661677
 20
39.136016
 30
0.0
 10
56.642468
 20
41.819237
 30
0.0
 10
56.586509
 20
42.076550
 30
0.0
 10
55.023356
 20
46.668375
 30
0.0
  0
SPLINE
  5
179
100
AcDbEntity
  8
0
 62
7
100
AcDbSpline
 70
8
 71
3
 72
8
 73
4
 74
0
 40
0
 40
0
 40
0
 40
0
 40
1
 40
1
 40
1
 40
1
 10
55.023356
 20
46.668375
 30
0.0
 10
54.133213
 20
49.283205
 30
0.0
 10
53.404913
 20
51.634689
 30
0.0
 10
53.404913
 20
51.893896
 30
0.0
  0
SPLINE
  5
17a
100
AcDbEntity
  8
0
 62
7
100
AcDbSpline
 70
8
 71
3
 72
8
 73
4
 74
0
 40
0
 40
0
 40
0
 40
0
 40
1
 40
1
 40
1
 40
1
 10
53.404913
 20
51.893896
 30
0.0
 10
53.404913
 20
52.513180
 30
0.0
 10
53.005797
 20
52.488716
 30
0.0
 10
51.893467
 20
51.801260
 30
0.0
  0
SPLINE
  5
17b
100
AcDbEntity
  8
0
 62
7
100
AcDbSpline
 70
8
 71
3
 72
8
 73
4
 74
0
 40
0
 40
0
 40
0
 40
0
 40
1
 40
1
 40
1
 40
1
 10
51.893467
 20
51.801260
 30
0.0
 10
50.640996
 20
51.027190
 30
0.0
 10
49.067656
 20
48.966623
 30
0.0
 10
48.334538
 20
47.140215
 30
0.0
  0
SPLINE
  5
17c
100
AcDbEntity
  8
0
 62
7
100
AcDbSpline
 70
8
 71
3
 72
8
 73
4
 74
0
 40
0
 40
0
 40
0
 40
0
 40
1
 40
1
 40
1
 40
1
 10
48.334538
 20
47.140215
 30
0.0
 10
47.782366
 20
45.764596
 30
0.0
 10
47.725071
 20
45.211389
 30
0.0
 10
47.738461
 20
41.384974
 30
0.0
  0
SPLINE
  5
17d
100
AcDbEntity
  8
0
 62
7
100
AcDbSpline
 70
8
 71
3
 72
8
 73
4
 74
0
 40
0
 40
0
 40
0
 40
0
 40
1
 40
1
 40
1
 40
1
 10
47.738461
 20
41.384974
 30
0.0
 10
47.751452
 20
37.669504
 30
0.0
 10
47.839400
 20
36.827976
 30
0.0
 10
48.457313
 20
34.505807
 30
0.0
  0
SPLINE
  5
17e
100
AcDbEntity
  8
0
 62
7
100
AcDbSpline
 70
8
 71
3
 72
8
 73
4
 74
0
 40
0
 40
0
 40
0
 40
0
 40
1
 40
1
 40
1
 40
1
 10
48.457313
 20
34.505807
 30
0.0
 10
49.229547
 20
31.603672
 30
0.0
 10
51.042885
 20
26.436016
 30
0.0
 10
51.289013
 20
26.436016
 30
0.0
  0
SPLINE
  5
17f
100
AcDbEntity
  8
0
 62
7
100
AcDbSpline
 70
8
 71
3
 72
8
 73
4
 74
0
 40
0
 40
0
 40
0
 40
0
 40
1
 40
1
 40
1
 40
1
 10
51.289013
 20
26.436016
 30
0.0
 10
51.374307
 20
26.436016
 30
0.0
 10
51.873322
 20
27.001563
 30
0.0
 10
52.397938
 20
27.692787
 30
0.0
  0
LWPOLYLINE
  5
180
100
AcDbEntity
  8
0
 62
7
100
AcDbPolyline
 90
1
 70
1
 10
116.904339
 20
25.509720
 30
0.0
  0
SPLINE
  5
181
100
AcDbEntity
  8
0
 62
7
100
AcDbSpline
 70
8
 71
3
 72
8
 73
4
 74
0
 40
0
 40
0
 40
0
 40
0
 40
1
 40
1
 40
1
 40
1
 10
44.814048
 20
29.642578
 30
0.0
 10
44.468280
 20
30.595152
 30
0.0
 10
44.038285
 20
32.376726
 30
0.0
 10
43.858497
 20
33.601628
 30
0.0
  0
SPLINE
  5
182
100
AcDbEntity
  8
0
 62
7
100
AcDbSpline
 70
8
 71
3
 72
8
 73
4
 74
0
 40
0
 40
0
 40
0
 40
0
 40
1
 40
1
 40
1
 40
1
 10
43.858497
 20
33.601628
 30
0.0
 10
43.631752
 20
35.146475
 30
0.0
 10
43.362068
 20
36.019721
 30
0.0
 10
42.978160
 20
36.452204
 30
0.0
  0
SPLINE
  5
183
100
AcDbEntity
  8
0
 62
7
100
AcDbSpline
 70
8
 71
3
 72
8
 73
4
 74
0
 40
0
 40
0
 40
0
 40
0
 40
1
 40
1
 40
1
 40
1
 10
42.978160
 20
36.452204
 30
0.0
 10
42.223372
 20
37.302488
 30
0.0
 10
39.918045
 20
38.601327
 30
0.0
 10
39.158257
 20
38.604367
 30
0.0
  0
SPLINE
  5
184
100
AcDbEntity
  8
0
 62
7
100
AcDbSpline
 70
8
 71
3
 72
8
 73
4
 74
0
 40
0
 40
0
 40
0
 40
0
 40
1
 40
1
 40
1
 40
1
 10
39.158257
 20
38.604367
 30
0.0
 10
37.658397
 20
38.610373
 30
0.0
 10
36.213396
 20
36.543819
 30
0.0
 10
35.809404
 20
33.815041
 30
0.0
  0
LWPOLYLINE
  5
185
100
AcDbEntity
  8
0
 62
7
100
AcDbPolyline
 90
1
 70
1
 10
52.397938
 20
27.692787
 30
0.0
  0
SPLINE
  5
186
100
AcDbEntity
  8
0
 62
7
100
AcDbSpline
 70
8
 71
3
 72
8
 73
4
 74
0
 40
0
 40
0
 40
0
 40
0
 40
1
 40
1
 40
1
 40
1
 10
38.152324
 20
31.617317
 30
0.0
 10
39.540267
 20
31.079535
 30
0.0
 10
41.724191
 20
30.004774
 30
0.0
 10
43.005489
 20
29.228960
 30
0.0
  0
SPLINE
  5
187
100
AcDbEntity
  8
0
 62
7
100
AcDbSpline
 70
8
 71
3
 72
8
 73
4
 74
0
 40
0
 40
0
 40
0
 40
0
 40
1
 40
1
 40
1
 40
1
 10
43.005489
 20
29.228960
 30
0.0
 10
44.286786
 20
28.453146
 30
0.0
 10
45.359331
 20
27.839143
 30
0.0
 10
45.388916
 20
27.864506
 30
0.0
  0
SPLINE
  5
188
100
AcDbEntity
  8
0
 62
7
100
AcDbSpline
 70
8
 71
3
 72
8
 73
4
 74
0
 40
0
 40
0
 40
0
 40
0
 40
1
 40
1
 40
1
 40
1
 10
45.388916
 20
27.864506
 30
0.0
 10
45.418505
 20
27.889880
 30
0.0
 10
45.159814
 20
28.690001
 30
0.0
 10
44.814048
 20
29.642578
 30
0.0
  0
LWPOLYLINE
  5
189
100
AcDbEntity
  8
0
 62
7
100
AcDbPolyline
 90
3
 70
0
 10
35.809404
 20
33.815041
 30
0.0
 10
35.628794
 20
32.595106
 30
0.0
 10
38.152324
 20
31.617317
 30
0.0
  0
SPLINE
  5
18a
100
AcDbEntity
  8
0
 62
7
100
AcDbSpline
 70
8
 71
3
 72
8
 73
4
 74
0
 40
0
 40
0
 40
0
 40
0
 40
1
 40
1
 40
1
 40
1
 10
70.937964
 20
31.477183
 30
0.0
 10
73.052646
 20
32.877890
 30
0.0
 10
74.850109
 20
36.159922
 30
0.0
 10
75.899309
 20
40.536225
 30
0.0
  0
SPLINE
  5
18b
100
AcDbEntity
  8
0
 62
7
100
AcDbSpline
 70
8
 71
3
 72
8
 73
4
 74
0
 40
0
 40
0
 40
0
 40
0
 40
1
 40
1
 40
1
 40
1
 10
75.899309
 20
40.536225
 30
0.0
 10
76.185665
 20
41.730642
 30
0.0
 10
76.420789
 20
42.795182
 30
0.0
 10
76.421808
 20
42.901870
 30
0.0
  0
SPLINE
  5
18c
100
AcDbEntity
  8
0
 62
7
100
AcDbSpline
 70
8
 71
3
 72
8
 73
4
 74
0
 40
0
 40
0
 40
0
 40
0
 40
1
 40
1
 40
1
 40
1
 10
76.421808
 20
42.901870
 30
0.0
 10
76.426333
 20
43.376196
 30
0.0
 10
73.740007
 20
44.427569
 30
0.0
 10
72.529853
 20
44.425097
 30
0.0
  0
SPLINE
  5
18d
100
AcDbEntity
  8
0
 62
7
100
AcDbSpline
 70
8
 71
3
 72
8
 73
4
 74
0
 40
0
 40
0
 40
0
 40
0
 40
1
 40
1
 40
1
 40
1
 10
72.529853
 20
44.425097
 30
0.0
 10
69.348244
 20
44.418589
 30
0.0
 10
65.720524
 20
41.187396
 30
0.0
 10
62.795711
 20
35.754919
 30
0.0
  0
LWPOLYLINE
  5
18e
100
AcDbEntity
  8
0
 62
7
100
AcDbPolyline
 90
1
 70
1
 10
44.814048
 20
29.642578
 30
0.0
  0
SPLINE
  5
18f
100
AcDbEntity
  8
0
 62
7
100
AcDbSpline
 70
8
 71
3
 72
8
 73
4
 74
0
 40
0
 40
0
 40
0
 40
0
 40
1
 40
1
 40
1
 40
1
 10
63.082133
 20
33.282829
 30
0.0
 10
65.687810
 20
30.584402
 30
0.0
 10
68.584823
 20
29.918528
 30
0.0
 10
70.937964
 20
31.477183
 30
0.0
  0
LWPOLYLINE
  5
190
100
AcDbEntity
  8
0
 62
7
100
AcDbPolyline
 90
3
 70
0
 10
62.795711
 20
35.754919
 30
0.0
 10
62.043725
 20
34.358199
 30
0.0
 10
63.082133
 20
33.282829
 30
0.0
  0
SPLINE
  5
191
100
AcDbEntity
  8
0
 62
7
100
AcDbSpline
 70
8
 71
3
 72
8
 73
4
 74
0
 40
0
 40
0
 40
0
 40
0
 40
1
 40
1
 40
1
 40
1
 10
100.308913
 20
34.008507
 30
0.0
 10
104.492187
 20
36.104732
 30
0.0
 10
109.351059
 20
39.691405
 30
0.0
 10
111.620578
 20
42.358440
 30
0.0
  0
SPLINE
  5
192
100
AcDbEntity
  8
0
 62
7
100
AcDbSpline
 70
8
 71
3
 72
8
 73
4
 74
0
 40
0
 40
0
 40
0
 40
0
 40
1
 40
1
 40
1
 40
1
 10
111.620578
 20
42.358440
 30
0.0
 10
114.557368
 20
45.809617
 30
0.0
 10
115.683715
 20
47.653080
 30
0.0
 10
116.912094
 20
51.018916
 30
0.0
  0
SPLINE
  5
193
100
AcDbEntity
  8
0
 62
7
100
AcDbSpline
 70
8
 71
3
 72
8
 73
4
 74
0
 40
0
 40
0
 40
0
 40
0
 40
1
 40
1
 40
1
 40
1
 10
116.912094
 20
51.018916
 30
0.0
 10
117.625582
 20
52.973922
 30
0.0
 10
118.592645
 20
57.380227
 30
0.0
 10
118.359415
 20
57.613460
 30
0.0
  0
SPLINE
  5
194
100
AcDbEntity
  8
0
 62
7
100
AcDbSpline
 70
8
 71
3
 72
8
 73
4
 74
0
 40
0
 40
0
 40
0
 40
0
 40
1
 40
1
 40
1
 40
1
 10
118.359415
 20
57.613460
 30
0.0
 10
118.035282
 20
57.937593
 30
0.0
 10
111.282162
 20
52.514762
 30
0.0
 10
108.807120
 20
49.942861
 30
0.0
  0
SPLINE
  5
195
100
AcDbEntity
  8
0
 62
7
100
AcDbSpline
 70
8
 71
3
 72
8
 73
4
 74
0
 40
0
 40
0
 40
0
 40
0
 40
1
 40
1
 40
1
 40
1
 10
108.807120
 20
49.942861
 30
0.0
 10
105.039986
 20
46.028300
 30
0.0
 10
102.072641
 20
41.796203
 30
0.0
 10
99.838531
 20
37.151641
 30
0.0
  0
SPLINE
  5
196
100
AcDbEntity
  8
0
 62
7
100
AcDbSpline
 70
8
 71
3
 72
8
 73
4
 74
0
 40
0
 40
0
 40
0
 40
0
 40
1
 40
1
 40
1
 40
1
 10
99.838531
 20
37.151641
 30
0.0
 10
98.398711
 20
34.158351
 30
0.0
 10
97.967075
 20
33.050599
 30
0.0
 10
98.240564
 20
33.050599
 30
0.0
  0
SPLINE
  5
197
100
AcDbEntity
  8
0
 62
7
100
AcDbSpline
 70
8
 71
3
 72
8
 73
4
 74
0
 40
0
 40
0
 40
0
 40
0
 40
1
 40
1
 40
1
 40
1
 10
98.240564
 20
33.050599
 30
0.0
 10
98.326763
 20
33.050599
 30
0.0
 10
99.257519
 20
33.481658
 30
0.0
 10
100.308913
 20
34.008507
 30
0.0
  0
LWPOLYLINE
  5
198
100
AcDbEntity
  8
0
 62
7
100
AcDbPolyline
 90
1
 70
1
 10
70.937964
 20
31.477183
 30
0.0
  0
SPLINE
  5
199
100
AcDbEntity
  8
0
 62
7
100
AcDbSpline
 70
8
 71
3
 72
8
 73
4
 74
0
 40
0
 40
0
 40
0
 40
0
 40
1
 40
1
 40
1
 40
1
 10
127.982803
 20
34.203158
 30
0.0
 10
128.802204
 20
34.691545
 30
0.0
 10
130.216762
 20
35.492936
 30
0.0
 10
131.126267
 20
35.984024
 30
0.0
  0
SPLINE
  5
19a
100
AcDbEntity
  8
0
 62
7
100
AcDbSpline
 70
8
 71
3
 72
8
 73
4
 74
0
 40
0
 40
0
 40
0
 40
0
 40
1
 40
1
 40
1
 40
1
 10
131.126267
 20
35.984024
 30
0.0
 10
132.526217
 20
36.739928
 30
0.0
 10
132.779913
 20
36.986551
 30
0.0
 10
132.779913
 20
37.591571
 30
0.0
  0
SPLINE
  5
19b
100
AcDbEntity
  8
0
 62
7
100
AcDbSpline
 70
8
 71
3
 72
8
 73
4
 74
0
 40
0
 40
0
 40
0
 40
0
 40
1
 40
1
 40
1
 40
1
 10
132.779913
 20
37.591571
 30
0.0
 10
132.779913
 20
38.865162
 30
0.0
 10
130.564737
 20
39.907459
 30
0.0
 10
127.824331
 20
39.923297
 30
0.0
  0
SPLINE
  5
19c
100
AcDbEntity
  8
0
 62
7
100
AcDbSpline
 70
8
 71
3
 72
8
 73
4
 74
0
 40
0
 40
0
 40
0
 40
0
 40
1
 40
1
 40
1
 40
1
 10
127.824331
 20
39.923297
 30
0.0
 10
126.009487
 20
39.933801
 30
0.0
 10
124.738029
 20
40.614650
 30
0.0
 10
123.145100
 20
42.429020
 30
0.0
  0
SPLINE
  5
19d
100
AcDbEntity
  8
0
 62
7
100
AcDbSpline
 70
8
 71
3
 72
8
 73
4
 74
0
 40
0
 40
0
 40
0
 40
0
 40
1
 40
1
 40
1
 40
1
 10
123.145100
 20
42.429020
 30
0.0
 10
122.345080
 20
43.340258
 30
0.0
 10
121.305111
 20
44.272473
 30
0.0
 10
120.834057
 20
44.500609
 30
0.0
  0
SPLINE
  5
19e
100
AcDbEntity
  8
0
 62
7
100
AcDbSpline
 70
8
 71
3
 72
8
 73
4
 74
0
 40
0
 40
0
 40
0
 40
0
 40
1
 40
1
 40
1
 40
1
 10
120.834057
 20
44.500609
 30
0.0
 10
120.042289
 20
44.884075
 30
0.0
 10
119.905722
 20
44.878739
 30
0.0
 10
119.026003
 20
44.429939
 30
0.0
  0
SPLINE
  5
19f
100
AcDbEntity
  8
0
 62
7
100
AcDbSpline
 70
8
 71
3
 72
8
 73
4
 74
0
 40
0
 40
0
 40
0
 40
0
 40
1
 40
1
 40
1
 40
1
 10
119.026003
 20
44.429939
 30
0.0
 10
116.663311
 20
43.224585
 30
0.0
 10
114.478035
 20
40.013578
 30
0.0
 10
114.089058
 20
37.175678
 30
0.0
  0
LWPOLYLINE
  5
1a0
100
AcDbEntity
  8
0
 62
7
100
AcDbPolyline
 90
1
 70
1
 10
100.308913
 20
34.008507
 30
0.0
  0
SPLINE
  5
1a1
100
AcDbEntity
  8
0
 62
7
100
AcDbSpline
 70
8
 71
3
 72
8
 73
4
 74
0
 40
0
 40
0
 40
0
 40
0
 40
1
 40
1
 40
1
 40
1
 10
114.681198
 20
36.042566
 30
0.0
 10
115.103876
 20
36.127055
 30
0.0
 10
116.640330
 20
36.617365
 30
0.0
 10
118.095538
 20
37.132144
 30
0.0
  0
SPLINE
  5
1a2
100
AcDbEntity
  8
0
 62
7
100
AcDbSpline
 70
8
 71
3
 72
8
 73
4
 74
0
 40
0
 40
0
 40
0
 40
0
 40
1
 40
1
 40
1
 40
1
 10
118.095538
 20
37.132144
 30
0.0
 10
119.550746
 20
37.646922
 30
0.0
 10
121.098559
 20
38.069814
 30
0.0
 10
121.535121
 20
38.071904
 30
0.0
  0
SPLINE
  5
1a3
100
AcDbEntity
  8
0
 62
7
100
AcDbSpline
 70
8
 71
3
 72
8
 73
4
 74
0
 40
0
 40
0
 40
0
 40
0
 40
1
 40
1
 40
1
 40
1
 10
121.535121
 20
38.071904
 30
0.0
 10
122.844494
 20
38.078175
 30
0.0
 10
123.931812
 20
37.222306
 30
0.0
 10
124.440503
 20
35.784978
 30
0.0
  0
SPLINE
  5
1a4
100
AcDbEntity
  8
0
 62
7
100
AcDbSpline
 70
8
 71
3
 72
8
 73
4
 74
0
 40
0
 40
0
 40
0
 40
0
 40
1
 40
1
 40
1
 40
1
 10
124.440503
 20
35.784978
 30
0.0
 10
125.271694
 20
33.436404
 30
0.0
 10
125.344634
 20
33.315182
 30
0.0
 10
125.926609
 20
33.315182
 30
0.0
  0
SPLINE
  5
1a5
100
AcDbEntity
  8
0
 62
7
100
AcDbSpline
 70
8
 71
3
 72
8
 73
4
 74
0
 40
0
 40
0
 40
0
 40
0
 40
1
 40
1
 40
1
 40
1
 10
125.926609
 20
33.315182
 30
0.0
 10
126.238116
 20
33.315182
 30
0.0
 10
127.163401
 20
33.714772
 30
0.0
 10
127.982803
 20
34.203158
 30
0.0
  0
LWPOLYLINE
  5
1a6
100
AcDbEntity
  8
0
 62
7
100
AcDbPolyline
 90
3
 70
0
 10
114.089058
 20
37.175678
 30
0.0
 10
113.912692
 20
35.888949
 30
0.0
 10
114.681198
 20
36.042566
 30
0.0
  0
SPLINE
  5
1a7
100
AcDbEntity
  8
0
 62
7
100
AcDbSpline
 70
8
 71
3
 72
8
 73
4
 74
0
 40
0
 40
0
 40
0
 40
0
 40
1
 40
1
 40
1
 40
1
 10
23.242413
 20
34.807057
 30
0.0
 10
23.242413
 20
35.381684
 30
0.0
 10
19.888056
 20
39.844943
 30
0.0
 10
17.868751
 20
41.957170
 30
0.0
  0
SPLINE
  5
1a8
100
AcDbEntity
  8
0
 62
7
100
AcDbSpline
 70
8
 71
3
 72
8
 73
4
 74
0
 40
0
 40
0
 40
0
 40
0
 40
1
 40
1
 40
1
 40
1
 10
17.868751
 20
41.957170
 30
0.0
 10
14.978357
 20
44.980577
 30
0.0
 10
11.828079
 20
47.378771
 30
0.0
 10
8.359600
 20
49.196151
 30
0.0
  0
LWPOLYLINE
  5
1a9
100
AcDbEntity
  8
0
 62
7
100
AcDbPolyline
 90
1
 70
1
 10
127.982803
 20
34.203158
 30
0.0
  0
SPLINE
  5
1aa
100
AcDbEntity
  8
0
 62
7
100
AcDbSpline
 70
8
 71
3
 72
8
 73
4
 74
0
 40
0
 40
0
 40
0
 40
0
 40
1
 40
1
 40
1
 40
1
 10
7.433558
 20
41.354290
 30
0.0
 10
8.343064
 20
40.472696
 30
0.0
 10
9.703177
 20
39.311821
 30
0.0
 10
10.456033
 20
38.774566
 30
0.0
  0
SPLINE
  5
1ab
100
AcDbEntity
  8
0
 62
7
100
AcDbSpline
 70
8
 71
3
 72
8
 73
4
 74
0
 40
0
 40
0
 40
0
 40
0
 40
1
 40
1
 40
1
 40
1
 10
10.456033
 20
38.774566
 30
0.0
 10
12.985274
 20
36.969639
 30
0.0
 10
17.275513
 20
35.231554
 30
0.0
 10
20.199704
 20
34.827157
 30
0.0
  0
SPLINE
  5
1ac
100
AcDbEntity
  8
0
 62
7
100
AcDbSpline
 70
8
 71
3
 72
8
 73
4
 74
0
 40
0
 40
0
 40
0
 40
0
 40
1
 40
1
 40
1
 40
1
 10
20.199704
 20
34.827157
 30
0.0
 10
21.548251
 20
34.640660
 30
0.0
 10
23.242413
 20
34.629468
 30
0.0
 10
23.242413
 20
34.807049
 30
0.0
  0
LWPOLYLINE
  5
1ad
100
AcDbEntity
  8
0
 62
7
100
AcDbPolyline
 90
5
 70
0
 10
8.359600
 20
49.196151
 30
0.0
 10
5.779913
 20
50.547831
 30
0.0
 10
5.779913
 20
46.752510
 30
0.0
 10
5.779913
 20
42.957186
 30
0.0
 10
7.433558
 20
41.354290
 30
0.0
  0
SPLINE
  5
1ae
100
AcDbEntity
  8
0
 62
7
100
AcDbSpline
 70
8
 71
3
 72
8
 73
4
 74
0
 40
0
 40
0
 40
0
 40
0
 40
1
 40
1
 40
1
 40
1
 10
30.403506
 20
37.293214
 30
0.0
 10
30.684952
 20
37.443839
 30
0.0
 10
31.271321
 20
38.187979
 30
0.0
 10
31.706545
 20
38.946860
 30
0.0
  0
SPLINE
  5
1af
100
AcDbEntity
  8
0
 62
7
100
AcDbSpline
 70
8
 71
3
 72
8
 73
4
 74
0
 40
0
 40
0
 40
0
 40
0
 40
1
 40
1
 40
1
 40
1
 10
31.706545
 20
38.946860
 30
0.0
 10
32.380452
 20
40.121914
 30
0.0
 10
32.497218
 20
40.601448
 30
0.0
 10
32.493516
 20
42.178724
 30
0.0
  0
SPLINE
  5
1b0
100
AcDbEntity
  8
0
 62
7
100
AcDbSpline
 70
8
 71
3
 72
8
 73
4
 74
0
 40
0
 40
0
 40
0
 40
0
 40
1
 40
1
 40
1
 40
1
 10
32.493516
 20
42.178724
 30
0.0
 10
32.485314
 20
45.676854
 30
0.0
 10
30.861844
 20
49.088725
 30
0.0
 10
27.491468
 20
52.691059
 30
0.0
  0
SPLINE
  5
1b1
100
AcDbEntity
  8
0
 62
7
100
AcDbSpline
 70
8
 71
3
 72
8
 73
4
 74
0
 40
0
 40
0
 40
0
 40
0
 40
1
 40
1
 40
1
 40
1
 10
27.491468
 20
52.691059
 30
0.0
 10
25.342625
 20
54.987788
 30
0.0
 10
23.047682
 20
56.686328
 30
0.0
 10
21.086509
 20
57.431517
 30
0.0
  0
LWPOLYLINE
  5
1b2
100
AcDbEntity
  8
0
 62
7
100
AcDbPolyline
 90
1
 70
1
 10
23.242413
 20
34.807049
 30
0.0
  0
SPLINE
  5
1b3
100
AcDbEntity
  8
0
 62
7
100
AcDbSpline
 70
8
 71
3
 72
8
 73
4
 74
0
 40
0
 40
0
 40
0
 40
0
 40
1
 40
1
 40
1
 40
1
 10
18.691136
 20
57.051795
 30
0.0
 10
16.536795
 20
55.426920
 30
0.0
 10
15.786474
 20
52.662304
 30
0.0
 10
16.885338
 20
50.398196
 30
0.0
  0
SPLINE
  5
1b4
100
AcDbEntity
  8
0
 62
7
100
AcDbSpline
 70
8
 71
3
 72
8
 73
4
 74
0
 40
0
 40
0
 40
0
 40
0
 40
1
 40
1
 40
1
 40
1
 10
16.885338
 20
50.398196
 30
0.0
 10
17.847239
 20
48.416289
 30
0.0
 10
25.896276
 20
39.034148
 30
0.0
 10
27.868896
 20
37.595516
 30
0.0
  0
SPLINE
  5
1b5
100
AcDbEntity
  8
0
 62
7
100
AcDbSpline
 70
8
 71
3
 72
8
 73
4
 74
0
 40
0
 40
0
 40
0
 40
0
 40
1
 40
1
 40
1
 40
1
 10
27.868896
 20
37.595516
 30
0.0
 10
28.728342
 20
36.968718
 30
0.0
 10
29.602393
 20
36.864473
 30
0.0
 10
30.403506
 20
37.293214
 30
0.0
  0
LWPOLYLINE
  5
1b6
100
AcDbEntity
  8
0
 62
7
100
AcDbPolyline
 90
3
 70
0
 10
21.086509
 20
57.431517
 30
0.0
 10
19.828400
 20
57.909561
 30
0.0
 10
18.691136
 20
57.051795
 30
0.0
  0
SPLINE
  5
1b7
100
AcDbEntity
  8
0
 62
7
100
AcDbSpline
 70
8
 71
3
 72
8
 73
4
 74
0
 40
0
 40
0
 40
0
 40
0
 40
1
 40
1
 40
1
 40
1
 10
141.000120
 20
38.766454
 30
0.0
 10
141.790515
 20
38.999758
 30
0.0
 10
142.764626
 20
39.382615
 30
0.0
 10
143.164809
 20
39.617250
 30
0.0
  0
SPLINE
  5
1b8
100
AcDbEntity
  8
0
 62
7
100
AcDbSpline
 70
8
 71
3
 72
8
 73
4
 74
0
 40
0
 40
0
 40
0
 40
0
 40
1
 40
1
 40
1
 40
1
 10
143.164809
 20
39.617250
 30
0.0
 10
143.821131
 20
40.002066
 30
0.0
 10
143.892413
 20
40.188989
 30
0.0
 10
143.892413
 20
41.525309
 30
0.0
  0
SPLINE
  5
1b9
100
AcDbEntity
  8
0
 62
7
100
AcDbSpline
 70
8
 71
3
 72
8
 73
4
 74
0
 40
0
 40
0
 40
0
 40
0
 40
1
 40
1
 40
1
 40
1
 10
143.892413
 20
41.525309
 30
0.0
 10
143.892413
 20
42.974241
 30
0.0
 10
143.870849
 20
43.017046
 30
0.0
 10
142.909406
 20
43.475521
 30
0.0
  0
SPLINE
  5
1ba
100
AcDbEntity
  8
0
 62
7
100
AcDbSpline
 70
8
 71
3
 72
8
 73
4
 74
0
 40
0
 40
0
 40
0
 40
0
 40
1
 40
1
 40
1
 40
1
 10
142.909406
 20
43.475521
 30
0.0
 10
141.811335
 20
43.999155
 30
0.0
 10
140.718387
 20
44.819054
 30
0.0
 10
137.806996
 20
47.303214
 30
0.0
  0
SPLINE
  5
1bb
100
AcDbEntity
  8
0
 62
7
100
AcDbSpline
 70
8
 71
3
 72
8
 73
4
 74
0
 40
0
 40
0
 40
0
 40
0
 40
1
 40
1
 40
1
 40
1
 10
137.806996
 20
47.303214
 30
0.0
 10
134.161480
 20
50.413769
 30
0.0
 10
131.275807
 20
51.261330
 30
0.0
 10
127.323853
 20
50.382260
 30
0.0
  0
SPLINE
  5
1bc
100
AcDbEntity
  8
0
 62
7
100
AcDbSpline
 70
8
 71
3
 72
8
 73
4
 74
0
 40
0
 40
0
 40
0
 40
0
 40
1
 40
1
 40
1
 40
1
 10
127.323853
 20
50.382260
 30
0.0
 10
126.177342
 20
50.127228
 30
0.0
 10
124.602957
 20
49.637193
 30
0.0
 10
123.825220
 20
49.293293
 30
0.0
  0
LWPOLYLINE
  5
1bd
100
AcDbEntity
  8
0
 62
7
100
AcDbPolyline
 90
1
 70
1
 10
30.403506
 20
37.293214
 30
0.0
  0
SPLINE
  5
1be
100
AcDbEntity
  8
0
 62
7
100
AcDbSpline
 70
8
 71
3
 72
8
 73
4
 74
0
 40
0
 40
0
 40
0
 40
0
 40
1
 40
1
 40
1
 40
1
 10
123.200099
 20
47.672329
 30
0.0
 10
124.473779
 20
46.064882
 30
0.0
 10
126.850836
 20
43.933531
 30
0.0
 10
127.525576
 20
43.793955
 30
0.0
  0
SPLINE
  5
1bf
100
AcDbEntity
  8
0
 62
7
100
AcDbSpline
 70
8
 71
3
 72
8
 73
4
 74
0
 40
0
 40
0
 40
0
 40
0
 40
1
 40
1
 40
1
 40
1
 10
127.525576
 20
43.793955
 30
0.0
 10
127.868847
 20
43.722946
 30
0.0
 10
128.927114
 20
43.614181
 30
0.0
 10
129.877278
 20
43.552253
 30
0.0
  0
SPLINE
  5
1c0
100
AcDbEntity
  8
0
 62
7
100
AcDbSpline
 70
8
 71
3
 72
8
 73
4
 74
0
 40
0
 40
0
 40
0
 40
0
 40
1
 40
1
 40
1
 40
1
 10
129.877278
 20
43.552253
 30
0.0
 10
132.138698
 20
43.404859
 30
0.0
 10
133.434233
 20
42.717117
 30
0.0
 10
135.213810
 20
40.719325
 30
0.0
  0
SPLINE
  5
1c1
100
AcDbEntity
  8
0
 62
7
100
AcDbSpline
 70
8
 71
3
 72
8
 73
4
 74
0
 40
0
 40
0
 40
0
 40
0
 40
1
 40
1
 40
1
 40
1
 10
135.213810
 20
40.719325
 30
0.0
 10
136.142521
 20
39.676734
 30
0.0
 10
137.017104
 20
38.976789
 30
0.0
 10
137.691164
 20
38.736656
 30
0.0
  0
SPLINE
  5
1c2
100
AcDbEntity
  8
0
 62
7
100
AcDbSpline
 70
8
 71
3
 72
8
 73
4
 74
0
 40
0
 40
0
 40
0
 40
0
 40
1
 40
1
 40
1
 40
1
 10
137.691164
 20
38.736656
 30
0.0
 10
139.037520
 20
38.257022
 30
0.0
 10
139.281688
 20
38.259221
 30
0.0
 10
141.000120
 20
38.766454
 30
0.0
  0
LWPOLYLINE
  5
1c3
100
AcDbEntity
  8
0
 62
7
100
AcDbPolyline
 90
3
 70
0
 10
123.825220
 20
49.293293
 30
0.0
 10
122.411151
 20
48.668017
 30
0.0
 10
123.200099
 20
47.672329
 30
0.0
  0
SPLINE
  5
1c4
100
AcDbEntity
  8
0
 62
7
100
AcDbSpline
 70
8
 71
3
 72
8
 73
4
 74
0
 40
0
 40
0
 40
0
 40
0
 40
1
 40
1
 40
1
 40
1
 10
64.529065
 20
44.651848
 30
0.0
 10
65.704479
 20
47.793423
 30
0.0
 10
65.432310
 20
51.341369
 30
0.0
 10
63.673511
 20
55.804766
 30
0.0
  0
SPLINE
  5
1c5
100
AcDbEntity
  8
0
 62
7
100
AcDbSpline
 70
8
 71
3
 72
8
 73
4
 74
0
 40
0
 40
0
 40
0
 40
0
 40
1
 40
1
 40
1
 40
1
 10
63.673511
 20
55.804766
 30
0.0
 10
62.517753
 20
58.737794
 30
0.0
 10
59.499153
 20
64.006849
 30
0.0
 10
58.974604
 20
64.006849
 30
0.0
  0
SPLINE
  5
1c6
100
AcDbEntity
  8
0
 62
7
100
AcDbSpline
 70
8
 71
3
 72
8
 73
4
 74
0
 40
0
 40
0
 40
0
 40
0
 40
1
 40
1
 40
1
 40
1
 10
58.974604
 20
64.006849
 30
0.0
 10
58.669428
 20
64.006849
 30
0.0
 10
57.208349
 20
60.618857
 30
0.0
 10
56.806661
 20
58.979766
 30
0.0
  0
SPLINE
  5
1c7
100
AcDbEntity
  8
0
 62
7
100
AcDbSpline
 70
8
 71
3
 72
8
 73
4
 74
0
 40
0
 40
0
 40
0
 40
0
 40
1
 40
1
 40
1
 40
1
 10
56.806661
 20
58.979766
 30
0.0
 10
56.246980
 20
56.695964
 30
0.0
 10
56.373030
 20
51.882712
 30
0.0
 10
57.065913
 20
49.080237
 30
0.0
  0
SPLINE
  5
1c8
100
AcDbEntity
  8
0
 62
7
100
AcDbSpline
 70
8
 71
3
 72
8
 73
4
 74
0
 40
0
 40
0
 40
0
 40
0
 40
1
 40
1
 40
1
 40
1
 10
57.065913
 20
49.080237
 30
0.0
 10
57.658952
 20
46.681599
 30
0.0
 10
59.654429
 20
41.627047
 30
0.0
 10
60.465491
 20
40.469095
 30
0.0
  0
LWPOLYLINE
  5
1c9
100
AcDbEntity
  8
0
 62
7
100
AcDbPolyline
 90
1
 70
1
 10
141.000120
 20
38.766454
 30
0.0
  0
SPLINE
  5
1ca
100
AcDbEntity
  8
0
 62
7
100
AcDbSpline
 70
8
 71
3
 72
8
 73
4
 74
0
 40
0
 40
0
 40
0
 40
0
 40
1
 40
1
 40
1
 40
1
 10
62.440717
 20
41.494453
 30
0.0
 10
63.436016
 20
42.576602
 30
0.0
 10
64.164967
 20
43.678708
 30
0.0
 10
64.529065
 20
44.651848
 30
0.0
  0
LWPOLYLINE
  5
1cb
100
AcDbEntity
  8
0
 62
7
100
AcDbPolyline
 90
3
 70
0
 10
60.465491
 20
40.469095
 30
0.0
 10
60.911711
 20
39.832029
 30
0.0
 10
62.440717
 20
41.494453
 30
0.0
  0
SPLINE
  5
1cc
100
AcDbEntity
  8
0
 62
7
100
AcDbSpline
 70
8
 71
3
 72
8
 73
4
 74
0
 40
0
 40
0
 40
0
 40
0
 40
1
 40
1
 40
1
 40
1
 10
42.707227
 20
44.062796
 30
0.0
 10
42.470980
 20
47.281200
 30
0.0
 10
41.742352
 20
49.849156
 30
0.0
 10
40.274796
 20
52.635594
 30
0.0
  0
SPLINE
  5
1cd
100
AcDbEntity
  8
0
 62
7
100
AcDbSpline
 70
8
 71
3
 72
8
 73
4
 74
0
 40
0
 40
0
 40
0
 40
0
 40
1
 40
1
 40
1
 40
1
 10
40.274796
 20
52.635594
 30
0.0
 10
38.939528
 20
55.170864
 30
0.0
 10
35.914526
 20
59.050468
 30
0.0
 10
34.030687
 20
60.643751
 30
0.0
  0
SPLINE
  5
1ce
100
AcDbEntity
  8
0
 62
7
100
AcDbSpline
 70
8
 71
3
 72
8
 73
4
 74
0
 40
0
 40
0
 40
0
 40
0
 40
1
 40
1
 40
1
 40
1
 10
34.030687
 20
60.643751
 30
0.0
 10
32.599167
 20
61.854480
 30
0.0
 10
32.352213
 20
61.787744
 30
0.0
 10
31.365402
 20
59.923508
 30
0.0
  0
SPLINE
  5
1cf
100
AcDbEntity
  8
0
 62
7
100
AcDbSpline
 70
8
 71
3
 72
8
 73
4
 74
0
 40
0
 40
0
 40
0
 40
0
 40
1
 40
1
 40
1
 40
1
 10
31.365402
 20
59.923508
 30
0.0
 10
29.609317
 20
56.605998
 30
0.0
 10
32.086838
 20
49.791866
 30
0.0
 10
36.711543
 20
45.219583
 30
0.0
  0
SPLINE
  5
1d0
100
AcDbEntity
  8
0
 62
7
100
AcDbSpline
 70
8
 71
3
 72
8
 73
4
 74
0
 40
0
 40
0
 40
0
 40
0
 40
1
 40
1
 40
1
 40
1
 10
36.711543
 20
45.219583
 30
0.0
 10
38.659004
 20
43.294197
 30
0.0
 10
42.102376
 20
41.104002
 30
0.0
 10
42.649928
 20
41.442410
 30
0.0
  0
SPLINE
  5
1d1
100
AcDbEntity
  8
0
 62
7
100
AcDbSpline
 70
8
 71
3
 72
8
 73
4
 74
0
 40
0
 40
0
 40
0
 40
0
 40
1
 40
1
 40
1
 40
1
 10
42.649928
 20
41.442410
 30
0.0
 10
42.785628
 20
41.526277
 30
0.0
 10
42.810369
 20
42.657675
 30
0.0
 10
42.707227
 20
44.062796
 30
0.0
  0
LWPOLYLINE
  5
1d2
100
AcDbEntity
  8
0
 62
7
100
AcDbPolyline
 90
1
 70
1
 10
64.529065
 20
44.651848
 30
0.0
  0
SPLINE
  5
1d3
100
AcDbEntity
  8
0
 62
7
100
AcDbSpline
 70
8
 71
3
 72
8
 73
4
 74
0
 40
0
 40
0
 40
0
 40
0
 40
1
 40
1
 40
1
 40
1
 10
100.382538
 20
47.602682
 30
0.0
 10
103.832459
 20
52.655616
 30
0.0
 10
103.373685
 20
55.638623
 30
0.0
 10
98.032594
 20
62.882370
 30
0.0
  0
SPLINE
  5
1d4
100
AcDbEntity
  8
0
 62
7
100
AcDbSpline
 70
8
 71
3
 72
8
 73
4
 74
0
 40
0
 40
0
 40
0
 40
0
 40
1
 40
1
 40
1
 40
1
 10
98.032594
 20
62.882370
 30
0.0
 10
96.447205
 20
65.032520
 30
0.0
 10
96.002830
 20
65.428439
 30
0.0
 10
96.002830
 20
64.690805
 30
0.0
  0
SPLINE
  5
1d5
100
AcDbEntity
  8
0
 62
7
100
AcDbSpline
 70
8
 71
3
 72
8
 73
4
 74
0
 40
0
 40
0
 40
0
 40
0
 40
1
 40
1
 40
1
 40
1
 10
96.002830
 20
64.690805
 30
0.0
 10
96.002830
 20
63.964619
 30
0.0
 10
93.917415
 20
59.222399
 30
0.0
 10
92.727404
 20
57.242514
 30
0.0
  0
LWPOLYLINE
  5
1d6
100
AcDbEntity
  8
0
 62
7
100
AcDbPolyline
 90
1
 70
1
 10
42.707227
 20
44.062796
 30
0.0
  0
SPLINE
  5
1d7
100
AcDbEntity
  8
0
 62
7
100
AcDbSpline
 70
8
 71
3
 72
8
 73
4
 74
0
 40
0
 40
0
 40
0
 40
0
 40
1
 40
1
 40
1
 40
1
 10
92.597473
 20
53.877842
 30
0.0
 10
94.013168
 20
52.086851
 30
0.0
 10
95.818320
 20
48.456601
 30
0.0
 10
96.556528
 20
45.915977
 30
0.0
  0
LWPOLYLINE
  5
1d8
100
AcDbEntity
  8
0
 62
7
100
AcDbPolyline
 90
3
 70
0
 10
92.727404
 20
57.242514
 30
0.0
 10
91.522479
 20
55.237811
 30
0.0
 10
92.597473
 20
53.877842
 30
0.0
  0
SPLINE
  5
1d9
100
AcDbEntity
  8
0
 62
7
100
AcDbSpline
 70
8
 71
3
 72
8
 73
4
 74
0
 40
0
 40
0
 40
0
 40
0
 40
1
 40
1
 40
1
 40
1
 10
98.178673
 20
44.879895
 30
0.0
 10
98.744990
 20
45.431543
 30
0.0
 10
99.736730
 20
46.656797
 30
0.0
 10
100.382538
 20
47.602682
 30
0.0
  0
LWPOLYLINE
  5
1da
100
AcDbEntity
  8
0
 62
7
100
AcDbPolyline
 90
3
 70
0
 10
96.556528
 20
45.915977
 30
0.0
 10
97.149007
 20
43.876899
 30
0.0
 10
98.178673
 20
44.879895
 30
0.0
  0
SPLINE
  5
1db
100
AcDbEntity
  8
0
 62
7
100
AcDbSpline
 70
8
 71
3
 72
8
 73
4
 74
0
 40
0
 40
0
 40
0
 40
0
 40
1
 40
1
 40
1
 40
1
 10
143.892413
 20
51.042266
 30
0.0
 10
143.892413
 20
53.370599
 30
0.0
 10
143.813541
 20
55.275599
 30
0.0
 10
143.717140
 20
55.275599
 30
0.0
  0
SPLINE
  5
1dc
100
AcDbEntity
  8
0
 62
7
100
AcDbSpline
 70
8
 71
3
 72
8
 73
4
 74
0
 40
0
 40
0
 40
0
 40
0
 40
1
 40
1
 40
1
 40
1
 10
143.717140
 20
55.275599
 30
0.0
 10
142.881503
 20
55.275599
 30
0.0
 10
138.865330
 20
51.754976
 30
0.0
 10
138.865330
 20
51.022448
 30
0.0
  0
SPLINE
  5
1dd
100
AcDbEntity
  8
0
 62
7
100
AcDbSpline
 70
8
 71
3
 72
8
 73
4
 74
0
 40
0
 40
0
 40
0
 40
0
 40
1
 40
1
 40
1
 40
1
 10
138.865330
 20
51.022448
 30
0.0
 10
138.865330
 20
50.562587
 30
0.0
 10
143.142576
 20
46.836745
 30
0.0
 10
143.693975
 20
46.816293
 30
0.0
  0
SPLINE
  5
1de
100
AcDbEntity
  8
0
 62
7
100
AcDbSpline
 70
8
 71
3
 72
8
 73
4
 74
0
 40
0
 40
0
 40
0
 40
0
 40
1
 40
1
 40
1
 40
1
 10
143.693975
 20
46.816293
 30
0.0
 10
143.803116
 20
46.812245
 30
0.0
 10
143.892413
 20
48.713932
 30
0.0
 10
143.892413
 20
51.042266
 30
0.0
  0
LWPOLYLINE
  5
1df
100
AcDbEntity
  8
0
 62
7
100
AcDbPolyline
 90
1
 70
1
 10
100.382538
 20
47.602682
 30
0.0
  0
SPLINE
  5
1e0
100
AcDbEntity
  8
0
 62
7
100
AcDbSpline
 70
8
 71
3
 72
8
 73
4
 74
0
 40
0
 40
0
 40
0
 40
0
 40
1
 40
1
 40
1
 40
1
 10
77.724857
 20
48.969856
 30
0.0
 10
78.920417
 20
49.551693
 30
0.0
 10
80.069484
 20
50.448652
 30
0.0
 10
81.607755
 20
52.000841
 30
0.0
  0
SPLINE
  5
1e1
100
AcDbEntity
  8
0
 62
7
100
AcDbSpline
 70
8
 71
3
 72
8
 73
4
 74
0
 40
0
 40
0
 40
0
 40
0
 40
1
 40
1
 40
1
 40
1
 10
81.607755
 20
52.000841
 30
0.0
 10
82.809408
 20
53.213368
 30
0.0
 10
83.869366
 20
54.447363
 30
0.0
 10
83.963214
 20
54.743051
 30
0.0
  0
SPLINE
  5
1e2
100
AcDbEntity
  8
0
 62
7
100
AcDbSpline
 70
8
 71
3
 72
8
 73
4
 74
0
 40
0
 40
0
 40
0
 40
0
 40
1
 40
1
 40
1
 40
1
 10
83.963214
 20
54.743051
 30
0.0
 10
84.083917
 20
55.123347
 30
0.0
 10
83.788806
 20
55.802535
 30
0.0
 10
82.954720
 20
57.064071
 30
0.0
  0
SPLINE
  5
1e3
100
AcDbEntity
  8
0
 62
7
100
AcDbSpline
 70
8
 71
3
 72
8
 73
4
 74
0
 40
0
 40
0
 40
0
 40
0
 40
1
 40
1
 40
1
 40
1
 10
82.954720
 20
57.064071
 30
0.0
 10
81.285458
 20
59.588794
 30
0.0
 10
79.189614
 20
63.309942
 30
0.0
 10
78.500600
 20
64.972311
 30
0.0
  0
SPLINE
  5
1e4
100
AcDbEntity
  8
0
 62
7
100
AcDbSpline
 70
8
 71
3
 72
8
 73
4
 74
0
 40
0
 40
0
 40
0
 40
0
 40
1
 40
1
 40
1
 40
1
 10
78.500600
 20
64.972311
 30
0.0
 10
78.177853
 20
65.750996
 30
0.0
 10
77.829733
 20
66.388099
 30
0.0
 10
77.727000
 20
66.388099
 30
0.0
  0
SPLINE
  5
1e5
100
AcDbEntity
  8
0
 62
7
100
AcDbSpline
 70
8
 71
3
 72
8
 73
4
 74
0
 40
0
 40
0
 40
0
 40
0
 40
1
 40
1
 40
1
 40
1
 10
77.727000
 20
66.388099
 30
0.0
 10
77.277407
 20
66.388099
 30
0.0
 10
74.314698
 20
63.969678
 30
0.0
 10
73.161999
 20
62.661747
 30
0.0
  0
SPLINE
  5
1e6
100
AcDbEntity
  8
0
 62
7
100
AcDbSpline
 70
8
 71
3
 72
8
 73
4
 74
0
 40
0
 40
0
 40
0
 40
0
 40
1
 40
1
 40
1
 40
1
 10
73.161999
 20
62.661747
 30
0.0
 10
72.467377
 20
61.873585
 30
0.0
 10
71.421477
 20
60.270948
 30
0.0
 10
70.837777
 20
59.100331
 30
0.0
  0
SPLINE
  5
1e7
100
AcDbEntity
  8
0
 62
7
100
AcDbSpline
 70
8
 71
3
 72
8
 73
4
 74
0
 40
0
 40
0
 40
0
 40
0
 40
1
 40
1
 40
1
 40
1
 10
70.837777
 20
59.100331
 30
0.0
 10
68.505758
 20
54.423445
 30
0.0
 10
69.420846
 20
49.493525
 30
0.0
 10
72.851788
 20
48.250113
 30
0.0
  0
SPLINE
  5
1e8
100
AcDbEntity
  8
0
 62
7
100
AcDbSpline
 70
8
 71
3
 72
8
 73
4
 74
0
 40
0
 40
0
 40
0
 40
0
 40
1
 40
1
 40
1
 40
1
 10
72.851788
 20
48.250113
 30
0.0
 10
74.244192
 20
47.745489
 30
0.0
 10
75.629434
 20
47.950086
 30
0.0
 10
77.724857
 20
48.969856
 30
0.0
  0
LWPOLYLINE
  5
1e9
100
AcDbEntity
  8
0
 62
7
100
AcDbPolyline
 90
1
 70
1
 10
143.892413
 20
51.042266
 30
0.0
  0
SPLINE
  5
1ea
100
AcDbEntity
  8
0
 62
7
100
AcDbSpline
 70
8
 71
3
 72
8
 73
4
 74
0
 40
0
 40
0
 40
0
 40
0
 40
1
 40
1
 40
1
 40
1
 10
123.245197
 20
53.326054
 30
0.0
 10
126.318854
 20
55.636565
 30
0.0
 10
129.096966
 20
59.471155
 30
0.0
 10
130.472357
 20
63.301607
 30
0.0
  0
SPLINE
  5
1eb
100
AcDbEntity
  8
0
 62
7
100
AcDbSpline
 70
8
 71
3
 72
8
 73
4
 74
0
 40
0
 40
0
 40
0
 40
0
 40
1
 40
1
 40
1
 40
1
 10
130.472357
 20
63.301607
 30
0.0
 10
131.097435
 20
65.042441
 30
0.0
 10
131.276090
 20
66.052205
 30
0.0
 10
131.392187
 20
68.500509
 30
0.0
  0
LWPOLYLINE
  5
1ec
100
AcDbEntity
  8
0
 62
7
100
AcDbPolyline
 90
1
 70
1
 10
77.724857
 20
48.969856
 30
0.0
  0
SPLINE
  5
1ed
100
AcDbEntity
  8
0
 62
7
100
AcDbSpline
 70
8
 71
3
 72
8
 73
4
 74
0
 40
0
 40
0
 40
0
 40
0
 40
1
 40
1
 40
1
 40
1
 10
130.407730
 20
70.220300
 30
0.0
 10
129.787034
 20
69.495038
 30
0.0
 10
127.805130
 20
67.334770
 30
0.0
 10
126.003502
 20
65.419708
 30
0.0
  0
SPLINE
  5
1ee
100
AcDbEntity
  8
0
 62
7
100
AcDbSpline
 70
8
 71
3
 72
8
 73
4
 74
0
 40
0
 40
0
 40
0
 40
0
 40
1
 40
1
 40
1
 40
1
 10
126.003502
 20
65.419708
 30
0.0
 10
121.621733
 20
60.762052
 30
0.0
 10
121.326092
 20
60.159913
 30
0.0
 10
121.185326
 20
55.606328
 30
0.0
  0
SPLINE
  5
1ef
100
AcDbEntity
  8
0
 62
7
100
AcDbSpline
 70
8
 71
3
 72
8
 73
4
 74
0
 40
0
 40
0
 40
0
 40
0
 40
1
 40
1
 40
1
 40
1
 10
121.185326
 20
55.606328
 30
0.0
 10
121.115143
 20
53.336013
 30
0.0
 10
121.171753
 20
52.100599
 30
0.0
 10
121.345968
 20
52.100599
 30
0.0
  0
SPLINE
  5
1f0
100
AcDbEntity
  8
0
 62
7
100
AcDbSpline
 70
8
 71
3
 72
8
 73
4
 74
0
 40
0
 40
0
 40
0
 40
0
 40
1
 40
1
 40
1
 40
1
 10
121.345968
 20
52.100599
 30
0.0
 10
121.493926
 20
52.100599
 30
0.0
 10
122.348577
 20
52.652054
 30
0.0
 10
123.245197
 20
53.326054
 30
0.0
  0
LWPOLYLINE
  5
1f1
100
AcDbEntity
  8
0
 62
7
100
AcDbPolyline
 90
3
 70
0
 10
131.392187
 20
68.500509
 30
0.0
 10
131.536268
 20
71.538957
 30
0.0
 10
130.407730
 20
70.220300
 30
0.0
  0
SPLINE
  5
1f2
100
AcDbEntity
  8
0
 62
7
100
AcDbSpline
 70
8
 71
3
 72
8
 73
4
 74
0
 40
0
 40
0
 40
0
 40
0
 40
1
 40
1
 40
1
 40
1
 10
48.514849
 20
53.590373
 30
0.0
 10
49.094332
 20
53.973185
 30
0.0
 10
50.263674
 20
54.955451
 30
0.0
 10
51.113388
 20
55.773185
 30
0.0
  0
SPLINE
  5
1f3
100
AcDbEntity
  8
0
 62
7
100
AcDbSpline
 70
8
 71
3
 72
8
 73
4
 74
0
 40
0
 40
0
 40
0
 40
0
 40
1
 40
1
 40
1
 40
1
 10
51.113388
 20
55.773185
 30
0.0
 10
54.669092
 20
59.195070
 30
0.0
 10
56.444973
 20
63.532628
 30
0.0
 10
56.759864
 20
69.564605
 30
0.0
  0
SPLINE
  5
1f4
100
AcDbEntity
  8
0
 62
7
100
AcDbSpline
 70
8
 71
3
 72
8
 73
4
 74
0
 40
0
 40
0
 40
0
 40
0
 40
1
 40
1
 40
1
 40
1
 10
56.759864
 20
69.564605
 30
0.0
 10
56.947443
 20
73.157874
 30
0.0
 10
56.679722
 20
76.706849
 30
0.0
 10
56.221077
 20
76.706849
 30
0.0
  0
SPLINE
  5
1f5
100
AcDbEntity
  8
0
 62
7
100
AcDbSpline
 70
8
 71
3
 72
8
 73
4
 74
0
 40
0
 40
0
 40
0
 40
0
 40
1
 40
1
 40
1
 40
1
 10
56.221077
 20
76.706849
 30
0.0
 10
55.465763
 20
76.706849
 30
0.0
 10
51.546779
 20
74.098108
 30
0.0
 10
50.093909
 20
72.628189
 30
0.0
  0
SPLINE
  5
1f6
100
AcDbEntity
  8
0
 62
7
100
AcDbSpline
 70
8
 71
3
 72
8
 73
4
 74
0
 40
0
 40
0
 40
0
 40
0
 40
1
 40
1
 40
1
 40
1
 10
50.093909
 20
72.628189
 30
0.0
 10
47.003679
 20
69.501697
 30
0.0
 10
46.386372
 20
67.141344
 30
0.0
 10
46.602092
 20
59.276782
 30
0.0
  0
SPLINE
  5
1f7
100
AcDbEntity
  8
0
 62
7
100
AcDbSpline
 70
8
 71
3
 72
8
 73
4
 74
0
 40
0
 40
0
 40
0
 40
0
 40
1
 40
1
 40
1
 40
1
 10
46.602092
 20
59.276782
 30
0.0
 10
46.736984
 20
54.358932
 30
0.0
 10
46.894594
 20
52.894349
 30
0.0
 10
47.288937
 20
52.894349
 30
0.0
  0
SPLINE
  5
1f8
100
AcDbEntity
  8
0
 62
7
100
AcDbSpline
 70
8
 71
3
 72
8
 73
4
 74
0
 40
0
 40
0
 40
0
 40
0
 40
1
 40
1
 40
1
 40
1
 10
47.288937
 20
52.894349
 30
0.0
 10
47.383705
 20
52.894349
 30
0.0
 10
47.935364
 20
53.207560
 30
0.0
 10
48.514849
 20
53.590373
 30
0.0
  0
LWPOLYLINE
  5
1f9
100
AcDbEntity
  8
0
 62
7
100
AcDbPolyline
 90
1
 70
1
 10
123.245197
 20
53.326054
 30
0.0
  0
SPLINE
  5
1fa
100
AcDbEntity
  8
0
 62
7
100
AcDbSpline
 70
8
 71
3
 72
8
 73
4
 74
0
 40
0
 40
0
 40
0
 40
0
 40
1
 40
1
 40
1
 40
1
 10
135.458025
 20
54.862413
 30
0.0
 10
138.663527
 20
55.541865
 30
0.0
 10
141.503683
 20
57.323000
 30
0.0
 10
143.114189
 20
59.663790
 30
0.0
  0
LWPOLYLINE
  5
1fb
100
AcDbEntity
  8
0
 62
7
100
AcDbPolyline
 90
1
 70
1
 10
48.514849
 20
53.590373
 30
0.0
  0
SPLINE
  5
1fc
100
AcDbEntity
  8
0
 62
7
100
AcDbSpline
 70
8
 71
3
 72
8
 73
4
 74
0
 40
0
 40
0
 40
0
 40
0
 40
1
 40
1
 40
1
 40
1
 10
142.900225
 20
68.629355
 30
0.0
 10
139.263758
 20
67.120516
 30
0.0
 10
135.370657
 20
64.052387
 30
0.0
 10
133.157907
 20
60.951494
 30
0.0
  0
SPLINE
  5
1fd
100
AcDbEntity
  8
0
 62
7
100
AcDbSpline
 70
8
 71
3
 72
8
 73
4
 74
0
 40
0
 40
0
 40
0
 40
0
 40
1
 40
1
 40
1
 40
1
 10
133.157907
 20
60.951494
 30
0.0
 10
131.938162
 20
59.242174
 30
0.0
 10
130.134080
 20
55.629371
 30
0.0
 10
130.134080
 20
54.896065
 30
0.0
  0
SPLINE
  5
1fe
100
AcDbEntity
  8
0
 62
7
100
AcDbSpline
 70
8
 71
3
 72
8
 73
4
 74
0
 40
0
 40
0
 40
0
 40
0
 40
1
 40
1
 40
1
 40
1
 10
130.134080
 20
54.896065
 30
0.0
 10
130.134080
 20
54.352418
 30
0.0
 10
132.967481
 20
54.334508
 30
0.0
 10
135.458025
 20
54.862413
 30
0.0
  0
LWPOLYLINE
  5
1ff
100
AcDbEntity
  8
0
 62
7
100
AcDbPolyline
 90
5
 70
0
 10
143.114189
 20
59.663790
 30
0.0
 10
143.892413
 20
60.794900
 30
0.0
 10
143.892413
 20
64.917968
 30
0.0
 10
143.892413
 20
69.041034
 30
0.0
 10
142.900225
 20
68.629355
 30
0.0
  0
SPLINE
  5
200
100
AcDbEntity
  8
0
 62
7
100
AcDbSpline
 70
8
 71
3
 72
8
 73
4
 74
0
 40
0
 40
0
 40
0
 40
0
 40
1
 40
1
 40
1
 40
1
 10
8.690329
 20
56.761248
 30
0.0
 10
10.308252
 20
57.493572
 30
0.0
 10
11.938766
 20
58.937869
 30
0.0
 10
12.397292
 20
60.044849
 30
0.0
  0
SPLINE
  5
201
100
AcDbEntity
  8
0
 62
7
100
AcDbSpline
 70
8
 71
3
 72
8
 73
4
 74
0
 40
0
 40
0
 40
0
 40
0
 40
1
 40
1
 40
1
 40
1
 10
12.397292
 20
60.044849
 30
0.0
 10
12.657109
 20
60.672102
 30
0.0
 10
12.590109
 20
60.980346
 30
0.0
 10
11.902240
 20
62.322419
 30
0.0
  0
SPLINE
  5
202
100
AcDbEntity
  8
0
 62
7
100
AcDbSpline
 70
8
 71
3
 72
8
 73
4
 74
0
 40
0
 40
0
 40
0
 40
0
 40
1
 40
1
 40
1
 40
1
 10
11.902240
 20
62.322419
 30
0.0
 10
10.910595
 20
64.257179
 30
0.0
 10
9.235795
 20
66.281435
 30
0.0
 10
7.461827
 20
67.689352
 30
0.0
  0
SPLINE
  5
203
100
AcDbEntity
  8
0
 62
7
100
AcDbSpline
 70
8
 71
3
 72
8
 73
4
 74
0
 40
0
 40
0
 40
0
 40
0
 40
1
 40
1
 40
1
 40
1
 10
7.461827
 20
67.689352
 30
0.0
 10
6.713390
 20
68.283349
 30
0.0
 10
6.028780
 20
68.769349
 30
0.0
 10
5.940472
 20
68.769349
 30
0.0
  0
SPLINE
  5
204
100
AcDbEntity
  8
0
 62
7
100
AcDbSpline
 70
8
 71
3
 72
8
 73
4
 74
0
 40
0
 40
0
 40
0
 40
0
 40
1
 40
1
 40
1
 40
1
 10
5.940472
 20
68.769349
 30
0.0
 10
5.852164
 20
68.769349
 30
0.0
 10
5.779913
 20
65.839411
 30
0.0
 10
5.779913
 20
62.258374
 30
0.0
  0
LWPOLYLINE
  5
205
100
AcDbEntity
  8
0
 62
7
100
AcDbPolyline
 90
1
 70
1
 10
135.458025
 20
54.862413
 30
0.0
  0
SPLINE
  5
206
100
AcDbEntity
  8
0
 62
7
100
AcDbSpline
 70
8
 71
3
 72
8
 73
4
 74
0
 40
0
 40
0
 40
0
 40
0
 40
1
 40
1
 40
1
 40
1
 10
6.507517
 20
55.924987
 30
0.0
 10
6.907699
 20
56.022658
 30
0.0
 10
7.889965
 20
56.398975
 30
0.0
 10
8.690329
 20
56.761248
 30
0.0
  0
LWPOLYLINE
  5
207
100
AcDbEntity
  8
0
 62
7
100
AcDbPolyline
 90
3
 70
0
 10
5.779913
 20
62.258374
 30
0.0
 10
5.779913
 20
55.747399
 30
0.0
 10
6.507517
 20
55.924987
 30
0.0
  0
SPLINE
  5
208
100
AcDbEntity
  8
0
 62
7
100
AcDbSpline
 70
8
 71
3
 72
8
 73
4
 74
0
 40
0
 40
0
 40
0
 40
0
 40
1
 40
1
 40
1
 40
1
 10
111.613246
 20
58.867180
 30
0.0
 10
113.735710
 20
60.584202
 30
0.0
 10
117.239643
 20
64.178304
 30
0.0
 10
118.687538
 20
66.123516
 30
0.0
  0
SPLINE
  5
209
100
AcDbEntity
  8
0
 62
7
100
AcDbSpline
 70
8
 71
3
 72
8
 73
4
 74
0
 40
0
 40
0
 40
0
 40
0
 40
1
 40
1
 40
1
 40
1
 10
118.687538
 20
66.123516
 30
0.0
 10
122.117318
 20
70.731346
 30
0.0
 10
123.181811
 20
75.431168
 30
0.0
 10
121.686831
 20
79.365642
 30
0.0
  0
SPLINE
  5
20a
100
AcDbEntity
  8
0
 62
7
100
AcDbSpline
 70
8
 71
3
 72
8
 73
4
 74
0
 40
0
 40
0
 40
0
 40
0
 40
1
 40
1
 40
1
 40
1
 10
121.686831
 20
79.365642
 30
0.0
 10
121.157487
 20
80.758760
 30
0.0
 10
119.616921
 20
83.330449
 30
0.0
 10
119.324726
 20
83.308735
 30
0.0
  0
SPLINE
  5
20b
100
AcDbEntity
  8
0
 62
7
100
AcDbSpline
 70
8
 71
3
 72
8
 73
4
 74
0
 40
0
 40
0
 40
0
 40
0
 40
1
 40
1
 40
1
 40
1
 10
119.324726
 20
83.308735
 30
0.0
 10
119.230756
 20
83.301750
 30
0.0
 10
118.708810
 20
82.676675
 30
0.0
 10
118.164845
 20
81.919673
 30
0.0
  0
SPLINE
  5
20c
100
AcDbEntity
  8
0
 62
7
100
AcDbSpline
 70
8
 71
3
 72
8
 73
4
 74
0
 40
0
 40
0
 40
0
 40
0
 40
1
 40
1
 40
1
 40
1
 10
118.164845
 20
81.919673
 30
0.0
 10
117.620881
 20
81.162671
 30
0.0
 10
116.337781
 20
79.590807
 30
0.0
 10
115.313513
 20
78.426641
 30
0.0
  0
SPLINE
  5
20d
100
AcDbEntity
  8
0
 62
7
100
AcDbSpline
 70
8
 71
3
 72
8
 73
4
 74
0
 40
0
 40
0
 40
0
 40
0
 40
1
 40
1
 40
1
 40
1
 10
115.313513
 20
78.426641
 30
0.0
 10
111.994148
 20
74.653910
 30
0.0
 10
111.037166
 20
71.983804
 30
0.0
 10
110.155493
 20
64.035080
 30
0.0
  0
SPLINE
  5
20e
100
AcDbEntity
  8
0
 62
7
100
AcDbSpline
 70
8
 71
3
 72
8
 73
4
 74
0
 40
0
 40
0
 40
0
 40
0
 40
1
 40
1
 40
1
 40
1
 10
110.155493
 20
64.035080
 30
0.0
 10
109.923170
 20
61.940556
 30
0.0
 10
109.620341
 20
59.632353
 30
0.0
 10
109.482541
 20
58.905738
 30
0.0
  0
SPLINE
  5
20f
100
AcDbEntity
  8
0
 62
7
100
AcDbSpline
 70
8
 71
3
 72
8
 73
4
 74
0
 40
0
 40
0
 40
0
 40
0
 40
1
 40
1
 40
1
 40
1
 10
109.482541
 20
58.905738
 30
0.0
 10
109.067986
 20
56.719806
 30
0.0
 10
108.961200
 20
56.721737
 30
0.0
 10
111.613246
 20
58.867180
 30
0.0
  0
LWPOLYLINE
  5
210
100
AcDbEntity
  8
0
 62
7
100
AcDbPolyline
 90
1
 70
1
 10
8.690329
 20
56.761248
 30
0.0
  0
SPLINE
  5
211
100
AcDbEntity
  8
0
 62
7
100
AcDbSpline
 70
8
 71
3
 72
8
 73
4
 74
0
 40
0
 40
0
 40
0
 40
0
 40
1
 40
1
 40
1
 40
1
 10
90.038624
 20
60.431661
 30
0.0
 10
93.760941
 20
65.377460
 30
0.0
 10
94.429284
 20
69.660349
 30
0.0
 10
92.186125
 20
74.193307
 30
0.0
  0
SPLINE
  5
212
100
AcDbEntity
  8
0
 62
7
100
AcDbSpline
 70
8
 71
3
 72
8
 73
4
 74
0
 40
0
 40
0
 40
0
 40
0
 40
1
 40
1
 40
1
 40
1
 10
92.186125
 20
74.193307
 30
0.0
 10
91.296683
 20
75.990685
 30
0.0
 10
88.821797
 20
79.220391
 30
0.0
 10
88.333929
 20
79.220391
 30
0.0
  0
SPLINE
  5
213
100
AcDbEntity
  8
0
 62
7
100
AcDbSpline
 70
8
 71
3
 72
8
 73
4
 74
0
 40
0
 40
0
 40
0
 40
0
 40
1
 40
1
 40
1
 40
1
 10
88.333929
 20
79.220391
 30
0.0
 10
87.942528
 20
79.220391
 30
0.0
 10
85.975500
 20
76.452346
 30
0.0
 10
84.996502
 20
74.523888
 30
0.0
  0
SPLINE
  5
214
100
AcDbEntity
  8
0
 62
7
100
AcDbSpline
 70
8
 71
3
 72
8
 73
4
 74
0
 40
0
 40
0
 40
0
 40
0
 40
1
 40
1
 40
1
 40
1
 10
84.996502
 20
74.523888
 30
0.0
 10
82.835570
 20
70.267229
 30
0.0
 10
82.765588
 20
66.255403
 30
0.0
 10
84.791140
 20
62.751208
 30
0.0
  0
SPLINE
  5
215
100
AcDbEntity
  8
0
 62
7
100
AcDbSpline
 70
8
 71
3
 72
8
 73
4
 74
0
 40
0
 40
0
 40
0
 40
0
 40
1
 40
1
 40
1
 40
1
 10
84.791140
 20
62.751208
 30
0.0
 10
85.570277
 20
61.403307
 30
0.0
 10
87.990458
 20
58.450599
 30
0.0
 10
88.316128
 20
58.450599
 30
0.0
  0
SPLINE
  5
216
100
AcDbEntity
  8
0
 62
7
100
AcDbSpline
 70
8
 71
3
 72
8
 73
4
 74
0
 40
0
 40
0
 40
0
 40
0
 40
1
 40
1
 40
1
 40
1
 10
88.316128
 20
58.450599
 30
0.0
 10
88.443456
 20
58.450599
 30
0.0
 10
89.218580
 20
59.342078
 30
0.0
 10
90.038624
 20
60.431661
 30
0.0
  0
LWPOLYLINE
  5
217
100
AcDbEntity
  8
0
 62
7
100
AcDbPolyline
 90
1
 70
1
 10
111.613246
 20
58.867180
 30
0.0
  0
SPLINE
  5
218
100
AcDbEntity
  8
0
 62
7
100
AcDbSpline
 70
8
 71
3
 72
8
 73
4
 74
0
 40
0
 40
0
 40
0
 40
0
 40
1
 40
1
 40
1
 40
1
 10
105.483800
 20
62.617787
 30
0.0
 10
105.921000
 20
65.490140
 30
0.0
 10
105.869991
 20
69.768977
 30
0.0
 10
105.371662
 20
72.024409
 30
0.0
  0
SPLINE
  5
219
100
AcDbEntity
  8
0
 62
7
100
AcDbSpline
 70
8
 71
3
 72
8
 73
4
 74
0
 40
0
 40
0
 40
0
 40
0
 40
1
 40
1
 40
1
 40
1
 10
105.371662
 20
72.024409
 30
0.0
 10
104.811457
 20
74.559890
 30
0.0
 10
103.203214
 20
77.834680
 30
0.0
 10
101.660497
 20
79.581282
 30
0.0
  0
LWPOLYLINE
  5
21a
100
AcDbEntity
  8
0
 62
7
100
AcDbPolyline
 90
1
 70
1
 10
90.038624
 20
60.431661
 30
0.0
  0
SPLINE
  5
21b
100
AcDbEntity
  8
0
 62
7
100
AcDbSpline
 70
8
 71
3
 72
8
 73
4
 74
0
 40
0
 40
0
 40
0
 40
0
 40
1
 40
1
 40
1
 40
1
 10
99.629367
 20
79.462757
 30
0.0
 10
99.201700
 20
78.616998
 30
0.0
 10
98.199863
 20
77.298613
 30
0.0
 10
97.403063
 20
76.533015
 30
0.0
  0
LWPOLYLINE
  5
21c
100
AcDbEntity
  8
0
 62
7
100
AcDbPolyline
 90
3
 70
0
 10
101.660497
 20
79.581282
 30
0.0
 10
100.406941
 20
81.000505
 30
0.0
 10
99.629367
 20
79.462757
 30
0.0
  0
SPLINE
  5
21d
100
AcDbEntity
  8
0
 62
7
100
AcDbSpline
 70
8
 71
3
 72
8
 73
4
 74
0
 40
0
 40
0
 40
0
 40
0
 40
1
 40
1
 40
1
 40
1
 10
96.243164
 20
73.794244
 30
0.0
 10
96.402022
 20
73.053517
 30
0.0
 10
96.531996
 20
71.862000
 30
0.0
 10
96.531996
 20
71.146429
 30
0.0
  0
SPLINE
  5
21e
100
AcDbEntity
  8
0
 62
7
100
AcDbSpline
 70
8
 71
3
 72
8
 73
4
 74
0
 40
0
 40
0
 40
0
 40
0
 40
1
 40
1
 40
1
 40
1
 10
96.531996
 20
71.146429
 30
0.0
 10
96.531996
 20
69.912696
 30
0.0
 10
96.644920
 20
69.704889
 30
0.0
 10
98.714809
 20
67.129533
 30
0.0
  0
SPLINE
  5
21f
100
AcDbEntity
  8
0
 62
7
100
AcDbSpline
 70
8
 71
3
 72
8
 73
4
 74
0
 40
0
 40
0
 40
0
 40
0
 40
1
 40
1
 40
1
 40
1
 10
98.714809
 20
67.129533
 30
0.0
 10
101.191714
 20
64.047770
 30
0.0
 10
104.466266
 20
60.567266
 30
0.0
 10
104.888768
 20
60.567266
 30
0.0
  0
SPLINE
  5
220
100
AcDbEntity
  8
0
 62
7
100
AcDbSpline
 70
8
 71
3
 72
8
 73
4
 74
0
 40
0
 40
0
 40
0
 40
0
 40
1
 40
1
 40
1
 40
1
 10
104.888768
 20
60.567266
 30
0.0
 10
105.044375
 20
60.567266
 30
0.0
 10
105.312139
 20
61.490000
 30
0.0
 10
105.483800
 20
62.617787
 30
0.0
  0
LWPOLYLINE
  5
221
100
AcDbEntity
  8
0
 62
7
100
AcDbPolyline
 90
3
 70
0
 10
97.403063
 20
76.533015
 30
0.0
 10
95.954334
 20
75.141016
 30
0.0
 10
96.243164
 20
73.794244
 30
0.0
  0
SPLINE
  5
222
100
AcDbEntity
  8
0
 62
7
100
AcDbSpline
 70
8
 71
3
 72
8
 73
4
 74
0
 40
0
 40
0
 40
0
 40
0
 40
1
 40
1
 40
1
 40
1
 10
26.748142
 20
61.646864
 30
0.0
 10
27.871978
 20
63.021924
 30
0.0
 10
26.895451
 20
65.888015
 30
0.0
 10
24.745130
 20
67.525670
 30
0.0
  0
LWPOLYLINE
  5
223
100
AcDbEntity
  8
0
 62
7
100
AcDbPolyline
 90
1
 70
1
 10
105.483800
 20
62.617787
 30
0.0
  0
SPLINE
  5
224
100
AcDbEntity
  8
0
 62
7
100
AcDbSpline
 70
8
 71
3
 72
8
 73
4
 74
0
 40
0
 40
0
 40
0
 40
0
 40
1
 40
1
 40
1
 40
1
 10
22.515301
 20
66.987505
 30
0.0
 10
21.823804
 20
66.284131
 30
0.0
 10
21.045731
 20
65.330454
 30
0.0
 10
20.786244
 20
64.868219
 30
0.0
  0
LWPOLYLINE
  5
225
100
AcDbEntity
  8
0
 62
7
100
AcDbPolyline
 90
3
 70
0
 10
24.745130
 20
67.525670
 30
0.0
 10
23.772561
 20
68.266363
 30
0.0
 10
22.515301
 20
66.987505
 30
0.0
  0
SPLINE
  5
226
100
AcDbEntity
  8
0
 62
7
100
AcDbSpline
 70
8
 71
3
 72
8
 73
4
 74
0
 40
0
 40
0
 40
0
 40
0
 40
1
 40
1
 40
1
 40
1
 10
21.222374
 20
63.022829
 30
0.0
 10
23.103543
 20
60.940601
 30
0.0
 10
25.652219
 20
60.305958
 30
0.0
 10
26.748142
 20
61.646864
 30
0.0
  0
LWPOLYLINE
  5
227
100
AcDbEntity
  8
0
 62
7
100
AcDbPolyline
 90
3
 70
0
 10
20.786244
 20
64.868219
 30
0.0
 10
20.314451
 20
64.027793
 30
0.0
 10
21.222374
 20
63.022829
 30
0.0
  0
SPLINE
  5
228
100
AcDbEntity
  8
0
 62
7
100
AcDbSpline
 70
8
 71
3
 72
8
 73
4
 74
0
 40
0
 40
0
 40
0
 40
0
 40
1
 40
1
 40
1
 40
1
 10
41.532709
 20
61.691745
 30
0.0
 10
41.769210
 20
62.252244
 30
0.0
 10
41.895538
 20
63.611043
 30
0.0
 10
41.895538
 20
65.594349
 30
0.0
  0
SPLINE
  5
229
100
AcDbEntity
  8
0
 62
7
100
AcDbSpline
 70
8
 71
3
 72
8
 73
4
 74
0
 40
0
 40
0
 40
0
 40
0
 40
1
 40
1
 40
1
 40
1
 10
41.895538
 20
65.594349
 30
0.0
 10
41.895538
 20
68.469939
 30
0.0
 10
41.848939
 20
68.735435
 30
0.0
 10
41.047117
 20
70.428178
 30
0.0
  0
SPLINE
  5
22a
100
AcDbEntity
  8
0
 62
7
100
AcDbSpline
 70
8
 71
3
 72
8
 73
4
 74
0
 40
0
 40
0
 40
0
 40
0
 40
1
 40
1
 40
1
 40
1
 10
41.047117
 20
70.428178
 30
0.0
 10
39.593279
 20
73.497414
 30
0.0
 10
37.586732
 20
75.787126
 30
0.0
 10
32.907671
 20
79.716268
 30
0.0
  0
SPLINE
  5
22b
100
AcDbEntity
  8
0
 62
7
100
AcDbSpline
 70
8
 71
3
 72
8
 73
4
 74
0
 40
0
 40
0
 40
0
 40
0
 40
1
 40
1
 40
1
 40
1
 10
32.907671
 20
79.716268
 30
0.0
 10
31.278671
 20
81.084187
 30
0.0
 10
30.470927
 20
81.609343
 30
0.0
 10
30.332034
 20
81.390829
 30
0.0
  0
SPLINE
  5
22c
100
AcDbEntity
  8
0
 62
7
100
AcDbSpline
 70
8
 71
3
 72
8
 73
4
 74
0
 40
0
 40
0
 40
0
 40
0
 40
1
 40
1
 40
1
 40
1
 10
30.332034
 20
81.390829
 30
0.0
 10
30.020149
 20
80.900151
 30
0.0
 10
30.084821
 20
75.317739
 30
0.0
 10
30.420630
 20
73.743309
 30
0.0
  0
SPLINE
  5
22d
100
AcDbEntity
  8
0
 62
7
100
AcDbSpline
 70
8
 71
3
 72
8
 73
4
 74
0
 40
0
 40
0
 40
0
 40
0
 40
1
 40
1
 40
1
 40
1
 10
30.420630
 20
73.743309
 30
0.0
 10
31.087388
 20
70.617239
 30
0.0
 10
32.791474
 20
68.067306
 30
0.0
 10
37.414822
 20
63.277451
 30
0.0
  0
SPLINE
  5
22e
100
AcDbEntity
  8
0
 62
7
100
AcDbSpline
 70
8
 71
3
 72
8
 73
4
 74
0
 40
0
 40
0
 40
0
 40
0
 40
1
 40
1
 40
1
 40
1
 10
37.414822
 20
63.277451
 30
0.0
 10
40.121676
 20
60.473108
 30
0.0
 10
40.893161
 20
60.176029
 30
0.0
 10
41.532709
 20
61.691745
 30
0.0
  0
LWPOLYLINE
  5
22f
100
AcDbEntity
  8
0
 62
7
100
AcDbPolyline
 90
1
 70
1
 10
26.748142
 20
61.646864
 30
0.0
  0
SPLINE
  5
230
100
AcDbEntity
  8
0
 62
7
100
AcDbSpline
 70
8
 71
3
 72
8
 73
4
 74
0
 40
0
 40
0
 40
0
 40
0
 40
1
 40
1
 40
1
 40
1
 10
68.456903
 20
63.303425
 30
0.0
 10
72.377623
 20
66.471390
 30
0.0
 10
75.961700
 20
69.919858
 30
0.0
 10
76.449227
 20
70.993349
 30
0.0
  0
SPLINE
  5
231
100
AcDbEntity
  8
0
 62
7
100
AcDbSpline
 70
8
 71
3
 72
8
 73
4
 74
0
 40
0
 40
0
 40
0
 40
0
 40
1
 40
1
 40
1
 40
1
 10
76.449227
 20
70.993349
 30
0.0
 10
77.296174
 20
72.858244
 30
0.0
 10
77.208541
 20
73.011509
 30
0.0
 10
74.585245
 20
74.253336
 30
0.0
  0
SPLINE
  5
232
100
AcDbEntity
  8
0
 62
7
100
AcDbSpline
 70
8
 71
3
 72
8
 73
4
 74
0
 40
0
 40
0
 40
0
 40
0
 40
1
 40
1
 40
1
 40
1
 10
74.585245
 20
74.253336
 30
0.0
 10
70.695323
 20
76.094770
 30
0.0
 10
67.595070
 20
79.514449
 30
0.0
 10
67.023827
 20
82.593828
 30
0.0
  0
SPLINE
  5
233
100
AcDbEntity
  8
0
 62
7
100
AcDbSpline
 70
8
 71
3
 72
8
 73
4
 74
0
 40
0
 40
0
 40
0
 40
0
 40
1
 40
1
 40
1
 40
1
 10
67.023827
 20
82.593828
 30
0.0
 10
66.922597
 20
83.139531
 30
0.0
 10
66.780082
 20
83.586016
 30
0.0
 10
66.707126
 20
83.586016
 30
0.0
  0
SPLINE
  5
234
100
AcDbEntity
  8
0
 62
7
100
AcDbSpline
 70
8
 71
3
 72
8
 73
4
 74
0
 40
0
 40
0
 40
0
 40
0
 40
1
 40
1
 40
1
 40
1
 10
66.707126
 20
83.586016
 30
0.0
 10
66.634169
 20
83.586016
 30
0.0
 10
65.451334
 20
82.457380
 30
0.0
 10
64.078601
 20
81.077938
 30
0.0
  0
SPLINE
  5
235
100
AcDbEntity
  8
0
 62
7
100
AcDbSpline
 70
8
 71
3
 72
8
 73
4
 74
0
 40
0
 40
0
 40
0
 40
0
 40
1
 40
1
 40
1
 40
1
 10
64.078601
 20
81.077938
 30
0.0
 10
60.945816
 20
77.929841
 30
0.0
 10
60.229337
 20
76.529385
 30
0.0
 10
60.069320
 20
73.241262
 30
0.0
  0
SPLINE
  5
236
100
AcDbEntity
  8
0
 62
7
100
AcDbSpline
 70
8
 71
3
 72
8
 73
4
 74
0
 40
0
 40
0
 40
0
 40
0
 40
1
 40
1
 40
1
 40
1
 10
60.069320
 20
73.241262
 30
0.0
 10
59.929768
 20
70.373682
 30
0.0
 10
60.418702
 20
68.586694
 30
0.0
 10
61.959567
 20
66.332672
 30
0.0
  0
SPLINE
  5
237
100
AcDbEntity
  8
0
 62
7
100
AcDbSpline
 70
8
 71
3
 72
8
 73
4
 74
0
 40
0
 40
0
 40
0
 40
0
 40
1
 40
1
 40
1
 40
1
 10
61.959567
 20
66.332672
 30
0.0
 10
62.858084
 20
65.018290
 30
0.0
 10
66.100648
 20
61.920903
 30
0.0
 10
66.604819
 20
61.895395
 30
0.0
  0
SPLINE
  5
238
100
AcDbEntity
  8
0
 62
7
100
AcDbSpline
 70
8
 71
3
 72
8
 73
4
 74
0
 40
0
 40
0
 40
0
 40
0
 40
1
 40
1
 40
1
 40
1
 10
66.604819
 20
61.895395
 30
0.0
 10
66.661488
 20
61.892537
 30
0.0
 10
67.494925
 20
62.526143
 30
0.0
 10
68.456903
 20
63.303425
 30
0.0
  0
LWPOLYLINE
  5
239
100
AcDbEntity
  8
0
 62
7
100
AcDbPolyline
 90
1
 70
1
 10
41.532709
 20
61.691745
 30
0.0
  0
SPLINE
  5
23a
100
AcDbEntity
  8
0
 62
7
100
AcDbSpline
 70
8
 71
3
 72
8
 73
4
 74
0
 40
0
 40
0
 40
0
 40
0
 40
1
 40
1
 40
1
 40
1
 10
15.698635
 20
68.022303
 30
0.0
 10
16.400242
 20
68.341978
 30
0.0
 10
18.479913
 20
71.192242
 30
0.0
 10
18.479913
 20
71.834145
 30
0.0
  0
SPLINE
  5
23b
100
AcDbEntity
  8
0
 62
7
100
AcDbSpline
 70
8
 71
3
 72
8
 73
4
 74
0
 40
0
 40
0
 40
0
 40
0
 40
1
 40
1
 40
1
 40
1
 10
18.479913
 20
71.834145
 30
0.0
 10
18.479913
 20
72.031408
 30
0.0
 10
17.616709
 20
72.776477
 30
0.0
 10
16.561683
 20
73.489852
 30
0.0
  0
SPLINE
  5
23c
100
AcDbEntity
  8
0
 62
7
100
AcDbSpline
 70
8
 71
3
 72
8
 73
4
 74
0
 40
0
 40
0
 40
0
 40
0
 40
1
 40
1
 40
1
 40
1
 10
16.561683
 20
73.489852
 30
0.0
 10
13.923623
 20
75.273622
 30
0.0
 10
10.269462
 20
78.145875
 30
0.0
 10
7.896579
 20
80.300819
 30
0.0
  0
LWPOLYLINE
  5
23d
100
AcDbEntity
  8
0
 62
7
100
AcDbPolyline
 90
1
 70
1
 10
68.456903
 20
63.303425
 30
0.0
  0
SPLINE
  5
23e
100
AcDbEntity
  8
0
 62
7
100
AcDbSpline
 70
8
 71
3
 72
8
 73
4
 74
0
 40
0
 40
0
 40
0
 40
0
 40
1
 40
1
 40
1
 40
1
 10
7.189145
 20
72.507647
 30
0.0
 10
10.217214
 20
68.759866
 30
0.0
 10
13.509131
 20
67.024700
 30
0.0
 10
15.698635
 20
68.022303
 30
0.0
  0
LWPOLYLINE
  5
23f
100
AcDbEntity
  8
0
 62
7
100
AcDbPolyline
 90
5
 70
0
 10
7.896579
 20
80.300819
 30
0.0
 10
5.912204
 20
82.102939
 30
0.0
 10
5.838825
 20
78.186336
 30
0.0
 10
5.765447
 20
74.269732
 30
0.0
 10
7.189145
 20
72.507647
 30
0.0
  0
SPLINE
  5
240
100
AcDbEntity
  8
0
 62
7
100
AcDbSpline
 70
8
 71
3
 72
8
 73
4
 74
0
 40
0
 40
0
 40
0
 40
0
 40
1
 40
1
 40
1
 40
1
 10
137.176134
 20
68.897267
 30
0.0
 10
139.370080
 20
70.007395
 30
0.0
 10
141.604635
 20
71.934470
 30
0.0
 10
142.930922
 20
73.860181
 30
0.0
  0
LWPOLYLINE
  5
241
100
AcDbEntity
  8
0
 62
7
100
AcDbPolyline
 90
1
 70
1
 10
15.698635
 20
68.022303
 30
0.0
  0
SPLINE
  5
242
100
AcDbEntity
  8
0
 62
7
100
AcDbSpline
 70
8
 71
3
 72
8
 73
4
 74
0
 40
0
 40
0
 40
0
 40
0
 40
1
 40
1
 40
1
 40
1
 10
141.689455
 20
81.202041
 30
0.0
 10
139.031633
 20
79.423773
 30
0.0
 10
136.768554
 20
77.322492
 30
0.0
 10
135.575707
 20
75.525389
 30
0.0
  0
LWPOLYLINE
  5
243
100
AcDbEntity
  8
0
 62
7
100
AcDbPolyline
 90
5
 70
0
 10
142.930922
 20
73.860181
 30
0.0
 10
143.908029
 20
75.278898
 30
0.0
 10
143.834075
 20
78.933178
 30
0.0
 10
143.760121
 20
82.587460
 30
0.0
 10
141.689455
 20
81.202041
 30
0.0
  0
SPLINE
  5
244
100
AcDbEntity
  8
0
 62
7
100
AcDbSpline
 70
8
 71
3
 72
8
 73
4
 74
0
 40
0
 40
0
 40
0
 40
0
 40
1
 40
1
 40
1
 40
1
 10
134.631996
 20
71.039614
 30
0.0
 10
134.631996
 20
68.626411
 30
0.0
 10
134.708744
 20
67.975599
 30
0.0
 10
134.993322
 20
67.975599
 30
0.0
  0
SPLINE
  5
245
100
AcDbEntity
  8
0
 62
7
100
AcDbSpline
 70
8
 71
3
 72
8
 73
4
 74
0
 40
0
 40
0
 40
0
 40
0
 40
1
 40
1
 40
1
 40
1
 10
134.993322
 20
67.975599
 30
0.0
 10
135.192053
 20
67.975599
 30
0.0
 10
136.174319
 20
68.390349
 30
0.0
 10
137.176134
 20
68.897267
 30
0.0
  0
LWPOLYLINE
  5
246
100
AcDbEntity
  8
0
 62
7
100
AcDbPolyline
 90
3
 70
0
 10
135.575707
 20
75.525389
 30
0.0
 10
134.631996
 20
74.103630
 30
0.0
 10
134.631996
 20
71.039614
 30
0.0
  0
SPLINE
  5
247
100
AcDbEntity
  8
0
 62
7
100
AcDbSpline
 70
8
 71
3
 72
8
 73
4
 74
0
 40
0
 40
0
 40
0
 40
0
 40
1
 40
1
 40
1
 40
1
 10
26.909633
 20
73.038187
 30
0.0
 10
26.411245
 20
74.898398
 30
0.0
 10
26.305729
 20
76.052029
 30
0.0
 10
26.248452
 20
80.266958
 30
0.0
  0
LWPOLYLINE
  5
248
100
AcDbEntity
  8
0
 62
7
100
AcDbPolyline
 90
1
 70
1
 10
137.176134
 20
68.897267
 30
0.0
  0
SPLINE
  5
249
100
AcDbEntity
  8
0
 62
7
100
AcDbSpline
 70
8
 71
3
 72
8
 73
4
 74
0
 40
0
 40
0
 40
0
 40
0
 40
1
 40
1
 40
1
 40
1
 10
25.058703
 20
86.881541
 30
0.0
 10
23.447031
 20
89.179593
 30
0.0
 10
21.014516
 20
91.638580
 30
0.0
 10
19.820040
 20
92.177214
 30
0.0
  0
SPLINE
  5
24a
100
AcDbEntity
  8
0
 62
7
100
AcDbSpline
 70
8
 71
3
 72
8
 73
4
 74
0
 40
0
 40
0
 40
0
 40
0
 40
1
 40
1
 40
1
 40
1
 10
19.820040
 20
92.177214
 30
0.0
 10
19.046680
 20
92.525951
 30
0.0
 10
18.604072
 20
92.579455
 30
0.0
 10
18.040015
 20
92.392397
 30
0.0
  0
SPLINE
  5
24b
100
AcDbEntity
  8
0
 62
7
100
AcDbSpline
 70
8
 71
3
 72
8
 73
4
 74
0
 40
0
 40
0
 40
0
 40
0
 40
1
 40
1
 40
1
 40
1
 10
18.040015
 20
92.392397
 30
0.0
 10
16.962575
 20
92.035082
 30
0.0
 10
15.756062
 20
90.309864
 30
0.0
 10
15.051730
 20
88.119389
 30
0.0
  0
SPLINE
  5
24c
100
AcDbEntity
  8
0
 62
7
100
AcDbSpline
 70
8
 71
3
 72
8
 73
4
 74
0
 40
0
 40
0
 40
0
 40
0
 40
1
 40
1
 40
1
 40
1
 10
15.051730
 20
88.119389
 30
0.0
 10
14.291987
 20
85.756583
 30
0.0
 10
14.377317
 20
82.988632
 30
0.0
 10
15.266528
 20
81.151767
 30
0.0
  0
SPLINE
  5
24d
100
AcDbEntity
  8
0
 62
7
100
AcDbSpline
 70
8
 71
3
 72
8
 73
4
 74
0
 40
0
 40
0
 40
0
 40
0
 40
1
 40
1
 40
1
 40
1
 10
15.266528
 20
81.151767
 30
0.0
 10
16.456425
 20
78.693767
 30
0.0
 10
20.380995
 20
75.076844
 30
0.0
 10
25.213402
 20
71.984629
 30
0.0
  0
SPLINE
  5
24e
100
AcDbEntity
  8
0
 62
7
100
AcDbSpline
 70
8
 71
3
 72
8
 73
4
 74
0
 40
0
 40
0
 40
0
 40
0
 40
1
 40
1
 40
1
 40
1
 10
25.213402
 20
71.984629
 30
0.0
 10
26.370206
 20
71.244399
 30
0.0
 10
27.358528
 20
70.680601
 30
0.0
 10
27.409672
 20
70.731745
 30
0.0
  0
SPLINE
  5
24f
100
AcDbEntity
  8
0
 62
7
100
AcDbSpline
 70
8
 71
3
 72
8
 73
4
 74
0
 40
0
 40
0
 40
0
 40
0
 40
1
 40
1
 40
1
 40
1
 10
27.409672
 20
70.731745
 30
0.0
 10
27.460813
 20
70.782889
 30
0.0
 10
27.235798
 20
71.820789
 30
0.0
 10
26.909633
 20
73.038187
 30
0.0
  0
LWPOLYLINE
  5
250
100
AcDbEntity
  8
0
 62
7
100
AcDbPolyline
 90
3
 70
0
 10
26.248452
 20
80.266958
 30
0.0
 10
26.180301
 20
85.282275
 30
0.0
 10
25.058703
 20
86.881541
 30
0.0
  0
SPLINE
  5
251
100
AcDbEntity
  8
0
 62
7
100
AcDbSpline
 70
8
 71
3
 72
8
 73
4
 74
0
 40
0
 40
0
 40
0
 40
0
 40
1
 40
1
 40
1
 40
1
 10
130.299402
 20
78.675677
 30
0.0
 10
131.520864
 20
81.298799
 30
0.0
 10
131.038835
 20
82.901954
 30
0.0
 10
127.585867
 20
87.700493
 30
0.0
  0
SPLINE
  5
252
100
AcDbEntity
  8
0
 62
7
100
AcDbSpline
 70
8
 71
3
 72
8
 73
4
 74
0
 40
0
 40
0
 40
0
 40
0
 40
1
 40
1
 40
1
 40
1
 10
127.585867
 20
87.700493
 30
0.0
 10
126.428685
 20
89.308612
 30
0.0
 10
125.272898
 20
91.064784
 30
0.0
 10
125.017451
 20
91.603097
 30
0.0
  0
SPLINE
  5
253
100
AcDbEntity
  8
0
 62
7
100
AcDbSpline
 70
8
 71
3
 72
8
 73
4
 74
0
 40
0
 40
0
 40
0
 40
0
 40
1
 40
1
 40
1
 40
1
 10
125.017451
 20
91.603097
 30
0.0
 10
124.762003
 20
92.141410
 30
0.0
 10
124.453380
 20
92.581849
 30
0.0
 10
124.331622
 20
92.581849
 30
0.0
  0
SPLINE
  5
254
100
AcDbEntity
  8
0
 62
7
100
AcDbSpline
 70
8
 71
3
 72
8
 73
4
 74
0
 40
0
 40
0
 40
0
 40
0
 40
1
 40
1
 40
1
 40
1
 10
124.331622
 20
92.581849
 30
0.0
 10
123.849686
 20
92.581849
 30
0.0
 10
122.208843
 20
90.435213
 30
0.0
 10
121.898172
 20
89.398287
 30
0.0
  0
SPLINE
  5
255
100
AcDbEntity
  8
0
 62
7
100
AcDbSpline
 70
8
 71
3
 72
8
 73
4
 74
0
 40
0
 40
0
 40
0
 40
0
 40
1
 40
1
 40
1
 40
1
 10
121.898172
 20
89.398287
 30
0.0
 10
121.412185
 20
87.776209
 30
0.0
 10
121.857662
 20
86.118541
 30
0.0
 10
124.006406
 20
81.553291
 30
0.0
  0
SPLINE
  5
256
100
AcDbEntity
  8
0
 62
7
100
AcDbSpline
 70
8
 71
3
 72
8
 73
4
 74
0
 40
0
 40
0
 40
0
 40
0
 40
1
 40
1
 40
1
 40
1
 10
124.006406
 20
81.553291
 30
0.0
 10
125.754670
 20
77.838909
 30
0.0
 10
126.140776
 20
76.846970
 30
0.0
 10
126.562265
 20
74.987057
 30
0.0
  0
LWPOLYLINE
  5
257
100
AcDbEntity
  8
0
 62
7
100
AcDbPolyline
 90
1
 70
1
 10
26.909633
 20
73.038187
 30
0.0
  0
SPLINE
  5
258
100
AcDbEntity
  8
0
 62
7
100
AcDbSpline
 70
8
 71
3
 72
8
 73
4
 74
0
 40
0
 40
0
 40
0
 40
0
 40
1
 40
1
 40
1
 40
1
 10
128.209143
 20
75.765260
 30
0.0
 10
129.015993
 20
76.629837
 30
0.0
 10
129.956610
 20
77.939524
 30
0.0
 10
130.299402
 20
78.675677
 30
0.0
  0
LWPOLYLINE
  5
259
100
AcDbEntity
  8
0
 62
7
100
AcDbPolyline
 90
3
 70
0
 10
126.562265
 20
74.987057
 30
0.0
 10
126.742142
 20
74.193307
 30
0.0
 10
128.209143
 20
75.765260
 30
0.0
  0
SPLINE
  5
25a
100
AcDbEntity
  8
0
 62
7
100
AcDbSpline
 70
8
 71
3
 72
8
 73
4
 74
0
 40
0
 40
0
 40
0
 40
0
 40
1
 40
1
 40
1
 40
1
 10
50.642102
 20
78.647388
 30
0.0
 10
51.506803
 20
79.350881
 30
0.0
 10
53.583507
 20
80.581243
 30
0.0
 10
55.256996
 20
81.381529
 30
0.0
  0
SPLINE
  5
25b
100
AcDbEntity
  8
0
 62
7
100
AcDbSpline
 70
8
 71
3
 72
8
 73
4
 74
0
 40
0
 40
0
 40
0
 40
0
 40
1
 40
1
 40
1
 40
1
 10
55.256996
 20
81.381529
 30
0.0
 10
61.124050
 20
84.187228
 30
0.0
 10
61.634825
 20
84.477863
 30
0.0
 10
62.917374
 20
85.740343
 30
0.0
  0
SPLINE
  5
25c
100
AcDbEntity
  8
0
 62
7
100
AcDbSpline
 70
8
 71
3
 72
8
 73
4
 74
0
 40
0
 40
0
 40
0
 40
0
 40
1
 40
1
 40
1
 40
1
 10
62.917374
 20
85.740343
 30
0.0
 10
64.741512
 20
87.535933
 30
0.0
 10
65.366358
 20
89.271060
 30
0.0
 10
65.518482
 20
92.963323
 30
0.0
  0
LWPOLYLINE
  5
25d
100
AcDbEntity
  8
0
 62
7
100
AcDbPolyline
 90
1
 70
1
 10
130.299402
 20
78.675677
 30
0.0
  0
SPLINE
  5
25e
100
AcDbEntity
  8
0
 62
7
100
AcDbSpline
 70
8
 71
3
 72
8
 73
4
 74
0
 40
0
 40
0
 40
0
 40
0
 40
1
 40
1
 40
1
 40
1
 10
64.879149
 20
95.350618
 30
0.0
 10
63.443631
 20
94.389855
 30
0.0
 10
61.842192
 20
93.671557
 30
0.0
 10
60.432209
 20
93.356015
 30
0.0
  0
SPLINE
  5
25f
100
AcDbEntity
  8
0
 62
7
100
AcDbSpline
 70
8
 71
3
 72
8
 73
4
 74
0
 40
0
 40
0
 40
0
 40
0
 40
1
 40
1
 40
1
 40
1
 10
60.432209
 20
93.356015
 30
0.0
 10
59.265664
 20
93.094953
 30
0.0
 10
58.572765
 20
93.115233
 30
0.0
 10
56.459390
 20
93.472286
 30
0.0
  0
SPLINE
  5
260
100
AcDbEntity
  8
0
 62
7
100
AcDbSpline
 70
8
 71
3
 72
8
 73
4
 74
0
 40
0
 40
0
 40
0
 40
0
 40
1
 40
1
 40
1
 40
1
 10
56.459390
 20
93.472286
 30
0.0
 10
52.731374
 20
94.102129
 30
0.0
 10
51.672130
 20
94.044101
 30
0.0
 10
50.064331
 20
93.121946
 30
0.0
  0
SPLINE
  5
261
100
AcDbEntity
  8
0
 62
7
100
AcDbSpline
 70
8
 71
3
 72
8
 73
4
 74
0
 40
0
 40
0
 40
0
 40
0
 40
1
 40
1
 40
1
 40
1
 10
50.064331
 20
93.121946
 30
0.0
 10
49.318418
 20
92.694125
 30
0.0
 10
48.327514
 20
91.863532
 30
0.0
 10
47.862326
 20
91.276183
 30
0.0
  0
LWPOLYLINE
  5
262
100
AcDbEntity
  8
0
 62
7
100
AcDbPolyline
 90
3
 70
0
 10
65.518482
 20
92.963323
 30
0.0
 10
65.637759
 20
95.858341
 30
0.0
 10
64.879149
 20
95.350618
 30
0.0
  0
SPLINE
  5
263
100
AcDbEntity
  8
0
 62
7
100
AcDbSpline
 70
8
 71
3
 72
8
 73
4
 74
0
 40
0
 40
0
 40
0
 40
0
 40
1
 40
1
 40
1
 40
1
 10
47.996269
 20
76.045391
 30
0.0
 10
48.586774
 20
76.772995
 30
0.0
 10
49.777399
 20
77.943893
 30
0.0
 10
50.642102
 20
78.647388
 30
0.0
  0
LWPOLYLINE
  5
264
100
AcDbEntity
  8
0
 62
7
100
AcDbPolyline
 90
5
 70
0
 10
47.862326
 20
91.276183
 30
0.0
 10
47.016527
 20
90.208275
 30
0.0
 10
46.969574
 20
82.465373
 30
0.0
 10
46.922621
 20
74.722474
 30
0.0
 10
47.996269
 20
76.045391
 30
0.0
  0
SPLINE
  5
265
100
AcDbEntity
  8
0
 62
7
100
AcDbSpline
 70
8
 71
3
 72
8
 73
4
 74
0
 40
0
 40
0
 40
0
 40
0
 40
1
 40
1
 40
1
 40
1
 10
83.217353
 20
77.599421
 30
0.0
 10
85.897151
 20
81.597595
 30
0.0
 10
87.006885
 20
85.271377
 30
0.0
 10
86.983805
 20
90.068307
 30
0.0
  0
SPLINE
  5
266
100
AcDbEntity
  8
0
 62
7
100
AcDbSpline
 70
8
 71
3
 72
8
 73
4
 74
0
 40
0
 40
0
 40
0
 40
0
 40
1
 40
1
 40
1
 40
1
 10
86.983805
 20
90.068307
 30
0.0
 10
86.963062
 20
94.378992
 30
0.0
 10
86.928775
 20
94.410927
 30
0.0
 10
84.711027
 20
92.184974
 30
0.0
  0
SPLINE
  5
267
100
AcDbEntity
  8
0
 62
7
100
AcDbSpline
 70
8
 71
3
 72
8
 73
4
 74
0
 40
0
 40
0
 40
0
 40
0
 40
1
 40
1
 40
1
 40
1
 10
84.711027
 20
92.184974
 30
0.0
 10
81.904136
 20
89.367701
 30
0.0
 10
80.672324
 20
86.188828
 30
0.0
 10
80.661253
 20
81.733932
 30
0.0
  0
SPLINE
  5
268
100
AcDbEntity
  8
0
 62
7
100
AcDbSpline
 70
8
 71
3
 72
8
 73
4
 74
0
 40
0
 40
0
 40
0
 40
0
 40
1
 40
1
 40
1
 40
1
 10
80.661253
 20
81.733932
 30
0.0
 10
80.654639
 20
79.068250
 30
0.0
 10
81.187602
 20
75.340946
 30
0.0
 10
81.558149
 20
75.461582
 30
0.0
  0
SPLINE
  5
269
100
AcDbEntity
  8
0
 62
7
100
AcDbSpline
 70
8
 71
3
 72
8
 73
4
 74
0
 40
0
 40
0
 40
0
 40
0
 40
1
 40
1
 40
1
 40
1
 10
81.558149
 20
75.461582
 30
0.0
 10
81.717359
 20
75.513414
 30
0.0
 10
82.464000
 20
76.475442
 30
0.0
 10
83.217353
 20
77.599421
 30
0.0
  0
LWPOLYLINE
  5
26a
100
AcDbEntity
  8
0
 62
7
100
AcDbPolyline
 90
1
 70
1
 10
50.642102
 20
78.647388
 30
0.0
  0
SPLINE
  5
26b
100
AcDbEntity
  8
0
 62
7
100
AcDbSpline
 70
8
 71
3
 72
8
 73
4
 74
0
 40
0
 40
0
 40
0
 40
0
 40
1
 40
1
 40
1
 40
1
 10
77.288091
 20
80.296192
 30
0.0
 10
78.643626
 20
84.080964
 30
0.0
 10
76.677539
 20
88.959208
 30
0.0
 10
71.662928
 20
94.253304
 30
0.0
  0
SPLINE
  5
26c
100
AcDbEntity
  8
0
 62
7
100
AcDbSpline
 70
8
 71
3
 72
8
 73
4
 74
0
 40
0
 40
0
 40
0
 40
0
 40
1
 40
1
 40
1
 40
1
 10
71.662928
 20
94.253304
 30
0.0
 10
69.047312
 20
97.014705
 30
0.0
 10
69.021949
 20
97.003449
 30
0.0
 10
68.817133
 20
92.990355
 30
0.0
  0
SPLINE
  5
26d
100
AcDbEntity
  8
0
 62
7
100
AcDbSpline
 70
8
 71
3
 72
8
 73
4
 74
0
 40
0
 40
0
 40
0
 40
0
 40
1
 40
1
 40
1
 40
1
 10
68.817133
 20
92.990355
 30
0.0
 10
68.514214
 20
87.055111
 30
0.0
 10
70.512736
 20
82.710319
 30
0.0
 10
74.906952
 20
79.751081
 30
0.0
  0
SPLINE
  5
26e
100
AcDbEntity
  8
0
 62
7
100
AcDbSpline
 70
8
 71
3
 72
8
 73
4
 74
0
 40
0
 40
0
 40
0
 40
0
 40
1
 40
1
 40
1
 40
1
 10
74.906952
 20
79.751081
 30
0.0
 10
75.665782
 20
79.240055
 30
0.0
 10
76.406772
 20
78.859922
 30
0.0
 10
76.553592
 20
78.906341
 30
0.0
  0
SPLINE
  5
26f
100
AcDbEntity
  8
0
 62
7
100
AcDbSpline
 70
8
 71
3
 72
8
 73
4
 74
0
 40
0
 40
0
 40
0
 40
0
 40
1
 40
1
 40
1
 40
1
 10
76.553592
 20
78.906341
 30
0.0
 10
76.700412
 20
78.952762
 30
0.0
 10
77.030937
 20
79.578195
 30
0.0
 10
77.288091
 20
80.296192
 30
0.0
  0
LWPOLYLINE
  5
270
100
AcDbEntity
  8
0
 62
7
100
AcDbPolyline
 90
1
 70
1
 10
83.217353
 20
77.599421
 30
0.0
  0
SPLINE
  5
271
100
AcDbEntity
  8
0
 62
7
100
AcDbSpline
 70
8
 71
3
 72
8
 73
4
 74
0
 40
0
 40
0
 40
0
 40
0
 40
1
 40
1
 40
1
 40
1
 10
96.330497
 20
81.498482
 30
0.0
 10
97.255735
 20
82.981699
 30
0.0
 10
97.691858
 20
85.326498
 30
0.0
 10
97.455736
 20
87.548265
 30
0.0
  0
SPLINE
  5
272
100
AcDbEntity
  8
0
 62
7
100
AcDbSpline
 70
8
 71
3
 72
8
 73
4
 74
0
 40
0
 40
0
 40
0
 40
0
 40
1
 40
1
 40
1
 40
1
 10
97.455736
 20
87.548265
 30
0.0
 10
97.099546
 20
90.899792
 30
0.0
 10
95.312066
 20
95.282930
 30
0.0
 10
93.867706
 20
96.346589
 30
0.0
  0
SPLINE
  5
273
100
AcDbEntity
  8
0
 62
7
100
AcDbSpline
 70
8
 71
3
 72
8
 73
4
 74
0
 40
0
 40
0
 40
0
 40
0
 40
1
 40
1
 40
1
 40
1
 10
93.867706
 20
96.346589
 30
0.0
 10
91.821415
 20
97.853521
 30
0.0
 10
89.645511
 20
93.685286
 30
0.0
 10
89.623490
 20
88.216224
 30
0.0
  0
SPLINE
  5
274
100
AcDbEntity
  8
0
 62
7
100
AcDbSpline
 70
8
 71
3
 72
8
 73
4
 74
0
 40
0
 40
0
 40
0
 40
0
 40
1
 40
1
 40
1
 40
1
 10
89.623490
 20
88.216224
 30
0.0
 10
89.608567
 20
84.513436
 30
0.0
 10
90.557519
 20
82.096705
 30
0.0
 10
92.833849
 20
80.040178
 30
0.0
  0
LWPOLYLINE
  5
275
100
AcDbEntity
  8
0
 62
7
100
AcDbPolyline
 90
1
 70
1
 10
77.288091
 20
80.296192
 30
0.0
  0
SPLINE
  5
276
100
AcDbEntity
  8
0
 62
7
100
AcDbSpline
 70
8
 71
3
 72
8
 73
4
 74
0
 40
0
 40
0
 40
0
 40
0
 40
1
 40
1
 40
1
 40
1
 10
94.766717
 20
79.694569
 30
0.0
 10
95.228299
 20
80.047902
 30
0.0
 10
95.931998
 20
80.859664
 30
0.0
 10
96.330497
 20
81.498482
 30
0.0
  0
LWPOLYLINE
  5
277
100
AcDbEntity
  8
0
 62
7
100
AcDbPolyline
 90
3
 70
0
 10
92.833849
 20
80.040178
 30
0.0
 10
93.927483
 20
79.052147
 30
0.0
 10
94.766717
 20
79.694569
 30
0.0
  0
SPLINE
  5
278
100
AcDbEntity
  8
0
 62
7
100
AcDbSpline
 70
8
 71
3
 72
8
 73
4
 74
0
 40
0
 40
0
 40
0
 40
0
 40
1
 40
1
 40
1
 40
1
 10
41.532985
 20
85.003198
 30
0.0
 10
40.989829
 20
87.661988
 30
0.0
 10
40.108468
 20
89.887589
 30
0.0
 10
38.905934
 20
91.636996
 30
0.0
  0
SPLINE
  5
279
100
AcDbEntity
  8
0
 62
7
100
AcDbSpline
 70
8
 71
3
 72
8
 73
4
 74
0
 40
0
 40
0
 40
0
 40
0
 40
1
 40
1
 40
1
 40
1
 10
38.905934
 20
91.636996
 30
0.0
 10
37.948867
 20
93.029307
 30
0.0
 10
35.407550
 20
94.865717
 30
0.0
 10
33.761349
 20
95.354587
 30
0.0
  0
SPLINE
  5
27a
100
AcDbEntity
  8
0
 62
7
100
AcDbSpline
 70
8
 71
3
 72
8
 73
4
 74
0
 40
0
 40
0
 40
0
 40
0
 40
1
 40
1
 40
1
 40
1
 10
33.761349
 20
95.354587
 30
0.0
 10
32.229076
 20
95.809623
 30
0.0
 10
32.189515
 20
95.783688
 30
0.0
 10
31.146393
 20
93.640182
 30
0.0
  0
SPLINE
  5
27b
100
AcDbEntity
  8
0
 62
7
100
AcDbSpline
 70
8
 71
3
 72
8
 73
4
 74
0
 40
0
 40
0
 40
0
 40
0
 40
1
 40
1
 40
1
 40
1
 10
31.146393
 20
93.640182
 30
0.0
 10
30.427229
 20
92.162379
 30
0.0
 10
30.381220
 20
89.742341
 30
0.0
 10
31.043277
 20
88.216224
 30
0.0
  0
SPLINE
  5
27c
100
AcDbEntity
  8
0
 62
7
100
AcDbSpline
 70
8
 71
3
 72
8
 73
4
 74
0
 40
0
 40
0
 40
0
 40
0
 40
1
 40
1
 40
1
 40
1
 10
31.043277
 20
88.216224
 30
0.0
 10
32.281873
 20
85.361111
 30
0.0
 10
35.278100
 20
82.626959
 30
0.0
 10
39.470386
 20
80.526218
 30
0.0
  0
LWPOLYLINE
  5
27d
100
AcDbEntity
  8
0
 62
7
100
AcDbPolyline
 90
1
 70
1
 10
96.330497
 20
81.498482
 30
0.0
  0
SPLINE
  5
27e
100
AcDbEntity
  8
0
 62
7
100
AcDbSpline
 70
8
 71
3
 72
8
 73
4
 74
0
 40
0
 40
0
 40
0
 40
0
 40
1
 40
1
 40
1
 40
1
 10
41.973497
 20
80.888102
 30
0.0
 10
42.016376
 20
81.755517
 30
0.0
 10
41.818145
 20
83.607312
 30
0.0
 10
41.532985
 20
85.003198
 30
0.0
  0
LWPOLYLINE
  5
27f
100
AcDbEntity
  8
0
 62
7
100
AcDbPolyline
 90
3
 70
0
 10
39.470386
 20
80.526218
 30
0.0
 10
41.895538
 20
79.310981
 30
0.0
 10
41.973497
 20
80.888102
 30
0.0
  0
SPLINE
  5
280
100
AcDbEntity
  8
0
 62
7
100
AcDbSpline
 70
8
 71
3
 72
8
 73
4
 74
0
 40
0
 40
0
 40
0
 40
0
 40
1
 40
1
 40
1
 40
1
 10
112.342353
 20
80.923770
 30
0.0
 10
116.353082
 20
83.829128
 30
0.0
 10
118.291221
 20
87.574832
 30
0.0
 10
118.306138
 20
92.449557
 30
0.0
  0
SPLINE
  5
281
100
AcDbEntity
  8
0
 62
7
100
AcDbSpline
 70
8
 71
3
 72
8
 73
4
 74
0
 40
0
 40
0
 40
0
 40
0
 40
1
 40
1
 40
1
 40
1
 10
118.306138
 20
92.449557
 30
0.0
 10
118.310583
 20
93.904766
 30
0.0
 10
118.163740
 20
95.720961
 30
0.0
 10
117.979799
 20
96.485546
 30
0.0
  0
LWPOLYLINE
  5
282
100
AcDbEntity
  8
0
 62
7
100
AcDbPolyline
 90
1
 70
1
 10
41.532985
 20
85.003198
 30
0.0
  0
SPLINE
  5
283
100
AcDbEntity
  8
0
 62
7
100
AcDbSpline
 70
8
 71
3
 72
8
 73
4
 74
0
 40
0
 40
0
 40
0
 40
0
 40
1
 40
1
 40
1
 40
1
 10
116.864559
 20
97.218704
 30
0.0
 10
114.245496
 20
95.014907
 30
0.0
 10
111.923142
 20
91.012777
 30
0.0
 10
111.224862
 20
87.499775
 30
0.0
  0
SPLINE
  5
284
100
AcDbEntity
  8
0
 62
7
100
AcDbSpline
 70
8
 71
3
 72
8
 73
4
 74
0
 40
0
 40
0
 40
0
 40
0
 40
1
 40
1
 40
1
 40
1
 10
111.224862
 20
87.499775
 30
0.0
 10
110.794067
 20
85.332472
 30
0.0
 10
110.666781
 20
80.146432
 30
0.0
 10
111.044381
 20
80.146432
 30
0.0
  0
SPLINE
  5
285
100
AcDbEntity
  8
0
 62
7
100
AcDbSpline
 70
8
 71
3
 72
8
 73
4
 74
0
 40
0
 40
0
 40
0
 40
0
 40
1
 40
1
 40
1
 40
1
 10
111.044381
 20
80.146432
 30
0.0
 10
111.168069
 20
80.146432
 30
0.0
 10
111.752155
 20
80.496235
 30
0.0
 10
112.342353
 20
80.923770
 30
0.0
  0
LWPOLYLINE
  5
286
100
AcDbEntity
  8
0
 62
7
100
AcDbPolyline
 90
3
 70
0
 10
117.979799
 20
96.485546
 30
0.0
 10
117.645360
 20
97.875704
 30
0.0
 10
116.864559
 20
97.218704
 30
0.0
  0
SPLINE
  5
287
100
AcDbEntity
  8
0
 62
7
100
AcDbSpline
 70
8
 71
3
 72
8
 73
4
 74
0
 40
0
 40
0
 40
0
 40
0
 40
1
 40
1
 40
1
 40
1
 10
107.242039
 20
83.255287
 30
0.0
 10
106.645371
 20
91.602838
 30
0.0
 10
104.236875
 20
96.568260
 30
0.0
 10
98.986411
 20
100.275305
 30
0.0
  0
LWPOLYLINE
  5
288
100
AcDbEntity
  8
0
 62
7
100
AcDbPolyline
 90
1
 70
1
 10
112.342353
 20
80.923770
 30
0.0
  0
SPLINE
  5
289
100
AcDbEntity
  8
0
 62
7
100
AcDbSpline
 70
8
 71
3
 72
8
 73
4
 74
0
 40
0
 40
0
 40
0
 40
0
 40
1
 40
1
 40
1
 40
1
 10
97.693784
 20
100.366362
 30
0.0
 10
97.422219
 20
99.284351
 30
0.0
 10
97.816408
 20
94.759367
 30
0.0
 10
98.392271
 20
92.348323
 30
0.0
  0
SPLINE
  5
28a
100
AcDbEntity
  8
0
 62
7
100
AcDbSpline
 70
8
 71
3
 72
8
 73
4
 74
0
 40
0
 40
0
 40
0
 40
0
 40
1
 40
1
 40
1
 40
1
 10
98.392271
 20
92.348323
 30
0.0
 10
99.173456
 20
89.077615
 30
0.0
 10
100.929892
 20
85.819255
 30
0.0
 10
102.922882
 20
83.943595
 30
0.0
  0
SPLINE
  5
28b
100
AcDbEntity
  8
0
 62
7
100
AcDbSpline
 70
8
 71
3
 72
8
 73
4
 74
0
 40
0
 40
0
 40
0
 40
0
 40
1
 40
1
 40
1
 40
1
 10
102.922882
 20
83.943595
 30
0.0
 10
103.954128
 20
82.973061
 30
0.0
 10
106.830844
 20
80.940182
 30
0.0
 10
107.172995
 20
80.940182
 30
0.0
  0
SPLINE
  5
28c
100
AcDbEntity
  8
0
 62
7
100
AcDbSpline
 70
8
 71
3
 72
8
 73
4
 74
0
 40
0
 40
0
 40
0
 40
0
 40
1
 40
1
 40
1
 40
1
 10
107.172995
 20
80.940182
 30
0.0
 10
107.304044
 20
80.940182
 30
0.0
 10
107.334505
 20
81.961646
 30
0.0
 10
107.242039
 20
83.255287
 30
0.0
  0
LWPOLYLINE
  5
28d
100
AcDbEntity
  8
0
 62
7
100
AcDbPolyline
 90
3
 70
0
 10
98.986411
 20
100.275305
 30
0.0
 10
97.868952
 20
101.064280
 30
0.0
 10
97.693784
 20
100.366362
 30
0.0
  0
SPLINE
  5
28e
100
AcDbEntity
  8
0
 62
7
100
AcDbSpline
 70
8
 71
3
 72
8
 73
4
 74
0
 40
0
 40
0
 40
0
 40
0
 40
1
 40
1
 40
1
 40
1
 10
140.055955
 20
85.025227
 30
0.0
 10
141.074600
 20
85.525568
 30
0.0
 10
142.356954
 20
86.396208
 30
0.0
 10
142.905631
 20
86.959980
 30
0.0
  0
LWPOLYLINE
  5
28f
100
AcDbEntity
  8
0
 62
7
100
AcDbPolyline
 90
1
 70
1
 10
107.242039
 20
83.255287
 30
0.0
  0
SPLINE
  5
290
100
AcDbEntity
  8
0
 62
7
100
AcDbSpline
 70
8
 71
3
 72
8
 73
4
 74
0
 40
0
 40
0
 40
0
 40
0
 40
1
 40
1
 40
1
 40
1
 10
142.068285
 20
97.984940
 30
0.0
 10
140.342633
 20
96.687489
 30
0.0
 10
138.354943
 20
94.274145
 30
0.0
 10
137.626386
 20
92.591840
 30
0.0
  0
SPLINE
  5
291
100
AcDbEntity
  8
0
 62
7
100
AcDbSpline
 70
8
 71
3
 72
8
 73
4
 74
0
 40
0
 40
0
 40
0
 40
0
 40
1
 40
1
 40
1
 40
1
 10
137.626386
 20
92.591840
 30
0.0
 10
136.623899
 20
90.276997
 30
0.0
 10
136.041135
 20
86.747670
 30
0.0
 10
136.354820
 20
84.890991
 30
0.0
  0
SPLINE
  5
292
100
AcDbEntity
  8
0
 62
7
100
AcDbSpline
 70
8
 71
3
 72
8
 73
4
 74
0
 40
0
 40
0
 40
0
 40
0
 40
1
 40
1
 40
1
 40
1
 10
136.354820
 20
84.890991
 30
0.0
 10
136.533834
 20
83.831406
 30
0.0
 10
136.567069
 20
83.800842
 30
0.0
 10
137.371876
 20
83.955565
 30
0.0
  0
SPLINE
  5
293
100
AcDbEntity
  8
0
 62
7
100
AcDbSpline
 70
8
 71
3
 72
8
 73
4
 74
0
 40
0
 40
0
 40
0
 40
0
 40
1
 40
1
 40
1
 40
1
 10
137.371876
 20
83.955565
 30
0.0
 10
137.829473
 20
84.043539
 30
0.0
 10
139.037309
 20
84.524887
 30
0.0
 10
140.055955
 20
85.025227
 30
0.0
  0
LWPOLYLINE
  5
294
100
AcDbEntity
  8
0
 62
7
100
AcDbPolyline
 90
5
 70
0
 10
142.905631
 20
86.959980
 30
0.0
 10
143.903224
 20
87.985023
 30
0.0
 10
143.831672
 20
93.620995
 30
0.0
 10
143.760121
 20
99.256966
 30
0.0
 10
142.068285
 20
97.984940
 30
0.0
  0
SPLINE
  5
295
100
AcDbEntity
  8
0
 62
7
100
AcDbSpline
 70
8
 71
3
 72
8
 73
4
 74
0
 40
0
 40
0
 40
0
 40
0
 40
1
 40
1
 40
1
 40
1
 10
11.184868
 20
87.297239
 30
0.0
 10
11.869087
 20
88.028724
 30
0.0
 10
12.800673
 20
89.421668
 30
0.0
 10
13.255059
 20
90.392668
 30
0.0
  0
SPLINE
  5
296
100
AcDbEntity
  8
0
 62
7
100
AcDbSpline
 70
8
 71
3
 72
8
 73
4
 74
0
 40
0
 40
0
 40
0
 40
0
 40
1
 40
1
 40
1
 40
1
 10
13.255059
 20
90.392668
 30
0.0
 10
15.243496
 20
94.641860
 30
0.0
 10
13.758008
 20
98.022177
 30
0.0
 10
8.330927
 20
101.597820
 30
0.0
  0
LWPOLYLINE
  5
297
100
AcDbEntity
  8
0
 62
7
100
AcDbPolyline
 90
1
 70
1
 10
140.055955
 20
85.025227
 30
0.0
  0
SPLINE
  5
298
100
AcDbEntity
  8
0
 62
7
100
AcDbSpline
 70
8
 71
3
 72
8
 73
4
 74
0
 40
0
 40
0
 40
0
 40
0
 40
1
 40
1
 40
1
 40
1
 10
6.604616
 20
87.871956
 30
0.0
 10
7.648254
 20
86.977461
 30
0.0
 10
9.257607
 20
85.970412
 30
0.0
 10
9.646311
 20
85.968620
 30
0.0
  0
SPLINE
  5
299
100
AcDbEntity
  8
0
 62
7
100
AcDbSpline
 70
8
 71
3
 72
8
 73
4
 74
0
 40
0
 40
0
 40
0
 40
0
 40
1
 40
1
 40
1
 40
1
 10
9.646311
 20
85.968620
 30
0.0
 10
9.808298
 20
85.967827
 30
0.0
 10
10.500649
 20
86.565753
 30
0.0
 10
11.184868
 20
87.297239
 30
0.0
  0
LWPOLYLINE
  5
29a
100
AcDbEntity
  8
0
 62
7
100
AcDbPolyline
 90
5
 70
0
 10
8.330927
 20
101.597820
 30
0.0
 10
5.912204
 20
103.191400
 30
0.0
 10
5.841849
 20
95.888709
 30
0.0
 10
5.771494
 20
88.586019
 30
0.0
 10
6.604616
 20
87.871956
 30
0.0
  0
SPLINE
  5
29b
100
AcDbEntity
  8
0
 62
7
100
AcDbSpline
 70
8
 71
3
 72
8
 73
4
 74
0
 40
0
 40
0
 40
0
 40
0
 40
1
 40
1
 40
1
 40
1
 10
133.044496
 20
87.279803
 30
0.0
 10
133.044496
 20
87.419617
 30
0.0
 10
133.175013
 20
88.733725
 30
0.0
 10
133.334530
 20
90.200043
 30
0.0
  0
SPLINE
  5
29c
100
AcDbEntity
  8
0
 62
7
100
AcDbSpline
 70
8
 71
3
 72
8
 73
4
 74
0
 40
0
 40
0
 40
0
 40
0
 40
1
 40
1
 40
1
 40
1
 10
133.334530
 20
90.200043
 30
0.0
 10
133.808909
 20
94.560628
 30
0.0
 10
132.913832
 20
98.017819
 30
0.0
 10
130.968181
 20
99.339921
 30
0.0
  0
LWPOLYLINE
  5
29d
100
AcDbEntity
  8
0
 62
7
100
AcDbPolyline
 90
1
 70
1
 10
11.184868
 20
87.297239
 30
0.0
  0
SPLINE
  5
29e
100
AcDbEntity
  8
0
 62
7
100
AcDbSpline
 70
8
 71
3
 72
8
 73
4
 74
0
 40
0
 40
0
 40
0
 40
0
 40
1
 40
1
 40
1
 40
1
 10
129.327137
 20
99.316082
 30
0.0
 10
128.283798
 20
98.316500
 30
0.0
 10
127.488246
 20
96.524601
 30
0.0
 10
127.488246
 20
95.174168
 30
0.0
  0
SPLINE
  5
29f
100
AcDbEntity
  8
0
 62
7
100
AcDbSpline
 70
8
 71
3
 72
8
 73
4
 74
0
 40
0
 40
0
 40
0
 40
0
 40
1
 40
1
 40
1
 40
1
 10
127.488246
 20
95.174168
 30
0.0
 10
127.488246
 20
93.609306
 30
0.0
 10
128.219176
 20
92.279912
 30
0.0
 10
130.663246
 20
89.399584
 30
0.0
  0
SPLINE
  5
2a0
100
AcDbEntity
  8
0
 62
7
100
AcDbSpline
 70
8
 71
3
 72
8
 73
4
 74
0
 40
0
 40
0
 40
0
 40
0
 40
1
 40
1
 40
1
 40
1
 10
130.663246
 20
89.399584
 30
0.0
 10
132.570678
 20
87.151681
 30
0.0
 10
133.044496
 20
86.729890
 30
0.0
 10
133.044496
 20
87.279803
 30
0.0
  0
LWPOLYLINE
  5
2a1
100
AcDbEntity
  8
0
 62
7
100
AcDbPolyline
 90
3
 70
0
 10
130.968181
 20
99.339921
 30
0.0
 10
130.022650
 20
99.982427
 30
0.0
 10
129.327137
 20
99.316082
 30
0.0
  0
SPLINE
  5
2a2
100
AcDbEntity
  8
0
 62
7
100
AcDbSpline
 70
8
 71
3
 72
8
 73
4
 74
0
 40
0
 40
0
 40
0
 40
0
 40
1
 40
1
 40
1
 40
1
 10
27.521043
 20
92.095378
 30
0.0
 10
27.627300
 20
92.606791
 30
0.0
 10
27.958232
 20
93.644246
 30
0.0
 10
28.256450
 20
94.400830
 30
0.0
  0
SPLINE
  5
2a3
100
AcDbEntity
  8
0
 62
7
100
AcDbSpline
 70
8
 71
3
 72
8
 73
4
 74
0
 40
0
 40
0
 40
0
 40
0
 40
1
 40
1
 40
1
 40
1
 10
28.256450
 20
94.400830
 30
0.0
 10
28.554667
 20
95.157414
 30
0.0
 10
28.798663
 20
96.321816
 30
0.0
 10
28.798663
 20
96.988395
 30
0.0
  0
SPLINE
  5
2a4
100
AcDbEntity
  8
0
 62
7
100
AcDbSpline
 70
8
 71
3
 72
8
 73
4
 74
0
 40
0
 40
0
 40
0
 40
0
 40
1
 40
1
 40
1
 40
1
 10
28.798663
 20
96.988395
 30
0.0
 10
28.798663
 20
98.051342
 30
0.0
 10
28.667387
 20
98.331626
 30
0.0
 10
27.730945
 20
99.268068
 30
0.0
  0
LWPOLYLINE
  5
2a5
100
AcDbEntity
  8
0
 62
7
100
AcDbPolyline
 90
1
 70
1
 10
133.044496
 20
87.279803
 30
0.0
  0
SPLINE
  5
2a6
100
AcDbEntity
  8
0
 62
7
100
AcDbSpline
 70
8
 71
3
 72
8
 73
4
 74
0
 40
0
 40
0
 40
0
 40
0
 40
1
 40
1
 40
1
 40
1
 10
25.854631
 20
99.567669
 30
0.0
 10
24.234695
 20
98.028837
 30
0.0
 10
23.533351
 20
95.382556
 30
0.0
 10
24.331647
 20
93.821224
 30
0.0
  0
SPLINE
  5
2a7
100
AcDbEntity
  8
0
 62
7
100
AcDbSpline
 70
8
 71
3
 72
8
 73
4
 74
0
 40
0
 40
0
 40
0
 40
0
 40
1
 40
1
 40
1
 40
1
 10
24.331647
 20
93.821224
 30
0.0
 10
24.765452
 20
92.972776
 30
0.0
 10
26.754397
 20
90.974384
 30
0.0
 10
27.062737
 20
91.077164
 30
0.0
  0
SPLINE
  5
2a8
100
AcDbEntity
  8
0
 62
7
100
AcDbSpline
 70
8
 71
3
 72
8
 73
4
 74
0
 40
0
 40
0
 40
0
 40
0
 40
1
 40
1
 40
1
 40
1
 10
27.062737
 20
91.077164
 30
0.0
 10
27.208549
 20
91.125768
 30
0.0
 10
27.414786
 20
91.583962
 30
0.0
 10
27.521043
 20
92.095378
 30
0.0
  0
LWPOLYLINE
  5
2a9
100
AcDbEntity
  8
0
 62
7
100
AcDbPolyline
 90
3
 70
0
 10
27.730945
 20
99.268068
 30
0.0
 10
26.663229
 20
100.335786
 30
0.0
 10
25.854631
 20
99.567669
 30
0.0
  0
SPLINE
  5
2aa
100
AcDbEntity
  8
0
 62
7
100
AcDbSpline
 70
8
 71
3
 72
8
 73
4
 74
0
 40
0
 40
0
 40
0
 40
0
 40
1
 40
1
 40
1
 40
1
 10
80.389934
 20
92.184971
 30
0.0
 10
80.657639
 20
92.717056
 30
0.0
 10
80.789288
 20
93.763714
 30
0.0
 10
80.789288
 20
95.359971
 30
0.0
  0
SPLINE
  5
2ab
100
AcDbEntity
  8
0
 62
7
100
AcDbSpline
 70
8
 71
3
 72
8
 73
4
 74
0
 40
0
 40
0
 40
0
 40
0
 40
1
 40
1
 40
1
 40
1
 10
80.789288
 20
95.359971
 30
0.0
 10
80.789288
 20
97.389550
 30
0.0
 10
80.686156
 20
97.956132
 30
0.0
 10
80.090952
 20
99.196430
 30
0.0
  0
SPLINE
  5
2ac
100
AcDbEntity
  8
0
 62
7
100
AcDbSpline
 70
8
 71
3
 72
8
 73
4
 74
0
 40
0
 40
0
 40
0
 40
0
 40
1
 40
1
 40
1
 40
1
 10
80.090952
 20
99.196430
 30
0.0
 10
78.615119
 20
102.271809
 30
0.0
 10
72.795691
 20
108.471954
 30
0.0
 10
69.068296
 20
110.940210
 30
0.0
  0
SPLINE
  5
2ad
100
AcDbEntity
  8
0
 62
7
100
AcDbSpline
 70
8
 71
3
 72
8
 73
4
 74
0
 40
0
 40
0
 40
0
 40
0
 40
1
 40
1
 40
1
 40
1
 10
69.068296
 20
110.940210
 30
0.0
 10
67.168162
 20
112.198465
 30
0.0
 10
67.128078
 20
112.211205
 30
0.0
 10
66.592746
 20
111.727073
 30
0.0
  0
SPLINE
  5
2ae
100
AcDbEntity
  8
0
 62
7
100
AcDbSpline
 70
8
 71
3
 72
8
 73
4
 74
0
 40
0
 40
0
 40
0
 40
0
 40
1
 40
1
 40
1
 40
1
 10
66.592746
 20
111.727073
 30
0.0
 10
65.724159
 20
110.941556
 30
0.0
 10
65.046368
 20
109.364992
 30
0.0
 10
65.049165
 20
108.136658
 30
0.0
  0
SPLINE
  5
2af
100
AcDbEntity
  8
0
 62
7
100
AcDbSpline
 70
8
 71
3
 72
8
 73
4
 74
0
 40
0
 40
0
 40
0
 40
0
 40
1
 40
1
 40
1
 40
1
 10
65.049165
 20
108.136658
 30
0.0
 10
65.054192
 20
105.930465
 30
0.0
 10
66.058206
 20
104.421276
 30
0.0
 10
70.292748
 20
100.254763
 30
0.0
  0
SPLINE
  5
2b0
100
AcDbEntity
  8
0
 62
7
100
AcDbSpline
 70
8
 71
3
 72
8
 73
4
 74
0
 40
0
 40
0
 40
0
 40
0
 40
1
 40
1
 40
1
 40
1
 10
70.292748
 20
100.254763
 30
0.0
 10
72.437255
 20
98.144711
 30
0.0
 10
75.119828
 20
95.323864
 30
0.0
 10
76.254023
 20
93.986215
 30
0.0
  0
SPLINE
  5
2b1
100
AcDbEntity
  8
0
 62
7
100
AcDbSpline
 70
8
 71
3
 72
8
 73
4
 74
0
 40
0
 40
0
 40
0
 40
0
 40
1
 40
1
 40
1
 40
1
 10
76.254023
 20
93.986215
 30
0.0
 10
77.388220
 20
92.648566
 30
0.0
 10
78.455922
 20
91.494904
 30
0.0
 10
78.626700
 20
91.422522
 30
0.0
  0
SPLINE
  5
2b2
100
AcDbEntity
  8
0
 62
7
100
AcDbSpline
 70
8
 71
3
 72
8
 73
4
 74
0
 40
0
 40
0
 40
0
 40
0
 40
1
 40
1
 40
1
 40
1
 10
78.626700
 20
91.422522
 30
0.0
 10
79.313828
 20
91.131287
 30
0.0
 10
80.011611
 20
91.433026
 30
0.0
 10
80.389934
 20
92.184971
 30
0.0
  0
LWPOLYLINE
  5
2b3
100
AcDbEntity
  8
0
 62
7
100
AcDbPolyline
 90
1
 70
1
 10
27.521043
 20
92.095378
 30
0.0
  0
SPLINE
  5
2b4
100
AcDbEntity
  8
0
 62
7
100
AcDbSpline
 70
8
 71
3
 72
8
 73
4
 74
0
 40
0
 40
0
 40
0
 40
0
 40
1
 40
1
 40
1
 40
1
 10
45.860216
 20
95.426117
 30
0.0
 10
46.934266
 20
96.577388
 30
0.0
 10
49.142086
 20
101.113132
 30
0.0
 10
49.710784
 20
103.336717
 30
0.0
  0
SPLINE
  5
2b5
100
AcDbEntity
  8
0
 62
7
100
AcDbSpline
 70
8
 71
3
 72
8
 73
4
 74
0
 40
0
 40
0
 40
0
 40
0
 40
1
 40
1
 40
1
 40
1
 10
49.710784
 20
103.336717
 30
0.0
 10
51.473293
 20
110.228065
 30
0.0
 10
48.534024
 20
115.987055
 30
0.0
 10
41.088876
 20
120.229855
 30
0.0
  0
SPLINE
  5
2b6
100
AcDbEntity
  8
0
 62
7
100
AcDbSpline
 70
8
 71
3
 72
8
 73
4
 74
0
 40
0
 40
0
 40
0
 40
0
 40
1
 40
1
 40
1
 40
1
 10
41.088876
 20
120.229855
 30
0.0
 10
38.864143
 20
121.497675
 30
0.0
 10
38.742131
 20
121.496222
 30
0.0
 10
37.415893
 20
120.186172
 30
0.0
  0
SPLINE
  5
2b7
100
AcDbEntity
  8
0
 62
7
100
AcDbSpline
 70
8
 71
3
 72
8
 73
4
 74
0
 40
0
 40
0
 40
0
 40
0
 40
1
 40
1
 40
1
 40
1
 10
37.415893
 20
120.186172
 30
0.0
 10
36.347220
 20
119.130543
 30
0.0
 10
35.443364
 20
117.024700
 30
0.0
 10
35.245204
 20
115.128807
 30
0.0
  0
LWPOLYLINE
  5
2b8
100
AcDbEntity
  8
0
 62
7
100
AcDbPolyline
 90
1
 70
1
 10
80.389934
 20
92.184971
 30
0.0
  0
SPLINE
  5
2b9
100
AcDbEntity
  8
0
 62
7
100
AcDbSpline
 70
8
 71
3
 72
8
 73
4
 74
0
 40
0
 40
0
 40
0
 40
0
 40
1
 40
1
 40
1
 40
1
 10
36.633785
 20
111.810445
 30
0.0
 10
39.452135
 20
108.731862
 30
0.0
 10
41.116567
 20
105.268562
 30
0.0
 10
42.632400
 20
99.328721
 30
0.0
  0
SPLINE
  5
2ba
100
AcDbEntity
  8
0
 62
7
100
AcDbSpline
 70
8
 71
3
 72
8
 73
4
 74
0
 40
0
 40
0
 40
0
 40
0
 40
1
 40
1
 40
1
 40
1
 10
42.632400
 20
99.328721
 30
0.0
 10
43.444896
 20
96.144924
 30
0.0
 10
44.126166
 20
94.698513
 30
0.0
 10
44.813265
 20
94.698513
 30
0.0
  0
SPLINE
  5
2bb
100
AcDbEntity
  8
0
 62
7
100
AcDbSpline
 70
8
 71
3
 72
8
 73
4
 74
0
 40
0
 40
0
 40
0
 40
0
 40
1
 40
1
 40
1
 40
1
 10
44.813265
 20
94.698513
 30
0.0
 10
45.015748
 20
94.698513
 30
0.0
 10
45.486876
 20
95.025935
 30
0.0
 10
45.860216
 20
95.426117
 30
0.0
  0
LWPOLYLINE
  5
2bc
100
AcDbEntity
  8
0
 62
7
100
AcDbPolyline
 90
3
 70
0
 10
35.245204
 20
115.128807
 30
0.0
 10
35.076199
 20
113.511851
 30
0.0
 10
36.633785
 20
111.810445
 30
0.0
  0
SPLINE
  5
2bd
100
AcDbEntity
  8
0
 62
7
100
AcDbSpline
 70
8
 71
3
 72
8
 73
4
 74
0
 40
0
 40
0
 40
0
 40
0
 40
1
 40
1
 40
1
 40
1
 10
112.433124
 20
97.105891
 30
0.0
 10
112.738535
 20
97.411302
 30
0.0
 10
113.344873
 20
98.453099
 30
0.0
 10
113.780538
 20
99.420995
 30
0.0
  0
SPLINE
  5
2be
100
AcDbEntity
  8
0
 62
7
100
AcDbSpline
 70
8
 71
3
 72
8
 73
4
 74
0
 40
0
 40
0
 40
0
 40
0
 40
1
 40
1
 40
1
 40
1
 10
113.780538
 20
99.420995
 30
0.0
 10
115.914757
 20
104.162463
 30
0.0
 10
116.379908
 20
104.931041
 30
0.0
 10
118.576640
 20
107.345681
 30
0.0
  0
SPLINE
  5
2bf
100
AcDbEntity
  8
0
 62
7
100
AcDbSpline
 70
8
 71
3
 72
8
 73
4
 74
0
 40
0
 40
0
 40
0
 40
0
 40
1
 40
1
 40
1
 40
1
 10
118.576640
 20
107.345681
 30
0.0
 10
121.629345
 20
110.701201
 30
0.0
 10
122.528774
 20
112.438122
 30
0.0
 10
122.677190
 20
115.264388
 30
0.0
  0
SPLINE
  5
2c0
100
AcDbEntity
  8
0
 62
7
100
AcDbSpline
 70
8
 71
3
 72
8
 73
4
 74
0
 40
0
 40
0
 40
0
 40
0
 40
1
 40
1
 40
1
 40
1
 10
122.677190
 20
115.264388
 30
0.0
 10
122.773022
 20
117.089272
 30
0.0
 10
122.677719
 20
117.806650
 30
0.0
 10
122.088632
 20
119.696159
 30
0.0
  0
SPLINE
  5
2c1
100
AcDbEntity
  8
0
 62
7
100
AcDbSpline
 70
8
 71
3
 72
8
 73
4
 74
0
 40
0
 40
0
 40
0
 40
0
 40
1
 40
1
 40
1
 40
1
 10
122.088632
 20
119.696159
 30
0.0
 10
121.702039
 20
120.936099
 30
0.0
 10
121.297351
 20
121.950596
 30
0.0
 10
121.189324
 20
121.950596
 30
0.0
  0
SPLINE
  5
2c2
100
AcDbEntity
  8
0
 62
7
100
AcDbSpline
 70
8
 71
3
 72
8
 73
4
 74
0
 40
0
 40
0
 40
0
 40
0
 40
1
 40
1
 40
1
 40
1
 10
121.189324
 20
121.950596
 30
0.0
 10
120.774288
 20
121.950596
 30
0.0
 10
114.476882
 20
115.497570
 30
0.0
 10
113.347778
 20
113.915275
 30
0.0
  0
SPLINE
  5
2c3
100
AcDbEntity
  8
0
 62
7
100
AcDbSpline
 70
8
 71
3
 72
8
 73
4
 74
0
 40
0
 40
0
 40
0
 40
0
 40
1
 40
1
 40
1
 40
1
 10
113.347778
 20
113.915275
 30
0.0
 10
110.767101
 20
110.298780
 30
0.0
 10
109.761163
 20
107.342271
 30
0.0
 10
109.761163
 20
103.374018
 30
0.0
  0
SPLINE
  5
2c4
100
AcDbEntity
  8
0
 62
7
100
AcDbSpline
 70
8
 71
3
 72
8
 73
4
 74
0
 40
0
 40
0
 40
0
 40
0
 40
1
 40
1
 40
1
 40
1
 10
109.761163
 20
103.374018
 30
0.0
 10
109.761163
 20
99.334672
 30
0.0
 10
110.465357
 20
96.550596
 30
0.0
 10
111.487053
 20
96.550596
 30
0.0
  0
SPLINE
  5
2c5
100
AcDbEntity
  8
0
 62
7
100
AcDbSpline
 70
8
 71
3
 72
8
 73
4
 74
0
 40
0
 40
0
 40
0
 40
0
 40
1
 40
1
 40
1
 40
1
 10
111.487053
 20
96.550596
 30
0.0
 10
111.701980
 20
96.550596
 30
0.0
 10
112.127713
 20
96.800479
 30
0.0
 10
112.433124
 20
97.105891
 30
0.0
  0
LWPOLYLINE
  5
2c6
100
AcDbEntity
  8
0
 62
7
100
AcDbPolyline
 90
1
 70
1
 10
45.860216
 20
95.426117
 30
0.0
  0
SPLINE
  5
2c7
100
AcDbEntity
  8
0
 62
7
100
AcDbSpline
 70
8
 71
3
 72
8
 73
4
 74
0
 40
0
 40
0
 40
0
 40
0
 40
1
 40
1
 40
1
 40
1
 10
62.708848
 20
97.538990
 30
0.0
 10
64.790704
 20
98.465651
 30
0.0
 10
64.944149
 20
99.256628
 30
0.0
 10
63.604526
 20
102.156062
 30
0.0
  0
SPLINE
  5
2c8
100
AcDbEntity
  8
0
 62
7
100
AcDbSpline
 70
8
 71
3
 72
8
 73
4
 74
0
 40
0
 40
0
 40
0
 40
0
 40
1
 40
1
 40
1
 40
1
 10
63.604526
 20
102.156062
 30
0.0
 10
61.715581
 20
106.244435
 30
0.0
 10
61.890481
 20
109.584344
 30
0.0
 10
64.151772
 20
112.606381
 30
0.0
  0
SPLINE
  5
2c9
100
AcDbEntity
  8
0
 62
7
100
AcDbSpline
 70
8
 71
3
 72
8
 73
4
 74
0
 40
0
 40
0
 40
0
 40
0
 40
1
 40
1
 40
1
 40
1
 10
64.151772
 20
112.606381
 30
0.0
 10
64.498395
 20
113.069613
 30
0.0
 10
64.776784
 20
113.545863
 30
0.0
 10
64.770413
 20
113.664714
 30
0.0
  0
SPLINE
  5
2ca
100
AcDbEntity
  8
0
 62
7
100
AcDbSpline
 70
8
 71
3
 72
8
 73
4
 74
0
 40
0
 40
0
 40
0
 40
0
 40
1
 40
1
 40
1
 40
1
 10
64.770413
 20
113.664714
 30
0.0
 10
64.749616
 20
114.052744
 30
0.0
 10
60.238598
 20
116.962674
 30
0.0
 10
59.874475
 20
116.822948
 30
0.0
  0
SPLINE
  5
2cb
100
AcDbEntity
  8
0
 62
7
100
AcDbSpline
 70
8
 71
3
 72
8
 73
4
 74
0
 40
0
 40
0
 40
0
 40
0
 40
1
 40
1
 40
1
 40
1
 10
59.874475
 20
116.822948
 30
0.0
 10
59.240060
 20
116.579499
 30
0.0
 10
57.076385
 20
113.658245
 30
0.0
 10
56.225570
 20
111.896430
 30
0.0
  0
SPLINE
  5
2cc
100
AcDbEntity
  8
0
 62
7
100
AcDbSpline
 70
8
 71
3
 72
8
 73
4
 74
0
 40
0
 40
0
 40
0
 40
0
 40
1
 40
1
 40
1
 40
1
 10
56.225570
 20
111.896430
 30
0.0
 10
55.436320
 20
110.262098
 30
0.0
 10
55.393926
 20
110.012292
 30
0.0
 10
55.372455
 20
106.869346
 30
0.0
  0
SPLINE
  5
2cd
100
AcDbEntity
  8
0
 62
7
100
AcDbSpline
 70
8
 71
3
 72
8
 73
4
 74
0
 40
0
 40
0
 40
0
 40
0
 40
1
 40
1
 40
1
 40
1
 10
55.372455
 20
106.869346
 30
0.0
 10
55.347690
 20
103.245933
 30
0.0
 10
55.275051
 20
102.971359
 30
0.0
 10
53.693645
 20
100.524614
 30
0.0
  0
SPLINE
  5
2ce
100
AcDbEntity
  8
0
 62
7
100
AcDbSpline
 70
8
 71
3
 72
8
 73
4
 74
0
 40
0
 40
0
 40
0
 40
0
 40
1
 40
1
 40
1
 40
1
 10
53.693645
 20
100.524614
 30
0.0
 10
52.215584
 20
98.237770
 30
0.0
 10
52.276835
 20
97.337999
 30
0.0
 10
53.934080
 20
96.992612
 30
0.0
  0
SPLINE
  5
2cf
100
AcDbEntity
  8
0
 62
7
100
AcDbSpline
 70
8
 71
3
 72
8
 73
4
 74
0
 40
0
 40
0
 40
0
 40
0
 40
1
 40
1
 40
1
 40
1
 10
53.934080
 20
96.992612
 30
0.0
 10
54.297882
 20
96.916793
 30
0.0
 10
56.143350
 20
96.885109
 30
0.0
 10
58.035121
 20
96.922209
 30
0.0
  0
SPLINE
  5
2d0
100
AcDbEntity
  8
0
 62
7
100
AcDbSpline
 70
8
 71
3
 72
8
 73
4
 74
0
 40
0
 40
0
 40
0
 40
0
 40
1
 40
1
 40
1
 40
1
 10
58.035121
 20
96.922209
 30
0.0
 10
60.844173
 20
96.977293
 30
0.0
 10
61.700942
 20
97.090360
 30
0.0
 10
62.708848
 20
97.538990
 30
0.0
  0
LWPOLYLINE
  5
2d1
100
AcDbEntity
  8
0
 62
7
100
AcDbPolyline
 90
1
 70
1
 10
112.433124
 20
97.105891
 30
0.0
  0
SPLINE
  5
2d2
100
AcDbEntity
  8
0
 62
7
100
AcDbSpline
 70
8
 71
3
 72
8
 73
4
 74
0
 40
0
 40
0
 40
0
 40
0
 40
1
 40
1
 40
1
 40
1
 10
123.836665
 20
97.542773
 30
0.0
 10
125.060231
 20
98.850545
 30
0.0
 10
125.490248
 20
99.984605
 30
0.0
 10
125.466954
 20
101.842252
 30
0.0
  0
SPLINE
  5
2d3
100
AcDbEntity
  8
0
 62
7
100
AcDbSpline
 70
8
 71
3
 72
8
 73
4
 74
0
 40
0
 40
0
 40
0
 40
0
 40
1
 40
1
 40
1
 40
1
 10
125.466954
 20
101.842252
 30
0.0
 10
125.445867
 20
103.523431
 30
0.0
 10
124.626336
 20
106.075586
 30
0.0
 10
124.107567
 20
106.075586
 30
0.0
  0
SPLINE
  5
2d4
100
AcDbEntity
  8
0
 62
7
100
AcDbSpline
 70
8
 71
3
 72
8
 73
4
 74
0
 40
0
 40
0
 40
0
 40
0
 40
1
 40
1
 40
1
 40
1
 10
124.107567
 20
106.075586
 30
0.0
 10
123.751491
 20
106.075586
 30
0.0
 10
122.564475
 20
104.705306
 30
0.0
 10
122.066386
 20
103.719270
 30
0.0
  0
SPLINE
  5
2d5
100
AcDbEntity
  8
0
 62
7
100
AcDbSpline
 70
8
 71
3
 72
8
 73
4
 74
0
 40
0
 40
0
 40
0
 40
0
 40
1
 40
1
 40
1
 40
1
 10
122.066386
 20
103.719270
 30
0.0
 10
121.426637
 20
102.452792
 30
0.0
 10
121.475786
 20
100.191218
 30
0.0
 10
122.183361
 20
98.336523
 30
0.0
  0
SPLINE
  5
2d6
100
AcDbEntity
  8
0
 62
7
100
AcDbSpline
 70
8
 71
3
 72
8
 73
4
 74
0
 40
0
 40
0
 40
0
 40
0
 40
1
 40
1
 40
1
 40
1
 10
122.183361
 20
98.336523
 30
0.0
 10
122.502583
 20
97.499779
 30
0.0
 10
122.851997
 20
96.815169
 30
0.0
 10
122.959839
 20
96.815169
 30
0.0
  0
SPLINE
  5
2d7
100
AcDbEntity
  8
0
 62
7
100
AcDbSpline
 70
8
 71
3
 72
8
 73
4
 74
0
 40
0
 40
0
 40
0
 40
0
 40
1
 40
1
 40
1
 40
1
 10
122.959839
 20
96.815169
 30
0.0
 10
123.067678
 20
96.815169
 30
0.0
 10
123.462251
 20
97.142591
 30
0.0
 10
123.836665
 20
97.542773
 30
0.0
  0
LWPOLYLINE
  5
2d8
100
AcDbEntity
  8
0
 62
7
100
AcDbPolyline
 90
1
 70
1
 10
62.708848
 20
97.538990
 30
0.0
  0
SPLINE
  5
2d9
100
AcDbEntity
  8
0
 62
7
100
AcDbSpline
 70
8
 71
3
 72
8
 73
4
 74
0
 40
0
 40
0
 40
0
 40
0
 40
1
 40
1
 40
1
 40
1
 10
88.991371
 20
97.939109
 30
0.0
 10
91.177084
 20
99.012362
 30
0.0
 10
93.502734
 20
101.955095
 30
0.0
 10
92.817622
 20
102.780605
 30
0.0
  0
SPLINE
  5
2da
100
AcDbEntity
  8
0
 62
7
100
AcDbSpline
 70
8
 71
3
 72
8
 73
4
 74
0
 40
0
 40
0
 40
0
 40
0
 40
1
 40
1
 40
1
 40
1
 10
92.817622
 20
102.780605
 30
0.0
 10
92.649257
 20
102.983472
 30
0.0
 10
91.183693
 20
103.808459
 30
0.0
 10
89.560813
 20
104.613908
 30
0.0
  0
SPLINE
  5
2db
100
AcDbEntity
  8
0
 62
7
100
AcDbSpline
 70
8
 71
3
 72
8
 73
4
 74
0
 40
0
 40
0
 40
0
 40
0
 40
1
 40
1
 40
1
 40
1
 10
89.560813
 20
104.613908
 30
0.0
 10
86.262133
 20
106.251071
 30
0.0
 10
82.519946
 20
107.326115
 30
0.0
 10
79.220068
 20
107.584563
 30
0.0
  0
LWPOLYLINE
  5
2dc
100
AcDbEntity
  8
0
 62
7
100
AcDbPolyline
 90
1
 70
1
 10
123.836665
 20
97.542773
 30
0.0
  0
SPLINE
  5
2dd
100
AcDbEntity
  8
0
 62
7
100
AcDbSpline
 70
8
 71
3
 72
8
 73
4
 74
0
 40
0
 40
0
 40
0
 40
0
 40
1
 40
1
 40
1
 40
1
 10
78.843886
 20
105.523191
 30
0.0
 10
79.791100
 20
104.299046
 30
0.0
 10
81.307511
 20
102.205517
 30
0.0
 10
82.213691
 20
100.870909
 30
0.0
  0
SPLINE
  5
2de
100
AcDbEntity
  8
0
 62
7
100
AcDbSpline
 70
8
 71
3
 72
8
 73
4
 74
0
 40
0
 40
0
 40
0
 40
0
 40
1
 40
1
 40
1
 40
1
 10
82.213691
 20
100.870909
 30
0.0
 10
84.780419
 20
97.090661
 30
0.0
 10
86.100539
 20
96.519622
 30
0.0
 10
88.991371
 20
97.939109
 30
0.0
  0
LWPOLYLINE
  5
2df
100
AcDbEntity
  8
0
 62
7
100
AcDbPolyline
 90
3
 70
0
 10
79.220068
 20
107.584563
 30
0.0
 10
77.121681
 20
107.748911
 30
0.0
 10
78.843886
 20
105.523191
 30
0.0
  0
SPLINE
  5
2e0
100
AcDbEntity
  8
0
 62
7
100
AcDbSpline
 70
8
 71
3
 72
8
 73
4
 74
0
 40
0
 40
0
 40
0
 40
0
 40
1
 40
1
 40
1
 40
1
 10
38.442215
 20
98.336534
 30
0.0
 10
37.463069
 20
102.900073
 30
0.0
 10
35.430479
 20
105.723473
 30
0.0
 10
29.877126
 20
110.233989
 30
0.0
  0
SPLINE
  5
2e1
100
AcDbEntity
  8
0
 62
7
100
AcDbSpline
 70
8
 71
3
 72
8
 73
4
 74
0
 40
0
 40
0
 40
0
 40
0
 40
1
 40
1
 40
1
 40
1
 10
29.877126
 20
110.233989
 30
0.0
 10
28.338087
 20
111.484021
 30
0.0
 10
26.286833
 20
113.277441
 30
0.0
 10
25.318786
 20
114.219371
 30
0.0
  0
LWPOLYLINE
  5
2e2
100
AcDbEntity
  8
0
 62
7
100
AcDbPolyline
 90
1
 70
1
 10
88.991371
 20
97.939109
 30
0.0
  0
SPLINE
  5
2e3
100
AcDbEntity
  8
0
 62
7
100
AcDbSpline
 70
8
 71
3
 72
8
 73
4
 74
0
 40
0
 40
0
 40
0
 40
0
 40
1
 40
1
 40
1
 40
1
 10
22.837539
 20
114.842216
 30
0.0
 10
22.226124
 20
113.918307
 30
0.0
 10
22.135713
 20
113.551203
 30
0.0
 10
22.243446
 20
112.429999
 30
0.0
  0
SPLINE
  5
2e4
100
AcDbEntity
  8
0
 62
7
100
AcDbSpline
 70
8
 71
3
 72
8
 73
4
 74
0
 40
0
 40
0
 40
0
 40
0
 40
1
 40
1
 40
1
 40
1
 10
22.243446
 20
112.429999
 30
0.0
 10
22.399590
 20
110.804963
 30
0.0
 10
23.380012
 20
109.286913
 30
0.0
 10
26.461821
 20
105.898402
 30
0.0
  0
SPLINE
  5
2e5
100
AcDbEntity
  8
0
 62
7
100
AcDbSpline
 70
8
 71
3
 72
8
 73
4
 74
0
 40
0
 40
0
 40
0
 40
0
 40
1
 40
1
 40
1
 40
1
 10
26.461821
 20
105.898402
 30
0.0
 10
31.080686
 20
100.819863
 30
0.0
 10
35.471193
 20
97.669421
 30
0.0
 10
37.997974
 20
97.620542
 30
0.0
  0
SPLINE
  5
2e6
100
AcDbEntity
  8
0
 62
7
100
AcDbSpline
 70
8
 71
3
 72
8
 73
4
 74
0
 40
0
 40
0
 40
0
 40
0
 40
1
 40
1
 40
1
 40
1
 10
37.997974
 20
97.620542
 30
0.0
 10
38.516004
 20
97.610515
 30
0.0
 10
38.576922
 20
97.708701
 30
0.0
 10
38.442215
 20
98.336534
 30
0.0
  0
LWPOLYLINE
  5
2e7
100
AcDbEntity
  8
0
 62
7
100
AcDbPolyline
 90
3
 70
0
 10
25.318786
 20
114.219371
 30
0.0
 10
23.558703
 20
115.931969
 30
0.0
 10
22.837539
 20
114.842216
 30
0.0
  0
LWPOLYLINE
  5
2e8
100
AcDbEntity
  8
0
 62
7
100
AcDbPolyline
 90
1
 70
1
 10
38.442215
 20
98.336534
 30
0.0
  0
SPLINE
  5
2e9
100
AcDbEntity
  8
0
 62
7
100
AcDbSpline
 70
8
 71
3
 72
8
 73
4
 74
0
 40
0
 40
0
 40
0
 40
0
 40
1
 40
1
 40
1
 40
1
 10
143.892413
 20
107.685877
 30
0.0
 10
143.892413
 20
110.579683
 30
0.0
 10
143.801110
 20
111.896430
 30
0.0
 10
143.600458
 20
111.896430
 30
0.0
  0
SPLINE
  5
2ea
100
AcDbEntity
  8
0
 62
7
100
AcDbSpline
 70
8
 71
3
 72
8
 73
4
 74
0
 40
0
 40
0
 40
0
 40
0
 40
1
 40
1
 40
1
 40
1
 10
143.600458
 20
111.896430
 30
0.0
 10
143.439885
 20
111.896430
 30
0.0
 10
142.487348
 20
111.075272
 30
0.0
 10
141.483710
 20
110.071636
 30
0.0
  0
SPLINE
  5
2eb
100
AcDbEntity
  8
0
 62
7
100
AcDbSpline
 70
8
 71
3
 72
8
 73
4
 74
0
 40
0
 40
0
 40
0
 40
0
 40
1
 40
1
 40
1
 40
1
 10
141.483710
 20
110.071636
 30
0.0
 10
140.145783
 20
108.733706
 30
0.0
 10
139.399891
 20
107.701411
 30
0.0
 10
138.688088
 20
106.202554
 30
0.0
  0
SPLINE
  5
2ec
100
AcDbEntity
  8
0
 62
7
100
AcDbSpline
 70
8
 71
3
 72
8
 73
4
 74
0
 40
0
 40
0
 40
0
 40
0
 40
1
 40
1
 40
1
 40
1
 10
138.688088
 20
106.202554
 30
0.0
 10
137.811812
 20
104.357366
 30
0.0
 10
137.705433
 20
103.892321
 30
0.0
 10
137.595816
 20
101.427650
 30
0.0
  0
SPLINE
  5
2ed
100
AcDbEntity
  8
0
 62
7
100
AcDbSpline
 70
8
 71
3
 72
8
 73
4
 74
0
 40
0
 40
0
 40
0
 40
0
 40
1
 40
1
 40
1
 40
1
 10
137.595816
 20
101.427650
 30
0.0
 10
137.529022
 20
99.925812
 30
0.0
 10
137.544609
 20
98.514003
 30
0.0
 10
137.630453
 20
98.290295
 30
0.0
  0
SPLINE
  5
2ee
100
AcDbEntity
  8
0
 62
7
100
AcDbSpline
 70
8
 71
3
 72
8
 73
4
 74
0
 40
0
 40
0
 40
0
 40
0
 40
1
 40
1
 40
1
 40
1
 10
137.630453
 20
98.290295
 30
0.0
 10
137.748121
 20
97.983662
 30
0.0
 10
138.130926
 20
98.247766
 30
0.0
 10
139.185827
 20
99.363379
 30
0.0
  0
SPLINE
  5
2ef
100
AcDbEntity
  8
0
 62
7
100
AcDbSpline
 70
8
 71
3
 72
8
 73
4
 74
0
 40
0
 40
0
 40
0
 40
0
 40
1
 40
1
 40
1
 40
1
 10
139.185827
 20
99.363379
 30
0.0
 10
139.955439
 20
100.177283
 30
0.0
 10
141.329262
 20
101.435432
 30
0.0
 10
142.238767
 20
102.159266
 30
0.0
  0
LWPOLYLINE
  5
2f0
100
AcDbEntity
  8
0
 62
7
100
AcDbPolyline
 90
3
 70
0
 10
142.238767
 20
102.159266
 30
0.0
 10
143.892413
 20
103.475327
 30
0.0
 10
143.892413
 20
107.685877
 30
0.0
  0
SPLINE
  5
2f1
100
AcDbEntity
  8
0
 62
7
100
AcDbSpline
 70
8
 71
3
 72
8
 73
4
 74
0
 40
0
 40
0
 40
0
 40
0
 40
1
 40
1
 40
1
 40
1
 10
19.184318
 20
99.496658
 30
0.0
 10
19.400250
 20
99.675865
 30
0.0
 10
19.832537
 20
100.306706
 30
0.0
 10
20.144956
 20
100.898523
 30
0.0
  0
SPLINE
  5
2f2
100
AcDbEntity
  8
0
 62
7
100
AcDbSpline
 70
8
 71
3
 72
8
 73
4
 74
0
 40
0
 40
0
 40
0
 40
0
 40
1
 40
1
 40
1
 40
1
 10
20.144956
 20
100.898523
 30
0.0
 10
20.981196
 20
102.482624
 30
0.0
 10
20.983618
 20
106.790154
 30
0.0
 10
20.149147
 20
108.349608
 30
0.0
  0
SPLINE
  5
2f3
100
AcDbEntity
  8
0
 62
7
100
AcDbSpline
 70
8
 71
3
 72
8
 73
4
 74
0
 40
0
 40
0
 40
0
 40
0
 40
1
 40
1
 40
1
 40
1
 10
20.149147
 20
108.349608
 30
0.0
 10
19.073221
 20
110.360288
 30
0.0
 10
17.489999
 20
111.411660
 30
0.0
 10
12.810940
 20
113.222701
 30
0.0
  0
SPLINE
  5
2f4
100
AcDbEntity
  8
0
 62
7
100
AcDbSpline
 70
8
 71
3
 72
8
 73
4
 74
0
 40
0
 40
0
 40
0
 40
0
 40
1
 40
1
 40
1
 40
1
 10
12.810940
 20
113.222701
 30
0.0
 10
10.701282
 20
114.039250
 30
0.0
 10
7.640752
 20
115.890577
 30
0.0
 10
6.721726
 20
116.906088
 30
0.0
  0
SPLINE
  5
2f5
100
AcDbEntity
  8
0
 62
7
100
AcDbSpline
 70
8
 71
3
 72
8
 73
4
 74
0
 40
0
 40
0
 40
0
 40
0
 40
1
 40
1
 40
1
 40
1
 10
6.721726
 20
116.906088
 30
0.0
 10
6.449663
 20
117.206715
 30
0.0
 10
6.126456
 20
117.452682
 30
0.0
 10
6.003489
 20
117.452682
 30
0.0
  0
SPLINE
  5
2f6
100
AcDbEntity
  8
0
 62
7
100
AcDbSpline
 70
8
 71
3
 72
8
 73
4
 74
0
 40
0
 40
0
 40
0
 40
0
 40
1
 40
1
 40
1
 40
1
 10
6.003489
 20
117.452682
 30
0.0
 10
5.880522
 20
117.452682
 30
0.0
 10
5.779913
 20
115.379780
 30
0.0
 10
5.779913
 20
112.846234
 30
0.0
  0
LWPOLYLINE
  5
2f7
100
AcDbEntity
  8
0
 62
7
100
AcDbPolyline
 90
1
 70
1
 10
142.238767
 20
102.159266
 30
0.0
  0
SPLINE
  5
2f8
100
AcDbEntity
  8
0
 62
7
100
AcDbSpline
 70
8
 71
3
 72
8
 73
4
 74
0
 40
0
 40
0
 40
0
 40
0
 40
1
 40
1
 40
1
 40
1
 10
6.808130
 20
106.959254
 30
0.0
 10
8.957162
 20
104.282875
 30
0.0
 10
13.066519
 20
100.811171
 30
0.0
 10
15.434146
 20
99.671751
 30
0.0
  0
SPLINE
  5
2f9
100
AcDbEntity
  8
0
 62
7
100
AcDbSpline
 70
8
 71
3
 72
8
 73
4
 74
0
 40
0
 40
0
 40
0
 40
0
 40
1
 40
1
 40
1
 40
1
 10
15.434146
 20
99.671751
 30
0.0
 10
17.087735
 20
98.875958
 30
0.0
 10
18.364589
 20
98.816345
 30
0.0
 10
19.184318
 20
99.496658
 30
0.0
  0
LWPOLYLINE
  5
2fa
100
AcDbEntity
  8
0
 62
7
100
AcDbPolyline
 90
3
 70
0
 10
5.779913
 20
112.846234
 30
0.0
 10
5.779913
 20
108.239785
 30
0.0
 10
6.808130
 20
106.959254
 30
0.0
  0
SPLINE
  5
2fb
100
AcDbEntity
  8
0
 62
7
100
AcDbSpline
 70
8
 71
3
 72
8
 73
4
 74
0
 40
0
 40
0
 40
0
 40
0
 40
1
 40
1
 40
1
 40
1
 10
105.917987
 20
104.025078
 30
0.0
 10
105.395556
 20
107.191593
 30
0.0
 10
103.569050
 20
111.298971
 30
0.0
 10
101.956465
 20
112.933596
 30
0.0
  0
SPLINE
  5
2fc
100
AcDbEntity
  8
0
 62
7
100
AcDbSpline
 70
8
 71
3
 72
8
 73
4
 74
0
 40
0
 40
0
 40
0
 40
0
 40
1
 40
1
 40
1
 40
1
 10
101.956465
 20
112.933596
 30
0.0
 10
101.431452
 20
113.465785
 30
0.0
 10
101.256534
 20
113.517220
 30
0.0
 10
100.920402
 20
113.238254
 30
0.0
  0
SPLINE
  5
2fd
100
AcDbEntity
  8
0
 62
7
100
AcDbSpline
 70
8
 71
3
 72
8
 73
4
 74
0
 40
0
 40
0
 40
0
 40
0
 40
1
 40
1
 40
1
 40
1
 10
100.920402
 20
113.238254
 30
0.0
 10
100.351090
 20
112.765769
 30
0.0
 10
98.913246
 20
109.812164
 30
0.0
 10
98.913246
 20
109.115175
 30
0.0
  0
SPLINE
  5
2fe
100
AcDbEntity
  8
0
 62
7
100
AcDbSpline
 70
8
 71
3
 72
8
 73
4
 74
0
 40
0
 40
0
 40
0
 40
0
 40
1
 40
1
 40
1
 40
1
 10
98.913246
 20
109.115175
 30
0.0
 10
98.913246
 20
108.127639
 30
0.0
 10
100.035966
 20
106.785630
 30
0.0
 10
101.827417
 20
105.631813
 30
0.0
  0
SPLINE
  5
2ff
100
AcDbEntity
  8
0
 62
7
100
AcDbSpline
 70
8
 71
3
 72
8
 73
4
 74
0
 40
0
 40
0
 40
0
 40
0
 40
1
 40
1
 40
1
 40
1
 10
101.827417
 20
105.631813
 30
0.0
 10
102.771239
 20
105.023928
 30
0.0
 10
104.019705
 20
104.167572
 30
0.0
 10
104.601788
 20
103.728800
 30
0.0
  0
SPLINE
  5
300
100
AcDbEntity
  8
0
 62
7
100
AcDbSpline
 70
8
 71
3
 72
8
 73
4
 74
0
 40
0
 40
0
 40
0
 40
0
 40
1
 40
1
 40
1
 40
1
 10
104.601788
 20
103.728800
 30
0.0
 10
105.183871
 20
103.290029
 30
0.0
 10
105.759882
 20
102.924187
 30
0.0
 10
105.881816
 20
102.915818
 30
0.0
  0
SPLINE
  5
301
100
AcDbEntity
  8
0
 62
7
100
AcDbSpline
 70
8
 71
3
 72
8
 73
4
 74
0
 40
0
 40
0
 40
0
 40
0
 40
1
 40
1
 40
1
 40
1
 10
105.881816
 20
102.915818
 30
0.0
 10
106.003746
 20
102.907457
 30
0.0
 10
106.020023
 20
103.406615
 30
0.0
 10
105.917987
 20
104.025078
 30
0.0
  0
LWPOLYLINE
  5
302
100
AcDbEntity
  8
0
 62
7
100
AcDbPolyline
 90
1
 70
1
 10
19.184318
 20
99.496658
 30
0.0
  0
SPLINE
  5
303
100
AcDbEntity
  8
0
 62
7
100
AcDbSpline
 70
8
 71
3
 72
8
 73
4
 74
0
 40
0
 40
0
 40
0
 40
0
 40
1
 40
1
 40
1
 40
1
 10
134.608686
 20
105.399065
 30
0.0
 10
136.623711
 20
110.239368
 30
0.0
 10
137.136034
 20
115.529013
 30
0.0
 10
135.989864
 20
119.659474
 30
0.0
  0
SPLINE
  5
304
100
AcDbEntity
  8
0
 62
7
100
AcDbSpline
 70
8
 71
3
 72
8
 73
4
 74
0
 40
0
 40
0
 40
0
 40
0
 40
1
 40
1
 40
1
 40
1
 10
135.989864
 20
119.659474
 30
0.0
 10
135.394303
 20
121.805708
 30
0.0
 10
133.922161
 20
125.041607
 30
0.0
 10
133.019443
 20
126.188732
 30
0.0
  0
LWPOLYLINE
  5
305
100
AcDbEntity
  8
0
 62
7
100
AcDbPolyline
 90
1
 70
1
 10
105.917987
 20
104.025078
 30
0.0
  0
SPLINE
  5
306
100
AcDbEntity
  8
0
 62
7
100
AcDbSpline
 70
8
 71
3
 72
8
 73
4
 74
0
 40
0
 40
0
 40
0
 40
0
 40
1
 40
1
 40
1
 40
1
 10
130.701870
 20
124.950321
 30
0.0
 10
124.716344
 20
118.651533
 30
0.0
 10
125.151917
 20
111.707271
 30
0.0
 10
131.964594
 20
104.818828
 30
0.0
  0
SPLINE
  5
307
100
AcDbEntity
  8
0
 62
7
100
AcDbSpline
 70
8
 71
3
 72
8
 73
4
 74
0
 40
0
 40
0
 40
0
 40
0
 40
1
 40
1
 40
1
 40
1
 10
131.964594
 20
104.818828
 30
0.0
 10
132.720175
 20
104.054844
 30
0.0
 10
133.439739
 20
103.429766
 30
0.0
 10
133.563622
 20
103.429766
 30
0.0
  0
SPLINE
  5
308
100
AcDbEntity
  8
0
 62
7
100
AcDbSpline
 70
8
 71
3
 72
8
 73
4
 74
0
 40
0
 40
0
 40
0
 40
0
 40
1
 40
1
 40
1
 40
1
 10
133.563622
 20
103.429766
 30
0.0
 10
133.687505
 20
103.429766
 30
0.0
 10
134.157786
 20
104.315951
 30
0.0
 10
134.608686
 20
105.399065
 30
0.0
  0
LWPOLYLINE
  5
309
100
AcDbEntity
  8
0
 62
7
100
AcDbPolyline
 90
3
 70
0
 10
133.019443
 20
126.188732
 30
0.0
 10
132.502690
 20
126.845391
 30
0.0
 10
130.701870
 20
124.950321
 30
0.0
  0
SPLINE
  5
30a
100
AcDbEntity
  8
0
 62
7
100
AcDbSpline
 70
8
 71
3
 72
8
 73
4
 74
0
 40
0
 40
0
 40
0
 40
0
 40
1
 40
1
 40
1
 40
1
 10
94.491664
 20
112.142767
 30
0.0
 10
96.530200
 20
114.565427
 30
0.0
 10
96.963727
 20
117.730783
 30
0.0
 10
95.617525
 20
120.363099
 30
0.0
  0
SPLINE
  5
30b
100
AcDbEntity
  8
0
 62
7
100
AcDbSpline
 70
8
 71
3
 72
8
 73
4
 74
0
 40
0
 40
0
 40
0
 40
0
 40
1
 40
1
 40
1
 40
1
 10
95.617525
 20
120.363099
 30
0.0
 10
93.490357
 20
124.522481
 30
0.0
 10
89.821012
 20
128.565182
 30
0.0
 10
88.172928
 20
128.565182
 30
0.0
  0
SPLINE
  5
30c
100
AcDbEntity
  8
0
 62
7
100
AcDbSpline
 70
8
 71
3
 72
8
 73
4
 74
0
 40
0
 40
0
 40
0
 40
0
 40
1
 40
1
 40
1
 40
1
 10
88.172928
 20
128.565182
 30
0.0
 10
87.839209
 20
128.565182
 30
0.0
 10
87.380823
 20
128.300565
 30
0.0
 10
87.154290
 20
127.977143
 30
0.0
  0
SPLINE
  5
30d
100
AcDbEntity
  8
0
 62
7
100
AcDbSpline
 70
8
 71
3
 72
8
 73
4
 74
0
 40
0
 40
0
 40
0
 40
0
 40
1
 40
1
 40
1
 40
1
 10
87.154290
 20
127.977143
 30
0.0
 10
85.680569
 20
125.873110
 30
0.0
 10
88.656814
 20
116.687584
 30
0.0
 10
92.043194
 20
112.888620
 30
0.0
  0
SPLINE
  5
30e
100
AcDbEntity
  8
0
 62
7
100
AcDbSpline
 70
8
 71
3
 72
8
 73
4
 74
0
 40
0
 40
0
 40
0
 40
0
 40
1
 40
1
 40
1
 40
1
 10
92.043194
 20
112.888620
 30
0.0
 10
92.789065
 20
112.051875
 30
0.0
 10
93.498278
 20
111.367266
 30
0.0
 10
93.619222
 20
111.367266
 30
0.0
  0
SPLINE
  5
30f
100
AcDbEntity
  8
0
 62
7
100
AcDbSpline
 70
8
 71
3
 72
8
 73
4
 74
0
 40
0
 40
0
 40
0
 40
0
 40
1
 40
1
 40
1
 40
1
 10
93.619222
 20
111.367266
 30
0.0
 10
93.740168
 20
111.367266
 30
0.0
 10
94.132768
 20
111.716241
 30
0.0
 10
94.491664
 20
112.142767
 30
0.0
  0
LWPOLYLINE
  5
310
100
AcDbEntity
  8
0
 62
7
100
AcDbPolyline
 90
1
 70
1
 10
134.608686
 20
105.399065
 30
0.0
  0
SPLINE
  5
311
100
AcDbEntity
  8
0
 62
7
100
AcDbSpline
 70
8
 71
3
 72
8
 73
4
 74
0
 40
0
 40
0
 40
0
 40
0
 40
1
 40
1
 40
1
 40
1
 10
86.470196
 20
112.331468
 30
0.0
 10
87.258319
 20
112.489094
 30
0.0
 10
87.310473
 20
112.563767
 30
0.0
 10
87.163188
 20
113.323656
 30
0.0
  0
SPLINE
  5
312
100
AcDbEntity
  8
0
 62
7
100
AcDbSpline
 70
8
 71
3
 72
8
 73
4
 74
0
 40
0
 40
0
 40
0
 40
0
 40
1
 40
1
 40
1
 40
1
 10
87.163188
 20
113.323656
 30
0.0
 10
86.182470
 20
118.383436
 30
0.0
 10
82.864804
 20
121.557370
 30
0.0
 10
77.947890
 20
122.139705
 30
0.0
  0
LWPOLYLINE
  5
313
100
AcDbEntity
  8
0
 62
7
100
AcDbPolyline
 90
1
 70
1
 10
94.491664
 20
112.142767
 30
0.0
  0
SPLINE
  5
314
100
AcDbEntity
  8
0
 62
7
100
AcDbSpline
 70
8
 71
3
 72
8
 73
4
 74
0
 40
0
 40
0
 40
0
 40
0
 40
1
 40
1
 40
1
 40
1
 10
76.688246
 20
120.455542
 30
0.0
 10
76.688246
 20
118.279341
 30
0.0
 10
77.282879
 20
115.796989
 30
0.0
 10
78.085516
 20
114.622511
 30
0.0
  0
SPLINE
  5
315
100
AcDbEntity
  8
0
 62
7
100
AcDbSpline
 70
8
 71
3
 72
8
 73
4
 74
0
 40
0
 40
0
 40
0
 40
0
 40
1
 40
1
 40
1
 40
1
 10
78.085516
 20
114.622511
 30
0.0
 10
78.403426
 20
114.157321
 30
0.0
 10
79.104429
 20
113.528917
 30
0.0
 10
79.643303
 20
113.226051
 30
0.0
  0
SPLINE
  5
316
100
AcDbEntity
  8
0
 62
7
100
AcDbSpline
 70
8
 71
3
 72
8
 73
4
 74
0
 40
0
 40
0
 40
0
 40
0
 40
1
 40
1
 40
1
 40
1
 10
79.643303
 20
113.226051
 30
0.0
 10
81.063153
 20
112.428049
 30
0.0
 10
84.621629
 20
111.961755
 30
0.0
 10
86.470196
 20
112.331468
 30
0.0
  0
LWPOLYLINE
  5
317
100
AcDbEntity
  8
0
 62
7
100
AcDbPolyline
 90
3
 70
0
 10
77.947890
 20
122.139705
 30
0.0
 10
76.688246
 20
122.288890
 30
0.0
 10
76.688246
 20
120.455542
 30
0.0
  0
SPLINE
  5
318
100
AcDbEntity
  8
0
 62
7
100
AcDbSpline
 70
8
 71
3
 72
8
 73
4
 74
0
 40
0
 40
0
 40
0
 40
0
 40
1
 40
1
 40
1
 40
1
 10
54.010094
 20
114.106391
 30
0.0
 10
54.623131
 20
114.739788
 30
0.0
 10
55.637012
 20
116.224238
 30
0.0
 10
56.263164
 20
117.405171
 30
0.0
  0
LWPOLYLINE
  5
319
100
AcDbEntity
  8
0
 62
7
100
AcDbPolyline
 90
1
 70
1
 10
86.470196
 20
112.331468
 30
0.0
  0
SPLINE
  5
31a
100
AcDbEntity
  8
0
 62
7
100
AcDbSpline
 70
8
 71
3
 72
8
 73
4
 74
0
 40
0
 40
0
 40
0
 40
0
 40
1
 40
1
 40
1
 40
1
 10
55.994374
 20
121.214483
 30
0.0
 10
54.494520
 20
122.986022
 30
0.0
 10
52.345693
 20
126.107298
 30
0.0
 10
51.799040
 20
127.308412
 30
0.0
  0
SPLINE
  5
31b
100
AcDbEntity
  8
0
 62
7
100
AcDbSpline
 70
8
 71
3
 72
8
 73
4
 74
0
 40
0
 40
0
 40
0
 40
0
 40
1
 40
1
 40
1
 40
1
 10
51.799040
 20
127.308412
 30
0.0
 10
51.616906
 20
127.708594
 30
0.0
 10
51.323571
 20
128.036016
 30
0.0
 10
51.147181
 20
128.036016
 30
0.0
  0
SPLINE
  5
31c
100
AcDbEntity
  8
0
 62
7
100
AcDbSpline
 70
8
 71
3
 72
8
 73
4
 74
0
 40
0
 40
0
 40
0
 40
0
 40
1
 40
1
 40
1
 40
1
 10
51.147181
 20
128.036016
 30
0.0
 10
50.970794
 20
128.036016
 30
0.0
 10
50.342557
 20
127.511027
 30
0.0
 10
49.751099
 20
126.869373
 30
0.0
  0
SPLINE
  5
31d
100
AcDbEntity
  8
0
 62
7
100
AcDbSpline
 70
8
 71
3
 72
8
 73
4
 74
0
 40
0
 40
0
 40
0
 40
0
 40
1
 40
1
 40
1
 40
1
 10
49.751099
 20
126.869373
 30
0.0
 10
48.329326
 20
125.326931
 30
0.0
 10
47.940431
 20
123.924973
 30
0.0
 10
48.360383
 20
121.855878
 30
0.0
  0
SPLINE
  5
31e
100
AcDbEntity
  8
0
 62
7
100
AcDbSpline
 70
8
 71
3
 72
8
 73
4
 74
0
 40
0
 40
0
 40
0
 40
0
 40
1
 40
1
 40
1
 40
1
 10
48.360383
 20
121.855878
 30
0.0
 10
48.658433
 20
120.387383
 30
0.0
 10
51.268334
 20
114.013239
 30
0.0
 10
51.866834
 20
113.292091
 30
0.0
  0
SPLINE
  5
31f
100
AcDbEntity
  8
0
 62
7
100
AcDbSpline
 70
8
 71
3
 72
8
 73
4
 74
0
 40
0
 40
0
 40
0
 40
0
 40
1
 40
1
 40
1
 40
1
 10
51.866834
 20
113.292091
 30
0.0
 10
52.343590
 20
112.717636
 30
0.0
 10
52.853474
 20
112.911358
 30
0.0
 10
54.010094
 20
114.106391
 30
0.0
  0
LWPOLYLINE
  5
320
100
AcDbEntity
  8
0
 62
7
100
AcDbPolyline
 90
3
 70
0
 10
56.263164
 20
117.405171
 30
0.0
 10
57.401621
 20
119.552326
 30
0.0
 10
55.994374
 20
121.214483
 30
0.0
  0
SPLINE
  5
321
100
AcDbEntity
  8
0
 62
7
100
AcDbSpline
 70
8
 71
3
 72
8
 73
4
 74
0
 40
0
 40
0
 40
0
 40
0
 40
1
 40
1
 40
1
 40
1
 10
143.892413
 20
121.701631
 30
0.0
 10
143.892413
 20
125.639282
 30
0.0
 10
143.796538
 20
128.801741
 30
0.0
 10
143.679357
 20
128.729319
 30
0.0
  0
SPLINE
  5
322
100
AcDbEntity
  8
0
 62
7
100
AcDbSpline
 70
8
 71
3
 72
8
 73
4
 74
0
 40
0
 40
0
 40
0
 40
0
 40
1
 40
1
 40
1
 40
1
 10
143.679357
 20
128.729319
 30
0.0
 10
143.355163
 20
128.528956
 30
0.0
 10
141.344245
 20
124.374016
 30
0.0
 10
140.846762
 20
122.876641
 30
0.0
  0
SPLINE
  5
323
100
AcDbEntity
  8
0
 62
7
100
AcDbSpline
 70
8
 71
3
 72
8
 73
4
 74
0
 40
0
 40
0
 40
0
 40
0
 40
1
 40
1
 40
1
 40
1
 10
140.846762
 20
122.876641
 30
0.0
 10
139.572860
 20
119.042307
 30
0.0
 10
140.283240
 20
116.396415
 30
0.0
 10
142.966371
 20
114.981905
 30
0.0
  0
SPLINE
  5
324
100
AcDbEntity
  8
0
 62
7
100
AcDbSpline
 70
8
 71
3
 72
8
 73
4
 74
0
 40
0
 40
0
 40
0
 40
0
 40
1
 40
1
 40
1
 40
1
 10
142.966371
 20
114.981905
 30
0.0
 10
143.402934
 20
114.751758
 30
0.0
 10
143.789887
 20
114.558686
 30
0.0
 10
143.826267
 20
114.552860
 30
0.0
  0
SPLINE
  5
325
100
AcDbEntity
  8
0
 62
7
100
AcDbSpline
 70
8
 71
3
 72
8
 73
4
 74
0
 40
0
 40
0
 40
0
 40
0
 40
1
 40
1
 40
1
 40
1
 10
143.826267
 20
114.552860
 30
0.0
 10
143.862647
 20
114.547039
 30
0.0
 10
143.892413
 20
117.763981
 30
0.0
 10
143.892413
 20
121.701631
 30
0.0
  0
LWPOLYLINE
  5
326
100
AcDbEntity
  8
0
 62
7
100
AcDbPolyline
 90
1
 70
1
 10
54.010094
 20
114.106391
 30
0.0
  0
SPLINE
  5
327
100
AcDbEntity
  8
0
 62
7
100
AcDbSpline
 70
8
 71
3
 72
8
 73
4
 74
0
 40
0
 40
0
 40
0
 40
0
 40
1
 40
1
 40
1
 40
1
 10
32.609383
 20
115.496642
 30
0.0
 10
33.234535
 20
117.125763
 30
0.0
 10
29.334108
 20
123.418616
 30
0.0
 10
24.911243
 20
127.916628
 30
0.0
  0
SPLINE
  5
328
100
AcDbEntity
  8
0
 62
7
100
AcDbSpline
 70
8
 71
3
 72
8
 73
4
 74
0
 40
0
 40
0
 40
0
 40
0
 40
1
 40
1
 40
1
 40
1
 10
24.911243
 20
127.916628
 30
0.0
 10
19.637649
 20
133.279825
 30
0.0
 10
13.503493
 20
137.106152
 30
0.0
 10
7.789868
 20
138.596500
 30
0.0
  0
LWPOLYLINE
  5
329
100
AcDbEntity
  8
0
 62
7
100
AcDbPolyline
 90
1
 70
1
 10
143.892413
 20
121.701631
 30
0.0
  0
SPLINE
  5
32a
100
AcDbEntity
  8
0
 62
7
100
AcDbSpline
 70
8
 71
3
 72
8
 73
4
 74
0
 40
0
 40
0
 40
0
 40
0
 40
1
 40
1
 40
1
 40
1
 10
5.828060
 20
138.307090
 30
0.0
 10
5.732220
 20
137.419604
 30
0.0
 10
6.305131
 20
136.686062
 30
0.0
 10
11.362788
 20
131.220565
 30
0.0
  0
SPLINE
  5
32b
100
AcDbEntity
  8
0
 62
7
100
AcDbSpline
 70
8
 71
3
 72
8
 73
4
 74
0
 40
0
 40
0
 40
0
 40
0
 40
1
 40
1
 40
1
 40
1
 10
11.362788
 20
131.220565
 30
0.0
 10
17.415026
 20
124.680281
 30
0.0
 10
24.547160
 20
118.645286
 30
0.0
 10
29.724705
 20
115.683268
 30
0.0
  0
SPLINE
  5
32c
100
AcDbEntity
  8
0
 62
7
100
AcDbSpline
 70
8
 71
3
 72
8
 73
4
 74
0
 40
0
 40
0
 40
0
 40
0
 40
1
 40
1
 40
1
 40
1
 10
29.724705
 20
115.683268
 30
0.0
 10
30.974800
 20
114.968102
 30
0.0
 10
32.371879
 20
114.877718
 30
0.0
 10
32.609383
 20
115.496642
 30
0.0
  0
LWPOLYLINE
  5
32d
100
AcDbEntity
  8
0
 62
7
100
AcDbPolyline
 90
3
 70
0
 10
7.789868
 20
138.596500
 30
0.0
 10
5.912204
 20
139.086272
 30
0.0
 10
5.828060
 20
138.307090
 30
0.0
  0
SPLINE
  5
32e
100
AcDbEntity
  8
0
 62
7
100
AcDbSpline
 70
8
 71
3
 72
8
 73
4
 74
0
 40
0
 40
0
 40
0
 40
0
 40
1
 40
1
 40
1
 40
1
 10
73.814017
 20
119.125320
 30
0.0
 10
73.253484
 20
121.869163
 30
0.0
 10
72.431235
 20
123.909381
 30
0.0
 10
71.094915
 20
125.872124
 30
0.0
  0
SPLINE
  5
32f
100
AcDbEntity
  8
0
 62
7
100
AcDbSpline
 70
8
 71
3
 72
8
 73
4
 74
0
 40
0
 40
0
 40
0
 40
0
 40
1
 40
1
 40
1
 40
1
 10
71.094915
 20
125.872124
 30
0.0
 10
70.631386
 20
126.552941
 30
0.0
 10
69.752276
 20
128.040014
 30
0.0
 10
69.141340
 20
129.176727
 30
0.0
  0
LWPOLYLINE
  5
330
100
AcDbEntity
  8
0
 62
7
100
AcDbPolyline
 90
1
 70
1
 10
32.609383
 20
115.496642
 30
0.0
  0
SPLINE
  5
331
100
AcDbEntity
  8
0
 62
7
100
AcDbSpline
 70
8
 71
3
 72
8
 73
4
 74
0
 40
0
 40
0
 40
0
 40
0
 40
1
 40
1
 40
1
 40
1
 10
66.938215
 20
130.002529
 30
0.0
 10
64.369389
 20
127.084188
 30
0.0
 10
63.679358
 20
123.823997
 30
0.0
 10
65.112807
 20
121.378004
 30
0.0
  0
SPLINE
  5
332
100
AcDbEntity
  8
0
 62
7
100
AcDbSpline
 70
8
 71
3
 72
8
 73
4
 74
0
 40
0
 40
0
 40
0
 40
0
 40
1
 40
1
 40
1
 40
1
 10
65.112807
 20
121.378004
 30
0.0
 10
66.451951
 20
119.092924
 30
0.0
 10
69.085492
 20
117.139916
 30
0.0
 10
72.390537
 20
115.980903
 30
0.0
  0
LWPOLYLINE
  5
333
100
AcDbEntity
  8
0
 62
7
100
AcDbPolyline
 90
3
 70
0
 10
69.141340
 20
129.176727
 30
0.0
 10
68.030542
 20
131.243477
 30
0.0
 10
66.938215
 20
130.002529
 30
0.0
  0
SPLINE
  5
334
100
AcDbEntity
  8
0
 62
7
100
AcDbSpline
 70
8
 71
3
 72
8
 73
4
 74
0
 40
0
 40
0
 40
0
 40
0
 40
1
 40
1
 40
1
 40
1
 10
74.254529
 20
115.966722
 30
0.0
 10
74.298434
 20
116.303041
 30
0.0
 10
74.100203
 20
117.724409
 30
0.0
 10
73.814017
 20
119.125320
 30
0.0
  0
LWPOLYLINE
  5
335
100
AcDbEntity
  8
0
 62
7
100
AcDbPolyline
 90
3
 70
0
 10
72.390537
 20
115.980903
 30
0.0
 10
74.174705
 20
115.355235
 30
0.0
 10
74.254529
 20
115.966722
 30
0.0
  0
SPLINE
  5
336
100
AcDbEntity
  8
0
 62
7
100
AcDbSpline
 70
8
 71
3
 72
8
 73
4
 74
0
 40
0
 40
0
 40
0
 40
0
 40
1
 40
1
 40
1
 40
1
 10
20.199704
 20
116.358228
 30
0.0
 10
22.291246
 20
117.309651
 30
0.0
 10
22.261137
 20
117.391836
 30
0.0
 10
18.816769
 20
120.132851
 30
0.0
  0
SPLINE
  5
337
100
AcDbEntity
  8
0
 62
7
100
AcDbSpline
 70
8
 71
3
 72
8
 73
4
 74
0
 40
0
 40
0
 40
0
 40
0
 40
1
 40
1
 40
1
 40
1
 10
18.816769
 20
120.132851
 30
0.0
 10
17.103529
 20
121.496241
 30
0.0
 10
13.931693
 20
124.159626
 30
0.0
 10
11.768243
 20
126.051485
 30
0.0
  0
SPLINE
  5
338
100
AcDbEntity
  8
0
 62
7
100
AcDbSpline
 70
8
 71
3
 72
8
 73
4
 74
0
 40
0
 40
0
 40
0
 40
0
 40
1
 40
1
 40
1
 40
1
 10
11.768243
 20
126.051485
 30
0.0
 10
9.604794
 20
127.943340
 30
0.0
 10
7.372372
 20
129.888051
 30
0.0
 10
6.807306
 20
130.373064
 30
0.0
  0
LWPOLYLINE
  5
339
100
AcDbEntity
  8
0
 62
7
100
AcDbPolyline
 90
1
 70
1
 10
73.814017
 20
119.125320
 30
0.0
  0
SPLINE
  5
33a
100
AcDbEntity
  8
0
 62
7
100
AcDbSpline
 70
8
 71
3
 72
8
 73
4
 74
0
 40
0
 40
0
 40
0
 40
0
 40
1
 40
1
 40
1
 40
1
 10
7.698142
 20
121.847033
 30
0.0
 10
8.753168
 20
120.777241
 30
0.0
 10
10.687933
 20
119.204079
 30
0.0
 10
11.997621
 20
118.351117
 30
0.0
  0
SPLINE
  5
33b
100
AcDbEntity
  8
0
 62
7
100
AcDbSpline
 70
8
 71
3
 72
8
 73
4
 74
0
 40
0
 40
0
 40
0
 40
0
 40
1
 40
1
 40
1
 40
1
 10
11.997621
 20
118.351117
 30
0.0
 10
15.744245
 20
115.911051
 30
0.0
 10
18.007676
 20
115.361098
 30
0.0
 10
20.199704
 20
116.358228
 30
0.0
  0
LWPOLYLINE
  5
33c
100
AcDbEntity
  8
0
 62
7
100
AcDbPolyline
 90
5
 70
0
 10
6.807306
 20
130.373064
 30
0.0
 10
5.779913
 20
131.254902
 30
0.0
 10
5.779913
 20
127.523507
 30
0.0
 10
5.779913
 20
123.792110
 30
0.0
 10
7.698142
 20
121.847033
 30
0.0
  0
SPLINE
  5
33d
100
AcDbEntity
  8
0
 62
7
100
AcDbSpline
 70
8
 71
3
 72
8
 73
4
 74
0
 40
0
 40
0
 40
0
 40
0
 40
1
 40
1
 40
1
 40
1
 10
111.216694
 20
117.042009
 30
0.0
 10
112.918552
 20
118.039364
 30
0.0
 10
116.541886
 20
121.565464
 30
0.0
 10
118.003413
 20
123.646599
 30
0.0
  0
SPLINE
  5
33e
100
AcDbEntity
  8
0
 62
7
100
AcDbSpline
 70
8
 71
3
 72
8
 73
4
 74
0
 40
0
 40
0
 40
0
 40
0
 40
1
 40
1
 40
1
 40
1
 10
118.003413
 20
123.646599
 30
0.0
 10
118.712874
 20
124.656839
 30
0.0
 10
119.470323
 20
126.079348
 30
0.0
 10
119.686628
 20
126.807730
 30
0.0
  0
SPLINE
  5
33f
100
AcDbEntity
  8
0
 62
7
100
AcDbSpline
 70
8
 71
3
 72
8
 73
4
 74
0
 40
0
 40
0
 40
0
 40
0
 40
1
 40
1
 40
1
 40
1
 10
119.686628
 20
126.807730
 30
0.0
 10
120.678760
 20
130.148597
 30
0.0
 10
119.637651
 20
136.642562
 30
0.0
 10
117.818223
 20
138.461991
 30
0.0
  0
SPLINE
  5
340
100
AcDbEntity
  8
0
 62
7
100
AcDbSpline
 70
8
 71
3
 72
8
 73
4
 74
0
 40
0
 40
0
 40
0
 40
0
 40
1
 40
1
 40
1
 40
1
 10
117.818223
 20
138.461991
 30
0.0
 10
117.220267
 20
139.059946
 30
0.0
 10
116.292339
 20
138.984765
 30
0.0
 10
115.678342
 20
138.288620
 30
0.0
  0
SPLINE
  5
341
100
AcDbEntity
  8
0
 62
7
100
AcDbSpline
 70
8
 71
3
 72
8
 73
4
 74
0
 40
0
 40
0
 40
0
 40
0
 40
1
 40
1
 40
1
 40
1
 10
115.678342
 20
138.288620
 30
0.0
 10
115.389559
 20
137.961198
 30
0.0
 10
114.412101
 20
136.184090
 30
0.0
 10
113.506216
 20
134.339491
 30
0.0
  0
SPLINE
  5
342
100
AcDbEntity
  8
0
 62
7
100
AcDbSpline
 70
8
 71
3
 72
8
 73
4
 74
0
 40
0
 40
0
 40
0
 40
0
 40
1
 40
1
 40
1
 40
1
 10
113.506216
 20
134.339491
 30
0.0
 10
111.498250
 20
130.250803
 30
0.0
 10
110.075117
 20
128.671275
 30
0.0
 10
106.920546
 20
127.030086
 30
0.0
  0
SPLINE
  5
343
100
AcDbEntity
  8
0
 62
7
100
AcDbSpline
 70
8
 71
3
 72
8
 73
4
 74
0
 40
0
 40
0
 40
0
 40
0
 40
1
 40
1
 40
1
 40
1
 10
106.920546
 20
127.030086
 30
0.0
 10
104.266442
 20
125.649268
 30
0.0
 10
103.411163
 20
124.708264
 30
0.0
 10
103.411163
 20
123.168947
 30
0.0
  0
SPLINE
  5
344
100
AcDbEntity
  8
0
 62
7
100
AcDbSpline
 70
8
 71
3
 72
8
 73
4
 74
0
 40
0
 40
0
 40
0
 40
0
 40
1
 40
1
 40
1
 40
1
 10
103.411163
 20
123.168947
 30
0.0
 10
103.411163
 20
120.655170
 30
0.0
 10
104.992644
 20
117.395704
 30
0.0
 10
106.613650
 20
116.568548
 30
0.0
  0
SPLINE
  5
345
100
AcDbEntity
  8
0
 62
7
100
AcDbSpline
 70
8
 71
3
 72
8
 73
4
 74
0
 40
0
 40
0
 40
0
 40
0
 40
1
 40
1
 40
1
 40
1
 10
106.613650
 20
116.568548
 30
0.0
 10
107.799135
 20
115.963629
 30
0.0
 10
109.712379
 20
116.160420
 30
0.0
 10
111.216694
 20
117.042009
 30
0.0
  0
LWPOLYLINE
  5
346
100
AcDbEntity
  8
0
 62
7
100
AcDbPolyline
 90
1
 70
1
 10
20.199704
 20
116.358228
 30
0.0
  0
SPLINE
  5
347
100
AcDbEntity
  8
0
 62
7
100
AcDbSpline
 70
8
 71
3
 72
8
 73
4
 74
0
 40
0
 40
0
 40
0
 40
0
 40
1
 40
1
 40
1
 40
1
 10
35.378385
 20
121.312331
 30
0.0
 10
36.778351
 20
122.902776
 30
0.0
 10
37.529913
 20
124.499084
 30
0.0
 10
37.529913
 20
125.882146
 30
0.0
  0
SPLINE
  5
348
100
AcDbEntity
  8
0
 62
7
100
AcDbSpline
 70
8
 71
3
 72
8
 73
4
 74
0
 40
0
 40
0
 40
0
 40
0
 40
1
 40
1
 40
1
 40
1
 10
37.529913
 20
125.882146
 30
0.0
 10
37.529913
 20
126.509087
 30
0.0
 10
37.129463
 20
128.071473
 30
0.0
 10
36.618876
 20
129.436633
 30
0.0
  0
SPLINE
  5
349
100
AcDbEntity
  8
0
 62
7
100
AcDbSpline
 70
8
 71
3
 72
8
 73
4
 74
0
 40
0
 40
0
 40
0
 40
0
 40
1
 40
1
 40
1
 40
1
 10
36.618876
 20
129.436633
 30
0.0
 10
35.411368
 20
132.665150
 30
0.0
 10
35.162845
 20
133.844194
 30
0.0
 10
35.155132
 20
136.380948
 30
0.0
  0
SPLINE
  5
34a
100
AcDbEntity
  8
0
 62
7
100
AcDbSpline
 70
8
 71
3
 72
8
 73
4
 74
0
 40
0
 40
0
 40
0
 40
0
 40
1
 40
1
 40
1
 40
1
 10
35.155132
 20
136.380948
 30
0.0
 10
35.139442
 20
141.544805
 30
0.0
 10
32.474903
 20
146.689276
 30
0.0
 10
28.881763
 20
148.493104
 30
0.0
  0
SPLINE
  5
34b
100
AcDbEntity
  8
0
 62
7
100
AcDbSpline
 70
8
 71
3
 72
8
 73
4
 74
0
 40
0
 40
0
 40
0
 40
0
 40
1
 40
1
 40
1
 40
1
 10
28.881763
 20
148.493104
 30
0.0
 10
27.299558
 20
149.287402
 30
0.0
 10
25.321239
 20
149.607233
 30
0.0
 10
24.548467
 20
149.193657
 30
0.0
  0
SPLINE
  5
34c
100
AcDbEntity
  8
0
 62
7
100
AcDbSpline
 70
8
 71
3
 72
8
 73
4
 74
0
 40
0
 40
0
 40
0
 40
0
 40
1
 40
1
 40
1
 40
1
 10
24.548467
 20
149.193657
 30
0.0
 10
24.031461
 20
148.916964
 30
0.0
 10
23.990371
 20
148.714087
 30
0.0
 10
24.075371
 20
146.857828
 30
0.0
  0
SPLINE
  5
34d
100
AcDbEntity
  8
0
 62
7
100
AcDbSpline
 70
8
 71
3
 72
8
 73
4
 74
0
 40
0
 40
0
 40
0
 40
0
 40
1
 40
1
 40
1
 40
1
 10
24.075371
 20
146.857828
 30
0.0
 10
24.165287
 20
144.894157
 30
0.0
 10
24.220453
 20
144.744744
 30
0.0
 10
25.697156
 20
142.465229
 30
0.0
  0
SPLINE
  5
34e
100
AcDbEntity
  8
0
 62
7
100
AcDbSpline
 70
8
 71
3
 72
8
 73
4
 74
0
 40
0
 40
0
 40
0
 40
0
 40
1
 40
1
 40
1
 40
1
 10
25.697156
 20
142.465229
 30
0.0
 10
26.537944
 20
141.167350
 30
0.0
 10
27.416490
 20
139.449699
 30
0.0
 10
27.649482
 20
138.648231
 30
0.0
  0
SPLINE
  5
34f
100
AcDbEntity
  8
0
 62
7
100
AcDbSpline
 70
8
 71
3
 72
8
 73
4
 74
0
 40
0
 40
0
 40
0
 40
0
 40
1
 40
1
 40
1
 40
1
 10
27.649482
 20
138.648231
 30
0.0
 10
28.062867
 20
137.226241
 30
0.0
 10
28.056041
 20
137.131922
 30
0.0
 10
27.367100
 20
134.746696
 30
0.0
  0
SPLINE
  5
350
100
AcDbEntity
  8
0
 62
7
100
AcDbSpline
 70
8
 71
3
 72
8
 73
4
 74
0
 40
0
 40
0
 40
0
 40
0
 40
1
 40
1
 40
1
 40
1
 10
27.367100
 20
134.746696
 30
0.0
 10
26.499733
 20
131.743717
 30
0.0
 10
26.534517
 20
131.630560
 30
0.0
 10
29.541036
 20
127.674494
 30
0.0
  0
SPLINE
  5
351
100
AcDbEntity
  8
0
 62
7
100
AcDbSpline
 70
8
 71
3
 72
8
 73
4
 74
0
 40
0
 40
0
 40
0
 40
0
 40
1
 40
1
 40
1
 40
1
 10
29.541036
 20
127.674494
 30
0.0
 10
31.767862
 20
124.744372
 30
0.0
 10
33.012549
 20
122.717290
 30
0.0
 10
33.583674
 20
121.090703
 30
0.0
  0
SPLINE
  5
352
100
AcDbEntity
  8
0
 62
7
100
AcDbSpline
 70
8
 71
3
 72
8
 73
4
 74
0
 40
0
 40
0
 40
0
 40
0
 40
1
 40
1
 40
1
 40
1
 10
33.583674
 20
121.090703
 30
0.0
 10
33.775280
 20
120.545000
 30
0.0
 10
34.017074
 20
120.098516
 30
0.0
 10
34.120995
 20
120.098516
 30
0.0
  0
SPLINE
  5
353
100
AcDbEntity
  8
0
 62
7
100
AcDbSpline
 70
8
 71
3
 72
8
 73
4
 74
0
 40
0
 40
0
 40
0
 40
0
 40
1
 40
1
 40
1
 40
1
 10
34.120995
 20
120.098516
 30
0.0
 10
34.224915
 20
120.098516
 30
0.0
 10
34.790740
 20
120.644732
 30
0.0
 10
35.378385
 20
121.312331
 30
0.0
  0
LWPOLYLINE
  5
354
100
AcDbEntity
  8
0
 62
7
100
AcDbPolyline
 90
1
 70
1
 10
111.216694
 20
117.042009
 30
0.0
  0
SPLINE
  5
355
100
AcDbEntity
  8
0
 62
7
100
AcDbSpline
 70
8
 71
3
 72
8
 73
4
 74
0
 40
0
 40
0
 40
0
 40
0
 40
1
 40
1
 40
1
 40
1
 10
126.042314
 20
123.868828
 30
0.0
 10
126.598106
 20
124.778333
 30
0.0
 10
127.943139
 20
126.653568
 30
0.0
 10
129.031272
 20
128.036016
 30
0.0
  0
SPLINE
  5
356
100
AcDbEntity
  8
0
 62
7
100
AcDbSpline
 70
8
 71
3
 72
8
 73
4
 74
0
 40
0
 40
0
 40
0
 40
0
 40
1
 40
1
 40
1
 40
1
 10
129.031272
 20
128.036016
 30
0.0
 10
132.387451
 20
132.299953
 30
0.0
 10
133.412592
 20
135.318450
 30
0.0
 10
132.281149
 20
137.605169
 30
0.0
  0
SPLINE
  5
357
100
AcDbEntity
  8
0
 62
7
100
AcDbSpline
 70
8
 71
3
 72
8
 73
4
 74
0
 40
0
 40
0
 40
0
 40
0
 40
1
 40
1
 40
1
 40
1
 10
132.281149
 20
137.605169
 30
0.0
 10
131.969155
 20
138.235727
 30
0.0
 10
131.427612
 20
138.958280
 30
0.0
 10
131.077716
 20
139.210841
 30
0.0
  0
SPLINE
  5
358
100
AcDbEntity
  8
0
 62
7
100
AcDbSpline
 70
8
 71
3
 72
8
 73
4
 74
0
 40
0
 40
0
 40
0
 40
0
 40
1
 40
1
 40
1
 40
1
 10
131.077716
 20
139.210841
 30
0.0
 10
130.446971
 20
139.666123
 30
0.0
 10
130.432622
 20
139.659349
 30
0.0
 10
129.396371
 20
138.417091
 30
0.0
  0
SPLINE
  5
359
100
AcDbEntity
  8
0
 62
7
100
AcDbSpline
 70
8
 71
3
 72
8
 73
4
 74
0
 40
0
 40
0
 40
0
 40
0
 40
1
 40
1
 40
1
 40
1
 10
129.396371
 20
138.417091
 30
0.0
 10
125.624640
 20
133.895536
 30
0.0
 10
123.835639
 20
129.532742
 30
0.0
 10
124.117005
 20
125.542432
 30
0.0
  0
SPLINE
  5
35a
100
AcDbEntity
  8
0
 62
7
100
AcDbSpline
 70
8
 71
3
 72
8
 73
4
 74
0
 40
0
 40
0
 40
0
 40
0
 40
1
 40
1
 40
1
 40
1
 10
124.117005
 20
125.542432
 30
0.0
 10
124.233699
 20
123.887463
 30
0.0
 10
124.642589
 20
122.215182
 30
0.0
 10
124.930548
 20
122.215182
 30
0.0
  0
SPLINE
  5
35b
100
AcDbEntity
  8
0
 62
7
100
AcDbSpline
 70
8
 71
3
 72
8
 73
4
 74
0
 40
0
 40
0
 40
0
 40
0
 40
1
 40
1
 40
1
 40
1
 10
124.930548
 20
122.215182
 30
0.0
 10
124.986227
 20
122.215182
 30
0.0
 10
125.486522
 20
122.959323
 30
0.0
 10
126.042314
 20
123.868828
 30
0.0
  0
LWPOLYLINE
  5
35c
100
AcDbEntity
  8
0
 62
7
100
AcDbPolyline
 90
1
 70
1
 10
35.378385
 20
121.312331
 30
0.0
  0
SPLINE
  5
35d
100
AcDbEntity
  8
0
 62
7
100
AcDbSpline
 70
8
 71
3
 72
8
 73
4
 74
0
 40
0
 40
0
 40
0
 40
0
 40
1
 40
1
 40
1
 40
1
 10
61.678304
 20
125.588620
 30
0.0
 10
61.894646
 20
126.134323
 30
0.0
 10
62.158983
 20
126.997526
 30
0.0
 10
62.265724
 20
127.506849
 30
0.0
  0
SPLINE
  5
35e
100
AcDbEntity
  8
0
 62
7
100
AcDbSpline
 70
8
 71
3
 72
8
 73
4
 74
0
 40
0
 40
0
 40
0
 40
0
 40
1
 40
1
 40
1
 40
1
 10
62.265724
 20
127.506849
 30
0.0
 10
62.540325
 20
128.817140
 30
0.0
 10
64.062549
 20
132.050174
 30
0.0
 10
65.056620
 20
133.434394
 30
0.0
  0
SPLINE
  5
35f
100
AcDbEntity
  8
0
 62
7
100
AcDbSpline
 70
8
 71
3
 72
8
 73
4
 74
0
 40
0
 40
0
 40
0
 40
0
 40
1
 40
1
 40
1
 40
1
 10
65.056620
 20
133.434394
 30
0.0
 10
66.088408
 20
134.871132
 30
0.0
 10
66.345139
 20
137.046134
 30
0.0
 10
65.848249
 20
140.141018
 30
0.0
  0
SPLINE
  5
360
100
AcDbEntity
  8
0
 62
7
100
AcDbSpline
 70
8
 71
3
 72
8
 73
4
 74
0
 40
0
 40
0
 40
0
 40
0
 40
1
 40
1
 40
1
 40
1
 10
65.848249
 20
140.141018
 30
0.0
 10
65.227502
 20
144.007345
 30
0.0
 10
62.294045
 20
151.611677
 30
0.0
 10
61.590941
 20
151.177136
 30
0.0
  0
SPLINE
  5
361
100
AcDbEntity
  8
0
 62
7
100
AcDbSpline
 70
8
 71
3
 72
8
 73
4
 74
0
 40
0
 40
0
 40
0
 40
0
 40
1
 40
1
 40
1
 40
1
 10
61.590941
 20
151.177136
 30
0.0
 10
61.193773
 20
150.931671
 30
0.0
 10
59.120622
 20
146.681804
 30
0.0
 10
58.344821
 20
144.522730
 30
0.0
  0
SPLINE
  5
362
100
AcDbEntity
  8
0
 62
7
100
AcDbSpline
 70
8
 71
3
 72
8
 73
4
 74
0
 40
0
 40
0
 40
0
 40
0
 40
1
 40
1
 40
1
 40
1
 10
58.344821
 20
144.522730
 30
0.0
 10
56.212240
 20
138.587702
 30
0.0
 10
56.450545
 20
132.247201
 30
0.0
 10
58.997567
 20
127.155316
 30
0.0
  0
SPLINE
  5
363
100
AcDbEntity
  8
0
 62
7
100
AcDbSpline
 70
8
 71
3
 72
8
 73
4
 74
0
 40
0
 40
0
 40
0
 40
0
 40
1
 40
1
 40
1
 40
1
 10
58.997567
 20
127.155316
 30
0.0
 10
60.410669
 20
124.330307
 30
0.0
 10
61.034837
 20
123.965525
 30
0.0
 10
61.678304
 20
125.588620
 30
0.0
  0
LWPOLYLINE
  5
364
100
AcDbEntity
  8
0
 62
7
100
AcDbPolyline
 90
1
 70
1
 10
126.042314
 20
123.868828
 30
0.0
  0
SPLINE
  5
365
100
AcDbEntity
  8
0
 62
7
100
AcDbSpline
 70
8
 71
3
 72
8
 73
4
 74
0
 40
0
 40
0
 40
0
 40
0
 40
1
 40
1
 40
1
 40
1
 10
83.437121
 20
124.864254
 30
0.0
 10
83.741652
 20
125.356993
 30
0.0
 10
82.996490
 20
129.203379
 30
0.0
 10
82.189524
 20
131.304112
 30
0.0
  0
SPLINE
  5
366
100
AcDbEntity
  8
0
 62
7
100
AcDbSpline
 70
8
 71
3
 72
8
 73
4
 74
0
 40
0
 40
0
 40
0
 40
0
 40
1
 40
1
 40
1
 40
1
 10
82.189524
 20
131.304112
 30
0.0
 10
79.529329
 20
138.229282
 30
0.0
 10
72.028492
 20
144.660519
 30
0.0
 10
69.528058
 20
142.160085
 30
0.0
  0
SPLINE
  5
367
100
AcDbEntity
  8
0
 62
7
100
AcDbSpline
 70
8
 71
3
 72
8
 73
4
 74
0
 40
0
 40
0
 40
0
 40
0
 40
1
 40
1
 40
1
 40
1
 10
69.528058
 20
142.160085
 30
0.0
 10
68.146972
 20
140.779000
 30
0.0
 10
68.350855
 20
137.119942
 30
0.0
 10
69.990716
 20
133.856849
 30
0.0
  0
SPLINE
  5
368
100
AcDbEntity
  8
0
 62
7
100
AcDbSpline
 70
8
 71
3
 72
8
 73
4
 74
0
 40
0
 40
0
 40
0
 40
0
 40
1
 40
1
 40
1
 40
1
 10
69.990716
 20
133.856849
 30
0.0
 10
71.234266
 20
131.382360
 30
0.0
 10
75.540103
 20
126.887954
 30
0.0
 10
77.603321
 20
125.910864
 30
0.0
  0
SPLINE
  5
369
100
AcDbEntity
  8
0
 62
7
100
AcDbSpline
 70
8
 71
3
 72
8
 73
4
 74
0
 40
0
 40
0
 40
0
 40
0
 40
1
 40
1
 40
1
 40
1
 10
77.603321
 20
125.910864
 30
0.0
 10
79.863220
 20
124.840627
 30
0.0
 10
83.067263
 20
124.265809
 30
0.0
 10
83.437121
 20
124.864254
 30
0.0
  0
LWPOLYLINE
  5
36a
100
AcDbEntity
  8
0
 62
7
100
AcDbPolyline
 90
1
 70
1
 10
61.678304
 20
125.588620
 30
0.0
  0
SPLINE
  5
36b
100
AcDbEntity
  8
0
 62
7
100
AcDbSpline
 70
8
 71
3
 72
8
 73
4
 74
0
 40
0
 40
0
 40
0
 40
0
 40
1
 40
1
 40
1
 40
1
 10
97.599709
 20
126.201456
 30
0.0
 10
97.982548
 20
126.916799
 30
0.0
 10
97.983532
 20
133.681203
 30
0.0
 10
97.601032
 20
136.105807
 30
0.0
  0
SPLINE
  5
36c
100
AcDbEntity
  8
0
 62
7
100
AcDbSpline
 70
8
 71
3
 72
8
 73
4
 74
0
 40
0
 40
0
 40
0
 40
0
 40
1
 40
1
 40
1
 40
1
 10
97.601032
 20
136.105807
 30
0.0
 10
96.892459
 20
140.598702
 30
0.0
 10
95.029200
 20
144.115015
 30
0.0
 10
92.418098
 20
145.886956
 30
0.0
  0
SPLINE
  5
36d
100
AcDbEntity
  8
0
 62
7
100
AcDbSpline
 70
8
 71
3
 72
8
 73
4
 74
0
 40
0
 40
0
 40
0
 40
0
 40
1
 40
1
 40
1
 40
1
 10
92.418098
 20
145.886956
 30
0.0
 10
90.768808
 20
147.006196
 30
0.0
 10
89.483888
 20
146.712924
 30
0.0
 10
88.620293
 20
145.020141
 30
0.0
  0
SPLINE
  5
36e
100
AcDbEntity
  8
0
 62
7
100
AcDbSpline
 70
8
 71
3
 72
8
 73
4
 74
0
 40
0
 40
0
 40
0
 40
0
 40
1
 40
1
 40
1
 40
1
 10
88.620293
 20
145.020141
 30
0.0
 10
87.841095
 20
143.492784
 30
0.0
 10
87.460794
 20
141.013505
 30
0.0
 10
87.581692
 20
138.249242
 30
0.0
  0
SPLINE
  5
36f
100
AcDbEntity
  8
0
 62
7
100
AcDbSpline
 70
8
 71
3
 72
8
 73
4
 74
0
 40
0
 40
0
 40
0
 40
0
 40
1
 40
1
 40
1
 40
1
 10
87.581692
 20
138.249242
 30
0.0
 10
87.687124
 20
135.838663
 30
0.0
 10
87.722660
 20
135.714335
 30
0.0
 10
88.473669
 20
135.128476
 30
0.0
  0
SPLINE
  5
370
100
AcDbEntity
  8
0
 62
7
100
AcDbSpline
 70
8
 71
3
 72
8
 73
4
 74
0
 40
0
 40
0
 40
0
 40
0
 40
1
 40
1
 40
1
 40
1
 10
88.473669
 20
135.128476
 30
0.0
 10
90.370284
 20
133.648934
 30
0.0
 10
91.429348
 20
132.502077
 30
0.0
 10
93.544274
 20
129.637533
 30
0.0
  0
SPLINE
  5
371
100
AcDbEntity
  8
0
 62
7
100
AcDbSpline
 70
8
 71
3
 72
8
 73
4
 74
0
 40
0
 40
0
 40
0
 40
0
 40
1
 40
1
 40
1
 40
1
 10
93.544274
 20
129.637533
 30
0.0
 10
96.568337
 20
125.541614
 30
0.0
 10
97.034892
 20
125.146300
 30
0.0
 10
97.599595
 20
126.201456
 30
0.0
  0
LWPOLYLINE
  5
372
100
AcDbEntity
  8
0
 62
7
100
AcDbPolyline
 90
1
 70
1
 10
83.437121
 20
124.864254
 30
0.0
  0
SPLINE
  5
373
100
AcDbEntity
  8
0
 62
7
100
AcDbSpline
 70
8
 71
3
 72
8
 73
4
 74
0
 40
0
 40
0
 40
0
 40
0
 40
1
 40
1
 40
1
 40
1
 10
46.713259
 20
127.043828
 30
0.0
 10
47.595642
 20
128.008840
 30
0.0
 10
49.171580
 20
131.629833
 30
0.0
 10
49.171580
 20
132.692248
 30
0.0
  0
SPLINE
  5
374
100
AcDbEntity
  8
0
 62
7
100
AcDbSpline
 70
8
 71
3
 72
8
 73
4
 74
0
 40
0
 40
0
 40
0
 40
0
 40
1
 40
1
 40
1
 40
1
 10
49.171580
 20
132.692248
 30
0.0
 10
49.171580
 20
132.879280
 30
0.0
 10
48.563982
 20
133.723843
 30
0.0
 10
47.821366
 20
134.569057
 30
0.0
  0
SPLINE
  5
375
100
AcDbEntity
  8
0
 62
7
100
AcDbSpline
 70
8
 71
3
 72
8
 73
4
 74
0
 40
0
 40
0
 40
0
 40
0
 40
1
 40
1
 40
1
 40
1
 10
47.821366
 20
134.569057
 30
0.0
 10
46.033275
 20
136.604177
 30
0.0
 10
43.557105
 20
140.379008
 30
0.0
 10
42.821767
 20
142.190761
 30
0.0
  0
SPLINE
  5
376
100
AcDbEntity
  8
0
 62
7
100
AcDbSpline
 70
8
 71
3
 72
8
 73
4
 74
0
 40
0
 40
0
 40
0
 40
0
 40
1
 40
1
 40
1
 40
1
 10
42.821767
 20
142.190761
 30
0.0
 10
42.496819
 20
142.991380
 30
0.0
 10
42.126061
 20
143.646432
 30
0.0
 10
41.997863
 20
143.646432
 30
0.0
  0
SPLINE
  5
377
100
AcDbEntity
  8
0
 62
7
100
AcDbSpline
 70
8
 71
3
 72
8
 73
4
 74
0
 40
0
 40
0
 40
0
 40
0
 40
1
 40
1
 40
1
 40
1
 10
41.997863
 20
143.646432
 30
0.0
 10
41.420698
 20
143.646432
 30
0.0
 10
39.592366
 20
141.603209
 30
0.0
 10
38.862429
 20
140.142473
 30
0.0
  0
SPLINE
  5
378
100
AcDbEntity
  8
0
 62
7
100
AcDbSpline
 70
8
 71
3
 72
8
 73
4
 74
0
 40
0
 40
0
 40
0
 40
0
 40
1
 40
1
 40
1
 40
1
 10
38.862429
 20
140.142473
 30
0.0
 10
37.432649
 20
137.281235
 30
0.0
 10
37.868527
 20
133.579095
 30
0.0
 10
40.016110
 20
130.343624
 30
0.0
  0
SPLINE
  5
379
100
AcDbEntity
  8
0
 62
7
100
AcDbSpline
 70
8
 71
3
 72
8
 73
4
 74
0
 40
0
 40
0
 40
0
 40
0
 40
1
 40
1
 40
1
 40
1
 10
40.016110
 20
130.343624
 30
0.0
 10
42.235620
 20
126.999791
 30
0.0
 10
45.294764
 20
125.492499
 30
0.0
 10
46.713259
 20
127.043828
 30
0.0
  0
LWPOLYLINE
  5
37a
100
AcDbEntity
  8
0
 62
7
100
AcDbPolyline
 90
2
 70
0
 10
97.599595
 20
126.201456
 30
0.0
 10
97.599709
 20
126.201456
 30
0.0
  0
SPLINE
  5
37b
100
AcDbEntity
  8
0
 62
7
100
AcDbSpline
 70
8
 71
3
 72
8
 73
4
 74
0
 40
0
 40
0
 40
0
 40
0
 40
1
 40
1
 40
1
 40
1
 10
140.105741
 20
129.206392
 30
0.0
 10
140.979549
 20
130.862401
 30
0.0
 10
140.462714
 20
133.252022
 30
0.0
 10
138.789860
 20
135.290454
 30
0.0
  0
SPLINE
  5
37c
100
AcDbEntity
  8
0
 62
7
100
AcDbSpline
 70
8
 71
3
 72
8
 73
4
 74
0
 40
0
 40
0
 40
0
 40
0
 40
1
 40
1
 40
1
 40
1
 10
138.789860
 20
135.290454
 30
0.0
 10
137.997986
 20
136.255379
 30
0.0
 10
137.598626
 20
136.117960
 30
0.0
 10
136.537049
 20
134.515273
 30
0.0
  0
SPLINE
  5
37d
100
AcDbEntity
  8
0
 62
7
100
AcDbSpline
 70
8
 71
3
 72
8
 73
4
 74
0
 40
0
 40
0
 40
0
 40
0
 40
1
 40
1
 40
1
 40
1
 10
136.537049
 20
134.515273
 30
0.0
 10
134.969864
 20
132.149255
 30
0.0
 10
135.158133
 20
129.946929
 30
0.0
 10
137.108457
 20
127.831077
 30
0.0
  0
LWPOLYLINE
  5
37e
100
AcDbEntity
  8
0
 62
7
100
AcDbPolyline
 90
1
 70
1
 10
46.713259
 20
127.043828
 30
0.0
  0
SPLINE
  5
37f
100
AcDbEntity
  8
0
 62
7
100
AcDbSpline
 70
8
 71
3
 72
8
 73
4
 74
0
 40
0
 40
0
 40
0
 40
0
 40
1
 40
1
 40
1
 40
1
 10
138.944797
 20
127.544232
 30
0.0
 10
139.358838
 20
128.032994
 30
0.0
 10
139.881263
 20
128.780966
 30
0.0
 10
140.105741
 20
129.206392
 30
0.0
  0
LWPOLYLINE
  5
380
100
AcDbEntity
  8
0
 62
7
100
AcDbPolyline
 90
3
 70
0
 10
137.108457
 20
127.831077
 30
0.0
 10
138.191999
 20
126.655576
 30
0.0
 10
138.944797
 20
127.544232
 30
0.0
  0
SPLINE
  5
381
100
AcDbEntity
  8
0
 62
7
100
AcDbSpline
 70
8
 71
3
 72
8
 73
4
 74
0
 40
0
 40
0
 40
0
 40
0
 40
1
 40
1
 40
1
 40
1
 10
105.942003
 20
130.388270
 30
0.0
 10
108.415709
 20
131.511823
 30
0.0
 10
110.501901
 20
134.242310
 30
0.0
 10
112.534078
 20
139.016224
 30
0.0
  0
SPLINE
  5
382
100
AcDbEntity
  8
0
 62
7
100
AcDbSpline
 70
8
 71
3
 72
8
 73
4
 74
0
 40
0
 40
0
 40
0
 40
0
 40
1
 40
1
 40
1
 40
1
 10
112.534078
 20
139.016224
 30
0.0
 10
114.427238
 20
143.463566
 30
0.0
 10
115.208434
 20
144.765469
 30
0.0
 10
117.468473
 20
147.239657
 30
0.0
  0
SPLINE
  5
383
100
AcDbEntity
  8
0
 62
7
100
AcDbSpline
 70
8
 71
3
 72
8
 73
4
 74
0
 40
0
 40
0
 40
0
 40
0
 40
1
 40
1
 40
1
 40
1
 10
117.468473
 20
147.239657
 30
0.0
 10
119.207799
 20
149.143794
 30
0.0
 10
119.550746
 20
149.666471
 30
0.0
 10
119.550746
 20
150.413193
 30
0.0
  0
SPLINE
  5
384
100
AcDbEntity
  8
0
 62
7
100
AcDbSpline
 70
8
 71
3
 72
8
 73
4
 74
0
 40
0
 40
0
 40
0
 40
0
 40
1
 40
1
 40
1
 40
1
 10
119.550746
 20
150.413193
 30
0.0
 10
119.550746
 20
151.855027
 30
0.0
 10
118.679468
 20
152.245391
 30
0.0
 10
115.461341
 20
152.245391
 30
0.0
  0
SPLINE
  5
385
100
AcDbEntity
  8
0
 62
7
100
AcDbSpline
 70
8
 71
3
 72
8
 73
4
 74
0
 40
0
 40
0
 40
0
 40
0
 40
1
 40
1
 40
1
 40
1
 10
115.461341
 20
152.245391
 30
0.0
 10
113.205175
 20
152.245391
 30
0.0
 10
112.634109
 20
152.154705
 30
0.0
 10
111.679688
 20
151.644853
 30
0.0
  0
SPLINE
  5
386
100
AcDbEntity
  8
0
 62
7
100
AcDbSpline
 70
8
 71
3
 72
8
 73
4
 74
0
 40
0
 40
0
 40
0
 40
0
 40
1
 40
1
 40
1
 40
1
 10
111.679688
 20
151.644853
 30
0.0
 10
110.292121
 20
150.903615
 30
0.0
 10
109.444269
 20
149.627841
 30
0.0
 10
108.737892
 20
147.218307
 30
0.0
  0
SPLINE
  5
387
100
AcDbEntity
  8
0
 62
7
100
AcDbSpline
 70
8
 71
3
 72
8
 73
4
 74
0
 40
0
 40
0
 40
0
 40
0
 40
1
 40
1
 40
1
 40
1
 10
108.737892
 20
147.218307
 30
0.0
 10
108.439267
 20
146.199662
 30
0.0
 10
107.881693
 20
144.294662
 30
0.0
 10
107.498835
 20
142.984974
 30
0.0
  0
SPLINE
  5
388
100
AcDbEntity
  8
0
 62
7
100
AcDbSpline
 70
8
 71
3
 72
8
 73
4
 74
0
 40
0
 40
0
 40
0
 40
0
 40
1
 40
1
 40
1
 40
1
 10
107.498835
 20
142.984974
 30
0.0
 10
106.782857
 20
140.535745
 30
0.0
 10
105.532992
 20
137.763186
 30
0.0
 10
103.682070
 20
134.518307
 30
0.0
  0
SPLINE
  5
389
100
AcDbEntity
  8
0
 62
7
100
AcDbSpline
 70
8
 71
3
 72
8
 73
4
 74
0
 40
0
 40
0
 40
0
 40
0
 40
1
 40
1
 40
1
 40
1
 10
103.682070
 20
134.518307
 30
0.0
 10
102.432414
 20
132.327515
 30
0.0
 10
102.276820
 20
130.950417
 30
0.0
 10
103.205452
 20
130.299976
 30
0.0
  0
SPLINE
  5
38a
100
AcDbEntity
  8
0
 62
7
100
AcDbSpline
 70
8
 71
3
 72
8
 73
4
 74
0
 40
0
 40
0
 40
0
 40
0
 40
1
 40
1
 40
1
 40
1
 10
103.205452
 20
130.299976
 30
0.0
 10
103.967251
 20
129.766391
 30
0.0
 10
104.619131
 20
129.787425
 30
0.0
 10
105.942003
 20
130.388270
 30
0.0
  0
LWPOLYLINE
  5
38b
100
AcDbEntity
  8
0
 62
7
100
AcDbPolyline
 90
1
 70
1
 10
140.105741
 20
129.206392
 30
0.0
  0
SPLINE
  5
38c
100
AcDbEntity
  8
0
 62
7
100
AcDbSpline
 70
8
 71
3
 72
8
 73
4
 74
0
 40
0
 40
0
 40
0
 40
0
 40
1
 40
1
 40
1
 40
1
 10
24.258865
 20
134.615150
 30
0.0
 10
24.673994
 20
136.000720
 30
0.0
 10
24.644366
 20
137.434452
 30
0.0
 10
24.182139
 20
138.328305
 30
0.0
  0
SPLINE
  5
38d
100
AcDbEntity
  8
0
 62
7
100
AcDbSpline
 70
8
 71
3
 72
8
 73
4
 74
0
 40
0
 40
0
 40
0
 40
0
 40
1
 40
1
 40
1
 40
1
 10
24.182139
 20
138.328305
 30
0.0
 10
23.788343
 20
139.089818
 30
0.0
 10
23.449534
 20
139.282427
 30
0.0
 10
18.083038
 20
141.795556
 30
0.0
  0
SPLINE
  5
38e
100
AcDbEntity
  8
0
 62
7
100
AcDbSpline
 70
8
 71
3
 72
8
 73
4
 74
0
 40
0
 40
0
 40
0
 40
0
 40
1
 40
1
 40
1
 40
1
 10
18.083038
 20
141.795556
 30
0.0
 10
14.045131
 20
143.686509
 30
0.0
 10
11.096090
 20
145.714326
 30
0.0
 10
8.220990
 20
148.576895
 30
0.0
  0
LWPOLYLINE
  5
38f
100
AcDbEntity
  8
0
 62
7
100
AcDbPolyline
 90
1
 70
1
 10
105.942003
 20
130.388270
 30
0.0
  0
SPLINE
  5
390
100
AcDbEntity
  8
0
 62
7
100
AcDbSpline
 70
8
 71
3
 72
8
 73
4
 74
0
 40
0
 40
0
 40
0
 40
0
 40
1
 40
1
 40
1
 40
1
 10
9.087204
 20
141.243635
 30
0.0
 10
13.032909
 20
139.912045
 30
0.0
 10
18.426346
 20
137.268664
 30
0.0
 10
21.390329
 20
135.213741
 30
0.0
  0
SPLINE
  5
391
100
AcDbEntity
  8
0
 62
7
100
AcDbSpline
 70
8
 71
3
 72
8
 73
4
 74
0
 40
0
 40
0
 40
0
 40
0
 40
1
 40
1
 40
1
 40
1
 10
21.390329
 20
135.213741
 30
0.0
 10
22.627256
 20
134.356181
 30
0.0
 10
23.709738
 20
133.640528
 30
0.0
 10
23.795844
 20
133.623405
 30
0.0
  0
SPLINE
  5
392
100
AcDbEntity
  8
0
 62
7
100
AcDbSpline
 70
8
 71
3
 72
8
 73
4
 74
0
 40
0
 40
0
 40
0
 40
0
 40
1
 40
1
 40
1
 40
1
 10
23.795844
 20
133.623405
 30
0.0
 10
23.881950
 20
133.606286
 30
0.0
 10
24.090310
 20
134.052564
 30
0.0
 10
24.258865
 20
134.615150
 30
0.0
  0
LWPOLYLINE
  5
393
100
AcDbEntity
  8
0
 62
7
100
AcDbPolyline
 90
5
 70
0
 10
8.220990
 20
148.576895
 30
0.0
 10
5.767276
 20
151.019912
 30
0.0
 10
5.839740
 20
146.667519
 30
0.0
 10
5.912204
 20
142.315126
 30
0.0
 10
9.087204
 20
141.243635
 30
0.0
  0
SPLINE
  5
394
100
AcDbEntity
  8
0
 62
7
100
AcDbSpline
 70
8
 71
3
 72
8
 73
4
 74
0
 40
0
 40
0
 40
0
 40
0
 40
1
 40
1
 40
1
 40
1
 10
143.886529
 20
140.008412
 30
0.0
 10
143.880655
 20
146.152444
 30
0.0
 10
143.880020
 20
146.159164
 30
0.0
 10
143.366138
 20
145.498516
 30
0.0
  0
SPLINE
  5
395
100
AcDbEntity
  8
0
 62
7
100
AcDbSpline
 70
8
 71
3
 72
8
 73
4
 74
0
 40
0
 40
0
 40
0
 40
0
 40
1
 40
1
 40
1
 40
1
 10
143.366138
 20
145.498516
 30
0.0
 10
141.377009
 20
142.941260
 30
0.0
 10
140.526942
 20
139.358060
 30
0.0
 10
141.379681
 20
137.125199
 30
0.0
  0
SPLINE
  5
396
100
AcDbEntity
  8
0
 62
7
100
AcDbSpline
 70
8
 71
3
 72
8
 73
4
 74
0
 40
0
 40
0
 40
0
 40
0
 40
1
 40
1
 40
1
 40
1
 10
141.379681
 20
137.125199
 30
0.0
 10
141.769775
 20
136.103752
 30
0.0
 10
143.427429
 20
133.856849
 30
0.0
 10
143.790908
 20
133.856849
 30
0.0
  0
SPLINE
  5
397
100
AcDbEntity
  8
0
 62
7
100
AcDbSpline
 70
8
 71
3
 72
8
 73
4
 74
0
 40
0
 40
0
 40
0
 40
0
 40
1
 40
1
 40
1
 40
1
 10
143.790908
 20
133.856849
 30
0.0
 10
143.846735
 20
133.856849
 30
0.0
 10
143.889764
 20
136.625052
 30
0.0
 10
143.886529
 20
140.008412
 30
0.0
  0
LWPOLYLINE
  5
398
100
AcDbEntity
  8
0
 62
7
100
AcDbPolyline
 90
1
 70
1
 10
24.258865
 20
134.615150
 30
0.0
  0
SPLINE
  5
399
100
AcDbEntity
  8
0
 62
7
100
AcDbSpline
 70
8
 71
3
 72
8
 73
4
 74
0
 40
0
 40
0
 40
0
 40
0
 40
1
 40
1
 40
1
 40
1
 10
53.762635
 20
136.568828
 30
0.0
 10
54.264068
 20
140.743480
 30
0.0
 10
53.687472
 20
144.701371
 30
0.0
 10
52.128568
 20
147.785450
 30
0.0
  0
SPLINE
  5
39a
100
AcDbEntity
  8
0
 62
7
100
AcDbSpline
 70
8
 71
3
 72
8
 73
4
 74
0
 40
0
 40
0
 40
0
 40
0
 40
1
 40
1
 40
1
 40
1
 10
52.128568
 20
147.785450
 30
0.0
 10
51.218071
 20
149.586744
 30
0.0
 10
49.027599
 20
152.642266
 30
0.0
 10
48.646768
 20
152.642266
 30
0.0
  0
SPLINE
  5
39b
100
AcDbEntity
  8
0
 62
7
100
AcDbSpline
 70
8
 71
3
 72
8
 73
4
 74
0
 40
0
 40
0
 40
0
 40
0
 40
1
 40
1
 40
1
 40
1
 10
48.646768
 20
152.642266
 30
0.0
 10
48.188316
 20
152.642266
 30
0.0
 10
46.826456
 20
149.592149
 30
0.0
 10
46.505257
 20
147.845989
 30
0.0
  0
SPLINE
  5
39c
100
AcDbEntity
  8
0
 62
7
100
AcDbSpline
 70
8
 71
3
 72
8
 73
4
 74
0
 40
0
 40
0
 40
0
 40
0
 40
1
 40
1
 40
1
 40
1
 10
46.505257
 20
147.845989
 30
0.0
 10
45.866598
 20
144.373984
 30
0.0
 10
47.209318
 20
141.097952
 30
0.0
 10
50.747792
 20
137.494870
 30
0.0
  0
SPLINE
  5
39d
100
AcDbEntity
  8
0
 62
7
100
AcDbSpline
 70
8
 71
3
 72
8
 73
4
 74
0
 40
0
 40
0
 40
0
 40
0
 40
1
 40
1
 40
1
 40
1
 10
50.747792
 20
137.494870
 30
0.0
 10
51.998266
 20
136.221563
 30
0.0
 10
53.150624
 20
135.179766
 30
0.0
 10
53.308586
 20
135.179766
 30
0.0
  0
SPLINE
  5
39e
100
AcDbEntity
  8
0
 62
7
100
AcDbSpline
 70
8
 71
3
 72
8
 73
4
 74
0
 40
0
 40
0
 40
0
 40
0
 40
1
 40
1
 40
1
 40
1
 10
53.308586
 20
135.179766
 30
0.0
 10
53.466548
 20
135.179766
 30
0.0
 10
53.670869
 20
135.804844
 30
0.0
 10
53.762635
 20
136.568828
 30
0.0
  0
LWPOLYLINE
  5
39f
100
AcDbEntity
  8
0
 62
7
100
AcDbPolyline
 90
1
 70
1
 10
143.886529
 20
140.008412
 30
0.0
  0
SPLINE
  5
3a0
100
AcDbEntity
  8
0
 62
7
100
AcDbSpline
 70
8
 71
3
 72
8
 73
4
 74
0
 40
0
 40
0
 40
0
 40
0
 40
1
 40
1
 40
1
 40
1
 10
124.122892
 20
136.932792
 30
0.0
 10
128.013113
 20
141.313805
 30
0.0
 10
130.473257
 20
147.058597
 30
0.0
 10
130.847290
 20
152.635241
 30
0.0
  0
LWPOLYLINE
  5
3a1
100
AcDbEntity
  8
0
 62
7
100
AcDbPolyline
 90
1
 70
1
 10
53.762635
 20
136.568828
 30
0.0
  0
SPLINE
  5
3a2
100
AcDbEntity
  8
0
 62
7
100
AcDbSpline
 70
8
 71
3
 72
8
 73
4
 74
0
 40
0
 40
0
 40
0
 40
0
 40
1
 40
1
 40
1
 40
1
 10
130.244014
 20
154.650776
 30
0.0
 10
128.656659
 20
153.640443
 30
0.0
 10
126.780589
 20
152.093933
 30
0.0
 10
125.337274
 20
150.605974
 30
0.0
  0
SPLINE
  5
3a3
100
AcDbEntity
  8
0
 62
7
100
AcDbSpline
 70
8
 71
3
 72
8
 73
4
 74
0
 40
0
 40
0
 40
0
 40
0
 40
1
 40
1
 40
1
 40
1
 10
125.337274
 20
150.605974
 30
0.0
 10
120.827551
 20
145.956769
 30
0.0
 10
119.783892
 20
141.461887
 30
0.0
 10
122.262315
 20
137.362578
 30
0.0
  0
SPLINE
  5
3a4
100
AcDbEntity
  8
0
 62
7
100
AcDbSpline
 70
8
 71
3
 72
8
 73
4
 74
0
 40
0
 40
0
 40
0
 40
0
 40
1
 40
1
 40
1
 40
1
 10
122.262315
 20
137.362578
 30
0.0
 10
122.724217
 20
136.598594
 30
0.0
 10
123.140147
 20
135.973516
 30
0.0
 10
123.186608
 20
135.973516
 30
0.0
  0
SPLINE
  5
3a5
100
AcDbEntity
  8
0
 62
7
100
AcDbSpline
 70
8
 71
3
 72
8
 73
4
 74
0
 40
0
 40
0
 40
0
 40
0
 40
1
 40
1
 40
1
 40
1
 10
123.186608
 20
135.973516
 30
0.0
 10
123.233066
 20
135.973516
 30
0.0
 10
123.654394
 20
136.405191
 30
0.0
 10
124.122892
 20
136.932792
 30
0.0
  0
LWPOLYLINE
  5
3a6
100
AcDbEntity
  8
0
 62
7
100
AcDbPolyline
 90
3
 70
0
 10
130.847290
 20
152.635241
 30
0.0
 10
131.015407
 20
155.141758
 30
0.0
 10
130.244014
 20
154.650776
 30
0.0
  0
SPLINE
  5
3a7
100
AcDbEntity
  8
0
 62
7
100
AcDbSpline
 70
8
 71
3
 72
8
 73
4
 74
0
 40
0
 40
0
 40
0
 40
0
 40
1
 40
1
 40
1
 40
1
 10
84.066541
 20
139.397023
 30
0.0
 10
84.730958
 20
139.752607
 30
0.0
 10
85.343143
 20
141.325611
 30
0.0
 10
85.808942
 20
143.874098
 30
0.0
  0
SPLINE
  5
3a8
100
AcDbEntity
  8
0
 62
7
100
AcDbSpline
 70
8
 71
3
 72
8
 73
4
 74
0
 40
0
 40
0
 40
0
 40
0
 40
1
 40
1
 40
1
 40
1
 10
85.808942
 20
143.874098
 30
0.0
 10
86.314764
 20
146.641569
 30
0.0
 10
86.314852
 20
147.350538
 30
0.0
 10
85.809471
 20
148.613484
 30
0.0
  0
SPLINE
  5
3a9
100
AcDbEntity
  8
0
 62
7
100
AcDbSpline
 70
8
 71
3
 72
8
 73
4
 74
0
 40
0
 40
0
 40
0
 40
0
 40
1
 40
1
 40
1
 40
1
 10
85.809471
 20
148.613484
 30
0.0
 10
85.316420
 20
149.845744
 30
0.0
 10
83.833991
 20
150.868126
 30
0.0
 10
81.488973
 20
151.593188
 30
0.0
  0
SPLINE
  5
3aa
100
AcDbEntity
  8
0
 62
7
100
AcDbSpline
 70
8
 71
3
 72
8
 73
4
 74
0
 40
0
 40
0
 40
0
 40
0
 40
1
 40
1
 40
1
 40
1
 10
81.488973
 20
151.593188
 30
0.0
 10
78.600607
 20
152.486249
 30
0.0
 10
76.332691
 20
152.234157
 30
0.0
 10
75.474679
 20
150.924665
 30
0.0
  0
SPLINE
  5
3ab
100
AcDbEntity
  8
0
 62
7
100
AcDbSpline
 70
8
 71
3
 72
8
 73
4
 74
0
 40
0
 40
0
 40
0
 40
0
 40
1
 40
1
 40
1
 40
1
 10
75.474679
 20
150.924665
 30
0.0
 10
74.930929
 20
150.094797
 30
0.0
 10
74.850778
 20
147.798973
 30
0.0
 10
75.325541
 20
146.652790
 30
0.0
  0
SPLINE
  5
3ac
100
AcDbEntity
  8
0
 62
7
100
AcDbSpline
 70
8
 71
3
 72
8
 73
4
 74
0
 40
0
 40
0
 40
0
 40
0
 40
1
 40
1
 40
1
 40
1
 10
75.325541
 20
146.652790
 30
0.0
 10
75.650397
 20
145.868520
 30
0.0
 10
81.466476
 20
140.151898
 30
0.0
 10
82.614352
 20
139.488622
 30
0.0
  0
SPLINE
  5
3ad
100
AcDbEntity
  8
0
 62
7
100
AcDbSpline
 70
8
 71
3
 72
8
 73
4
 74
0
 40
0
 40
0
 40
0
 40
0
 40
1
 40
1
 40
1
 40
1
 10
82.614352
 20
139.488622
 30
0.0
 10
83.298252
 20
139.093443
 30
0.0
 10
83.478055
 20
139.082100
 30
0.0
 10
84.066494
 20
139.397023
 30
0.0
  0
LWPOLYLINE
  5
3ae
100
AcDbEntity
  8
0
 62
7
100
AcDbPolyline
 90
1
 70
1
 10
124.122892
 20
136.932792
 30
0.0
  0
SPLINE
  5
3af
100
AcDbEntity
  8
0
 62
7
100
AcDbSpline
 70
8
 71
3
 72
8
 73
4
 74
0
 40
0
 40
0
 40
0
 40
0
 40
1
 40
1
 40
1
 40
1
 10
103.921295
 20
143.841081
 30
0.0
 10
105.271893
 20
146.547694
 30
0.0
 10
106.380267
 20
149.843233
 30
0.0
 10
107.148318
 20
153.436016
 30
0.0
  0
SPLINE
  5
3b0
100
AcDbEntity
  8
0
 62
7
100
AcDbSpline
 70
8
 71
3
 72
8
 73
4
 74
0
 40
0
 40
0
 40
0
 40
0
 40
1
 40
1
 40
1
 40
1
 10
107.148318
 20
153.436016
 30
0.0
 10
107.984856
 20
157.349161
 30
0.0
 10
107.998842
 20
164.496890
 30
0.0
 10
107.175837
 20
167.499707
 30
0.0
  0
SPLINE
  5
3b1
100
AcDbEntity
  8
0
 62
7
100
AcDbSpline
 70
8
 71
3
 72
8
 73
4
 74
0
 40
0
 40
0
 40
0
 40
0
 40
1
 40
1
 40
1
 40
1
 10
107.175837
 20
167.499707
 30
0.0
 10
106.200816
 20
171.057173
 30
0.0
 10
104.471110
 20
173.961679
 30
0.0
 10
102.310486
 20
175.669554
 30
0.0
  0
SPLINE
  5
3b2
100
AcDbEntity
  8
0
 62
7
100
AcDbSpline
 70
8
 71
3
 72
8
 73
4
 74
0
 40
0
 40
0
 40
0
 40
0
 40
1
 40
1
 40
1
 40
1
 10
102.310486
 20
175.669554
 30
0.0
 10
101.580035
 20
176.246941
 30
0.0
 10
100.879852
 20
176.719349
 30
0.0
 10
100.754519
 20
176.719349
 30
0.0
  0
SPLINE
  5
3b3
100
AcDbEntity
  8
0
 62
7
100
AcDbSpline
 70
8
 71
3
 72
8
 73
4
 74
0
 40
0
 40
0
 40
0
 40
0
 40
1
 40
1
 40
1
 40
1
 10
100.754519
 20
176.719349
 30
0.0
 10
100.364139
 20
176.719349
 30
0.0
 10
98.592820
 20
173.300782
 30
0.0
 10
97.820165
 20
171.056178
 30
0.0
  0
SPLINE
  5
3b4
100
AcDbEntity
  8
0
 62
7
100
AcDbSpline
 70
8
 71
3
 72
8
 73
4
 74
0
 40
0
 40
0
 40
0
 40
0
 40
1
 40
1
 40
1
 40
1
 10
97.820165
 20
171.056178
 30
0.0
 10
96.382993
 20
166.881127
 30
0.0
 10
96.513039
 20
163.512397
 30
0.0
 10
98.393123
 20
156.214141
 30
0.0
  0
SPLINE
  5
3b5
100
AcDbEntity
  8
0
 62
7
100
AcDbSpline
 70
8
 71
3
 72
8
 73
4
 74
0
 40
0
 40
0
 40
0
 40
0
 40
1
 40
1
 40
1
 40
1
 10
98.393123
 20
156.214141
 30
0.0
 10
98.955431
 20
154.031328
 30
0.0
 10
99.655037
 20
150.935703
 30
0.0
 10
99.947801
 20
149.334974
 30
0.0
  0
SPLINE
  5
3b6
100
AcDbEntity
  8
0
 62
7
100
AcDbSpline
 70
8
 71
3
 72
8
 73
4
 74
0
 40
0
 40
0
 40
0
 40
0
 40
1
 40
1
 40
1
 40
1
 10
99.947801
 20
149.334974
 30
0.0
 10
100.412875
 20
146.792124
 30
0.0
 10
101.294496
 20
140.572903
 30
0.0
 10
101.294496
 20
139.834985
 30
0.0
  0
SPLINE
  5
3b7
100
AcDbEntity
  8
0
 62
7
100
AcDbSpline
 70
8
 71
3
 72
8
 73
4
 74
0
 40
0
 40
0
 40
0
 40
0
 40
1
 40
1
 40
1
 40
1
 10
101.294496
 20
139.834985
 30
0.0
 10
101.294496
 20
139.325128
 30
0.0
 10
102.856715
 20
141.707645
 30
0.0
 10
103.921295
 20
143.841081
 30
0.0
  0
LWPOLYLINE
  5
3b8
100
AcDbEntity
  8
0
 62
7
100
AcDbPolyline
 90
1
 70
1
 10
84.066494
 20
139.397023
 30
0.0
  0
SPLINE
  5
3b9
100
AcDbEntity
  8
0
 62
7
100
AcDbSpline
 70
8
 71
3
 72
8
 73
4
 74
0
 40
0
 40
0
 40
0
 40
0
 40
1
 40
1
 40
1
 40
1
 10
134.507645
 20
142.998158
 30
0.0
 10
136.395931
 20
143.489995
 30
0.0
 10
138.303016
 20
144.661348
 30
0.0
 10
139.261562
 20
145.918066
 30
0.0
  0
SPLINE
  5
3ba
100
AcDbEntity
  8
0
 62
7
100
AcDbSpline
 70
8
 71
3
 72
8
 73
4
 74
0
 40
0
 40
0
 40
0
 40
0
 40
1
 40
1
 40
1
 40
1
 10
139.261562
 20
145.918066
 30
0.0
 10
139.647340
 20
146.423848
 30
0.0
 10
140.847101
 20
148.690452
 30
0.0
 10
141.927696
 20
150.954957
 30
0.0
  0
LWPOLYLINE
  5
3bb
100
AcDbEntity
  8
0
 62
7
100
AcDbPolyline
 90
1
 70
1
 10
103.921295
 20
143.841081
 30
0.0
  0
SPLINE
  5
3bc
100
AcDbEntity
  8
0
 62
7
100
AcDbSpline
 70
8
 71
3
 72
8
 73
4
 74
0
 40
0
 40
0
 40
0
 40
0
 40
1
 40
1
 40
1
 40
1
 10
142.299431
 20
165.317996
 30
0.0
 10
138.848817
 20
163.478837
 30
0.0
 10
135.776600
 20
159.034988
 30
0.0
 10
134.267842
 20
153.700599
 30
0.0
  0
SPLINE
  5
3bd
100
AcDbEntity
  8
0
 62
7
100
AcDbSpline
 70
8
 71
3
 72
8
 73
4
 74
0
 40
0
 40
0
 40
0
 40
0
 40
1
 40
1
 40
1
 40
1
 10
134.267842
 20
153.700599
 30
0.0
 10
133.206770
 20
149.949059
 30
0.0
 10
132.161693
 20
142.588099
 30
0.0
 10
132.690137
 20
142.588099
 30
0.0
  0
SPLINE
  5
3be
100
AcDbEntity
  8
0
 62
7
100
AcDbSpline
 70
8
 71
3
 72
8
 73
4
 74
0
 40
0
 40
0
 40
0
 40
0
 40
1
 40
1
 40
1
 40
1
 10
132.690137
 20
142.588099
 30
0.0
 10
132.823887
 20
142.588099
 30
0.0
 10
133.641767
 20
142.772625
 30
0.0
 10
134.507645
 20
142.998158
 30
0.0
  0
LWPOLYLINE
  5
3bf
100
AcDbEntity
  8
0
 62
7
100
AcDbPolyline
 90
5
 70
0
 10
141.927696
 20
150.954957
 30
0.0
 10
143.892413
 20
155.072241
 30
0.0
 10
143.892413
 20
160.619644
 30
0.0
 10
143.892413
 20
166.167046
 30
0.0
 10
142.299431
 20
165.317996
 30
0.0
  0
SPLINE
  5
3c0
100
AcDbEntity
  8
0
 62
7
100
AcDbSpline
 70
8
 71
3
 72
8
 73
4
 74
0
 40
0
 40
0
 40
0
 40
0
 40
1
 40
1
 40
1
 40
1
 10
38.471388
 20
145.432370
 30
0.0
 10
39.259592
 20
146.123594
 30
0.0
 10
39.905988
 20
146.892486
 30
0.0
 10
39.907824
 20
147.141020
 30
0.0
  0
SPLINE
  5
3c1
100
AcDbEntity
  8
0
 62
7
100
AcDbSpline
 70
8
 71
3
 72
8
 73
4
 74
0
 40
0
 40
0
 40
0
 40
0
 40
1
 40
1
 40
1
 40
1
 10
39.907824
 20
147.141020
 30
0.0
 10
39.913433
 20
147.901290
 30
0.0
 10
37.972566
 20
149.731849
 30
0.0
 10
37.160867
 20
149.731849
 30
0.0
  0
SPLINE
  5
3c2
100
AcDbEntity
  8
0
 62
7
100
AcDbSpline
 70
8
 71
3
 72
8
 73
4
 74
0
 40
0
 40
0
 40
0
 40
0
 40
1
 40
1
 40
1
 40
1
 10
37.160867
 20
149.731849
 30
0.0
 10
36.239291
 20
149.731849
 30
0.0
 10
34.976924
 20
149.076794
 30
0.0
 10
34.622587
 20
148.414708
 30
0.0
  0
SPLINE
  5
3c3
100
AcDbEntity
  8
0
 62
7
100
AcDbSpline
 70
8
 71
3
 72
8
 73
4
 74
0
 40
0
 40
0
 40
0
 40
0
 40
1
 40
1
 40
1
 40
1
 10
34.622587
 20
148.414708
 30
0.0
 10
34.395026
 20
147.989510
 30
0.0
 10
34.518383
 20
147.670295
 30
0.0
 10
35.311670
 20
146.631509
 30
0.0
  0
SPLINE
  5
3c4
100
AcDbEntity
  8
0
 62
7
100
AcDbSpline
 70
8
 71
3
 72
8
 73
4
 74
0
 40
0
 40
0
 40
0
 40
0
 40
1
 40
1
 40
1
 40
1
 10
35.311670
 20
146.631509
 30
0.0
 10
35.843115
 20
145.935602
 30
0.0
 10
36.400147
 20
145.098333
 30
0.0
 10
36.549518
 20
144.770912
 30
0.0
  0
SPLINE
  5
3c5
100
AcDbEntity
  8
0
 62
7
100
AcDbSpline
 70
8
 71
3
 72
8
 73
4
 74
0
 40
0
 40
0
 40
0
 40
0
 40
1
 40
1
 40
1
 40
1
 10
36.549518
 20
144.770912
 30
0.0
 10
36.698888
 20
144.443490
 30
0.0
 10
36.869971
 20
144.175599
 30
0.0
 10
36.929698
 20
144.175599
 30
0.0
  0
SPLINE
  5
3c6
100
AcDbEntity
  8
0
 62
7
100
AcDbSpline
 70
8
 71
3
 72
8
 73
4
 74
0
 40
0
 40
0
 40
0
 40
0
 40
1
 40
1
 40
1
 40
1
 10
36.929698
 20
144.175599
 30
0.0
 10
36.989425
 20
144.175599
 30
0.0
 10
37.683186
 20
144.741146
 30
0.0
 10
38.471388
 20
145.432370
 30
0.0
  0
LWPOLYLINE
  5
3c7
100
AcDbEntity
  8
0
 62
7
100
AcDbPolyline
 90
1
 70
1
 10
134.507645
 20
142.998158
 30
0.0
  0
SPLINE
  5
3c8
100
AcDbEntity
  8
0
 62
7
100
AcDbSpline
 70
8
 71
3
 72
8
 73
4
 74
0
 40
0
 40
0
 40
0
 40
0
 40
1
 40
1
 40
1
 40
1
 10
20.974054
 20
147.375848
 30
0.0
 10
20.949615
 20
150.510420
 30
0.0
 10
20.557366
 20
152.207658
 30
0.0
 10
19.222930
 20
154.952848
 30
0.0
  0
SPLINE
  5
3c9
100
AcDbEntity
  8
0
 62
7
100
AcDbSpline
 70
8
 71
3
 72
8
 73
4
 74
0
 40
0
 40
0
 40
0
 40
0
 40
1
 40
1
 40
1
 40
1
 10
19.222930
 20
154.952848
 30
0.0
 10
17.322033
 20
158.863353
 30
0.0
 10
13.609705
 20
162.189168
 30
0.0
 10
8.360785
 20
164.684064
 30
0.0
  0
LWPOLYLINE
  5
3ca
100
AcDbEntity
  8
0
 62
7
100
AcDbPolyline
 90
1
 70
1
 10
38.471388
 20
145.432370
 30
0.0
  0
SPLINE
  5
3cb
100
AcDbEntity
  8
0
 62
7
100
AcDbSpline
 70
8
 71
3
 72
8
 73
4
 74
0
 40
0
 40
0
 40
0
 40
0
 40
1
 40
1
 40
1
 40
1
 10
6.946702
 20
154.794786
 30
0.0
 10
8.401352
 20
152.606679
 30
0.0
 10
10.558691
 20
150.528851
 30
0.0
 10
13.271824
 20
148.702781
 30
0.0
  0
SPLINE
  5
3cc
100
AcDbEntity
  8
0
 62
7
100
AcDbSpline
 70
8
 71
3
 72
8
 73
4
 74
0
 40
0
 40
0
 40
0
 40
0
 40
1
 40
1
 40
1
 40
1
 10
13.271824
 20
148.702781
 30
0.0
 10
15.567057
 20
147.157977
 30
0.0
 10
20.316714
 20
144.674992
 30
0.0
 10
20.728871
 20
144.804450
 30
0.0
  0
SPLINE
  5
3cd
100
AcDbEntity
  8
0
 62
7
100
AcDbSpline
 70
8
 71
3
 72
8
 73
4
 74
0
 40
0
 40
0
 40
0
 40
0
 40
1
 40
1
 40
1
 40
1
 10
20.728871
 20
144.804450
 30
0.0
 10
20.882476
 20
144.852697
 30
0.0
 10
20.985317
 20
145.931258
 30
0.0
 10
20.974054
 20
147.375848
 30
0.0
  0
LWPOLYLINE
  5
3ce
100
AcDbEntity
  8
0
 62
7
100
AcDbPolyline
 90
5
 70
0
 10
8.360785
 20
164.684064
 30
0.0
 10
5.912204
 20
165.847916
 30
0.0
 10
5.839867
 20
161.208215
 30
0.0
 10
5.767529
 20
156.568516
 30
0.0
 10
6.946702
 20
154.794786
 30
0.0
  0
SPLINE
  5
3cf
100
AcDbEntity
  8
0
 62
7
100
AcDbSpline
 70
8
 71
3
 72
8
 73
4
 74
0
 40
0
 40
0
 40
0
 40
0
 40
1
 40
1
 40
1
 40
1
 10
56.883546
 20
149.136537
 30
0.0
 10
58.733740
 20
151.606197
 30
0.0
 10
59.248410
 20
152.538853
 30
0.0
 10
59.913158
 20
154.626641
 30
0.0
  0
SPLINE
  5
3d0
100
AcDbEntity
  8
0
 62
7
100
AcDbSpline
 70
8
 71
3
 72
8
 73
4
 74
0
 40
0
 40
0
 40
0
 40
0
 40
1
 40
1
 40
1
 40
1
 10
59.913158
 20
154.626641
 30
0.0
 10
60.796162
 20
157.399903
 30
0.0
 10
60.837749
 20
160.398404
 30
0.0
 10
60.034495
 20
163.375300
 30
0.0
  0
SPLINE
  5
3d1
100
AcDbEntity
  8
0
 62
7
100
AcDbSpline
 70
8
 71
3
 72
8
 73
4
 74
0
 40
0
 40
0
 40
0
 40
0
 40
1
 40
1
 40
1
 40
1
 10
60.034495
 20
163.375300
 30
0.0
 10
59.452597
 20
165.531845
 30
0.0
 10
57.135675
 20
170.237057
 30
0.0
 10
56.655655
 20
170.237057
 30
0.0
  0
SPLINE
  5
3d2
100
AcDbEntity
  8
0
 62
7
100
AcDbSpline
 70
8
 71
3
 72
8
 73
4
 74
0
 40
0
 40
0
 40
0
 40
0
 40
1
 40
1
 40
1
 40
1
 10
56.655655
 20
170.237057
 30
0.0
 10
56.105827
 20
170.237057
 30
0.0
 10
53.627618
 20
166.977166
 30
0.0
 10
52.632867
 20
164.945391
 30
0.0
  0
SPLINE
  5
3d3
100
AcDbEntity
  8
0
 62
7
100
AcDbSpline
 70
8
 71
3
 72
8
 73
4
 74
0
 40
0
 40
0
 40
0
 40
0
 40
1
 40
1
 40
1
 40
1
 10
52.632867
 20
164.945391
 30
0.0
 10
50.543333
 20
160.677537
 30
0.0
 10
50.504331
 20
157.056611
 30
0.0
 10
52.500347
 20
152.642266
 30
0.0
  0
SPLINE
  5
3d4
100
AcDbEntity
  8
0
 62
7
100
AcDbSpline
 70
8
 71
3
 72
8
 73
4
 74
0
 40
0
 40
0
 40
0
 40
0
 40
1
 40
1
 40
1
 40
1
 10
52.500347
 20
152.642266
 30
0.0
 10
53.308644
 20
150.854648
 30
0.0
 10
55.284529
 20
147.879766
 30
0.0
 10
55.663547
 20
147.879766
 30
0.0
  0
SPLINE
  5
3d5
100
AcDbEntity
  8
0
 62
7
100
AcDbSpline
 70
8
 71
3
 72
8
 73
4
 74
0
 40
0
 40
0
 40
0
 40
0
 40
1
 40
1
 40
1
 40
1
 10
55.663547
 20
147.879766
 30
0.0
 10
55.816701
 20
147.879766
 30
0.0
 10
56.365701
 20
148.445313
 30
0.0
 10
56.883546
 20
149.136537
 30
0.0
  0
LWPOLYLINE
  5
3d6
100
AcDbEntity
  8
0
 62
7
100
AcDbPolyline
 90
1
 70
1
 10
20.974054
 20
147.375848
 30
0.0
  0
SPLINE
  5
3d7
100
AcDbEntity
  8
0
 62
7
100
AcDbSpline
 70
8
 71
3
 72
8
 73
4
 74
0
 40
0
 40
0
 40
0
 40
0
 40
1
 40
1
 40
1
 40
1
 10
44.043272
 20
149.665703
 30
0.0
 10
44.138665
 20
150.065886
 30
0.0
 10
44.731673
 20
151.526994
 30
0.0
 10
45.361072
 20
152.912612
 30
0.0
  0
SPLINE
  5
3d8
100
AcDbEntity
  8
0
 62
7
100
AcDbSpline
 70
8
 71
3
 72
8
 73
4
 74
0
 40
0
 40
0
 40
0
 40
0
 40
1
 40
1
 40
1
 40
1
 10
45.361072
 20
152.912612
 30
0.0
 10
46.779789
 20
156.035909
 30
0.0
 10
47.163874
 20
157.767718
 30
0.0
 10
46.979250
 20
160.208844
 30
0.0
  0
SPLINE
  5
3d9
100
AcDbEntity
  8
0
 62
7
100
AcDbSpline
 70
8
 71
3
 72
8
 73
4
 74
0
 40
0
 40
0
 40
0
 40
0
 40
1
 40
1
 40
1
 40
1
 10
46.979250
 20
160.208844
 30
0.0
 10
46.764519
 20
163.048090
 30
0.0
 10
45.165616
 20
166.599891
 30
0.0
 10
42.931342
 20
169.200856
 30
0.0
  0
SPLINE
  5
3da
100
AcDbEntity
  8
0
 62
7
100
AcDbSpline
 70
8
 71
3
 72
8
 73
4
 74
0
 40
0
 40
0
 40
0
 40
0
 40
1
 40
1
 40
1
 40
1
 10
42.931342
 20
169.200856
 30
0.0
 10
41.821883
 20
170.492401
 30
0.0
 10
41.748276
 20
170.399742
 30
0.0
 10
40.938291
 20
166.691929
 30
0.0
  0
SPLINE
  5
3db
100
AcDbEntity
  8
0
 62
7
100
AcDbSpline
 70
8
 71
3
 72
8
 73
4
 74
0
 40
0
 40
0
 40
0
 40
0
 40
1
 40
1
 40
1
 40
1
 10
40.938291
 20
166.691929
 30
0.0
 10
40.069286
 20
162.713937
 30
0.0
 10
40.061092
 20
157.608963
 30
0.0
 10
40.918950
 20
154.638565
 30
0.0
  0
SPLINE
  5
3dc
100
AcDbEntity
  8
0
 62
7
100
AcDbSpline
 70
8
 71
3
 72
8
 73
4
 74
0
 40
0
 40
0
 40
0
 40
0
 40
1
 40
1
 40
1
 40
1
 10
40.918950
 20
154.638565
 30
0.0
 10
41.540957
 20
152.484799
 30
0.0
 10
43.235843
 20
148.938099
 30
0.0
 10
43.643068
 20
148.938099
 30
0.0
  0
SPLINE
  5
3dd
100
AcDbEntity
  8
0
 62
7
100
AcDbSpline
 70
8
 71
3
 72
8
 73
4
 74
0
 40
0
 40
0
 40
0
 40
0
 40
1
 40
1
 40
1
 40
1
 10
43.643068
 20
148.938099
 30
0.0
 10
43.767790
 20
148.938099
 30
0.0
 10
43.947884
 20
149.265521
 30
0.0
 10
44.043277
 20
149.665703
 30
0.0
  0
LWPOLYLINE
  5
3de
100
AcDbEntity
  8
0
 62
7
100
AcDbPolyline
 90
1
 70
1
 10
56.883546
 20
149.136537
 30
0.0
  0
SPLINE
  5
3df
100
AcDbEntity
  8
0
 62
7
100
AcDbSpline
 70
8
 71
3
 72
8
 73
4
 74
0
 40
0
 40
0
 40
0
 40
0
 40
1
 40
1
 40
1
 40
1
 10
95.303800
 20
150.724037
 30
0.0
 10
94.707498
 20
153.603624
 30
0.0
 10
93.938233
 20
155.729072
 30
0.0
 10
92.167633
 20
159.389141
 30
0.0
  0
SPLINE
  5
3e0
100
AcDbEntity
  8
0
 62
7
100
AcDbSpline
 70
8
 71
3
 72
8
 73
4
 74
0
 40
0
 40
0
 40
0
 40
0
 40
1
 40
1
 40
1
 40
1
 10
92.167633
 20
159.389141
 30
0.0
 10
89.219230
 20
165.483889
 30
0.0
 10
85.267578
 20
170.162696
 30
0.0
 10
81.503316
 20
172.015838
 30
0.0
  0
SPLINE
  5
3e1
100
AcDbEntity
  8
0
 62
7
100
AcDbSpline
 70
8
 71
3
 72
8
 73
4
 74
0
 40
0
 40
0
 40
0
 40
0
 40
1
 40
1
 40
1
 40
1
 10
81.503316
 20
172.015838
 30
0.0
 10
79.886315
 20
172.811884
 30
0.0
 10
79.535785
 20
172.882801
 30
0.0
 10
77.222977
 20
172.881782
 30
0.0
  0
SPLINE
  5
3e2
100
AcDbEntity
  8
0
 62
7
100
AcDbSpline
 70
8
 71
3
 72
8
 73
4
 74
0
 40
0
 40
0
 40
0
 40
0
 40
1
 40
1
 40
1
 40
1
 10
77.222977
 20
172.881782
 30
0.0
 10
75.019173
 20
172.880724
 30
0.0
 10
74.520496
 20
172.790670
 30
0.0
 10
73.238802
 20
172.161589
 30
0.0
  0
SPLINE
  5
3e3
100
AcDbEntity
  8
0
 62
7
100
AcDbSpline
 70
8
 71
3
 72
8
 73
4
 74
0
 40
0
 40
0
 40
0
 40
0
 40
1
 40
1
 40
1
 40
1
 10
73.238802
 20
172.161589
 30
0.0
 10
72.433013
 20
171.766095
 30
0.0
 10
71.272204
 20
171.013218
 30
0.0
 10
70.659223
 20
170.488531
 30
0.0
  0
SPLINE
  5
3e4
100
AcDbEntity
  8
0
 62
7
100
AcDbSpline
 70
8
 71
3
 72
8
 73
4
 74
0
 40
0
 40
0
 40
0
 40
0
 40
1
 40
1
 40
1
 40
1
 10
70.659223
 20
170.488531
 30
0.0
 10
69.387683
 20
169.400138
 30
0.0
 10
69.387495
 20
169.358059
 30
0.0
 10
70.640464
 20
166.313178
 30
0.0
  0
SPLINE
  5
3e5
100
AcDbEntity
  8
0
 62
7
100
AcDbSpline
 70
8
 71
3
 72
8
 73
4
 74
0
 40
0
 40
0
 40
0
 40
0
 40
1
 40
1
 40
1
 40
1
 10
70.640464
 20
166.313178
 30
0.0
 10
72.320192
 20
162.231184
 30
0.0
 10
75.218748
 20
158.632483
 30
0.0
 10
78.141047
 20
157.000834
 30
0.0
  0
SPLINE
  5
3e6
100
AcDbEntity
  8
0
 62
7
100
AcDbSpline
 70
8
 71
3
 72
8
 73
4
 74
0
 40
0
 40
0
 40
0
 40
0
 40
1
 40
1
 40
1
 40
1
 10
78.141047
 20
157.000834
 30
0.0
 10
79.015503
 20
156.512585
 30
0.0
 10
81.073556
 20
155.748577
 30
0.0
 10
82.714497
 20
155.303035
 30
0.0
  0
SPLINE
  5
3e7
100
AcDbEntity
  8
0
 62
7
100
AcDbSpline
 70
8
 71
3
 72
8
 73
4
 74
0
 40
0
 40
0
 40
0
 40
0
 40
1
 40
1
 40
1
 40
1
 10
82.714497
 20
155.303035
 30
0.0
 10
87.538007
 20
153.993376
 30
0.0
 10
90.534818
 20
152.596048
 30
0.0
 10
93.753884
 20
150.155680
 30
0.0
  0
SPLINE
  5
3e8
100
AcDbEntity
  8
0
 62
7
100
AcDbSpline
 70
8
 71
3
 72
8
 73
4
 74
0
 40
0
 40
0
 40
0
 40
0
 40
1
 40
1
 40
1
 40
1
 10
93.753884
 20
150.155680
 30
0.0
 10
94.627009
 20
149.493766
 30
0.0
 10
95.416142
 20
148.949026
 30
0.0
 10
95.507514
 20
148.945150
 30
0.0
  0
SPLINE
  5
3e9
100
AcDbEntity
  8
0
 62
7
100
AcDbSpline
 70
8
 71
3
 72
8
 73
4
 74
0
 40
0
 40
0
 40
0
 40
0
 40
1
 40
1
 40
1
 40
1
 10
95.507514
 20
148.945150
 30
0.0
 10
95.598885
 20
148.941261
 30
0.0
 10
95.507249
 20
149.741771
 30
0.0
 10
95.303814
 20
150.724037
 30
0.0
  0
LWPOLYLINE
  5
3ea
100
AcDbEntity
  8
0
 62
7
100
AcDbPolyline
 90
1
 70
1
 10
44.043277
 20
149.665703
 30
0.0
  0
SPLINE
  5
3eb
100
AcDbEntity
  8
0
 62
7
100
AcDbSpline
 70
8
 71
3
 72
8
 73
4
 74
0
 40
0
 40
0
 40
0
 40
0
 40
1
 40
1
 40
1
 40
1
 10
70.540459
 20
150.147197
 30
0.0
 10
71.694307
 20
150.722184
 30
0.0
 10
72.018131
 20
151.058560
 30
0.0
 10
72.638518
 20
152.326586
 30
0.0
  0
SPLINE
  5
3ec
100
AcDbEntity
  8
0
 62
7
100
AcDbSpline
 70
8
 71
3
 72
8
 73
4
 74
0
 40
0
 40
0
 40
0
 40
0
 40
1
 40
1
 40
1
 40
1
 10
72.638518
 20
152.326586
 30
0.0
 10
74.103296
 20
155.320481
 30
0.0
 10
73.379716
 20
158.228514
 30
0.0
 10
70.438047
 20
161.170183
 30
0.0
  0
LWPOLYLINE
  5
3ed
100
AcDbEntity
  8
0
 62
7
100
AcDbPolyline
 90
1
 70
1
 10
95.303814
 20
150.724037
 30
0.0
  0
SPLINE
  5
3ee
100
AcDbEntity
  8
0
 62
7
100
AcDbSpline
 70
8
 71
3
 72
8
 73
4
 74
0
 40
0
 40
0
 40
0
 40
0
 40
1
 40
1
 40
1
 40
1
 10
67.938843
 20
162.125271
 30
0.0
 10
66.526325
 20
161.331391
 30
0.0
 10
64.695025
 20
159.500427
 30
0.0
 10
64.113603
 20
158.300730
 30
0.0
  0
SPLINE
  5
3ef
100
AcDbEntity
  8
0
 62
7
100
AcDbSpline
 70
8
 71
3
 72
8
 73
4
 74
0
 40
0
 40
0
 40
0
 40
0
 40
1
 40
1
 40
1
 40
1
 10
64.113603
 20
158.300730
 30
0.0
 10
62.685517
 20
155.354036
 30
0.0
 10
64.496042
 20
150.959921
 30
0.0
 10
67.593133
 20
149.855968
 30
0.0
  0
SPLINE
  5
3f0
100
AcDbEntity
  8
0
 62
7
100
AcDbSpline
 70
8
 71
3
 72
8
 73
4
 74
0
 40
0
 40
0
 40
0
 40
0
 40
1
 40
1
 40
1
 40
1
 10
67.593133
 20
149.855968
 30
0.0
 10
68.965453
 20
149.366806
 30
0.0
 10
68.976632
 20
149.367909
 30
0.0
 10
70.540459
 20
150.147197
 30
0.0
  0
LWPOLYLINE
  5
3f1
100
AcDbEntity
  8
0
 62
7
100
AcDbPolyline
 90
3
 70
0
 10
70.438047
 20
161.170183
 30
0.0
 10
68.927374
 20
162.680856
 30
0.0
 10
67.938843
 20
162.125271
 30
0.0
  0
LWPOLYLINE
  5
3f2
100
AcDbEntity
  8
0
 62
7
100
AcDbPolyline
 90
1
 70
1
 10
70.540459
 20
150.147197
 30
0.0
  0
SPLINE
  5
3f3
100
AcDbEntity
  8
0
 62
7
100
AcDbSpline
 70
8
 71
3
 72
8
 73
4
 74
0
 40
0
 40
0
 40
0
 40
0
 40
1
 40
1
 40
1
 40
1
 10
36.231325
 20
154.406087
 30
0.0
 10
34.313191
 20
160.708949
 30
0.0
 10
30.709246
 20
162.446938
 30
0.0
 10
24.206282
 20
160.205124
 30
0.0
  0
SPLINE
  5
3f4
100
AcDbEntity
  8
0
 62
7
100
AcDbSpline
 70
8
 71
3
 72
8
 73
4
 74
0
 40
0
 40
0
 40
0
 40
0
 40
1
 40
1
 40
1
 40
1
 10
24.206282
 20
160.205124
 30
0.0
 10
22.771878
 20
159.710631
 30
0.0
 10
21.475089
 20
159.182858
 30
0.0
 10
21.324527
 20
159.032295
 30
0.0
  0
SPLINE
  5
3f5
100
AcDbEntity
  8
0
 62
7
100
AcDbSpline
 70
8
 71
3
 72
8
 73
4
 74
0
 40
0
 40
0
 40
0
 40
0
 40
1
 40
1
 40
1
 40
1
 10
21.324527
 20
159.032295
 30
0.0
 10
21.135917
 20
158.843686
 30
0.0
 10
21.319897
 20
158.339171
 30
0.0
 10
21.916056
 20
157.410124
 30
0.0
  0
SPLINE
  5
3f6
100
AcDbEntity
  8
0
 62
7
100
AcDbSpline
 70
8
 71
3
 72
8
 73
4
 74
0
 40
0
 40
0
 40
0
 40
0
 40
1
 40
1
 40
1
 40
1
 10
21.916056
 20
157.410124
 30
0.0
 10
22.391962
 20
156.668491
 30
0.0
 10
23.104446
 20
155.262561
 30
0.0
 10
23.499355
 20
154.285836
 30
0.0
  0
LWPOLYLINE
  5
3f7
100
AcDbEntity
  8
0
 62
7
100
AcDbPolyline
 90
3
 70
0
 10
34.961433
 20
152.048551
 30
0.0
 10
36.701045
 20
152.862613
 30
0.0
 10
36.231325
 20
154.406087
 30
0.0
  0
SPLINE
  5
3f8
100
AcDbEntity
  8
0
 62
7
100
AcDbSpline
 70
8
 71
3
 72
8
 73
4
 74
0
 40
0
 40
0
 40
0
 40
0
 40
1
 40
1
 40
1
 40
1
 10
26.044996
 20
152.354875
 30
0.0
 10
27.050190
 20
152.269571
 30
0.0
 10
28.527465
 20
151.944438
 30
0.0
 10
29.327830
 20
151.632359
 30
0.0
  0
SPLINE
  5
3f9
100
AcDbEntity
  8
0
 62
7
100
AcDbSpline
 70
8
 71
3
 72
8
 73
4
 74
0
 40
0
 40
0
 40
0
 40
0
 40
1
 40
1
 40
1
 40
1
 10
29.327830
 20
151.632359
 30
0.0
 10
31.218857
 20
150.895010
 30
0.0
 10
32.735861
 20
151.007080
 30
0.0
 10
34.961433
 20
152.048551
 30
0.0
  0
LWPOLYLINE
  5
3fa
100
AcDbEntity
  8
0
 62
7
100
AcDbPolyline
 90
3
 70
0
 10
23.499355
 20
154.285836
 30
0.0
 10
24.217370
 20
152.509974
 30
0.0
 10
26.044996
 20
152.354875
 30
0.0
  0
SPLINE
  5
3fb
100
AcDbEntity
  8
0
 62
7
100
AcDbSpline
 70
8
 71
3
 72
8
 73
4
 74
0
 40
0
 40
0
 40
0
 40
0
 40
1
 40
1
 40
1
 40
1
 10
125.063946
 20
154.842445
 30
0.0
 10
128.706957
 20
156.725464
 30
0.0
 10
132.721773
 20
160.573664
 30
0.0
 10
134.043962
 20
163.449794
 30
0.0
  0
SPLINE
  5
3fc
100
AcDbEntity
  8
0
 62
7
100
AcDbSpline
 70
8
 71
3
 72
8
 73
4
 74
0
 40
0
 40
0
 40
0
 40
0
 40
1
 40
1
 40
1
 40
1
 10
134.043962
 20
163.449794
 30
0.0
 10
134.811193
 20
165.118732
 30
0.0
 10
134.767442
 20
167.101906
 30
0.0
 10
133.942974
 20
168.027297
 30
0.0
  0
SPLINE
  5
3fd
100
AcDbEntity
  8
0
 62
7
100
AcDbSpline
 70
8
 71
3
 72
8
 73
4
 74
0
 40
0
 40
0
 40
0
 40
0
 40
1
 40
1
 40
1
 40
1
 10
133.942974
 20
168.027297
 30
0.0
 10
132.270227
 20
169.904802
 30
0.0
 10
128.096780
 20
169.723557
 30
0.0
 10
123.542978
 20
167.575645
 30
0.0
  0
SPLINE
  5
3fe
100
AcDbEntity
  8
0
 62
7
100
AcDbSpline
 70
8
 71
3
 72
8
 73
4
 74
0
 40
0
 40
0
 40
0
 40
0
 40
1
 40
1
 40
1
 40
1
 10
123.542978
 20
167.575645
 30
0.0
 10
120.822548
 20
166.292490
 30
0.0
 10
118.724119
 20
164.728586
 30
0.0
 10
116.219208
 20
162.117434
 30
0.0
  0
SPLINE
  5
3ff
100
AcDbEntity
  8
0
 62
7
100
AcDbSpline
 70
8
 71
3
 72
8
 73
4
 74
0
 40
0
 40
0
 40
0
 40
0
 40
1
 40
1
 40
1
 40
1
 10
116.219208
 20
162.117434
 30
0.0
 10
114.206279
 20
160.019127
 30
0.0
 10
111.220978
 20
156.121338
 30
0.0
 10
111.450803
 20
155.891516
 30
0.0
  0
SPLINE
  5
400
100
AcDbEntity
  8
0
 62
7
100
AcDbSpline
 70
8
 71
3
 72
8
 73
4
 74
0
 40
0
 40
0
 40
0
 40
0
 40
1
 40
1
 40
1
 40
1
 10
111.450803
 20
155.891516
 30
0.0
 10
111.508162
 20
155.834157
 30
0.0
 10
112.798535
 20
155.927145
 30
0.0
 10
114.318296
 20
156.098155
 30
0.0
  0
SPLINE
  5
401
100
AcDbEntity
  8
0
 62
7
100
AcDbSpline
 70
8
 71
3
 72
8
 73
4
 74
0
 40
0
 40
0
 40
0
 40
0
 40
1
 40
1
 40
1
 40
1
 10
114.318296
 20
156.098155
 30
0.0
 10
118.139059
 20
156.528087
 30
0.0
 10
120.636702
 20
156.124714
 30
0.0
 10
121.790132
 20
154.891441
 30
0.0
  0
SPLINE
  5
402
100
AcDbEntity
  8
0
 62
7
100
AcDbSpline
 70
8
 71
3
 72
8
 73
4
 74
0
 40
0
 40
0
 40
0
 40
0
 40
1
 40
1
 40
1
 40
1
 10
121.790132
 20
154.891441
 30
0.0
 10
122.231960
 20
154.419033
 30
0.0
 10
122.772048
 20
154.019745
 30
0.0
 10
122.990330
 20
154.004140
 30
0.0
  0
SPLINE
  5
403
100
AcDbEntity
  8
0
 62
7
100
AcDbSpline
 70
8
 71
3
 72
8
 73
4
 74
0
 40
0
 40
0
 40
0
 40
0
 40
1
 40
1
 40
1
 40
1
 10
122.990330
 20
154.004140
 30
0.0
 10
123.208611
 20
153.988529
 30
0.0
 10
124.141738
 20
154.365772
 30
0.0
 10
125.063946
 20
154.842445
 30
0.0
  0
LWPOLYLINE
  5
404
100
AcDbEntity
  8
0
 62
7
100
AcDbPolyline
 90
1
 70
1
 10
34.961433
 20
152.048551
 30
0.0
  0
SPLINE
  5
405
100
AcDbEntity
  8
0
 62
7
100
AcDbSpline
 70
8
 71
3
 72
8
 73
4
 74
0
 40
0
 40
0
 40
0
 40
0
 40
1
 40
1
 40
1
 40
1
 10
37.707054
 20
170.104766
 30
0.0
 10
37.510977
 20
179.259846
 30
0.0
 10
35.918585
 20
184.630145
 30
0.0
 10
32.173873
 20
188.765278
 30
0.0
  0
SPLINE
  5
406
100
AcDbEntity
  8
0
 62
7
100
AcDbSpline
 70
8
 71
3
 72
8
 73
4
 74
0
 40
0
 40
0
 40
0
 40
0
 40
1
 40
1
 40
1
 40
1
 10
32.173873
 20
188.765278
 30
0.0
 10
30.025136
 20
191.138040
 30
0.0
 10
28.422875
 20
191.497522
 30
0.0
 10
27.084615
 20
189.907090
 30
0.0
  0
SPLINE
  5
407
100
AcDbEntity
  8
0
 62
7
100
AcDbSpline
 70
8
 71
3
 72
8
 73
4
 74
0
 40
0
 40
0
 40
0
 40
0
 40
1
 40
1
 40
1
 40
1
 10
27.084615
 20
189.907090
 30
0.0
 10
25.780791
 20
188.357584
 30
0.0
 10
24.703622
 20
182.888303
 30
0.0
 10
24.904176
 20
178.836016
 30
0.0
  0
SPLINE
  5
408
100
AcDbEntity
  8
0
 62
7
100
AcDbSpline
 70
8
 71
3
 72
8
 73
4
 74
0
 40
0
 40
0
 40
0
 40
0
 40
1
 40
1
 40
1
 40
1
 10
24.904176
 20
178.836016
 30
0.0
 10
25.118226
 20
174.511076
 30
0.0
 10
26.602484
 20
171.803714
 30
0.0
 10
30.386163
 20
168.836594
 30
0.0
  0
SPLINE
  5
409
100
AcDbEntity
  8
0
 62
7
100
AcDbSpline
 70
8
 71
3
 72
8
 73
4
 74
0
 40
0
 40
0
 40
0
 40
0
 40
1
 40
1
 40
1
 40
1
 10
30.386163
 20
168.836594
 30
0.0
 10
32.942580
 20
166.831878
 30
0.0
 10
35.467674
 20
164.117451
 30
0.0
 10
36.545795
 20
162.215105
 30
0.0
  0
LWPOLYLINE
  5
40a
100
AcDbEntity
  8
0
 62
7
100
AcDbPolyline
 90
1
 70
1
 10
125.063946
 20
154.842445
 30
0.0
  0
SPLINE
  5
40b
100
AcDbEntity
  8
0
 62
7
100
AcDbSpline
 70
8
 71
3
 72
8
 73
4
 74
0
 40
0
 40
0
 40
0
 40
0
 40
1
 40
1
 40
1
 40
1
 10
37.607589
 20
162.828724
 30
0.0
 10
37.723072
 20
163.992891
 30
0.0
 10
37.767831
 20
167.267109
 30
0.0
 10
37.707054
 20
170.104766
 30
0.0
  0
LWPOLYLINE
  5
40c
100
AcDbEntity
  8
0
 62
7
100
AcDbPolyline
 90
3
 70
0
 10
36.545795
 20
162.215105
 30
0.0
 10
37.397621
 20
160.712057
 30
0.0
 10
37.607589
 20
162.828724
 30
0.0
  0
SPLINE
  5
40d
100
AcDbEntity
  8
0
 62
7
100
AcDbSpline
 70
8
 71
3
 72
8
 73
4
 74
0
 40
0
 40
0
 40
0
 40
0
 40
1
 40
1
 40
1
 40
1
 10
22.687301
 20
163.481089
 30
0.0
 10
24.348588
 20
163.721232
 30
0.0
 10
27.215526
 20
164.711592
 30
0.0
 10
27.206673
 20
165.042265
 30
0.0
  0
SPLINE
  5
40e
100
AcDbEntity
  8
0
 62
7
100
AcDbSpline
 70
8
 71
3
 72
8
 73
4
 74
0
 40
0
 40
0
 40
0
 40
0
 40
1
 40
1
 40
1
 40
1
 10
27.206673
 20
165.042265
 30
0.0
 10
27.204292
 20
165.134504
 30
0.0
 10
26.386729
 20
165.649968
 30
0.0
 10
25.390067
 20
166.187742
 30
0.0
  0
SPLINE
  5
40f
100
AcDbEntity
  8
0
 62
7
100
AcDbSpline
 70
8
 71
3
 72
8
 73
4
 74
0
 40
0
 40
0
 40
0
 40
0
 40
1
 40
1
 40
1
 40
1
 10
25.390067
 20
166.187742
 30
0.0
 10
22.954588
 20
167.501861
 30
0.0
 10
19.882992
 20
169.980507
 30
0.0
 10
18.352227
 20
171.866978
 30
0.0
  0
SPLINE
  5
410
100
AcDbEntity
  8
0
 62
7
100
AcDbSpline
 70
8
 71
3
 72
8
 73
4
 74
0
 40
0
 40
0
 40
0
 40
0
 40
1
 40
1
 40
1
 40
1
 10
18.352227
 20
171.866978
 30
0.0
 10
17.662666
 20
172.716772
 30
0.0
 10
17.014618
 20
173.444400
 30
0.0
 10
16.912120
 20
173.483931
 30
0.0
  0
SPLINE
  5
411
100
AcDbEntity
  8
0
 62
7
100
AcDbSpline
 70
8
 71
3
 72
8
 73
4
 74
0
 40
0
 40
0
 40
0
 40
0
 40
1
 40
1
 40
1
 40
1
 10
16.912120
 20
173.483931
 30
0.0
 10
16.610448
 20
173.600274
 30
0.0
 10
15.059193
 20
171.283096
 30
0.0
 10
14.636260
 20
170.084374
 30
0.0
  0
SPLINE
  5
412
100
AcDbEntity
  8
0
 62
7
100
AcDbSpline
 70
8
 71
3
 72
8
 73
4
 74
0
 40
0
 40
0
 40
0
 40
0
 40
1
 40
1
 40
1
 40
1
 10
14.636260
 20
170.084374
 30
0.0
 10
13.296124
 20
166.286024
 30
0.0
 10
15.657512
 20
163.583117
 30
0.0
 10
20.596579
 20
163.262040
 30
0.0
  0
SPLINE
  5
413
100
AcDbEntity
  8
0
 62
7
100
AcDbSpline
 70
8
 71
3
 72
8
 73
4
 74
0
 40
0
 40
0
 40
0
 40
0
 40
1
 40
1
 40
1
 40
1
 10
20.596579
 20
163.262040
 30
0.0
 10
20.814861
 20
163.247858
 30
0.0
 10
21.755684
 20
163.346421
 30
0.0
 10
22.687301
 20
163.481089
 30
0.0
  0
LWPOLYLINE
  5
414
100
AcDbEntity
  8
0
 62
7
100
AcDbPolyline
 90
1
 70
1
 10
37.707054
 20
170.104766
 30
0.0
  0
SPLINE
  5
415
100
AcDbEntity
  8
0
 62
7
100
AcDbSpline
 70
8
 71
3
 72
8
 73
4
 74
0
 40
0
 40
0
 40
0
 40
0
 40
1
 40
1
 40
1
 40
1
 10
49.305840
 20
166.139826
 30
0.0
 10
49.532680
 20
166.578481
 30
0.0
 10
50.802902
 20
168.371115
 30
0.0
 10
52.128558
 20
170.123453
 30
0.0
  0
SPLINE
  5
416
100
AcDbEntity
  8
0
 62
7
100
AcDbSpline
 70
8
 71
3
 72
8
 73
4
 74
0
 40
0
 40
0
 40
0
 40
0
 40
1
 40
1
 40
1
 40
1
 10
52.128558
 20
170.123453
 30
0.0
 10
54.453838
 20
173.197160
 30
0.0
 10
54.538615
 20
173.357990
 30
0.0
 10
54.532432
 20
174.683708
 30
0.0
  0
SPLINE
  5
417
100
AcDbEntity
  8
0
 62
7
100
AcDbSpline
 70
8
 71
3
 72
8
 73
4
 74
0
 40
0
 40
0
 40
0
 40
0
 40
1
 40
1
 40
1
 40
1
 10
54.532432
 20
174.683708
 30
0.0
 10
54.521108
 20
177.109414
 30
0.0
 10
52.892743
 20
180.233672
 30
0.0
 10
49.940869
 20
183.493233
 30
0.0
  0
LWPOLYLINE
  5
418
100
AcDbEntity
  8
0
 62
7
100
AcDbPolyline
 90
1
 70
1
 10
22.687301
 20
163.481089
 30
0.0
  0
SPLINE
  5
419
100
AcDbEntity
  8
0
 62
7
100
AcDbSpline
 70
8
 71
3
 72
8
 73
4
 74
0
 40
0
 40
0
 40
0
 40
0
 40
1
 40
1
 40
1
 40
1
 10
47.128409
 20
183.635896
 30
0.0
 10
45.194228
 20
182.022829
 30
0.0
 10
43.867673
 20
180.551460
 30
0.0
 10
42.976414
 20
179.030643
 30
0.0
  0
SPLINE
  5
41a
100
AcDbEntity
  8
0
 62
7
100
AcDbSpline
 70
8
 71
3
 72
8
 73
4
 74
0
 40
0
 40
0
 40
0
 40
0
 40
1
 40
1
 40
1
 40
1
 10
42.976414
 20
179.030643
 30
0.0
 10
42.348454
 20
177.959112
 30
0.0
 10
42.303885
 20
177.717868
 30
0.0
 10
42.542598
 20
176.682569
 30
0.0
  0
SPLINE
  5
41b
100
AcDbEntity
  8
0
 62
7
100
AcDbSpline
 70
8
 71
3
 72
8
 73
4
 74
0
 40
0
 40
0
 40
0
 40
0
 40
1
 40
1
 40
1
 40
1
 10
42.542598
 20
176.682569
 30
0.0
 10
42.688923
 20
176.047956
 30
0.0
 10
42.811554
 20
174.910861
 30
0.0
 10
42.815110
 20
174.155698
 30
0.0
  0
SPLINE
  5
41c
100
AcDbEntity
  8
0
 62
7
100
AcDbSpline
 70
8
 71
3
 72
8
 73
4
 74
0
 40
0
 40
0
 40
0
 40
0
 40
1
 40
1
 40
1
 40
1
 10
42.815110
 20
174.155698
 30
0.0
 10
42.821487
 20
172.800073
 30
0.0
 10
42.847570
 20
172.756475
 30
0.0
 10
44.872100
 20
170.716115
 30
0.0
  0
SPLINE
  5
41d
100
AcDbEntity
  8
0
 62
7
100
AcDbSpline
 70
8
 71
3
 72
8
 73
4
 74
0
 40
0
 40
0
 40
0
 40
0
 40
1
 40
1
 40
1
 40
1
 10
44.872100
 20
170.716115
 30
0.0
 10
45.999887
 20
169.579507
 30
0.0
 10
47.339340
 20
167.908957
 30
0.0
 10
47.848663
 20
167.003780
 30
0.0
  0
SPLINE
  5
41e
100
AcDbEntity
  8
0
 62
7
100
AcDbSpline
 70
8
 71
3
 72
8
 73
4
 74
0
 40
0
 40
0
 40
0
 40
0
 40
1
 40
1
 40
1
 40
1
 10
47.848663
 20
167.003780
 30
0.0
 10
48.357986
 20
166.098604
 30
0.0
 10
48.801412
 20
165.354463
 30
0.0
 10
48.834056
 20
165.350134
 30
0.0
  0
SPLINE
  5
41f
100
AcDbEntity
  8
0
 62
7
100
AcDbSpline
 70
8
 71
3
 72
8
 73
4
 74
0
 40
0
 40
0
 40
0
 40
0
 40
1
 40
1
 40
1
 40
1
 10
48.834056
 20
165.350134
 30
0.0
 10
48.866700
 20
165.345795
 30
0.0
 10
49.079002
 20
165.701168
 30
0.0
 10
49.305840
 20
166.139826
 30
0.0
  0
LWPOLYLINE
  5
420
100
AcDbEntity
  8
0
 62
7
100
AcDbPolyline
 90
3
 70
0
 10
49.940869
 20
183.493233
 30
0.0
 10
48.657113
 20
184.910804
 30
0.0
 10
47.128409
 20
183.635896
 30
0.0
  0
SPLINE
  5
421
100
AcDbEntity
  8
0
 62
7
100
AcDbSpline
 70
8
 71
3
 72
8
 73
4
 74
0
 40
0
 40
0
 40
0
 40
0
 40
1
 40
1
 40
1
 40
1
 10
64.436839
 20
165.738942
 30
0.0
 10
65.013594
 20
166.142919
 30
0.0
 10
66.107469
 20
167.728059
 30
0.0
 10
66.101778
 20
168.151619
 30
0.0
  0
SPLINE
  5
422
100
AcDbEntity
  8
0
 62
7
100
AcDbSpline
 70
8
 71
3
 72
8
 73
4
 74
0
 40
0
 40
0
 40
0
 40
0
 40
1
 40
1
 40
1
 40
1
 10
66.101778
 20
168.151619
 30
0.0
 10
66.093020
 20
168.802907
 30
0.0
 10
61.610729
 20
171.255026
 30
0.0
 10
61.192839
 20
170.837138
 30
0.0
  0
SPLINE
  5
423
100
AcDbEntity
  8
0
 62
7
100
AcDbSpline
 70
8
 71
3
 72
8
 73
4
 74
0
 40
0
 40
0
 40
0
 40
0
 40
1
 40
1
 40
1
 40
1
 10
61.192839
 20
170.837138
 30
0.0
 10
60.930319
 20
170.574615
 30
0.0
 10
62.091004
 20
166.359874
 30
0.0
 10
62.572268
 20
165.828083
 30
0.0
  0
SPLINE
  5
424
100
AcDbEntity
  8
0
 62
7
100
AcDbSpline
 70
8
 71
3
 72
8
 73
4
 74
0
 40
0
 40
0
 40
0
 40
0
 40
1
 40
1
 40
1
 40
1
 10
62.572268
 20
165.828083
 30
0.0
 10
63.105702
 20
165.238647
 30
0.0
 10
63.683153
 20
165.211040
 30
0.0
 10
64.436839
 20
165.738942
 30
0.0
  0
LWPOLYLINE
  5
425
100
AcDbEntity
  8
0
 62
7
100
AcDbPolyline
 90
1
 70
1
 10
49.305840
 20
166.139826
 30
0.0
  0
SPLINE
  5
426
100
AcDbEntity
  8
0
 62
7
100
AcDbSpline
 70
8
 71
3
 72
8
 73
4
 74
0
 40
0
 40
0
 40
0
 40
0
 40
1
 40
1
 40
1
 40
1
 10
117.049121
 20
171.163099
 30
0.0
 10
120.531673
 20
175.767767
 30
0.0
 10
121.588501
 20
179.090955
 30
0.0
 10
120.816489
 20
183.009574
 30
0.0
  0
SPLINE
  5
427
100
AcDbEntity
  8
0
 62
7
100
AcDbSpline
 70
8
 71
3
 72
8
 73
4
 74
0
 40
0
 40
0
 40
0
 40
0
 40
1
 40
1
 40
1
 40
1
 10
120.816489
 20
183.009574
 30
0.0
 10
120.424763
 20
184.997931
 30
0.0
 10
119.149061
 20
188.361016
 30
0.0
 10
118.786555
 20
188.361016
 30
0.0
  0
SPLINE
  5
428
100
AcDbEntity
  8
0
 62
7
100
AcDbSpline
 70
8
 71
3
 72
8
 73
4
 74
0
 40
0
 40
0
 40
0
 40
0
 40
1
 40
1
 40
1
 40
1
 10
118.786555
 20
188.361016
 30
0.0
 10
118.697036
 20
188.361016
 30
0.0
 10
118.326345
 20
187.799655
 30
0.0
 10
117.962791
 20
187.113548
 30
0.0
  0
SPLINE
  5
429
100
AcDbEntity
  8
0
 62
7
100
AcDbSpline
 70
8
 71
3
 72
8
 73
4
 74
0
 40
0
 40
0
 40
0
 40
0
 40
1
 40
1
 40
1
 40
1
 10
117.962791
 20
187.113548
 30
0.0
 10
117.365365
 20
185.986065
 30
0.0
 10
116.199563
 20
184.189132
 30
0.0
 10
113.021692
 20
179.497474
 30
0.0
  0
SPLINE
  5
42a
100
AcDbEntity
  8
0
 62
7
100
AcDbSpline
 70
8
 71
3
 72
8
 73
4
 74
0
 40
0
 40
0
 40
0
 40
0
 40
1
 40
1
 40
1
 40
1
 10
113.021692
 20
179.497474
 30
0.0
 10
110.496403
 20
175.769257
 30
0.0
 10
110.035054
 20
172.041288
 30
0.0
 10
111.406329
 20
166.444438
 30
0.0
  0
LWPOLYLINE
  5
42b
100
AcDbEntity
  8
0
 62
7
100
AcDbPolyline
 90
1
 70
1
 10
64.436839
 20
165.738942
 30
0.0
  0
SPLINE
  5
42c
100
AcDbEntity
  8
0
 62
7
100
AcDbSpline
 70
8
 71
3
 72
8
 73
4
 74
0
 40
0
 40
0
 40
0
 40
0
 40
1
 40
1
 40
1
 40
1
 10
113.517757
 20
167.105896
 30
0.0
 10
114.524510
 20
168.100431
 30
0.0
 10
116.113623
 20
169.926172
 30
0.0
 10
117.049121
 20
171.163099
 30
0.0
  0
LWPOLYLINE
  5
42d
100
AcDbEntity
  8
0
 62
7
100
AcDbPolyline
 90
3
 70
0
 10
111.406329
 20
166.444438
 30
0.0
 10
111.687300
 20
165.297652
 30
0.0
 10
113.517757
 20
167.105896
 30
0.0
  0
LWPOLYLINE
  5
42e
100
AcDbEntity
  8
0
 62
7
100
AcDbPolyline
 90
1
 70
1
 10
117.049121
 20
171.163099
 30
0.0
  0
SPLINE
  5
42f
100
AcDbEntity
  8
0
 62
7
100
AcDbSpline
 70
8
 71
3
 72
8
 73
4
 74
0
 40
0
 40
0
 40
0
 40
0
 40
1
 40
1
 40
1
 40
1
 10
143.280307
 20
188.710948
 30
0.0
 10
141.594824
 20
187.383100
 30
0.0
 10
139.743114
 20
184.685289
 30
0.0
 10
138.073358
 20
181.124781
 30
0.0
  0
SPLINE
  5
430
100
AcDbEntity
  8
0
 62
7
100
AcDbSpline
 70
8
 71
3
 72
8
 73
4
 74
0
 40
0
 40
0
 40
0
 40
0
 40
1
 40
1
 40
1
 40
1
 10
138.073358
 20
181.124781
 30
0.0
 10
136.912630
 20
178.649704
 30
0.0
 10
134.896580
 20
173.087461
 30
0.0
 10
134.896580
 20
172.360114
 30
0.0
  0
SPLINE
  5
431
100
AcDbEntity
  8
0
 62
7
100
AcDbSpline
 70
8
 71
3
 72
8
 73
4
 74
0
 40
0
 40
0
 40
0
 40
0
 40
1
 40
1
 40
1
 40
1
 10
134.896580
 20
172.360114
 30
0.0
 10
134.896580
 20
172.189050
 30
0.0
 10
135.209994
 20
171.760446
 30
0.0
 10
135.593055
 20
171.407656
 30
0.0
  0
SPLINE
  5
432
100
AcDbEntity
  8
0
 62
7
100
AcDbSpline
 70
8
 71
3
 72
8
 73
4
 74
0
 40
0
 40
0
 40
0
 40
0
 40
1
 40
1
 40
1
 40
1
 10
135.593055
 20
171.407656
 30
0.0
 10
136.480037
 20
170.590771
 30
0.0
 10
137.536470
 20
168.364207
 30
0.0
 10
137.539828
 20
167.304593
 30
0.0
  0
SPLINE
  5
433
100
AcDbEntity
  8
0
 62
7
100
AcDbSpline
 70
8
 71
3
 72
8
 73
4
 74
0
 40
0
 40
0
 40
0
 40
0
 40
1
 40
1
 40
1
 40
1
 10
137.539828
 20
167.304593
 30
0.0
 10
137.541151
 20
166.855902
 30
0.0
 10
137.612752
 20
166.418456
 30
0.0
 10
137.698721
 20
166.332485
 30
0.0
  0
SPLINE
  5
434
100
AcDbEntity
  8
0
 62
7
100
AcDbSpline
 70
8
 71
3
 72
8
 73
4
 74
0
 40
0
 40
0
 40
0
 40
0
 40
1
 40
1
 40
1
 40
1
 10
137.698721
 20
166.332485
 30
0.0
 10
137.784692
 20
166.246516
 30
0.0
 10
138.401044
 20
166.592956
 30
0.0
 10
139.068392
 20
167.102356
 30
0.0
  0
SPLINE
  5
435
100
AcDbEntity
  8
0
 62
7
100
AcDbSpline
 70
8
 71
3
 72
8
 73
4
 74
0
 40
0
 40
0
 40
0
 40
0
 40
1
 40
1
 40
1
 40
1
 10
139.068392
 20
167.102356
 30
0.0
 10
139.735743
 20
167.611756
 30
0.0
 10
141.094153
 20
168.437653
 30
0.0
 10
142.087084
 20
168.937686
 30
0.0
  0
LWPOLYLINE
  5
436
100
AcDbEntity
  8
0
 62
7
100
AcDbPolyline
 90
5
 70
0
 10
142.087084
 20
168.937686
 30
0.0
 10
143.892413
 20
169.846834
 30
0.0
 10
143.892413
 20
179.520003
 30
0.0
 10
143.892413
 20
189.193173
 30
0.0
 10
143.280307
 20
188.710948
 30
0.0
  0
SPLINE
  5
437
100
AcDbEntity
  8
0
 62
7
100
AcDbSpline
 70
8
 71
3
 72
8
 73
4
 74
0
 40
0
 40
0
 40
0
 40
0
 40
1
 40
1
 40
1
 40
1
 10
10.140831
 20
169.691145
 30
0.0
 10
13.102819
 20
171.426984
 30
0.0
 10
13.207694
 20
175.429849
 30
0.0
 10
10.373786
 20
178.582542
 30
0.0
  0
SPLINE
  5
438
100
AcDbEntity
  8
0
 62
7
100
AcDbSpline
 70
8
 71
3
 72
8
 73
4
 74
0
 40
0
 40
0
 40
0
 40
0
 40
1
 40
1
 40
1
 40
1
 10
10.373786
 20
178.582542
 30
0.0
 10
9.425070
 20
179.637978
 30
0.0
 10
6.512644
 20
181.746432
 30
0.0
 10
6.003476
 20
181.746432
 30
0.0
  0
SPLINE
  5
439
100
AcDbEntity
  8
0
 62
7
100
AcDbSpline
 70
8
 71
3
 72
8
 73
4
 74
0
 40
0
 40
0
 40
0
 40
0
 40
1
 40
1
 40
1
 40
1
 10
6.003476
 20
181.746432
 30
0.0
 10
5.727451
 20
181.746432
 30
0.0
 10
5.702878
 20
169.213363
 30
0.0
 10
5.978351
 20
168.931807
 30
0.0
  0
SPLINE
  5
43a
100
AcDbEntity
  8
0
 62
7
100
AcDbSpline
 70
8
 71
3
 72
8
 73
4
 74
0
 40
0
 40
0
 40
0
 40
0
 40
1
 40
1
 40
1
 40
1
 10
5.978351
 20
168.931807
 30
0.0
 10
6.341555
 20
168.560578
 30
0.0
 10
9.056917
 20
169.055928
 30
0.0
 10
10.140832
 20
169.691145
 30
0.0
  0
LWPOLYLINE
  5
43b
100
AcDbEntity
  8
0
 62
7
100
AcDbPolyline
 90
1
 70
1
 10
142.087084
 20
168.937686
 30
0.0
  0
SPLINE
  5
43c
100
AcDbEntity
  8
0
 62
7
100
AcDbSpline
 70
8
 71
3
 72
8
 73
4
 74
0
 40
0
 40
0
 40
0
 40
0
 40
1
 40
1
 40
1
 40
1
 10
127.662742
 20
172.606658
 30
0.0
 10
129.324402
 20
173.130819
 30
0.0
 10
130.006267
 20
173.497973
 30
0.0
 10
130.623384
 20
174.200831
 30
0.0
  0
SPLINE
  5
43d
100
AcDbEntity
  8
0
 62
7
100
AcDbSpline
 70
8
 71
3
 72
8
 73
4
 74
0
 40
0
 40
0
 40
0
 40
0
 40
1
 40
1
 40
1
 40
1
 10
130.623384
 20
174.200831
 30
0.0
 10
131.812009
 20
175.554600
 30
0.0
 10
133.387288
 20
177.948828
 30
0.0
 10
134.369426
 20
179.894349
 30
0.0
  0
SPLINE
  5
43e
100
AcDbEntity
  8
0
 62
7
100
AcDbSpline
 70
8
 71
3
 72
8
 73
4
 74
0
 40
0
 40
0
 40
0
 40
0
 40
1
 40
1
 40
1
 40
1
 10
134.369426
 20
179.894349
 30
0.0
 10
135.290377
 20
181.718662
 30
0.0
 10
136.825135
 20
185.991489
 30
0.0
 10
136.629669
 20
186.186953
 30
0.0
  0
SPLINE
  5
43f
100
AcDbEntity
  8
0
 62
7
100
AcDbSpline
 70
8
 71
3
 72
8
 73
4
 74
0
 40
0
 40
0
 40
0
 40
0
 40
1
 40
1
 40
1
 40
1
 10
136.629669
 20
186.186953
 30
0.0
 10
136.565762
 20
186.250863
 30
0.0
 10
135.346001
 20
185.536708
 30
0.0
 10
133.919090
 20
184.599942
 30
0.0
  0
SPLINE
  5
440
100
AcDbEntity
  8
0
 62
7
100
AcDbSpline
 70
8
 71
3
 72
8
 73
4
 74
0
 40
0
 40
0
 40
0
 40
0
 40
1
 40
1
 40
1
 40
1
 10
133.919090
 20
184.599942
 30
0.0
 10
130.932481
 20
182.639240
 30
0.0
 10
127.668610
 20
179.661135
 30
0.0
 10
125.321975
 20
176.755547
 30
0.0
  0
SPLINE
  5
441
100
AcDbEntity
  8
0
 62
7
100
AcDbSpline
 70
8
 71
3
 72
8
 73
4
 74
0
 40
0
 40
0
 40
0
 40
0
 40
1
 40
1
 40
1
 40
1
 10
125.321975
 20
176.755547
 30
0.0
 10
123.731322
 20
174.786012
 30
0.0
 10
120.609080
 20
170.177015
 30
0.0
 10
120.609080
 20
169.798460
 30
0.0
  0
SPLINE
  5
442
100
AcDbEntity
  8
0
 62
7
100
AcDbSpline
 70
8
 71
3
 72
8
 73
4
 74
0
 40
0
 40
0
 40
0
 40
0
 40
1
 40
1
 40
1
 40
1
 10
120.609080
 20
169.798460
 30
0.0
 10
120.609080
 20
169.694347
 30
0.0
 10
121.710408
 20
170.130372
 30
0.0
 10
123.056475
 20
170.767409
 30
0.0
  0
SPLINE
  5
443
100
AcDbEntity
  8
0
 62
7
100
AcDbSpline
 70
8
 71
3
 72
8
 73
4
 74
0
 40
0
 40
0
 40
0
 40
0
 40
1
 40
1
 40
1
 40
1
 10
123.056475
 20
170.767409
 30
0.0
 10
124.402543
 20
171.404444
 30
0.0
 10
126.475363
 20
172.232106
 30
0.0
 10
127.662742
 20
172.606658
 30
0.0
  0
LWPOLYLINE
  5
444
100
AcDbEntity
  8
0
 62
7
100
AcDbPolyline
 90
1
 70
1
 10
10.140832
 20
169.691145
 30
0.0
  0
SPLINE
  5
445
100
AcDbEntity
  8
0
 62
7
100
AcDbSpline
 70
8
 71
3
 72
8
 73
4
 74
0
 40
0
 40
0
 40
0
 40
0
 40
1
 40
1
 40
1
 40
1
 10
95.530757
 20
172.502510
 30
0.0
 10
97.827970
 20
176.505836
 30
0.0
 10
98.949021
 20
181.214535
 30
0.0
 10
98.392977
 20
184.524557
 30
0.0
  0
SPLINE
  5
446
100
AcDbEntity
  8
0
 62
7
100
AcDbSpline
 70
8
 71
3
 72
8
 73
4
 74
0
 40
0
 40
0
 40
0
 40
0
 40
1
 40
1
 40
1
 40
1
 10
98.392977
 20
184.524557
 30
0.0
 10
97.932491
 20
187.265749
 30
0.0
 10
96.819791
 20
189.095211
 30
0.0
 10
93.976325
 20
191.786261
 30
0.0
  0
LWPOLYLINE
  5
447
100
AcDbEntity
  8
0
 62
7
100
AcDbPolyline
 90
1
 70
1
 10
127.662742
 20
172.606658
 30
0.0
  0
SPLINE
  5
448
100
AcDbEntity
  8
0
 62
7
100
AcDbSpline
 70
8
 71
3
 72
8
 73
4
 74
0
 40
0
 40
0
 40
0
 40
0
 40
1
 40
1
 40
1
 40
1
 10
90.477779
 20
193.474530
 30
0.0
 10
86.992338
 20
190.864519
 30
0.0
 10
84.740438
 20
188.245475
 30
0.0
 10
83.925627
 20
185.854139
 30
0.0
  0
SPLINE
  5
449
100
AcDbEntity
  8
0
 62
7
100
AcDbSpline
 70
8
 71
3
 72
8
 73
4
 74
0
 40
0
 40
0
 40
0
 40
0
 40
1
 40
1
 40
1
 40
1
 10
83.925627
 20
185.854139
 30
0.0
 10
82.866815
 20
182.746692
 30
0.0
 10
84.004438
 20
179.163170
 30
0.0
 10
87.136907
 20
175.738607
 30
0.0
  0
SPLINE
  5
44a
100
AcDbEntity
  8
0
 62
7
100
AcDbSpline
 70
8
 71
3
 72
8
 73
4
 74
0
 40
0
 40
0
 40
0
 40
0
 40
1
 40
1
 40
1
 40
1
 10
87.136907
 20
175.738607
 30
0.0
 10
88.893473
 20
173.818243
 30
0.0
 10
93.541138
 20
170.068073
 30
0.0
 10
94.001791
 20
170.199378
 30
0.0
  0
SPLINE
  5
44b
100
AcDbEntity
  8
0
 62
7
100
AcDbSpline
 70
8
 71
3
 72
8
 73
4
 74
0
 40
0
 40
0
 40
0
 40
0
 40
1
 40
1
 40
1
 40
1
 10
94.001791
 20
170.199378
 30
0.0
 10
94.138147
 20
170.238245
 30
0.0
 10
94.826182
 20
171.274655
 30
0.0
 10
95.530757
 20
172.502510
 30
0.0
  0
LWPOLYLINE
  5
44c
100
AcDbEntity
  8
0
 62
7
100
AcDbPolyline
 90
3
 70
0
 10
93.976325
 20
191.786261
 30
0.0
 10
91.435021
 20
194.191345
 30
0.0
 10
90.477779
 20
193.474530
 30
0.0
  0
SPLINE
  5
44d
100
AcDbEntity
  8
0
 62
7
100
AcDbSpline
 70
8
 71
3
 72
8
 73
4
 74
0
 40
0
 40
0
 40
0
 40
0
 40
1
 40
1
 40
1
 40
1
 10
68.943829
 20
173.659311
 30
0.0
 10
69.896590
 20
174.450145
 30
0.0
 10
71.344242
 20
175.450751
 30
0.0
 10
72.160831
 20
175.882882
 30
0.0
  0
SPLINE
  5
44e
100
AcDbEntity
  8
0
 62
7
100
AcDbSpline
 70
8
 71
3
 72
8
 73
4
 74
0
 40
0
 40
0
 40
0
 40
0
 40
1
 40
1
 40
1
 40
1
 10
72.160831
 20
175.882882
 30
0.0
 10
73.842885
 20
176.773007
 30
0.0
 10
77.073194
 20
177.393235
 30
0.0
 10
78.934485
 20
177.183441
 30
0.0
  0
SPLINE
  5
44f
100
AcDbEntity
  8
0
 62
7
100
AcDbSpline
 70
8
 71
3
 72
8
 73
4
 74
0
 40
0
 40
0
 40
0
 40
0
 40
1
 40
1
 40
1
 40
1
 10
78.934485
 20
177.183441
 30
0.0
 10
79.595422
 20
177.108943
 30
0.0
 10
80.204368
 20
177.158306
 30
0.0
 10
80.287699
 20
177.293135
 30
0.0
  0
SPLINE
  5
450
100
AcDbEntity
  8
0
 62
7
100
AcDbSpline
 70
8
 71
3
 72
8
 73
4
 74
0
 40
0
 40
0
 40
0
 40
0
 40
1
 40
1
 40
1
 40
1
 10
80.287699
 20
177.293135
 30
0.0
 10
80.371027
 20
177.427964
 30
0.0
 10
80.008709
 20
178.444782
 30
0.0
 10
79.482548
 20
179.552727
 30
0.0
  0
SPLINE
  5
451
100
AcDbEntity
  8
0
 62
7
100
AcDbSpline
 70
8
 71
3
 72
8
 73
4
 74
0
 40
0
 40
0
 40
0
 40
0
 40
1
 40
1
 40
1
 40
1
 10
79.482548
 20
179.552727
 30
0.0
 10
76.521850
 20
185.787117
 30
0.0
 10
71.416098
 20
189.896676
 30
0.0
 10
64.467422
 20
191.638219
 30
0.0
  0
SPLINE
  5
452
100
AcDbEntity
  8
0
 62
7
100
AcDbSpline
 70
8
 71
3
 72
8
 73
4
 74
0
 40
0
 40
0
 40
0
 40
0
 40
1
 40
1
 40
1
 40
1
 10
64.467422
 20
191.638219
 30
0.0
 10
60.205437
 20
192.706397
 30
0.0
 10
56.991284
 20
192.610113
 30
0.0
 10
54.666137
 20
191.344611
 30
0.0
  0
SPLINE
  5
453
100
AcDbEntity
  8
0
 62
7
100
AcDbSpline
 70
8
 71
3
 72
8
 73
4
 74
0
 40
0
 40
0
 40
0
 40
0
 40
1
 40
1
 40
1
 40
1
 10
54.666137
 20
191.344611
 30
0.0
 10
53.271764
 20
190.585699
 30
0.0
 10
51.447869
 20
188.622670
 30
0.0
 10
51.598171
 20
188.042611
 30
0.0
  0
SPLINE
  5
454
100
AcDbEntity
  8
0
 62
7
100
AcDbSpline
 70
8
 71
3
 72
8
 73
4
 74
0
 40
0
 40
0
 40
0
 40
0
 40
1
 40
1
 40
1
 40
1
 10
51.598171
 20
188.042611
 30
0.0
 10
51.725534
 20
187.551079
 30
0.0
 10
57.265006
 20
179.183596
 30
0.0
 10
58.348851
 20
177.845582
 30
0.0
  0
SPLINE
  5
455
100
AcDbEntity
  8
0
 62
7
100
AcDbSpline
 70
8
 71
3
 72
8
 73
4
 74
0
 40
0
 40
0
 40
0
 40
0
 40
1
 40
1
 40
1
 40
1
 10
58.348851
 20
177.845582
 30
0.0
 10
58.849048
 20
177.228082
 30
0.0
 10
59.995117
 20
176.197794
 30
0.0
 10
60.895669
 20
175.556056
 30
0.0
  0
SPLINE
  5
456
100
AcDbEntity
  8
0
 62
7
100
AcDbSpline
 70
8
 71
3
 72
8
 73
4
 74
0
 40
0
 40
0
 40
0
 40
0
 40
1
 40
1
 40
1
 40
1
 10
60.895669
 20
175.556056
 30
0.0
 10
62.771195
 20
174.219542
 30
0.0
 10
66.330483
 20
172.230672
 30
0.0
 10
66.856658
 20
172.225155
 30
0.0
  0
SPLINE
  5
457
100
AcDbEntity
  8
0
 62
7
100
AcDbSpline
 70
8
 71
3
 72
8
 73
4
 74
0
 40
0
 40
0
 40
0
 40
0
 40
1
 40
1
 40
1
 40
1
 10
66.856658
 20
172.225155
 30
0.0
 10
67.051838
 20
172.223038
 30
0.0
 10
67.991064
 20
172.868479
 30
0.0
 10
68.943829
 20
173.659311
 30
0.0
  0
LWPOLYLINE
  5
458
100
AcDbEntity
  8
0
 62
7
100
AcDbPolyline
 90
1
 70
1
 10
95.530757
 20
172.502510
 30
0.0
  0
SPLINE
  5
459
100
AcDbEntity
  8
0
 62
7
100
AcDbSpline
 70
8
 71
3
 72
8
 73
4
 74
0
 40
0
 40
0
 40
0
 40
0
 40
1
 40
1
 40
1
 40
1
 10
21.650319
 20
177.050078
 30
0.0
 10
21.637090
 20
184.100888
 30
0.0
 10
19.304122
 20
187.447050
 30
0.0
 10
11.983826
 20
190.914705
 30
0.0
  0
SPLINE
  5
45a
100
AcDbEntity
  8
0
 62
7
100
AcDbSpline
 70
8
 71
3
 72
8
 73
4
 74
0
 40
0
 40
0
 40
0
 40
0
 40
1
 40
1
 40
1
 40
1
 10
11.983826
 20
190.914705
 30
0.0
 10
9.462554
 20
192.109042
 30
0.0
 10
6.773199
 20
193.123516
 30
0.0
 10
6.128294
 20
193.123516
 30
0.0
  0
SPLINE
  5
45b
100
AcDbEntity
  8
0
 62
7
100
AcDbSpline
 70
8
 71
3
 72
8
 73
4
 74
0
 40
0
 40
0
 40
0
 40
0
 40
1
 40
1
 40
1
 40
1
 10
6.128294
 20
193.123516
 30
0.0
 10
5.834500
 20
193.123516
 30
0.0
 10
5.779649
 20
192.389855
 30
0.0
 10
5.838985
 20
189.253929
 30
0.0
  0
LWPOLYLINE
  5
45c
100
AcDbEntity
  8
0
 62
7
100
AcDbPolyline
 90
1
 70
1
 10
68.943829
 20
173.659311
 30
0.0
  0
SPLINE
  5
45d
100
AcDbEntity
  8
0
 62
7
100
AcDbSpline
 70
8
 71
3
 72
8
 73
4
 74
0
 40
0
 40
0
 40
0
 40
0
 40
1
 40
1
 40
1
 40
1
 10
7.646834
 20
184.800449
 30
0.0
 10
10.612194
 20
183.802285
 30
0.0
 10
12.139024
 20
182.795122
 30
0.0
 10
15.304913
 20
179.748847
 30
0.0
  0
SPLINE
  5
45e
100
AcDbEntity
  8
0
 62
7
100
AcDbSpline
 70
8
 71
3
 72
8
 73
4
 74
0
 40
0
 40
0
 40
0
 40
0
 40
1
 40
1
 40
1
 40
1
 10
15.304913
 20
179.748847
 30
0.0
 10
18.902230
 20
176.287443
 30
0.0
 10
20.868734
 20
174.606744
 30
0.0
 10
21.324183
 20
174.604392
 30
0.0
  0
SPLINE
  5
45f
100
AcDbEntity
  8
0
 62
7
100
AcDbSpline
 70
8
 71
3
 72
8
 73
4
 74
0
 40
0
 40
0
 40
0
 40
0
 40
1
 40
1
 40
1
 40
1
 10
21.324183
 20
174.604392
 30
0.0
 10
21.565383
 20
174.603069
 30
0.0
 10
21.653669
 20
175.265204
 30
0.0
 10
21.650319
 20
177.050078
 30
0.0
  0
LWPOLYLINE
  5
460
100
AcDbEntity
  8
0
 62
7
100
AcDbPolyline
 90
3
 70
0
 10
5.838985
 20
189.253929
 30
0.0
 10
5.912204
 20
185.384339
 30
0.0
 10
7.646834
 20
184.800449
 30
0.0
  0
SPLINE
  5
461
100
AcDbEntity
  8
0
 62
7
100
AcDbSpline
 70
8
 71
3
 72
8
 73
4
 74
0
 40
0
 40
0
 40
0
 40
0
 40
1
 40
1
 40
1
 40
1
 10
108.316175
 20
178.505287
 30
0.0
 10
108.573551
 20
178.905469
 30
0.0
 10
109.820789
 20
180.661641
 30
0.0
 10
111.087818
 20
182.407891
 30
0.0
  0
SPLINE
  5
462
100
AcDbEntity
  8
0
 62
7
100
AcDbSpline
 70
8
 71
3
 72
8
 73
4
 74
0
 40
0
 40
0
 40
0
 40
0
 40
1
 40
1
 40
1
 40
1
 10
111.087818
 20
182.407891
 30
0.0
 10
115.523439
 20
188.521171
 30
0.0
 10
116.889654
 20
191.489981
 30
0.0
 10
116.899333
 20
195.036390
 30
0.0
  0
SPLINE
  5
463
100
AcDbEntity
  8
0
 62
7
100
AcDbSpline
 70
8
 71
3
 72
8
 73
4
 74
0
 40
0
 40
0
 40
0
 40
0
 40
1
 40
1
 40
1
 40
1
 10
116.899333
 20
195.036390
 30
0.0
 10
116.905947
 20
197.460926
 30
0.0
 10
116.489803
 20
198.684004
 30
0.0
 10
114.877871
 20
200.977595
 30
0.0
  0
SPLINE
  5
464
100
AcDbEntity
  8
0
 62
7
100
AcDbSpline
 70
8
 71
3
 72
8
 73
4
 74
0
 40
0
 40
0
 40
0
 40
0
 40
1
 40
1
 40
1
 40
1
 10
114.877871
 20
200.977595
 30
0.0
 10
113.873661
 20
202.406467
 30
0.0
 10
112.519346
 20
203.706849
 30
0.0
 10
112.035423
 20
203.706849
 30
0.0
  0
SPLINE
  5
465
100
AcDbEntity
  8
0
 62
7
100
AcDbSpline
 70
8
 71
3
 72
8
 73
4
 74
0
 40
0
 40
0
 40
0
 40
0
 40
1
 40
1
 40
1
 40
1
 10
112.035423
 20
203.706849
 30
0.0
 10
111.948746
 20
203.706849
 30
0.0
 10
111.875763
 20
203.379427
 30
0.0
 10
111.873236
 20
202.979245
 30
0.0
  0
SPLINE
  5
466
100
AcDbEntity
  8
0
 62
7
100
AcDbSpline
 70
8
 71
3
 72
8
 73
4
 74
0
 40
0
 40
0
 40
0
 40
0
 40
1
 40
1
 40
1
 40
1
 10
111.873236
 20
202.979245
 30
0.0
 10
111.864135
 20
201.539322
 30
0.0
 10
111.071832
 20
198.515589
 30
0.0
 10
110.282323
 20
196.907780
 30
0.0
  0
SPLINE
  5
467
100
AcDbEntity
  8
0
 62
7
100
AcDbSpline
 70
8
 71
3
 72
8
 73
4
 74
0
 40
0
 40
0
 40
0
 40
0
 40
1
 40
1
 40
1
 40
1
 10
110.282323
 20
196.907780
 30
0.0
 10
109.806790
 20
195.939370
 30
0.0
 10
108.452679
 20
194.118301
 30
0.0
 10
106.974751
 20
192.459607
 30
0.0
  0
SPLINE
  5
468
100
AcDbEntity
  8
0
 62
7
100
AcDbSpline
 70
8
 71
3
 72
8
 73
4
 74
0
 40
0
 40
0
 40
0
 40
0
 40
1
 40
1
 40
1
 40
1
 10
106.974751
 20
192.459607
 30
0.0
 10
105.598431
 20
190.914943
 30
0.0
 10
104.131729
 20
189.152493
 30
0.0
 10
103.715420
 20
188.543052
 30
0.0
  0
SPLINE
  5
469
100
AcDbEntity
  8
0
 62
7
100
AcDbSpline
 70
8
 71
3
 72
8
 73
4
 74
0
 40
0
 40
0
 40
0
 40
0
 40
1
 40
1
 40
1
 40
1
 10
103.715420
 20
188.543052
 30
0.0
 10
102.158551
 20
186.263928
 30
0.0
 10
102.018407
 20
184.268875
 30
0.0
 10
103.265870
 20
182.143307
 30
0.0
  0
SPLINE
  5
46a
100
AcDbEntity
  8
0
 62
7
100
AcDbSpline
 70
8
 71
3
 72
8
 73
4
 74
0
 40
0
 40
0
 40
0
 40
0
 40
1
 40
1
 40
1
 40
1
 10
103.265870
 20
182.143307
 30
0.0
 10
103.914297
 20
181.038444
 30
0.0
 10
107.144936
 20
177.777682
 30
0.0
 10
107.591167
 20
177.777682
 30
0.0
  0
SPLINE
  5
46b
100
AcDbEntity
  8
0
 62
7
100
AcDbSpline
 70
8
 71
3
 72
8
 73
4
 74
0
 40
0
 40
0
 40
0
 40
0
 40
1
 40
1
 40
1
 40
1
 10
107.591167
 20
177.777682
 30
0.0
 10
107.732547
 20
177.777682
 30
0.0
 10
108.058799
 20
178.105104
 30
0.0
 10
108.316175
 20
178.505287
 30
0.0
  0
LWPOLYLINE
  5
46c
100
AcDbEntity
  8
0
 62
7
100
AcDbPolyline
 90
1
 70
1
 10
21.650319
 20
177.050078
 30
0.0
  0
SPLINE
  5
46d
100
AcDbEntity
  8
0
 62
7
100
AcDbSpline
 70
8
 71
3
 72
8
 73
4
 74
0
 40
0
 40
0
 40
0
 40
0
 40
1
 40
1
 40
1
 40
1
 10
43.461181
 20
184.590703
 30
0.0
 10
44.938823
 20
186.009531
 30
0.0
 10
46.707414
 20
187.587109
 30
0.0
 10
47.391386
 20
188.096432
 30
0.0
  0
SPLINE
  5
46e
100
AcDbEntity
  8
0
 62
7
100
AcDbSpline
 70
8
 71
3
 72
8
 73
4
 74
0
 40
0
 40
0
 40
0
 40
0
 40
1
 40
1
 40
1
 40
1
 10
47.391386
 20
188.096432
 30
0.0
 10
49.557813
 20
189.709674
 30
0.0
 10
50.097642
 20
191.571383
 30
0.0
 10
49.014118
 20
193.692743
 30
0.0
  0
SPLINE
  5
46f
100
AcDbEntity
  8
0
 62
7
100
AcDbSpline
 70
8
 71
3
 72
8
 73
4
 74
0
 40
0
 40
0
 40
0
 40
0
 40
1
 40
1
 40
1
 40
1
 10
49.014118
 20
193.692743
 30
0.0
 10
48.311395
 20
195.068552
 30
0.0
 10
41.855229
 20
199.208932
 30
0.0
 10
40.412625
 20
199.208932
 30
0.0
  0
SPLINE
  5
470
100
AcDbEntity
  8
0
 62
7
100
AcDbSpline
 70
8
 71
3
 72
8
 73
4
 74
0
 40
0
 40
0
 40
0
 40
0
 40
1
 40
1
 40
1
 40
1
 10
40.412625
 20
199.208932
 30
0.0
 10
40.151547
 20
199.208932
 30
0.0
 10
39.838241
 20
198.668719
 30
0.0
 10
39.530285
 20
197.687578
 30
0.0
  0
SPLINE
  5
471
100
AcDbEntity
  8
0
 62
7
100
AcDbSpline
 70
8
 71
3
 72
8
 73
4
 74
0
 40
0
 40
0
 40
0
 40
0
 40
1
 40
1
 40
1
 40
1
 10
39.530285
 20
197.687578
 30
0.0
 10
38.899671
 20
195.678451
 30
0.0
 10
37.530765
 20
192.982622
 30
0.0
 10
36.366984
 20
191.457985
 30
0.0
  0
LWPOLYLINE
  5
472
100
AcDbEntity
  8
0
 62
7
100
AcDbPolyline
 90
1
 70
1
 10
108.316175
 20
178.505287
 30
0.0
  0
SPLINE
  5
473
100
AcDbEntity
  8
0
 62
7
100
AcDbSpline
 70
8
 71
3
 72
8
 73
4
 74
0
 40
0
 40
0
 40
0
 40
0
 40
1
 40
1
 40
1
 40
1
 10
36.882083
 20
188.302376
 30
0.0
 10
37.681718
 20
187.243223
 30
0.0
 10
38.839211
 20
185.394915
 30
0.0
 10
39.454291
 20
184.195024
 30
0.0
  0
SPLINE
  5
474
100
AcDbEntity
  8
0
 62
7
100
AcDbSpline
 70
8
 71
3
 72
8
 73
4
 74
0
 40
0
 40
0
 40
0
 40
0
 40
1
 40
1
 40
1
 40
1
 10
39.454291
 20
184.195024
 30
0.0
 10
40.069373
 20
182.995136
 30
0.0
 10
40.618058
 20
182.012870
 30
0.0
 10
40.673592
 20
182.012212
 30
0.0
  0
SPLINE
  5
475
100
AcDbEntity
  8
0
 62
7
100
AcDbSpline
 70
8
 71
3
 72
8
 73
4
 74
0
 40
0
 40
0
 40
0
 40
0
 40
1
 40
1
 40
1
 40
1
 10
40.673592
 20
182.012212
 30
0.0
 10
40.729125
 20
182.011682
 30
0.0
 10
41.983541
 20
183.171875
 30
0.0
 10
43.461181
 20
184.590703
 30
0.0
  0
LWPOLYLINE
  5
476
100
AcDbEntity
  8
0
 62
7
100
AcDbPolyline
 90
3
 70
0
 10
36.366984
 20
191.457985
 30
0.0
 10
35.428200
 20
190.228112
 30
0.0
 10
36.882083
 20
188.302376
 30
0.0
  0
SPLINE
  5
477
100
AcDbEntity
  8
0
 62
7
100
AcDbSpline
 70
8
 71
3
 72
8
 73
4
 74
0
 40
0
 40
0
 40
0
 40
0
 40
1
 40
1
 40
1
 40
1
 10
127.509238
 20
184.467929
 30
0.0
 10
129.677851
 20
187.063269
 30
0.0
 10
130.471230
 20
188.875487
 30
0.0
 10
130.603604
 20
191.536016
 30
0.0
  0
SPLINE
  5
478
100
AcDbEntity
  8
0
 62
7
100
AcDbSpline
 70
8
 71
3
 72
8
 73
4
 74
0
 40
0
 40
0
 40
0
 40
0
 40
1
 40
1
 40
1
 40
1
 10
130.603604
 20
191.536016
 30
0.0
 10
130.699838
 20
193.470202
 30
0.0
 10
130.621595
 20
194.033161
 30
0.0
 10
130.044558
 20
195.558196
 30
0.0
  0
SPLINE
  5
479
100
AcDbEntity
  8
0
 62
7
100
AcDbSpline
 70
8
 71
3
 72
8
 73
4
 74
0
 40
0
 40
0
 40
0
 40
0
 40
1
 40
1
 40
1
 40
1
 10
130.044558
 20
195.558196
 30
0.0
 10
129.675538
 20
196.533468
 30
0.0
 10
128.786617
 20
198.201314
 30
0.0
 10
128.069173
 20
199.264519
 30
0.0
  0
SPLINE
  5
47a
100
AcDbEntity
  8
0
 62
7
100
AcDbSpline
 70
8
 71
3
 72
8
 73
4
 74
0
 40
0
 40
0
 40
0
 40
0
 40
1
 40
1
 40
1
 40
1
 10
128.069173
 20
199.264519
 30
0.0
 10
126.416173
 20
201.714158
 30
0.0
 10
122.683836
 20
205.955807
 30
0.0
 10
122.181334
 20
205.955807
 30
0.0
  0
SPLINE
  5
47b
100
AcDbEntity
  8
0
 62
7
100
AcDbSpline
 70
8
 71
3
 72
8
 73
4
 74
0
 40
0
 40
0
 40
0
 40
0
 40
1
 40
1
 40
1
 40
1
 10
122.181334
 20
205.955807
 30
0.0
 10
121.967175
 20
205.955807
 30
0.0
 10
121.277227
 20
204.926996
 30
0.0
 10
120.609080
 20
203.611345
 30
0.0
  0
LWPOLYLINE
  5
47c
100
AcDbEntity
  8
0
 62
7
100
AcDbPolyline
 90
1
 70
1
 10
43.461181
 20
184.590703
 30
0.0
  0
SPLINE
  5
47d
100
AcDbEntity
  8
0
 62
7
100
AcDbSpline
 70
8
 71
3
 72
8
 73
4
 74
0
 40
0
 40
0
 40
0
 40
0
 40
1
 40
1
 40
1
 40
1
 10
121.966090
 20
190.184368
 30
0.0
 10
124.257099
 20
185.570545
 30
0.0
 10
124.690576
 20
184.609899
 30
0.0
 10
125.204471
 20
183.007664
 30
0.0
  0
SPLINE
  5
47e
100
AcDbEntity
  8
0
 62
7
100
AcDbSpline
 70
8
 71
3
 72
8
 73
4
 74
0
 40
0
 40
0
 40
0
 40
0
 40
1
 40
1
 40
1
 40
1
 10
125.204471
 20
183.007664
 30
0.0
 10
125.428396
 20
182.309508
 30
0.0
 10
126.017676
 20
182.682870
 30
0.0
 10
127.509238
 20
184.467929
 30
0.0
  0
LWPOLYLINE
  5
47f
100
AcDbEntity
  8
0
 62
7
100
AcDbPolyline
 90
5
 70
0
 10
120.609080
 20
203.611345
 30
0.0
 10
119.418455
 20
201.266883
 30
0.0
 10
119.418455
 20
198.290947
 30
0.0
 10
119.418455
 20
195.315015
 30
0.0
 10
121.966090
 20
190.184368
 30
0.0
  0
SPLINE
  5
480
100
AcDbEntity
  8
0
 62
7
100
AcDbSpline
 70
8
 71
3
 72
8
 73
4
 74
0
 40
0
 40
0
 40
0
 40
0
 40
1
 40
1
 40
1
 40
1
 10
82.969531
 20
189.737907
 30
0.0
 10
91.037140
 20
196.587197
 30
0.0
 10
94.909365
 20
204.283273
 30
0.0
 10
93.907880
 20
211.477958
 30
0.0
  0
SPLINE
  5
481
100
AcDbEntity
  8
0
 62
7
100
AcDbSpline
 70
8
 71
3
 72
8
 73
4
 74
0
 40
0
 40
0
 40
0
 40
0
 40
1
 40
1
 40
1
 40
1
 10
93.907880
 20
211.477958
 30
0.0
 10
93.379523
 20
215.273686
 30
0.0
 10
92.064710
 20
217.200599
 30
0.0
 10
90.003085
 20
217.200599
 30
0.0
  0
SPLINE
  5
482
100
AcDbEntity
  8
0
 62
7
100
AcDbSpline
 70
8
 71
3
 72
8
 73
4
 74
0
 40
0
 40
0
 40
0
 40
0
 40
1
 40
1
 40
1
 40
1
 10
90.003085
 20
217.200599
 30
0.0
 10
88.307796
 20
217.200599
 30
0.0
 10
86.990282
 20
216.404611
 30
0.0
 10
84.160397
 20
213.670676
 30
0.0
  0
SPLINE
  5
483
100
AcDbEntity
  8
0
 62
7
100
AcDbSpline
 70
8
 71
3
 72
8
 73
4
 74
0
 40
0
 40
0
 40
0
 40
0
 40
1
 40
1
 40
1
 40
1
 10
84.160397
 20
213.670676
 30
0.0
 10
77.138697
 20
206.887059
 30
0.0
 10
74.630187
 20
201.400923
 30
0.0
 10
76.030765
 20
195.891084
 30
0.0
  0
SPLINE
  5
484
100
AcDbEntity
  8
0
 62
7
100
AcDbSpline
 70
8
 71
3
 72
8
 73
4
 74
0
 40
0
 40
0
 40
0
 40
0
 40
1
 40
1
 40
1
 40
1
 10
76.030765
 20
195.891084
 30
0.0
 10
76.702751
 20
193.247507
 30
0.0
 10
79.684361
 20
187.866763
 30
0.0
 10
80.492277
 20
187.839644
 30
0.0
  0
SPLINE
  5
485
100
AcDbEntity
  8
0
 62
7
100
AcDbSpline
 70
8
 71
3
 72
8
 73
4
 74
0
 40
0
 40
0
 40
0
 40
0
 40
1
 40
1
 40
1
 40
1
 10
80.492277
 20
187.839644
 30
0.0
 10
80.619962
 20
187.835357
 30
0.0
 10
81.734726
 20
188.689575
 30
0.0
 10
82.969531
 20
189.737907
 30
0.0
  0
LWPOLYLINE
  5
486
100
AcDbEntity
  8
0
 62
7
100
AcDbPolyline
 90
1
 70
1
 10
127.509238
 20
184.467929
 30
0.0
  0
SPLINE
  5
487
100
AcDbEntity
  8
0
 62
7
100
AcDbSpline
 70
8
 71
3
 72
8
 73
4
 74
0
 40
0
 40
0
 40
0
 40
0
 40
1
 40
1
 40
1
 40
1
 10
137.357781
 20
190.250620
 30
0.0
 10
138.638685
 20
190.813005
 30
0.0
 10
140.632982
 20
191.818956
 30
0.0
 10
141.789552
 20
192.486068
 30
0.0
  0
LWPOLYLINE
  5
488
100
AcDbEntity
  8
0
 62
7
100
AcDbPolyline
 90
1
 70
1
 10
82.969531
 20
189.737907
 30
0.0
  0
SPLINE
  5
489
100
AcDbEntity
  8
0
 62
7
100
AcDbSpline
 70
8
 71
3
 72
8
 73
4
 74
0
 40
0
 40
0
 40
0
 40
0
 40
1
 40
1
 40
1
 40
1
 10
143.892413
 20
202.019522
 30
0.0
 10
143.892413
 20
211.492917
 30
0.0
 10
144.034587
 20
211.072976
 30
0.0
 10
141.704650
 20
208.481525
 30
0.0
  0
SPLINE
  5
48a
100
AcDbEntity
  8
0
 62
7
100
AcDbSpline
 70
8
 71
3
 72
8
 73
4
 74
0
 40
0
 40
0
 40
0
 40
0
 40
1
 40
1
 40
1
 40
1
 10
141.704650
 20
208.481525
 30
0.0
 10
140.203378
 20
206.811750
 30
0.0
 10
139.386321
 20
204.781957
 30
0.0
 10
138.038943
 20
199.374900
 30
0.0
  0
SPLINE
  5
48b
100
AcDbEntity
  8
0
 62
7
100
AcDbSpline
 70
8
 71
3
 72
8
 73
4
 74
0
 40
0
 40
0
 40
0
 40
0
 40
1
 40
1
 40
1
 40
1
 10
138.038943
 20
199.374900
 30
0.0
 10
136.828186
 20
194.516102
 30
0.0
 10
135.867529
 20
191.870481
 30
0.0
 10
134.669329
 20
190.095087
 30
0.0
  0
SPLINE
  5
48c
100
AcDbEntity
  8
0
 62
7
100
AcDbSpline
 70
8
 71
3
 72
8
 73
4
 74
0
 40
0
 40
0
 40
0
 40
0
 40
1
 40
1
 40
1
 40
1
 10
134.669329
 20
190.095087
 30
0.0
 10
133.677427
 20
188.625366
 30
0.0
 10
133.652824
 20
188.623943
 30
0.0
 10
137.357781
 20
190.250620
 30
0.0
  0
LWPOLYLINE
  5
48d
100
AcDbEntity
  8
0
 62
7
100
AcDbPolyline
 90
3
 70
0
 10
141.789552
 20
192.486068
 30
0.0
 10
143.892413
 20
193.698995
 30
0.0
 10
143.892413
 20
202.019522
 30
0.0
  0
SPLINE
  5
48e
100
AcDbEntity
  8
0
 62
7
100
AcDbSpline
 70
8
 71
3
 72
8
 73
4
 74
0
 40
0
 40
0
 40
0
 40
0
 40
1
 40
1
 40
1
 40
1
 10
21.597551
 20
189.832284
 30
0.0
 10
23.602995
 20
191.236952
 30
0.0
 10
24.480350
 20
198.226265
 30
0.0
 10
23.256171
 20
203.045391
 30
0.0
  0
SPLINE
  5
48f
100
AcDbEntity
  8
0
 62
7
100
AcDbSpline
 70
8
 71
3
 72
8
 73
4
 74
0
 40
0
 40
0
 40
0
 40
0
 40
1
 40
1
 40
1
 40
1
 10
23.256171
 20
203.045391
 30
0.0
 10
21.682353
 20
209.240908
 30
0.0
 10
16.767419
 20
215.670447
 30
0.0
 10
9.191245
 20
221.444622
 30
0.0
  0
SPLINE
  5
490
100
AcDbEntity
  8
0
 62
7
100
AcDbSpline
 70
8
 71
3
 72
8
 73
4
 74
0
 40
0
 40
0
 40
0
 40
0
 40
1
 40
1
 40
1
 40
1
 10
9.191245
 20
221.444622
 30
0.0
 10
7.480544
 20
222.748430
 30
0.0
 10
6.013163
 20
223.815182
 30
0.0
 10
5.930396
 20
223.815182
 30
0.0
  0
SPLINE
  5
491
100
AcDbEntity
  8
0
 62
7
100
AcDbSpline
 70
8
 71
3
 72
8
 73
4
 74
0
 40
0
 40
0
 40
0
 40
0
 40
1
 40
1
 40
1
 40
1
 10
5.930396
 20
223.815182
 30
0.0
 10
5.847630
 20
223.815182
 30
0.0
 10
5.779913
 20
222.448070
 30
0.0
 10
5.779913
 20
220.777155
 30
0.0
  0
LWPOLYLINE
  5
492
100
AcDbEntity
  8
0
 62
7
100
AcDbPolyline
 90
1
 70
1
 10
137.357781
 20
190.250620
 30
0.0
  0
SPLINE
  5
493
100
AcDbEntity
  8
0
 62
7
100
AcDbSpline
 70
8
 71
3
 72
8
 73
4
 74
0
 40
0
 40
0
 40
0
 40
0
 40
1
 40
1
 40
1
 40
1
 10
8.227308
 20
215.287050
 30
0.0
 10
9.626313
 20
213.885370
 30
0.0
 10
11.101882
 20
212.098268
 30
0.0
 10
11.671920
 20
211.115182
 30
0.0
  0
SPLINE
  5
494
100
AcDbEntity
  8
0
 62
7
100
AcDbSpline
 70
8
 71
3
 72
8
 73
4
 74
0
 40
0
 40
0
 40
0
 40
0
 40
1
 40
1
 40
1
 40
1
 10
11.671920
 20
211.115182
 30
0.0
 10
13.924997
 20
207.229541
 30
0.0
 10
15.228630
 20
202.279597
 30
0.0
 10
15.498394
 20
196.585911
 30
0.0
  0
LWPOLYLINE
  5
495
100
AcDbEntity
  8
0
 62
7
100
AcDbPolyline
 90
3
 70
0
 10
5.779913
 20
220.777155
 30
0.0
 10
5.779913
 20
217.739127
 30
0.0
 10
8.227308
 20
215.287050
 30
0.0
  0
SPLINE
  5
496
100
AcDbEntity
  8
0
 62
7
100
AcDbSpline
 70
8
 71
3
 72
8
 73
4
 74
0
 40
0
 40
0
 40
0
 40
0
 40
1
 40
1
 40
1
 40
1
 10
17.178631
 20
191.800300
 30
0.0
 10
18.573503
 20
190.426917
 30
0.0
 10
20.051019
 20
189.440555
 30
0.0
 10
20.736145
 20
189.425374
 30
0.0
  0
SPLINE
  5
497
100
AcDbEntity
  8
0
 62
7
100
AcDbSpline
 70
8
 71
3
 72
8
 73
4
 74
0
 40
0
 40
0
 40
0
 40
0
 40
1
 40
1
 40
1
 40
1
 10
20.736145
 20
189.425374
 30
0.0
 10
20.885667
 20
189.422066
 30
0.0
 10
21.273299
 20
189.605171
 30
0.0
 10
21.597551
 20
189.832284
 30
0.0
  0
LWPOLYLINE
  5
498
100
AcDbEntity
  8
0
 62
7
100
AcDbPolyline
 90
3
 70
0
 10
15.498394
 20
196.585911
 30
0.0
 10
15.654012
 20
193.301432
 30
0.0
 10
17.178631
 20
191.800300
 30
0.0
  0
SPLINE
  5
499
100
AcDbEntity
  8
0
 62
7
100
AcDbSpline
 70
8
 71
3
 72
8
 73
4
 74
0
 40
0
 40
0
 40
0
 40
0
 40
1
 40
1
 40
1
 40
1
 10
102.581768
 20
192.484359
 30
0.0
 10
103.168982
 20
193.151469
 30
0.0
 10
103.789300
 20
194.121103
 30
0.0
 10
103.960255
 20
194.639105
 30
0.0
  0
SPLINE
  5
49a
100
AcDbEntity
  8
0
 62
7
100
AcDbSpline
 70
8
 71
3
 72
8
 73
4
 74
0
 40
0
 40
0
 40
0
 40
0
 40
1
 40
1
 40
1
 40
1
 10
103.960255
 20
194.639105
 30
0.0
 10
104.407174
 20
195.993274
 30
0.0
 10
104.107697
 20
198.167654
 30
0.0
 10
103.279670
 20
199.580574
 30
0.0
  0
SPLINE
  5
49b
100
AcDbEntity
  8
0
 62
7
100
AcDbSpline
 70
8
 71
3
 72
8
 73
4
 74
0
 40
0
 40
0
 40
0
 40
0
 40
1
 40
1
 40
1
 40
1
 10
103.279670
 20
199.580574
 30
0.0
 10
102.469677
 20
200.962726
 30
0.0
 10
99.758968
 20
203.770198
 30
0.0
 10
99.430472
 20
203.567178
 30
0.0
  0
SPLINE
  5
49c
100
AcDbEntity
  8
0
 62
7
100
AcDbSpline
 70
8
 71
3
 72
8
 73
4
 74
0
 40
0
 40
0
 40
0
 40
0
 40
1
 40
1
 40
1
 40
1
 10
99.430472
 20
203.567178
 30
0.0
 10
98.845904
 20
203.205895
 30
0.0
 10
97.271141
 20
200.131026
 30
0.0
 10
96.899592
 20
198.625407
 30
0.0
  0
SPLINE
  5
49d
100
AcDbEntity
  8
0
 62
7
100
AcDbSpline
 70
8
 71
3
 72
8
 73
4
 74
0
 40
0
 40
0
 40
0
 40
0
 40
1
 40
1
 40
1
 40
1
 10
96.899592
 20
198.625407
 30
0.0
 10
96.437873
 20
196.754393
 30
0.0
 10
96.612149
 20
195.563220
 30
0.0
 10
97.577331
 20
193.993064
 30
0.0
  0
SPLINE
  5
49e
100
AcDbEntity
  8
0
 62
7
100
AcDbSpline
 70
8
 71
3
 72
8
 73
4
 74
0
 40
0
 40
0
 40
0
 40
0
 40
1
 40
1
 40
1
 40
1
 10
97.577331
 20
193.993064
 30
0.0
 10
98.171265
 20
193.026850
 30
0.0
 10
100.410587
 20
191.287863
 30
0.0
 10
101.073572
 20
191.277991
 30
0.0
  0
SPLINE
  5
49f
100
AcDbEntity
  8
0
 62
7
100
AcDbSpline
 70
8
 71
3
 72
8
 73
4
 74
0
 40
0
 40
0
 40
0
 40
0
 40
1
 40
1
 40
1
 40
1
 10
101.073572
 20
191.277991
 30
0.0
 10
101.315867
 20
191.274393
 30
0.0
 10
101.994555
 20
191.817249
 30
0.0
 10
102.581768
 20
192.484359
 30
0.0
  0
LWPOLYLINE
  5
4a0
100
AcDbEntity
  8
0
 62
7
100
AcDbPolyline
 90
1
 70
1
 10
21.597551
 20
189.832284
 30
0.0
  0
SPLINE
  5
4a1
100
AcDbEntity
  8
0
 62
7
100
AcDbSpline
 70
8
 71
3
 72
8
 73
4
 74
0
 40
0
 40
0
 40
0
 40
0
 40
1
 40
1
 40
1
 40
1
 10
33.324800
 20
193.799568
 30
0.0
 10
34.459378
 20
194.386279
 30
0.0
 10
35.571565
 20
196.295211
 30
0.0
 10
36.520215
 20
199.284098
 30
0.0
  0
LWPOLYLINE
  5
4a2
100
AcDbEntity
  8
0
 62
7
100
AcDbPolyline
 90
1
 70
1
 10
102.581768
 20
192.484359
 30
0.0
  0
SPLINE
  5
4a3
100
AcDbEntity
  8
0
 62
7
100
AcDbSpline
 70
8
 71
3
 72
8
 73
4
 74
0
 40
0
 40
0
 40
0
 40
0
 40
1
 40
1
 40
1
 40
1
 10
36.601924
 20
203.782015
 30
0.0
 10
34.771256
 20
208.505610
 30
0.0
 10
32.662895
 20
211.996716
 30
0.0
 10
30.286804
 20
214.238824
 30
0.0
  0
SPLINE
  5
4a4
100
AcDbEntity
  8
0
 62
7
100
AcDbSpline
 70
8
 71
3
 72
8
 73
4
 74
0
 40
0
 40
0
 40
0
 40
0
 40
1
 40
1
 40
1
 40
1
 10
30.286804
 20
214.238824
 30
0.0
 10
27.975962
 20
216.419366
 30
0.0
 10
25.367879
 20
217.277394
 30
0.0
 10
22.410065
 20
216.830177
 30
0.0
  0
SPLINE
  5
4a5
100
AcDbEntity
  8
0
 62
7
100
AcDbSpline
 70
8
 71
3
 72
8
 73
4
 74
0
 40
0
 40
0
 40
0
 40
0
 40
1
 40
1
 40
1
 40
1
 10
22.410065
 20
216.830177
 30
0.0
 10
20.358746
 20
216.520019
 30
0.0
 10
20.353718
 20
216.454847
 30
0.0
 10
22.171432
 20
213.737336
 30
0.0
  0
SPLINE
  5
4a6
100
AcDbEntity
  8
0
 62
7
100
AcDbSpline
 70
8
 71
3
 72
8
 73
4
 74
0
 40
0
 40
0
 40
0
 40
0
 40
1
 40
1
 40
1
 40
1
 10
22.171432
 20
213.737336
 30
0.0
 10
24.741481
 20
209.895067
 30
0.0
 10
26.387480
 20
206.318429
 30
0.0
 10
27.241304
 20
202.720861
 30
0.0
  0
SPLINE
  5
4a7
100
AcDbEntity
  8
0
 62
7
100
AcDbSpline
 70
8
 71
3
 72
8
 73
4
 74
0
 40
0
 40
0
 40
0
 40
0
 40
1
 40
1
 40
1
 40
1
 10
27.241304
 20
202.720861
 30
0.0
 10
27.406163
 20
202.026226
 30
0.0
 10
27.615653
 20
200.029900
 30
0.0
 10
27.706836
 20
198.284576
 30
0.0
  0
LWPOLYLINE
  5
4a8
100
AcDbEntity
  8
0
 62
7
100
AcDbPolyline
 90
3
 70
0
 10
36.520215
 20
199.284098
 30
0.0
 10
37.341852
 20
201.872805
 30
0.0
 10
36.601924
 20
203.782015
 30
0.0
  0
SPLINE
  5
4a9
100
AcDbEntity
  8
0
 62
7
100
AcDbSpline
 70
8
 71
3
 72
8
 73
4
 74
0
 40
0
 40
0
 40
0
 40
0
 40
1
 40
1
 40
1
 40
1
 10
29.316124
 20
194.249680
 30
0.0
 10
30.919788
 20
193.292505
 30
0.0
 10
32.090127
 20
193.161094
 30
0.0
 10
33.324800
 20
193.799568
 30
0.0
  0
LWPOLYLINE
  5
4aa
100
AcDbEntity
  8
0
 62
7
100
AcDbPolyline
 90
3
 70
0
 10
27.706836
 20
198.284576
 30
0.0
 10
27.872621
 20
195.111264
 30
0.0
 10
29.316124
 20
194.249680
 30
0.0
  0
SPLINE
  5
4ab
100
AcDbEntity
  8
0
 62
7
100
AcDbSpline
 70
8
 71
3
 72
8
 73
4
 74
0
 40
0
 40
0
 40
0
 40
0
 40
1
 40
1
 40
1
 40
1
 10
71.842873
 20
194.512578
 30
0.0
 10
69.859329
 20
199.215634
 30
0.0
 10
69.575667
 20
200.245054
 30
0.0
 10
68.361531
 20
207.146432
 30
0.0
  0
SPLINE
  5
4ac
100
AcDbEntity
  8
0
 62
7
100
AcDbSpline
 70
8
 71
3
 72
8
 73
4
 74
0
 40
0
 40
0
 40
0
 40
0
 40
1
 40
1
 40
1
 40
1
 10
68.361531
 20
207.146432
 30
0.0
 10
67.244936
 20
213.493363
 30
0.0
 10
66.666129
 20
215.607016
 30
0.0
 10
65.359910
 20
218.107567
 30
0.0
  0
SPLINE
  5
4ad
100
AcDbEntity
  8
0
 62
7
100
AcDbSpline
 70
8
 71
3
 72
8
 73
4
 74
0
 40
0
 40
0
 40
0
 40
0
 40
1
 40
1
 40
1
 40
1
 10
65.359910
 20
218.107567
 30
0.0
 10
63.742557
 20
221.203732
 30
0.0
 10
59.806935
 20
224.626903
 30
0.0
 10
58.813001
 20
223.802011
 30
0.0
  0
SPLINE
  5
4ae
100
AcDbEntity
  8
0
 62
7
100
AcDbSpline
 70
8
 71
3
 72
8
 73
4
 74
0
 40
0
 40
0
 40
0
 40
0
 40
1
 40
1
 40
1
 40
1
 10
58.813001
 20
223.802011
 30
0.0
 10
58.223026
 20
223.312376
 30
0.0
 10
55.335278
 20
218.929185
 30
0.0
 10
54.476142
 20
217.219276
 30
0.0
  0
SPLINE
  5
4af
100
AcDbEntity
  8
0
 62
7
100
AcDbSpline
 70
8
 71
3
 72
8
 73
4
 74
0
 40
0
 40
0
 40
0
 40
0
 40
1
 40
1
 40
1
 40
1
 10
54.476142
 20
217.219276
 30
0.0
 10
50.316085
 20
208.939654
 30
0.0
 10
51.237864
 20
201.407421
 30
0.0
 10
56.871555
 20
197.645388
 30
0.0
  0
SPLINE
  5
4b0
100
AcDbEntity
  8
0
 62
7
100
AcDbSpline
 70
8
 71
3
 72
8
 73
4
 74
0
 40
0
 40
0
 40
0
 40
0
 40
1
 40
1
 40
1
 40
1
 10
56.871555
 20
197.645388
 30
0.0
 10
58.285996
 20
196.700860
 30
0.0
 10
58.552151
 20
196.626004
 30
0.0
 10
61.570717
 20
196.323709
 30
0.0
  0
SPLINE
  5
4b1
100
AcDbEntity
  8
0
 62
7
100
AcDbSpline
 70
8
 71
3
 72
8
 73
4
 74
0
 40
0
 40
0
 40
0
 40
0
 40
1
 40
1
 40
1
 40
1
 10
61.570717
 20
196.323709
 30
0.0
 10
64.535370
 20
196.026818
 30
0.0
 10
69.048154
 20
195.106279
 30
0.0
 10
70.602830
 20
194.481297
 30
0.0
  0
SPLINE
  5
4b2
100
AcDbEntity
  8
0
 62
7
100
AcDbSpline
 70
8
 71
3
 72
8
 73
4
 74
0
 40
0
 40
0
 40
0
 40
0
 40
1
 40
1
 40
1
 40
1
 10
70.602830
 20
194.481297
 30
0.0
 10
71.525125
 20
194.110536
 30
0.0
 10
72.007309
 20
194.122699
 30
0.0
 10
71.842873
 20
194.512578
 30
0.0
  0
LWPOLYLINE
  5
4b3
100
AcDbEntity
  8
0
 62
7
100
AcDbPolyline
 90
1
 70
1
 10
33.324800
 20
193.799568
 30
0.0
  0
SPLINE
  5
4b4
100
AcDbEntity
  8
0
 62
7
100
AcDbSpline
 70
8
 71
3
 72
8
 73
4
 74
0
 40
0
 40
0
 40
0
 40
0
 40
1
 40
1
 40
1
 40
1
 10
12.231378
 20
196.232370
 30
0.0
 10
11.659257
 20
203.202045
 30
0.0
 10
10.185143
 20
207.390455
 30
0.0
 10
7.184392
 20
210.572400
 30
0.0
  0
LWPOLYLINE
  5
4b5
100
AcDbEntity
  8
0
 62
7
100
AcDbPolyline
 90
1
 70
1
 10
71.842873
 20
194.512578
 30
0.0
  0
SPLINE
  5
4b6
100
AcDbEntity
  8
0
 62
7
100
AcDbSpline
 70
8
 71
3
 72
8
 73
4
 74
0
 40
0
 40
0
 40
0
 40
0
 40
1
 40
1
 40
1
 40
1
 10
7.301268
 20
196.176008
 30
0.0
 10
8.138013
 20
195.942455
 30
0.0
 10
9.417935
 20
195.530600
 30
0.0
 10
10.145539
 20
195.260770
 30
0.0
  0
SPLINE
  5
4b7
100
AcDbEntity
  8
0
 62
7
100
AcDbSpline
 70
8
 71
3
 72
8
 73
4
 74
0
 40
0
 40
0
 40
0
 40
0
 40
1
 40
1
 40
1
 40
1
 10
10.145539
 20
195.260770
 30
0.0
 10
12.320983
 20
194.454015
 30
0.0
 10
12.375284
 20
194.479310
 30
0.0
 10
12.231380
 20
196.232370
 30
0.0
  0
LWPOLYLINE
  5
4b8
100
AcDbEntity
  8
0
 62
7
100
AcDbPolyline
 90
5
 70
0
 10
7.184392
 20
210.572400
 30
0.0
 10
5.799208
 20
212.041224
 30
0.0
 10
5.789561
 20
204.320936
 30
0.0
 10
5.779914
 20
196.600649
 30
0.0
 10
7.301268
 20
196.176008
 30
0.0
  0
SPLINE
  5
4b9
100
AcDbEntity
  8
0
 62
7
100
AcDbSpline
 70
8
 71
3
 72
8
 73
4
 74
0
 40
0
 40
0
 40
0
 40
0
 40
1
 40
1
 40
1
 40
1
 10
133.191406
 20
203.706849
 30
0.0
 10
132.871983
 20
210.516070
 30
0.0
 10
131.287504
 20
216.615071
 30
0.0
 10
127.552365
 20
225.412726
 30
0.0
  0
SPLINE
  5
4ba
100
AcDbEntity
  8
0
 62
7
100
AcDbSpline
 70
8
 71
3
 72
8
 73
4
 74
0
 40
0
 40
0
 40
0
 40
0
 40
1
 40
1
 40
1
 40
1
 10
127.552365
 20
225.412726
 30
0.0
 10
125.469417
 20
230.318855
 30
0.0
 10
124.483032
 20
233.244549
 30
0.0
 10
124.015690
 20
235.902762
 30
0.0
  0
SPLINE
  5
4bb
100
AcDbEntity
  8
0
 62
7
100
AcDbSpline
 70
8
 71
3
 72
8
 73
4
 74
0
 40
0
 40
0
 40
0
 40
0
 40
1
 40
1
 40
1
 40
1
 10
124.015690
 20
235.902762
 30
0.0
 10
123.841346
 20
236.894436
 30
0.0
 10
123.610492
 20
237.807272
 30
0.0
 10
123.502685
 20
237.931283
 30
0.0
  0
SPLINE
  5
4bc
100
AcDbEntity
  8
0
 62
7
100
AcDbSpline
 70
8
 71
3
 72
8
 73
4
 74
0
 40
0
 40
0
 40
0
 40
0
 40
1
 40
1
 40
1
 40
1
 10
123.502685
 20
237.931283
 30
0.0
 10
123.267491
 20
238.201824
 30
0.0
 10
120.859288
 20
234.852549
 30
0.0
 10
119.821100
 20
232.811016
 30
0.0
  0
SPLINE
  5
4bd
100
AcDbEntity
  8
0
 62
7
100
AcDbSpline
 70
8
 71
3
 72
8
 73
4
 74
0
 40
0
 40
0
 40
0
 40
0
 40
1
 40
1
 40
1
 40
1
 10
119.821100
 20
232.811016
 30
0.0
 10
118.245001
 20
229.711716
 30
0.0
 10
117.798966
 20
226.420156
 30
0.0
 10
118.634267
 20
224.052662
 30
0.0
  0
SPLINE
  5
4be
100
AcDbEntity
  8
0
 62
7
100
AcDbSpline
 70
8
 71
3
 72
8
 73
4
 74
0
 40
0
 40
0
 40
0
 40
0
 40
1
 40
1
 40
1
 40
1
 10
118.634267
 20
224.052662
 30
0.0
 10
118.857808
 20
223.419080
 30
0.0
 10
119.690269
 20
222.052631
 30
0.0
 10
120.484178
 20
221.016113
 30
0.0
  0
SPLINE
  5
4bf
100
AcDbEntity
  8
0
 62
7
100
AcDbSpline
 70
8
 71
3
 72
8
 73
4
 74
0
 40
0
 40
0
 40
0
 40
0
 40
1
 40
1
 40
1
 40
1
 10
120.484178
 20
221.016113
 30
0.0
 10
122.197987
 20
218.778585
 30
0.0
 10
122.625390
 20
217.677137
 30
0.0
 10
123.145434
 20
214.157891
 30
0.0
  0
SPLINE
  5
4c0
100
AcDbEntity
  8
0
 62
7
100
AcDbSpline
 70
8
 71
3
 72
8
 73
4
 74
0
 40
0
 40
0
 40
0
 40
0
 40
1
 40
1
 40
1
 40
1
 10
123.145434
 20
214.157891
 30
0.0
 10
123.360471
 20
212.702682
 30
0.0
 10
123.720349
 20
210.947770
 30
0.0
 10
123.945163
 20
210.258086
 30
0.0
  0
SPLINE
  5
4c1
100
AcDbEntity
  8
0
 62
7
100
AcDbSpline
 70
8
 71
3
 72
8
 73
4
 74
0
 40
0
 40
0
 40
0
 40
0
 40
1
 40
1
 40
1
 40
1
 10
123.945163
 20
210.258086
 30
0.0
 10
124.641515
 20
208.121811
 30
0.0
 10
127.201335
 20
204.494201
 30
0.0
 10
131.168214
 20
200.022055
 30
0.0
  0
LWPOLYLINE
  5
4c2
100
AcDbEntity
  8
0
 62
7
100
AcDbPolyline
 90
1
 70
1
 10
12.231380
 20
196.232370
 30
0.0
  0
SPLINE
  5
4c3
100
AcDbEntity
  8
0
 62
7
100
AcDbSpline
 70
8
 71
3
 72
8
 73
4
 74
0
 40
0
 40
0
 40
0
 40
0
 40
1
 40
1
 40
1
 40
1
 10
133.122675
 20
199.360597
 30
0.0
 10
133.238981
 20
200.077546
 30
0.0
 10
133.269911
 20
202.033359
 30
0.0
 10
133.191406
 20
203.706849
 30
0.0
  0
LWPOLYLINE
  5
4c4
100
AcDbEntity
  8
0
 62
7
100
AcDbPolyline
 90
3
 70
0
 10
131.168214
 20
200.022055
 30
0.0
 10
132.911207
 20
198.057050
 30
0.0
 10
133.122675
 20
199.360597
 30
0.0
  0
SPLINE
  5
4c5
100
AcDbEntity
  8
0
 62
7
100
AcDbSpline
 70
8
 71
3
 72
8
 73
4
 74
0
 40
0
 40
0
 40
0
 40
0
 40
1
 40
1
 40
1
 40
1
 10
49.699183
 20
200.669610
 30
0.0
 10
48.846751
 20
203.650408
 30
0.0
 10
48.564398
 20
207.079488
 30
0.0
 10
48.905562
 20
210.307870
 30
0.0
  0
SPLINE
  5
4c6
100
AcDbEntity
  8
0
 62
7
100
AcDbSpline
 70
8
 71
3
 72
8
 73
4
 74
0
 40
0
 40
0
 40
0
 40
0
 40
1
 40
1
 40
1
 40
1
 10
48.905562
 20
210.307870
 30
0.0
 10
49.237265
 20
213.446715
 30
0.0
 10
49.120565
 20
214.252241
 30
0.0
 10
47.950972
 20
216.896897
 30
0.0
  0
SPLINE
  5
4c7
100
AcDbEntity
  8
0
 62
7
100
AcDbSpline
 70
8
 71
3
 72
8
 73
4
 74
0
 40
0
 40
0
 40
0
 40
0
 40
1
 40
1
 40
1
 40
1
 10
47.950972
 20
216.896897
 30
0.0
 10
47.263719
 20
218.450898
 30
0.0
 10
45.312730
 20
221.169349
 30
0.0
 10
44.884700
 20
221.169349
 30
0.0
  0
SPLINE
  5
4c8
100
AcDbEntity
  8
0
 62
7
100
AcDbSpline
 70
8
 71
3
 72
8
 73
4
 74
0
 40
0
 40
0
 40
0
 40
0
 40
1
 40
1
 40
1
 40
1
 10
44.884700
 20
221.169349
 30
0.0
 10
44.745124
 20
221.169349
 30
0.0
 10
43.658274
 20
220.185843
 30
0.0
 10
42.469480
 20
218.983780
 30
0.0
  0
SPLINE
  5
4c9
100
AcDbEntity
  8
0
 62
7
100
AcDbSpline
 70
8
 71
3
 72
8
 73
4
 74
0
 40
0
 40
0
 40
0
 40
0
 40
1
 40
1
 40
1
 40
1
 10
42.469480
 20
218.983780
 30
0.0
 10
40.980095
 20
217.477769
 30
0.0
 10
40.020105
 20
216.227038
 30
0.0
 10
39.381996
 20
214.961224
 30
0.0
  0
SPLINE
  5
4ca
100
AcDbEntity
  8
0
 62
7
100
AcDbSpline
 70
8
 71
3
 72
8
 73
4
 74
0
 40
0
 40
0
 40
0
 40
0
 40
1
 40
1
 40
1
 40
1
 10
39.381996
 20
214.961224
 30
0.0
 10
38.515277
 20
213.241914
 30
0.0
 10
38.456193
 20
212.962429
 30
0.0
 10
38.459677
 20
210.598356
 30
0.0
  0
SPLINE
  5
4cb
100
AcDbEntity
  8
0
 62
7
100
AcDbSpline
 70
8
 71
3
 72
8
 73
4
 74
0
 40
0
 40
0
 40
0
 40
0
 40
1
 40
1
 40
1
 40
1
 10
38.459677
 20
210.598356
 30
0.0
 10
38.462985
 20
208.352186
 30
0.0
 10
38.548784
 20
207.896677
 30
0.0
 10
39.234425
 20
206.484974
 30
0.0
  0
SPLINE
  5
4cc
100
AcDbEntity
  8
0
 62
7
100
AcDbSpline
 70
8
 71
3
 72
8
 73
4
 74
0
 40
0
 40
0
 40
0
 40
0
 40
1
 40
1
 40
1
 40
1
 10
39.234425
 20
206.484974
 30
0.0
 10
40.661908
 20
203.545858
 30
0.0
 10
43.962307
 20
200.881782
 30
0.0
 10
47.917899
 20
199.475685
 30
0.0
  0
SPLINE
  5
4cd
100
AcDbEntity
  8
0
 62
7
100
AcDbSpline
 70
8
 71
3
 72
8
 73
4
 74
0
 40
0
 40
0
 40
0
 40
0
 40
1
 40
1
 40
1
 40
1
 10
47.917899
 20
199.475685
 30
0.0
 10
50.250730
 20
198.646434
 30
0.0
 10
50.273410
 20
198.661636
 30
0.0
 10
49.699183
 20
200.669610
 30
0.0
  0
LWPOLYLINE
  5
4ce
100
AcDbEntity
  8
0
 62
7
100
AcDbPolyline
 90
1
 70
1
 10
133.191406
 20
203.706849
 30
0.0
  0
SPLINE
  5
4cf
100
AcDbEntity
  8
0
 62
7
100
AcDbSpline
 70
8
 71
3
 72
8
 73
4
 74
0
 40
0
 40
0
 40
0
 40
0
 40
1
 40
1
 40
1
 40
1
 10
108.472692
 20
201.524037
 30
0.0
 10
108.927762
 20
202.674778
 30
0.0
 10
109.076511
 20
203.593253
 30
0.0
 10
109.083303
 20
205.294349
 30
0.0
  0
SPLINE
  5
4d0
100
AcDbEntity
  8
0
 62
7
100
AcDbSpline
 70
8
 71
3
 72
8
 73
4
 74
0
 40
0
 40
0
 40
0
 40
0
 40
1
 40
1
 40
1
 40
1
 10
109.083303
 20
205.294349
 30
0.0
 10
109.091082
 20
207.241450
 30
0.0
 10
108.996745
 20
207.720872
 30
0.0
 10
108.380493
 20
208.866224
 30
0.0
  0
SPLINE
  5
4d1
100
AcDbEntity
  8
0
 62
7
100
AcDbSpline
 70
8
 71
3
 72
8
 73
4
 74
0
 40
0
 40
0
 40
0
 40
0
 40
1
 40
1
 40
1
 40
1
 10
108.380493
 20
208.866224
 30
0.0
 10
107.510815
 20
210.482590
 30
0.0
 10
106.260792
 20
211.908932
 30
0.0
 10
105.713911
 20
211.908932
 30
0.0
  0
SPLINE
  5
4d2
100
AcDbEntity
  8
0
 62
7
100
AcDbSpline
 70
8
 71
3
 72
8
 73
4
 74
0
 40
0
 40
0
 40
0
 40
0
 40
1
 40
1
 40
1
 40
1
 10
105.713911
 20
211.908932
 30
0.0
 10
105.200146
 20
211.908932
 30
0.0
 10
103.259710
 20
209.722828
 30
0.0
 10
102.561559
 20
208.357478
 30
0.0
  0
SPLINE
  5
4d3
100
AcDbEntity
  8
0
 62
7
100
AcDbSpline
 70
8
 71
3
 72
8
 73
4
 74
0
 40
0
 40
0
 40
0
 40
0
 40
1
 40
1
 40
1
 40
1
 10
102.561559
 20
208.357478
 30
0.0
 10
102.184901
 20
207.620865
 30
0.0
 10
102.071482
 20
207.016535
 30
0.0
 10
102.170852
 20
206.275686
 30
0.0
  0
SPLINE
  5
4d4
100
AcDbEntity
  8
0
 62
7
100
AcDbSpline
 70
8
 71
3
 72
8
 73
4
 74
0
 40
0
 40
0
 40
0
 40
0
 40
1
 40
1
 40
1
 40
1
 10
102.170852
 20
206.275686
 30
0.0
 10
102.290634
 20
205.382630
 30
0.0
 10
102.686612
 20
204.857906
 30
0.0
 10
104.911536
 20
202.643909
 30
0.0
  0
SPLINE
  5
4d5
100
AcDbEntity
  8
0
 62
7
100
AcDbSpline
 70
8
 71
3
 72
8
 73
4
 74
0
 40
0
 40
0
 40
0
 40
0
 40
1
 40
1
 40
1
 40
1
 10
104.911536
 20
202.643909
 30
0.0
 10
106.341902
 20
201.220567
 30
0.0
 10
107.592947
 20
200.044013
 30
0.0
 10
107.691632
 20
200.029347
 30
0.0
  0
SPLINE
  5
4d6
100
AcDbEntity
  8
0
 62
7
100
AcDbSpline
 70
8
 71
3
 72
8
 73
4
 74
0
 40
0
 40
0
 40
0
 40
0
 40
1
 40
1
 40
1
 40
1
 10
107.691632
 20
200.029347
 30
0.0
 10
107.790316
 20
200.014689
 30
0.0
 10
108.141794
 20
200.687292
 30
0.0
 10
108.472692
 20
201.524037
 30
0.0
  0
LWPOLYLINE
  5
4d7
100
AcDbEntity
  8
0
 62
7
100
AcDbPolyline
 90
1
 70
1
 10
49.699183
 20
200.669610
 30
0.0
  0
SPLINE
  5
4d8
100
AcDbEntity
  8
0
 62
7
100
AcDbSpline
 70
8
 71
3
 72
8
 73
4
 74
0
 40
0
 40
0
 40
0
 40
0
 40
1
 40
1
 40
1
 40
1
 10
118.455826
 20
206.356154
 30
0.0
 10
119.224229
 20
208.461335
 30
0.0
 10
119.498930
 20
212.387669
 30
0.0
 10
119.034375
 20
214.625417
 30
0.0
  0
SPLINE
  5
4d9
100
AcDbEntity
  8
0
 62
7
100
AcDbSpline
 70
8
 71
3
 72
8
 73
4
 74
0
 40
0
 40
0
 40
0
 40
0
 40
1
 40
1
 40
1
 40
1
 10
119.034375
 20
214.625417
 30
0.0
 10
118.557971
 20
216.920249
 30
0.0
 10
117.103848
 20
219.567146
 30
0.0
 10
115.175064
 20
221.650412
 30
0.0
  0
SPLINE
  5
4da
100
AcDbEntity
  8
0
 62
7
100
AcDbSpline
 70
8
 71
3
 72
8
 73
4
 74
0
 40
0
 40
0
 40
0
 40
0
 40
1
 40
1
 40
1
 40
1
 10
115.175064
 20
221.650412
 30
0.0
 10
111.098957
 20
226.052986
 30
0.0
 10
108.795661
 20
225.332422
 30
0.0
 10
108.501251
 20
219.562579
 30
0.0
  0
SPLINE
  5
4db
100
AcDbEntity
  8
0
 62
7
100
AcDbSpline
 70
8
 71
3
 72
8
 73
4
 74
0
 40
0
 40
0
 40
0
 40
0
 40
1
 40
1
 40
1
 40
1
 10
108.501251
 20
219.562579
 30
0.0
 10
108.390322
 20
217.388596
 30
0.0
 10
108.450351
 20
216.852675
 30
0.0
 10
108.924963
 20
215.779736
 30
0.0
  0
SPLINE
  5
4dc
100
AcDbEntity
  8
0
 62
7
100
AcDbSpline
 70
8
 71
3
 72
8
 73
4
 74
0
 40
0
 40
0
 40
0
 40
0
 40
1
 40
1
 40
1
 40
1
 10
108.924963
 20
215.779736
 30
0.0
 10
109.592936
 20
214.269667
 30
0.0
 10
112.661933
 20
209.099063
 30
0.0
 10
113.950038
 20
207.313554
 30
0.0
  0
SPLINE
  5
4dd
100
AcDbEntity
  8
0
 62
7
100
AcDbSpline
 70
8
 71
3
 72
8
 73
4
 74
0
 40
0
 40
0
 40
0
 40
0
 40
1
 40
1
 40
1
 40
1
 10
113.950038
 20
207.313554
 30
0.0
 10
114.989128
 20
205.873215
 30
0.0
 10
116.794894
 20
204.440610
 30
0.0
 10
117.419654
 20
204.560929
 30
0.0
  0
SPLINE
  5
4de
100
AcDbEntity
  8
0
 62
7
100
AcDbSpline
 70
8
 71
3
 72
8
 73
4
 74
0
 40
0
 40
0
 40
0
 40
0
 40
1
 40
1
 40
1
 40
1
 10
117.419654
 20
204.560929
 30
0.0
 10
117.652943
 20
204.605856
 30
0.0
 10
118.099115
 20
205.378875
 30
0.0
 10
118.455826
 20
206.356154
 30
0.0
  0
LWPOLYLINE
  5
4df
100
AcDbEntity
  8
0
 62
7
100
AcDbPolyline
 90
1
 70
1
 10
108.472692
 20
201.524037
 30
0.0
  0
SPLINE
  5
4e0
100
AcDbEntity
  8
0
 62
7
100
AcDbSpline
 70
8
 71
3
 72
8
 73
4
 74
0
 40
0
 40
0
 40
0
 40
0
 40
1
 40
1
 40
1
 40
1
 10
78.851609
 20
212.536654
 30
0.0
 10
79.708346
 20
213.557022
 30
0.0
 10
80.792278
 20
215.169779
 30
0.0
 10
81.260344
 20
216.120559
 30
0.0
  0
SPLINE
  5
4e1
100
AcDbEntity
  8
0
 62
7
100
AcDbSpline
 70
8
 71
3
 72
8
 73
4
 74
0
 40
0
 40
0
 40
0
 40
0
 40
1
 40
1
 40
1
 40
1
 10
81.260344
 20
216.120559
 30
0.0
 10
82.017063
 20
217.657669
 30
0.0
 10
82.111334
 20
218.099193
 30
0.0
 10
82.111006
 20
220.104610
 30
0.0
  0
SPLINE
  5
4e2
100
AcDbEntity
  8
0
 62
7
100
AcDbSpline
 70
8
 71
3
 72
8
 73
4
 74
0
 40
0
 40
0
 40
0
 40
0
 40
1
 40
1
 40
1
 40
1
 10
82.111006
 20
220.104610
 30
0.0
 10
82.110763
 20
221.604020
 30
0.0
 10
81.948774
 20
222.824971
 30
0.0
 10
81.627721
 20
223.747277
 30
0.0
  0
SPLINE
  5
4e3
100
AcDbEntity
  8
0
 62
7
100
AcDbSpline
 70
8
 71
3
 72
8
 73
4
 74
0
 40
0
 40
0
 40
0
 40
0
 40
1
 40
1
 40
1
 40
1
 10
81.627721
 20
223.747277
 30
0.0
 10
81.058287
 20
225.383124
 30
0.0
 10
81.150275
 20
225.402180
 30
0.0
 10
77.975296
 20
222.990688
 30
0.0
  0
SPLINE
  5
4e4
100
AcDbEntity
  8
0
 62
7
100
AcDbSpline
 70
8
 71
3
 72
8
 73
4
 74
0
 40
0
 40
0
 40
0
 40
0
 40
1
 40
1
 40
1
 40
1
 10
77.975296
 20
222.990688
 30
0.0
 10
74.501909
 20
220.352543
 30
0.0
 10
72.386486
 20
217.449149
 30
0.0
 10
71.658316
 20
214.320713
 30
0.0
  0
SPLINE
  5
4e5
100
AcDbEntity
  8
0
 62
7
100
AcDbSpline
 70
8
 71
3
 72
8
 73
4
 74
0
 40
0
 40
0
 40
0
 40
0
 40
1
 40
1
 40
1
 40
1
 10
71.658316
 20
214.320713
 30
0.0
 10
71.039379
 20
211.661563
 30
0.0
 10
71.790735
 20
208.032321
 30
0.0
 10
73.239651
 20
206.682448
 30
0.0
  0
LWPOLYLINE
  5
4e6
100
AcDbEntity
  8
0
 62
7
100
AcDbPolyline
 90
1
 70
1
 10
118.455826
 20
206.356154
 30
0.0
  0
SPLINE
  5
4e7
100
AcDbEntity
  8
0
 62
7
100
AcDbSpline
 70
8
 71
3
 72
8
 73
4
 74
0
 40
0
 40
0
 40
0
 40
0
 40
1
 40
1
 40
1
 40
1
 10
75.559915
 20
208.408841
 30
0.0
 10
76.513608
 20
209.658768
 30
0.0
 10
77.994870
 20
211.516285
 30
0.0
 10
78.851609
 20
212.536654
 30
0.0
  0
LWPOLYLINE
  5
4e8
100
AcDbEntity
  8
0
 62
7
100
AcDbPolyline
 90
3
 70
0
 10
73.239651
 20
206.682448
 30
0.0
 10
73.825931
 20
206.136245
 30
0.0
 10
75.559915
 20
208.408841
 30
0.0
  0
SPLINE
  5
4e9
100
AcDbEntity
  8
0
 62
7
100
AcDbSpline
 70
8
 71
3
 72
8
 73
4
 74
0
 40
0
 40
0
 40
0
 40
0
 40
1
 40
1
 40
1
 40
1
 10
138.130058
 20
208.964125
 30
0.0
 10
139.031562
 20
210.902031
 30
0.0
 10
140.781868
 20
212.860879
 30
0.0
 10
142.534476
 20
213.893307
 30
0.0
  0
LWPOLYLINE
  5
4ea
100
AcDbEntity
  8
0
 62
7
100
AcDbPolyline
 90
1
 70
1
 10
78.851609
 20
212.536654
 30
0.0
  0
SPLINE
  5
4eb
100
AcDbEntity
  8
0
 62
7
100
AcDbSpline
 70
8
 71
3
 72
8
 73
4
 74
0
 40
0
 40
0
 40
0
 40
0
 40
1
 40
1
 40
1
 40
1
 10
143.887150
 20
223.749037
 30
0.0
 10
143.890034
 20
228.733125
 30
0.0
 10
143.825042
 20
232.811016
 30
0.0
 10
143.742714
 20
232.811016
 30
0.0
  0
SPLINE
  5
4ec
100
AcDbEntity
  8
0
 62
7
100
AcDbSpline
 70
8
 71
3
 72
8
 73
4
 74
0
 40
0
 40
0
 40
0
 40
0
 40
1
 40
1
 40
1
 40
1
 10
143.742714
 20
232.811016
 30
0.0
 10
143.420351
 20
232.811016
 30
0.0
 10
142.383849
 20
232.156085
 30
0.0
 10
141.274199
 20
231.251244
 30
0.0
  0
SPLINE
  5
4ed
100
AcDbEntity
  8
0
 62
7
100
AcDbSpline
 70
8
 71
3
 72
8
 73
4
 74
0
 40
0
 40
0
 40
0
 40
0
 40
1
 40
1
 40
1
 40
1
 10
141.274199
 20
231.251244
 30
0.0
 10
139.120737
 20
229.495247
 30
0.0
 10
137.312212
 20
226.596149
 30
0.0
 10
136.222774
 20
223.153724
 30
0.0
  0
SPLINE
  5
4ee
100
AcDbEntity
  8
0
 62
7
100
AcDbSpline
 70
8
 71
3
 72
8
 73
4
 74
0
 40
0
 40
0
 40
0
 40
0
 40
1
 40
1
 40
1
 40
1
 10
136.222774
 20
223.153724
 30
0.0
 10
135.519189
 20
220.930526
 30
0.0
 10
135.224856
 20
216.087254
 30
0.0
 10
135.634283
 20
213.470088
 30
0.0
  0
SPLINE
  5
4ef
100
AcDbEntity
  8
0
 62
7
100
AcDbSpline
 70
8
 71
3
 72
8
 73
4
 74
0
 40
0
 40
0
 40
0
 40
0
 40
1
 40
1
 40
1
 40
1
 10
135.634283
 20
213.470088
 30
0.0
 10
135.968991
 20
211.330545
 30
0.0
 10
137.008873
 20
207.410002
 30
0.0
 10
137.240656
 20
207.413770
 30
0.0
  0
SPLINE
  5
4f0
100
AcDbEntity
  8
0
 62
7
100
AcDbSpline
 70
8
 71
3
 72
8
 73
4
 74
0
 40
0
 40
0
 40
0
 40
0
 40
1
 40
1
 40
1
 40
1
 10
137.240656
 20
207.413770
 30
0.0
 10
137.333855
 20
207.415358
 30
0.0
 10
137.734080
 20
208.112945
 30
0.0
 10
138.130045
 20
208.964125
 30
0.0
  0
LWPOLYLINE
  5
4f1
100
AcDbEntity
  8
0
 62
7
100
AcDbPolyline
 90
3
 70
0
 10
142.534476
 20
213.893307
 30
0.0
 10
143.881912
 20
214.687057
 30
0.0
 10
143.887150
 20
223.749037
 30
0.0
  0
SPLINE
  5
4f2
100
AcDbEntity
  8
0
 62
7
100
AcDbSpline
 70
8
 71
3
 72
8
 73
4
 74
0
 40
0
 40
0
 40
0
 40
0
 40
1
 40
1
 40
1
 40
1
 10
103.995493
 20
215.795288
 30
0.0
 10
105.098641
 20
218.021535
 30
0.0
 10
105.132254
 20
218.166095
 30
0.0
 10
105.209435
 20
221.016203
 30
0.0
  0
SPLINE
  5
4f3
100
AcDbEntity
  8
0
 62
7
100
AcDbSpline
 70
8
 71
3
 72
8
 73
4
 74
0
 40
0
 40
0
 40
0
 40
0
 40
1
 40
1
 40
1
 40
1
 10
105.209435
 20
221.016203
 30
0.0
 10
105.287636
 20
223.903855
 30
0.0
 10
105.271282
 20
223.996689
 30
0.0
 10
104.110367
 20
227.254766
 30
0.0
  0
SPLINE
  5
4f4
100
AcDbEntity
  8
0
 62
7
100
AcDbSpline
 70
8
 71
3
 72
8
 73
4
 74
0
 40
0
 40
0
 40
0
 40
0
 40
1
 40
1
 40
1
 40
1
 10
104.110367
 20
227.254766
 30
0.0
 10
103.462217
 20
229.073776
 30
0.0
 10
102.494130
 20
231.791073
 30
0.0
 10
101.959061
 20
233.293203
 30
0.0
  0
SPLINE
  5
4f5
100
AcDbEntity
  8
0
 62
7
100
AcDbSpline
 70
8
 71
3
 72
8
 73
4
 74
0
 40
0
 40
0
 40
0
 40
0
 40
1
 40
1
 40
1
 40
1
 10
101.959061
 20
233.293203
 30
0.0
 10
101.301868
 20
235.138180
 30
0.0
 10
100.938793
 20
236.683457
 30
0.0
 10
100.840080
 20
238.055703
 30
0.0
  0
SPLINE
  5
4f6
100
AcDbEntity
  8
0
 62
7
100
AcDbSpline
 70
8
 71
3
 72
8
 73
4
 74
0
 40
0
 40
0
 40
0
 40
0
 40
1
 40
1
 40
1
 40
1
 10
100.840080
 20
238.055703
 30
0.0
 10
100.593951
 20
241.477199
 30
0.0
 10
100.188109
 20
241.715533
 30
0.0
 10
98.169489
 20
239.624037
 30
0.0
  0
SPLINE
  5
4f7
100
AcDbEntity
  8
0
 62
7
100
AcDbSpline
 70
8
 71
3
 72
8
 73
4
 74
0
 40
0
 40
0
 40
0
 40
0
 40
1
 40
1
 40
1
 40
1
 10
98.169489
 20
239.624037
 30
0.0
 10
95.848130
 20
237.218874
 30
0.0
 10
94.364426
 20
234.865505
 30
0.0
 10
93.206914
 20
231.752682
 30
0.0
  0
SPLINE
  5
4f8
100
AcDbEntity
  8
0
 62
7
100
AcDbSpline
 70
8
 71
3
 72
8
 73
4
 74
0
 40
0
 40
0
 40
0
 40
0
 40
1
 40
1
 40
1
 40
1
 10
93.206914
 20
231.752682
 30
0.0
 10
92.571713
 20
230.044479
 30
0.0
 10
92.466369
 20
229.363257
 30
0.0
 10
92.449986
 20
226.857891
 30
0.0
  0
SPLINE
  5
4f9
100
AcDbEntity
  8
0
 62
7
100
AcDbSpline
 70
8
 71
3
 72
8
 73
4
 74
0
 40
0
 40
0
 40
0
 40
0
 40
1
 40
1
 40
1
 40
1
 10
92.449986
 20
226.857891
 30
0.0
 10
92.427735
 20
223.454706
 30
0.0
 10
92.812661
 20
222.024919
 30
0.0
 10
94.515694
 20
219.184974
 30
0.0
  0
SPLINE
  5
4fa
100
AcDbEntity
  8
0
 62
7
100
AcDbSpline
 70
8
 71
3
 72
8
 73
4
 74
0
 40
0
 40
0
 40
0
 40
0
 40
1
 40
1
 40
1
 40
1
 10
94.515694
 20
219.184974
 30
0.0
 10
96.079093
 20
216.577884
 30
0.0
 10
97.211407
 20
214.100172
 30
0.0
 10
97.865975
 20
211.853947
 30
0.0
  0
SPLINE
  5
4fb
100
AcDbEntity
  8
0
 62
7
100
AcDbSpline
 70
8
 71
3
 72
8
 73
4
 74
0
 40
0
 40
0
 40
0
 40
0
 40
1
 40
1
 40
1
 40
1
 10
97.865975
 20
211.853947
 30
0.0
 10
98.175207
 20
210.792782
 30
0.0
 10
98.487735
 20
209.745964
 30
0.0
 10
98.560480
 20
209.527682
 30
0.0
  0
SPLINE
  5
4fc
100
AcDbEntity
  8
0
 62
7
100
AcDbSpline
 70
8
 71
3
 72
8
 73
4
 74
0
 40
0
 40
0
 40
0
 40
0
 40
1
 40
1
 40
1
 40
1
 10
98.560480
 20
209.527682
 30
0.0
 10
98.653103
 20
209.249759
 30
0.0
 10
99.317397
 20
209.786426
 30
0.0
 10
100.776839
 20
211.318226
 30
0.0
  0
SPLINE
  5
4fd
100
AcDbEntity
  8
0
 62
7
100
AcDbSpline
 70
8
 71
3
 72
8
 73
4
 74
0
 40
0
 40
0
 40
0
 40
0
 40
1
 40
1
 40
1
 40
1
 10
100.776839
 20
211.318226
 30
0.0
 10
102.320278
 20
212.938185
 30
0.0
 10
103.155255
 20
214.099619
 30
0.0
 10
103.995493
 20
215.795288
 30
0.0
  0
LWPOLYLINE
  5
4fe
100
AcDbEntity
  8
0
 62
7
100
AcDbPolyline
 90
1
 70
1
 10
138.130045
 20
208.964125
 30
0.0
  0
SPLINE
  5
4ff
100
AcDbEntity
  8
0
 62
7
100
AcDbSpline
 70
8
 71
3
 72
8
 73
4
 74
0
 40
0
 40
0
 40
0
 40
0
 40
1
 40
1
 40
1
 40
1
 10
36.423171
 20
214.753203
 30
0.0
 10
36.883329
 20
216.275404
 30
0.0
 10
38.881513
 20
219.499323
 30
0.0
 10
40.708228
 20
221.666821
 30
0.0
  0
LWPOLYLINE
  5
500
100
AcDbEntity
  8
0
 62
7
100
AcDbPolyline
 90
1
 70
1
 10
103.995493
 20
215.795288
 30
0.0
  0
SPLINE
  5
501
100
AcDbEntity
  8
0
 62
7
100
AcDbSpline
 70
8
 71
3
 72
8
 73
4
 74
0
 40
0
 40
0
 40
0
 40
0
 40
1
 40
1
 40
1
 40
1
 10
42.029089
 20
225.635571
 30
0.0
 10
41.850442
 20
226.744411
 30
0.0
 10
41.468111
 20
228.425547
 30
0.0
 10
41.179464
 20
229.371432
 30
0.0
  0
SPLINE
  5
502
100
AcDbEntity
  8
0
 62
7
100
AcDbSpline
 70
8
 71
3
 72
8
 73
4
 74
0
 40
0
 40
0
 40
0
 40
0
 40
1
 40
1
 40
1
 40
1
 10
41.179464
 20
229.371432
 30
0.0
 10
40.678531
 20
231.012968
 30
0.0
 10
39.445155
 20
233.338706
 30
0.0
 10
39.075027
 20
233.339709
 30
0.0
  0
SPLINE
  5
503
100
AcDbEntity
  8
0
 62
7
100
AcDbSpline
 70
8
 71
3
 72
8
 73
4
 74
0
 40
0
 40
0
 40
0
 40
0
 40
1
 40
1
 40
1
 40
1
 10
39.075027
 20
233.339709
 30
0.0
 10
38.752470
 20
233.340503
 30
0.0
 10
36.349847
 20
231.317956
 30
0.0
 10
35.254943
 20
230.123804
 30
0.0
  0
SPLINE
  5
504
100
AcDbEntity
  8
0
 62
7
100
AcDbSpline
 70
8
 71
3
 72
8
 73
4
 74
0
 40
0
 40
0
 40
0
 40
0
 40
1
 40
1
 40
1
 40
1
 10
35.254943
 20
230.123804
 30
0.0
 10
31.873960
 20
226.436357
 30
0.0
 10
31.111312
 20
222.081153
 30
0.0
 10
33.113086
 20
217.892450
 30
0.0
  0
SPLINE
  5
505
100
AcDbEntity
  8
0
 62
7
100
AcDbSpline
 70
8
 71
3
 72
8
 73
4
 74
0
 40
0
 40
0
 40
0
 40
0
 40
1
 40
1
 40
1
 40
1
 10
33.113086
 20
217.892450
 30
0.0
 10
33.928968
 20
216.185223
 30
0.0
 10
35.575835
 20
213.808765
 30
0.0
 10
35.966678
 20
213.774671
 30
0.0
  0
SPLINE
  5
506
100
AcDbEntity
  8
0
 62
7
100
AcDbSpline
 70
8
 71
3
 72
8
 73
4
 74
0
 40
0
 40
0
 40
0
 40
0
 40
1
 40
1
 40
1
 40
1
 10
35.966678
 20
213.774671
 30
0.0
 10
36.052784
 20
213.767157
 30
0.0
 10
36.258206
 20
214.207500
 30
0.0
 10
36.423171
 20
214.753203
 30
0.0
  0
LWPOLYLINE
  5
507
100
AcDbEntity
  8
0
 62
7
100
AcDbPolyline
 90
3
 70
0
 10
40.708228
 20
221.666821
 30
0.0
 10
42.353899
 20
223.619505
 30
0.0
 10
42.029089
 20
225.635571
 30
0.0
  0
SPLINE
  5
508
100
AcDbEntity
  8
0
 62
7
100
AcDbSpline
 70
8
 71
3
 72
8
 73
4
 74
0
 40
0
 40
0
 40
0
 40
0
 40
1
 40
1
 40
1
 40
1
 10
52.082451
 20
219.245365
 30
0.0
 10
52.446002
 20
219.933425
 30
0.0
 10
53.547981
 20
221.852485
 30
0.0
 10
54.531292
 20
223.509941
 30
0.0
  0
LWPOLYLINE
  5
509
100
AcDbEntity
  8
0
 62
7
100
AcDbPolyline
 90
1
 70
1
 10
36.423171
 20
214.753203
 30
0.0
  0
SPLINE
  5
50a
100
AcDbEntity
  8
0
 62
7
100
AcDbSpline
 70
8
 71
3
 72
8
 73
4
 74
0
 40
0
 40
0
 40
0
 40
0
 40
1
 40
1
 40
1
 40
1
 10
55.768327
 20
228.372990
 30
0.0
 10
55.465385
 20
229.390213
 30
0.0
 10
54.821230
 20
231.092095
 30
0.0
 10
54.336868
 20
232.154952
 30
0.0
  0
SPLINE
  5
50b
100
AcDbEntity
  8
0
 62
7
100
AcDbSpline
 70
8
 71
3
 72
8
 73
4
 74
0
 40
0
 40
0
 40
0
 40
0
 40
1
 40
1
 40
1
 40
1
 10
54.336868
 20
232.154952
 30
0.0
 10
53.500435
 20
233.990385
 30
0.0
 10
51.556960
 20
237.111630
 30
0.0
 10
51.058858
 20
237.419473
 30
0.0
  0
SPLINE
  5
50c
100
AcDbEntity
  8
0
 62
7
100
AcDbSpline
 70
8
 71
3
 72
8
 73
4
 74
0
 40
0
 40
0
 40
0
 40
0
 40
1
 40
1
 40
1
 40
1
 10
51.058858
 20
237.419473
 30
0.0
 10
50.777775
 20
237.593190
 30
0.0
 10
49.270227
 20
235.367155
 30
0.0
 10
48.099946
 20
233.050363
 30
0.0
  0
SPLINE
  5
50d
100
AcDbEntity
  8
0
 62
7
100
AcDbSpline
 70
8
 71
3
 72
8
 73
4
 74
0
 40
0
 40
0
 40
0
 40
0
 40
1
 40
1
 40
1
 40
1
 10
48.099946
 20
233.050363
 30
0.0
 10
47.065155
 20
231.001798
 30
0.0
 10
46.093647
 20
228.215005
 30
0.0
 10
45.851601
 20
226.600938
 30
0.0
  0
SPLINE
  5
50e
100
AcDbEntity
  8
0
 62
7
100
AcDbSpline
 70
8
 71
3
 72
8
 73
4
 74
0
 40
0
 40
0
 40
0
 40
0
 40
1
 40
1
 40
1
 40
1
 10
45.851601
 20
226.600938
 30
0.0
 10
45.680262
 20
225.458361
 30
0.0
 10
45.721148
 20
225.360209
 30
0.0
 10
46.927161
 20
224.018885
 30
0.0
  0
SPLINE
  5
50f
100
AcDbEntity
  8
0
 62
7
100
AcDbSpline
 70
8
 71
3
 72
8
 73
4
 74
0
 40
0
 40
0
 40
0
 40
0
 40
1
 40
1
 40
1
 40
1
 10
46.927161
 20
224.018885
 30
0.0
 10
48.395710
 20
222.385567
 30
0.0
 10
50.305499
 20
219.758125
 30
0.0
 10
50.777301
 20
218.721953
 30
0.0
  0
SPLINE
  5
510
100
AcDbEntity
  8
0
 62
7
100
AcDbSpline
 70
8
 71
3
 72
8
 73
4
 74
0
 40
0
 40
0
 40
0
 40
0
 40
1
 40
1
 40
1
 40
1
 10
50.777301
 20
218.721953
 30
0.0
 10
50.959517
 20
218.321771
 30
0.0
 10
51.178992
 20
217.994349
 30
0.0
 10
51.265024
 20
217.994349
 30
0.0
  0
SPLINE
  5
511
100
AcDbEntity
  8
0
 62
7
100
AcDbSpline
 70
8
 71
3
 72
8
 73
4
 74
0
 40
0
 40
0
 40
0
 40
0
 40
1
 40
1
 40
1
 40
1
 10
51.265024
 20
217.994349
 30
0.0
 10
51.351056
 20
217.994349
 30
0.0
 10
51.718898
 20
218.557306
 30
0.0
 10
52.082451
 20
219.245365
 30
0.0
  0
LWPOLYLINE
  5
512
100
AcDbEntity
  8
0
 62
7
100
AcDbPolyline
 90
3
 70
0
 10
54.531292
 20
223.509941
 30
0.0
 10
56.319129
 20
226.523500
 30
0.0
 10
55.768327
 20
228.372990
 30
0.0
  0
SPLINE
  5
513
100
AcDbEntity
  8
0
 62
7
100
AcDbSpline
 70
8
 71
3
 72
8
 73
4
 74
0
 40
0
 40
0
 40
0
 40
0
 40
1
 40
1
 40
1
 40
1
 10
86.656024
 20
220.273809
 30
0.0
 10
88.053574
 20
221.755642
 30
0.0
 10
88.948985
 20
223.716779
 30
0.0
 10
88.971792
 20
225.345823
 30
0.0
  0
SPLINE
  5
514
100
AcDbEntity
  8
0
 62
7
100
AcDbSpline
 70
8
 71
3
 72
8
 73
4
 74
0
 40
0
 40
0
 40
0
 40
0
 40
1
 40
1
 40
1
 40
1
 10
88.971792
 20
225.345823
 30
0.0
 10
89.001171
 20
227.444075
 30
0.0
 10
87.890461
 20
227.852862
 30
0.0
 10
85.761991
 20
226.527162
 30
0.0
  0
SPLINE
  5
515
100
AcDbEntity
  8
0
 62
7
100
AcDbSpline
 70
8
 71
3
 72
8
 73
4
 74
0
 40
0
 40
0
 40
0
 40
0
 40
1
 40
1
 40
1
 40
1
 10
85.761991
 20
226.527162
 30
0.0
 10
84.669289
 20
225.846582
 30
0.0
 10
84.603114
 20
225.739706
 30
0.0
 10
84.738062
 20
224.873516
 30
0.0
  0
SPLINE
  5
516
100
AcDbEntity
  8
0
 62
7
100
AcDbSpline
 70
8
 71
3
 72
8
 73
4
 74
0
 40
0
 40
0
 40
0
 40
0
 40
1
 40
1
 40
1
 40
1
 10
84.738062
 20
224.873516
 30
0.0
 10
84.817413
 20
224.364193
 30
0.0
 10
84.960182
 20
222.905677
 30
0.0
 10
85.055324
 20
221.632370
 30
0.0
  0
SPLINE
  5
517
100
AcDbEntity
  8
0
 62
7
100
AcDbSpline
 70
8
 71
3
 72
8
 73
4
 74
0
 40
0
 40
0
 40
0
 40
0
 40
1
 40
1
 40
1
 40
1
 10
85.055324
 20
221.632370
 30
0.0
 10
85.150468
 20
220.359063
 30
0.0
 10
85.346566
 20
219.317266
 30
0.0
 10
85.491100
 20
219.317266
 30
0.0
  0
SPLINE
  5
518
100
AcDbEntity
  8
0
 62
7
100
AcDbSpline
 70
8
 71
3
 72
8
 73
4
 74
0
 40
0
 40
0
 40
0
 40
0
 40
1
 40
1
 40
1
 40
1
 10
85.491100
 20
219.317266
 30
0.0
 10
85.635634
 20
219.317266
 30
0.0
 10
86.159851
 20
219.747711
 30
0.0
 10
86.656024
 20
220.273809
 30
0.0
  0
LWPOLYLINE
  5
519
100
AcDbEntity
  8
0
 62
7
100
AcDbPolyline
 90
1
 70
1
 10
52.082451
 20
219.245365
 30
0.0
  0
LWPOLYLINE
  5
51a
100
AcDbEntity
  8
0
 62
7
100
AcDbPolyline
 90
1
 70
1
 10
86.656024
 20
220.273809
 30
0.0
  0
SPLINE
  5
51b
100
AcDbEntity
  8
0
 62
7
100
AcDbSpline
 70
8
 71
3
 72
8
 73
4
 74
0
 40
0
 40
0
 40
0
 40
0
 40
1
 40
1
 40
1
 40
1
 10
29.590296
 20
220.758475
 30
0.0
 10
29.581909
 20
224.179283
 30
0.0
 10
28.603181
 20
228.665770
 30
0.0
 10
27.220897
 20
231.620391
 30
0.0
  0
SPLINE
  5
51c
100
AcDbEntity
  8
0
 62
7
100
AcDbSpline
 70
8
 71
3
 72
8
 73
4
 74
0
 40
0
 40
0
 40
0
 40
0
 40
1
 40
1
 40
1
 40
1
 10
27.220897
 20
231.620391
 30
0.0
 10
26.024766
 20
234.177107
 30
0.0
 10
24.573320
 20
235.869512
 30
0.0
 10
22.674990
 20
236.920974
 30
0.0
  0
SPLINE
  5
51d
100
AcDbEntity
  8
0
 62
7
100
AcDbSpline
 70
8
 71
3
 72
8
 73
4
 74
0
 40
0
 40
0
 40
0
 40
0
 40
1
 40
1
 40
1
 40
1
 10
22.674990
 20
236.920974
 30
0.0
 10
21.395499
 20
237.629668
 30
0.0
 10
21.027029
 20
237.705297
 30
0.0
 10
18.876788
 20
237.700553
 30
0.0
  0
SPLINE
  5
51e
100
AcDbEntity
  8
0
 62
7
100
AcDbSpline
 70
8
 71
3
 72
8
 73
4
 74
0
 40
0
 40
0
 40
0
 40
0
 40
1
 40
1
 40
1
 40
1
 10
18.876788
 20
237.700553
 30
0.0
 10
15.959116
 20
237.694123
 30
0.0
 10
15.050384
 20
237.301159
 30
0.0
 10
11.879398
 20
234.674751
 30
0.0
  0
SPLINE
  5
51f
100
AcDbEntity
  8
0
 62
7
100
AcDbSpline
 70
8
 71
3
 72
8
 73
4
 74
0
 40
0
 40
0
 40
0
 40
0
 40
1
 40
1
 40
1
 40
1
 10
11.879398
 20
234.674751
 30
0.0
 10
9.647541
 20
232.826190
 30
0.0
 10
7.006479
 20
231.223516
 30
0.0
 10
6.192071
 20
231.223516
 30
0.0
  0
SPLINE
  5
520
100
AcDbEntity
  8
0
 62
7
100
AcDbSpline
 70
8
 71
3
 72
8
 73
4
 74
0
 40
0
 40
0
 40
0
 40
0
 40
1
 40
1
 40
1
 40
1
 10
6.192071
 20
231.223516
 30
0.0
 10
5.828473
 20
231.223516
 30
0.0
 10
5.766117
 20
230.986621
 30
0.0
 10
5.832231
 20
229.856480
 30
0.0
  0
LWPOLYLINE
  5
521
100
AcDbEntity
  8
0
 62
7
100
AcDbPolyline
 90
3
 70
0
 10
25.160642
 20
219.964728
 30
0.0
 10
29.592413
 20
219.950731
 30
0.0
 10
29.590296
 20
220.758475
 30
0.0
  0
SPLINE
  5
522
100
AcDbEntity
  8
0
 62
7
100
AcDbSpline
 70
8
 71
3
 72
8
 73
4
 74
0
 40
0
 40
0
 40
0
 40
0
 40
1
 40
1
 40
1
 40
1
 10
7.548078
 20
228.156931
 30
0.0
 10
9.476459
 20
227.764962
 30
0.0
 10
11.150470
 20
227.060900
 30
0.0
 10
12.716405
 20
225.983215
 30
0.0
  0
SPLINE
  5
523
100
AcDbEntity
  8
0
 62
7
100
AcDbSpline
 70
8
 71
3
 72
8
 73
4
 74
0
 40
0
 40
0
 40
0
 40
0
 40
1
 40
1
 40
1
 40
1
 10
12.716405
 20
225.983215
 30
0.0
 10
14.191450
 20
224.968083
 30
0.0
 10
16.760327
 20
222.321633
 30
0.0
 10
17.755108
 20
220.792357
 30
0.0
  0
SPLINE
  5
524
100
AcDbEntity
  8
0
 62
7
100
AcDbSpline
 70
8
 71
3
 72
8
 73
4
 74
0
 40
0
 40
0
 40
0
 40
0
 40
1
 40
1
 40
1
 40
1
 10
17.755108
 20
220.792357
 30
0.0
 10
18.530768
 20
219.599936
 30
0.0
 10
18.553628
 20
219.587649
 30
0.0
 10
19.634595
 20
219.781990
 30
0.0
  0
SPLINE
  5
525
100
AcDbEntity
  8
0
 62
7
100
AcDbSpline
 70
8
 71
3
 72
8
 73
4
 74
0
 40
0
 40
0
 40
0
 40
0
 40
1
 40
1
 40
1
 40
1
 10
19.634595
 20
219.781990
 30
0.0
 10
20.236447
 20
219.890194
 30
0.0
 10
22.723168
 20
219.972427
 30
0.0
 10
25.160642
 20
219.964728
 30
0.0
  0
LWPOLYLINE
  5
526
100
AcDbEntity
  8
0
 62
7
100
AcDbPolyline
 90
3
 70
0
 10
5.832231
 20
229.856480
 30
0.0
 10
5.912204
 20
228.489444
 30
0.0
 10
7.548078
 20
228.156931
 30
0.0
  0
SPLINE
  5
527
100
AcDbEntity
  8
0
 62
7
100
AcDbSpline
 70
8
 71
3
 72
8
 73
4
 74
0
 40
0
 40
0
 40
0
 40
0
 40
1
 40
1
 40
1
 40
1
 10
71.612099
 20
221.750033
 30
0.0
 10
72.793913
 20
223.155965
 30
0.0
 10
77.017605
 20
226.511837
 30
0.0
 10
79.340416
 20
227.890446
 30
0.0
  0
SPLINE
  5
528
100
AcDbEntity
  8
0
 62
7
100
AcDbSpline
 70
8
 71
3
 72
8
 73
4
 74
0
 40
0
 40
0
 40
0
 40
0
 40
1
 40
1
 40
1
 40
1
 10
79.340416
 20
227.890446
 30
0.0
 10
81.726992
 20
229.306903
 30
0.0
 10
84.878476
 20
230.709954
 30
0.0
 10
87.169456
 20
231.375961
 30
0.0
  0
SPLINE
  5
529
100
AcDbEntity
  8
0
 62
7
100
AcDbSpline
 70
8
 71
3
 72
8
 73
4
 74
0
 40
0
 40
0
 40
0
 40
0
 40
1
 40
1
 40
1
 40
1
 10
87.169456
 20
231.375961
 30
0.0
 10
88.526173
 20
231.770370
 30
0.0
 10
88.745909
 20
231.953927
 30
0.0
 10
90.185370
 20
233.895329
 30
0.0
  0
SPLINE
  5
52a
100
AcDbEntity
  8
0
 62
7
100
AcDbSpline
 70
8
 71
3
 72
8
 73
4
 74
0
 40
0
 40
0
 40
0
 40
0
 40
1
 40
1
 40
1
 40
1
 10
90.185370
 20
233.895329
 30
0.0
 10
91.039291
 20
235.047009
 30
0.0
 10
92.132002
 20
236.789725
 30
0.0
 10
92.613620
 20
237.768029
 30
0.0
  0
SPLINE
  5
52b
100
AcDbEntity
  8
0
 62
7
100
AcDbSpline
 70
8
 71
3
 72
8
 73
4
 74
0
 40
0
 40
0
 40
0
 40
0
 40
1
 40
1
 40
1
 40
1
 10
92.613620
 20
237.768029
 30
0.0
 10
93.357846
 20
239.279766
 30
0.0
 10
93.489288
 20
239.831364
 30
0.0
 10
93.489288
 20
241.442777
 30
0.0
  0
SPLINE
  5
52c
100
AcDbEntity
  8
0
 62
7
100
AcDbSpline
 70
8
 71
3
 72
8
 73
4
 74
0
 40
0
 40
0
 40
0
 40
0
 40
1
 40
1
 40
1
 40
1
 10
93.489288
 20
241.442777
 30
0.0
 10
93.489288
 20
243.615874
 30
0.0
 10
93.142663
 20
244.200601
 30
0.0
 10
91.372621
 20
245.013406
 30
0.0
  0
SPLINE
  5
52d
100
AcDbEntity
  8
0
 62
7
100
AcDbSpline
 70
8
 71
3
 72
8
 73
4
 74
0
 40
0
 40
0
 40
0
 40
0
 40
1
 40
1
 40
1
 40
1
 10
91.372621
 20
245.013406
 30
0.0
 10
87.860587
 20
246.626137
 30
0.0
 10
80.823636
 20
244.012522
 30
0.0
 10
75.960642
 20
239.289196
 30
0.0
  0
SPLINE
  5
52e
100
AcDbEntity
  8
0
 62
7
100
AcDbSpline
 70
8
 71
3
 72
8
 73
4
 74
0
 40
0
 40
0
 40
0
 40
0
 40
1
 40
1
 40
1
 40
1
 10
75.960642
 20
239.289196
 30
0.0
 10
74.465148
 20
237.836654
 30
0.0
 10
74.306996
 20
237.579868
 30
0.0
 10
74.306996
 20
236.604217
 30
0.0
  0
SPLINE
  5
52f
100
AcDbEntity
  8
0
 62
7
100
AcDbSpline
 70
8
 71
3
 72
8
 73
4
 74
0
 40
0
 40
0
 40
0
 40
0
 40
1
 40
1
 40
1
 40
1
 10
74.306996
 20
236.604217
 30
0.0
 10
74.306996
 20
234.073827
 30
0.0
 10
72.902628
 20
227.538201
 30
0.0
 10
71.426059
 20
223.196962
 30
0.0
  0
SPLINE
  5
530
100
AcDbEntity
  8
0
 62
7
100
AcDbSpline
 70
8
 71
3
 72
8
 73
4
 74
0
 40
0
 40
0
 40
0
 40
0
 40
1
 40
1
 40
1
 40
1
 10
71.426059
 20
223.196962
 30
0.0
 10
70.997260
 20
221.936254
 30
0.0
 10
70.703834
 20
220.904766
 30
0.0
 10
70.773999
 20
220.904766
 30
0.0
  0
SPLINE
  5
531
100
AcDbEntity
  8
0
 62
7
100
AcDbSpline
 70
8
 71
3
 72
8
 73
4
 74
0
 40
0
 40
0
 40
0
 40
0
 40
1
 40
1
 40
1
 40
1
 10
70.773999
 20
220.904766
 30
0.0
 10
70.844167
 20
220.904766
 30
0.0
 10
71.221312
 20
221.285136
 30
0.0
 10
71.612099
 20
221.750033
 30
0.0
  0
LWPOLYLINE
  5
532
100
AcDbEntity
  8
0
 62
7
100
AcDbPolyline
 90
1
 70
1
 10
25.160642
 20
219.964728
 30
0.0
  0
SPLINE
  5
533
100
AcDbEntity
  8
0
 62
7
100
AcDbSpline
 70
8
 71
3
 72
8
 73
4
 74
0
 40
0
 40
0
 40
0
 40
0
 40
1
 40
1
 40
1
 40
1
 10
66.970637
 20
224.013620
 30
0.0
 10
69.061737
 20
231.255866
 30
0.0
 10
69.853328
 20
235.558330
 30
0.0
 10
69.903573
 20
239.954766
 30
0.0
  0
SPLINE
  5
534
100
AcDbEntity
  8
0
 62
7
100
AcDbSpline
 70
8
 71
3
 72
8
 73
4
 74
0
 40
0
 40
0
 40
0
 40
0
 40
1
 40
1
 40
1
 40
1
 10
69.903573
 20
239.954766
 30
0.0
 10
69.961019
 20
244.981211
 30
0.0
 10
69.735769
 20
246.097150
 30
0.0
 10
68.399776
 20
247.404969
 30
0.0
  0
SPLINE
  5
535
100
AcDbEntity
  8
0
 62
7
100
AcDbSpline
 70
8
 71
3
 72
8
 73
4
 74
0
 40
0
 40
0
 40
0
 40
0
 40
1
 40
1
 40
1
 40
1
 10
68.399776
 20
247.404969
 30
0.0
 10
67.341665
 20
248.440763
 30
0.0
 10
64.884300
 20
249.796596
 30
0.0
 10
63.432542
 20
250.145603
 30
0.0
  0
SPLINE
  5
536
100
AcDbEntity
  8
0
 62
7
100
AcDbSpline
 70
8
 71
3
 72
8
 73
4
 74
0
 40
0
 40
0
 40
0
 40
0
 40
1
 40
1
 40
1
 40
1
 10
63.432542
 20
250.145603
 30
0.0
 10
62.828300
 20
250.290864
 30
0.0
 10
62.645618
 20
250.155736
 30
0.0
 10
61.931897
 20
249.035488
 30
0.0
  0
SPLINE
  5
537
100
AcDbEntity
  8
0
 62
7
100
AcDbSpline
 70
8
 71
3
 72
8
 73
4
 74
0
 40
0
 40
0
 40
0
 40
0
 40
1
 40
1
 40
1
 40
1
 10
61.931897
 20
249.035488
 30
0.0
 10
60.397123
 20
246.626544
 30
0.0
 10
59.185172
 20
243.883791
 30
0.0
 10
58.525182
 20
241.325770
 30
0.0
  0
SPLINE
  5
538
100
AcDbEntity
  8
0
 62
7
100
AcDbSpline
 70
8
 71
3
 72
8
 73
4
 74
0
 40
0
 40
0
 40
0
 40
0
 40
1
 40
1
 40
1
 40
1
 10
58.525182
 20
241.325770
 30
0.0
 10
57.630534
 20
237.858271
 30
0.0
 10
57.733917
 20
233.507288
 30
0.0
 10
58.787223
 20
230.297474
 30
0.0
  0
SPLINE
  5
539
100
AcDbEntity
  8
0
 62
7
100
AcDbSpline
 70
8
 71
3
 72
8
 73
4
 74
0
 40
0
 40
0
 40
0
 40
0
 40
1
 40
1
 40
1
 40
1
 10
58.787223
 20
230.297474
 30
0.0
 10
59.478053
 20
228.192256
 30
0.0
 10
59.490586
 20
228.175799
 30
0.0
 10
61.104222
 20
227.254766
 30
0.0
  0
SPLINE
  5
53a
100
AcDbEntity
  8
0
 62
7
100
AcDbSpline
 70
8
 71
3
 72
8
 73
4
 74
0
 40
0
 40
0
 40
0
 40
0
 40
1
 40
1
 40
1
 40
1
 10
61.104222
 20
227.254766
 30
0.0
 10
61.996550
 20
226.745443
 30
0.0
 10
63.576044
 20
225.708554
 30
0.0
 10
64.614211
 20
224.950565
 30
0.0
  0
SPLINE
  5
53b
100
AcDbEntity
  8
0
 62
7
100
AcDbSpline
 70
8
 71
3
 72
8
 73
4
 74
0
 40
0
 40
0
 40
0
 40
0
 40
1
 40
1
 40
1
 40
1
 10
64.614211
 20
224.950565
 30
0.0
 10
65.652377
 20
224.192579
 30
0.0
 10
66.577199
 20
223.567501
 30
0.0
 10
66.669367
 20
223.561503
 30
0.0
  0
SPLINE
  5
53c
100
AcDbEntity
  8
0
 62
7
100
AcDbSpline
 70
8
 71
3
 72
8
 73
4
 74
0
 40
0
 40
0
 40
0
 40
0
 40
1
 40
1
 40
1
 40
1
 10
66.669367
 20
223.561503
 30
0.0
 10
66.761535
 20
223.555497
 30
0.0
 10
66.897107
 20
223.758958
 30
0.0
 10
66.970637
 20
224.013620
 30
0.0
  0
LWPOLYLINE
  5
53d
100
AcDbEntity
  8
0
 62
7
100
AcDbPolyline
 90
1
 70
1
 10
71.612099
 20
221.750033
 30
0.0
  0
SPLINE
  5
53e
100
AcDbEntity
  8
0
 62
7
100
AcDbSpline
 70
8
 71
3
 72
8
 73
4
 74
0
 40
0
 40
0
 40
0
 40
0
 40
1
 40
1
 40
1
 40
1
 10
133.498836
 20
227.062427
 30
0.0
 10
134.183070
 20
229.470350
 30
0.0
 10
136.029406
 20
233.510037
 30
0.0
 10
137.269524
 20
235.312487
 30
0.0
  0
SPLINE
  5
53f
100
AcDbEntity
  8
0
 62
7
100
AcDbSpline
 70
8
 71
3
 72
8
 73
4
 74
0
 40
0
 40
0
 40
0
 40
0
 40
1
 40
1
 40
1
 40
1
 10
137.269524
 20
235.312487
 30
0.0
 10
138.235118
 20
236.715927
 30
0.0
 10
138.247004
 20
237.000944
 30
0.0
 10
137.445226
 20
239.525760
 30
0.0
  0
SPLINE
  5
540
100
AcDbEntity
  8
0
 62
7
100
AcDbSpline
 70
8
 71
3
 72
8
 73
4
 74
0
 40
0
 40
0
 40
0
 40
0
 40
1
 40
1
 40
1
 40
1
 10
137.445226
 20
239.525760
 30
0.0
 10
136.572469
 20
242.274082
 30
0.0
 10
135.278170
 20
244.435495
 30
0.0
 10
132.752060
 20
247.363099
 30
0.0
  0
SPLINE
  5
541
100
AcDbEntity
  8
0
 62
7
100
AcDbSpline
 70
8
 71
3
 72
8
 73
4
 74
0
 40
0
 40
0
 40
0
 40
0
 40
1
 40
1
 40
1
 40
1
 10
132.752060
 20
247.363099
 30
0.0
 10
131.559199
 20
248.745547
 30
0.0
 10
130.155103
 20
250.520623
 30
0.0
 10
129.631840
 20
251.307714
 30
0.0
  0
LWPOLYLINE
  5
542
100
AcDbEntity
  8
0
 62
7
100
AcDbPolyline
 90
1
 70
1
 10
66.970637
 20
224.013620
 30
0.0
  0
SPLINE
  5
543
100
AcDbEntity
  8
0
 62
7
100
AcDbSpline
 70
8
 71
3
 72
8
 73
4
 74
0
 40
0
 40
0
 40
0
 40
0
 40
1
 40
1
 40
1
 40
1
 10
128.205272
 20
250.778547
 30
0.0
 10
127.578593
 20
248.193362
 30
0.0
 10
127.326993
 20
242.092202
 30
0.0
 10
127.724453
 20
239.118950
 30
0.0
  0
SPLINE
  5
544
100
AcDbEntity
  8
0
 62
7
100
AcDbSpline
 70
8
 71
3
 72
8
 73
4
 74
0
 40
0
 40
0
 40
0
 40
0
 40
1
 40
1
 40
1
 40
1
 10
127.724453
 20
239.118950
 30
0.0
 10
127.892895
 20
237.858885
 30
0.0
 10
128.280702
 20
235.839349
 30
0.0
 10
128.586243
 20
234.631092
 30
0.0
  0
SPLINE
  5
545
100
AcDbEntity
  8
0
 62
7
100
AcDbSpline
 70
8
 71
3
 72
8
 73
4
 74
0
 40
0
 40
0
 40
0
 40
0
 40
1
 40
1
 40
1
 40
1
 10
128.586243
 20
234.631092
 30
0.0
 10
129.446946
 20
231.227477
 30
0.0
 10
132.322528
 20
224.327937
 30
0.0
 10
132.716275
 20
224.721682
 30
0.0
  0
SPLINE
  5
546
100
AcDbEntity
  8
0
 62
7
100
AcDbSpline
 70
8
 71
3
 72
8
 73
4
 74
0
 40
0
 40
0
 40
0
 40
0
 40
1
 40
1
 40
1
 40
1
 10
132.716275
 20
224.721682
 30
0.0
 10
132.806490
 20
224.811900
 30
0.0
 10
133.158643
 20
225.865235
 30
0.0
 10
133.498836
 20
227.062427
 30
0.0
  0
LWPOLYLINE
  5
547
100
AcDbEntity
  8
0
 62
7
100
AcDbPolyline
 90
3
 70
0
 10
129.631840
 20
251.307714
 30
0.0
 10
128.680456
 20
252.738789
 30
0.0
 10
128.205272
 20
250.778547
 30
0.0
  0
SPLINE
  5
548
100
AcDbEntity
  8
0
 62
7
100
AcDbSpline
 70
8
 71
3
 72
8
 73
4
 74
0
 40
0
 40
0
 40
0
 40
0
 40
1
 40
1
 40
1
 40
1
 10
115.091914
 20
227.585013
 30
0.0
 10
115.040648
 20
228.494783
 30
0.0
 10
115.139391
 20
229.893984
 30
0.0
 10
115.311343
 20
230.694349
 30
0.0
  0
SPLINE
  5
549
100
AcDbEntity
  8
0
 62
7
100
AcDbSpline
 70
8
 71
3
 72
8
 73
4
 74
0
 40
0
 40
0
 40
0
 40
0
 40
1
 40
1
 40
1
 40
1
 10
115.311343
 20
230.694349
 30
0.0
 10
115.753571
 20
232.752747
 30
0.0
 10
117.692427
 20
236.649458
 30
0.0
 10
119.411131
 20
238.934104
 30
0.0
  0
SPLINE
  5
54a
100
AcDbEntity
  8
0
 62
7
100
AcDbSpline
 70
8
 71
3
 72
8
 73
4
 74
0
 40
0
 40
0
 40
0
 40
0
 40
1
 40
1
 40
1
 40
1
 10
119.411131
 20
238.934104
 30
0.0
 10
120.215522
 20
240.003370
 30
0.0
 10
120.873663
 20
241.001140
 30
0.0
 10
120.873663
 20
241.151373
 30
0.0
  0
SPLINE
  5
54b
100
AcDbEntity
  8
0
 62
7
100
AcDbSpline
 70
8
 71
3
 72
8
 73
4
 74
0
 40
0
 40
0
 40
0
 40
0
 40
1
 40
1
 40
1
 40
1
 10
120.873663
 20
241.151373
 30
0.0
 10
120.873663
 20
241.301606
 30
0.0
 10
120.695749
 20
241.678531
 30
0.0
 10
120.478296
 20
241.988988
 30
0.0
  0
SPLINE
  5
54c
100
AcDbEntity
  8
0
 62
7
100
AcDbSpline
 70
8
 71
3
 72
8
 73
4
 74
0
 40
0
 40
0
 40
0
 40
0
 40
1
 40
1
 40
1
 40
1
 10
120.478296
 20
241.988988
 30
0.0
 10
119.640165
 20
243.185588
 30
0.0
 10
117.462411
 20
247.867996
 30
0.0
 10
116.686753
 20
250.141224
 30
0.0
  0
SPLINE
  5
54d
100
AcDbEntity
  8
0
 62
7
100
AcDbSpline
 70
8
 71
3
 72
8
 73
4
 74
0
 40
0
 40
0
 40
0
 40
0
 40
1
 40
1
 40
1
 40
1
 10
116.686753
 20
250.141224
 30
0.0
 10
115.904568
 20
252.433574
 30
0.0
 10
115.291931
 20
255.269943
 30
0.0
 10
114.860419
 20
258.596735
 30
0.0
  0
LWPOLYLINE
  5
54e
100
AcDbEntity
  8
0
 62
7
100
AcDbPolyline
 90
1
 70
1
 10
133.498836
 20
227.062427
 30
0.0
  0
SPLINE
  5
54f
100
AcDbEntity
  8
0
 62
7
100
AcDbSpline
 70
8
 71
3
 72
8
 73
4
 74
0
 40
0
 40
0
 40
0
 40
0
 40
1
 40
1
 40
1
 40
1
 10
112.725015
 20
258.229391
 30
0.0
 10
104.792317
 20
250.244322
 30
0.0
 10
101.879022
 20
240.284915
 30
0.0
 10
105.426341
 20
233.278098
 30
0.0
  0
SPLINE
  5
550
100
AcDbEntity
  8
0
 62
7
100
AcDbSpline
 70
8
 71
3
 72
8
 73
4
 74
0
 40
0
 40
0
 40
0
 40
0
 40
1
 40
1
 40
1
 40
1
 10
105.426341
 20
233.278098
 30
0.0
 10
106.557797
 20
231.043200
 30
0.0
 10
109.487459
 20
228.321539
 30
0.0
 10
112.142413
 20
227.038853
 30
0.0
  0
SPLINE
  5
551
100
AcDbEntity
  8
0
 62
7
100
AcDbSpline
 70
8
 71
3
 72
8
 73
4
 74
0
 40
0
 40
0
 40
0
 40
0
 40
1
 40
1
 40
1
 40
1
 10
112.142413
 20
227.038853
 30
0.0
 10
115.194191
 20
225.564451
 30
0.0
 10
115.205650
 20
225.566573
 30
0.0
 10
115.091914
 20
227.585013
 30
0.0
  0
LWPOLYLINE
  5
552
100
AcDbEntity
  8
0
 62
7
100
AcDbPolyline
 90
3
 70
0
 10
114.860419
 20
258.596735
 30
0.0
 10
114.655955
 20
260.173078
 30
0.0
 10
112.725015
 20
258.229391
 30
0.0
  0
SPLINE
  5
553
100
AcDbEntity
  8
0
 62
7
100
AcDbSpline
 70
8
 71
3
 72
8
 73
4
 74
0
 40
0
 40
0
 40
0
 40
0
 40
1
 40
1
 40
1
 40
1
 10
33.849291
 20
232.502141
 30
0.0
 10
34.452121
 20
233.294722
 30
0.0
 10
35.979206
 20
234.559933
 30
0.0
 10
38.031161
 20
235.966873
 30
0.0
  0
SPLINE
  5
554
100
AcDbEntity
  8
0
 62
7
100
AcDbSpline
 70
8
 71
3
 72
8
 73
4
 74
0
 40
0
 40
0
 40
0
 40
0
 40
1
 40
1
 40
1
 40
1
 10
38.031161
 20
235.966873
 30
0.0
 10
42.192432
 20
238.820084
 30
0.0
 10
44.937156
 20
241.806849
 30
0.0
 10
43.397879
 20
241.806849
 30
0.0
  0
SPLINE
  5
555
100
AcDbEntity
  8
0
 62
7
100
AcDbSpline
 70
8
 71
3
 72
8
 73
4
 74
0
 40
0
 40
0
 40
0
 40
0
 40
1
 40
1
 40
1
 40
1
 10
43.397879
 20
241.806849
 30
0.0
 10
42.631672
 20
241.806849
 30
0.0
 10
40.379557
 20
242.629875
 30
0.0
 10
39.538532
 20
243.217232
 30
0.0
  0
LWPOLYLINE
  5
556
100
AcDbEntity
  8
0
 62
7
100
AcDbPolyline
 90
1
 70
1
 10
115.091914
 20
227.585013
 30
0.0
  0
SPLINE
  5
557
100
AcDbEntity
  8
0
 62
7
100
AcDbSpline
 70
8
 71
3
 72
8
 73
4
 74
0
 40
0
 40
0
 40
0
 40
0
 40
1
 40
1
 40
1
 40
1
 10
36.968718
 20
241.866716
 30
0.0
 10
35.245482
 20
240.059615
 30
0.0
 10
33.996238
 20
238.030893
 30
0.0
 10
33.318929
 20
235.939592
 30
0.0
  0
SPLINE
  5
558
100
AcDbEntity
  8
0
 62
7
100
AcDbSpline
 70
8
 71
3
 72
8
 73
4
 74
0
 40
0
 40
0
 40
0
 40
0
 40
1
 40
1
 40
1
 40
1
 10
33.318929
 20
235.939592
 30
0.0
 10
32.962789
 20
234.839957
 30
0.0
 10
32.525568
 20
231.215525
 30
0.0
 10
32.751837
 20
231.238584
 30
0.0
  0
SPLINE
  5
559
100
AcDbEntity
  8
0
 62
7
100
AcDbSpline
 70
8
 71
3
 72
8
 73
4
 74
0
 40
0
 40
0
 40
0
 40
0
 40
1
 40
1
 40
1
 40
1
 10
32.751837
 20
231.238584
 30
0.0
 10
32.833164
 20
231.246865
 30
0.0
 10
33.327020
 20
231.815473
 30
0.0
 10
33.849291
 20
232.502141
 30
0.0
  0
LWPOLYLINE
  5
55a
100
AcDbEntity
  8
0
 62
7
100
AcDbPolyline
 90
3
 70
0
 10
39.538532
 20
243.217232
 30
0.0
 10
38.769025
 20
243.754640
 30
0.0
 10
36.968718
 20
241.866716
 30
0.0
  0
SPLINE
  5
55b
100
AcDbEntity
  8
0
 62
7
100
AcDbSpline
 70
8
 71
3
 72
8
 73
4
 74
0
 40
0
 40
0
 40
0
 40
0
 40
1
 40
1
 40
1
 40
1
 10
45.731531
 20
234.265248
 30
0.0
 10
46.666901
 20
236.225144
 30
0.0
 10
47.196401
 20
238.734822
 30
0.0
 10
46.863884
 20
239.632281
 30
0.0
  0
SPLINE
  5
55c
100
AcDbEntity
  8
0
 62
7
100
AcDbSpline
 70
8
 71
3
 72
8
 73
4
 74
0
 40
0
 40
0
 40
0
 40
0
 40
1
 40
1
 40
1
 40
1
 10
46.863884
 20
239.632281
 30
0.0
 10
46.641012
 20
240.233803
 30
0.0
 10
46.636474
 20
240.232599
 30
0.0
 10
45.517731
 20
239.274996
 30
0.0
  0
SPLINE
  5
55d
100
AcDbEntity
  8
0
 62
7
100
AcDbSpline
 70
8
 71
3
 72
8
 73
4
 74
0
 40
0
 40
0
 40
0
 40
0
 40
1
 40
1
 40
1
 40
1
 10
45.517731
 20
239.274996
 30
0.0
 10
44.134580
 20
238.091070
 30
0.0
 10
43.615330
 20
237.126190
 30
0.0
 10
43.615330
 20
235.739927
 30
0.0
  0
SPLINE
  5
55e
100
AcDbEntity
  8
0
 62
7
100
AcDbSpline
 70
8
 71
3
 72
8
 73
4
 74
0
 40
0
 40
0
 40
0
 40
0
 40
1
 40
1
 40
1
 40
1
 10
43.615330
 20
235.739927
 30
0.0
 10
43.615330
 20
234.616286
 30
0.0
 10
44.311147
 20
232.546432
 30
0.0
 10
44.688876
 20
232.546432
 30
0.0
  0
SPLINE
  5
55f
100
AcDbEntity
  8
0
 62
7
100
AcDbSpline
 70
8
 71
3
 72
8
 73
4
 74
0
 40
0
 40
0
 40
0
 40
0
 40
1
 40
1
 40
1
 40
1
 10
44.688876
 20
232.546432
 30
0.0
 10
44.811162
 20
232.546432
 30
0.0
 10
45.280358
 20
233.319899
 30
0.0
 10
45.731531
 20
234.265248
 30
0.0
  0
LWPOLYLINE
  5
560
100
AcDbEntity
  8
0
 62
7
100
AcDbPolyline
 90
1
 70
1
 10
33.849291
 20
232.502141
 30
0.0
  0
SPLINE
  5
561
100
AcDbEntity
  8
0
 62
7
100
AcDbSpline
 70
8
 71
3
 72
8
 73
4
 74
0
 40
0
 40
0
 40
0
 40
0
 40
1
 40
1
 40
1
 40
1
 10
8.127100
 20
236.454151
 30
0.0
 10
9.833985
 20
237.486235
 30
0.0
 10
13.452829
 20
240.595999
 30
0.0
 10
13.452829
 20
241.030683
 30
0.0
  0
SPLINE
  5
562
100
AcDbEntity
  8
0
 62
7
100
AcDbSpline
 70
8
 71
3
 72
8
 73
4
 74
0
 40
0
 40
0
 40
0
 40
0
 40
1
 40
1
 40
1
 40
1
 10
13.452829
 20
241.030683
 30
0.0
 10
13.452829
 20
241.166534
 30
0.0
 10
13.312697
 20
241.277682
 30
0.0
 10
13.141423
 20
241.277682
 30
0.0
  0
SPLINE
  5
563
100
AcDbEntity
  8
0
 62
7
100
AcDbSpline
 70
8
 71
3
 72
8
 73
4
 74
0
 40
0
 40
0
 40
0
 40
0
 40
1
 40
1
 40
1
 40
1
 10
13.141423
 20
241.277682
 30
0.0
 10
12.289896
 20
241.277682
 30
0.0
 10
8.420482
 20
243.490623
 30
0.0
 10
7.168975
 20
244.693361
 30
0.0
  0
LWPOLYLINE
  5
564
100
AcDbEntity
  8
0
 62
7
100
AcDbPolyline
 90
1
 70
1
 10
45.731531
 20
234.265248
 30
0.0
  0
SPLINE
  5
565
100
AcDbEntity
  8
0
 62
7
100
AcDbSpline
 70
8
 71
3
 72
8
 73
4
 74
0
 40
0
 40
0
 40
0
 40
0
 40
1
 40
1
 40
1
 40
1
 10
5.779913
 20
240.742571
 30
0.0
 10
5.779913
 20
236.543464
 30
0.0
 10
5.851641
 20
235.456849
 30
0.0
 10
6.128826
 20
235.456849
 30
0.0
  0
SPLINE
  5
566
100
AcDbEntity
  8
0
 62
7
100
AcDbSpline
 70
8
 71
3
 72
8
 73
4
 74
0
 40
0
 40
0
 40
0
 40
0
 40
1
 40
1
 40
1
 40
1
 10
6.128826
 20
235.456849
 30
0.0
 10
6.320728
 20
235.456849
 30
0.0
 10
7.219952
 20
235.905635
 30
0.0
 10
8.127100
 20
236.454151
 30
0.0
  0
LWPOLYLINE
  5
567
100
AcDbEntity
  8
0
 62
7
100
AcDbPolyline
 90
3
 70
0
 10
7.168975
 20
244.693361
 30
0.0
 10
5.779913
 20
246.028295
 30
0.0
 10
5.779913
 20
240.742571
 30
0.0
  0
SPLINE
  5
568
100
AcDbEntity
  8
0
 62
7
100
AcDbSpline
 70
8
 71
3
 72
8
 73
4
 74
0
 40
0
 40
0
 40
0
 40
0
 40
1
 40
1
 40
1
 40
1
 10
29.318786
 20
238.845439
 30
0.0
 10
28.174619
 20
245.025786
 30
0.0
 10
24.502742
 20
251.942362
 30
0.0
 10
19.945215
 20
256.502092
 30
0.0
  0
SPLINE
  5
569
100
AcDbEntity
  8
0
 62
7
100
AcDbSpline
 70
8
 71
3
 72
8
 73
4
 74
0
 40
0
 40
0
 40
0
 40
0
 40
1
 40
1
 40
1
 40
1
 10
19.945215
 20
256.502092
 30
0.0
 10
19.066538
 20
257.381191
 30
0.0
 10
16.502152
 20
259.542958
 30
0.0
 10
14.246579
 20
261.306015
 30
0.0
  0
SPLINE
  5
56a
100
AcDbEntity
  8
0
 62
7
100
AcDbSpline
 70
8
 71
3
 72
8
 73
4
 74
0
 40
0
 40
0
 40
0
 40
0
 40
1
 40
1
 40
1
 40
1
 10
14.246579
 20
261.306015
 30
0.0
 10
10.031322
 20
264.600850
 30
0.0
 10
8.046340
 20
266.470480
 30
0.0
 10
6.605221
 20
268.503319
 30
0.0
  0
LWPOLYLINE
  5
56b
100
AcDbEntity
  8
0
 62
7
100
AcDbPolyline
 90
1
 70
1
 10
8.127100
 20
236.454151
 30
0.0
  0
SPLINE
  5
56c
100
AcDbEntity
  8
0
 62
7
100
AcDbSpline
 70
8
 71
3
 72
8
 73
4
 74
0
 40
0
 40
0
 40
0
 40
0
 40
1
 40
1
 40
1
 40
1
 10
5.779913
 20
261.018299
 30
0.0
 10
5.779913
 20
251.209252
 30
0.0
 10
5.709096
 20
251.586632
 30
0.0
 10
8.035295
 20
248.999341
 30
0.0
  0
SPLINE
  5
56d
100
AcDbEntity
  8
0
 62
7
100
AcDbSpline
 70
8
 71
3
 72
8
 73
4
 74
0
 40
0
 40
0
 40
0
 40
0
 40
1
 40
1
 40
1
 40
1
 10
8.035295
 20
248.999341
 30
0.0
 10
9.802300
 20
247.034005
 30
0.0
 10
11.880104
 20
245.927605
 30
0.0
 10
17.156996
 20
244.142170
 30
0.0
  0
SPLINE
  5
56e
100
AcDbEntity
  8
0
 62
7
100
AcDbSpline
 70
8
 71
3
 72
8
 73
4
 74
0
 40
0
 40
0
 40
0
 40
0
 40
1
 40
1
 40
1
 40
1
 10
17.156996
 20
244.142170
 30
0.0
 10
22.749600
 20
242.249915
 30
0.0
 10
25.117978
 20
240.970184
 30
0.0
 10
27.599711
 20
238.499557
 30
0.0
  0
SPLINE
  5
56f
100
AcDbEntity
  8
0
 62
7
100
AcDbSpline
 70
8
 71
3
 72
8
 73
4
 74
0
 40
0
 40
0
 40
0
 40
0
 40
1
 40
1
 40
1
 40
1
 10
27.599711
 20
238.499557
 30
0.0
 10
28.622937
 20
237.480912
 30
0.0
 10
29.502081
 20
236.743589
 30
0.0
 10
29.553366
 20
236.861064
 30
0.0
  0
SPLINE
  5
570
100
AcDbEntity
  8
0
 62
7
100
AcDbSpline
 70
8
 71
3
 72
8
 73
4
 74
0
 40
0
 40
0
 40
0
 40
0
 40
1
 40
1
 40
1
 40
1
 10
29.553366
 20
236.861064
 30
0.0
 10
29.604652
 20
236.978539
 30
0.0
 10
29.499092
 20
237.871508
 30
0.0
 10
29.318786
 20
238.845439
 30
0.0
  0
LWPOLYLINE
  5
571
100
AcDbEntity
  8
0
 62
7
100
AcDbPolyline
 90
3
 70
0
 10
6.605221
 20
268.503319
 30
0.0
 10
5.779913
 20
269.667495
 30
0.0
 10
5.779913
 20
261.018299
 30
0.0
  0
SPLINE
  5
572
100
AcDbEntity
  8
0
 62
7
100
AcDbSpline
 70
8
 71
3
 72
8
 73
4
 74
0
 40
0
 40
0
 40
0
 40
0
 40
1
 40
1
 40
1
 40
1
 10
54.875988
 20
246.651963
 30
0.0
 10
53.789223
 20
252.413982
 30
0.0
 10
50.409258
 20
257.247428
 30
0.0
 10
47.072505
 20
257.811171
 30
0.0
  0
SPLINE
  5
573
100
AcDbEntity
  8
0
 62
7
100
AcDbSpline
 70
8
 71
3
 72
8
 73
4
 74
0
 40
0
 40
0
 40
0
 40
0
 40
1
 40
1
 40
1
 40
1
 10
47.072505
 20
257.811171
 30
0.0
 10
45.293127
 20
258.111794
 30
0.0
 10
45.033372
 20
257.897070
 30
0.0
 10
44.835080
 20
255.961622
 30
0.0
  0
SPLINE
  5
574
100
AcDbEntity
  8
0
 62
7
100
AcDbSpline
 70
8
 71
3
 72
8
 73
4
 74
0
 40
0
 40
0
 40
0
 40
0
 40
1
 40
1
 40
1
 40
1
 10
44.835080
 20
255.961622
 30
0.0
 10
44.625678
 20
253.917742
 30
0.0
 10
43.881543
 20
251.412904
 30
0.0
 10
42.812295
 20
249.152720
 30
0.0
  0
SPLINE
  5
575
100
AcDbEntity
  8
0
 62
7
100
AcDbSpline
 70
8
 71
3
 72
8
 73
4
 74
0
 40
0
 40
0
 40
0
 40
0
 40
1
 40
1
 40
1
 40
1
 10
42.812295
 20
249.152720
 30
0.0
 10
41.844410
 20
247.106795
 30
0.0
 10
41.792020
 20
245.942305
 30
0.0
 10
42.642782
 20
245.384865
 30
0.0
  0
SPLINE
  5
576
100
AcDbEntity
  8
0
 62
7
100
AcDbSpline
 70
8
 71
3
 72
8
 73
4
 74
0
 40
0
 40
0
 40
0
 40
0
 40
1
 40
1
 40
1
 40
1
 10
42.642782
 20
245.384865
 30
0.0
 10
42.981007
 20
245.163253
 30
0.0
 10
44.598106
 20
244.740578
 30
0.0
 10
46.236337
 20
244.445589
 30
0.0
  0
SPLINE
  5
577
100
AcDbEntity
  8
0
 62
7
100
AcDbSpline
 70
8
 71
3
 72
8
 73
4
 74
0
 40
0
 40
0
 40
0
 40
0
 40
1
 40
1
 40
1
 40
1
 10
46.236337
 20
244.445589
 30
0.0
 10
50.031962
 20
243.762128
 30
0.0
 10
51.815481
 20
242.886526
 30
0.0
 10
53.707964
 20
240.777472
 30
0.0
  0
LWPOLYLINE
  5
578
100
AcDbEntity
  8
0
 62
7
100
AcDbPolyline
 90
1
 70
1
 10
29.318786
 20
238.845439
 30
0.0
  0
SPLINE
  5
579
100
AcDbEntity
  8
0
 62
7
100
AcDbSpline
 70
8
 71
3
 72
8
 73
4
 74
0
 40
0
 40
0
 40
0
 40
0
 40
1
 40
1
 40
1
 40
1
 10
55.200529
 20
241.863917
 30
0.0
 10
55.245947
 20
243.460434
 30
0.0
 10
55.115807
 20
245.380452
 30
0.0
 10
54.875988
 20
246.651963
 30
0.0
  0
LWPOLYLINE
  5
57a
100
AcDbEntity
  8
0
 62
7
100
AcDbPolyline
 90
3
 70
0
 10
53.707964
 20
240.777472
 30
0.0
 10
55.124705
 20
239.198602
 30
0.0
 10
55.200529
 20
241.863917
 30
0.0
  0
LWPOLYLINE
  5
57b
100
AcDbEntity
  8
0
 62
7
100
AcDbPolyline
 90
1
 70
1
 10
54.875988
 20
246.651963
 30
0.0
  0
SPLINE
  5
57c
100
AcDbEntity
  8
0
 62
7
100
AcDbSpline
 70
8
 71
3
 72
8
 73
4
 74
0
 40
0
 40
0
 40
0
 40
0
 40
1
 40
1
 40
1
 40
1
 10
143.891487
 20
250.339662
 30
0.0
 10
143.892281
 20
257.077695
 30
0.0
 10
143.802957
 20
260.327683
 30
0.0
 10
143.617355
 20
260.327683
 30
0.0
  0
SPLINE
  5
57d
100
AcDbEntity
  8
0
 62
7
100
AcDbSpline
 70
8
 71
3
 72
8
 73
4
 74
0
 40
0
 40
0
 40
0
 40
0
 40
1
 40
1
 40
1
 40
1
 10
143.617355
 20
260.327683
 30
0.0
 10
143.098925
 20
260.327683
 30
0.0
 10
141.378929
 20
259.315540
 30
0.0
 10
140.265571
 20
258.355301
 30
0.0
  0
SPLINE
  5
57e
100
AcDbEntity
  8
0
 62
7
100
AcDbSpline
 70
8
 71
3
 72
8
 73
4
 74
0
 40
0
 40
0
 40
0
 40
0
 40
1
 40
1
 40
1
 40
1
 10
140.265571
 20
258.355301
 30
0.0
 10
139.613270
 20
257.792711
 30
0.0
 10
138.806378
 20
256.692584
 30
0.0
 10
138.317116
 20
255.698750
 30
0.0
  0
SPLINE
  5
57f
100
AcDbEntity
  8
0
 62
7
100
AcDbSpline
 70
8
 71
3
 72
8
 73
4
 74
0
 40
0
 40
0
 40
0
 40
0
 40
1
 40
1
 40
1
 40
1
 10
138.317116
 20
255.698750
 30
0.0
 10
137.614139
 20
254.270805
 30
0.0
 10
137.481175
 20
253.697013
 30
0.0
 10
137.476659
 20
252.071833
 30
0.0
  0
SPLINE
  5
580
100
AcDbEntity
  8
0
 62
7
100
AcDbSpline
 70
8
 71
3
 72
8
 73
4
 74
0
 40
0
 40
0
 40
0
 40
0
 40
1
 40
1
 40
1
 40
1
 10
137.476659
 20
252.071833
 30
0.0
 10
137.469885
 20
249.636174
 30
0.0
 10
137.791074
 20
248.453172
 30
0.0
 10
139.414642
 20
244.933856
 30
0.0
  0
SPLINE
  5
581
100
AcDbEntity
  8
0
 62
7
100
AcDbSpline
 70
8
 71
3
 72
8
 73
4
 74
0
 40
0
 40
0
 40
0
 40
0
 40
1
 40
1
 40
1
 40
1
 10
139.414642
 20
244.933856
 30
0.0
 10
140.131718
 20
243.379493
 30
0.0
 10
140.857716
 20
241.504258
 30
0.0
 10
141.027973
 20
240.766669
 30
0.0
  0
SPLINE
  5
582
100
AcDbEntity
  8
0
 62
7
100
AcDbSpline
 70
8
 71
3
 72
8
 73
4
 74
0
 40
0
 40
0
 40
0
 40
0
 40
1
 40
1
 40
1
 40
1
 10
141.027973
 20
240.766669
 30
0.0
 10
141.198230
 20
240.029082
 30
0.0
 10
141.405126
 20
239.425599
 30
0.0
 10
141.487745
 20
239.425599
 30
0.0
  0
SPLINE
  5
583
100
AcDbEntity
  8
0
 62
7
100
AcDbSpline
 70
8
 71
3
 72
8
 73
4
 74
0
 40
0
 40
0
 40
0
 40
0
 40
1
 40
1
 40
1
 40
1
 10
141.487745
 20
239.425599
 30
0.0
 10
141.570363
 20
239.425599
 30
0.0
 10
142.144782
 20
239.633958
 30
0.0
 10
142.764227
 20
239.888620
 30
0.0
  0
LWPOLYLINE
  5
584
100
AcDbEntity
  8
0
 62
7
100
AcDbPolyline
 90
3
 70
0
 10
142.764161
 20
239.888620
 30
0.0
 10
143.890428
 20
240.351641
 30
0.0
 10
143.891487
 20
250.339662
 30
0.0
  0
SPLINE
  5
585
100
AcDbEntity
  8
0
 62
7
100
AcDbSpline
 70
8
 71
3
 72
8
 73
4
 74
0
 40
0
 40
0
 40
0
 40
0
 40
1
 40
1
 40
1
 40
1
 10
34.828739
 20
244.024608
 30
0.0
 10
39.114259
 20
248.980050
 30
0.0
 10
39.195166
 20
253.486725
 30
0.0
 10
35.053410
 20
256.539170
 30
0.0
  0
SPLINE
  5
586
100
AcDbEntity
  8
0
 62
7
100
AcDbSpline
 70
8
 71
3
 72
8
 73
4
 74
0
 40
0
 40
0
 40
0
 40
0
 40
1
 40
1
 40
1
 40
1
 10
35.053410
 20
256.539170
 30
0.0
 10
34.200658
 20
257.167646
 30
0.0
 10
33.347573
 20
257.681850
 30
0.0
 10
33.157668
 20
257.681850
 30
0.0
  0
SPLINE
  5
587
100
AcDbEntity
  8
0
 62
7
100
AcDbSpline
 70
8
 71
3
 72
8
 73
4
 74
0
 40
0
 40
0
 40
0
 40
0
 40
1
 40
1
 40
1
 40
1
 10
33.157668
 20
257.681850
 30
0.0
 10
32.301606
 20
257.681850
 30
0.0
 10
28.798663
 20
252.468044
 30
0.0
 10
28.798663
 20
251.193877
 30
0.0
  0
SPLINE
  5
588
100
AcDbEntity
  8
0
 62
7
100
AcDbSpline
 70
8
 71
3
 72
8
 73
4
 74
0
 40
0
 40
0
 40
0
 40
0
 40
1
 40
1
 40
1
 40
1
 10
28.798663
 20
251.193877
 30
0.0
 10
28.798663
 20
251.011574
 30
0.0
 10
29.324559
 20
249.866711
 30
0.0
 10
29.967320
 20
248.649739
 30
0.0
  0
SPLINE
  5
589
100
AcDbEntity
  8
0
 62
7
100
AcDbSpline
 70
8
 71
3
 72
8
 73
4
 74
0
 40
0
 40
0
 40
0
 40
0
 40
1
 40
1
 40
1
 40
1
 10
29.967320
 20
248.649739
 30
0.0
 10
30.610082
 20
247.432764
 30
0.0
 10
31.455527
 20
245.401751
 30
0.0
 10
31.846089
 20
244.136376
 30
0.0
  0
SPLINE
  5
58a
100
AcDbEntity
  8
0
 62
7
100
AcDbSpline
 70
8
 71
3
 72
8
 73
4
 74
0
 40
0
 40
0
 40
0
 40
0
 40
1
 40
1
 40
1
 40
1
 10
31.846089
 20
244.136376
 30
0.0
 10
32.670485
 20
241.465431
 30
0.0
 10
32.617262
 20
241.467423
 30
0.0
 10
34.828739
 20
244.024608
 30
0.0
  0
LWPOLYLINE
  5
58b
100
AcDbEntity
  8
0
 62
7
100
AcDbPolyline
 90
1
 70
1
 10
142.764227
 20
239.888620
 30
0.0
  0
SPLINE
  5
58c
100
AcDbEntity
  8
0
 62
7
100
AcDbSpline
 70
8
 71
3
 72
8
 73
4
 74
0
 40
0
 40
0
 40
0
 40
0
 40
1
 40
1
 40
1
 40
1
 10
76.996462
 20
245.241355
 30
0.0
 10
80.994898
 20
248.056575
 30
0.0
 10
82.239832
 20
249.139395
 30
0.0
 10
82.674698
 20
250.180176
 30
0.0
  0
SPLINE
  5
58d
100
AcDbEntity
  8
0
 62
7
100
AcDbSpline
 70
8
 71
3
 72
8
 73
4
 74
0
 40
0
 40
0
 40
0
 40
0
 40
1
 40
1
 40
1
 40
1
 10
82.674698
 20
250.180176
 30
0.0
 10
83.435177
 20
252.000258
 30
0.0
 10
82.961120
 20
253.300414
 30
0.0
 10
80.532182
 20
256.056269
 30
0.0
  0
SPLINE
  5
58e
100
AcDbEntity
  8
0
 62
7
100
AcDbSpline
 70
8
 71
3
 72
8
 73
4
 74
0
 40
0
 40
0
 40
0
 40
0
 40
1
 40
1
 40
1
 40
1
 10
80.532182
 20
256.056269
 30
0.0
 10
79.716963
 20
256.981210
 30
0.0
 10
78.752536
 20
258.324931
 30
0.0
 10
78.389009
 20
259.042317
 30
0.0
  0
LWPOLYLINE
  5
58f
100
AcDbEntity
  8
0
 62
7
100
AcDbPolyline
 90
1
 70
1
 10
34.828739
 20
244.024608
 30
0.0
  0
SPLINE
  5
590
100
AcDbEntity
  8
0
 62
7
100
AcDbSpline
 70
8
 71
3
 72
8
 73
4
 74
0
 40
0
 40
0
 40
0
 40
0
 40
1
 40
1
 40
1
 40
1
 10
76.917780
 20
259.874149
 30
0.0
 10
75.840667
 20
259.246034
 30
0.0
 10
74.722834
 20
257.806620
 30
0.0
 10
73.845978
 20
255.918638
 30
0.0
  0
SPLINE
  5
591
100
AcDbEntity
  8
0
 62
7
100
AcDbSpline
 70
8
 71
3
 72
8
 73
4
 74
0
 40
0
 40
0
 40
0
 40
0
 40
1
 40
1
 40
1
 40
1
 10
73.845978
 20
255.918638
 30
0.0
 10
73.222604
 20
254.576438
 30
0.0
 10
73.115675
 20
253.965989
 30
0.0
 10
73.028119
 20
251.249598
 30
0.0
  0
SPLINE
  5
592
100
AcDbEntity
  8
0
 62
7
100
AcDbSpline
 70
8
 71
3
 72
8
 73
4
 74
0
 40
0
 40
0
 40
0
 40
0
 40
1
 40
1
 40
1
 40
1
 10
73.028119
 20
251.249598
 30
0.0
 10
72.957854
 20
249.069659
 30
0.0
 10
73.063378
 20
247.369391
 30
0.0
 10
73.377068
 20
245.627202
 30
0.0
  0
SPLINE
  5
593
100
AcDbEntity
  8
0
 62
7
100
AcDbSpline
 70
8
 71
3
 72
8
 73
4
 74
0
 40
0
 40
0
 40
0
 40
0
 40
1
 40
1
 40
1
 40
1
 10
73.377068
 20
245.627202
 30
0.0
 10
73.624387
 20
244.253613
 30
0.0
 10
73.865137
 20
243.129766
 30
0.0
 10
73.912063
 20
243.129766
 30
0.0
  0
SPLINE
  5
594
100
AcDbEntity
  8
0
 62
7
100
AcDbSpline
 70
8
 71
3
 72
8
 73
4
 74
0
 40
0
 40
0
 40
0
 40
0
 40
1
 40
1
 40
1
 40
1
 10
73.912063
 20
243.129766
 30
0.0
 10
73.958992
 20
243.129766
 30
0.0
 10
75.346970
 20
244.079980
 30
0.0
 10
76.996462
 20
245.241355
 30
0.0
  0
LWPOLYLINE
  5
595
100
AcDbEntity
  8
0
 62
7
100
AcDbPolyline
 90
3
 70
0
 10
78.389009
 20
259.042317
 30
0.0
 10
77.728051
 20
260.346656
 30
0.0
 10
76.917780
 20
259.874149
 30
0.0
  0
SPLINE
  5
596
100
AcDbEntity
  8
0
 62
7
100
AcDbSpline
 70
8
 71
3
 72
8
 73
4
 74
0
 40
0
 40
0
 40
0
 40
0
 40
1
 40
1
 40
1
 40
1
 10
59.189604
 20
249.829682
 30
0.0
 10
60.307945
 20
253.467728
 30
0.0
 10
60.141858
 20
256.619551
 30
0.0
 10
58.668505
 20
259.718696
 30
0.0
  0
SPLINE
  5
597
100
AcDbEntity
  8
0
 62
7
100
AcDbSpline
 70
8
 71
3
 72
8
 73
4
 74
0
 40
0
 40
0
 40
0
 40
0
 40
1
 40
1
 40
1
 40
1
 10
58.668505
 20
259.718696
 30
0.0
 10
57.968282
 20
261.191586
 30
0.0
 10
55.490896
 20
264.296433
 30
0.0
 10
55.015884
 20
264.296433
 30
0.0
  0
SPLINE
  5
598
100
AcDbEntity
  8
0
 62
7
100
AcDbSpline
 70
8
 71
3
 72
8
 73
4
 74
0
 40
0
 40
0
 40
0
 40
0
 40
1
 40
1
 40
1
 40
1
 10
55.015884
 20
264.296433
 30
0.0
 10
54.912474
 20
264.296433
 30
0.0
 10
54.677858
 20
263.711124
 30
0.0
 10
54.494512
 20
262.995746
 30
0.0
  0
SPLINE
  5
599
100
AcDbEntity
  8
0
 62
7
100
AcDbSpline
 70
8
 71
3
 72
8
 73
4
 74
0
 40
0
 40
0
 40
0
 40
0
 40
1
 40
1
 40
1
 40
1
 10
54.494512
 20
262.995746
 30
0.0
 10
54.311166
 20
262.280368
 30
0.0
 10
53.796356
 20
261.119829
 30
0.0
 10
53.350491
 20
260.416771
 30
0.0
  0
LWPOLYLINE
  5
59a
100
AcDbEntity
  8
0
 62
7
100
AcDbPolyline
 90
1
 70
1
 10
76.996462
 20
245.241355
 30
0.0
  0
SPLINE
  5
59b
100
AcDbEntity
  8
0
 62
7
100
AcDbSpline
 70
8
 71
3
 72
8
 73
4
 74
0
 40
0
 40
0
 40
0
 40
0
 40
1
 40
1
 40
1
 40
1
 10
53.107201
 20
258.211729
 30
0.0
 10
54.573935
 20
255.815969
 30
0.0
 10
56.065663
 20
252.539024
 30
0.0
 10
56.841287
 20
250.008901
 30
0.0
  0
SPLINE
  5
59c
100
AcDbEntity
  8
0
 62
7
100
AcDbSpline
 70
8
 71
3
 72
8
 73
4
 74
0
 40
0
 40
0
 40
0
 40
0
 40
1
 40
1
 40
1
 40
1
 10
56.841287
 20
250.008901
 30
0.0
 10
57.309689
 20
248.480950
 30
0.0
 10
57.749054
 20
247.052214
 30
0.0
 10
57.817655
 20
246.833932
 30
0.0
  0
SPLINE
  5
59d
100
AcDbEntity
  8
0
 62
7
100
AcDbSpline
 70
8
 71
3
 72
8
 73
4
 74
0
 40
0
 40
0
 40
0
 40
0
 40
1
 40
1
 40
1
 40
1
 10
57.817655
 20
246.833932
 30
0.0
 10
57.965364
 20
246.363932
 30
0.0
 10
58.448580
 20
247.419069
 30
0.0
 10
59.189604
 20
249.829682
 30
0.0
  0
LWPOLYLINE
  5
59e
100
AcDbEntity
  8
0
 62
7
100
AcDbPolyline
 90
3
 70
0
 10
53.350491
 20
260.416771
 30
0.0
 10
52.539823
 20
259.138483
 30
0.0
 10
53.107201
 20
258.211729
 30
0.0
  0
SPLINE
  5
59f
100
AcDbEntity
  8
0
 62
7
100
AcDbSpline
 70
8
 71
3
 72
8
 73
4
 74
0
 40
0
 40
0
 40
0
 40
0
 40
1
 40
1
 40
1
 40
1
 10
124.431346
 20
250.802682
 30
0.0
 10
125.528554
 20
259.000800
 30
0.0
 10
128.170138
 20
267.028573
 30
0.0
 10
131.296278
 20
271.665209
 30
0.0
  0
SPLINE
  5
5a0
100
AcDbEntity
  8
0
 62
7
100
AcDbSpline
 70
8
 71
3
 72
8
 73
4
 74
0
 40
0
 40
0
 40
0
 40
0
 40
1
 40
1
 40
1
 40
1
 10
131.296278
 20
271.665209
 30
0.0
 10
131.821235
 20
272.443816
 30
0.0
 10
132.250746
 20
273.130703
 30
0.0
 10
132.250746
 20
273.191625
 30
0.0
  0
SPLINE
  5
5a1
100
AcDbEntity
  8
0
 62
7
100
AcDbSpline
 70
8
 71
3
 72
8
 73
4
 74
0
 40
0
 40
0
 40
0
 40
0
 40
1
 40
1
 40
1
 40
1
 10
132.250746
 20
273.191625
 30
0.0
 10
132.250746
 20
273.252546
 30
0.0
 10
129.612565
 20
273.270347
 30
0.0
 10
126.388119
 20
273.231183
 30
0.0
  0
LWPOLYLINE
  5
5a2
100
AcDbEntity
  8
0
 62
7
100
AcDbPolyline
 90
1
 70
1
 10
59.189604
 20
249.829682
 30
0.0
  0
SPLINE
  5
5a3
100
AcDbEntity
  8
0
 62
7
100
AcDbSpline
 70
8
 71
3
 72
8
 73
4
 74
0
 40
0
 40
0
 40
0
 40
0
 40
1
 40
1
 40
1
 40
1
 10
119.892818
 20
271.307892
 30
0.0
 10
118.506822
 20
267.250522
 30
0.0
 10
118.136757
 20
265.150845
 30
0.0
 10
118.144105
 20
261.386017
 30
0.0
  0
SPLINE
  5
5a4
100
AcDbEntity
  8
0
 62
7
100
AcDbSpline
 70
8
 71
3
 72
8
 73
4
 74
0
 40
0
 40
0
 40
0
 40
0
 40
1
 40
1
 40
1
 40
1
 10
118.144105
 20
261.386017
 30
0.0
 10
118.150164
 20
258.279350
 30
0.0
 10
118.244300
 20
257.504002
 30
0.0
 10
118.866875
 20
255.432892
 30
0.0
  0
SPLINE
  5
5a5
100
AcDbEntity
  8
0
 62
7
100
AcDbSpline
 70
8
 71
3
 72
8
 73
4
 74
0
 40
0
 40
0
 40
0
 40
0
 40
1
 40
1
 40
1
 40
1
 10
118.866875
 20
255.432892
 30
0.0
 10
119.641723
 20
252.855211
 30
0.0
 10
121.418715
 20
249.277944
 30
0.0
 10
122.774914
 20
247.565601
 30
0.0
  0
SPLINE
  5
5a6
100
AcDbEntity
  8
0
 62
7
100
AcDbSpline
 70
8
 71
3
 72
8
 73
4
 74
0
 40
0
 40
0
 40
0
 40
0
 40
1
 40
1
 40
1
 40
1
 10
122.774914
 20
247.565601
 30
0.0
 10
123.819322
 20
246.246930
 30
0.0
 10
123.822434
 20
246.253011
 30
0.0
 10
124.431346
 20
250.802682
 30
0.0
  0
LWPOLYLINE
  5
5a7
100
AcDbEntity
  8
0
 62
7
100
AcDbPolyline
 90
3
 70
0
 10
126.388119
 20
273.231183
 30
0.0
 10
120.525490
 20
273.159975
 30
0.0
 10
119.892818
 20
271.307892
 30
0.0
  0
SPLINE
  5
5a8
100
AcDbEntity
  8
0
 62
7
100
AcDbSpline
 70
8
 71
3
 72
8
 73
4
 74
0
 40
0
 40
0
 40
0
 40
0
 40
1
 40
1
 40
1
 40
1
 10
96.452153
 20
249.249933
 30
0.0
 10
100.178902
 20
250.399579
 30
0.0
 10
102.708623
 20
251.974765
 30
0.0
 10
106.154397
 20
255.291242
 30
0.0
  0
SPLINE
  5
5a9
100
AcDbEntity
  8
0
 62
7
100
AcDbSpline
 70
8
 71
3
 72
8
 73
4
 74
0
 40
0
 40
0
 40
0
 40
0
 40
1
 40
1
 40
1
 40
1
 10
106.154397
 20
255.291242
 30
0.0
 10
109.969210
 20
258.962913
 30
0.0
 10
113.791050
 20
264.447534
 30
0.0
 10
117.033357
 20
270.903357
 30
0.0
  0
LWPOLYLINE
  5
5aa
100
AcDbEntity
  8
0
 62
7
100
AcDbPolyline
 90
1
 70
1
 10
124.431346
 20
250.802682
 30
0.0
  0
SPLINE
  5
5ab
100
AcDbEntity
  8
0
 62
7
100
AcDbSpline
 70
8
 71
3
 72
8
 73
4
 74
0
 40
0
 40
0
 40
0
 40
0
 40
1
 40
1
 40
1
 40
1
 10
107.215064
 20
271.365546
 30
0.0
 10
104.474140
 20
266.567222
 30
0.0
 10
100.978790
 20
262.721201
 30
0.0
 10
95.531249
 20
258.509544
 30
0.0
  0
SPLINE
  5
5ac
100
AcDbEntity
  8
0
 62
7
100
AcDbSpline
 70
8
 71
3
 72
8
 73
4
 74
0
 40
0
 40
0
 40
0
 40
0
 40
1
 40
1
 40
1
 40
1
 10
95.531249
 20
258.509544
 30
0.0
 10
93.598389
 20
257.015193
 30
0.0
 10
91.527299
 20
255.175841
 30
0.0
 10
90.928828
 20
254.422093
 30
0.0
  0
SPLINE
  5
5ad
100
AcDbEntity
  8
0
 62
7
100
AcDbSpline
 70
8
 71
3
 72
8
 73
4
 74
0
 40
0
 40
0
 40
0
 40
0
 40
1
 40
1
 40
1
 40
1
 10
90.928828
 20
254.422093
 30
0.0
 10
89.874717
 20
253.094487
 30
0.0
 10
88.065330
 20
249.694269
 30
0.0
 10
88.065330
 20
249.040973
 30
0.0
  0
SPLINE
  5
5ae
100
AcDbEntity
  8
0
 62
7
100
AcDbSpline
 70
8
 71
3
 72
8
 73
4
 74
0
 40
0
 40
0
 40
0
 40
0
 40
1
 40
1
 40
1
 40
1
 10
88.065330
 20
249.040973
 30
0.0
 10
88.065330
 20
248.257936
 30
0.0
 10
93.690800
 20
248.398093
 30
0.0
 10
96.452153
 20
249.249933
 30
0.0
  0
LWPOLYLINE
  5
5af
100
AcDbEntity
  8
0
 62
7
100
AcDbPolyline
 90
5
 70
0
 10
117.033357
 20
270.903357
 30
0.0
 10
118.233140
 20
273.292267
 30
0.0
 10
113.269548
 20
273.283774
 30
0.0
 10
108.305955
 20
273.275281
 30
0.0
 10
107.215064
 20
271.365546
 30
0.0
  0
SPLINE
  5
5b0
100
AcDbEntity
  8
0
 62
7
100
AcDbSpline
 70
8
 71
3
 72
8
 73
4
 74
0
 40
0
 40
0
 40
0
 40
0
 40
1
 40
1
 40
1
 40
1
 10
69.650271
 20
253.250079
 30
0.0
 10
69.407955
 20
256.834231
 30
0.0
 10
68.731135
 20
258.407913
 30
0.0
 10
65.871810
 20
262.035396
 30
0.0
  0
SPLINE
  5
5b1
100
AcDbEntity
  8
0
 62
7
100
AcDbSpline
 70
8
 71
3
 72
8
 73
4
 74
0
 40
0
 40
0
 40
0
 40
0
 40
1
 40
1
 40
1
 40
1
 10
65.871810
 20
262.035396
 30
0.0
 10
64.844700
 20
263.338439
 30
0.0
 10
63.636549
 20
265.094611
 30
0.0
 10
63.187027
 20
265.938000
 30
0.0
  0
SPLINE
  5
5b2
100
AcDbEntity
  8
0
 62
7
100
AcDbSpline
 70
8
 71
3
 72
8
 73
4
 74
0
 40
0
 40
0
 40
0
 40
0
 40
1
 40
1
 40
1
 40
1
 10
63.187027
 20
265.938000
 30
0.0
 10
62.737505
 20
266.781388
 30
0.0
 10
62.271201
 20
267.471433
 30
0.0
 10
62.150794
 20
267.471433
 30
0.0
  0
SPLINE
  5
5b3
100
AcDbEntity
  8
0
 62
7
100
AcDbSpline
 70
8
 71
3
 72
8
 73
4
 74
0
 40
0
 40
0
 40
0
 40
0
 40
1
 40
1
 40
1
 40
1
 10
62.150794
 20
267.471433
 30
0.0
 10
61.627261
 20
267.471433
 30
0.0
 10
60.959339
 20
265.385053
 30
0.0
 10
60.861149
 20
263.442966
 30
0.0
  0
SPLINE
  5
5b4
100
AcDbEntity
  8
0
 62
7
100
AcDbSpline
 70
8
 71
3
 72
8
 73
4
 74
0
 40
0
 40
0
 40
0
 40
0
 40
1
 40
1
 40
1
 40
1
 10
60.861149
 20
263.442966
 30
0.0
 10
60.741065
 20
261.067924
 30
0.0
 10
61.345593
 20
258.713107
 30
0.0
 10
62.834308
 20
255.756916
 30
0.0
  0
SPLINE
  5
5b5
100
AcDbEntity
  8
0
 62
7
100
AcDbSpline
 70
8
 71
3
 72
8
 73
4
 74
0
 40
0
 40
0
 40
0
 40
0
 40
1
 40
1
 40
1
 40
1
 10
62.834308
 20
255.756916
 30
0.0
 10
63.562188
 20
254.311540
 30
0.0
 10
63.921291
 20
253.881788
 30
0.0
 10
64.595999
 20
253.648634
 30
0.0
  0
SPLINE
  5
5b6
100
AcDbEntity
  8
0
 62
7
100
AcDbSpline
 70
8
 71
3
 72
8
 73
4
 74
0
 40
0
 40
0
 40
0
 40
0
 40
1
 40
1
 40
1
 40
1
 10
64.595999
 20
253.648634
 30
0.0
 10
65.062100
 20
253.487569
 30
0.0
 10
66.276892
 20
252.912827
 30
0.0
 10
67.295538
 20
252.371431
 30
0.0
  0
SPLINE
  5
5b7
100
AcDbEntity
  8
0
 62
7
100
AcDbSpline
 70
8
 71
3
 72
8
 73
4
 74
0
 40
0
 40
0
 40
0
 40
0
 40
1
 40
1
 40
1
 40
1
 10
67.295538
 20
252.371431
 30
0.0
 10
68.314184
 20
251.830036
 30
0.0
 10
69.289896
 20
251.374651
 30
0.0
 10
69.463790
 20
251.359464
 30
0.0
  0
SPLINE
  5
5b8
100
AcDbEntity
  8
0
 62
7
100
AcDbSpline
 70
8
 71
3
 72
8
 73
4
 74
0
 40
0
 40
0
 40
0
 40
0
 40
1
 40
1
 40
1
 40
1
 10
69.463790
 20
251.359464
 30
0.0
 10
69.693216
 20
251.339435
 30
0.0
 10
69.744376
 20
251.858126
 30
0.0
 10
69.650271
 20
253.250079
 30
0.0
  0
LWPOLYLINE
  5
5b9
100
AcDbEntity
  8
0
 62
7
100
AcDbPolyline
 90
1
 70
1
 10
96.452153
 20
249.249933
 30
0.0
  0
SPLINE
  5
5ba
100
AcDbEntity
  8
0
 62
7
100
AcDbSpline
 70
8
 71
3
 72
8
 73
4
 74
0
 40
0
 40
0
 40
0
 40
0
 40
1
 40
1
 40
1
 40
1
 10
134.877940
 20
254.830848
 30
0.0
 10
135.159401
 20
255.931348
 30
0.0
 10
135.762944
 20
257.571178
 30
0.0
 10
136.219150
 20
258.474911
 30
0.0
  0
LWPOLYLINE
  5
5bb
100
AcDbEntity
  8
0
 62
7
100
AcDbPolyline
 90
1
 70
1
 10
69.650271
 20
253.250079
 30
0.0
  0
SPLINE
  5
5bc
100
AcDbEntity
  8
0
 62
7
100
AcDbSpline
 70
8
 71
3
 72
8
 73
4
 74
0
 40
0
 40
0
 40
0
 40
0
 40
1
 40
1
 40
1
 40
1
 10
135.958855
 20
263.025615
 30
0.0
 10
135.359489
 20
264.624768
 30
0.0
 10
134.669025
 20
266.695995
 30
0.0
 10
134.424489
 20
267.628341
 30
0.0
  0
SPLINE
  5
5bd
100
AcDbEntity
  8
0
 62
7
100
AcDbSpline
 70
8
 71
3
 72
8
 73
4
 74
0
 40
0
 40
0
 40
0
 40
0
 40
1
 40
1
 40
1
 40
1
 10
134.424489
 20
267.628341
 30
0.0
 10
134.179953
 20
268.560688
 30
0.0
 10
133.906104
 20
269.323517
 30
0.0
 10
133.815939
 20
269.323517
 30
0.0
  0
SPLINE
  5
5be
100
AcDbEntity
  8
0
 62
7
100
AcDbSpline
 70
8
 71
3
 72
8
 73
4
 74
0
 40
0
 40
0
 40
0
 40
0
 40
1
 40
1
 40
1
 40
1
 10
133.815939
 20
269.323517
 30
0.0
 10
133.572689
 20
269.323517
 30
0.0
 10
132.087771
 20
265.961546
 30
0.0
 10
131.622091
 20
264.356472
 30
0.0
  0
SPLINE
  5
5bf
100
AcDbEntity
  8
0
 62
7
100
AcDbSpline
 70
8
 71
3
 72
8
 73
4
 74
0
 40
0
 40
0
 40
0
 40
0
 40
1
 40
1
 40
1
 40
1
 10
131.622091
 20
264.356472
 30
0.0
 10
130.669112
 20
261.071830
 30
0.0
 10
130.842120
 20
258.095368
 30
0.0
 10
132.134734
 20
255.536757
 30
0.0
  0
SPLINE
  5
5c0
100
AcDbEntity
  8
0
 62
7
100
AcDbSpline
 70
8
 71
3
 72
8
 73
4
 74
0
 40
0
 40
0
 40
0
 40
0
 40
1
 40
1
 40
1
 40
1
 10
132.134734
 20
255.536757
 30
0.0
 10
132.761101
 20
254.296916
 30
0.0
 10
134.087841
 20
252.551584
 30
0.0
 10
134.267435
 20
252.731177
 30
0.0
  0
SPLINE
  5
5c1
100
AcDbEntity
  8
0
 62
7
100
AcDbSpline
 70
8
 71
3
 72
8
 73
4
 74
0
 40
0
 40
0
 40
0
 40
0
 40
1
 40
1
 40
1
 40
1
 10
134.267435
 20
252.731177
 30
0.0
 10
134.321751
 20
252.785494
 30
0.0
 10
134.596479
 20
253.730346
 30
0.0
 10
134.877940
 20
254.830848
 30
0.0
  0
LWPOLYLINE
  5
5c2
100
AcDbEntity
  8
0
 62
7
100
AcDbPolyline
 90
3
 70
0
 10
136.219150
 20
258.474911
 30
0.0
 10
137.048610
 20
260.118065
 30
0.0
 10
135.958855
 20
263.025615
 30
0.0
  0
SPLINE
  5
5c3
100
AcDbEntity
  8
0
 62
7
100
AcDbSpline
 70
8
 71
3
 72
8
 73
4
 74
0
 40
0
 40
0
 40
0
 40
0
 40
1
 40
1
 40
1
 40
1
 10
87.194509
 20
253.779246
 30
0.0
 10
88.495783
 20
255.202376
 30
0.0
 10
89.036570
 20
257.406702
 30
0.0
 10
88.588794
 20
259.462564
 30
0.0
  0
SPLINE
  5
5c4
100
AcDbEntity
  8
0
 62
7
100
AcDbSpline
 70
8
 71
3
 72
8
 73
4
 74
0
 40
0
 40
0
 40
0
 40
0
 40
1
 40
1
 40
1
 40
1
 10
88.588794
 20
259.462564
 30
0.0
 10
88.437617
 20
260.156661
 30
0.0
 10
87.662681
 20
262.341310
 30
0.0
 10
86.866711
 20
264.317340
 30
0.0
  0
SPLINE
  5
5c5
100
AcDbEntity
  8
0
 62
7
100
AcDbSpline
 70
8
 71
3
 72
8
 73
4
 74
0
 40
0
 40
0
 40
0
 40
0
 40
1
 40
1
 40
1
 40
1
 10
86.866711
 20
264.317340
 30
0.0
 10
86.070744
 20
266.293370
 30
0.0
 10
85.419496
 20
268.236159
 30
0.0
 10
85.419496
 20
268.634649
 30
0.0
  0
SPLINE
  5
5c6
100
AcDbEntity
  8
0
 62
7
100
AcDbSpline
 70
8
 71
3
 72
8
 73
4
 74
0
 40
0
 40
0
 40
0
 40
0
 40
1
 40
1
 40
1
 40
1
 10
85.419496
 20
268.634649
 30
0.0
 10
85.419496
 20
269.264109
 30
0.0
 10
85.341383
 20
269.335047
 30
0.0
 10
84.824184
 20
269.175281
 30
0.0
  0
SPLINE
  5
5c7
100
AcDbEntity
  8
0
 62
7
100
AcDbSpline
 70
8
 71
3
 72
8
 73
4
 74
0
 40
0
 40
0
 40
0
 40
0
 40
1
 40
1
 40
1
 40
1
 10
84.824184
 20
269.175281
 30
0.0
 10
83.001908
 20
268.612370
 30
0.0
 10
80.415471
 20
266.432173
 30
0.0
 10
79.879000
 20
265.006813
 30
0.0
  0
SPLINE
  5
5c8
100
AcDbEntity
  8
0
 62
7
100
AcDbSpline
 70
8
 71
3
 72
8
 73
4
 74
0
 40
0
 40
0
 40
0
 40
0
 40
1
 40
1
 40
1
 40
1
 10
79.879000
 20
265.006813
 30
0.0
 10
79.219049
 20
263.253385
 30
0.0
 10
79.758384
 20
262.092826
 30
0.0
 10
82.694915
 20
258.947414
 30
0.0
  0
SPLINE
  5
5c9
100
AcDbEntity
  8
0
 62
7
100
AcDbSpline
 70
8
 71
3
 72
8
 73
4
 74
0
 40
0
 40
0
 40
0
 40
0
 40
1
 40
1
 40
1
 40
1
 10
82.694915
 20
258.947414
 30
0.0
 10
84.761081
 20
256.734282
 30
0.0
 10
86.213246
 20
254.522881
 30
0.0
 10
86.213246
 20
253.589603
 30
0.0
  0
SPLINE
  5
5ca
100
AcDbEntity
  8
0
 62
7
100
AcDbSpline
 70
8
 71
3
 72
8
 73
4
 74
0
 40
0
 40
0
 40
0
 40
0
 40
1
 40
1
 40
1
 40
1
 10
86.213246
 20
253.589603
 30
0.0
 10
86.213246
 20
253.018285
 30
0.0
 10
86.559980
 20
253.085296
 30
0.0
 10
87.194509
 20
253.779246
 30
0.0
  0
LWPOLYLINE
  5
5cb
100
AcDbEntity
  8
0
 62
7
100
AcDbPolyline
 90
1
 70
1
 10
134.877940
 20
254.830848
 30
0.0
  0
SPLINE
  5
5cc
100
AcDbEntity
  8
0
 62
7
100
AcDbSpline
 70
8
 71
3
 72
8
 73
4
 74
0
 40
0
 40
0
 40
0
 40
0
 40
1
 40
1
 40
1
 40
1
 10
28.240463
 20
255.102163
 30
0.0
 10
29.898618
 20
257.303221
 30
0.0
 10
30.692685
 20
259.101275
 30
0.0
 10
30.706936
 20
260.687140
 30
0.0
  0
SPLINE
  5
5cd
100
AcDbEntity
  8
0
 62
7
100
AcDbSpline
 70
8
 71
3
 72
8
 73
4
 74
0
 40
0
 40
0
 40
0
 40
0
 40
1
 40
1
 40
1
 40
1
 10
30.706936
 20
260.687140
 30
0.0
 10
30.721805
 20
262.340824
 30
0.0
 10
30.332722
 20
263.169516
 30
0.0
 10
28.219998
 20
265.984099
 30
0.0
  0
SPLINE
  5
5ce
100
AcDbEntity
  8
0
 62
7
100
AcDbSpline
 70
8
 71
3
 72
8
 73
4
 74
0
 40
0
 40
0
 40
0
 40
0
 40
1
 40
1
 40
1
 40
1
 10
28.219998
 20
265.984099
 30
0.0
 10
26.618883
 20
268.117111
 30
0.0
 10
25.416825
 20
270.272894
 30
0.0
 10
24.845753
 20
272.035496
 30
0.0
  0
SPLINE
  5
5cf
100
AcDbEntity
  8
0
 62
7
100
AcDbSpline
 70
8
 71
3
 72
8
 73
4
 74
0
 40
0
 40
0
 40
0
 40
0
 40
1
 40
1
 40
1
 40
1
 10
24.845753
 20
272.035496
 30
0.0
 10
24.668948
 20
272.581199
 30
0.0
 10
24.417118
 20
273.027683
 30
0.0
 10
24.286125
 20
273.027683
 30
0.0
  0
SPLINE
  5
5d0
100
AcDbEntity
  8
0
 62
7
100
AcDbSpline
 70
8
 71
3
 72
8
 73
4
 74
0
 40
0
 40
0
 40
0
 40
0
 40
1
 40
1
 40
1
 40
1
 10
24.286125
 20
273.027683
 30
0.0
 10
24.155135
 20
273.027683
 30
0.0
 10
23.512401
 20
271.926355
 30
0.0
 10
22.857828
 20
270.580288
 30
0.0
  0
SPLINE
  5
5d1
100
AcDbEntity
  8
0
 62
7
100
AcDbSpline
 70
8
 71
3
 72
8
 73
4
 74
0
 40
0
 40
0
 40
0
 40
0
 40
1
 40
1
 40
1
 40
1
 10
22.857828
 20
270.580288
 30
0.0
 10
20.079671
 20
264.867274
 30
0.0
 10
20.774298
 20
260.043517
 30
0.0
 10
25.023820
 20
255.538799
 30
0.0
  0
SPLINE
  5
5d2
100
AcDbEntity
  8
0
 62
7
100
AcDbSpline
 70
8
 71
3
 72
8
 73
4
 74
0
 40
0
 40
0
 40
0
 40
0
 40
1
 40
1
 40
1
 40
1
 10
25.023820
 20
255.538799
 30
0.0
 10
25.971071
 20
254.534666
 30
0.0
 10
26.846877
 20
253.713100
 30
0.0
 10
26.970056
 20
253.713100
 30
0.0
  0
SPLINE
  5
5d3
100
AcDbEntity
  8
0
 62
7
100
AcDbSpline
 70
8
 71
3
 72
8
 73
4
 74
0
 40
0
 40
0
 40
0
 40
0
 40
1
 40
1
 40
1
 40
1
 10
26.970056
 20
253.713100
 30
0.0
 10
27.093238
 20
253.713100
 30
0.0
 10
27.664921
 20
254.338178
 30
0.0
 10
28.240463
 20
255.102163
 30
0.0
  0
LWPOLYLINE
  5
5d4
100
AcDbEntity
  8
0
 62
7
100
AcDbPolyline
 90
1
 70
1
 10
87.194509
 20
253.779246
 30
0.0
  0
SPLINE
  5
5d5
100
AcDbEntity
  8
0
 62
7
100
AcDbSpline
 70
8
 71
3
 72
8
 73
4
 74
0
 40
0
 40
0
 40
0
 40
0
 40
1
 40
1
 40
1
 40
1
 10
41.375095
 20
256.226642
 30
0.0
 10
42.035299
 20
258.854610
 30
0.0
 10
41.983737
 20
263.011087
 30
0.0
 10
41.256934
 20
265.751642
 30
0.0
  0
SPLINE
  5
5d6
100
AcDbEntity
  8
0
 62
7
100
AcDbSpline
 70
8
 71
3
 72
8
 73
4
 74
0
 40
0
 40
0
 40
0
 40
0
 40
1
 40
1
 40
1
 40
1
 10
41.256934
 20
265.751642
 30
0.0
 10
40.948195
 20
266.915808
 30
0.0
 10
40.090725
 20
269.108226
 30
0.0
 10
39.351445
 20
270.623681
 30
0.0
  0
LWPOLYLINE
  5
5d7
100
AcDbEntity
  8
0
 62
7
100
AcDbPolyline
 90
1
 70
1
 10
28.240463
 20
255.102163
 30
0.0
  0
SPLINE
  5
5d8
100
AcDbEntity
  8
0
 62
7
100
AcDbSpline
 70
8
 71
3
 72
8
 73
4
 74
0
 40
0
 40
0
 40
0
 40
0
 40
1
 40
1
 40
1
 40
1
 10
37.170209
 20
271.814306
 30
0.0
 10
36.709810
 20
270.953695
 30
0.0
 10
35.645161
 20
269.165166
 30
0.0
 10
34.804321
 20
267.839798
 30
0.0
  0
SPLINE
  5
5d9
100
AcDbEntity
  8
0
 62
7
100
AcDbSpline
 70
8
 71
3
 72
8
 73
4
 74
0
 40
0
 40
0
 40
0
 40
0
 40
1
 40
1
 40
1
 40
1
 10
34.804321
 20
267.839798
 30
0.0
 10
33.963483
 20
266.514430
 30
0.0
 10
33.207698
 20
265.012074
 30
0.0
 10
33.124801
 20
264.501230
 30
0.0
  0
SPLINE
  5
5da
100
AcDbEntity
  8
0
 62
7
100
AcDbSpline
 70
8
 71
3
 72
8
 73
4
 74
0
 40
0
 40
0
 40
0
 40
0
 40
1
 40
1
 40
1
 40
1
 10
33.124801
 20
264.501230
 30
0.0
 10
32.895170
 20
263.086176
 30
0.0
 10
33.655249
 20
261.826875
 30
0.0
 10
35.935846
 20
259.843895
 30
0.0
  0
SPLINE
  5
5db
100
AcDbEntity
  8
0
 62
7
100
AcDbSpline
 70
8
 71
3
 72
8
 73
4
 74
0
 40
0
 40
0
 40
0
 40
0
 40
1
 40
1
 40
1
 40
1
 10
35.935846
 20
259.843895
 30
0.0
 10
38.048679
 20
258.006782
 30
0.0
 10
39.784166
 20
255.950755
 30
0.0
 10
40.270208
 20
254.708984
 30
0.0
  0
SPLINE
  5
5dc
100
AcDbEntity
  8
0
 62
7
100
AcDbSpline
 70
8
 71
3
 72
8
 73
4
 74
0
 40
0
 40
0
 40
0
 40
0
 40
1
 40
1
 40
1
 40
1
 10
40.270208
 20
254.708984
 30
0.0
 10
40.641320
 20
253.760844
 30
0.0
 10
40.815863
 20
254.000596
 30
0.0
 10
41.375095
 20
256.226642
 30
0.0
  0
LWPOLYLINE
  5
5dd
100
AcDbEntity
  8
0
 62
7
100
AcDbPolyline
 90
3
 70
0
 10
39.351445
 20
270.623681
 30
0.0
 10
38.007298
 20
273.379053
 30
0.0
 10
37.170209
 20
271.814306
 30
0.0
  0
SPLINE
  5
5de
100
AcDbEntity
  8
0
 62
7
100
AcDbSpline
 70
8
 71
3
 72
8
 73
4
 74
0
 40
0
 40
0
 40
0
 40
0
 40
1
 40
1
 40
1
 40
1
 10
73.739473
 20
261.187579
 30
0.0
 10
76.555947
 20
264.959813
 30
0.0
 10
76.993382
 20
268.066299
 30
0.0
 10
75.245651
 20
271.883847
 30
0.0
  0
LWPOLYLINE
  5
5df
100
AcDbEntity
  8
0
 62
7
100
AcDbPolyline
 90
1
 70
1
 10
41.375095
 20
256.226642
 30
0.0
  0
SPLINE
  5
5e0
100
AcDbEntity
  8
0
 62
7
100
AcDbSpline
 70
8
 71
3
 72
8
 73
4
 74
0
 40
0
 40
0
 40
0
 40
0
 40
1
 40
1
 40
1
 40
1
 10
63.575927
 20
272.355495
 30
0.0
 10
63.999107
 20
270.099753
 30
0.0
 10
65.180752
 20
268.192613
 30
0.0
 10
68.651213
 20
264.164142
 30
0.0
  0
SPLINE
  5
5e1
100
AcDbEntity
  8
0
 62
7
100
AcDbSpline
 70
8
 71
3
 72
8
 73
4
 74
0
 40
0
 40
0
 40
0
 40
0
 40
1
 40
1
 40
1
 40
1
 10
68.651213
 20
264.164142
 30
0.0
 10
69.654121
 20
262.999975
 30
0.0
 10
70.870710
 20
261.541459
 30
0.0
 10
71.354738
 20
260.922996
 30
0.0
  0
SPLINE
  5
5e2
100
AcDbEntity
  8
0
 62
7
100
AcDbSpline
 70
8
 71
3
 72
8
 73
4
 74
0
 40
0
 40
0
 40
0
 40
0
 40
1
 40
1
 40
1
 40
1
 10
71.354738
 20
260.922996
 30
0.0
 10
71.838770
 20
260.304532
 30
0.0
 10
72.339996
 20
259.798517
 30
0.0
 10
72.468573
 20
259.798517
 30
0.0
  0
SPLINE
  5
5e3
100
AcDbEntity
  8
0
 62
7
100
AcDbSpline
 70
8
 71
3
 72
8
 73
4
 74
0
 40
0
 40
0
 40
0
 40
0
 40
1
 40
1
 40
1
 40
1
 10
72.468573
 20
259.798517
 30
0.0
 10
72.597153
 20
259.798517
 30
0.0
 10
73.169058
 20
260.423595
 30
0.0
 10
73.739473
 20
261.187579
 30
0.0
  0
LWPOLYLINE
  5
5e4
100
AcDbEntity
  8
0
 62
7
100
AcDbPolyline
 90
5
 70
0
 10
75.245651
 20
271.883847
 30
0.0
 10
74.600856
 20
273.292267
 30
0.0
 10
69.000521
 20
273.292267
 30
0.0
 10
63.400189
 20
273.292267
 30
0.0
 10
63.575927
 20
272.355495
 30
0.0
  0
SPLINE
  5
5e5
100
AcDbEntity
  8
0
 62
7
100
AcDbSpline
 70
8
 71
3
 72
8
 73
4
 74
0
 40
0
 40
0
 40
0
 40
0
 40
1
 40
1
 40
1
 40
1
 10
94.104365
 20
261.834339
 30
0.0
 10
96.268400
 20
263.378564
 30
0.0
 10
99.320239
 20
266.258688
 30
0.0
 10
100.720533
 20
268.078247
 30
0.0
  0
SPLINE
  5
5e6
100
AcDbEntity
  8
0
 62
7
100
AcDbSpline
 70
8
 71
3
 72
8
 73
4
 74
0
 40
0
 40
0
 40
0
 40
0
 40
1
 40
1
 40
1
 40
1
 10
100.720533
 20
268.078247
 30
0.0
 10
101.740401
 20
269.403475
 30
0.0
 10
103.940330
 20
272.872302
 30
0.0
 10
103.940330
 20
273.155194
 30
0.0
  0
SPLINE
  5
5e7
100
AcDbEntity
  8
0
 62
7
100
AcDbSpline
 70
8
 71
3
 72
8
 73
4
 74
0
 40
0
 40
0
 40
0
 40
0
 40
1
 40
1
 40
1
 40
1
 10
103.940330
 20
273.155194
 30
0.0
 10
103.940330
 20
273.230584
 30
0.0
 10
100.719567
 20
273.292267
 30
0.0
 10
96.783078
 20
273.292267
 30
0.0
  0
LWPOLYLINE
  5
5e8
100
AcDbEntity
  8
0
 62
7
100
AcDbPolyline
 90
1
 70
1
 10
73.739473
 20
261.187579
 30
0.0
  0
SPLINE
  5
5e9
100
AcDbEntity
  8
0
 62
7
100
AcDbSpline
 70
8
 71
3
 72
8
 73
4
 74
0
 40
0
 40
0
 40
0
 40
0
 40
1
 40
1
 40
1
 40
1
 10
89.184536
 20
272.300079
 30
0.0
 10
88.502056
 20
270.765611
 30
0.0
 10
88.630895
 20
267.757102
 30
0.0
 10
89.473328
 20
265.556561
 30
0.0
  0
SPLINE
  5
5ea
100
AcDbEntity
  8
0
 62
7
100
AcDbSpline
 70
8
 71
3
 72
8
 73
4
 74
0
 40
0
 40
0
 40
0
 40
0
 40
1
 40
1
 40
1
 40
1
 10
89.473328
 20
265.556561
 30
0.0
 10
90.323347
 20
263.336210
 30
0.0
 10
91.847784
 20
260.592267
 30
0.0
 10
92.231313
 20
260.592267
 30
0.0
  0
SPLINE
  5
5eb
100
AcDbEntity
  8
0
 62
7
100
AcDbSpline
 70
8
 71
3
 72
8
 73
4
 74
0
 40
0
 40
0
 40
0
 40
0
 40
1
 40
1
 40
1
 40
1
 10
92.231313
 20
260.592267
 30
0.0
 10
92.304156
 20
260.592267
 30
0.0
 10
93.147028
 20
261.151200
 30
0.0
 10
94.104365
 20
261.834339
 30
0.0
  0
LWPOLYLINE
  5
5ec
100
AcDbEntity
  8
0
 62
7
100
AcDbPolyline
 90
3
 70
0
 10
96.783078
 20
273.292267
 30
0.0
 10
89.625829
 20
273.292267
 30
0.0
 10
89.184536
 20
272.300079
 30
0.0
  0
SPLINE
  5
5ed
100
AcDbEntity
  8
0
 62
7
100
AcDbSpline
 70
8
 71
3
 72
8
 73
4
 74
0
 40
0
 40
0
 40
0
 40
0
 40
1
 40
1
 40
1
 40
1
 10
51.486684
 20
262.948423
 30
0.0
 10
52.646307
 20
265.233831
 30
0.0
 10
52.652308
 20
266.919555
 30
0.0
 10
51.513848
 20
270.580288
 30
0.0
  0
LWPOLYLINE
  5
5ee
100
AcDbEntity
  8
0
 62
7
100
AcDbPolyline
 90
1
 70
1
 10
94.104365
 20
261.834339
 30
0.0
  0
SPLINE
  5
5ef
100
AcDbEntity
  8
0
 62
7
100
AcDbSpline
 70
8
 71
3
 72
8
 73
4
 74
0
 40
0
 40
0
 40
0
 40
0
 40
1
 40
1
 40
1
 40
1
 10
45.930211
 20
273.292267
 30
0.0
 10
43.323087
 20
273.292267
 30
0.0
 10
41.235701
 20
273.202970
 30
0.0
 10
41.291579
 20
273.093829
 30
0.0
  0
SPLINE
  5
5f0
100
AcDbEntity
  8
0
 62
7
100
AcDbSpline
 70
8
 71
3
 72
8
 73
4
 74
0
 40
0
 40
0
 40
0
 40
0
 40
1
 40
1
 40
1
 40
1
 10
41.291579
 20
273.093829
 30
0.0
 10
43.267125
 20
269.235165
 30
0.0
 10
44.244260
 20
266.337434
 30
0.0
 10
44.801385
 20
262.685370
 30
0.0
  0
LWPOLYLINE
  5
5f1
100
AcDbEntity
  8
0
 62
7
100
AcDbPolyline
 90
3
 70
0
 10
51.513848
 20
270.580288
 30
0.0
 10
50.670441
 20
273.292267
 30
0.0
 10
45.930211
 20
273.292267
 30
0.0
  0
SPLINE
  5
5f2
100
AcDbEntity
  8
0
 62
7
100
AcDbSpline
 70
8
 71
3
 72
8
 73
4
 74
0
 40
0
 40
0
 40
0
 40
0
 40
1
 40
1
 40
1
 40
1
 10
47.389643
 20
261.470149
 30
0.0
 10
48.733509
 20
261.324060
 30
0.0
 10
50.011632
 20
261.215601
 30
0.0
 10
50.229913
 20
261.229129
 30
0.0
  0
SPLINE
  5
5f3
100
AcDbEntity
  8
0
 62
7
100
AcDbSpline
 70
8
 71
3
 72
8
 73
4
 74
0
 40
0
 40
0
 40
0
 40
0
 40
1
 40
1
 40
1
 40
1
 10
50.229913
 20
261.229129
 30
0.0
 10
50.448194
 20
261.242657
 30
0.0
 10
51.013741
 20
262.016339
 30
0.0
 10
51.486684
 20
262.948423
 30
0.0
  0
LWPOLYLINE
  5
5f4
100
AcDbEntity
  8
0
 62
7
100
AcDbPolyline
 90
3
 70
0
 10
44.801385
 20
262.685370
 30
0.0
 10
44.946247
 20
261.735765
 30
0.0
 10
47.389643
 20
261.470149
 30
0.0
  0
LWPOLYLINE
  5
5f5
100
AcDbEntity
  8
0
 62
7
100
AcDbPolyline
 90
1
 70
1
 10
51.486684
 20
262.948423
 30
0.0
  0
SPLINE
  5
5f6
100
AcDbEntity
  8
0
 62
7
100
AcDbSpline
 70
8
 71
3
 72
8
 73
4
 74
0
 40
0
 40
0
 40
0
 40
0
 40
1
 40
1
 40
1
 40
1
 10
137.013246
 20
271.071178
 30
0.0
 10
137.013246
 20
268.757899
 30
0.0
 10
137.609220
 20
266.262090
 30
0.0
 10
138.662574
 20
264.164142
 30
0.0
  0
SPLINE
  5
5f7
100
AcDbEntity
  8
0
 62
7
100
AcDbSpline
 70
8
 71
3
 72
8
 73
4
 74
0
 40
0
 40
0
 40
0
 40
0
 40
1
 40
1
 40
1
 40
1
 10
138.662574
 20
264.164142
 30
0.0
 10
139.504812
 20
262.486673
 30
0.0
 10
139.609092
 20
262.406154
 30
0.0
 10
140.413298
 20
262.812348
 30
0.0
  0
SPLINE
  5
5f8
100
AcDbEntity
  8
0
 62
7
100
AcDbSpline
 70
8
 71
3
 72
8
 73
4
 74
0
 40
0
 40
0
 40
0
 40
0
 40
1
 40
1
 40
1
 40
1
 10
140.413298
 20
262.812348
 30
0.0
 10
140.798841
 20
263.007082
 30
0.0
 10
141.739366
 20
263.370703
 30
0.0
 10
142.503350
 20
263.620394
 30
0.0
  0
LWPOLYLINE
  5
5f9
100
AcDbEntity
  8
0
 62
7
100
AcDbPolyline
 90
7
 70
0
 10
142.503350
 20
263.620394
 30
0.0
 10
143.892413
 20
264.074377
 30
0.0
 10
143.892413
 20
268.683322
 30
0.0
 10
143.892413
 20
273.292267
 30
0.0
 10
140.452830
 20
273.292267
 30
0.0
 10
137.013246
 20
273.292267
 30
0.0
 10
137.013246
 20
271.071178
 30
0.0
  0
SPLINE
  5
5fa
100
AcDbEntity
  8
0
 62
7
100
AcDbSpline
 70
8
 71
3
 72
8
 73
4
 74
0
 40
0
 40
0
 40
0
 40
0
 40
1
 40
1
 40
1
 40
1
 10
18.744496
 20
264.439879
 30
0.0
 10
18.744496
 20
266.791259
 30
0.0
 10
19.427488
 20
269.923712
 30
0.0
 10
20.342116
 20
271.767156
 30
0.0
  0
LWPOLYLINE
  5
5fb
100
AcDbEntity
  8
0
 62
7
100
AcDbPolyline
 90
1
 70
1
 10
142.503350
 20
263.620394
 30
0.0
  0
SPLINE
  5
5fc
100
AcDbEntity
  8
0
 62
7
100
AcDbSpline
 70
8
 71
3
 72
8
 73
4
 74
0
 40
0
 40
0
 40
0
 40
0
 40
1
 40
1
 40
1
 40
1
 10
10.430400
 20
272.176457
 30
0.0
 10
11.330125
 20
269.626364
 30
0.0
 10
13.529949
 20
266.735507
 30
0.0
 10
16.425368
 20
264.298286
 30
0.0
  0
SPLINE
  5
5fd
100
AcDbEntity
  8
0
 62
7
100
AcDbSpline
 70
8
 71
3
 72
8
 73
4
 74
0
 40
0
 40
0
 40
0
 40
0
 40
1
 40
1
 40
1
 40
1
 10
16.425368
 20
264.298286
 30
0.0
 10
17.463851
 20
263.424142
 30
0.0
 10
18.410489
 20
262.708933
 30
0.0
 10
18.529007
 20
262.708933
 30
0.0
  0
SPLINE
  5
5fe
100
AcDbEntity
  8
0
 62
7
100
AcDbSpline
 70
8
 71
3
 72
8
 73
4
 74
0
 40
0
 40
0
 40
0
 40
0
 40
1
 40
1
 40
1
 40
1
 10
18.529007
 20
262.708933
 30
0.0
 10
18.647526
 20
262.708933
 30
0.0
 10
18.744496
 20
263.487859
 30
0.0
 10
18.744496
 20
264.439879
 30
0.0
  0
LWPOLYLINE
  5
5ff
100
AcDbEntity
  8
0
 62
7
100
AcDbPolyline
 90
5
 70
0
 10
20.342116
 20
271.767156
 30
0.0
 10
21.098802
 20
273.292267
 30
0.0
 10
15.567761
 20
273.292267
 30
0.0
 10
10.036719
 20
273.292267
 30
0.0
 10
10.430400
 20
272.176457
 30
0.0
  0
SPLINE
  5
600
100
AcDbEntity
  8
0
 62
7
100
AcDbSpline
 70
8
 71
3
 72
8
 73
4
 74
0
 40
0
 40
0
 40
0
 40
0
 40
1
 40
1
 40
1
 40
1
 10
32.357483
 20
268.850810
 30
0.0
 10
32.882306
 20
269.463947
 30
0.0
 10
33.671044
 20
270.684337
 30
0.0
 10
34.110237
 20
271.562789
 30
0.0
  0
LWPOLYLINE
  5
601
100
AcDbEntity
  8
0
 62
7
100
AcDbPolyline
 90
1
 70
1
 10
18.744496
 20
264.439879
 30
0.0
  0
SPLINE
  5
602
100
AcDbEntity
  8
0
 62
7
100
AcDbSpline
 70
8
 71
3
 72
8
 73
4
 74
0
 40
0
 40
0
 40
0
 40
0
 40
1
 40
1
 40
1
 40
1
 10
31.288157
 20
273.233824
 30
0.0
 10
29.296818
 20
273.274441
 30
0.0
 10
27.607199
 20
273.247331
 30
0.0
 10
27.533447
 20
273.173577
 30
0.0
  0
SPLINE
  5
603
100
AcDbEntity
  8
0
 62
7
100
AcDbSpline
 70
8
 71
3
 72
8
 73
4
 74
0
 40
0
 40
0
 40
0
 40
0
 40
1
 40
1
 40
1
 40
1
 10
27.533447
 20
273.173577
 30
0.0
 10
27.459691
 20
273.099824
 30
0.0
 10
27.605755
 20
272.499019
 30
0.0
 10
27.858027
 20
271.838454
 30
0.0
  0
SPLINE
  5
604
100
AcDbEntity
  8
0
 62
7
100
AcDbSpline
 70
8
 71
3
 72
8
 73
4
 74
0
 40
0
 40
0
 40
0
 40
0
 40
1
 40
1
 40
1
 40
1
 10
27.858027
 20
271.838454
 30
0.0
 10
28.286890
 20
270.715488
 30
0.0
 10
30.703782
 20
267.736017
 30
0.0
 10
31.185845
 20
267.736017
 30
0.0
  0
SPLINE
  5
605
100
AcDbEntity
  8
0
 62
7
100
AcDbSpline
 70
8
 71
3
 72
8
 73
4
 74
0
 40
0
 40
0
 40
0
 40
0
 40
1
 40
1
 40
1
 40
1
 10
31.185845
 20
267.736017
 30
0.0
 10
31.305423
 20
267.736017
 30
0.0
 10
31.832661
 20
268.237674
 30
0.0
 10
32.357483
 20
268.850810
 30
0.0
  0
LWPOLYLINE
  5
606
100
AcDbEntity
  8
0
 62
7
100
AcDbPolyline
 90
3
 70
0
 10
34.110237
 20
271.562789
 30
0.0
 10
34.908770
 20
273.159975
 30
0.0
 10
31.288157
 20
273.233824
 30
0.0
  0
SPLINE
  5
607
100
AcDbEntity
  8
0
 62
7
100
AcDbSpline
 70
8
 71
3
 72
8
 73
4
 74
0
 40
0
 40
0
 40
0
 40
0
 40
1
 40
1
 40
1
 40
1
 10
59.929257
 20
268.704422
 30
0.0
 10
60.216190
 20
269.069129
 30
0.0
 10
60.813246
 20
271.869728
 30
0.0
 10
60.813246
 20
272.850919
 30
0.0
  0
SPLINE
  5
608
100
AcDbEntity
  8
0
 62
7
100
AcDbSpline
 70
8
 71
3
 72
8
 73
4
 74
0
 40
0
 40
0
 40
0
 40
0
 40
1
 40
1
 40
1
 40
1
 10
60.813246
 20
272.850919
 30
0.0
 10
60.813246
 20
273.241199
 30
0.0
 10
60.399949
 20
273.292267
 30
0.0
 10
57.241371
 20
273.292267
 30
0.0
  0
SPLINE
  5
609
100
AcDbEntity
  8
0
 62
7
100
AcDbSpline
 70
8
 71
3
 72
8
 73
4
 74
0
 40
0
 40
0
 40
0
 40
0
 40
1
 40
1
 40
1
 40
1
 10
57.241371
 20
273.292267
 30
0.0
 10
53.263342
 20
273.292267
 30
0.0
 10
53.402656
 20
273.375915
 30
0.0
 10
54.078277
 20
271.393074
 30
0.0
  0
SPLINE
  5
60a
100
AcDbEntity
  8
0
 62
7
100
AcDbSpline
 70
8
 71
3
 72
8
 73
4
 74
0
 40
0
 40
0
 40
0
 40
0
 40
1
 40
1
 40
1
 40
1
 10
54.078277
 20
271.393074
 30
0.0
 10
54.555856
 20
269.991459
 30
0.0
 10
55.827179
 20
268.586570
 30
0.0
 10
56.813424
 20
268.370570
 30
0.0
  0
SPLINE
  5
60b
100
AcDbEntity
  8
0
 62
7
100
AcDbSpline
 70
8
 71
3
 72
8
 73
4
 74
0
 40
0
 40
0
 40
0
 40
0
 40
1
 40
1
 40
1
 40
1
 10
56.813424
 20
268.370570
 30
0.0
 10
57.194315
 20
268.287150
 30
0.0
 10
57.625017
 20
268.177909
 30
0.0
 10
57.770538
 20
268.127813
 30
0.0
  0
SPLINE
  5
60c
100
AcDbEntity
  8
0
 62
7
100
AcDbSpline
 70
8
 71
3
 72
8
 73
4
 74
0
 40
0
 40
0
 40
0
 40
0
 40
1
 40
1
 40
1
 40
1
 10
57.770538
 20
268.127813
 30
0.0
 10
58.272659
 20
267.954957
 30
0.0
 10
59.623492
 20
268.315774
 30
0.0
 10
59.929257
 20
268.704422
 30
0.0
  0
LWPOLYLINE
  5
60d
100
AcDbEntity
  8
0
 62
7
100
AcDbPolyline
 90
1
 70
1
 10
32.357483
 20
268.850810
 30
0.0
  0
SPLINE
  5
60e
100
AcDbEntity
  8
0
 62
7
100
AcDbSpline
 70
8
 71
3
 72
8
 73
4
 74
0
 40
0
 40
0
 40
0
 40
0
 40
1
 40
1
 40
1
 40
1
 10
80.763208
 20
270.245009
 30
0.0
 10
81.604866
 20
270.751829
 30
0.0
 10
82.904936
 20
271.615033
 30
0.0
 10
83.652252
 20
272.163238
 30
0.0
  0
LWPOLYLINE
  5
60f
100
AcDbEntity
  8
0
 62
7
100
AcDbPolyline
 90
1
 70
1
 10
59.929257
 20
268.704422
 30
0.0
  0
SPLINE
  5
610
100
AcDbEntity
  8
0
 62
7
100
AcDbSpline
 70
8
 71
3
 72
8
 73
4
 74
0
 40
0
 40
0
 40
0
 40
0
 40
1
 40
1
 40
1
 40
1
 10
81.342399
 20
273.233824
 30
0.0
 10
79.324666
 20
273.274441
 30
0.0
 10
77.629097
 20
273.262977
 30
0.0
 10
77.574468
 20
273.208350
 30
0.0
  0
SPLINE
  5
611
100
AcDbEntity
  8
0
 62
7
100
AcDbSpline
 70
8
 71
3
 72
8
 73
4
 74
0
 40
0
 40
0
 40
0
 40
0
 40
1
 40
1
 40
1
 40
1
 10
77.574468
 20
273.208350
 30
0.0
 10
77.519840
 20
273.153722
 30
0.0
 10
77.774342
 20
272.432485
 30
0.0
 10
78.140028
 20
271.605603
 30
0.0
  0
SPLINE
  5
612
100
AcDbEntity
  8
0
 62
7
100
AcDbSpline
 70
8
 71
3
 72
8
 73
4
 74
0
 40
0
 40
0
 40
0
 40
0
 40
1
 40
1
 40
1
 40
1
 10
78.140028
 20
271.605603
 30
0.0
 10
78.505714
 20
270.778720
 30
0.0
 10
78.804913
 20
269.926981
 30
0.0
 10
78.804913
 20
269.712849
 30
0.0
  0
SPLINE
  5
613
100
AcDbEntity
  8
0
 62
7
100
AcDbSpline
 70
8
 71
3
 72
8
 73
4
 74
0
 40
0
 40
0
 40
0
 40
0
 40
1
 40
1
 40
1
 40
1
 10
78.804913
 20
269.712849
 30
0.0
 10
78.804913
 20
269.149279
 30
0.0
 10
79.057595
 20
269.217945
 30
0.0
 10
80.763208
 20
270.245010
 30
0.0
  0
LWPOLYLINE
  5
614
100
AcDbEntity
  8
0
 62
7
100
AcDbPolyline
 90
3
 70
0
 10
83.652252
 20
272.163238
 30
0.0
 10
85.011009
 20
273.159975
 30
0.0
 10
81.342399
 20
273.233824
 30
0.0
  0
LWPOLYLINE
  5
615
100
AcDbEntity
  8
0
 62
7
100
AcDbPolyline
 90
1
 70
1
 10
80.763208
 20
270.245010
 30
0.0
  0
ENDSEC
  0
SECTION
  2
OBJECTS
  0
DICTIONARY
  5
C
330
0
100
AcDbDictionary
  3
ACAD_GROUP
350
D
  3
ACAD_MLINESTYLE
350
17
  0
DICTIONARY
  5
D
330
C
100
AcDbDictionary
  0
DICTIONARY
  5
1A
330
C
100
AcDbDictionary
  0
DICTIONARY
  5
17
330
C
100
AcDbDictionary
  3
STANDARD
350
18
  0
DICTIONARY
  5
19
330
C
100
AcDbDictionary
  0
ENDSEC
  0
EOF
