  0
SECTION
  2
HEADER
  9
$ACADVER
  1
AC1009
  9
$INSBASE
 10
0.0
 20
0.0
 30
0.0
  9
$EXTMIN
 10
2347.5463145912909
 20
-36.167709217755153
 30
0.0
  9
$EXTMAX
 10
4623.7861105429802
 20
1617.5934933702681
 30
0.0
  9
$LIMMIN
 10
0.0
 20
0.0
  9
$LIMMAX
 10
420.0
 20
297.0
  9
$ORTHOMODE
 70
     0
  9
$REGENMODE
 70
     1
  9
$FILLMODE
 70
     1
  9
$QTEXTMODE
 70
     0
  9
$MIRRTEXT
 70
     0
  9
$DRAGMODE
 70
     2
  9
$LTSCALE
 40
1.0
  9
$OSMODE
 70
   175
  9
$ATTMODE
 70
     1
  9
$TEXTSIZE
 40
2.5
  9
$TRACEWID
 40
1.0
  9
$TEXTSTYLE
  7
STANDARD
  9
$CLAYER
  8
0
  9
$CELTYPE
  6
BYLAYER
  9
$CECOLOR
 62
     1
  9
$DIMSCALE
 40
1.0
  9
$DIMASZ
 40
2.5
  9
$DIMEXO
 40
0.625
  9
$DIMDLI
 40
3.75
  9
$DIMRND
 40
0.0
  9
$DIMDLE
 40
0.0
  9
$DIMEXE
 40
1.25
  9
$DIMTP
 40
0.0
  9
$DIMTM
 40
0.0
  9
$DIMTXT
 40
2.5
  9
$DIMCEN
 40
2.5
  9
$DIMTSZ
 40
0.0
  9
$DIMTOL
 70
     0
  9
$DIMLIM
 70
     0
  9
$DIMTIH
 70
     0
  9
$DIMTOH
 70
     0
  9
$DIMSE1
 70
     0
  9
$DIMSE2
 70
     0
  9
$DIMTAD
 70
     1
  9
$DIMZIN
 70
     8
  9
$DIMBLK
  1

  9
$DIMASO
 70
     1
  9
$DIMSHO
 70
     1
  9
$DIMPOST
  1

  9
$DIMAPOST
  1

  9
$DIMALT
 70
     0
  9
$DIMALTD
 70
     3
  9
$DIMALTF
 40
0.03937007874016
  9
$DIMLFAC
 40
1.0
  9
$DIMTOFL
 70
     1
  9
$DIMTVP
 40
0.0
  9
$DIMTIX
 70
     0
  9
$DIMSOXD
 70
     0
  9
$DIMSAH
 70
     0
  9
$DIMBLK1
  1

  9
$DIMBLK2
  1

  9
$DIMSTYLE
  2
ISO-25
  9
$DIMCLRD
 70
     0
  9
$DIMCLRE
 70
     0
  9
$DIMCLRT
 70
     0
  9
$DIMTFAC
 40
1.0
  9
$DIMGAP
 40
0.625
  9
$LUNITS
 70
     2
  9
$LUPREC
 70
     4
  9
$SKETCHINC
 40
1.0
  9
$FILLETRAD
 40
0.0
  9
$AUNITS
 70
     0
  9
$AUPREC
 70
     0
  9
$MENU
  1
.
  9
$ELEVATION
 40
0.0
  9
$PELEVATION
 40
0.0
  9
$THICKNESS
 40
0.0
  9
$LIMCHECK
 70
     0
  9
$BLIPMODE
 70
     0
  9
$CHAMFERA
 40
0.0
  9
$CHAMFERB
 40
0.0
  9
$SKPOLY
 70
     0
  9
$TDCREATE
 40
2457051.4821922109
  9
$TDUPDATE
 40
2458143.6783698611
  9
$TDINDWG
 40
0.030570463
  9
$TDUSRTIMER
 40
0.0305697338
  9
$USRTIMER
 70
     1
  9
$ANGBASE
 50
0.0
  9
$ANGDIR
 70
     0
  9
$PDMODE
 70
     0
  9
$PDSIZE
 40
0.0
  9
$PLINEWID
 40
0.0
  9
$COORDS
 70
     1
  9
$SPLFRAME
 70
     0
  9
$SPLINETYPE
 70
     6
  9
$SPLINESEGS
 70
     8
  9
$ATTDIA
 70
     1
  9
$ATTREQ
 70
     1
  9
$HANDLING
 70
     1
  9
$HANDSEED
  5
862
  9
$SURFTAB1
 70
     6
  9
$SURFTAB2
 70
     6
  9
$SURFTYPE
 70
     6
  9
$SURFU
 70
     6
  9
$SURFV
 70
     6
  9
$UCSNAME
  2

  9
$UCSORG
 10
0.0
 20
0.0
 30
0.0
  9
$UCSXDIR
 10
1.0
 20
0.0
 30
0.0
  9
$UCSYDIR
 10
0.0
 20
1.0
 30
0.0
  9
$PUCSNAME
  2

  9
$PUCSORG
 10
0.0
 20
0.0
 30
0.0
  9
$PUCSXDIR
 10
1.0
 20
0.0
 30
0.0
  9
$PUCSYDIR
 10
0.0
 20
1.0
 30
0.0
  9
$USERI1
 70
     0
  9
$USERI2
 70
     0
  9
$USERI3
 70
     0
  9
$USERI4
 70
     0
  9
$USERI5
 70
     0
  9
$USERR1
 40
0.0
  9
$USERR2
 40
0.0
  9
$USERR3
 40
0.0
  9
$USERR4
 40
0.0
  9
$USERR5
 40
0.0
  9
$WORLDVIEW
 70
     1
  9
$SHADEDGE
 70
     3
  9
$SHADEDIF
 70
    70
  9
$TILEMODE
 70
     1
  9
$MAXACTVP
 70
    64
  9
$PLIMCHECK
 70
     0
  9
$PEXTMIN
 10
0.0
 20
0.0
 30
0.0
  9
$PEXTMAX
 10
0.0
 20
0.0
 30
0.0
  9
$PLIMMIN
 10
0.0
 20
0.0
  9
$PLIMMAX
 10
12.0
 20
9.0
  9
$UNITMODE
 70
     0
  9
$VISRETAIN
 70
     1
  9
$PLINEGEN
 70
     0
  9
$PSLTSCALE
 70
     1
  0
ENDSEC
  0
SECTION
  2
TABLES
  0
TABLE
  2
VPORT
 70
     1
  0
VPORT
  2
*ACTIVE
 70
     0
 10
0.0
 20
0.0
 11
1.0
 21
1.0
 12
4101.9831510107051
 22
539.43053525416121
 13
0.0
 23
0.0
 14
10.0
 24
10.0
 15
10.0
 25
10.0
 16
0.0
 26
0.0
 36
1.0
 17
0.0
 27
0.0
 37
0.0
 40
1439.967377020138
 41
2.1811680572109649
 42
50.0
 43
0.0
 44
0.0
 50
0.0
 51
0.0
 71
     0
 72
  1000
 73
     1
 74
     3
 75
     0
 76
     0
 77
     0
 78
     0
  0
ENDTAB
  0
TABLE
  2
LTYPE
 70
     1
  0
LTYPE
  2
CONTINUOUS
 70
     0
  3
Solid line
 72
    65
 73
     0
 40
0.0
  0
ENDTAB
  0
TABLE
  2
LAYER
 70
     1
  0
LAYER
  2
0
 70
     0
 62
     7
  6
CONTINUOUS
  0
ENDTAB
  0
TABLE
  2
STYLE
 70
     1
  0
STYLE
  2
STANDARD
 70
     0
 40
0.0
 41
1.0
 50
0.0
 71
     0
 42
2.5
  3
txt
  4

  0
ENDTAB
  0
TABLE
  2
VIEW
 70
     0
  0
ENDTAB
  0
TABLE
  2
UCS
 70
     0
  0
ENDTAB
  0
TABLE
  2
APPID
 70
     6
  0
APPID
  2
ACAD
 70
     0
  0
APPID
  2
ACAD_PSEXT
 70
     0
  0
APPID
  2
ACADANNOTATIVE
 70
     0
  0
APPID
  2
ACAD_DSTYLE_DIMJAG
 70
     0
  0
APPID
  2
ACAD_DSTYLE_DIMTALN
 70
     0
  0
APPID
  2
ACAD_NAV_VCDISPLAY
 70
     0
  0
ENDTAB
  0
TABLE
  2
DIMSTYLE
 70
     2
  0
DIMSTYLE
  2
ANNOTATIVA
 70
     0
  3

  4

  5

  6

  7

 40
0.0
 41
2.5
 42
0.625
 43
3.75
 44
1.25
 45
0.0
 46
0.0
 47
0.0
 48
0.0
140
2.5
141
2.5
142
0.0
143
0.03937007874016
144
1.0
145
0.0
146
1.0
147
0.625
 71
     0
 72
     0
 73
     0
 74
     0
 75
     0
 76
     0
 77
     1
 78
     8
170
     0
171
     3
172
     1
173
     0
174
     0
175
     0
176
     0
177
     0
178
     0
  0
DIMSTYLE
  2
ISO-25
 70
     0
  3

  4

  5

  6

  7

 40
1.0
 41
2.5
 42
0.625
 43
3.75
 44
1.25
 45
0.0
 46
0.0
 47
0.0
 48
0.0
140
2.5
141
2.5
142
0.0
143
0.03937007874016
144
1.0
145
0.0
146
1.0
147
0.625
 71
     0
 72
     0
 73
     0
 74
     0
 75
     0
 76
     0
 77
     1
 78
     8
170
     0
171
     3
172
     1
173
     0
174
     0
175
     0
176
     0
177
     0
178
     0
  0
ENDTAB
  0
ENDSEC
  0
SECTION
  2
BLOCKS
  0
BLOCK
  8
0
  2
$MODEL_SPACE
 70
     0
 10
0.0
 20
0.0
 30
0.0
  3
$MODEL_SPACE
  1

  0
ENDBLK
  5
14
  8
0
  0
BLOCK
 67
     1
  8
0
  2
$PAPER_SPACE
 70
     0
 10
0.0
 20
0.0
 30
0.0
  3
$PAPER_SPACE
  1

  0
ENDBLK
  5
1A
 67
     1
  8
0
  0
BLOCK
  8
0
 62
     1
  2
*U0
 70
     1
 10
0.0
 20
0.0
 30
0.0
  3
*U0
  1

  0
ARC
  5
CB
  8
0
 10
4029.1924031543431
 20
199.6980741041902
 30
0.0
 40
2.2316769170409172
 50
169.81310963335019
 51
245.51712393648791
  0
ARC
  5
CC
  8
0
 10
4053.4020193108158
 20
214.6403243267543
 30
0.0
 40
30.14820428821535
 50
185.6495591754869
 51
208.8510831909247
  0
ARC
  5
CD
  8
0
 10
4017.4377392574552
 20
173.82040211578629
 30
0.0
 40
38.318756796563228
 50
81.048224768439326
 51
125.5396843756951
  0
ARC
  5
CE
  8
0
 10
3938.7260817271381
 20
285.89776345589343
 30
0.0
 40
98.638639604916733
 50
286.56232004634052
 51
304.90180598688232
  0
ARC
  5
CF
  8
0
 10
3955.796582617726
 20
234.40337051141711
 30
0.0
 40
44.446541149773537
 50
244.6116886074978
 51
284.3917945031094
  0
ARC
  5
D0
  8
0
 10
3919.4097369953411
 20
155.01366735673261
 30
0.0
 40
42.892658741243878
 50
66.169011666817241
 51
95.635128114031588
  0
ARC
  5
D1
  8
0
 10
3894.5860994065779
 20
151.97329847222881
 30
0.0
 40
50.156685512185867
 50
42.460350494214111
 51
65.735490728716172
  0
ARC
  5
D2
  8
0
 10
3929.1409946702988
 20
182.7032661255283
 30
0.0
 40
3.9734140234340738
 50
302.30121512460232
 51
51.969715909759238
  0
ARC
  5
D3
  8
0
 10
3943.9690201478302
 20
152.55438139001339
 30
0.0
 40
29.650190519859301
 50
115.3716436664246
 51
140.9527347286635
  0
ARC
  5
D4
  8
0
 10
3926.7523984389918
 20
205.19430308322629
 30
0.0
 40
34.454927579250459
 50
260.29120356683211
 51
301.78298595976349
  0
ARC
  5
D5
  8
0
 10
3954.0228269048889
 20
160.31654562444541
 30
0.0
 40
18.062557138790929
 50
77.01614894302331
 51
120.33616599613239
  0
ARC
  5
D6
  8
0
 10
3938.3773200819892
 20
163.19303003456511
 30
0.0
 40
24.597592277817562
 50
23.703479147569869
 51
36.770150315845832
  0
ARC
  5
D7
  8
0
 10
3956.133264624993
 20
162.4601534058564
 30
0.0
 40
11.64172306495359
 50
23.229827112001971
 51
65.83053773594078
  0
ARC
  5
D8
  8
0
 10
4001.0734127762921
 20
218.6256855242236
 30
0.0
 40
61.906270381644141
 50
236.41798687092421
 51
258.7382530819844
  0
ARC
  5
D9
  8
0
 10
4012.0476565056711
 20
163.24570563787421
 30
0.0
 40
23.672835586626292
 50
162.96067320773381
 51
193.0225360750791
  0
ARC
  5
DA
  8
0
 10
4066.6460246696079
 20
265.84327360474668
 30
0.0
 40
122.94621753849
 50
231.08420465688189
 51
246.51208085695049
  0
ARC
  5
DB
  8
0
 10
4037.6753456282481
 20
149.94479051790961
 30
0.0
 40
20.274718304808179
 50
117.463311071532
 51
171.09321561529021
  0
ARC
  5
DC
  8
0
 10
4007.8740502263472
 20
230.266177538579
 30
0.0
 40
65.600754822102061
 50
288.16468375627568
 51
297.86418234876419
  0
ARC
  5
DD
  8
0
 10
4059.1777564381341
 20
66.244656820273576
 30
0.0
 40
108.0175945862666
 50
97.649166221865755
 51
101.017657898903
  0
ARC
  5
DE
  8
0
 10
4050.0383327238128
 20
174.29544930774699
 30
0.0
 40
5.33200656188066
 50
124.0107347709781
 51
190.7480876477747
  0
ARC
  5
DF
  8
0
 10
4074.1982438712139
 20
224.41270780639769
 30
0.0
 40
53.150338970528793
 50
210.21243506018209
 51
239.29143639062119
  0
ENDBLK
  5
E1
  8
0
 62
     1
  0
BLOCK
  8
0
 62
     1
  2
*U1
 70
     1
 10
0.0
 20
0.0
 30
0.0
  3
*U1
  1

  0
ARC
  5
E3
  8
0
 10
3926.745269673565
 20
244.31324466664779
 30
0.0
 40
2.2316769170409172
 50
169.81310963335019
 51
245.51712393648791
  0
ARC
  5
E4
  8
0
 10
3950.9548858300382
 20
259.25549488921177
 30
0.0
 40
30.14820428821535
 50
185.6495591754869
 51
208.8510831909247
  0
ARC
  5
E5
  8
0
 10
3914.9906057766771
 20
218.43557267824389
 30
0.0
 40
38.318756796563228
 50
81.048224768439326
 51
125.5396843756951
  0
ARC
  5
E6
  8
0
 10
3836.2789482463591
 20
330.51293401835102
 30
0.0
 40
98.638639604916733
 50
286.56232004634052
 51
304.90180598688232
  0
ARC
  5
E7
  8
0
 10
3853.3494491369479
 20
279.01854107387481
 30
0.0
 40
44.446541149773537
 50
244.6116886074978
 51
284.3917945031094
  0
ARC
  5
E8
  8
0
 10
3816.9626035145629
 20
199.6288379191902
 30
0.0
 40
42.892658741243878
 50
66.169011666817241
 51
95.635128114031588
  0
ARC
  5
E9
  8
0
 10
3792.1389659258002
 20
196.5884690346864
 30
0.0
 40
50.156685512185867
 50
42.460350494214111
 51
65.735490728716172
  0
ARC
  5
EA
  8
0
 10
3826.6938611895212
 20
227.31843668798589
 30
0.0
 40
3.9734140234340738
 50
302.30121512460232
 51
51.969715909759238
  0
ARC
  5
EB
  8
0
 10
3841.5218866670511
 20
197.16955195247101
 30
0.0
 40
29.650190519859301
 50
115.3716436664246
 51
140.9527347286635
  0
ARC
  5
EC
  8
0
 10
3824.3052649582141
 20
249.80947364568391
 30
0.0
 40
34.454927579250459
 50
260.29120356683211
 51
301.78298595976349
  0
ARC
  5
ED
  8
0
 10
3851.5756934241108
 20
204.931716186903
 30
0.0
 40
18.062557138790929
 50
77.01614894302331
 51
120.33616599613239
  0
ARC
  5
EE
  8
0
 10
3835.9301866012102
 20
207.8082005970227
 30
0.0
 40
24.597592277817562
 50
23.703479147569869
 51
36.770150315845832
  0
ARC
  5
EF
  8
0
 10
3853.6861311442149
 20
207.075323968314
 30
0.0
 40
11.64172306495359
 50
23.229827112001971
 51
65.83053773594078
  0
ARC
  5
F0
  8
0
 10
3898.6262792955131
 20
263.24085608668122
 30
0.0
 40
61.906270381644141
 50
236.41798687092421
 51
258.7382530819844
  0
ARC
  5
F1
  8
0
 10
3909.6005230248929
 20
207.8608762003318
 30
0.0
 40
23.672835586626292
 50
162.96067320773381
 51
193.0225360750791
  0
ARC
  5
F2
  8
0
 10
3964.1988911888288
 20
310.45844416720422
 30
0.0
 40
122.94621753849
 50
231.08420465688189
 51
246.51208085695049
  0
ARC
  5
F3
  8
0
 10
3935.22821214747
 20
194.5599610803672
 30
0.0
 40
20.274718304808179
 50
117.463311071532
 51
171.09321561529021
  0
ARC
  5
F4
  8
0
 10
3905.42691674557
 20
274.88134810103651
 30
0.0
 40
65.600754822102061
 50
288.16468375627568
 51
297.86418234876419
  0
ARC
  5
F5
  8
0
 10
3956.7306229573551
 20
110.8598273827311
 30
0.0
 40
108.0175945862666
 50
97.649166221865755
 51
101.017657898903
  0
ARC
  5
F6
  8
0
 10
3947.5911992430351
 20
218.91061987020461
 30
0.0
 40
5.33200656188066
 50
124.0107347709781
 51
190.7480876477747
  0
ARC
  5
F7
  8
0
 10
3971.7511103904362
 20
269.02787836885523
 30
0.0
 40
53.150338970528793
 50
210.21243506018209
 51
239.29143639062119
  0
ENDBLK
  5
F9
  8
0
 62
     1
  0
BLOCK
  8
0
 62
     1
  2
*U2
 70
     1
 10
0.0
 20
0.0
 30
0.0
  3
*U2
  1

  0
ARC
  5
FB
  8
0
 10
4481.8453718711644
 20
556.61943860384713
 30
0.0
 40
2.2316769170409172
 50
169.81310963335019
 51
245.51712393648791
  0
ARC
  5
FC
  8
0
 10
4506.0549880276367
 20
571.56168882641123
 30
0.0
 40
30.14820428821535
 50
185.6495591754869
 51
208.8510831909247
  0
ARC
  5
FD
  8
0
 10
4470.0907079742747
 20
530.74176661544323
 30
0.0
 40
38.318756796563228
 50
81.048224768439326
 51
125.5396843756951
  0
ARC
  5
FE
  8
0
 10
4391.3790504439576
 20
642.81912795555036
 30
0.0
 40
98.638639604916733
 50
286.56232004634052
 51
304.90180598688232
  0
ARC
  5
FF
  8
0
 10
4408.4495513345464
 20
591.32473501107404
 30
0.0
 40
44.446541149773537
 50
244.6116886074978
 51
284.3917945031094
  0
ARC
  5
100
  8
0
 10
4372.0627057121619
 20
511.93503185638951
 30
0.0
 40
42.892658741243878
 50
66.169011666817241
 51
95.635128114031588
  0
ARC
  5
101
  8
0
 10
4347.2390681233992
 20
508.89466297188568
 30
0.0
 40
50.156685512185867
 50
42.460350494214111
 51
65.735490728716172
  0
ARC
  5
102
  8
0
 10
4381.7939633871192
 20
539.62463062518509
 30
0.0
 40
3.9734140234340738
 50
302.30121512460232
 51
51.969715909759238
  0
ARC
  5
103
  8
0
 10
4396.6219888646501
 20
509.47574588967029
 30
0.0
 40
29.650190519859301
 50
115.3716436664246
 51
140.9527347286635
  0
ARC
  5
104
  8
0
 10
4379.4053671558131
 20
562.11566758288313
 30
0.0
 40
34.454927579250459
 50
260.29120356683211
 51
301.78298595976349
  0
ARC
  5
105
  8
0
 10
4406.6757956217089
 20
517.2379101241022
 30
0.0
 40
18.062557138790929
 50
77.01614894302331
 51
120.33616599613239
  0
ARC
  5
106
  8
0
 10
4391.0302887988091
 20
520.11439453422201
 30
0.0
 40
24.597592277817562
 50
23.703479147569869
 51
36.770150315845832
  0
ARC
  5
107
  8
0
 10
4408.7862333418134
 20
519.38151790551331
 30
0.0
 40
11.64172306495359
 50
23.229827112001971
 51
65.83053773594078
  0
ARC
  5
108
  8
0
 10
4453.7263814931121
 20
575.54705002388039
 30
0.0
 40
61.906270381644141
 50
236.41798687092421
 51
258.7382530819844
  0
ARC
  5
109
  8
0
 10
4464.700625222491
 20
520.16707013753114
 30
0.0
 40
23.672835586626292
 50
162.96067320773381
 51
193.0225360750791
  0
ARC
  5
10A
  8
0
 10
4519.2989933864283
 20
622.7646381044035
 30
0.0
 40
122.94621753849
 50
231.08420465688189
 51
246.51208085695049
  0
ARC
  5
10B
  8
0
 10
4490.328314345069
 20
506.86615501756648
 30
0.0
 40
20.274718304808179
 50
117.463311071532
 51
171.09321561529021
  0
ARC
  5
10C
  8
0
 10
4460.5270189431676
 20
587.18754203823585
 30
0.0
 40
65.600754822102061
 50
288.16468375627568
 51
297.86418234876419
  0
ARC
  5
10D
  8
0
 10
4511.8307251549531
 20
423.16602131993039
 30
0.0
 40
108.0175945862666
 50
97.649166221865755
 51
101.017657898903
  0
ARC
  5
10E
  8
0
 10
4502.6913014406327
 20
531.21681380740392
 30
0.0
 40
5.33200656188066
 50
124.0107347709781
 51
190.7480876477747
  0
ARC
  5
10F
  8
0
 10
4526.8512125880343
 20
581.33407230605462
 30
0.0
 40
53.150338970528793
 50
210.21243506018209
 51
239.29143639062119
  0
ENDBLK
  5
111
  8
0
 62
     1
  0
BLOCK
  8
0
 62
     1
  2
*U3
 70
     1
 10
0.0
 20
0.0
 30
0.0
  3
*U3
  1

  0
ARC
  5
113
  8
0
 10
4493.4774222795932
 20
475.49922397176351
 30
0.0
 40
24.59759227781754
 50
23.703479147570189
 51
36.770150315846273
  0
ARC
  5
114
  8
0
 10
4509.122929102492
 20
472.62273956164358
 30
0.0
 40
18.06255713879106
 50
77.016148943021946
 51
120.33616599613271
  0
ARC
  5
115
  8
0
 10
4481.8525006365971
 20
517.50049702042452
 30
0.0
 40
34.454927579250338
 50
260.29120356683359
 51
301.78298595976332
  0
ARC
  5
116
  8
0
 10
4499.0691223454323
 20
464.86057532721202
 30
0.0
 40
29.650190519859009
 50
115.37164366642391
 51
140.9527347286629
  0
ARC
  5
117
  8
0
 10
4484.2410968679014
 20
495.00946006272659
 30
0.0
 40
3.9734140234340938
 50
302.30121512460869
 51
51.969715909711603
  0
ARC
  5
118
  8
0
 10
4449.6862016041823
 20
464.27949240942678
 30
0.0
 40
50.156685512186172
 50
42.460350494211049
 51
65.735490728719356
  0
ARC
  5
119
  8
0
 10
4519.298993386431
 20
622.76463810440191
 30
0.0
 40
122.9462175384904
 50
231.08420465688201
 51
246.51208085694941
  0
ARC
  5
11A
  8
0
 10
4464.7006252224955
 20
520.16707013752909
 30
0.0
 40
23.672835586626231
 50
162.960673207734
 51
193.02253607507879
  0
ARC
  5
11B
  8
0
 10
4453.7263814931148
 20
575.54705002387846
 30
0.0
 40
61.906270381644077
 50
236.40368298627101
 51
258.7382530819844
  0
ARC
  5
11C
  8
0
 10
4449.4733669380394
 20
526.94651826395102
 30
0.0
 40
30.148204288214789
 50
185.64348020259291
 51
208.851083190922
  0
ARC
  5
11D
  8
0
 10
4425.2637507815652
 20
512.0042680413884
 30
0.0
 40
2.2316769170409052
 50
169.8131096333459
 51
245.51712393648839
  0
ARC
  5
11E
  8
0
 10
4470.2695914984351
 20
536.71890174359589
 30
0.0
 40
53.150338970528701
 50
210.21243506018291
 51
239.29143639062201
  0
ARC
  5
11F
  8
0
 10
4446.1096803510354
 20
486.60164324494491
 30
0.0
 40
5.332006561880835
 50
124.0107347709757
 51
190.7480876477693
  0
ARC
  5
120
  8
0
 10
4455.249104065354
 20
378.550850757474
 30
0.0
 40
108.01759458626449
 50
97.649166221865912
 51
101.0176578989028
  0
ARC
  5
121
  8
0
 10
4403.9453978535694
 20
542.57237147577655
 30
0.0
 40
65.600754822101436
 50
288.1646837562779
 51
297.86418234876493
  0
ARC
  5
122
  8
0
 10
4433.7466932554698
 20
462.2509844551077
 30
0.0
 40
20.274718304808282
 50
117.46331107152641
 51
171.09321561529001
  0
ARC
  5
123
  8
0
 10
4417.9282181033414
 20
422.7046907314749
 30
0.0
 40
42.89265874124338
 50
66.169011666833498
 51
95.635128114031048
  0
ARC
  5
124
  8
0
 10
4454.3150637257258
 20
502.09439388615908
 30
0.0
 40
44.446541149773743
 50
244.61168860748191
 51
284.39179450311542
  0
ARC
  5
125
  8
0
 10
4437.2445628351379
 20
553.58878683063529
 30
0.0
 40
98.638639604917046
 50
286.56232004634347
 51
304.90180598688619
  0
ARC
  5
126
  8
0
 10
4515.9562203654559
 20
441.51142549052793
 30
0.0
 40
38.318756796563378
 50
81.031574444311488
 51
125.5396843756853
  0
ARC
  5
127
  8
0
 10
4511.2333668225974
 20
474.76634734305452
 30
0.0
 40
11.64172306495372
 50
23.249284493958839
 51
65.830537735939117
  0
ENDBLK
  5
129
  8
0
 62
     1
  0
BLOCK
  8
0
 62
     1
  2
*U4
 70
     1
 10
0.0
 20
0.0
 30
0.0
  3
*U4
  1

  0
ARC
  5
12B
  8
0
 10
4425.2637507815634
 20
512.00426804138965
 30
0.0
 40
2.2316769170409172
 50
169.81310963335019
 51
245.51712393648791
  0
ARC
  5
12C
  8
0
 10
4449.4733669380348
 20
526.94651826395375
 30
0.0
 40
30.14820428821535
 50
185.6495591754869
 51
208.8510831909247
  0
ARC
  5
12D
  8
0
 10
4413.5090868846737
 20
486.1265960529858
 30
0.0
 40
38.318756796563228
 50
81.048224768439326
 51
125.5396843756951
  0
ARC
  5
12E
  8
0
 10
4334.7974293543548
 20
598.20395739309276
 30
0.0
 40
98.638639604916733
 50
286.56232004634052
 51
304.90180598688232
  0
ARC
  5
12F
  8
0
 10
4351.8679302449427
 20
546.70956444861667
 30
0.0
 40
44.446541149773537
 50
244.6116886074978
 51
284.3917945031094
  0
ARC
  5
130
  8
0
 10
4315.4810846225591
 20
467.31986129393209
 30
0.0
 40
42.892658741243878
 50
66.169011666817241
 51
95.635128114031588
  0
ARC
  5
131
  8
0
 10
4290.6574470337973
 20
464.27949240942843
 30
0.0
 40
50.156685512185867
 50
42.460350494214111
 51
65.735490728716172
  0
ARC
  5
132
  8
0
 10
4325.2123422975174
 20
495.00946006272778
 30
0.0
 40
3.9734140234340738
 50
302.30121512460232
 51
51.969715909759238
  0
ARC
  5
133
  8
0
 10
4340.0403677750483
 20
464.86057532721281
 30
0.0
 40
29.650190519859301
 50
115.3716436664246
 51
140.9527347286635
  0
ARC
  5
134
  8
0
 10
4322.8237460662122
 20
517.50049702042577
 30
0.0
 40
34.454927579250459
 50
260.29120356683211
 51
301.78298595976349
  0
ARC
  5
135
  8
0
 10
4350.0941745321079
 20
472.62273956164478
 30
0.0
 40
18.062557138790929
 50
77.01614894302331
 51
120.33616599613239
  0
ARC
  5
136
  8
0
 10
4334.4486677092073
 20
475.49922397176459
 30
0.0
 40
24.597592277817562
 50
23.703479147569869
 51
36.770150315845832
  0
ARC
  5
137
  8
0
 10
4352.2046122522106
 20
474.76634734305588
 30
0.0
 40
11.64172306495359
 50
23.229827112001971
 51
65.83053773594078
  0
ARC
  5
138
  8
0
 10
4397.1447604035102
 20
530.93187946142314
 30
0.0
 40
61.906270381644141
 50
236.41798687092421
 51
258.7382530819844
  0
ARC
  5
139
  8
0
 10
4408.11900413289
 20
475.55189957507378
 30
0.0
 40
23.672835586626292
 50
162.96067320773381
 51
193.0225360750791
  0
ARC
  5
13A
  8
0
 10
4462.7173722968264
 20
578.14946754194625
 30
0.0
 40
122.94621753849
 50
231.08420465688189
 51
246.51208085695049
  0
ARC
  5
13B
  8
0
 10
4433.7466932554671
 20
462.25098445510918
 30
0.0
 40
20.274718304808179
 50
117.463311071532
 51
171.09321561529021
  0
ARC
  5
13C
  8
0
 10
4403.9453978535657
 20
542.57237147577848
 30
0.0
 40
65.600754822102061
 50
288.16468375627568
 51
297.86418234876419
  0
ARC
  5
13D
  8
0
 10
4455.2491040653522
 20
378.55085075747309
 30
0.0
 40
108.0175945862666
 50
97.649166221865755
 51
101.017657898903
  0
ARC
  5
13E
  8
0
 10
4446.1096803510309
 20
486.6016432449465
 30
0.0
 40
5.33200656188066
 50
124.0107347709781
 51
190.7480876477747
  0
ARC
  5
13F
  8
0
 10
4470.2695914984324
 20
536.71890174359714
 30
0.0
 40
53.150338970528793
 50
210.21243506018209
 51
239.29143639062119
  0
ENDBLK
  5
141
  8
0
 62
     1
  0
BLOCK
  8
0
 62
     1
  2
*U5
 70
     1
 10
0.0
 20
0.0
 30
0.0
  3
*U5
  1

  0
ARC
  5
143
  8
0
 10
4391.0302887988091
 20
520.11439453422224
 30
0.0
 40
24.59759227781754
 50
23.703479147570189
 51
36.770150315846273
  0
ARC
  5
144
  8
0
 10
4406.6757956217079
 20
517.2379101241022
 30
0.0
 40
18.06255713879106
 50
77.016148943021946
 51
120.33616599613271
  0
ARC
  5
145
  8
0
 10
4379.4053671558122
 20
562.11566758288325
 30
0.0
 40
34.454927579250338
 50
260.29120356683359
 51
301.78298595976332
  0
ARC
  5
146
  8
0
 10
4396.6219888646492
 20
509.47574588967069
 30
0.0
 40
29.650190519859009
 50
115.37164366642391
 51
140.9527347286629
  0
ARC
  5
147
  8
0
 10
4381.7939633871183
 20
539.6246306251852
 30
0.0
 40
3.9734140234340938
 50
302.30121512460869
 51
51.969715909711603
  0
ARC
  5
148
  8
0
 10
4347.2390681233983
 20
508.8946629718854
 30
0.0
 40
50.156685512186172
 50
42.460350494211049
 51
65.735490728719356
  0
ARC
  5
149
  8
0
 10
4416.8518599056488
 20
667.37980866686064
 30
0.0
 40
122.9462175384904
 50
231.08420465688201
 51
246.51208085694941
  0
ARC
  5
14A
  8
0
 10
4362.2534917417133
 20
564.78224069998771
 30
0.0
 40
23.672835586626231
 50
162.960673207734
 51
193.02253607507879
  0
ARC
  5
14B
  8
0
 10
4351.2792480123317
 20
620.16222058633718
 30
0.0
 40
61.906270381644077
 50
236.40368298627101
 51
258.7382530819844
  0
ARC
  5
14C
  8
0
 10
4347.0262334572544
 20
571.56168882640975
 30
0.0
 40
30.148204288214789
 50
185.64348020259291
 51
208.851083190922
  0
ARC
  5
14D
  8
0
 10
4322.8166173007821
 20
556.61943860384713
 30
0.0
 40
2.2316769170409052
 50
169.8131096333459
 51
245.51712393648839
  0
ARC
  5
14E
  8
0
 10
4367.8224580176511
 20
581.33407230605474
 30
0.0
 40
53.150338970528701
 50
210.21243506018291
 51
239.29143639062201
  0
ARC
  5
14F
  8
0
 10
4343.6625468702514
 20
531.2168138074037
 30
0.0
 40
5.332006561880835
 50
124.0107347709757
 51
190.7480876477693
  0
ARC
  5
150
  8
0
 10
4352.8019705845709
 20
423.16602131993272
 30
0.0
 40
108.01759458626449
 50
97.649166221865912
 51
101.0176578989028
  0
ARC
  5
151
  8
0
 10
4301.4982643727853
 20
587.18754203823528
 30
0.0
 40
65.600754822101436
 50
288.1646837562779
 51
297.86418234876493
  0
ARC
  5
152
  8
0
 10
4331.2995597746867
 20
506.86615501756643
 30
0.0
 40
20.274718304808282
 50
117.46331107152641
 51
171.09321561529001
  0
ARC
  5
153
  8
0
 10
4315.4810846225573
 20
467.31986129393363
 30
0.0
 40
42.89265874124338
 50
66.169011666833498
 51
95.635128114031048
  0
ARC
  5
154
  8
0
 10
4351.8679302449418
 20
546.7095644486177
 30
0.0
 40
44.446541149773743
 50
244.61168860748191
 51
284.39179450311542
  0
ARC
  5
155
  8
0
 10
4334.797429354353
 20
598.20395739309413
 30
0.0
 40
98.638639604917046
 50
286.56232004634347
 51
304.90180598688619
  0
ARC
  5
156
  8
0
 10
4413.5090868846728
 20
486.1265960529866
 30
0.0
 40
38.318756796563378
 50
81.031574444311488
 51
125.5396843756853
  0
ARC
  5
157
  8
0
 10
4408.7862333418116
 20
519.38151790551331
 30
0.0
 40
11.64172306495372
 50
23.249284493958839
 51
65.830537735939117
  0
ENDBLK
  5
159
  8
0
 62
     1
  0
BLOCK
  8
0
 62
     1
  2
*U6
 70
     1
 10
0.0
 20
0.0
 30
0.0
  3
*U6
  1

  0
ARC
  5
15B
  8
0
 10
4322.8166173007839
 20
556.61943860384679
 30
0.0
 40
2.2316769170409172
 50
169.81310963335019
 51
245.51712393648791
  0
ARC
  5
15C
  8
0
 10
4347.0262334572553
 20
571.56168882641066
 30
0.0
 40
30.14820428821535
 50
185.6495591754869
 51
208.8510831909247
  0
ARC
  5
15D
  8
0
 10
4311.0619534038951
 20
530.74176661544277
 30
0.0
 40
38.318756796563228
 50
81.048224768439326
 51
125.5396843756951
  0
ARC
  5
15E
  8
0
 10
4232.3502958735771
 20
642.81912795554979
 30
0.0
 40
98.638639604916733
 50
286.56232004634052
 51
304.90180598688232
  0
ARC
  5
15F
  8
0
 10
4249.4207967641651
 20
591.32473501107359
 30
0.0
 40
44.446541149773537
 50
244.6116886074978
 51
284.3917945031094
  0
ARC
  5
160
  8
0
 10
4213.0339511417797
 20
511.93503185638912
 30
0.0
 40
42.892658741243878
 50
66.169011666817241
 51
95.635128114031588
  0
ARC
  5
161
  8
0
 10
4188.2103135530169
 20
508.89466297188528
 30
0.0
 40
50.156685512185867
 50
42.460350494214111
 51
65.735490728716172
  0
ARC
  5
162
  8
0
 10
4222.7652088167379
 20
539.62463062518475
 30
0.0
 40
3.9734140234340738
 50
302.30121512460232
 51
51.969715909759238
  0
ARC
  5
163
  8
0
 10
4237.5932342942688
 20
509.47574588966989
 30
0.0
 40
29.650190519859301
 50
115.3716436664246
 51
140.9527347286635
  0
ARC
  5
164
  8
0
 10
4220.3766125854318
 20
562.11566758288291
 30
0.0
 40
34.454927579250459
 50
260.29120356683211
 51
301.78298595976349
  0
ARC
  5
165
  8
0
 10
4247.6470410513293
 20
517.23791012410186
 30
0.0
 40
18.062557138790929
 50
77.01614894302331
 51
120.33616599613239
  0
ARC
  5
166
  8
0
 10
4232.0015342284278
 20
520.11439453422167
 30
0.0
 40
24.597592277817562
 50
23.703479147569869
 51
36.770150315845832
  0
ARC
  5
167
  8
0
 10
4249.757478771432
 20
519.38151790551285
 30
0.0
 40
11.64172306495359
 50
23.229827112001971
 51
65.83053773594078
  0
ARC
  5
168
  8
0
 10
4294.6976269227307
 20
575.54705002388005
 30
0.0
 40
61.906270381644141
 50
236.41798687092421
 51
258.7382530819844
  0
ARC
  5
169
  8
0
 10
4305.6718706521106
 20
520.1670701375308
 30
0.0
 40
23.672835586626292
 50
162.96067320773381
 51
193.0225360750791
  0
ARC
  5
16A
  8
0
 10
4360.2702388160478
 20
622.76463810440316
 30
0.0
 40
122.94621753849
 50
231.08420465688189
 51
246.51208085695049
  0
ARC
  5
16B
  8
0
 10
4331.2995597746876
 20
506.8661550175662
 30
0.0
 40
20.274718304808179
 50
117.463311071532
 51
171.09321561529021
  0
ARC
  5
16C
  8
0
 10
4301.4982643727872
 20
587.18754203823539
 30
0.0
 40
65.600754822102061
 50
288.16468375627568
 51
297.86418234876419
  0
ARC
  5
16D
  8
0
 10
4352.8019705845727
 20
423.16602131993011
 30
0.0
 40
108.0175945862666
 50
97.649166221865755
 51
101.017657898903
  0
ARC
  5
16E
  8
0
 10
4343.6625468702532
 20
531.21681380740347
 30
0.0
 40
5.33200656188066
 50
124.0107347709781
 51
190.7480876477747
  0
ARC
  5
16F
  8
0
 10
4367.8224580176538
 20
581.33407230605405
 30
0.0
 40
53.150338970528793
 50
210.21243506018209
 51
239.29143639062119
  0
ENDBLK
  5
171
  8
0
 62
     1
  0
BLOCK
  8
0
 62
     1
  2
*U7
 70
     1
 10
0.0
 20
0.0
 30
0.0
  3
*U7
  1

  0
ARC
  5
173
  8
0
 10
4232.0015342284278
 20
520.11439453422179
 30
0.0
 40
24.59759227781754
 50
23.703479147570189
 51
36.770150315846273
  0
ARC
  5
174
  8
0
 10
4247.6470410513293
 20
517.23791012410186
 30
0.0
 40
18.06255713879106
 50
77.016148943021946
 51
120.33616599613271
  0
ARC
  5
175
  8
0
 10
4220.3766125854318
 20
562.11566758288291
 30
0.0
 40
34.454927579250338
 50
260.29120356683359
 51
301.78298595976332
  0
ARC
  5
176
  8
0
 10
4237.5932342942679
 20
509.47574588967041
 30
0.0
 40
29.650190519859009
 50
115.37164366642391
 51
140.9527347286629
  0
ARC
  5
177
  8
0
 10
4222.7652088167379
 20
539.62463062518498
 30
0.0
 40
3.9734140234340938
 50
302.30121512460869
 51
51.969715909711603
  0
ARC
  5
178
  8
0
 10
4188.2103135530169
 20
508.89466297188523
 30
0.0
 40
50.156685512186172
 50
42.460350494211049
 51
65.735490728719356
  0
ARC
  5
179
  8
0
 10
4257.8231053352683
 20
667.3798086668603
 30
0.0
 40
122.9462175384904
 50
231.08420465688201
 51
246.51208085694941
  0
ARC
  5
17A
  8
0
 10
4203.2247371713311
 20
564.78224069998748
 30
0.0
 40
23.672835586626231
 50
162.960673207734
 51
193.02253607507879
  0
ARC
  5
17B
  8
0
 10
4192.2504934419521
 20
620.16222058633684
 30
0.0
 40
61.906270381644077
 50
236.40368298627101
 51
258.7382530819844
  0
ARC
  5
17C
  8
0
 10
4187.997478886874
 20
571.56168882640941
 30
0.0
 40
30.148204288214789
 50
185.64348020259291
 51
208.851083190922
  0
ARC
  5
17D
  8
0
 10
4163.7878627304008
 20
556.61943860384679
 30
0.0
 40
2.2316769170409052
 50
169.8131096333459
 51
245.51712393648839
  0
ARC
  5
17E
  8
0
 10
4208.7937034472707
 20
581.3340723060544
 30
0.0
 40
53.150338970528701
 50
210.21243506018291
 51
239.29143639062201
  0
ARC
  5
17F
  8
0
 10
4184.63379229987
 20
531.21681380740335
 30
0.0
 40
5.332006561880835
 50
124.0107347709757
 51
190.7480876477693
  0
ARC
  5
180
  8
0
 10
4193.7732160141904
 20
423.16602131993233
 30
0.0
 40
108.01759458626449
 50
97.649166221865912
 51
101.0176578989028
  0
ARC
  5
181
  8
0
 10
4142.4695098024049
 20
587.18754203823494
 30
0.0
 40
65.600754822101436
 50
288.1646837562779
 51
297.86418234876493
  0
ARC
  5
182
  8
0
 10
4172.2708052043063
 20
506.86615501756609
 30
0.0
 40
20.274718304808282
 50
117.46331107152641
 51
171.09321561529001
  0
ARC
  5
183
  8
0
 10
4156.4523300521778
 20
467.31986129393329
 30
0.0
 40
42.89265874124338
 50
66.169011666833498
 51
95.635128114031048
  0
ARC
  5
184
  8
0
 10
4192.8391756745632
 20
546.70956444861747
 30
0.0
 40
44.446541149773743
 50
244.61168860748191
 51
284.39179450311542
  0
ARC
  5
185
  8
0
 10
4175.7686747839734
 20
598.20395739309367
 30
0.0
 40
98.638639604917046
 50
286.56232004634347
 51
304.90180598688619
  0
ARC
  5
186
  8
0
 10
4254.4803323142924
 20
486.12659605298632
 30
0.0
 40
38.318756796563378
 50
81.031574444311488
 51
125.5396843756853
  0
ARC
  5
187
  8
0
 10
4249.757478771432
 20
519.38151790551285
 30
0.0
 40
11.64172306495372
 50
23.249284493958839
 51
65.830537735939117
  0
ENDBLK
  5
189
  8
0
 62
     1
  0
BLOCK
  8
0
 62
     1
  2
*U8
 70
     1
 10
0.0
 20
0.0
 30
0.0
  3
*U8
  1

  0
ARC
  5
18B
  8
0
 10
4163.7878627304008
 20
556.61943860384599
 30
0.0
 40
2.2316769170409172
 50
169.81310963335019
 51
245.51712393648791
  0
ARC
  5
18C
  8
0
 10
4187.997478886874
 20
571.56168882641009
 30
0.0
 40
30.14820428821535
 50
185.6495591754869
 51
208.8510831909247
  0
ARC
  5
18D
  8
0
 10
4152.0331988335129
 20
530.7417666154422
 30
0.0
 40
38.318756796563228
 50
81.048224768439326
 51
125.5396843756951
  0
ARC
  5
18E
  8
0
 10
4073.3215413031949
 20
642.81912795554922
 30
0.0
 40
98.638639604916733
 50
286.56232004634052
 51
304.90180598688232
  0
ARC
  5
18F
  8
0
 10
4090.3920421937828
 20
591.3247350110729
 30
0.0
 40
44.446541149773537
 50
244.6116886074978
 51
284.3917945031094
  0
ARC
  5
190
  8
0
 10
4054.0051965713978
 20
511.93503185638838
 30
0.0
 40
42.892658741243878
 50
66.169011666817241
 51
95.635128114031588
  0
ARC
  5
191
  8
0
 10
4029.181558982636
 20
508.8946629718846
 30
0.0
 40
50.156685512185867
 50
42.460350494214111
 51
65.735490728716172
  0
ARC
  5
192
  8
0
 10
4063.7364542463561
 20
539.62463062518418
 30
0.0
 40
3.9734140234340738
 50
302.30121512460232
 51
51.969715909759238
  0
ARC
  5
193
  8
0
 10
4078.564479723887
 20
509.47574588966921
 30
0.0
 40
29.650190519859301
 50
115.3716436664246
 51
140.9527347286635
  0
ARC
  5
194
  8
0
 10
4061.34785801505
 20
562.11566758288211
 30
0.0
 40
34.454927579250459
 50
260.29120356683211
 51
301.78298595976349
  0
ARC
  5
195
  8
0
 10
4088.6182864809462
 20
517.23791012410118
 30
0.0
 40
18.062557138790929
 50
77.01614894302331
 51
120.33616599613239
  0
ARC
  5
196
  8
0
 10
4072.972779658046
 20
520.11439453422088
 30
0.0
 40
24.597592277817562
 50
23.703479147569869
 51
36.770150315845832
  0
ARC
  5
197
  8
0
 10
4090.7287242010502
 20
519.38151790551217
 30
0.0
 40
11.64172306495359
 50
23.229827112001971
 51
65.83053773594078
  0
ARC
  5
198
  8
0
 10
4135.6688723523503
 20
575.54705002387925
 30
0.0
 40
61.906270381644141
 50
236.41798687092421
 51
258.7382530819844
  0
ARC
  5
199
  8
0
 10
4146.6431160817292
 20
520.16707013753
 30
0.0
 40
23.672835586626292
 50
162.96067320773381
 51
193.0225360750791
  0
ARC
  5
19A
  8
0
 10
4201.2414842456656
 20
622.76463810440237
 30
0.0
 40
122.94621753849
 50
231.08420465688189
 51
246.51208085695049
  0
ARC
  5
19B
  8
0
 10
4172.2708052043063
 20
506.8661550175654
 30
0.0
 40
20.274718304808179
 50
117.463311071532
 51
171.09321561529021
  0
ARC
  5
19C
  8
0
 10
4142.4695098024049
 20
587.18754203823482
 30
0.0
 40
65.600754822102061
 50
288.16468375627568
 51
297.86418234876419
  0
ARC
  5
19D
  8
0
 10
4193.7732160141913
 20
423.16602131992931
 30
0.0
 40
108.0175945862666
 50
97.649166221865755
 51
101.017657898903
  0
ARC
  5
19E
  8
0
 10
4184.63379229987
 20
531.21681380740267
 30
0.0
 40
5.33200656188066
 50
124.0107347709781
 51
190.7480876477747
  0
ARC
  5
19F
  8
0
 10
4208.7937034472707
 20
581.33407230605349
 30
0.0
 40
53.150338970528793
 50
210.21243506018209
 51
239.29143639062119
  0
ENDBLK
  5
1A1
  8
0
 62
     1
  0
BLOCK
  8
0
 62
     1
  2
*U9
 70
     1
 10
0.0
 20
0.0
 30
0.0
  3
*U9
  1

  0
ARC
  5
1A3
  8
0
 10
4097.4060746523701
 20
163.19303003456531
 30
0.0
 40
24.59759227781754
 50
23.703479147569759
 51
36.770150315845747
  0
ARC
  5
1A4
  8
0
 10
4113.0515814752707
 20
160.3165456244453
 30
0.0
 40
18.06255713879106
 50
77.016148943021989
 51
120.33616599613271
  0
ARC
  5
1A5
  8
0
 10
4085.7811530093741
 20
205.19430308322629
 30
0.0
 40
34.454927579250338
 50
260.29120356683211
 51
301.7829859597627
  0
ARC
  5
1A6
  8
0
 10
4102.9977747182102
 20
152.55438139001379
 30
0.0
 40
29.650190519859009
 50
115.37164366642401
 51
140.95273472866339
  0
ARC
  5
1A7
  8
0
 10
4088.1697492406788
 20
182.70326612552839
 30
0.0
 40
3.9734140234340938
 50
302.30121512460852
 51
51.969715909711603
  0
ARC
  5
1A8
  8
0
 10
4053.6148539769601
 20
151.97329847222861
 30
0.0
 40
50.156685512186172
 50
42.460350494211028
 51
65.735490728719824
  0
ARC
  5
1A9
  8
0
 10
4123.2276457592097
 20
310.45844416720371
 30
0.0
 40
122.9462175384904
 50
231.08420465688201
 51
246.51208085694921
  0
ARC
  5
1AA
  8
0
 10
4068.6292775952729
 20
207.86087620033089
 30
0.0
 40
23.672835586626231
 50
162.96067320773369
 51
193.02253607507899
  0
ARC
  5
1AB
  8
0
 10
4057.655033865894
 20
263.24085608668031
 30
0.0
 40
61.906270381644077
 50
236.4036829862707
 51
258.7382530819844
  0
ARC
  5
1AC
  8
0
 10
4053.4020193108172
 20
214.64032432675279
 30
0.0
 40
30.148204288214789
 50
185.64348020259271
 51
208.8510831909216
  0
ARC
  5
1AD
  8
0
 10
4029.1924031543431
 20
199.6980741041902
 30
0.0
 40
2.2316769170409052
 50
169.8131096333459
 51
245.51712393648839
  0
ARC
  5
1AE
  8
0
 10
4074.1982438712121
 20
224.4127078063978
 30
0.0
 40
53.150338970528701
 50
210.21243506018291
 51
239.2914363906221
  0
ARC
  5
1AF
  8
0
 10
4050.0383327238119
 20
174.29544930774671
 30
0.0
 40
5.332006561880835
 50
124.0107347709716
 51
190.74808764777109
  0
ARC
  5
1B0
  8
0
 10
4059.1777564381332
 20
66.244656820275821
 30
0.0
 40
108.01759458626449
 50
97.649166221865684
 51
101.0176578989028
  0
ARC
  5
1B1
  8
0
 10
4007.8740502263472
 20
230.2661775385784
 30
0.0
 40
65.600754822101436
 50
288.16468375627801
 51
297.86418234876493
  0
ARC
  5
1B2
  8
0
 10
4037.675345628249
 20
149.9447905179095
 30
0.0
 40
20.274718304808282
 50
117.4633110715276
 51
171.09321561529021
  0
ARC
  5
1B3
  8
0
 10
4021.8568704761201
 20
110.3984967942766
 30
0.0
 40
42.89265874124338
 50
66.16901166683293
 51
95.635128114031048
  0
ARC
  5
1B4
  8
0
 10
4058.2437160985041
 20
189.78819994896091
 30
0.0
 40
44.446541149773743
 50
244.61168860748251
 51
284.39179450311542
  0
ARC
  5
1B5
  8
0
 10
4041.1732152079162
 20
241.2825928934372
 30
0.0
 40
98.638639604917046
 50
286.56232004634347
 51
304.90180598688602
  0
ARC
  5
1B6
  8
0
 10
4119.8848727382347
 20
129.2052315533297
 30
0.0
 40
38.318756796563378
 50
81.031574444311474
 51
125.53968437568589
  0
ARC
  5
1B7
  8
0
 10
4115.1620191953753
 20
162.46015340585629
 30
0.0
 40
11.64172306495372
 50
23.249284493959721
 51
65.830537735941164
  0
ENDBLK
  5
1B9
  8
0
 62
     1
  0
BLOCK
  8
0
 62
     1
  2
*U10
 70
     1
 10
0.0
 20
0.0
 30
0.0
  3
*U10
  1

  0
ARC
  5
1BB
  8
0
 10
4097.4060746523701
 20
163.19303003456531
 30
0.0
 40
24.59759227781754
 50
23.703479147569759
 51
36.770150315845747
  0
ARC
  5
1BC
  8
0
 10
4113.0515814752707
 20
160.31654562444541
 30
0.0
 40
18.06255713879106
 50
77.016148943021989
 51
120.33616599613271
  0
ARC
  5
1BD
  8
0
 10
4085.7811530093741
 20
205.19430308322629
 30
0.0
 40
34.454927579250338
 50
260.29120356683211
 51
301.7829859597627
  0
ARC
  5
1BE
  8
0
 10
4102.9977747182102
 20
152.55438139001379
 30
0.0
 40
29.650190519859009
 50
115.37164366642401
 51
140.95273472866339
  0
ARC
  5
1BF
  8
0
 10
4088.1697492406788
 20
182.70326612552839
 30
0.0
 40
3.9734140234340938
 50
302.30121512460818
 51
51.969715909711518
  0
ARC
  5
1C0
  8
0
 10
4053.6148539769601
 20
151.97329847222861
 30
0.0
 40
50.156685512186172
 50
42.460350494211049
 51
65.735490728719824
  0
ARC
  5
1C1
  8
0
 10
4123.2276457592097
 20
310.45844416720371
 30
0.0
 40
122.9462175384904
 50
231.08420465688201
 51
246.51208085694921
  0
ARC
  5
1C2
  8
0
 10
4068.6292775952729
 20
207.86087620033089
 30
0.0
 40
23.672835586626231
 50
162.96067320773381
 51
193.02253607507899
  0
ARC
  5
1C3
  8
0
 10
4057.655033865894
 20
263.24085608668031
 30
0.0
 40
61.906270381644077
 50
236.4036829862707
 51
258.7382530819844
  0
ARC
  5
1C4
  8
0
 10
4053.4020193108172
 20
214.6403243267529
 30
0.0
 40
30.148204288214789
 50
185.6434802025928
 51
208.85108319092171
  0
ARC
  5
1C5
  8
0
 10
4029.1924031543431
 20
199.6980741041902
 30
0.0
 40
2.2316769170409052
 50
169.8131096333473
 51
245.51712393648839
  0
ARC
  5
1C6
  8
0
 10
4074.1982438712121
 20
224.4127078063978
 30
0.0
 40
53.150338970528701
 50
210.2124350601828
 51
239.29143639062201
  0
ARC
  5
1C7
  8
0
 10
4050.0383327238119
 20
174.29544930774671
 30
0.0
 40
5.332006561880835
 50
124.0107347709716
 51
190.74808764777109
  0
ARC
  5
1C8
  8
0
 10
4059.1777564381332
 20
66.24465682027585
 30
0.0
 40
108.01759458626449
 50
97.649166221865684
 51
101.0176578989028
  0
ARC
  5
1C9
  8
0
 10
4007.8740502263472
 20
230.2661775385784
 30
0.0
 40
65.600754822101436
 50
288.1646837562779
 51
297.86418234876481
  0
ARC
  5
1CA
  8
0
 10
4037.675345628249
 20
149.9447905179095
 30
0.0
 40
20.274718304808282
 50
117.4633110715276
 51
171.09321561529021
  0
ARC
  5
1CB
  8
0
 10
4021.8568704761201
 20
110.3984967942767
 30
0.0
 40
42.89265874124338
 50
66.16901166683293
 51
95.635128114031048
  0
ARC
  5
1CC
  8
0
 10
4058.2437160985041
 20
189.78819994896091
 30
0.0
 40
44.446541149773743
 50
244.61168860748251
 51
284.39179450311548
  0
ARC
  5
1CD
  8
0
 10
4041.1732152079162
 20
241.2825928934372
 30
0.0
 40
98.638639604917046
 50
286.56232004634347
 51
304.90180598688602
  0
ARC
  5
1CE
  8
0
 10
4119.8848727382347
 20
129.20523155332981
 30
0.0
 40
38.318756796563378
 50
81.031574444311474
 51
125.53968437568589
  0
ARC
  5
1CF
  8
0
 10
4115.1620191953753
 20
162.46015340585629
 30
0.0
 40
11.64172306495372
 50
23.249284493959721
 51
65.830537735941164
  0
ENDBLK
  5
1D1
  8
0
 62
     1
  0
BLOCK
  8
0
 62
     1
  2
*U11
 70
     1
 10
0.0
 20
0.0
 30
0.0
  3
*U11
  1

  0
ARC
  5
1D3
  8
0
 10
3994.958941171592
 20
207.80820059702259
 30
0.0
 40
24.59759227781754
 50
23.703479147569759
 51
36.770150315845747
  0
ARC
  5
1D4
  8
0
 10
4010.6044479944921
 20
204.93171618690269
 30
0.0
 40
18.06255713879106
 50
77.016148943021989
 51
120.33616599613271
  0
ARC
  5
1D5
  8
0
 10
3983.3340195285969
 20
249.80947364568371
 30
0.0
 40
34.454927579250338
 50
260.29120356683211
 51
301.7829859597627
  0
ARC
  5
1D6
  8
0
 10
4000.550641237432
 20
197.16955195247121
 30
0.0
 40
29.650190519859009
 50
115.37164366642401
 51
140.95273472866339
  0
ARC
  5
1D7
  8
0
 10
3985.7226157599021
 20
227.31843668798581
 30
0.0
 40
3.9734140234340938
 50
302.30121512460852
 51
51.969715909711603
  0
ARC
  5
1D8
  8
0
 10
3951.167720496182
 20
196.58846903468589
 30
0.0
 40
50.156685512186172
 50
42.460350494211028
 51
65.735490728719824
  0
ARC
  5
1D9
  8
0
 10
4020.7805122784321
 20
355.07361472966107
 30
0.0
 40
122.9462175384904
 50
231.08420465688201
 51
246.51208085694921
  0
ARC
  5
1DA
  8
0
 10
3966.1821441144948
 20
252.47604676278829
 30
0.0
 40
23.672835586626231
 50
162.96067320773369
 51
193.02253607507899
  0
ARC
  5
1DB
  8
0
 10
3955.2079003851159
 20
307.85602664913762
 30
0.0
 40
61.906270381644077
 50
236.4036829862707
 51
258.7382530819844
  0
ARC
  5
1DC
  8
0
 10
3950.9548858300382
 20
259.25549488921018
 30
0.0
 40
30.148204288214789
 50
185.64348020259271
 51
208.8510831909216
  0
ARC
  5
1DD
  8
0
 10
3926.745269673565
 20
244.31324466664759
 30
0.0
 40
2.2316769170409052
 50
169.8131096333459
 51
245.51712393648839
  0
ARC
  5
1DE
  8
0
 10
3971.751110390434
 20
269.02787836885523
 30
0.0
 40
53.150338970528701
 50
210.21243506018291
 51
239.2914363906221
  0
ARC
  5
1DF
  8
0
 10
3947.5911992430342
 20
218.9106198702041
 30
0.0
 40
5.332006561880835
 50
124.0107347709716
 51
190.74808764777109
  0
ARC
  5
1E0
  8
0
 10
3956.7306229573542
 20
110.8598273827332
 30
0.0
 40
108.01759458626449
 50
97.649166221865684
 51
101.0176578989028
  0
ARC
  5
1E1
  8
0
 10
3905.4269167455682
 20
274.88134810103571
 30
0.0
 40
65.600754822101436
 50
288.16468375627801
 51
297.86418234876493
  0
ARC
  5
1E2
  8
0
 10
3935.2282121474709
 20
194.5599610803668
 30
0.0
 40
20.274718304808282
 50
117.4633110715276
 51
171.09321561529021
  0
ARC
  5
1E3
  8
0
 10
3919.409736995342
 20
155.013667356734
 30
0.0
 40
42.89265874124338
 50
66.16901166683293
 51
95.635128114031048
  0
ARC
  5
1E4
  8
0
 10
3955.796582617726
 20
234.4033705114183
 30
0.0
 40
44.446541149773743
 50
244.61168860748251
 51
284.39179450311542
  0
ARC
  5
1E5
  8
0
 10
3938.7260817271381
 20
285.89776345589462
 30
0.0
 40
98.638639604917046
 50
286.56232004634347
 51
304.90180598688602
  0
ARC
  5
1E6
  8
0
 10
4017.4377392574561
 20
173.82040211578709
 30
0.0
 40
38.318756796563378
 50
81.031574444311474
 51
125.53968437568589
  0
ARC
  5
1E7
  8
0
 10
4012.7148857145962
 20
207.07532396831371
 30
0.0
 40
11.64172306495372
 50
23.249284493959721
 51
65.830537735941164
  0
ENDBLK
  5
1E9
  8
0
 62
     1
  0
BLOCK
  8
0
 62
     1
  2
*U12
 70
     1
 10
0.0
 20
0.0
 30
0.0
  3
*U12
  1

  0
ARC
  5
1EB
  8
0
 10
3994.958941171592
 20
207.8082005970227
 30
0.0
 40
24.59759227781754
 50
23.703479147569759
 51
36.770150315845747
  0
ARC
  5
1EC
  8
0
 10
4010.6044479944921
 20
204.93171618690269
 30
0.0
 40
18.06255713879106
 50
77.016148943021989
 51
120.33616599613271
  0
ARC
  5
1ED
  8
0
 10
3983.3340195285969
 20
249.80947364568371
 30
0.0
 40
34.454927579250338
 50
260.29120356683211
 51
301.7829859597627
  0
ARC
  5
1EE
  8
0
 10
4000.550641237432
 20
197.16955195247121
 30
0.0
 40
29.650190519859009
 50
115.37164366642401
 51
140.95273472866339
  0
ARC
  5
1EF
  8
0
 10
3985.7226157599021
 20
227.31843668798581
 30
0.0
 40
3.9734140234340938
 50
302.30121512460818
 51
51.969715909711518
  0
ARC
  5
1F0
  8
0
 10
3951.167720496182
 20
196.588469034686
 30
0.0
 40
50.156685512186172
 50
42.460350494211049
 51
65.735490728719824
  0
ARC
  5
1F1
  8
0
 10
4020.7805122784321
 20
355.07361472966107
 30
0.0
 40
122.9462175384904
 50
231.08420465688201
 51
246.51208085694921
  0
ARC
  5
1F2
  8
0
 10
3966.1821441144948
 20
252.47604676278829
 30
0.0
 40
23.672835586626231
 50
162.96067320773381
 51
193.02253607507899
  0
ARC
  5
1F3
  8
0
 10
3955.2079003851159
 20
307.85602664913762
 30
0.0
 40
61.906270381644077
 50
236.4036829862707
 51
258.7382530819844
  0
ARC
  5
1F4
  8
0
 10
3950.9548858300382
 20
259.25549488921018
 30
0.0
 40
30.148204288214789
 50
185.6434802025928
 51
208.85108319092171
  0
ARC
  5
1F5
  8
0
 10
3926.745269673565
 20
244.31324466664759
 30
0.0
 40
2.2316769170409052
 50
169.8131096333473
 51
245.51712393648839
  0
ARC
  5
1F6
  8
0
 10
3971.751110390434
 20
269.02787836885523
 30
0.0
 40
53.150338970528701
 50
210.2124350601828
 51
239.29143639062201
  0
ARC
  5
1F7
  8
0
 10
3947.5911992430342
 20
218.9106198702041
 30
0.0
 40
5.332006561880835
 50
124.0107347709716
 51
190.74808764777109
  0
ARC
  5
1F8
  8
0
 10
3956.7306229573542
 20
110.8598273827332
 30
0.0
 40
108.01759458626449
 50
97.649166221865684
 51
101.0176578989028
  0
ARC
  5
1F9
  8
0
 10
3905.4269167455682
 20
274.88134810103583
 30
0.0
 40
65.600754822101436
 50
288.1646837562779
 51
297.86418234876481
  0
ARC
  5
1FA
  8
0
 10
3935.2282121474709
 20
194.55996108036689
 30
0.0
 40
20.274718304808282
 50
117.4633110715276
 51
171.09321561529021
  0
ARC
  5
1FB
  8
0
 10
3919.409736995342
 20
155.013667356734
 30
0.0
 40
42.89265874124338
 50
66.16901166683293
 51
95.635128114031048
  0
ARC
  5
1FC
  8
0
 10
3955.796582617726
 20
234.4033705114183
 30
0.0
 40
44.446541149773743
 50
244.61168860748251
 51
284.39179450311548
  0
ARC
  5
1FD
  8
0
 10
3938.7260817271381
 20
285.89776345589462
 30
0.0
 40
98.638639604917046
 50
286.56232004634347
 51
304.90180598688602
  0
ARC
  5
1FE
  8
0
 10
4017.4377392574561
 20
173.82040211578709
 30
0.0
 40
38.318756796563378
 50
81.031574444311474
 51
125.53968437568589
  0
ARC
  5
1FF
  8
0
 10
4012.7148857145962
 20
207.0753239683138
 30
0.0
 40
11.64172306495372
 50
23.249284493959721
 51
65.830537735941164
  0
ENDBLK
  5
201
  8
0
 62
     1
  0
BLOCK
  8
0
 62
     1
  2
*U13
 70
     1
 10
0.0
 20
0.0
 30
0.0
  3
*U13
  1

  0
ARC
  5
203
  8
0
 10
4334.4486677092073
 20
475.49922397176482
 30
0.0
 40
24.59759227781754
 50
23.703479147570189
 51
36.770150315846273
  0
ARC
  5
204
  8
0
 10
4350.094174532107
 20
472.62273956164489
 30
0.0
 40
18.06255713879106
 50
77.016148943021946
 51
120.33616599613271
  0
ARC
  5
205
  8
0
 10
4322.8237460662112
 20
517.50049702042577
 30
0.0
 40
34.454927579250338
 50
260.29120356683359
 51
301.78298595976332
  0
ARC
  5
206
  8
0
 10
4340.0403677750473
 20
464.86057532721338
 30
0.0
 40
29.650190519859009
 50
115.37164366642391
 51
140.9527347286629
  0
ARC
  5
207
  8
0
 10
4325.2123422975174
 20
495.0094600627279
 30
0.0
 40
3.9734140234340938
 50
302.30121512460869
 51
51.969715909711603
  0
ARC
  5
208
  8
0
 10
4290.6574470337973
 20
464.27949240942809
 30
0.0
 40
50.156685512186172
 50
42.460350494211049
 51
65.735490728719356
  0
ARC
  5
209
  8
0
 10
4360.2702388160469
 20
622.76463810440316
 30
0.0
 40
122.9462175384904
 50
231.08420465688201
 51
246.51208085694941
  0
ARC
  5
20A
  8
0
 10
4305.6718706521096
 20
520.16707013753035
 30
0.0
 40
23.672835586626231
 50
162.960673207734
 51
193.02253607507879
  0
ARC
  5
20B
  8
0
 10
4294.6976269227298
 20
575.54705002387982
 30
0.0
 40
61.906270381644077
 50
236.40368298627101
 51
258.7382530819844
  0
ARC
  5
20C
  8
0
 10
4290.4446123676526
 20
526.94651826395238
 30
0.0
 40
30.148204288214789
 50
185.64348020259291
 51
208.851083190922
  0
ARC
  5
20D
  8
0
 10
4266.2349962111803
 20
512.00426804138965
 30
0.0
 40
2.2316769170409052
 50
169.8131096333459
 51
245.51712393648839
  0
ARC
  5
20E
  8
0
 10
4311.2408369280492
 20
536.71890174359737
 30
0.0
 40
53.150338970528701
 50
210.21243506018291
 51
239.29143639062201
  0
ARC
  5
20F
  8
0
 10
4287.0809257806486
 20
486.60164324494627
 30
0.0
 40
5.332006561880835
 50
124.0107347709757
 51
190.7480876477693
  0
ARC
  5
210
  8
0
 10
4296.2203494949681
 20
378.55085075747542
 30
0.0
 40
108.01759458626449
 50
97.649166221865912
 51
101.0176578989028
  0
ARC
  5
211
  8
0
 10
4244.9166432831826
 20
542.5723714757778
 30
0.0
 40
65.600754822101436
 50
288.1646837562779
 51
297.86418234876493
  0
ARC
  5
212
  8
0
 10
4274.7179386850848
 20
462.25098445510912
 30
0.0
 40
20.274718304808282
 50
117.46331107152641
 51
171.09321561529001
  0
ARC
  5
213
  8
0
 10
4258.8994635329564
 20
422.70469073147621
 30
0.0
 40
42.89265874124338
 50
66.169011666833498
 51
95.635128114031048
  0
ARC
  5
214
  8
0
 10
4295.2863091553409
 20
502.09439388616039
 30
0.0
 40
44.446541149773743
 50
244.61168860748191
 51
284.39179450311542
  0
ARC
  5
215
  8
0
 10
4278.215808264752
 20
553.58878683063665
 30
0.0
 40
98.638639604917046
 50
286.56232004634347
 51
304.90180598688619
  0
ARC
  5
216
  8
0
 10
4356.92746579507
 20
441.51142549052929
 30
0.0
 40
38.318756796563378
 50
81.031574444311488
 51
125.5396843756853
  0
ARC
  5
217
  8
0
 10
4352.2046122522106
 20
474.76634734305588
 30
0.0
 40
11.64172306495372
 50
23.249284493958839
 51
65.830537735939117
  0
ENDBLK
  5
219
  8
0
 62
     1
  0
BLOCK
  8
0
 62
     1
  2
*U14
 70
     1
 10
0.0
 20
0.0
 30
0.0
  3
*U14
  1

  0
ARC
  5
21B
  8
0
 10
4072.972779658046
 20
520.11439453422076
 30
0.0
 40
24.59759227781754
 50
23.703479147570189
 51
36.770150315846273
  0
ARC
  5
21C
  8
0
 10
4088.6182864809462
 20
517.23791012410084
 30
0.0
 40
18.06255713879106
 50
77.016148943021946
 51
120.33616599613271
  0
ARC
  5
21D
  8
0
 10
4061.347858015049
 20
562.11566758288166
 30
0.0
 40
34.454927579250338
 50
260.29120356683359
 51
301.78298595976332
  0
ARC
  5
21E
  8
0
 10
4078.5644797238861
 20
509.47574588966933
 30
0.0
 40
29.650190519859009
 50
115.37164366642391
 51
140.9527347286629
  0
ARC
  5
21F
  8
0
 10
4063.7364542463552
 20
539.62463062518395
 30
0.0
 40
3.9734140234340938
 50
302.30121512460869
 51
51.969715909711603
  0
ARC
  5
220
  8
0
 10
4029.1815589826351
 20
508.89466297188397
 30
0.0
 40
50.156685512186172
 50
42.460350494211049
 51
65.735490728719356
  0
ARC
  5
221
  8
0
 10
4098.7943507648861
 20
667.37980866685905
 30
0.0
 40
122.9462175384904
 50
231.08420465688201
 51
246.51208085694941
  0
ARC
  5
222
  8
0
 10
4044.1959826009502
 20
564.78224069998635
 30
0.0
 40
23.672835586626231
 50
162.960673207734
 51
193.02253607507879
  0
ARC
  5
223
  8
0
 10
4033.2217388715699
 20
620.16222058633559
 30
0.0
 40
61.906270381644077
 50
236.40368298627101
 51
258.7382530819844
  0
ARC
  5
224
  8
0
 10
4028.9687243164922
 20
571.56168882640816
 30
0.0
 40
30.148204288214789
 50
185.64348020259291
 51
208.851083190922
  0
ARC
  5
225
  8
0
 10
4004.759108160019
 20
556.61943860384565
 30
0.0
 40
2.2316769170409052
 50
169.8131096333459
 51
245.51712393648839
  0
ARC
  5
226
  8
0
 10
4049.764948876888
 20
581.33407230605314
 30
0.0
 40
53.150338970528701
 50
210.21243506018291
 51
239.29143639062201
  0
ARC
  5
227
  8
0
 10
4025.6050377294891
 20
531.21681380740233
 30
0.0
 40
5.332006561880835
 50
124.0107347709757
 51
190.7480876477693
  0
ARC
  5
228
  8
0
 10
4034.7444614438082
 20
423.1660213199313
 30
0.0
 40
108.01759458626449
 50
97.649166221865912
 51
101.0176578989028
  0
ARC
  5
229
  8
0
 10
3983.4407552320231
 20
587.1875420382338
 30
0.0
 40
65.600754822101436
 50
288.1646837562779
 51
297.86418234876493
  0
ARC
  5
22A
  8
0
 10
4013.242050633924
 20
506.86615501756501
 30
0.0
 40
20.274718304808282
 50
117.46331107152641
 51
171.09321561529001
  0
ARC
  5
22B
  8
0
 10
3997.4235754817951
 20
467.31986129393221
 30
0.0
 40
42.89265874124338
 50
66.169011666833498
 51
95.635128114031048
  0
ARC
  5
22C
  8
0
 10
4033.81042110418
 20
546.70956444861645
 30
0.0
 40
44.446541149773743
 50
244.61168860748191
 51
284.39179450311542
  0
ARC
  5
22D
  8
0
 10
4016.7399202135898
 20
598.20395739309265
 30
0.0
 40
98.638639604917046
 50
286.56232004634347
 51
304.90180598688619
  0
ARC
  5
22E
  8
0
 10
4095.4515777439101
 20
486.12659605298518
 30
0.0
 40
38.318756796563378
 50
81.031574444311488
 51
125.5396843756853
  0
ARC
  5
22F
  8
0
 10
4090.7287242010489
 20
519.38151790551183
 30
0.0
 40
11.64172306495372
 50
23.249284493958839
 51
65.830537735939117
  0
ENDBLK
  5
231
  8
0
 62
     1
  0
BLOCK
  8
0
 62
     1
  2
*U15
 70
     1
 10
0.0
 20
0.0
 30
0.0
  3
*U15
  1

  0
ARC
  5
233
  8
0
 10
4266.2349962111812
 20
512.00426804138942
 30
0.0
 40
2.2316769170409172
 50
169.81310963335019
 51
245.51712393648791
  0
ARC
  5
234
  8
0
 10
4290.4446123676544
 20
526.94651826395341
 30
0.0
 40
30.14820428821535
 50
185.6495591754869
 51
208.8510831909247
  0
ARC
  5
235
  8
0
 10
4254.4803323142933
 20
486.12659605298552
 30
0.0
 40
38.318756796563228
 50
81.048224768439326
 51
125.5396843756951
  0
ARC
  5
236
  8
0
 10
4175.7686747839753
 20
598.20395739309265
 30
0.0
 40
98.638639604916733
 50
286.56232004634052
 51
304.90180598688232
  0
ARC
  5
237
  8
0
 10
4192.8391756745632
 20
546.70956444861633
 30
0.0
 40
44.446541149773537
 50
244.6116886074978
 51
284.3917945031094
  0
ARC
  5
238
  8
0
 10
4156.4523300521796
 20
467.31986129393181
 30
0.0
 40
42.892658741243878
 50
66.169011666817241
 51
95.635128114031588
  0
ARC
  5
239
  8
0
 10
4131.6286924634169
 20
464.27949240942797
 30
0.0
 40
50.156685512185867
 50
42.460350494214111
 51
65.735490728716172
  0
ARC
  5
23A
  8
0
 10
4166.1835877271369
 20
495.0094600627275
 30
0.0
 40
3.9734140234340738
 50
302.30121512460232
 51
51.969715909759238
  0
ARC
  5
23B
  8
0
 10
4181.0116132046678
 20
464.86057532721259
 30
0.0
 40
29.650190519859301
 50
115.3716436664246
 51
140.9527347286635
  0
ARC
  5
23C
  8
0
 10
4163.7949914958299
 20
517.50049702042543
 30
0.0
 40
34.454927579250459
 50
260.29120356683211
 51
301.78298595976349
  0
ARC
  5
23D
  8
0
 10
4191.0654199617265
 20
472.62273956164461
 30
0.0
 40
18.062557138790929
 50
77.01614894302331
 51
120.33616599613239
  0
ARC
  5
23E
  8
0
 10
4175.4199131388268
 20
475.49922397176431
 30
0.0
 40
24.597592277817562
 50
23.703479147569869
 51
36.770150315845832
  0
ARC
  5
23F
  8
0
 10
4193.1758576818311
 20
474.7663473430556
 30
0.0
 40
11.64172306495359
 50
23.229827112001971
 51
65.83053773594078
  0
ARC
  5
240
  8
0
 10
4238.1160058331297
 20
530.93187946142268
 30
0.0
 40
61.906270381644141
 50
236.41798687092421
 51
258.7382530819844
  0
ARC
  5
241
  8
0
 10
4249.0902495625087
 20
475.55189957507338
 30
0.0
 40
23.672835586626292
 50
162.96067320773381
 51
193.0225360750791
  0
ARC
  5
242
  8
0
 10
4303.688617726446
 20
578.1494675419458
 30
0.0
 40
122.94621753849
 50
231.08420465688189
 51
246.51208085695049
  0
ARC
  5
243
  8
0
 10
4274.7179386850858
 20
462.25098445510878
 30
0.0
 40
20.274718304808179
 50
117.463311071532
 51
171.09321561529021
  0
ARC
  5
244
  8
0
 10
4244.9166432831862
 20
542.57237147577814
 30
0.0
 40
65.600754822102061
 50
288.16468375627568
 51
297.86418234876419
  0
ARC
  5
245
  8
0
 10
4296.2203494949717
 20
378.5508507574728
 30
0.0
 40
108.0175945862666
 50
97.649166221865755
 51
101.017657898903
  0
ARC
  5
246
  8
0
 10
4287.0809257806513
 20
486.60164324494622
 30
0.0
 40
5.33200656188066
 50
124.0107347709781
 51
190.7480876477747
  0
ARC
  5
247
  8
0
 10
4311.240836928052
 20
536.7189017435968
 30
0.0
 40
53.150338970528793
 50
210.21243506018209
 51
239.29143639062119
  0
ENDBLK
  5
249
  8
0
 62
     1
  0
BLOCK
  8
0
 62
     1
  2
*U16
 70
     1
 10
0.0
 20
0.0
 30
0.0
  3
*U16
  1

  0
ARC
  5
24B
  8
0
 10
4004.7477937820931
 20
556.62435607383816
 30
0.0
 40
2.2316769170409172
 50
169.81310963335019
 51
245.51712393648791
  0
ARC
  5
24C
  8
0
 10
4028.957409938565
 20
571.56660629640226
 30
0.0
 40
30.14820428821535
 50
185.6495591754869
 51
208.8510831909247
  0
ARC
  5
24D
  8
0
 10
3992.9931298852048
 20
530.74668408543448
 30
0.0
 40
38.318756796563228
 50
81.048224768439326
 51
125.5396843756951
  0
ARC
  5
24E
  8
0
 10
3914.2814723548868
 20
642.8240454255415
 30
0.0
 40
98.638639604916733
 50
286.56232004634052
 51
304.90180598688232
  0
ARC
  5
24F
  8
0
 10
3931.3519732454752
 20
591.3296524810653
 30
0.0
 40
44.446541149773537
 50
244.6116886074978
 51
284.3917945031094
  0
ARC
  5
250
  8
0
 10
3894.9651276230911
 20
511.93994932638071
 30
0.0
 40
42.892658741243878
 50
66.169011666817241
 51
95.635128114031588
  0
ARC
  5
251
  8
0
 10
3870.1414900343279
 20
508.89958044187688
 30
0.0
 40
50.156685512185867
 50
42.460350494214111
 51
65.735490728716172
  0
ARC
  5
252
  8
0
 10
3904.696385298048
 20
539.62954809517635
 30
0.0
 40
3.9734140234340738
 50
302.30121512460232
 51
51.969715909759238
  0
ARC
  5
253
  8
0
 10
3919.5244107755789
 20
509.48066335966149
 30
0.0
 40
29.650190519859301
 50
115.3716436664246
 51
140.9527347286635
  0
ARC
  5
254
  8
0
 10
3902.3077890667432
 20
562.12058505287439
 30
0.0
 40
34.454927579250459
 50
260.29120356683211
 51
301.78298595976349
  0
ARC
  5
255
  8
0
 10
3929.578217532639
 20
517.24282759409346
 30
0.0
 40
18.062557138790929
 50
77.01614894302331
 51
120.33616599613239
  0
ARC
  5
256
  8
0
 10
3913.9327107097388
 20
520.11931200421316
 30
0.0
 40
24.597592277817562
 50
23.703479147569869
 51
36.770150315845832
  0
ARC
  5
257
  8
0
 10
3931.688655252743
 20
519.38643537550445
 30
0.0
 40
11.64172306495359
 50
23.229827112001971
 51
65.83053773594078
  0
ARC
  5
258
  8
0
 10
3976.6288034040422
 20
575.55196749387164
 30
0.0
 40
61.906270381644141
 50
236.41798687092421
 51
258.7382530819844
  0
ARC
  5
259
  8
0
 10
3987.6030471334211
 20
520.17198760752228
 30
0.0
 40
23.672835586626292
 50
162.96067320773381
 51
193.0225360750791
  0
ARC
  5
25A
  8
0
 10
4042.201415297357
 20
622.76955557439464
 30
0.0
 40
122.94621753849
 50
231.08420465688189
 51
246.51208085695049
  0
ARC
  5
25B
  8
0
 10
4013.2307362559982
 20
506.87107248755768
 30
0.0
 40
20.274718304808179
 50
117.463311071532
 51
171.09321561529021
  0
ARC
  5
25C
  8
0
 10
3983.4294408540982
 20
587.1924595082271
 30
0.0
 40
65.600754822102061
 50
288.16468375627568
 51
297.86418234876419
  0
ARC
  5
25D
  8
0
 10
4034.7331470658842
 20
423.17093878992159
 30
0.0
 40
108.0175945862666
 50
97.649166221865755
 51
101.017657898903
  0
ARC
  5
25E
  8
0
 10
4025.5937233515629
 20
531.22173127739507
 30
0.0
 40
5.33200656188066
 50
124.0107347709781
 51
190.7480876477747
  0
ARC
  5
25F
  8
0
 10
4049.753634498963
 20
581.33898977604565
 30
0.0
 40
53.150338970528793
 50
210.21243506018209
 51
239.29143639062119
  0
ENDBLK
  5
261
  8
0
 62
     1
  0
BLOCK
  8
0
 62
     1
  2
*U17
 70
     1
 10
0.0
 20
0.0
 30
0.0
  3
*U17
  1

  0
ARC
  5
263
  8
0
 10
4085.7740242439472
 20
244.31324466664759
 30
0.0
 40
2.2316769170409172
 50
169.81310963335019
 51
245.51712393648791
  0
ARC
  5
264
  8
0
 10
4109.98364040042
 20
259.2554948892116
 30
0.0
 40
30.14820428821535
 50
185.6495591754869
 51
208.8510831909247
  0
ARC
  5
265
  8
0
 10
4074.019360347058
 20
218.4355726782436
 30
0.0
 40
38.318756796563228
 50
81.048224768439326
 51
125.5396843756951
  0
ARC
  5
266
  8
0
 10
3995.3077028167409
 20
330.51293401835079
 30
0.0
 40
98.638639604916733
 50
286.56232004634052
 51
304.90180598688232
  0
ARC
  5
267
  8
0
 10
4012.3782037073288
 20
279.01854107387447
 30
0.0
 40
44.446541149773537
 50
244.6116886074978
 51
284.3917945031094
  0
ARC
  5
268
  8
0
 10
3975.9913580849438
 20
199.62883791918989
 30
0.0
 40
42.892658741243878
 50
66.169011666817241
 51
95.635128114031588
  0
ARC
  5
269
  8
0
 10
3951.167720496182
 20
196.58846903468611
 30
0.0
 40
50.156685512185867
 50
42.460350494214111
 51
65.735490728716172
  0
ARC
  5
26A
  8
0
 10
3985.7226157599021
 20
227.31843668798561
 30
0.0
 40
3.9734140234340738
 50
302.30121512460232
 51
51.969715909759238
  0
ARC
  5
26B
  8
0
 10
4000.550641237433
 20
197.1695519524707
 30
0.0
 40
29.650190519859301
 50
115.3716436664246
 51
140.9527347286635
  0
ARC
  5
26C
  8
0
 10
3983.3340195285969
 20
249.8094736456836
 30
0.0
 40
34.454927579250459
 50
260.29120356683211
 51
301.78298595976349
  0
ARC
  5
26D
  8
0
 10
4010.6044479944921
 20
204.93171618690269
 30
0.0
 40
18.062557138790929
 50
77.01614894302331
 51
120.33616599613239
  0
ARC
  5
26E
  8
0
 10
3994.958941171592
 20
207.80820059702239
 30
0.0
 40
24.597592277817562
 50
23.703479147569869
 51
36.770150315845832
  0
ARC
  5
26F
  8
0
 10
4012.7148857145962
 20
207.0753239683138
 30
0.0
 40
11.64172306495359
 50
23.229827112001971
 51
65.83053773594078
  0
ARC
  5
270
  8
0
 10
4057.655033865894
 20
263.24085608668088
 30
0.0
 40
61.906270381644141
 50
236.41798687092421
 51
258.7382530819844
  0
ARC
  5
271
  8
0
 10
4068.6292775952738
 20
207.8608762003316
 30
0.0
 40
23.672835586626292
 50
162.96067320773381
 51
193.0225360750791
  0
ARC
  5
272
  8
0
 10
4123.2276457592097
 20
310.45844416720399
 30
0.0
 40
122.94621753849
 50
231.08420465688189
 51
246.51208085695049
  0
ARC
  5
273
  8
0
 10
4094.2569667178518
 20
194.559961080367
 30
0.0
 40
20.274718304808179
 50
117.463311071532
 51
171.09321561529021
  0
ARC
  5
274
  8
0
 10
4064.45567131595
 20
274.88134810103628
 30
0.0
 40
65.600754822102061
 50
288.16468375627568
 51
297.86418234876419
  0
ARC
  5
275
  8
0
 10
4115.7593775277364
 20
110.8598273827309
 30
0.0
 40
108.0175945862666
 50
97.649166221865755
 51
101.017657898903
  0
ARC
  5
276
  8
0
 10
4106.619953813416
 20
218.9106198702043
 30
0.0
 40
5.33200656188066
 50
124.0107347709781
 51
190.7480876477747
  0
ARC
  5
277
  8
0
 10
4130.7798649608167
 20
269.027878368855
 30
0.0
 40
53.150338970528793
 50
210.21243506018209
 51
239.29143639062119
  0
ENDBLK
  5
279
  8
0
 62
     1
  0
BLOCK
  8
0
 62
     1
  2
*U18
 70
     1
 10
0.0
 20
0.0
 30
0.0
  3
*U18
  1

  0
ARC
  5
27B
  8
0
 10
4153.9876957419738
 20
207.80820059702259
 30
0.0
 40
24.59759227781754
 50
23.703479147569759
 51
36.770150315845747
  0
ARC
  5
27C
  8
0
 10
4169.6332025648726
 20
204.93171618690269
 30
0.0
 40
18.06255713879106
 50
77.016148943021989
 51
120.33616599613271
  0
ARC
  5
27D
  8
0
 10
4142.3627740989778
 20
249.80947364568371
 30
0.0
 40
34.454927579250338
 50
260.29120356683211
 51
301.7829859597627
  0
ARC
  5
27E
  8
0
 10
4159.5793958078129
 20
197.16955195247121
 30
0.0
 40
29.650190519859009
 50
115.37164366642401
 51
140.95273472866339
  0
ARC
  5
27F
  8
0
 10
4144.751370330283
 20
227.31843668798581
 30
0.0
 40
3.9734140234340938
 50
302.30121512460852
 51
51.969715909711603
  0
ARC
  5
280
  8
0
 10
4110.1964750665629
 20
196.58846903468589
 30
0.0
 40
50.156685512186172
 50
42.460350494211028
 51
65.735490728719824
  0
ARC
  5
281
  8
0
 10
4179.8092668488134
 20
355.07361472966107
 30
0.0
 40
122.9462175384904
 50
231.08420465688201
 51
246.51208085694921
  0
ARC
  5
282
  8
0
 10
4125.2108986848771
 20
252.47604676278829
 30
0.0
 40
23.672835586626231
 50
162.96067320773369
 51
193.02253607507899
  0
ARC
  5
283
  8
0
 10
4114.2366549554963
 20
307.85602664913762
 30
0.0
 40
61.906270381644077
 50
236.4036829862707
 51
258.7382530819844
  0
ARC
  5
284
  8
0
 10
4109.98364040042
 20
259.25549488921018
 30
0.0
 40
30.148204288214789
 50
185.64348020259271
 51
208.8510831909216
  0
ARC
  5
285
  8
0
 10
4085.7740242439472
 20
244.31324466664759
 30
0.0
 40
2.2316769170409052
 50
169.8131096333459
 51
245.51712393648839
  0
ARC
  5
286
  8
0
 10
4130.7798649608158
 20
269.02787836885523
 30
0.0
 40
53.150338970528701
 50
210.21243506018291
 51
239.2914363906221
  0
ARC
  5
287
  8
0
 10
4106.619953813416
 20
218.9106198702041
 30
0.0
 40
5.332006561880835
 50
124.0107347709716
 51
190.74808764777109
  0
ARC
  5
288
  8
0
 10
4115.7593775277364
 20
110.8598273827332
 30
0.0
 40
108.01759458626449
 50
97.649166221865684
 51
101.0176578989028
  0
ARC
  5
289
  8
0
 10
4064.45567131595
 20
274.88134810103571
 30
0.0
 40
65.600754822101436
 50
288.16468375627801
 51
297.86418234876493
  0
ARC
  5
28A
  8
0
 10
4094.2569667178518
 20
194.5599610803668
 30
0.0
 40
20.274718304808282
 50
117.4633110715276
 51
171.09321561529021
  0
ARC
  5
28B
  8
0
 10
4078.4384915657229
 20
155.013667356734
 30
0.0
 40
42.89265874124338
 50
66.16901166683293
 51
95.635128114031048
  0
ARC
  5
28C
  8
0
 10
4114.8253371881074
 20
234.4033705114183
 30
0.0
 40
44.446541149773743
 50
244.61168860748251
 51
284.39179450311542
  0
ARC
  5
28D
  8
0
 10
4097.7548362975194
 20
285.89776345589462
 30
0.0
 40
98.638639604917046
 50
286.56232004634347
 51
304.90180598688602
  0
ARC
  5
28E
  8
0
 10
4176.4664938278383
 20
173.82040211578709
 30
0.0
 40
38.318756796563378
 50
81.031574444311474
 51
125.53968437568589
  0
ARC
  5
28F
  8
0
 10
4171.743640284978
 20
207.07532396831371
 30
0.0
 40
11.64172306495372
 50
23.249284493959721
 51
65.830537735941164
  0
ENDBLK
  5
291
  8
0
 62
     1
  0
BLOCK
  8
0
 62
     1
  2
*U19
 70
     1
 10
0.0
 20
0.0
 30
0.0
  3
*U19
  1

  0
ARC
  5
293
  8
0
 10
4153.9876957419738
 20
207.8082005970227
 30
0.0
 40
24.59759227781754
 50
23.703479147569759
 51
36.770150315845747
  0
ARC
  5
294
  8
0
 10
4169.6332025648726
 20
204.93171618690269
 30
0.0
 40
18.06255713879106
 50
77.016148943021989
 51
120.33616599613271
  0
ARC
  5
295
  8
0
 10
4142.3627740989778
 20
249.80947364568371
 30
0.0
 40
34.454927579250338
 50
260.29120356683211
 51
301.7829859597627
  0
ARC
  5
296
  8
0
 10
4159.5793958078129
 20
197.16955195247121
 30
0.0
 40
29.650190519859009
 50
115.37164366642401
 51
140.95273472866339
  0
ARC
  5
297
  8
0
 10
4144.751370330283
 20
227.31843668798581
 30
0.0
 40
3.9734140234340938
 50
302.30121512460818
 51
51.969715909711518
  0
ARC
  5
298
  8
0
 10
4110.1964750665629
 20
196.588469034686
 30
0.0
 40
50.156685512186172
 50
42.460350494211049
 51
65.735490728719824
  0
ARC
  5
299
  8
0
 10
4179.8092668488134
 20
355.07361472966107
 30
0.0
 40
122.9462175384904
 50
231.08420465688201
 51
246.51208085694921
  0
ARC
  5
29A
  8
0
 10
4125.2108986848771
 20
252.47604676278829
 30
0.0
 40
23.672835586626231
 50
162.96067320773381
 51
193.02253607507899
  0
ARC
  5
29B
  8
0
 10
4114.2366549554963
 20
307.85602664913762
 30
0.0
 40
61.906270381644077
 50
236.4036829862707
 51
258.7382530819844
  0
ARC
  5
29C
  8
0
 10
4109.98364040042
 20
259.25549488921018
 30
0.0
 40
30.148204288214789
 50
185.6434802025928
 51
208.85108319092171
  0
ARC
  5
29D
  8
0
 10
4085.7740242439472
 20
244.31324466664759
 30
0.0
 40
2.2316769170409052
 50
169.8131096333473
 51
245.51712393648839
  0
ARC
  5
29E
  8
0
 10
4130.7798649608158
 20
269.02787836885523
 30
0.0
 40
53.150338970528701
 50
210.2124350601828
 51
239.29143639062201
  0
ARC
  5
29F
  8
0
 10
4106.619953813416
 20
218.9106198702041
 30
0.0
 40
5.332006561880835
 50
124.0107347709716
 51
190.74808764777109
  0
ARC
  5
2A0
  8
0
 10
4115.7593775277364
 20
110.8598273827332
 30
0.0
 40
108.01759458626449
 50
97.649166221865684
 51
101.0176578989028
  0
ARC
  5
2A1
  8
0
 10
4064.45567131595
 20
274.88134810103583
 30
0.0
 40
65.600754822101436
 50
288.1646837562779
 51
297.86418234876481
  0
ARC
  5
2A2
  8
0
 10
4094.2569667178518
 20
194.55996108036689
 30
0.0
 40
20.274718304808282
 50
117.4633110715276
 51
171.09321561529021
  0
ARC
  5
2A3
  8
0
 10
4078.4384915657229
 20
155.013667356734
 30
0.0
 40
42.89265874124338
 50
66.16901166683293
 51
95.635128114031048
  0
ARC
  5
2A4
  8
0
 10
4114.8253371881074
 20
234.4033705114183
 30
0.0
 40
44.446541149773743
 50
244.61168860748251
 51
284.39179450311548
  0
ARC
  5
2A5
  8
0
 10
4097.7548362975194
 20
285.89776345589462
 30
0.0
 40
98.638639604917046
 50
286.56232004634347
 51
304.90180598688602
  0
ARC
  5
2A6
  8
0
 10
4176.4664938278383
 20
173.82040211578709
 30
0.0
 40
38.318756796563378
 50
81.031574444311474
 51
125.53968437568589
  0
ARC
  5
2A7
  8
0
 10
4171.743640284978
 20
207.0753239683138
 30
0.0
 40
11.64172306495372
 50
23.249284493959721
 51
65.830537735941164
  0
ENDBLK
  5
2A9
  8
0
 62
     1
  0
BLOCK
  8
0
 62
     1
  2
*U20
 70
     1
 10
0.0
 20
0.0
 30
0.0
  3
*U20
  1

  0
ARC
  5
2AB
  8
0
 10
3983.3268907631682
 20
288.92841522910493
 30
0.0
 40
2.2316769170409172
 50
169.81310963335019
 51
245.51712393648791
  0
ARC
  5
2AC
  8
0
 10
4007.5365069196409
 20
303.87066545166891
 30
0.0
 40
30.14820428821535
 50
185.6495591754869
 51
208.8510831909247
  0
ARC
  5
2AD
  8
0
 10
3971.5722268662798
 20
263.05074324070102
 30
0.0
 40
38.318756796563228
 50
81.048224768439326
 51
125.5396843756951
  0
ARC
  5
2AE
  8
0
 10
3892.8605693359618
 20
375.12810458080799
 30
0.0
 40
98.638639604916733
 50
286.56232004634052
 51
304.90180598688232
  0
ARC
  5
2AF
  8
0
 10
3909.9310702265502
 20
323.63371163633178
 30
0.0
 40
44.446541149773537
 50
244.6116886074978
 51
284.3917945031094
  0
ARC
  5
2B0
  8
0
 10
3873.5442246041648
 20
244.2440084816472
 30
0.0
 40
42.892658741243878
 50
66.169011666817241
 51
95.635128114031588
  0
ARC
  5
2B1
  8
0
 10
3848.720587015403
 20
241.20363959714339
 30
0.0
 40
50.156685512185867
 50
42.460350494214111
 51
65.735490728716172
  0
ARC
  5
2B2
  8
0
 10
3883.275482279123
 20
271.93360725044289
 30
0.0
 40
3.9734140234340738
 50
302.30121512460232
 51
51.969715909759238
  0
ARC
  5
2B3
  8
0
 10
3898.1035077566539
 20
241.78472251492801
 30
0.0
 40
29.650190519859301
 50
115.3716436664246
 51
140.9527347286635
  0
ARC
  5
2B4
  8
0
 10
3880.8868860478169
 20
294.42464420814088
 30
0.0
 40
34.454927579250459
 50
260.29120356683211
 51
301.78298595976349
  0
ARC
  5
2B5
  8
0
 10
3908.157314513714
 20
249.54688674936
 30
0.0
 40
18.062557138790929
 50
77.01614894302331
 51
120.33616599613239
  0
ARC
  5
2B6
  8
0
 10
3892.5118076908129
 20
252.4233711594797
 30
0.0
 40
24.597592277817562
 50
23.703479147569869
 51
36.770150315845832
  0
ARC
  5
2B7
  8
0
 10
3910.2677522338172
 20
251.69049453077099
 30
0.0
 40
11.64172306495359
 50
23.229827112001971
 51
65.83053773594078
  0
ARC
  5
2B8
  8
0
 10
3955.2079003851159
 20
307.8560266491383
 30
0.0
 40
61.906270381644141
 50
236.41798687092421
 51
258.7382530819844
  0
ARC
  5
2B9
  8
0
 10
3966.1821441144948
 20
252.4760467627888
 30
0.0
 40
23.672835586626292
 50
162.96067320773381
 51
193.0225360750791
  0
ARC
  5
2BA
  8
0
 10
4020.7805122784321
 20
355.07361472966119
 30
0.0
 40
122.94621753849
 50
231.08420465688189
 51
246.51208085695049
  0
ARC
  5
2BB
  8
0
 10
3991.8098332370728
 20
239.1751316428242
 30
0.0
 40
20.274718304808179
 50
117.463311071532
 51
171.09321561529021
  0
ARC
  5
2BC
  8
0
 10
3962.0085378351719
 20
319.49651866349359
 30
0.0
 40
65.600754822102061
 50
288.16468375627568
 51
297.86418234876419
  0
ARC
  5
2BD
  8
0
 10
4013.3122440469569
 20
155.47499794518811
 30
0.0
 40
108.0175945862666
 50
97.649166221865755
 51
101.017657898903
  0
ARC
  5
2BE
  8
0
 10
4004.172820332637
 20
263.52579043266172
 30
0.0
 40
5.33200656188066
 50
124.0107347709781
 51
190.7480876477747
  0
ARC
  5
2BF
  8
0
 10
4028.3327314800381
 20
313.64304893131231
 30
0.0
 40
53.150338970528793
 50
210.21243506018209
 51
239.29143639062119
  0
ENDBLK
  5
2C1
  8
0
 62
     1
  0
BLOCK
  8
0
 62
     1
  2
*U21
 70
     1
 10
0.0
 20
0.0
 30
0.0
  3
*U21
  1

  0
ARC
  5
2C3
  8
0
 10
4051.5405622611952
 20
252.4233711594799
 30
0.0
 40
24.59759227781754
 50
23.703479147569759
 51
36.770150315845747
  0
ARC
  5
2C4
  8
0
 10
4067.1860690840949
 20
249.54688674936
 30
0.0
 40
18.06255713879106
 50
77.016148943021989
 51
120.33616599613271
  0
ARC
  5
2C5
  8
0
 10
4039.9156406181992
 20
294.42464420814099
 30
0.0
 40
34.454927579250338
 50
260.29120356683211
 51
301.7829859597627
  0
ARC
  5
2C6
  8
0
 10
4057.1322623270348
 20
241.78472251492849
 30
0.0
 40
29.650190519859009
 50
115.37164366642401
 51
140.95273472866339
  0
ARC
  5
2C7
  8
0
 10
4042.3042368495048
 20
271.93360725044312
 30
0.0
 40
3.9734140234340938
 50
302.30121512460852
 51
51.969715909711603
  0
ARC
  5
2C8
  8
0
 10
4007.7493415857839
 20
241.20363959714331
 30
0.0
 40
50.156685512186172
 50
42.460350494211028
 51
65.735490728719824
  0
ARC
  5
2C9
  8
0
 10
4077.3621333680339
 20
399.68878529211838
 30
0.0
 40
122.9462175384904
 50
231.08420465688201
 51
246.51208085694921
  0
ARC
  5
2CA
  8
0
 10
4022.763765204098
 20
297.09121732524562
 30
0.0
 40
23.672835586626231
 50
162.96067320773369
 51
193.02253607507899
  0
ARC
  5
2CB
  8
0
 10
4011.7895214747182
 20
352.47119721159493
 30
0.0
 40
61.906270381644077
 50
236.4036829862707
 51
258.7382530819844
  0
ARC
  5
2CC
  8
0
 10
4007.5365069196409
 20
303.87066545166749
 30
0.0
 40
30.148204288214789
 50
185.64348020259271
 51
208.8510831909216
  0
ARC
  5
2CD
  8
0
 10
3983.3268907631682
 20
288.92841522910493
 30
0.0
 40
2.2316769170409052
 50
169.8131096333459
 51
245.51712393648839
  0
ARC
  5
2CE
  8
0
 10
4028.3327314800372
 20
313.64304893131248
 30
0.0
 40
53.150338970528701
 50
210.21243506018291
 51
239.2914363906221
  0
ARC
  5
2CF
  8
0
 10
4004.1728203326361
 20
263.52579043266138
 30
0.0
 40
5.332006561880835
 50
124.0107347709716
 51
190.74808764777109
  0
ARC
  5
2D0
  8
0
 10
4013.312244046956
 20
155.47499794519041
 30
0.0
 40
108.01759458626449
 50
97.649166221865684
 51
101.0176578989028
  0
ARC
  5
2D1
  8
0
 10
3962.0085378351719
 20
319.49651866349302
 30
0.0
 40
65.600754822101436
 50
288.16468375627801
 51
297.86418234876493
  0
ARC
  5
2D2
  8
0
 10
3991.8098332370728
 20
239.1751316428242
 30
0.0
 40
20.274718304808282
 50
117.4633110715276
 51
171.09321561529021
  0
ARC
  5
2D3
  8
0
 10
3975.9913580849438
 20
199.62883791919131
 30
0.0
 40
42.89265874124338
 50
66.16901166683293
 51
95.635128114031048
  0
ARC
  5
2D4
  8
0
 10
4012.3782037073288
 20
279.01854107387561
 30
0.0
 40
44.446541149773743
 50
244.61168860748251
 51
284.39179450311542
  0
ARC
  5
2D5
  8
0
 10
3995.3077028167399
 20
330.51293401835193
 30
0.0
 40
98.638639604917046
 50
286.56232004634347
 51
304.90180598688602
  0
ARC
  5
2D6
  8
0
 10
4074.019360347058
 20
218.4355726782444
 30
0.0
 40
38.318756796563378
 50
81.031574444311474
 51
125.53968437568589
  0
ARC
  5
2D7
  8
0
 10
4069.296506804199
 20
251.69049453077099
 30
0.0
 40
11.64172306495372
 50
23.249284493959721
 51
65.830537735941164
  0
ENDBLK
  5
2D9
  8
0
 62
     1
  0
BLOCK
  8
0
 62
     1
  2
*U22
 70
     1
 10
0.0
 20
0.0
 30
0.0
  3
*U22
  1

  0
ARC
  5
2DB
  8
0
 10
4051.5405622611952
 20
252.42337115948001
 30
0.0
 40
24.59759227781754
 50
23.703479147569759
 51
36.770150315845747
  0
ARC
  5
2DC
  8
0
 10
4067.1860690840949
 20
249.54688674936
 30
0.0
 40
18.06255713879106
 50
77.016148943021989
 51
120.33616599613271
  0
ARC
  5
2DD
  8
0
 10
4039.9156406181992
 20
294.42464420814099
 30
0.0
 40
34.454927579250338
 50
260.29120356683211
 51
301.7829859597627
  0
ARC
  5
2DE
  8
0
 10
4057.1322623270348
 20
241.78472251492849
 30
0.0
 40
29.650190519859009
 50
115.37164366642401
 51
140.95273472866339
  0
ARC
  5
2DF
  8
0
 10
4042.3042368495048
 20
271.93360725044312
 30
0.0
 40
3.9734140234340938
 50
302.30121512460818
 51
51.969715909711518
  0
ARC
  5
2E0
  8
0
 10
4007.7493415857839
 20
241.20363959714331
 30
0.0
 40
50.156685512186172
 50
42.460350494211049
 51
65.735490728719824
  0
ARC
  5
2E1
  8
0
 10
4077.3621333680339
 20
399.68878529211838
 30
0.0
 40
122.9462175384904
 50
231.08420465688201
 51
246.51208085694921
  0
ARC
  5
2E2
  8
0
 10
4022.763765204098
 20
297.09121732524562
 30
0.0
 40
23.672835586626231
 50
162.96067320773381
 51
193.02253607507899
  0
ARC
  5
2E3
  8
0
 10
4011.7895214747182
 20
352.47119721159493
 30
0.0
 40
61.906270381644077
 50
236.4036829862707
 51
258.7382530819844
  0
ARC
  5
2E4
  8
0
 10
4007.5365069196409
 20
303.87066545166749
 30
0.0
 40
30.148204288214789
 50
185.6434802025928
 51
208.85108319092171
  0
ARC
  5
2E5
  8
0
 10
3983.3268907631682
 20
288.92841522910493
 30
0.0
 40
2.2316769170409052
 50
169.8131096333473
 51
245.51712393648839
  0
ARC
  5
2E6
  8
0
 10
4028.3327314800372
 20
313.64304893131248
 30
0.0
 40
53.150338970528701
 50
210.2124350601828
 51
239.29143639062201
  0
ARC
  5
2E7
  8
0
 10
4004.1728203326361
 20
263.52579043266138
 30
0.0
 40
5.332006561880835
 50
124.0107347709716
 51
190.74808764777109
  0
ARC
  5
2E8
  8
0
 10
4013.312244046956
 20
155.47499794519049
 30
0.0
 40
108.01759458626449
 50
97.649166221865684
 51
101.0176578989028
  0
ARC
  5
2E9
  8
0
 10
3962.0085378351719
 20
319.49651866349302
 30
0.0
 40
65.600754822101436
 50
288.1646837562779
 51
297.86418234876481
  0
ARC
  5
2EA
  8
0
 10
3991.8098332370728
 20
239.1751316428242
 30
0.0
 40
20.274718304808282
 50
117.4633110715276
 51
171.09321561529021
  0
ARC
  5
2EB
  8
0
 10
3975.9913580849438
 20
199.62883791919131
 30
0.0
 40
42.89265874124338
 50
66.16901166683293
 51
95.635128114031048
  0
ARC
  5
2EC
  8
0
 10
4012.3782037073288
 20
279.01854107387561
 30
0.0
 40
44.446541149773743
 50
244.61168860748251
 51
284.39179450311548
  0
ARC
  5
2ED
  8
0
 10
3995.3077028167399
 20
330.51293401835193
 30
0.0
 40
98.638639604917046
 50
286.56232004634347
 51
304.90180598688602
  0
ARC
  5
2EE
  8
0
 10
4074.019360347058
 20
218.4355726782444
 30
0.0
 40
38.318756796563378
 50
81.031574444311474
 51
125.53968437568589
  0
ARC
  5
2EF
  8
0
 10
4069.296506804199
 20
251.69049453077099
 30
0.0
 40
11.64172306495372
 50
23.249284493959721
 51
65.830537735941164
  0
ENDBLK
  5
2F1
  8
0
 62
     1
  0
BLOCK
  8
0
 62
     1
  2
*U23
 70
     1
 10
0.0
 20
0.0
 30
0.0
  3
*U23
  1

  0
ARC
  5
2F3
  8
0
 10
4142.3556453335486
 20
288.92841522910459
 30
0.0
 40
2.2316769170409172
 50
169.81310963335019
 51
245.51712393648791
  0
ARC
  5
2F4
  8
0
 10
4166.5652614900227
 20
303.87066545166869
 30
0.0
 40
30.14820428821535
 50
185.6495591754869
 51
208.8510831909247
  0
ARC
  5
2F5
  8
0
 10
4130.6009814366607
 20
263.05074324070068
 30
0.0
 40
38.318756796563228
 50
81.048224768439326
 51
125.5396843756951
  0
ARC
  5
2F6
  8
0
 10
4051.8893239063432
 20
375.12810458080781
 30
0.0
 40
98.638639604916733
 50
286.56232004634052
 51
304.90180598688232
  0
ARC
  5
2F7
  8
0
 10
4068.9598247969311
 20
323.63371163633161
 30
0.0
 40
44.446541149773537
 50
244.6116886074978
 51
284.3917945031094
  0
ARC
  5
2F8
  8
0
 10
4032.5729791745471
 20
244.244008481647
 30
0.0
 40
42.892658741243878
 50
66.169011666817241
 51
95.635128114031588
  0
ARC
  5
2F9
  8
0
 10
4007.7493415857839
 20
241.20363959714331
 30
0.0
 40
50.156685512185867
 50
42.460350494214111
 51
65.735490728716172
  0
ARC
  5
2FA
  8
0
 10
4042.3042368495048
 20
271.93360725044272
 30
0.0
 40
3.9734140234340738
 50
302.30121512460232
 51
51.969715909759238
  0
ARC
  5
2FB
  8
0
 10
4057.1322623270348
 20
241.78472251492781
 30
0.0
 40
29.650190519859301
 50
115.3716436664246
 51
140.9527347286635
  0
ARC
  5
2FC
  8
0
 10
4039.9156406181992
 20
294.42464420814071
 30
0.0
 40
34.454927579250459
 50
260.29120356683211
 51
301.78298595976349
  0
ARC
  5
2FD
  8
0
 10
4067.1860690840949
 20
249.5468867493598
 30
0.0
 40
18.062557138790929
 50
77.01614894302331
 51
120.33616599613239
  0
ARC
  5
2FE
  8
0
 10
4051.5405622611952
 20
252.4233711594795
 30
0.0
 40
24.597592277817562
 50
23.703479147569869
 51
36.770150315845832
  0
ARC
  5
2FF
  8
0
 10
4069.296506804199
 20
251.69049453077079
 30
0.0
 40
11.64172306495359
 50
23.229827112001971
 51
65.83053773594078
  0
ARC
  5
300
  8
0
 10
4114.2366549554963
 20
307.85602664913802
 30
0.0
 40
61.906270381644141
 50
236.41798687092421
 51
258.7382530819844
  0
ARC
  5
301
  8
0
 10
4125.2108986848771
 20
252.47604676278871
 30
0.0
 40
23.672835586626292
 50
162.96067320773381
 51
193.0225360750791
  0
ARC
  5
302
  8
0
 10
4179.8092668488134
 20
355.07361472966107
 30
0.0
 40
122.94621753849
 50
231.08420465688189
 51
246.51208085695049
  0
ARC
  5
303
  8
0
 10
4150.838587807455
 20
239.17513164282411
 30
0.0
 40
20.274718304808179
 50
117.463311071532
 51
171.09321561529021
  0
ARC
  5
304
  8
0
 10
4121.0372924055537
 20
319.49651866349342
 30
0.0
 40
65.600754822102061
 50
288.16468375627568
 51
297.86418234876419
  0
ARC
  5
305
  8
0
 10
4172.3409986173392
 20
155.47499794518791
 30
0.0
 40
108.0175945862666
 50
97.649166221865755
 51
101.017657898903
  0
ARC
  5
306
  8
0
 10
4163.2015749030188
 20
263.52579043266138
 30
0.0
 40
5.33200656188066
 50
124.0107347709781
 51
190.7480876477747
  0
ARC
  5
307
  8
0
 10
4187.3614860504204
 20
313.64304893131208
 30
0.0
 40
53.150338970528793
 50
210.21243506018209
 51
239.29143639062119
  0
ENDBLK
  5
309
  8
0
 62
     1
  0
BLOCK
  8
0
 62
     1
  2
*U24
 70
     1
 10
0.0
 20
0.0
 30
0.0
  3
*U24
  1

  0
ARC
  5
30B
  8
0
 10
4210.5693168315756
 20
252.4233711594797
 30
0.0
 40
24.59759227781754
 50
23.703479147569759
 51
36.770150315845747
  0
ARC
  5
30C
  8
0
 10
4226.2148236544754
 20
249.5468867493598
 30
0.0
 40
18.06255713879106
 50
77.016148943021989
 51
120.33616599613271
  0
ARC
  5
30D
  8
0
 10
4198.9443951885796
 20
294.42464420814071
 30
0.0
 40
34.454927579250338
 50
260.29120356683211
 51
301.7829859597627
  0
ARC
  5
30E
  8
0
 10
4216.1610168974157
 20
241.78472251492829
 30
0.0
 40
29.650190519859009
 50
115.37164366642401
 51
140.95273472866339
  0
ARC
  5
30F
  8
0
 10
4201.3329914198848
 20
271.93360725044278
 30
0.0
 40
3.9734140234340938
 50
302.30121512460852
 51
51.969715909711603
  0
ARC
  5
310
  8
0
 10
4166.7780961561657
 20
241.203639597143
 30
0.0
 40
50.156685512186172
 50
42.460350494211028
 51
65.735490728719824
  0
ARC
  5
311
  8
0
 10
4236.3908879384162
 20
399.68878529211821
 30
0.0
 40
122.9462175384904
 50
231.08420465688201
 51
246.51208085694921
  0
ARC
  5
312
  8
0
 10
4181.7925197744798
 20
297.0912173252454
 30
0.0
 40
23.672835586626231
 50
162.96067320773369
 51
193.02253607507899
  0
ARC
  5
313
  8
0
 10
4170.8182760451
 20
352.4711972115947
 30
0.0
 40
61.906270381644077
 50
236.4036829862707
 51
258.7382530819844
  0
ARC
  5
314
  8
0
 10
4166.5652614900227
 20
303.87066545166732
 30
0.0
 40
30.148204288214789
 50
185.64348020259271
 51
208.8510831909216
  0
ARC
  5
315
  8
0
 10
4142.3556453335486
 20
288.92841522910459
 30
0.0
 40
2.2316769170409052
 50
169.8131096333459
 51
245.51712393648839
  0
ARC
  5
316
  8
0
 10
4187.3614860504176
 20
313.64304893131231
 30
0.0
 40
53.150338970528701
 50
210.21243506018291
 51
239.2914363906221
  0
ARC
  5
317
  8
0
 10
4163.2015749030188
 20
263.52579043266121
 30
0.0
 40
5.332006561880835
 50
124.0107347709716
 51
190.74808764777109
  0
ARC
  5
318
  8
0
 10
4172.3409986173392
 20
155.47499794519021
 30
0.0
 40
108.01759458626449
 50
97.649166221865684
 51
101.0176578989028
  0
ARC
  5
319
  8
0
 10
4121.0372924055537
 20
319.49651866349279
 30
0.0
 40
65.600754822101436
 50
288.16468375627801
 51
297.86418234876493
  0
ARC
  5
31A
  8
0
 10
4150.838587807455
 20
239.175131642824
 30
0.0
 40
20.274718304808282
 50
117.4633110715276
 51
171.09321561529021
  0
ARC
  5
31B
  8
0
 10
4135.0201126553247
 20
199.62883791919111
 30
0.0
 40
42.89265874124338
 50
66.16901166683293
 51
95.635128114031048
  0
ARC
  5
31C
  8
0
 10
4171.4069582777092
 20
279.01854107387533
 30
0.0
 40
44.446541149773743
 50
244.61168860748251
 51
284.39179450311542
  0
ARC
  5
31D
  8
0
 10
4154.3364573871222
 20
330.51293401835159
 30
0.0
 40
98.638639604917046
 50
286.56232004634347
 51
304.90180598688602
  0
ARC
  5
31E
  8
0
 10
4233.0481149174411
 20
218.4355726782442
 30
0.0
 40
38.318756796563378
 50
81.031574444311474
 51
125.53968437568589
  0
ARC
  5
31F
  8
0
 10
4228.3252613745808
 20
251.69049453077079
 30
0.0
 40
11.64172306495372
 50
23.249284493959721
 51
65.830537735941164
  0
ENDBLK
  5
321
  8
0
 62
     1
  0
BLOCK
  8
0
 62
     1
  2
*U25
 70
     1
 10
0.0
 20
0.0
 30
0.0
  3
*U25
  1

  0
ARC
  5
323
  8
0
 10
4210.5693168315756
 20
252.4233711594797
 30
0.0
 40
24.59759227781754
 50
23.703479147569759
 51
36.770150315845747
  0
ARC
  5
324
  8
0
 10
4226.2148236544754
 20
249.5468867493598
 30
0.0
 40
18.06255713879106
 50
77.016148943021989
 51
120.33616599613271
  0
ARC
  5
325
  8
0
 10
4198.9443951885796
 20
294.42464420814071
 30
0.0
 40
34.454927579250338
 50
260.29120356683211
 51
301.7829859597627
  0
ARC
  5
326
  8
0
 10
4216.1610168974157
 20
241.78472251492829
 30
0.0
 40
29.650190519859009
 50
115.37164366642401
 51
140.95273472866339
  0
ARC
  5
327
  8
0
 10
4201.3329914198848
 20
271.93360725044289
 30
0.0
 40
3.9734140234340938
 50
302.30121512460818
 51
51.969715909711518
  0
ARC
  5
328
  8
0
 10
4166.7780961561657
 20
241.20363959714311
 30
0.0
 40
50.156685512186172
 50
42.460350494211049
 51
65.735490728719824
  0
ARC
  5
329
  8
0
 10
4236.3908879384162
 20
399.68878529211821
 30
0.0
 40
122.9462175384904
 50
231.08420465688201
 51
246.51208085694921
  0
ARC
  5
32A
  8
0
 10
4181.7925197744798
 20
297.0912173252454
 30
0.0
 40
23.672835586626231
 50
162.96067320773381
 51
193.02253607507899
  0
ARC
  5
32B
  8
0
 10
4170.8182760451
 20
352.4711972115947
 30
0.0
 40
61.906270381644077
 50
236.4036829862707
 51
258.7382530819844
  0
ARC
  5
32C
  8
0
 10
4166.5652614900227
 20
303.87066545166732
 30
0.0
 40
30.148204288214789
 50
185.6434802025928
 51
208.85108319092171
  0
ARC
  5
32D
  8
0
 10
4142.3556453335486
 20
288.9284152291047
 30
0.0
 40
2.2316769170409052
 50
169.8131096333473
 51
245.51712393648839
  0
ARC
  5
32E
  8
0
 10
4187.3614860504176
 20
313.64304893131231
 30
0.0
 40
53.150338970528701
 50
210.2124350601828
 51
239.29143639062201
  0
ARC
  5
32F
  8
0
 10
4163.2015749030188
 20
263.52579043266121
 30
0.0
 40
5.332006561880835
 50
124.0107347709716
 51
190.74808764777109
  0
ARC
  5
330
  8
0
 10
4172.3409986173392
 20
155.4749979451903
 30
0.0
 40
108.01759458626449
 50
97.649166221865684
 51
101.0176578989028
  0
ARC
  5
331
  8
0
 10
4121.0372924055537
 20
319.49651866349291
 30
0.0
 40
65.600754822101436
 50
288.1646837562779
 51
297.86418234876481
  0
ARC
  5
332
  8
0
 10
4150.838587807455
 20
239.175131642824
 30
0.0
 40
20.274718304808282
 50
117.4633110715276
 51
171.09321561529021
  0
ARC
  5
333
  8
0
 10
4135.0201126553247
 20
199.62883791919111
 30
0.0
 40
42.89265874124338
 50
66.16901166683293
 51
95.635128114031048
  0
ARC
  5
334
  8
0
 10
4171.4069582777092
 20
279.01854107387533
 30
0.0
 40
44.446541149773743
 50
244.61168860748251
 51
284.39179450311548
  0
ARC
  5
335
  8
0
 10
4154.3364573871222
 20
330.51293401835159
 30
0.0
 40
98.638639604917046
 50
286.56232004634347
 51
304.90180598688602
  0
ARC
  5
336
  8
0
 10
4233.0481149174411
 20
218.4355726782442
 30
0.0
 40
38.318756796563378
 50
81.031574444311474
 51
125.53968437568589
  0
ARC
  5
337
  8
0
 10
4228.3252613745808
 20
251.69049453077079
 30
0.0
 40
11.64172306495372
 50
23.249284493959721
 51
65.830537735941164
  0
ENDBLK
  5
339
  8
0
 62
     1
  0
BLOCK
  8
0
 62
     1
  2
*U26
 70
     1
 10
0.0
 20
0.0
 30
0.0
  3
*U26
  1

  0
ARC
  5
33B
  8
0
 10
4198.9372664231523
 20
333.54358579156172
 30
0.0
 40
2.2316769170409172
 50
169.81310963335019
 51
245.51712393648791
  0
ARC
  5
33C
  8
0
 10
4223.1468825796264
 20
348.48583601412582
 30
0.0
 40
30.14820428821535
 50
185.6495591754869
 51
208.8510831909247
  0
ARC
  5
33D
  8
0
 10
4187.1826025262644
 20
307.66591380315782
 30
0.0
 40
38.318756796563228
 50
81.048224768439326
 51
125.5396843756951
  0
ARC
  5
33E
  8
0
 10
4108.4709449959464
 20
419.74327514326478
 30
0.0
 40
98.638639604916733
 50
286.56232004634052
 51
304.90180598688232
  0
ARC
  5
33F
  8
0
 10
4125.5414458865343
 20
368.24888219878858
 30
0.0
 40
44.446541149773537
 50
244.6116886074978
 51
284.3917945031094
  0
ARC
  5
340
  8
0
 10
4089.1546002641498
 20
288.85917904410411
 30
0.0
 40
42.892658741243878
 50
66.169011666817241
 51
95.635128114031588
  0
ARC
  5
341
  8
0
 10
4064.3309626753871
 20
285.81881015960028
 30
0.0
 40
50.156685512185867
 50
42.460350494214111
 51
65.735490728716172
  0
ARC
  5
342
  8
0
 10
4098.8858579391072
 20
316.5487778128998
 30
0.0
 40
3.9734140234340738
 50
302.30121512460232
 51
51.969715909759238
  0
ARC
  5
343
  8
0
 10
4113.7138834166381
 20
286.39989307738489
 30
0.0
 40
29.650190519859301
 50
115.3716436664246
 51
140.9527347286635
  0
ARC
  5
344
  8
0
 10
4096.497261707802
 20
339.03981477059779
 30
0.0
 40
34.454927579250459
 50
260.29120356683211
 51
301.78298595976349
  0
ARC
  5
345
  8
0
 10
4123.7676901736968
 20
294.1620573118168
 30
0.0
 40
18.062557138790929
 50
77.01614894302331
 51
120.33616599613239
  0
ARC
  5
346
  8
0
 10
4108.1221833507971
 20
297.03854172193661
 30
0.0
 40
24.597592277817562
 50
23.703479147569869
 51
36.770150315845832
  0
ARC
  5
347
  8
0
 10
4125.8781278938022
 20
296.3056650932279
 30
0.0
 40
11.64172306495359
 50
23.229827112001971
 51
65.83053773594078
  0
ARC
  5
348
  8
0
 10
4170.8182760451
 20
352.4711972115951
 30
0.0
 40
61.906270381644141
 50
236.41798687092421
 51
258.7382530819844
  0
ARC
  5
349
  8
0
 10
4181.7925197744798
 20
297.09121732524568
 30
0.0
 40
23.672835586626292
 50
162.96067320773381
 51
193.0225360750791
  0
ARC
  5
34A
  8
0
 10
4236.3908879384162
 20
399.68878529211821
 30
0.0
 40
122.94621753849
 50
231.08420465688189
 51
246.51208085695049
  0
ARC
  5
34B
  8
0
 10
4207.4202088970569
 20
283.79030220528108
 30
0.0
 40
20.274718304808179
 50
117.463311071532
 51
171.09321561529021
  0
ARC
  5
34C
  8
0
 10
4177.6189134951564
 20
364.11168922595039
 30
0.0
 40
65.600754822102061
 50
288.16468375627568
 51
297.86418234876419
  0
ARC
  5
34D
  8
0
 10
4228.9226197069411
 20
200.09016850764499
 30
0.0
 40
108.0175945862666
 50
97.649166221865755
 51
101.017657898903
  0
ARC
  5
34E
  8
0
 10
4219.7831959926216
 20
308.14096099511852
 30
0.0
 40
5.33200656188066
 50
124.0107347709781
 51
190.7480876477747
  0
ARC
  5
34F
  8
0
 10
4243.9431071400222
 20
358.25821949376922
 30
0.0
 40
53.150338970528793
 50
210.21243506018209
 51
239.29143639062119
  0
ENDBLK
  5
351
  8
0
 62
     1
  0
BLOCK
  8
0
 62
     1
  2
*U27
 70
     1
 10
0.0
 20
0.0
 30
0.0
  3
*U27
  1

  0
ARC
  5
353
  8
0
 10
4267.1509379211784
 20
297.03854172193678
 30
0.0
 40
24.59759227781754
 50
23.703479147569759
 51
36.770150315845747
  0
ARC
  5
354
  8
0
 10
4282.7964447440791
 20
294.1620573118168
 30
0.0
 40
18.06255713879106
 50
77.016148943021989
 51
120.33616599613271
  0
ARC
  5
355
  8
0
 10
4255.5260162781833
 20
339.03981477059779
 30
0.0
 40
34.454927579250338
 50
260.29120356683211
 51
301.7829859597627
  0
ARC
  5
356
  8
0
 10
4272.7426379870194
 20
286.3998930773854
 30
0.0
 40
29.650190519859009
 50
115.37164366642401
 51
140.95273472866339
  0
ARC
  5
357
  8
0
 10
4257.9146125094876
 20
316.54877781289991
 30
0.0
 40
3.9734140234340938
 50
302.30121512460852
 51
51.969715909711603
  0
ARC
  5
358
  8
0
 10
4223.3597172457676
 20
285.81881015960022
 30
0.0
 40
50.156685512186172
 50
42.460350494211028
 51
65.735490728719824
  0
ARC
  5
359
  8
0
 10
4292.972509028019
 20
444.30395585457518
 30
0.0
 40
122.9462175384904
 50
231.08420465688201
 51
246.51208085694921
  0
ARC
  5
35A
  8
0
 10
4238.3741408640826
 20
341.70638788770242
 30
0.0
 40
23.672835586626231
 50
162.96067320773369
 51
193.02253607507899
  0
ARC
  5
35B
  8
0
 10
4227.3998971347019
 20
397.08636777405178
 30
0.0
 40
61.906270381644077
 50
236.4036829862707
 51
258.7382530819844
  0
ARC
  5
35C
  8
0
 10
4223.1468825796264
 20
348.48583601412429
 30
0.0
 40
30.148204288214789
 50
185.64348020259271
 51
208.8510831909216
  0
ARC
  5
35D
  8
0
 10
4198.9372664231523
 20
333.54358579156172
 30
0.0
 40
2.2316769170409052
 50
169.8131096333459
 51
245.51712393648839
  0
ARC
  5
35E
  8
0
 10
4243.9431071400213
 20
358.25821949376927
 30
0.0
 40
53.150338970528701
 50
210.21243506018291
 51
239.2914363906221
  0
ARC
  5
35F
  8
0
 10
4219.7831959926207
 20
308.14096099511818
 30
0.0
 40
5.332006561880835
 50
124.0107347709716
 51
190.74808764777109
  0
ARC
  5
360
  8
0
 10
4228.9226197069411
 20
200.09016850764741
 30
0.0
 40
108.01759458626449
 50
97.649166221865684
 51
101.0176578989028
  0
ARC
  5
361
  8
0
 10
4177.6189134951564
 20
364.11168922594987
 30
0.0
 40
65.600754822101436
 50
288.16468375627801
 51
297.86418234876493
  0
ARC
  5
362
  8
0
 10
4207.4202088970569
 20
283.79030220528102
 30
0.0
 40
20.274718304808282
 50
117.4633110715276
 51
171.09321561529021
  0
ARC
  5
363
  8
0
 10
4191.6017337449284
 20
244.24400848164819
 30
0.0
 40
42.89265874124338
 50
66.16901166683293
 51
95.635128114031048
  0
ARC
  5
364
  8
0
 10
4227.9885793673129
 20
323.63371163633241
 30
0.0
 40
44.446541149773743
 50
244.61168860748251
 51
284.39179450311542
  0
ARC
  5
365
  8
0
 10
4210.918078476725
 20
375.12810458080872
 30
0.0
 40
98.638639604917046
 50
286.56232004634347
 51
304.90180598688602
  0
ARC
  5
366
  8
0
 10
4289.6297360070439
 20
263.05074324070131
 30
0.0
 40
38.318756796563378
 50
81.031574444311474
 51
125.53968437568589
  0
ARC
  5
367
  8
0
 10
4284.9068824641827
 20
296.3056650932279
 30
0.0
 40
11.64172306495372
 50
23.249284493959721
 51
65.830537735941164
  0
ENDBLK
  5
369
  8
0
 62
     1
  0
BLOCK
  8
0
 62
     1
  2
*U28
 70
     1
 10
0.0
 20
0.0
 30
0.0
  3
*U28
  1

  0
ARC
  5
36B
  8
0
 10
4267.1509379211784
 20
297.03854172193678
 30
0.0
 40
24.59759227781754
 50
23.703479147569759
 51
36.770150315845747
  0
ARC
  5
36C
  8
0
 10
4282.7964447440791
 20
294.16205731181691
 30
0.0
 40
18.06255713879106
 50
77.016148943021989
 51
120.33616599613271
  0
ARC
  5
36D
  8
0
 10
4255.5260162781833
 20
339.03981477059779
 30
0.0
 40
34.454927579250338
 50
260.29120356683211
 51
301.7829859597627
  0
ARC
  5
36E
  8
0
 10
4272.7426379870194
 20
286.3998930773854
 30
0.0
 40
29.650190519859009
 50
115.37164366642401
 51
140.95273472866339
  0
ARC
  5
36F
  8
0
 10
4257.9146125094876
 20
316.54877781290003
 30
0.0
 40
3.9734140234340938
 50
302.30121512460818
 51
51.969715909711518
  0
ARC
  5
370
  8
0
 10
4223.3597172457676
 20
285.81881015960022
 30
0.0
 40
50.156685512186172
 50
42.460350494211049
 51
65.735490728719824
  0
ARC
  5
371
  8
0
 10
4292.972509028019
 20
444.30395585457518
 30
0.0
 40
122.9462175384904
 50
231.08420465688201
 51
246.51208085694921
  0
ARC
  5
372
  8
0
 10
4238.3741408640826
 20
341.70638788770248
 30
0.0
 40
23.672835586626231
 50
162.96067320773381
 51
193.02253607507899
  0
ARC
  5
373
  8
0
 10
4227.3998971347019
 20
397.08636777405178
 30
0.0
 40
61.906270381644077
 50
236.4036829862707
 51
258.7382530819844
  0
ARC
  5
374
  8
0
 10
4223.1468825796264
 20
348.4858360141244
 30
0.0
 40
30.148204288214789
 50
185.6434802025928
 51
208.85108319092171
  0
ARC
  5
375
  8
0
 10
4198.9372664231523
 20
333.54358579156178
 30
0.0
 40
2.2316769170409052
 50
169.8131096333473
 51
245.51712393648839
  0
ARC
  5
376
  8
0
 10
4243.9431071400213
 20
358.25821949376927
 30
0.0
 40
53.150338970528701
 50
210.2124350601828
 51
239.29143639062201
  0
ARC
  5
377
  8
0
 10
4219.7831959926207
 20
308.14096099511829
 30
0.0
 40
5.332006561880835
 50
124.0107347709716
 51
190.74808764777109
  0
ARC
  5
378
  8
0
 10
4228.9226197069411
 20
200.09016850764741
 30
0.0
 40
108.01759458626449
 50
97.649166221865684
 51
101.0176578989028
  0
ARC
  5
379
  8
0
 10
4177.6189134951564
 20
364.11168922594987
 30
0.0
 40
65.600754822101436
 50
288.1646837562779
 51
297.86418234876481
  0
ARC
  5
37A
  8
0
 10
4207.4202088970569
 20
283.79030220528108
 30
0.0
 40
20.274718304808282
 50
117.4633110715276
 51
171.09321561529021
  0
ARC
  5
37B
  8
0
 10
4191.6017337449284
 20
244.24400848164819
 30
0.0
 40
42.89265874124338
 50
66.16901166683293
 51
95.635128114031048
  0
ARC
  5
37C
  8
0
 10
4227.9885793673129
 20
323.63371163633241
 30
0.0
 40
44.446541149773743
 50
244.61168860748251
 51
284.39179450311548
  0
ARC
  5
37D
  8
0
 10
4210.918078476725
 20
375.12810458080872
 30
0.0
 40
98.638639604917046
 50
286.56232004634347
 51
304.90180598688602
  0
ARC
  5
37E
  8
0
 10
4289.6297360070439
 20
263.05074324070131
 30
0.0
 40
38.318756796563378
 50
81.031574444311474
 51
125.53968437568589
  0
ARC
  5
37F
  8
0
 10
4284.9068824641827
 20
296.3056650932279
 30
0.0
 40
11.64172306495372
 50
23.249284493959721
 51
65.830537735941164
  0
ENDBLK
  5
381
  8
0
 62
     1
  0
BLOCK
  8
0
 62
     1
  2
*U29
 70
     1
 10
0.0
 20
0.0
 30
0.0
  3
*U29
  1

  0
ARC
  5
383
  8
0
 10
4039.908511852771
 20
333.54358579156172
 30
0.0
 40
2.2316769170409172
 50
169.81310963335019
 51
245.51712393648791
  0
ARC
  5
384
  8
0
 10
4064.1181280092428
 20
348.48583601412582
 30
0.0
 40
30.14820428821535
 50
185.6495591754869
 51
208.8510831909247
  0
ARC
  5
385
  8
0
 10
4028.1538479558822
 20
307.66591380315782
 30
0.0
 40
38.318756796563228
 50
81.048224768439326
 51
125.5396843756951
  0
ARC
  5
386
  8
0
 10
3949.4421904255641
 20
419.74327514326478
 30
0.0
 40
98.638639604916733
 50
286.56232004634052
 51
304.90180598688232
  0
ARC
  5
387
  8
0
 10
3966.512691316153
 20
368.24888219878858
 30
0.0
 40
44.446541149773537
 50
244.6116886074978
 51
284.3917945031094
  0
ARC
  5
388
  8
0
 10
3930.125845693768
 20
288.85917904410411
 30
0.0
 40
42.892658741243878
 50
66.169011666817241
 51
95.635128114031588
  0
ARC
  5
389
  8
0
 10
3905.3022081050049
 20
285.81881015960028
 30
0.0
 40
50.156685512185867
 50
42.460350494214111
 51
65.735490728716172
  0
ARC
  5
38A
  8
0
 10
3939.8571033687258
 20
316.5487778128998
 30
0.0
 40
3.9734140234340738
 50
302.30121512460232
 51
51.969715909759238
  0
ARC
  5
38B
  8
0
 10
3954.6851288462572
 20
286.39989307738489
 30
0.0
 40
29.650190519859301
 50
115.3716436664246
 51
140.9527347286635
  0
ARC
  5
38C
  8
0
 10
3937.4685071374201
 20
339.03981477059779
 30
0.0
 40
34.454927579250459
 50
260.29120356683211
 51
301.78298595976349
  0
ARC
  5
38D
  8
0
 10
3964.7389356033168
 20
294.1620573118168
 30
0.0
 40
18.062557138790929
 50
77.01614894302331
 51
120.33616599613239
  0
ARC
  5
38E
  8
0
 10
3949.0934287804162
 20
297.03854172193661
 30
0.0
 40
24.597592277817562
 50
23.703479147569869
 51
36.770150315845832
  0
ARC
  5
38F
  8
0
 10
3966.84937332342
 20
296.3056650932279
 30
0.0
 40
11.64172306495359
 50
23.229827112001971
 51
65.83053773594078
  0
ARC
  5
390
  8
0
 10
4011.7895214747182
 20
352.4711972115951
 30
0.0
 40
61.906270381644141
 50
236.41798687092421
 51
258.7382530819844
  0
ARC
  5
391
  8
0
 10
4022.763765204098
 20
297.09121732524568
 30
0.0
 40
23.672835586626292
 50
162.96067320773381
 51
193.0225360750791
  0
ARC
  5
392
  8
0
 10
4077.3621333680339
 20
399.68878529211821
 30
0.0
 40
122.94621753849
 50
231.08420465688189
 51
246.51208085695049
  0
ARC
  5
393
  8
0
 10
4048.3914543266751
 20
283.79030220528108
 30
0.0
 40
20.274718304808179
 50
117.463311071532
 51
171.09321561529021
  0
ARC
  5
394
  8
0
 10
4018.5901589247751
 20
364.11168922595039
 30
0.0
 40
65.600754822102061
 50
288.16468375627568
 51
297.86418234876419
  0
ARC
  5
395
  8
0
 10
4069.8938651365611
 20
200.09016850764499
 30
0.0
 40
108.0175945862666
 50
97.649166221865755
 51
101.017657898903
  0
ARC
  5
396
  8
0
 10
4060.7544414222398
 20
308.14096099511852
 30
0.0
 40
5.33200656188066
 50
124.0107347709781
 51
190.7480876477747
  0
ARC
  5
397
  8
0
 10
4084.9143525696409
 20
358.25821949376922
 30
0.0
 40
53.150338970528793
 50
210.21243506018209
 51
239.29143639062119
  0
ENDBLK
  5
399
  8
0
 62
     1
  0
BLOCK
  8
0
 62
     1
  2
*U30
 70
     1
 10
0.0
 20
0.0
 30
0.0
  3
*U30
  1

  0
ARC
  5
39B
  8
0
 10
4108.1221833507971
 20
297.03854172193678
 30
0.0
 40
24.59759227781754
 50
23.703479147569759
 51
36.770150315845747
  0
ARC
  5
39C
  8
0
 10
4123.7676901736968
 20
294.1620573118168
 30
0.0
 40
18.06255713879106
 50
77.016148943021989
 51
120.33616599613271
  0
ARC
  5
39D
  8
0
 10
4096.497261707802
 20
339.03981477059779
 30
0.0
 40
34.454927579250338
 50
260.29120356683211
 51
301.7829859597627
  0
ARC
  5
39E
  8
0
 10
4113.7138834166381
 20
286.3998930773854
 30
0.0
 40
29.650190519859009
 50
115.37164366642401
 51
140.95273472866339
  0
ARC
  5
39F
  8
0
 10
4098.8858579391072
 20
316.54877781289991
 30
0.0
 40
3.9734140234340938
 50
302.30121512460852
 51
51.969715909711603
  0
ARC
  5
3A0
  8
0
 10
4064.3309626753871
 20
285.81881015960022
 30
0.0
 40
50.156685512186172
 50
42.460350494211028
 51
65.735490728719824
  0
ARC
  5
3A1
  8
0
 10
4133.9437544576376
 20
444.30395585457518
 30
0.0
 40
122.9462175384904
 50
231.08420465688201
 51
246.51208085694921
  0
ARC
  5
3A2
  8
0
 10
4079.3453862937008
 20
341.70638788770242
 30
0.0
 40
23.672835586626231
 50
162.96067320773369
 51
193.02253607507899
  0
ARC
  5
3A3
  8
0
 10
4068.3711425643219
 20
397.08636777405178
 30
0.0
 40
61.906270381644077
 50
236.4036829862707
 51
258.7382530819844
  0
ARC
  5
3A4
  8
0
 10
4064.1181280092428
 20
348.48583601412429
 30
0.0
 40
30.148204288214789
 50
185.64348020259271
 51
208.8510831909216
  0
ARC
  5
3A5
  8
0
 10
4039.908511852771
 20
333.54358579156172
 30
0.0
 40
2.2316769170409052
 50
169.8131096333459
 51
245.51712393648839
  0
ARC
  5
3A6
  8
0
 10
4084.914352569639
 20
358.25821949376927
 30
0.0
 40
53.150338970528701
 50
210.21243506018291
 51
239.2914363906221
  0
ARC
  5
3A7
  8
0
 10
4060.7544414222389
 20
308.14096099511818
 30
0.0
 40
5.332006561880835
 50
124.0107347709716
 51
190.74808764777109
  0
ARC
  5
3A8
  8
0
 10
4069.8938651365602
 20
200.09016850764741
 30
0.0
 40
108.01759458626449
 50
97.649166221865684
 51
101.0176578989028
  0
ARC
  5
3A9
  8
0
 10
4018.5901589247742
 20
364.11168922594987
 30
0.0
 40
65.600754822101436
 50
288.16468375627801
 51
297.86418234876493
  0
ARC
  5
3AA
  8
0
 10
4048.391454326676
 20
283.79030220528102
 30
0.0
 40
20.274718304808282
 50
117.4633110715276
 51
171.09321561529021
  0
ARC
  5
3AB
  8
0
 10
4032.5729791745471
 20
244.24400848164819
 30
0.0
 40
42.89265874124338
 50
66.16901166683293
 51
95.635128114031048
  0
ARC
  5
3AC
  8
0
 10
4068.9598247969311
 20
323.63371163633241
 30
0.0
 40
44.446541149773743
 50
244.61168860748251
 51
284.39179450311542
  0
ARC
  5
3AD
  8
0
 10
4051.8893239063432
 20
375.12810458080872
 30
0.0
 40
98.638639604917046
 50
286.56232004634347
 51
304.90180598688602
  0
ARC
  5
3AE
  8
0
 10
4130.6009814366607
 20
263.05074324070131
 30
0.0
 40
38.318756796563378
 50
81.031574444311474
 51
125.53968437568589
  0
ARC
  5
3AF
  8
0
 10
4125.8781278938022
 20
296.3056650932279
 30
0.0
 40
11.64172306495372
 50
23.249284493959721
 51
65.830537735941164
  0
ENDBLK
  5
3B1
  8
0
 62
     1
  0
BLOCK
  8
0
 62
     1
  2
*U31
 70
     1
 10
0.0
 20
0.0
 30
0.0
  3
*U31
  1

  0
ARC
  5
3B3
  8
0
 10
4108.1221833507971
 20
297.03854172193678
 30
0.0
 40
24.59759227781754
 50
23.703479147569759
 51
36.770150315845747
  0
ARC
  5
3B4
  8
0
 10
4123.7676901736968
 20
294.16205731181691
 30
0.0
 40
18.06255713879106
 50
77.016148943021989
 51
120.33616599613271
  0
ARC
  5
3B5
  8
0
 10
4096.497261707802
 20
339.03981477059779
 30
0.0
 40
34.454927579250338
 50
260.29120356683211
 51
301.7829859597627
  0
ARC
  5
3B6
  8
0
 10
4113.7138834166381
 20
286.3998930773854
 30
0.0
 40
29.650190519859009
 50
115.37164366642401
 51
140.95273472866339
  0
ARC
  5
3B7
  8
0
 10
4098.8858579391072
 20
316.54877781290003
 30
0.0
 40
3.9734140234340938
 50
302.30121512460818
 51
51.969715909711518
  0
ARC
  5
3B8
  8
0
 10
4064.3309626753871
 20
285.81881015960022
 30
0.0
 40
50.156685512186172
 50
42.460350494211049
 51
65.735490728719824
  0
ARC
  5
3B9
  8
0
 10
4133.9437544576376
 20
444.30395585457518
 30
0.0
 40
122.9462175384904
 50
231.08420465688201
 51
246.51208085694921
  0
ARC
  5
3BA
  8
0
 10
4079.3453862937008
 20
341.70638788770248
 30
0.0
 40
23.672835586626231
 50
162.96067320773381
 51
193.02253607507899
  0
ARC
  5
3BB
  8
0
 10
4068.3711425643219
 20
397.08636777405178
 30
0.0
 40
61.906270381644077
 50
236.4036829862707
 51
258.7382530819844
  0
ARC
  5
3BC
  8
0
 10
4064.1181280092428
 20
348.4858360141244
 30
0.0
 40
30.148204288214789
 50
185.6434802025928
 51
208.85108319092171
  0
ARC
  5
3BD
  8
0
 10
4039.908511852771
 20
333.54358579156178
 30
0.0
 40
2.2316769170409052
 50
169.8131096333473
 51
245.51712393648839
  0
ARC
  5
3BE
  8
0
 10
4084.914352569639
 20
358.25821949376927
 30
0.0
 40
53.150338970528701
 50
210.2124350601828
 51
239.29143639062201
  0
ARC
  5
3BF
  8
0
 10
4060.7544414222389
 20
308.14096099511829
 30
0.0
 40
5.332006561880835
 50
124.0107347709716
 51
190.74808764777109
  0
ARC
  5
3C0
  8
0
 10
4069.8938651365602
 20
200.09016850764741
 30
0.0
 40
108.01759458626449
 50
97.649166221865684
 51
101.0176578989028
  0
ARC
  5
3C1
  8
0
 10
4018.5901589247742
 20
364.11168922594987
 30
0.0
 40
65.600754822101436
 50
288.1646837562779
 51
297.86418234876481
  0
ARC
  5
3C2
  8
0
 10
4048.391454326676
 20
283.79030220528108
 30
0.0
 40
20.274718304808282
 50
117.4633110715276
 51
171.09321561529021
  0
ARC
  5
3C3
  8
0
 10
4032.5729791745471
 20
244.24400848164819
 30
0.0
 40
42.89265874124338
 50
66.16901166683293
 51
95.635128114031048
  0
ARC
  5
3C4
  8
0
 10
4068.9598247969311
 20
323.63371163633241
 30
0.0
 40
44.446541149773743
 50
244.61168860748251
 51
284.39179450311548
  0
ARC
  5
3C5
  8
0
 10
4051.8893239063432
 20
375.12810458080872
 30
0.0
 40
98.638639604917046
 50
286.56232004634347
 51
304.90180598688602
  0
ARC
  5
3C6
  8
0
 10
4130.6009814366607
 20
263.05074324070131
 30
0.0
 40
38.318756796563378
 50
81.031574444311474
 51
125.53968437568589
  0
ARC
  5
3C7
  8
0
 10
4125.8781278938022
 20
296.3056650932279
 30
0.0
 40
11.64172306495372
 50
23.249284493959721
 51
65.830537735941164
  0
ENDBLK
  5
3C9
  8
0
 62
     1
  0
BLOCK
  8
0
 62
     1
  2
*U32
 70
     1
 10
0.0
 20
0.0
 30
0.0
  3
*U32
  1

  0
ARC
  5
3CB
  8
0
 10
4096.4901329423728
 20
378.15875635401881
 30
0.0
 40
2.2316769170409172
 50
169.81310963335019
 51
245.51712393648791
  0
ARC
  5
3CC
  8
0
 10
4120.699749098846
 20
393.10100657658279
 30
0.0
 40
30.14820428821535
 50
185.6495591754869
 51
208.8510831909247
  0
ARC
  5
3CD
  8
0
 10
4084.7354690454858
 20
352.2810843656149
 30
0.0
 40
38.318756796563228
 50
81.048224768439326
 51
125.5396843756951
  0
ARC
  5
3CE
  8
0
 10
4006.023811515166
 20
464.35844570572198
 30
0.0
 40
98.638639604916733
 50
286.56232004634052
 51
304.90180598688232
  0
ARC
  5
3CF
  8
0
 10
4023.0943124057549
 20
412.86405276124572
 30
0.0
 40
44.446541149773537
 50
244.6116886074978
 51
284.3917945031094
  0
ARC
  5
3D0
  8
0
 10
3986.7074667833708
 20
333.47434960656119
 30
0.0
 40
42.892658741243878
 50
66.169011666817241
 51
95.635128114031588
  0
ARC
  5
3D1
  8
0
 10
3961.8838291946081
 20
330.43398072205741
 30
0.0
 40
50.156685512185867
 50
42.460350494214111
 51
65.735490728716172
  0
ARC
  5
3D2
  8
0
 10
3996.438724458329
 20
361.16394837535688
 30
0.0
 40
3.9734140234340738
 50
302.30121512460232
 51
51.969715909759238
  0
ARC
  5
3D3
  8
0
 10
4011.266749935859
 20
331.01506363984203
 30
0.0
 40
29.650190519859301
 50
115.3716436664246
 51
140.9527347286635
  0
ARC
  5
3D4
  8
0
 10
3994.0501282270229
 20
383.65498533305492
 30
0.0
 40
34.454927579250459
 50
260.29120356683211
 51
301.78298595976349
  0
ARC
  5
3D5
  8
0
 10
4021.3205566929191
 20
338.77722787427399
 30
0.0
 40
18.062557138790929
 50
77.01614894302331
 51
120.33616599613239
  0
ARC
  5
3D6
  8
0
 10
4005.675049870018
 20
341.65371228439369
 30
0.0
 40
24.597592277817562
 50
23.703479147569869
 51
36.770150315845832
  0
ARC
  5
3D7
  8
0
 10
4023.4309944130232
 20
340.92083565568498
 30
0.0
 40
11.64172306495359
 50
23.229827112001971
 51
65.83053773594078
  0
ARC
  5
3D8
  8
0
 10
4068.3711425643219
 20
397.08636777405218
 30
0.0
 40
61.906270381644141
 50
236.41798687092421
 51
258.7382530819844
  0
ARC
  5
3D9
  8
0
 10
4079.3453862937008
 20
341.70638788770282
 30
0.0
 40
23.672835586626292
 50
162.96067320773381
 51
193.0225360750791
  0
ARC
  5
3DA
  8
0
 10
4133.9437544576376
 20
444.30395585457518
 30
0.0
 40
122.94621753849
 50
231.08420465688189
 51
246.51208085695049
  0
ARC
  5
3DB
  8
0
 10
4104.9730754162783
 20
328.40547276773822
 30
0.0
 40
20.274718304808179
 50
117.463311071532
 51
171.09321561529021
  0
ARC
  5
3DC
  8
0
 10
4075.171780014377
 20
408.72685978840752
 30
0.0
 40
65.600754822102061
 50
288.16468375627568
 51
297.86418234876419
  0
ARC
  5
3DD
  8
0
 10
4126.4754862261634
 20
244.7053390701021
 30
0.0
 40
108.0175945862666
 50
97.649166221865755
 51
101.017657898903
  0
ARC
  5
3DE
  8
0
 10
4117.336062511843
 20
352.7561315575756
 30
0.0
 40
5.33200656188066
 50
124.0107347709781
 51
190.7480876477747
  0
ARC
  5
3DF
  8
0
 10
4141.4959736592427
 20
402.87339005622619
 30
0.0
 40
53.150338970528793
 50
210.21243506018209
 51
239.29143639062119
  0
ENDBLK
  5
3E1
  8
0
 62
     1
  0
BLOCK
  8
0
 62
     1
  2
*U33
 70
     1
 10
0.0
 20
0.0
 30
0.0
  3
*U33
  1

  0
ARC
  5
3E3
  8
0
 10
4255.5188875127551
 20
378.15875635401881
 30
0.0
 40
2.2316769170409172
 50
169.81310963335019
 51
245.51712393648791
  0
ARC
  5
3E4
  8
0
 10
4279.7285036692283
 20
393.10100657658279
 30
0.0
 40
30.14820428821535
 50
185.6495591754869
 51
208.8510831909247
  0
ARC
  5
3E5
  8
0
 10
4243.7642236158672
 20
352.2810843656149
 30
0.0
 40
38.318756796563228
 50
81.048224768439326
 51
125.5396843756951
  0
ARC
  5
3E6
  8
0
 10
4165.0525660855492
 20
464.35844570572198
 30
0.0
 40
98.638639604916733
 50
286.56232004634052
 51
304.90180598688232
  0
ARC
  5
3E7
  8
0
 10
4182.1230669761371
 20
412.86405276124572
 30
0.0
 40
44.446541149773537
 50
244.6116886074978
 51
284.3917945031094
  0
ARC
  5
3E8
  8
0
 10
4145.7362213537526
 20
333.47434960656119
 30
0.0
 40
42.892658741243878
 50
66.169011666817241
 51
95.635128114031588
  0
ARC
  5
3E9
  8
0
 10
4120.912583764989
 20
330.43398072205741
 30
0.0
 40
50.156685512185867
 50
42.460350494214111
 51
65.735490728716172
  0
ARC
  5
3EA
  8
0
 10
4155.4674790287099
 20
361.16394837535688
 30
0.0
 40
3.9734140234340738
 50
302.30121512460232
 51
51.969715909759238
  0
ARC
  5
3EB
  8
0
 10
4170.2955045062408
 20
331.01506363984203
 30
0.0
 40
29.650190519859301
 50
115.3716436664246
 51
140.9527347286635
  0
ARC
  5
3EC
  8
0
 10
4153.0788827974038
 20
383.65498533305492
 30
0.0
 40
34.454927579250459
 50
260.29120356683211
 51
301.78298595976349
  0
ARC
  5
3ED
  8
0
 10
4180.3493112633014
 20
338.77722787427399
 30
0.0
 40
18.062557138790929
 50
77.01614894302331
 51
120.33616599613239
  0
ARC
  5
3EE
  8
0
 10
4164.7038044403989
 20
341.65371228439369
 30
0.0
 40
24.597592277817562
 50
23.703479147569869
 51
36.770150315845832
  0
ARC
  5
3EF
  8
0
 10
4182.4597489834041
 20
340.92083565568498
 30
0.0
 40
11.64172306495359
 50
23.229827112001971
 51
65.83053773594078
  0
ARC
  5
3F0
  8
0
 10
4227.3998971347019
 20
397.08636777405218
 30
0.0
 40
61.906270381644141
 50
236.41798687092421
 51
258.7382530819844
  0
ARC
  5
3F1
  8
0
 10
4238.3741408640826
 20
341.70638788770282
 30
0.0
 40
23.672835586626292
 50
162.96067320773381
 51
193.0225360750791
  0
ARC
  5
3F2
  8
0
 10
4292.972509028019
 20
444.30395585457518
 30
0.0
 40
122.94621753849
 50
231.08420465688189
 51
246.51208085695049
  0
ARC
  5
3F3
  8
0
 10
4264.0018299866597
 20
328.40547276773822
 30
0.0
 40
20.274718304808179
 50
117.463311071532
 51
171.09321561529021
  0
ARC
  5
3F4
  8
0
 10
4234.2005345847592
 20
408.72685978840752
 30
0.0
 40
65.600754822102061
 50
288.16468375627568
 51
297.86418234876419
  0
ARC
  5
3F5
  8
0
 10
4285.5042407965439
 20
244.7053390701021
 30
0.0
 40
108.0175945862666
 50
97.649166221865755
 51
101.017657898903
  0
ARC
  5
3F6
  8
0
 10
4276.3648170822253
 20
352.7561315575756
 30
0.0
 40
5.33200656188066
 50
124.0107347709781
 51
190.7480876477747
  0
ARC
  5
3F7
  8
0
 10
4300.5247282296259
 20
402.87339005622619
 30
0.0
 40
53.150338970528793
 50
210.21243506018209
 51
239.29143639062119
  0
ENDBLK
  5
3F9
  8
0
 62
     1
  0
BLOCK
  8
0
 62
     1
  2
*U34
 70
     1
 10
0.0
 20
0.0
 30
0.0
  3
*U34
  1

  0
ARC
  5
3FB
  8
0
 10
4368.6821296919597
 20
467.38909747893229
 30
0.0
 40
2.2316769170409172
 50
169.81310963335019
 51
245.51712393648791
  0
ARC
  5
3FC
  8
0
 10
4392.8917458484339
 20
482.33134770149633
 30
0.0
 40
30.14820428821535
 50
185.6495591754869
 51
208.8510831909247
  0
ARC
  5
3FD
  8
0
 10
4356.9274657950727
 20
441.51142549052832
 30
0.0
 40
38.318756796563228
 50
81.048224768439326
 51
125.5396843756951
  0
ARC
  5
3FE
  8
0
 10
4278.2158082647547
 20
553.58878683063529
 30
0.0
 40
98.638639604916733
 50
286.56232004634052
 51
304.90180598688232
  0
ARC
  5
3FF
  8
0
 10
4295.2863091553427
 20
502.09439388615908
 30
0.0
 40
44.446541149773537
 50
244.6116886074978
 51
284.3917945031094
  0
ARC
  5
400
  8
0
 10
4258.8994635329582
 20
422.70469073147461
 30
0.0
 40
42.892658741243878
 50
66.169011666817241
 51
95.635128114031588
  0
ARC
  5
401
  8
0
 10
4234.0758259441945
 20
419.66432184697078
 30
0.0
 40
50.156685512185867
 50
42.460350494214111
 51
65.735490728716172
  0
ARC
  5
402
  8
0
 10
4268.6307212079146
 20
450.3942895002703
 30
0.0
 40
3.9734140234340738
 50
302.30121512460232
 51
51.969715909759238
  0
ARC
  5
403
  8
0
 10
4283.4587466854464
 20
420.24540476475539
 30
0.0
 40
29.650190519859301
 50
115.3716436664246
 51
140.9527347286635
  0
ARC
  5
404
  8
0
 10
4266.2421249766103
 20
472.88532645796829
 30
0.0
 40
34.454927579250459
 50
260.29120356683211
 51
301.78298595976349
  0
ARC
  5
405
  8
0
 10
4293.512553442506
 20
428.00756899918741
 30
0.0
 40
18.062557138790929
 50
77.01614894302331
 51
120.33616599613239
  0
ARC
  5
406
  8
0
 10
4277.8670466196054
 20
430.88405340930711
 30
0.0
 40
24.597592277817562
 50
23.703479147569869
 51
36.770150315845832
  0
ARC
  5
407
  8
0
 10
4295.6229911626097
 20
430.15117678059841
 30
0.0
 40
11.64172306495359
 50
23.229827112001971
 51
65.83053773594078
  0
ARC
  5
408
  8
0
 10
4340.5631393139083
 20
486.3167088989656
 30
0.0
 40
61.906270381644141
 50
236.41798687092421
 51
258.7382530819844
  0
ARC
  5
409
  8
0
 10
4351.5373830432891
 20
430.9367290126163
 30
0.0
 40
23.672835586626292
 50
162.96067320773381
 51
193.0225360750791
  0
ARC
  5
40A
  8
0
 10
4406.1357512072254
 20
533.53429697948866
 30
0.0
 40
122.94621753849
 50
231.08420465688189
 51
246.51208085695049
  0
ARC
  5
40B
  8
0
 10
4377.1650721658652
 20
417.63581389265158
 30
0.0
 40
20.274718304808179
 50
117.463311071532
 51
171.09321561529021
  0
ARC
  5
40C
  8
0
 10
4347.3637767639648
 20
497.95720091332089
 30
0.0
 40
65.600754822102061
 50
288.16468375627568
 51
297.86418234876419
  0
ARC
  5
40D
  8
0
 10
4398.6674829757503
 20
333.93568019501561
 30
0.0
 40
108.0175945862666
 50
97.649166221865755
 51
101.017657898903
  0
ARC
  5
40E
  8
0
 10
4389.5280592614299
 20
441.98647268248902
 30
0.0
 40
5.33200656188066
 50
124.0107347709781
 51
190.7480876477747
  0
ARC
  5
40F
  8
0
 10
4413.6879704088306
 20
492.10373118113972
 30
0.0
 40
53.150338970528793
 50
210.21243506018209
 51
239.29143639062119
  0
ENDBLK
  5
411
  8
0
 62
     1
  0
BLOCK
  8
0
 62
     1
  2
*U35
 70
     1
 10
0.0
 20
0.0
 30
0.0
  3
*U35
  1

  0
ARC
  5
413
  8
0
 10
4209.6533751215793
 20
467.38909747893229
 30
0.0
 40
2.2316769170409172
 50
169.81310963335019
 51
245.51712393648791
  0
ARC
  5
414
  8
0
 10
4233.8629912780507
 20
482.33134770149633
 30
0.0
 40
30.14820428821535
 50
185.6495591754869
 51
208.8510831909247
  0
ARC
  5
415
  8
0
 10
4197.8987112246914
 20
441.51142549052832
 30
0.0
 40
38.318756796563228
 50
81.048224768439326
 51
125.5396843756951
  0
ARC
  5
416
  8
0
 10
4119.1870536943716
 20
553.58878683063529
 30
0.0
 40
98.638639604916733
 50
286.56232004634052
 51
304.90180598688232
  0
ARC
  5
417
  8
0
 10
4136.2575545849613
 20
502.09439388615908
 30
0.0
 40
44.446541149773537
 50
244.6116886074978
 51
284.3917945031094
  0
ARC
  5
418
  8
0
 10
4099.8707089625759
 20
422.70469073147461
 30
0.0
 40
42.892658741243878
 50
66.169011666817241
 51
95.635128114031588
  0
ARC
  5
419
  8
0
 10
4075.0470713738141
 20
419.66432184697078
 30
0.0
 40
50.156685512185867
 50
42.460350494214111
 51
65.735490728716172
  0
ARC
  5
41A
  8
0
 10
4109.6019666375341
 20
450.3942895002703
 30
0.0
 40
3.9734140234340738
 50
302.30121512460232
 51
51.969715909759238
  0
ARC
  5
41B
  8
0
 10
4124.4299921150641
 20
420.24540476475539
 30
0.0
 40
29.650190519859301
 50
115.3716436664246
 51
140.9527347286635
  0
ARC
  5
41C
  8
0
 10
4107.213370406228
 20
472.88532645796829
 30
0.0
 40
34.454927579250459
 50
260.29120356683211
 51
301.78298595976349
  0
ARC
  5
41D
  8
0
 10
4134.4837988721238
 20
428.00756899918741
 30
0.0
 40
18.062557138790929
 50
77.01614894302331
 51
120.33616599613239
  0
ARC
  5
41E
  8
0
 10
4118.838292049224
 20
430.88405340930711
 30
0.0
 40
24.597592277817562
 50
23.703479147569869
 51
36.770150315845832
  0
ARC
  5
41F
  8
0
 10
4136.5942365922292
 20
430.15117678059841
 30
0.0
 40
11.64172306495359
 50
23.229827112001971
 51
65.83053773594078
  0
ARC
  5
420
  8
0
 10
4181.534384743527
 20
486.3167088989656
 30
0.0
 40
61.906270381644141
 50
236.41798687092421
 51
258.7382530819844
  0
ARC
  5
421
  8
0
 10
4192.5086284729059
 20
430.9367290126163
 30
0.0
 40
23.672835586626292
 50
162.96067320773381
 51
193.0225360750791
  0
ARC
  5
422
  8
0
 10
4247.1069966368432
 20
533.53429697948866
 30
0.0
 40
122.94621753849
 50
231.08420465688189
 51
246.51208085695049
  0
ARC
  5
423
  8
0
 10
4218.1363175954839
 20
417.63581389265158
 30
0.0
 40
20.274718304808179
 50
117.463311071532
 51
171.09321561529021
  0
ARC
  5
424
  8
0
 10
4188.3350221935834
 20
497.95720091332089
 30
0.0
 40
65.600754822102061
 50
288.16468375627568
 51
297.86418234876419
  0
ARC
  5
425
  8
0
 10
4239.638728405369
 20
333.93568019501561
 30
0.0
 40
108.0175945862666
 50
97.649166221865755
 51
101.017657898903
  0
ARC
  5
426
  8
0
 10
4230.4993046910486
 20
441.98647268248902
 30
0.0
 40
5.33200656188066
 50
124.0107347709781
 51
190.7480876477747
  0
ARC
  5
427
  8
0
 10
4254.6592158384492
 20
492.10373118113972
 30
0.0
 40
53.150338970528793
 50
210.21243506018209
 51
239.29143639062119
  0
ENDBLK
  5
429
  8
0
 62
     1
  0
BLOCK
  8
0
 62
     1
  2
*U36
 70
     1
 10
0.0
 20
0.0
 30
0.0
  3
*U36
  1

  0
ARC
  5
42B
  8
0
 10
4153.0717540319756
 20
422.7739269164756
 30
0.0
 40
2.2316769170409172
 50
169.81310963335019
 51
245.51712393648791
  0
ARC
  5
42C
  8
0
 10
4177.2813701884479
 20
437.7161771390397
 30
0.0
 40
30.14820428821535
 50
185.6495591754869
 51
208.8510831909247
  0
ARC
  5
42D
  8
0
 10
4141.3170901350877
 20
396.89625492807181
 30
0.0
 40
38.318756796563228
 50
81.048224768439326
 51
125.5396843756951
  0
ARC
  5
42E
  8
0
 10
4062.6054326047702
 20
508.97361626817889
 30
0.0
 40
98.638639604916733
 50
286.56232004634052
 51
304.90180598688232
  0
ARC
  5
42F
  8
0
 10
4079.6759334953581
 20
457.47922332370263
 30
0.0
 40
44.446541149773537
 50
244.6116886074978
 51
284.3917945031094
  0
ARC
  5
430
  8
0
 10
4043.2890878729731
 20
378.0895201690181
 30
0.0
 40
42.892658741243878
 50
66.169011666817241
 51
95.635128114031588
  0
ARC
  5
431
  8
0
 10
4018.46545028421
 20
375.04915128451432
 30
0.0
 40
50.156685512185867
 50
42.460350494214111
 51
65.735490728716172
  0
ARC
  5
432
  8
0
 10
4053.0203455479309
 20
405.77911893781368
 30
0.0
 40
3.9734140234340738
 50
302.30121512460232
 51
51.969715909759238
  0
ARC
  5
433
  8
0
 10
4067.8483710254618
 20
375.63023420229888
 30
0.0
 40
29.650190519859301
 50
115.3716436664246
 51
140.9527347286635
  0
ARC
  5
434
  8
0
 10
4050.6317493166239
 20
428.27015589551178
 30
0.0
 40
34.454927579250459
 50
260.29120356683211
 51
301.78298595976349
  0
ARC
  5
435
  8
0
 10
4077.902177782521
 20
383.39239843673079
 30
0.0
 40
18.062557138790929
 50
77.01614894302331
 51
120.33616599613239
  0
ARC
  5
436
  8
0
 10
4062.2566709596208
 20
386.2688828468506
 30
0.0
 40
24.597592277817562
 50
23.703479147569869
 51
36.770150315845832
  0
ARC
  5
437
  8
0
 10
4080.0126155026251
 20
385.53600621814189
 30
0.0
 40
11.64172306495359
 50
23.229827112001971
 51
65.83053773594078
  0
ARC
  5
438
  8
0
 10
4124.9527636539242
 20
441.70153833650897
 30
0.0
 40
61.906270381644141
 50
236.41798687092421
 51
258.7382530819844
  0
ARC
  5
439
  8
0
 10
4135.9270073833031
 20
386.32155845015973
 30
0.0
 40
23.672835586626292
 50
162.96067320773381
 51
193.0225360750791
  0
ARC
  5
43A
  8
0
 10
4190.5253755472413
 20
488.91912641703209
 30
0.0
 40
122.94621753849
 50
231.08420465688189
 51
246.51208085695049
  0
ARC
  5
43B
  8
0
 10
4161.5546965058811
 20
373.02064333019518
 30
0.0
 40
20.274718304808179
 50
117.463311071532
 51
171.09321561529021
  0
ARC
  5
43C
  8
0
 10
4131.7534011039797
 20
453.34203035086438
 30
0.0
 40
65.600754822102061
 50
288.16468375627568
 51
297.86418234876419
  0
ARC
  5
43D
  8
0
 10
4183.0571073157662
 20
289.32050963255909
 30
0.0
 40
108.0175945862666
 50
97.649166221865755
 51
101.017657898903
  0
ARC
  5
43E
  8
0
 10
4173.9176836014449
 20
397.37130212003251
 30
0.0
 40
5.33200656188066
 50
124.0107347709781
 51
190.7480876477747
  0
ARC
  5
43F
  8
0
 10
4198.0775947488473
 20
447.4885606186831
 30
0.0
 40
53.150338970528793
 50
210.21243506018209
 51
239.29143639062119
  0
ENDBLK
  5
441
  8
0
 62
     1
  0
BLOCK
  8
0
 62
     1
  2
*U37
 70
     1
 10
0.0
 20
0.0
 30
0.0
  3
*U37
  1

  0
ARC
  5
443
  8
0
 10
4312.1005086023579
 20
422.77392691647549
 30
0.0
 40
2.2316769170409172
 50
169.81310963335019
 51
245.51712393648791
  0
ARC
  5
444
  8
0
 10
4336.3101247588302
 20
437.71617713903959
 30
0.0
 40
30.14820428821535
 50
185.6495591754869
 51
208.8510831909247
  0
ARC
  5
445
  8
0
 10
4300.34584470547
 20
396.89625492807158
 30
0.0
 40
38.318756796563228
 50
81.048224768439326
 51
125.5396843756951
  0
ARC
  5
446
  8
0
 10
4221.6341871751511
 20
508.97361626817872
 30
0.0
 40
98.638639604916733
 50
286.56232004634052
 51
304.90180598688232
  0
ARC
  5
447
  8
0
 10
4238.7046880657399
 20
457.4792233237024
 30
0.0
 40
44.446541149773537
 50
244.6116886074978
 51
284.3917945031094
  0
ARC
  5
448
  8
0
 10
4202.3178424433554
 20
378.08952016901787
 30
0.0
 40
42.892658741243878
 50
66.169011666817241
 51
95.635128114031588
  0
ARC
  5
449
  8
0
 10
4177.4942048545927
 20
375.04915128451421
 30
0.0
 40
50.156685512185867
 50
42.460350494214111
 51
65.735490728716172
  0
ARC
  5
44A
  8
0
 10
4212.0491001183127
 20
405.77911893781362
 30
0.0
 40
3.9734140234340738
 50
302.30121512460232
 51
51.969715909759238
  0
ARC
  5
44B
  8
0
 10
4226.8771255958427
 20
375.63023420229871
 30
0.0
 40
29.650190519859301
 50
115.3716436664246
 51
140.9527347286635
  0
ARC
  5
44C
  8
0
 10
4209.6605038870066
 20
428.27015589551161
 30
0.0
 40
34.454927579250459
 50
260.29120356683211
 51
301.78298595976349
  0
ARC
  5
44D
  8
0
 10
4236.9309323529033
 20
383.39239843673067
 30
0.0
 40
18.062557138790929
 50
77.01614894302331
 51
120.33616599613239
  0
ARC
  5
44E
  8
0
 10
4221.2854255300026
 20
386.26888284685037
 30
0.0
 40
24.597592277817562
 50
23.703479147569869
 51
36.770150315845832
  0
ARC
  5
44F
  8
0
 10
4239.0413700730078
 20
385.53600621814178
 30
0.0
 40
11.64172306495359
 50
23.229827112001971
 51
65.83053773594078
  0
ARC
  5
450
  8
0
 10
4283.9815182243046
 20
441.70153833650892
 30
0.0
 40
61.906270381644141
 50
236.41798687092421
 51
258.7382530819844
  0
ARC
  5
451
  8
0
 10
4294.9557619536854
 20
386.32155845015961
 30
0.0
 40
23.672835586626292
 50
162.96067320773381
 51
193.0225360750791
  0
ARC
  5
452
  8
0
 10
4349.5541301176208
 20
488.91912641703192
 30
0.0
 40
122.94621753849
 50
231.08420465688189
 51
246.51208085695049
  0
ARC
  5
453
  8
0
 10
4320.5834510762634
 20
373.02064333019501
 30
0.0
 40
20.274718304808179
 50
117.463311071532
 51
171.09321561529021
  0
ARC
  5
454
  8
0
 10
4290.782155674362
 20
453.34203035086421
 30
0.0
 40
65.600754822102061
 50
288.16468375627568
 51
297.86418234876419
  0
ARC
  5
455
  8
0
 10
4342.0858618861466
 20
289.32050963255892
 30
0.0
 40
108.0175945862666
 50
97.649166221865755
 51
101.017657898903
  0
ARC
  5
456
  8
0
 10
4332.946438171828
 20
397.37130212003228
 30
0.0
 40
5.33200656188066
 50
124.0107347709781
 51
190.7480876477747
  0
ARC
  5
457
  8
0
 10
4357.1063493192287
 20
447.48856061868298
 30
0.0
 40
53.150338970528793
 50
210.21243506018209
 51
239.29143639062119
  0
ENDBLK
  5
459
  8
0
 62
     1
  0
BLOCK
  8
0
 62
     1
  2
*U38
 70
     1
 10
0.0
 20
0.0
 30
0.0
  3
*U38
  1

  0
ARC
  5
45B
  8
0
 10
4436.8958011899877
 20
430.88405340930711
 30
0.0
 40
24.59759227781754
 50
23.703479147570189
 51
36.770150315846273
  0
ARC
  5
45C
  8
0
 10
4452.5413080128883
 20
428.00756899918707
 30
0.0
 40
18.06255713879106
 50
77.016148943021946
 51
120.33616599613271
  0
ARC
  5
45D
  8
0
 10
4425.2708795469907
 20
472.88532645796801
 30
0.0
 40
34.454927579250338
 50
260.29120356683359
 51
301.78298595976332
  0
ARC
  5
45E
  8
0
 10
4442.4875012558277
 20
420.24540476475551
 30
0.0
 40
29.650190519859009
 50
115.37164366642391
 51
140.9527347286629
  0
ARC
  5
45F
  8
0
 10
4427.6594757782959
 20
450.39428950027008
 30
0.0
 40
3.9734140234340938
 50
302.30121512460869
 51
51.969715909711603
  0
ARC
  5
460
  8
0
 10
4393.1045805145759
 20
419.66432184697032
 30
0.0
 40
50.156685512186172
 50
42.460350494211049
 51
65.735490728719356
  0
ARC
  5
461
  8
0
 10
4462.7173722968273
 20
578.14946754194546
 30
0.0
 40
122.9462175384904
 50
231.08420465688201
 51
246.51208085694941
  0
ARC
  5
462
  8
0
 10
4408.119004132891
 20
475.55189957507258
 30
0.0
 40
23.672835586626231
 50
162.960673207734
 51
193.02253607507879
  0
ARC
  5
463
  8
0
 10
4397.1447604035111
 20
530.93187946142189
 30
0.0
 40
61.906270381644077
 50
236.40368298627101
 51
258.7382530819844
  0
ARC
  5
464
  8
0
 10
4392.8917458484339
 20
482.33134770149451
 30
0.0
 40
30.148204288214789
 50
185.64348020259291
 51
208.851083190922
  0
ARC
  5
465
  8
0
 10
4368.6821296919597
 20
467.38909747893189
 30
0.0
 40
2.2316769170409052
 50
169.8131096333459
 51
245.51712393648839
  0
ARC
  5
466
  8
0
 10
4413.6879704088287
 20
492.10373118113949
 30
0.0
 40
53.150338970528701
 50
210.21243506018291
 51
239.29143639062201
  0
ARC
  5
467
  8
0
 10
4389.5280592614299
 20
441.98647268248851
 30
0.0
 40
5.332006561880835
 50
124.0107347709757
 51
190.7480876477693
  0
ARC
  5
468
  8
0
 10
4398.6674829757503
 20
333.9356801950176
 30
0.0
 40
108.01759458626449
 50
97.649166221865912
 51
101.0176578989028
  0
ARC
  5
469
  8
0
 10
4347.3637767639648
 20
497.95720091331998
 30
0.0
 40
65.600754822101436
 50
288.1646837562779
 51
297.86418234876493
  0
ARC
  5
46A
  8
0
 10
4377.1650721658652
 20
417.6358138926513
 30
0.0
 40
20.274718304808282
 50
117.46331107152641
 51
171.09321561529001
  0
ARC
  5
46B
  8
0
 10
4361.3465970137368
 20
378.0895201690185
 30
0.0
 40
42.89265874124338
 50
66.169011666833498
 51
95.635128114031048
  0
ARC
  5
46C
  8
0
 10
4397.7334426361213
 20
457.47922332370263
 30
0.0
 40
44.446541149773743
 50
244.61168860748191
 51
284.39179450311542
  0
ARC
  5
46D
  8
0
 10
4380.6629417455333
 20
508.97361626817889
 30
0.0
 40
98.638639604917046
 50
286.56232004634347
 51
304.90180598688619
  0
ARC
  5
46E
  8
0
 10
4459.3745992758522
 20
396.89625492807153
 30
0.0
 40
38.318756796563378
 50
81.031574444311488
 51
125.5396843756853
  0
ARC
  5
46F
  8
0
 10
4454.651745732991
 20
430.15117678059812
 30
0.0
 40
11.64172306495372
 50
23.249284493958839
 51
65.830537735939117
  0
ENDBLK
  5
471
  8
0
 62
     1
  0
BLOCK
  8
0
 62
     1
  2
*U39
 70
     1
 10
0.0
 20
0.0
 30
0.0
  3
*U39
  1

  0
ARC
  5
473
  8
0
 10
4277.8670466196054
 20
430.88405340930711
 30
0.0
 40
24.59759227781754
 50
23.703479147569759
 51
36.77015031584564
  0
ARC
  5
474
  8
0
 10
4293.512553442506
 20
428.00756899918707
 30
0.0
 40
18.06255713879106
 50
77.016148943021946
 51
120.33616599613271
  0
ARC
  5
475
  8
0
 10
4266.2421249766103
 20
472.88532645796801
 30
0.0
 40
34.454927579250338
 50
260.29120356683211
 51
301.7829859597627
  0
ARC
  5
476
  8
0
 10
4283.4587466854464
 20
420.24540476475551
 30
0.0
 40
29.650190519859009
 50
115.37164366642391
 51
140.9527347286635
  0
ARC
  5
477
  8
0
 10
4268.6307212079146
 20
450.39428950027008
 30
0.0
 40
3.9734140234340938
 50
302.30121512460869
 51
51.969715909711603
  0
ARC
  5
478
  8
0
 10
4234.0758259441945
 20
419.66432184697032
 30
0.0
 40
50.156685512186172
 50
42.460350494211049
 51
65.735490728719824
  0
ARC
  5
479
  8
0
 10
4303.688617726446
 20
578.14946754194546
 30
0.0
 40
122.9462175384904
 50
231.08420465688201
 51
246.51208085694921
  0
ARC
  5
47A
  8
0
 10
4249.0902495625087
 20
475.55189957507258
 30
0.0
 40
23.672835586626231
 50
162.96067320773369
 51
193.02253607507899
  0
ARC
  5
47B
  8
0
 10
4238.1160058331297
 20
530.93187946142189
 30
0.0
 40
61.906270381644077
 50
236.4036829862707
 51
258.7382530819844
  0
ARC
  5
47C
  8
0
 10
4233.8629912780516
 20
482.33134770149451
 30
0.0
 40
30.148204288214789
 50
185.64348020259271
 51
208.8510831909216
  0
ARC
  5
47D
  8
0
 10
4209.6533751215793
 20
467.38909747893189
 30
0.0
 40
2.2316769170409052
 50
169.8131096333459
 51
245.51712393648839
  0
ARC
  5
47E
  8
0
 10
4254.6592158384483
 20
492.10373118113949
 30
0.0
 40
53.150338970528701
 50
210.21243506018291
 51
239.29143639062201
  0
ARC
  5
47F
  8
0
 10
4230.4993046910467
 20
441.98647268248851
 30
0.0
 40
5.332006561880835
 50
124.0107347709716
 51
190.74808764777109
  0
ARC
  5
480
  8
0
 10
4239.6387284053681
 20
333.9356801950176
 30
0.0
 40
108.01759458626449
 50
97.649166221865684
 51
101.0176578989028
  0
ARC
  5
481
  8
0
 10
4188.3350221935834
 20
497.95720091331998
 30
0.0
 40
65.600754822101436
 50
288.1646837562779
 51
297.86418234876493
  0
ARC
  5
482
  8
0
 10
4218.1363175954848
 20
417.6358138926513
 30
0.0
 40
20.274718304808282
 50
117.4633110715276
 51
171.09321561529021
  0
ARC
  5
483
  8
0
 10
4202.3178424433554
 20
378.0895201690185
 30
0.0
 40
42.89265874124338
 50
66.16901166683293
 51
95.635128114031048
  0
ARC
  5
484
  8
0
 10
4238.7046880657399
 20
457.47922332370263
 30
0.0
 40
44.446541149773743
 50
244.61168860748251
 51
284.39179450311548
  0
ARC
  5
485
  8
0
 10
4221.6341871751501
 20
508.97361626817889
 30
0.0
 40
98.638639604917046
 50
286.56232004634347
 51
304.90180598688602
  0
ARC
  5
486
  8
0
 10
4300.34584470547
 20
396.89625492807153
 30
0.0
 40
38.318756796563378
 50
81.031574444311488
 51
125.53968437568589
  0
ARC
  5
487
  8
0
 10
4295.6229911626097
 20
430.15117678059812
 30
0.0
 40
11.64172306495372
 50
23.249284493959721
 51
65.830537735941164
  0
ENDBLK
  5
489
  8
0
 62
     1
  0
BLOCK
  8
0
 62
     1
  2
*U40
 70
     1
 10
0.0
 20
0.0
 30
0.0
  3
*U40
  1

  0
ARC
  5
48B
  8
0
 10
4323.732559010783
 20
341.65371228439392
 30
0.0
 40
24.59759227781754
 50
23.703479147570189
 51
36.770150315846379
  0
ARC
  5
48C
  8
0
 10
4339.3780658336809
 20
338.77722787427399
 30
0.0
 40
18.06255713879106
 50
77.016148943021989
 51
120.33616599613271
  0
ARC
  5
48D
  8
0
 10
4312.1076373677861
 20
383.65498533305492
 30
0.0
 40
34.454927579250338
 50
260.29120356683291
 51
301.78298595976332
  0
ARC
  5
48E
  8
0
 10
4329.3242590766222
 20
331.01506363984242
 30
0.0
 40
29.650190519859009
 50
115.37164366642401
 51
140.95273472866339
  0
ARC
  5
48F
  8
0
 10
4314.4962335990913
 20
361.16394837535699
 30
0.0
 40
3.9734140234340938
 50
302.30121512460852
 51
51.969715909711603
  0
ARC
  5
490
  8
0
 10
4279.9413383353722
 20
330.43398072205719
 30
0.0
 40
50.156685512186172
 50
42.460350494211028
 51
65.735490728719824
  0
ARC
  5
491
  8
0
 10
4349.5541301176208
 20
488.91912641703232
 30
0.0
 40
122.9462175384904
 50
231.08420465688201
 51
246.51208085694921
  0
ARC
  5
492
  8
0
 10
4294.9557619536854
 20
386.3215584501595
 30
0.0
 40
23.672835586626231
 50
162.96067320773369
 51
193.02253607507899
  0
ARC
  5
493
  8
0
 10
4283.9815182243046
 20
441.70153833650892
 30
0.0
 40
61.906270381644077
 50
236.4036829862707
 51
258.7382530819844
  0
ARC
  5
494
  8
0
 10
4279.7285036692283
 20
393.10100657658143
 30
0.0
 40
30.148204288214789
 50
185.64348020259271
 51
208.8510831909216
  0
ARC
  5
495
  8
0
 10
4255.5188875127551
 20
378.15875635401881
 30
0.0
 40
2.2316769170409052
 50
169.8131096333459
 51
245.51712393648839
  0
ARC
  5
496
  8
0
 10
4300.5247282296241
 20
402.8733900562263
 30
0.0
 40
53.150338970528701
 50
210.21243506018291
 51
239.2914363906221
  0
ARC
  5
497
  8
0
 10
4276.3648170822244
 20
352.75613155757537
 30
0.0
 40
5.332006561880835
 50
124.0107347709716
 51
190.74808764777109
  0
ARC
  5
498
  8
0
 10
4285.5042407965439
 20
244.7053390701044
 30
0.0
 40
108.01759458626449
 50
97.649166221865684
 51
101.0176578989028
  0
ARC
  5
499
  8
0
 10
4234.2005345847592
 20
408.7268597884069
 30
0.0
 40
65.600754822101436
 50
288.16468375627801
 51
297.86418234876493
  0
ARC
  5
49A
  8
0
 10
4264.0018299866597
 20
328.40547276773822
 30
0.0
 40
20.274718304808282
 50
117.4633110715276
 51
171.09321561529021
  0
ARC
  5
49B
  8
0
 10
4248.1833548345312
 20
288.8591790441053
 30
0.0
 40
42.89265874124338
 50
66.16901166683293
 51
95.635128114031048
  0
ARC
  5
49C
  8
0
 10
4284.5702004569148
 20
368.24888219878949
 30
0.0
 40
44.446541149773743
 50
244.61168860748251
 51
284.39179450311542
  0
ARC
  5
49D
  8
0
 10
4267.4996995663278
 20
419.74327514326581
 30
0.0
 40
98.638639604917046
 50
286.56232004634347
 51
304.90180598688619
  0
ARC
  5
49E
  8
0
 10
4346.2113570966458
 20
307.66591380315828
 30
0.0
 40
38.318756796563378
 50
81.031574444311474
 51
125.5396843756854
  0
ARC
  5
49F
  8
0
 10
4341.4885035537864
 20
340.92083565568498
 30
0.0
 40
11.64172306495372
 50
23.249284493958839
 51
65.830537735939117
  0
ENDBLK
  5
4A1
  8
0
 62
     1
  0
BLOCK
  8
0
 62
     1
  2
*U41
 70
     1
 10
0.0
 20
0.0
 30
0.0
  3
*U41
  1

  0
ARC
  5
4A3
  8
0
 10
4323.732559010783
 20
341.65371228439392
 30
0.0
 40
24.59759227781754
 50
23.703479147570189
 51
36.770150315846379
  0
ARC
  5
4A4
  8
0
 10
4339.3780658336809
 20
338.77722787427399
 30
0.0
 40
18.06255713879106
 50
77.016148943021989
 51
120.33616599613271
  0
ARC
  5
4A5
  8
0
 10
4312.1076373677861
 20
383.65498533305492
 30
0.0
 40
34.454927579250338
 50
260.29120356683291
 51
301.78298595976332
  0
ARC
  5
4A6
  8
0
 10
4329.3242590766222
 20
331.01506363984248
 30
0.0
 40
29.650190519859009
 50
115.37164366642401
 51
140.95273472866339
  0
ARC
  5
4A7
  8
0
 10
4314.4962335990913
 20
361.16394837535711
 30
0.0
 40
3.9734140234340938
 50
302.30121512460818
 51
51.969715909711518
  0
ARC
  5
4A8
  8
0
 10
4279.9413383353722
 20
330.43398072205719
 30
0.0
 40
50.156685512186172
 50
42.460350494211049
 51
65.735490728719824
  0
ARC
  5
4A9
  8
0
 10
4349.5541301176208
 20
488.91912641703232
 30
0.0
 40
122.9462175384904
 50
231.08420465688201
 51
246.51208085694921
  0
ARC
  5
4AA
  8
0
 10
4294.9557619536854
 20
386.32155845015961
 30
0.0
 40
23.672835586626231
 50
162.96067320773381
 51
193.02253607507899
  0
ARC
  5
4AB
  8
0
 10
4283.9815182243046
 20
441.70153833650892
 30
0.0
 40
61.906270381644077
 50
236.4036829862707
 51
258.7382530819844
  0
ARC
  5
4AC
  8
0
 10
4279.7285036692283
 20
393.10100657658148
 30
0.0
 40
30.148204288214789
 50
185.6434802025928
 51
208.85108319092171
  0
ARC
  5
4AD
  8
0
 10
4255.5188875127551
 20
378.15875635401892
 30
0.0
 40
2.2316769170409052
 50
169.8131096333473
 51
245.51712393648839
  0
ARC
  5
4AE
  8
0
 10
4300.5247282296241
 20
402.8733900562263
 30
0.0
 40
53.150338970528701
 50
210.2124350601828
 51
239.29143639062201
  0
ARC
  5
4AF
  8
0
 10
4276.3648170822244
 20
352.75613155757537
 30
0.0
 40
5.332006561880835
 50
124.0107347709716
 51
190.74808764777109
  0
ARC
  5
4B0
  8
0
 10
4285.5042407965439
 20
244.70533907010449
 30
0.0
 40
108.01759458626449
 50
97.649166221865684
 51
101.0176578989028
  0
ARC
  5
4B1
  8
0
 10
4234.2005345847592
 20
408.72685978840701
 30
0.0
 40
65.600754822101436
 50
288.1646837562779
 51
297.86418234876481
  0
ARC
  5
4B2
  8
0
 10
4264.0018299866597
 20
328.40547276773822
 30
0.0
 40
20.274718304808282
 50
117.4633110715276
 51
171.09321561529021
  0
ARC
  5
4B3
  8
0
 10
4248.1833548345312
 20
288.8591790441053
 30
0.0
 40
42.89265874124338
 50
66.16901166683293
 51
95.635128114031048
  0
ARC
  5
4B4
  8
0
 10
4284.5702004569148
 20
368.24888219878949
 30
0.0
 40
44.446541149773743
 50
244.61168860748251
 51
284.39179450311548
  0
ARC
  5
4B5
  8
0
 10
4267.4996995663278
 20
419.74327514326581
 30
0.0
 40
98.638639604917046
 50
286.56232004634347
 51
304.90180598688619
  0
ARC
  5
4B6
  8
0
 10
4346.2113570966458
 20
307.66591380315839
 30
0.0
 40
38.318756796563378
 50
81.031574444311474
 51
125.5396843756854
  0
ARC
  5
4B7
  8
0
 10
4341.4885035537864
 20
340.92083565568498
 30
0.0
 40
11.64172306495372
 50
23.249284493958839
 51
65.830537735939117
  0
ENDBLK
  5
4B9
  8
0
 62
     1
  0
BLOCK
  8
0
 62
     1
  2
*U42
 70
     1
 10
0.0
 20
0.0
 30
0.0
  3
*U42
  1

  0
ARC
  5
4BB
  8
0
 10
4380.3141801003858
 20
386.26888284685049
 30
0.0
 40
24.59759227781754
 50
23.703479147570189
 51
36.770150315846379
  0
ARC
  5
4BC
  8
0
 10
4395.9596869232837
 20
383.39239843673062
 30
0.0
 40
18.06255713879106
 50
77.016148943021989
 51
120.33616599613271
  0
ARC
  5
4BD
  8
0
 10
4368.6892584573889
 20
428.27015589551149
 30
0.0
 40
34.454927579250338
 50
260.29120356683359
 51
301.78298595976332
  0
ARC
  5
4BE
  8
0
 10
4385.905880166225
 20
375.63023420229911
 30
0.0
 40
29.650190519859009
 50
115.37164366642401
 51
140.9527347286629
  0
ARC
  5
4BF
  8
0
 10
4371.0778546886941
 20
405.77911893781362
 30
0.0
 40
3.9734140234340938
 50
302.30121512460818
 51
51.969715909711518
  0
ARC
  5
4C0
  8
0
 10
4336.522959424974
 20
375.04915128451381
 30
0.0
 40
50.156685512186172
 50
42.460350494211049
 51
65.735490728719356
  0
ARC
  5
4C1
  8
0
 10
4406.1357512072254
 20
533.53429697948877
 30
0.0
 40
122.9462175384904
 50
231.08420465688201
 51
246.51208085694941
  0
ARC
  5
4C2
  8
0
 10
4351.5373830432891
 20
430.93672901261613
 30
0.0
 40
23.672835586626231
 50
162.96067320773409
 51
193.02253607507879
  0
ARC
  5
4C3
  8
0
 10
4340.5631393139083
 20
486.31670889896537
 30
0.0
 40
61.906270381644077
 50
236.4036829862707
 51
258.7382530819844
  0
ARC
  5
4C4
  8
0
 10
4336.3101247588302
 20
437.716177139038
 30
0.0
 40
30.148204288214789
 50
185.64348020259291
 51
208.85108319092211
  0
ARC
  5
4C5
  8
0
 10
4312.1005086023579
 20
422.77392691647538
 30
0.0
 40
2.2316769170409052
 50
169.8131096333473
 51
245.51712393648839
  0
ARC
  5
4C6
  8
0
 10
4357.106349319226
 20
447.48856061868298
 30
0.0
 40
53.150338970528701
 50
210.2124350601828
 51
239.29143639062201
  0
ARC
  5
4C7
  8
0
 10
4332.946438171828
 20
397.37130212003188
 30
0.0
 40
5.332006561880835
 50
124.0107347709757
 51
190.7480876477693
  0
ARC
  5
4C8
  8
0
 10
4342.0858618861466
 20
289.32050963256103
 30
0.0
 40
108.01759458626449
 50
97.649166221865912
 51
101.0176578989028
  0
ARC
  5
4C9
  8
0
 10
4290.782155674362
 20
453.34203035086352
 30
0.0
 40
65.600754822101436
 50
288.1646837562779
 51
297.86418234876481
  0
ARC
  5
4CA
  8
0
 10
4320.5834510762634
 20
373.02064333019479
 30
0.0
 40
20.274718304808282
 50
117.46331107152641
 51
171.09321561529001
  0
ARC
  5
4CB
  8
0
 10
4304.7649759241331
 20
333.47434960656187
 30
0.0
 40
42.89265874124338
 50
66.169011666833498
 51
95.635128114031048
  0
ARC
  5
4CC
  8
0
 10
4341.1518215465176
 20
412.864052761246
 30
0.0
 40
44.446541149773743
 50
244.61168860748191
 51
284.39179450311542
  0
ARC
  5
4CD
  8
0
 10
4324.0813206559296
 20
464.35844570572232
 30
0.0
 40
98.638639604917046
 50
286.56232004634347
 51
304.90180598688619
  0
ARC
  5
4CE
  8
0
 10
4402.7929781862504
 20
352.28108436561502
 30
0.0
 40
38.318756796563378
 50
81.031574444311474
 51
125.5396843756854
  0
ARC
  5
4CF
  8
0
 10
4398.0701246433891
 20
385.53600621814161
 30
0.0
 40
11.64172306495372
 50
23.249284493958839
 51
65.830537735939117
  0
ENDBLK
  5
4D1
  8
0
 62
     1
  0
BLOCK
  8
0
 62
     1
  2
*U43
 70
     1
 10
0.0
 20
0.0
 30
0.0
  3
*U43
  1

  0
ARC
  5
4D3
  8
0
 10
4164.7038044403989
 20
341.65371228439392
 30
0.0
 40
24.59759227781754
 50
23.703479147569759
 51
36.770150315845747
  0
ARC
  5
4D4
  8
0
 10
4180.3493112633014
 20
338.77722787427399
 30
0.0
 40
18.06255713879106
 50
77.016148943021989
 51
120.33616599613271
  0
ARC
  5
4D5
  8
0
 10
4153.0788827974038
 20
383.65498533305492
 30
0.0
 40
34.454927579250338
 50
260.29120356683211
 51
301.7829859597627
  0
ARC
  5
4D6
  8
0
 10
4170.2955045062408
 20
331.01506363984242
 30
0.0
 40
29.650190519859009
 50
115.37164366642401
 51
140.95273472866339
  0
ARC
  5
4D7
  8
0
 10
4155.4674790287099
 20
361.16394837535699
 30
0.0
 40
3.9734140234340938
 50
302.30121512460852
 51
51.969715909711603
  0
ARC
  5
4D8
  8
0
 10
4120.912583764989
 20
330.43398072205719
 30
0.0
 40
50.156685512186172
 50
42.460350494211028
 51
65.735490728719824
  0
ARC
  5
4D9
  8
0
 10
4190.5253755472413
 20
488.91912641703232
 30
0.0
 40
122.9462175384904
 50
231.08420465688201
 51
246.51208085694921
  0
ARC
  5
4DA
  8
0
 10
4135.9270073833031
 20
386.3215584501595
 30
0.0
 40
23.672835586626231
 50
162.96067320773369
 51
193.02253607507899
  0
ARC
  5
4DB
  8
0
 10
4124.9527636539242
 20
441.70153833650892
 30
0.0
 40
61.906270381644077
 50
236.4036829862707
 51
258.7382530819844
  0
ARC
  5
4DC
  8
0
 10
4120.699749098847
 20
393.10100657658143
 30
0.0
 40
30.148204288214789
 50
185.64348020259271
 51
208.8510831909216
  0
ARC
  5
4DD
  8
0
 10
4096.4901329423728
 20
378.15875635401881
 30
0.0
 40
2.2316769170409052
 50
169.8131096333459
 51
245.51712393648839
  0
ARC
  5
4DE
  8
0
 10
4141.4959736592418
 20
402.8733900562263
 30
0.0
 40
53.150338970528701
 50
210.21243506018291
 51
239.2914363906221
  0
ARC
  5
4DF
  8
0
 10
4117.3360625118412
 20
352.75613155757537
 30
0.0
 40
5.332006561880835
 50
124.0107347709716
 51
190.74808764777109
  0
ARC
  5
4E0
  8
0
 10
4126.4754862261616
 20
244.7053390701044
 30
0.0
 40
108.01759458626449
 50
97.649166221865684
 51
101.0176578989028
  0
ARC
  5
4E1
  8
0
 10
4075.171780014377
 20
408.7268597884069
 30
0.0
 40
65.600754822101436
 50
288.16468375627801
 51
297.86418234876493
  0
ARC
  5
4E2
  8
0
 10
4104.9730754162792
 20
328.40547276773822
 30
0.0
 40
20.274718304808282
 50
117.4633110715276
 51
171.09321561529021
  0
ARC
  5
4E3
  8
0
 10
4089.1546002641498
 20
288.8591790441053
 30
0.0
 40
42.89265874124338
 50
66.16901166683293
 51
95.635128114031048
  0
ARC
  5
4E4
  8
0
 10
4125.5414458865343
 20
368.24888219878949
 30
0.0
 40
44.446541149773743
 50
244.61168860748251
 51
284.39179450311542
  0
ARC
  5
4E5
  8
0
 10
4108.4709449959464
 20
419.74327514326581
 30
0.0
 40
98.638639604917046
 50
286.56232004634347
 51
304.90180598688602
  0
ARC
  5
4E6
  8
0
 10
4187.1826025262644
 20
307.66591380315828
 30
0.0
 40
38.318756796563378
 50
81.031574444311474
 51
125.53968437568589
  0
ARC
  5
4E7
  8
0
 10
4182.4597489834041
 20
340.92083565568498
 30
0.0
 40
11.64172306495372
 50
23.249284493959721
 51
65.830537735941164
  0
ENDBLK
  5
4E9
  8
0
 62
     1
  0
BLOCK
  8
0
 62
     1
  2
*U44
 70
     1
 10
0.0
 20
0.0
 30
0.0
  3
*U44
  1

  0
ARC
  5
4EB
  8
0
 10
4164.7038044403989
 20
341.65371228439392
 30
0.0
 40
24.59759227781754
 50
23.703479147569759
 51
36.770150315845747
  0
ARC
  5
4EC
  8
0
 10
4180.3493112633014
 20
338.77722787427399
 30
0.0
 40
18.06255713879106
 50
77.016148943021989
 51
120.33616599613271
  0
ARC
  5
4ED
  8
0
 10
4153.0788827974038
 20
383.65498533305492
 30
0.0
 40
34.454927579250338
 50
260.29120356683211
 51
301.7829859597627
  0
ARC
  5
4EE
  8
0
 10
4170.2955045062408
 20
331.01506363984248
 30
0.0
 40
29.650190519859009
 50
115.37164366642401
 51
140.95273472866339
  0
ARC
  5
4EF
  8
0
 10
4155.4674790287099
 20
361.16394837535711
 30
0.0
 40
3.9734140234340938
 50
302.30121512460818
 51
51.969715909711518
  0
ARC
  5
4F0
  8
0
 10
4120.912583764989
 20
330.43398072205719
 30
0.0
 40
50.156685512186172
 50
42.460350494211049
 51
65.735490728719824
  0
ARC
  5
4F1
  8
0
 10
4190.5253755472413
 20
488.91912641703232
 30
0.0
 40
122.9462175384904
 50
231.08420465688201
 51
246.51208085694921
  0
ARC
  5
4F2
  8
0
 10
4135.9270073833031
 20
386.32155845015961
 30
0.0
 40
23.672835586626231
 50
162.96067320773381
 51
193.02253607507899
  0
ARC
  5
4F3
  8
0
 10
4124.9527636539242
 20
441.70153833650892
 30
0.0
 40
61.906270381644077
 50
236.4036829862707
 51
258.7382530819844
  0
ARC
  5
4F4
  8
0
 10
4120.699749098847
 20
393.10100657658148
 30
0.0
 40
30.148204288214789
 50
185.6434802025928
 51
208.85108319092171
  0
ARC
  5
4F5
  8
0
 10
4096.4901329423728
 20
378.15875635401892
 30
0.0
 40
2.2316769170409052
 50
169.8131096333473
 51
245.51712393648839
  0
ARC
  5
4F6
  8
0
 10
4141.4959736592418
 20
402.8733900562263
 30
0.0
 40
53.150338970528701
 50
210.2124350601828
 51
239.29143639062201
  0
ARC
  5
4F7
  8
0
 10
4117.3360625118412
 20
352.75613155757537
 30
0.0
 40
5.332006561880835
 50
124.0107347709716
 51
190.74808764777109
  0
ARC
  5
4F8
  8
0
 10
4126.4754862261616
 20
244.70533907010449
 30
0.0
 40
108.01759458626449
 50
97.649166221865684
 51
101.0176578989028
  0
ARC
  5
4F9
  8
0
 10
4075.171780014377
 20
408.72685978840701
 30
0.0
 40
65.600754822101436
 50
288.1646837562779
 51
297.86418234876481
  0
ARC
  5
4FA
  8
0
 10
4104.9730754162792
 20
328.40547276773822
 30
0.0
 40
20.274718304808282
 50
117.4633110715276
 51
171.09321561529021
  0
ARC
  5
4FB
  8
0
 10
4089.1546002641498
 20
288.8591790441053
 30
0.0
 40
42.89265874124338
 50
66.16901166683293
 51
95.635128114031048
  0
ARC
  5
4FC
  8
0
 10
4125.5414458865343
 20
368.24888219878949
 30
0.0
 40
44.446541149773743
 50
244.61168860748251
 51
284.39179450311548
  0
ARC
  5
4FD
  8
0
 10
4108.4709449959464
 20
419.74327514326581
 30
0.0
 40
98.638639604917046
 50
286.56232004634347
 51
304.90180598688602
  0
ARC
  5
4FE
  8
0
 10
4187.1826025262644
 20
307.66591380315839
 30
0.0
 40
38.318756796563378
 50
81.031574444311474
 51
125.53968437568589
  0
ARC
  5
4FF
  8
0
 10
4182.4597489834041
 20
340.92083565568498
 30
0.0
 40
11.64172306495372
 50
23.249284493959721
 51
65.830537735941164
  0
ENDBLK
  5
501
  8
0
 62
     1
  0
BLOCK
  8
0
 62
     1
  2
*U45
 70
     1
 10
0.0
 20
0.0
 30
0.0
  3
*U45
  1

  0
ARC
  5
503
  8
0
 10
4221.2854255300026
 20
386.26888284685049
 30
0.0
 40
24.59759227781754
 50
23.703479147569759
 51
36.770150315845747
  0
ARC
  5
504
  8
0
 10
4236.9309323529033
 20
383.39239843673062
 30
0.0
 40
18.06255713879106
 50
77.016148943021989
 51
120.33616599613271
  0
ARC
  5
505
  8
0
 10
4209.6605038870066
 20
428.27015589551149
 30
0.0
 40
34.454927579250338
 50
260.29120356683211
 51
301.7829859597627
  0
ARC
  5
506
  8
0
 10
4226.8771255958427
 20
375.63023420229911
 30
0.0
 40
29.650190519859009
 50
115.37164366642401
 51
140.95273472866339
  0
ARC
  5
507
  8
0
 10
4212.0491001183127
 20
405.77911893781362
 30
0.0
 40
3.9734140234340938
 50
302.30121512460818
 51
51.969715909711518
  0
ARC
  5
508
  8
0
 10
4177.4942048545927
 20
375.04915128451381
 30
0.0
 40
50.156685512186172
 50
42.460350494211049
 51
65.735490728719824
  0
ARC
  5
509
  8
0
 10
4247.1069966368432
 20
533.53429697948877
 30
0.0
 40
122.9462175384904
 50
231.08420465688201
 51
246.51208085694921
  0
ARC
  5
50A
  8
0
 10
4192.5086284729059
 20
430.93672901261613
 30
0.0
 40
23.672835586626231
 50
162.96067320773381
 51
193.02253607507899
  0
ARC
  5
50B
  8
0
 10
4181.534384743527
 20
486.31670889896537
 30
0.0
 40
61.906270381644077
 50
236.4036829862707
 51
258.7382530819844
  0
ARC
  5
50C
  8
0
 10
4177.2813701884488
 20
437.716177139038
 30
0.0
 40
30.148204288214789
 50
185.6434802025928
 51
208.85108319092171
  0
ARC
  5
50D
  8
0
 10
4153.0717540319756
 20
422.77392691647538
 30
0.0
 40
2.2316769170409052
 50
169.8131096333473
 51
245.51712393648839
  0
ARC
  5
50E
  8
0
 10
4198.0775947488446
 20
447.48856061868298
 30
0.0
 40
53.150338970528701
 50
210.2124350601828
 51
239.29143639062201
  0
ARC
  5
50F
  8
0
 10
4173.9176836014449
 20
397.37130212003188
 30
0.0
 40
5.332006561880835
 50
124.0107347709716
 51
190.74808764777109
  0
ARC
  5
510
  8
0
 10
4183.0571073157653
 20
289.32050963256103
 30
0.0
 40
108.01759458626449
 50
97.649166221865684
 51
101.0176578989028
  0
ARC
  5
511
  8
0
 10
4131.7534011039797
 20
453.34203035086352
 30
0.0
 40
65.600754822101436
 50
288.1646837562779
 51
297.86418234876481
  0
ARC
  5
512
  8
0
 10
4161.554696505882
 20
373.02064333019479
 30
0.0
 40
20.274718304808282
 50
117.4633110715276
 51
171.09321561529021
  0
ARC
  5
513
  8
0
 10
4145.7362213537526
 20
333.47434960656187
 30
0.0
 40
42.89265874124338
 50
66.16901166683293
 51
95.635128114031048
  0
ARC
  5
514
  8
0
 10
4182.1230669761371
 20
412.864052761246
 30
0.0
 40
44.446541149773743
 50
244.61168860748251
 51
284.39179450311548
  0
ARC
  5
515
  8
0
 10
4165.0525660855483
 20
464.35844570572232
 30
0.0
 40
98.638639604917046
 50
286.56232004634347
 51
304.90180598688602
  0
ARC
  5
516
  8
0
 10
4243.7642236158672
 20
352.28108436561502
 30
0.0
 40
38.318756796563378
 50
81.031574444311474
 51
125.53968437568589
  0
ARC
  5
517
  8
0
 10
4239.0413700730078
 20
385.53600621814161
 30
0.0
 40
11.64172306495372
 50
23.249284493959721
 51
65.830537735941164
  0
ENDBLK
  5
519
  8
0
 62
     1
  0
BLOCK
  8
0
 62
     1
  2
*U46
 70
     1
 10
0.0
 20
0.0
 30
0.0
  3
*U46
  1

  0
ARC
  5
51B
  8
0
 10
3824.2981361927859
 20
288.92841522910447
 30
0.0
 40
2.2316769170409172
 50
169.81310963335019
 51
245.51712393648791
  0
ARC
  5
51C
  8
0
 10
3848.5077523492591
 20
303.87066545166851
 30
0.0
 40
30.14820428821535
 50
185.6495591754869
 51
208.8510831909247
  0
ARC
  5
51D
  8
0
 10
3812.543472295898
 20
263.05074324070063
 30
0.0
 40
38.318756796563228
 50
81.048224768439326
 51
125.5396843756951
  0
ARC
  5
51E
  8
0
 10
3733.8318147655791
 20
375.12810458080759
 30
0.0
 40
98.638639604916733
 50
286.56232004634052
 51
304.90180598688232
  0
ARC
  5
51F
  8
0
 10
3750.902315656168
 20
323.63371163633138
 30
0.0
 40
44.446541149773537
 50
244.6116886074978
 51
284.3917945031094
  0
ARC
  5
520
  8
0
 10
3714.515470033783
 20
244.2440084816468
 30
0.0
 40
42.892658741243878
 50
66.169011666817241
 51
95.635128114031588
  0
ARC
  5
521
  8
0
 10
3689.6918324450212
 20
241.20363959714311
 30
0.0
 40
50.156685512185867
 50
42.460350494214111
 51
65.735490728716172
  0
ARC
  5
522
  8
0
 10
3724.2467277087412
 20
271.93360725044249
 30
0.0
 40
3.9734140234340738
 50
302.30121512460232
 51
51.969715909759238
  0
ARC
  5
523
  8
0
 10
3739.0747531862721
 20
241.78472251492769
 30
0.0
 40
29.650190519859301
 50
115.3716436664246
 51
140.9527347286635
  0
ARC
  5
524
  8
0
 10
3721.8581314774351
 20
294.42464420814048
 30
0.0
 40
34.454927579250459
 50
260.29120356683211
 51
301.78298595976349
  0
ARC
  5
525
  8
0
 10
3749.1285599433309
 20
249.5468867493596
 30
0.0
 40
18.062557138790929
 50
77.01614894302331
 51
120.33616599613239
  0
ARC
  5
526
  8
0
 10
3733.4830531204311
 20
252.4233711594793
 30
0.0
 40
24.597592277817562
 50
23.703479147569869
 51
36.770150315845832
  0
ARC
  5
527
  8
0
 10
3751.2389976634349
 20
251.69049453077071
 30
0.0
 40
11.64172306495359
 50
23.229827112001971
 51
65.83053773594078
  0
ARC
  5
528
  8
0
 10
3796.1791458147341
 20
307.8560266491379
 30
0.0
 40
61.906270381644141
 50
236.41798687092421
 51
258.7382530819844
  0
ARC
  5
529
  8
0
 10
3807.153389544113
 20
252.47604676278851
 30
0.0
 40
23.672835586626292
 50
162.96067320773381
 51
193.0225360750791
  0
ARC
  5
52A
  8
0
 10
3861.7517577080498
 20
355.0736147296609
 30
0.0
 40
122.94621753849
 50
231.08420465688189
 51
246.51208085695049
  0
ARC
  5
52B
  8
0
 10
3832.781078666691
 20
239.17513164282391
 30
0.0
 40
20.274718304808179
 50
117.463311071532
 51
171.09321561529021
  0
ARC
  5
52C
  8
0
 10
3802.9797832647901
 20
319.49651866349319
 30
0.0
 40
65.600754822102061
 50
288.16468375627568
 51
297.86418234876419
  0
ARC
  5
52D
  8
0
 10
3854.2834894765751
 20
155.47499794518779
 30
0.0
 40
108.0175945862666
 50
97.649166221865755
 51
101.017657898903
  0
ARC
  5
52E
  8
0
 10
3845.1440657622552
 20
263.52579043266132
 30
0.0
 40
5.33200656188066
 50
124.0107347709781
 51
190.7480876477747
  0
ARC
  5
52F
  8
0
 10
3869.3039769096558
 20
313.64304893131191
 30
0.0
 40
53.150338970528793
 50
210.21243506018209
 51
239.29143639062119
  0
ENDBLK
  5
531
  8
0
 62
     1
  0
BLOCK
  8
0
 62
     1
  2
*U47
 70
     1
 10
0.0
 20
0.0
 30
0.0
  3
*U47
  1

  0
ARC
  5
533
  8
0
 10
3892.5118076908129
 20
252.42337115947959
 30
0.0
 40
24.59759227781754
 50
23.703479147569759
 51
36.770150315845747
  0
ARC
  5
534
  8
0
 10
3908.1573145137131
 20
249.5468867493596
 30
0.0
 40
18.06255713879106
 50
77.016148943021989
 51
120.33616599613271
  0
ARC
  5
535
  8
0
 10
3880.8868860478169
 20
294.42464420814059
 30
0.0
 40
34.454927579250338
 50
260.29120356683211
 51
301.7829859597627
  0
ARC
  5
536
  8
0
 10
3898.103507756653
 20
241.78472251492809
 30
0.0
 40
29.650190519859009
 50
115.37164366642401
 51
140.95273472866339
  0
ARC
  5
537
  8
0
 10
3883.275482279123
 20
271.93360725044272
 30
0.0
 40
3.9734140234340938
 50
302.30121512460852
 51
51.969715909711603
  0
ARC
  5
538
  8
0
 10
3848.7205870154021
 20
241.20363959714291
 30
0.0
 40
50.156685512186172
 50
42.460350494211028
 51
65.735490728719824
  0
ARC
  5
539
  8
0
 10
3918.333378797653
 20
399.68878529211798
 30
0.0
 40
122.9462175384904
 50
231.08420465688201
 51
246.51208085694921
  0
ARC
  5
53A
  8
0
 10
3863.7350106337158
 20
297.09121732524522
 30
0.0
 40
23.672835586626231
 50
162.96067320773369
 51
193.02253607507899
  0
ARC
  5
53B
  8
0
 10
3852.7607669043359
 20
352.47119721159447
 30
0.0
 40
61.906270381644077
 50
236.4036829862707
 51
258.7382530819844
  0
ARC
  5
53C
  8
0
 10
3848.5077523492591
 20
303.87066545166709
 30
0.0
 40
30.148204288214789
 50
185.64348020259271
 51
208.8510831909216
  0
ARC
  5
53D
  8
0
 10
3824.2981361927859
 20
288.92841522910447
 30
0.0
 40
2.2316769170409052
 50
169.8131096333459
 51
245.51712393648839
  0
ARC
  5
53E
  8
0
 10
3869.3039769096549
 20
313.64304893131208
 30
0.0
 40
53.150338970528701
 50
210.21243506018291
 51
239.2914363906221
  0
ARC
  5
53F
  8
0
 10
3845.1440657622552
 20
263.52579043266098
 30
0.0
 40
5.332006561880835
 50
124.0107347709716
 51
190.74808764777109
  0
ARC
  5
540
  8
0
 10
3854.2834894765751
 20
155.4749979451901
 30
0.0
 40
108.01759458626449
 50
97.649166221865684
 51
101.0176578989028
  0
ARC
  5
541
  8
0
 10
3802.9797832647901
 20
319.49651866349262
 30
0.0
 40
65.600754822101436
 50
288.16468375627801
 51
297.86418234876493
  0
ARC
  5
542
  8
0
 10
3832.781078666691
 20
239.1751316428238
 30
0.0
 40
20.274718304808282
 50
117.4633110715276
 51
171.09321561529021
  0
ARC
  5
543
  8
0
 10
3816.962603514562
 20
199.62883791919089
 30
0.0
 40
42.89265874124338
 50
66.16901166683293
 51
95.635128114031048
  0
ARC
  5
544
  8
0
 10
3853.349449136947
 20
279.01854107387521
 30
0.0
 40
44.446541149773743
 50
244.61168860748251
 51
284.39179450311542
  0
ARC
  5
545
  8
0
 10
3836.2789482463581
 20
330.51293401835147
 30
0.0
 40
98.638639604917046
 50
286.56232004634347
 51
304.90180598688602
  0
ARC
  5
546
  8
0
 10
3914.9906057766761
 20
218.435572678244
 30
0.0
 40
38.318756796563378
 50
81.031574444311474
 51
125.53968437568589
  0
ARC
  5
547
  8
0
 10
3910.2677522338172
 20
251.69049453077059
 30
0.0
 40
11.64172306495372
 50
23.249284493959721
 51
65.830537735941164
  0
ENDBLK
  5
549
  8
0
 62
     1
  0
BLOCK
  8
0
 62
     1
  2
*U48
 70
     1
 10
0.0
 20
0.0
 30
0.0
  3
*U48
  1

  0
ARC
  5
54B
  8
0
 10
3892.5118076908129
 20
252.42337115947959
 30
0.0
 40
24.59759227781754
 50
23.703479147569759
 51
36.770150315845747
  0
ARC
  5
54C
  8
0
 10
3908.1573145137131
 20
249.54688674935969
 30
0.0
 40
18.06255713879106
 50
77.016148943021989
 51
120.33616599613271
  0
ARC
  5
54D
  8
0
 10
3880.8868860478169
 20
294.42464420814059
 30
0.0
 40
34.454927579250338
 50
260.29120356683211
 51
301.7829859597627
  0
ARC
  5
54E
  8
0
 10
3898.103507756653
 20
241.78472251492809
 30
0.0
 40
29.650190519859009
 50
115.37164366642401
 51
140.95273472866339
  0
ARC
  5
54F
  8
0
 10
3883.275482279123
 20
271.93360725044272
 30
0.0
 40
3.9734140234340938
 50
302.30121512460818
 51
51.969715909711518
  0
ARC
  5
550
  8
0
 10
3848.7205870154021
 20
241.20363959714291
 30
0.0
 40
50.156685512186172
 50
42.460350494211049
 51
65.735490728719824
  0
ARC
  5
551
  8
0
 10
3918.333378797653
 20
399.68878529211798
 30
0.0
 40
122.9462175384904
 50
231.08420465688201
 51
246.51208085694921
  0
ARC
  5
552
  8
0
 10
3863.7350106337158
 20
297.09121732524522
 30
0.0
 40
23.672835586626231
 50
162.96067320773381
 51
193.02253607507899
  0
ARC
  5
553
  8
0
 10
3852.7607669043359
 20
352.47119721159447
 30
0.0
 40
61.906270381644077
 50
236.4036829862707
 51
258.7382530819844
  0
ARC
  5
554
  8
0
 10
3848.5077523492591
 20
303.87066545166709
 30
0.0
 40
30.148204288214789
 50
185.6434802025928
 51
208.85108319092171
  0
ARC
  5
555
  8
0
 10
3824.2981361927859
 20
288.92841522910447
 30
0.0
 40
2.2316769170409052
 50
169.8131096333473
 51
245.51712393648839
  0
ARC
  5
556
  8
0
 10
3869.3039769096549
 20
313.64304893131208
 30
0.0
 40
53.150338970528701
 50
210.2124350601828
 51
239.29143639062201
  0
ARC
  5
557
  8
0
 10
3845.1440657622552
 20
263.5257904326611
 30
0.0
 40
5.332006561880835
 50
124.0107347709716
 51
190.74808764777109
  0
ARC
  5
558
  8
0
 10
3854.2834894765751
 20
155.4749979451901
 30
0.0
 40
108.01759458626449
 50
97.649166221865684
 51
101.0176578989028
  0
ARC
  5
559
  8
0
 10
3802.9797832647901
 20
319.49651866349268
 30
0.0
 40
65.600754822101436
 50
288.1646837562779
 51
297.86418234876481
  0
ARC
  5
55A
  8
0
 10
3832.781078666691
 20
239.1751316428238
 30
0.0
 40
20.274718304808282
 50
117.4633110715276
 51
171.09321561529021
  0
ARC
  5
55B
  8
0
 10
3816.962603514562
 20
199.62883791919089
 30
0.0
 40
42.89265874124338
 50
66.16901166683293
 51
95.635128114031048
  0
ARC
  5
55C
  8
0
 10
3853.349449136947
 20
279.01854107387521
 30
0.0
 40
44.446541149773743
 50
244.61168860748251
 51
284.39179450311548
  0
ARC
  5
55D
  8
0
 10
3836.2789482463581
 20
330.51293401835147
 30
0.0
 40
98.638639604917046
 50
286.56232004634347
 51
304.90180598688602
  0
ARC
  5
55E
  8
0
 10
3914.9906057766761
 20
218.435572678244
 30
0.0
 40
38.318756796563378
 50
81.031574444311474
 51
125.53968437568589
  0
ARC
  5
55F
  8
0
 10
3910.2677522338172
 20
251.69049453077071
 30
0.0
 40
11.64172306495372
 50
23.249284493959721
 51
65.830537735941164
  0
ENDBLK
  5
561
  8
0
 62
     1
  0
BLOCK
  8
0
 62
     1
  2
*U49
 70
     1
 10
0.0
 20
0.0
 30
0.0
  3
*U49
  1

  0
ARC
  5
563
  8
0
 10
3721.8510027120069
 20
333.54358579156178
 30
0.0
 40
2.2316769170409172
 50
169.81310963335019
 51
245.51712393648791
  0
ARC
  5
564
  8
0
 10
3746.0606188684792
 20
348.48583601412582
 30
0.0
 40
30.14820428821535
 50
185.6495591754869
 51
208.8510831909247
  0
ARC
  5
565
  8
0
 10
3710.096338815119
 20
307.66591380315788
 30
0.0
 40
38.318756796563228
 50
81.048224768439326
 51
125.5396843756951
  0
ARC
  5
566
  8
0
 10
3631.3846812848001
 20
419.74327514326478
 30
0.0
 40
98.638639604916733
 50
286.56232004634052
 51
304.90180598688232
  0
ARC
  5
567
  8
0
 10
3648.455182175388
 20
368.24888219878869
 30
0.0
 40
44.446541149773537
 50
244.6116886074978
 51
284.3917945031094
  0
ARC
  5
568
  8
0
 10
3612.068336553004
 20
288.85917904410422
 30
0.0
 40
42.892658741243878
 50
66.169011666817241
 51
95.635128114031588
  0
ARC
  5
569
  8
0
 10
3587.2446989642408
 20
285.81881015960039
 30
0.0
 40
50.156685512185867
 50
42.460350494214111
 51
65.735490728716172
  0
ARC
  5
56A
  8
0
 10
3621.7995942279622
 20
316.54877781289991
 30
0.0
 40
3.9734140234340738
 50
302.30121512460232
 51
51.969715909759238
  0
ARC
  5
56B
  8
0
 10
3636.6276197054931
 20
286.39989307738489
 30
0.0
 40
29.650190519859301
 50
115.3716436664246
 51
140.9527347286635
  0
ARC
  5
56C
  8
0
 10
3619.4109979966561
 20
339.03981477059779
 30
0.0
 40
34.454927579250459
 50
260.29120356683211
 51
301.78298595976349
  0
ARC
  5
56D
  8
0
 10
3646.6814264625532
 20
294.1620573118168
 30
0.0
 40
18.062557138790929
 50
77.01614894302331
 51
120.33616599613239
  0
ARC
  5
56E
  8
0
 10
3631.0359196396521
 20
297.03854172193672
 30
0.0
 40
24.597592277817562
 50
23.703479147569869
 51
36.770150315845832
  0
ARC
  5
56F
  8
0
 10
3648.7918641826559
 20
296.30566509322801
 30
0.0
 40
11.64172306495359
 50
23.229827112001971
 51
65.83053773594078
  0
ARC
  5
570
  8
0
 10
3693.732012333955
 20
352.47119721159521
 30
0.0
 40
61.906270381644141
 50
236.41798687092421
 51
258.7382530819844
  0
ARC
  5
571
  8
0
 10
3704.706256063334
 20
297.09121732524579
 30
0.0
 40
23.672835586626292
 50
162.96067320773381
 51
193.0225360750791
  0
ARC
  5
572
  8
0
 10
3759.3046242272708
 20
399.68878529211821
 30
0.0
 40
122.94621753849
 50
231.08420465688189
 51
246.51208085695049
  0
ARC
  5
573
  8
0
 10
3730.3339451859119
 20
283.79030220528108
 30
0.0
 40
20.274718304808179
 50
117.463311071532
 51
171.09321561529021
  0
ARC
  5
574
  8
0
 10
3700.532649784011
 20
364.1116892259505
 30
0.0
 40
65.600754822102061
 50
288.16468375627568
 51
297.86418234876419
  0
ARC
  5
575
  8
0
 10
3751.836355995797
 20
200.0901685076451
 30
0.0
 40
108.0175945862666
 50
97.649166221865755
 51
101.017657898903
  0
ARC
  5
576
  8
0
 10
3742.6969322814762
 20
308.14096099511858
 30
0.0
 40
5.33200656188066
 50
124.0107347709781
 51
190.7480876477747
  0
ARC
  5
577
  8
0
 10
3766.8568434288768
 20
358.25821949376922
 30
0.0
 40
53.150338970528793
 50
210.21243506018209
 51
239.29143639062119
  0
ENDBLK
  5
579
  8
0
 62
     1
  0
BLOCK
  8
0
 62
     1
  2
*U50
 70
     1
 10
0.0
 20
0.0
 30
0.0
  3
*U50
  1

  0
ARC
  5
57B
  8
0
 10
3790.0646742100339
 20
297.03854172193678
 30
0.0
 40
24.59759227781754
 50
23.703479147569759
 51
36.770150315845747
  0
ARC
  5
57C
  8
0
 10
3805.7101810329341
 20
294.16205731181691
 30
0.0
 40
18.06255713879106
 50
77.016148943021989
 51
120.33616599613271
  0
ARC
  5
57D
  8
0
 10
3778.4397525670379
 20
339.0398147705979
 30
0.0
 40
34.454927579250338
 50
260.29120356683211
 51
301.7829859597627
  0
ARC
  5
57E
  8
0
 10
3795.656374275874
 20
286.3998930773854
 30
0.0
 40
29.650190519859009
 50
115.37164366642401
 51
140.95273472866339
  0
ARC
  5
57F
  8
0
 10
3780.8283487983431
 20
316.54877781290003
 30
0.0
 40
3.9734140234340938
 50
302.30121512460852
 51
51.969715909711603
  0
ARC
  5
580
  8
0
 10
3746.2734535346231
 20
285.81881015960022
 30
0.0
 40
50.156685512186172
 50
42.460350494211028
 51
65.735490728719824
  0
ARC
  5
581
  8
0
 10
3815.886245316874
 20
444.30395585457529
 30
0.0
 40
122.9462175384904
 50
231.08420465688201
 51
246.51208085694921
  0
ARC
  5
582
  8
0
 10
3761.2878771529372
 20
341.70638788770248
 30
0.0
 40
23.672835586626231
 50
162.96067320773369
 51
193.02253607507899
  0
ARC
  5
583
  8
0
 10
3750.3136334235578
 20
397.08636777405178
 30
0.0
 40
61.906270381644077
 50
236.4036829862707
 51
258.7382530819844
  0
ARC
  5
584
  8
0
 10
3746.0606188684801
 20
348.4858360141244
 30
0.0
 40
30.148204288214789
 50
185.64348020259271
 51
208.8510831909216
  0
ARC
  5
585
  8
0
 10
3721.8510027120069
 20
333.54358579156178
 30
0.0
 40
2.2316769170409052
 50
169.8131096333459
 51
245.51712393648839
  0
ARC
  5
586
  8
0
 10
3766.8568434288759
 20
358.25821949376939
 30
0.0
 40
53.150338970528701
 50
210.21243506018291
 51
239.2914363906221
  0
ARC
  5
587
  8
0
 10
3742.6969322814762
 20
308.14096099511829
 30
0.0
 40
5.332006561880835
 50
124.0107347709716
 51
190.74808764777109
  0
ARC
  5
588
  8
0
 10
3751.8363559957952
 20
200.09016850764741
 30
0.0
 40
108.01759458626449
 50
97.649166221865684
 51
101.0176578989028
  0
ARC
  5
589
  8
0
 10
3700.5326497840101
 20
364.11168922594987
 30
0.0
 40
65.600754822101436
 50
288.16468375627801
 51
297.86418234876493
  0
ARC
  5
58A
  8
0
 10
3730.3339451859119
 20
283.79030220528108
 30
0.0
 40
20.274718304808282
 50
117.4633110715276
 51
171.09321561529021
  0
ARC
  5
58B
  8
0
 10
3714.515470033783
 20
244.24400848164819
 30
0.0
 40
42.89265874124338
 50
66.16901166683293
 51
95.635128114031048
  0
ARC
  5
58C
  8
0
 10
3750.902315656168
 20
323.63371163633241
 30
0.0
 40
44.446541149773743
 50
244.61168860748251
 51
284.39179450311542
  0
ARC
  5
58D
  8
0
 10
3733.8318147655791
 20
375.12810458080878
 30
0.0
 40
98.638639604917046
 50
286.56232004634347
 51
304.90180598688602
  0
ARC
  5
58E
  8
0
 10
3812.543472295898
 20
263.05074324070131
 30
0.0
 40
38.318756796563378
 50
81.031574444311474
 51
125.53968437568589
  0
ARC
  5
58F
  8
0
 10
3807.8206187530382
 20
296.3056650932279
 30
0.0
 40
11.64172306495372
 50
23.249284493959721
 51
65.830537735941164
  0
ENDBLK
  5
591
  8
0
 62
     1
  0
BLOCK
  8
0
 62
     1
  2
*U51
 70
     1
 10
0.0
 20
0.0
 30
0.0
  3
*U51
  1

  0
ARC
  5
593
  8
0
 10
3790.0646742100339
 20
297.03854172193689
 30
0.0
 40
24.59759227781754
 50
23.703479147569759
 51
36.770150315845747
  0
ARC
  5
594
  8
0
 10
3805.7101810329341
 20
294.16205731181702
 30
0.0
 40
18.06255713879106
 50
77.016148943021989
 51
120.33616599613271
  0
ARC
  5
595
  8
0
 10
3778.4397525670379
 20
339.0398147705979
 30
0.0
 40
34.454927579250338
 50
260.29120356683211
 51
301.7829859597627
  0
ARC
  5
596
  8
0
 10
3795.656374275874
 20
286.3998930773854
 30
0.0
 40
29.650190519859009
 50
115.37164366642401
 51
140.95273472866339
  0
ARC
  5
597
  8
0
 10
3780.8283487983431
 20
316.54877781290003
 30
0.0
 40
3.9734140234340938
 50
302.30121512460818
 51
51.969715909711518
  0
ARC
  5
598
  8
0
 10
3746.2734535346231
 20
285.81881015960022
 30
0.0
 40
50.156685512186172
 50
42.460350494211049
 51
65.735490728719824
  0
ARC
  5
599
  8
0
 10
3815.886245316874
 20
444.30395585457529
 30
0.0
 40
122.9462175384904
 50
231.08420465688201
 51
246.51208085694921
  0
ARC
  5
59A
  8
0
 10
3761.2878771529372
 20
341.70638788770248
 30
0.0
 40
23.672835586626231
 50
162.96067320773381
 51
193.02253607507899
  0
ARC
  5
59B
  8
0
 10
3750.3136334235578
 20
397.08636777405178
 30
0.0
 40
61.906270381644077
 50
236.4036829862707
 51
258.7382530819844
  0
ARC
  5
59C
  8
0
 10
3746.0606188684801
 20
348.4858360141244
 30
0.0
 40
30.148204288214789
 50
185.6434802025928
 51
208.85108319092171
  0
ARC
  5
59D
  8
0
 10
3721.8510027120069
 20
333.54358579156178
 30
0.0
 40
2.2316769170409052
 50
169.8131096333473
 51
245.51712393648839
  0
ARC
  5
59E
  8
0
 10
3766.8568434288759
 20
358.25821949376939
 30
0.0
 40
53.150338970528701
 50
210.2124350601828
 51
239.29143639062201
  0
ARC
  5
59F
  8
0
 10
3742.6969322814762
 20
308.14096099511841
 30
0.0
 40
5.332006561880835
 50
124.0107347709716
 51
190.74808764777109
  0
ARC
  5
5A0
  8
0
 10
3751.8363559957952
 20
200.09016850764741
 30
0.0
 40
108.01759458626449
 50
97.649166221865684
 51
101.0176578989028
  0
ARC
  5
5A1
  8
0
 10
3700.5326497840101
 20
364.11168922594987
 30
0.0
 40
65.600754822101436
 50
288.1646837562779
 51
297.86418234876481
  0
ARC
  5
5A2
  8
0
 10
3730.3339451859119
 20
283.79030220528108
 30
0.0
 40
20.274718304808282
 50
117.4633110715276
 51
171.09321561529021
  0
ARC
  5
5A3
  8
0
 10
3714.515470033783
 20
244.24400848164831
 30
0.0
 40
42.89265874124338
 50
66.16901166683293
 51
95.635128114031048
  0
ARC
  5
5A4
  8
0
 10
3750.902315656168
 20
323.63371163633241
 30
0.0
 40
44.446541149773743
 50
244.61168860748251
 51
284.39179450311548
  0
ARC
  5
5A5
  8
0
 10
3733.8318147655791
 20
375.12810458080878
 30
0.0
 40
98.638639604917046
 50
286.56232004634347
 51
304.90180598688602
  0
ARC
  5
5A6
  8
0
 10
3812.543472295898
 20
263.05074324070131
 30
0.0
 40
38.318756796563378
 50
81.031574444311474
 51
125.53968437568589
  0
ARC
  5
5A7
  8
0
 10
3807.8206187530382
 20
296.30566509322801
 30
0.0
 40
11.64172306495372
 50
23.249284493959721
 51
65.830537735941164
  0
ENDBLK
  5
5A9
  8
0
 62
     1
  0
BLOCK
  8
0
 62
     1
  2
*U52
 70
     1
 10
0.0
 20
0.0
 30
0.0
  3
*U52
  1

  0
ARC
  5
5AB
  8
0
 10
3880.8797572823878
 20
333.54358579156161
 30
0.0
 40
2.2316769170409172
 50
169.81310963335019
 51
245.51712393648791
  0
ARC
  5
5AC
  8
0
 10
3905.089373438861
 20
348.4858360141256
 30
0.0
 40
30.14820428821535
 50
185.6495591754869
 51
208.8510831909247
  0
ARC
  5
5AD
  8
0
 10
3869.1250933854999
 20
307.66591380315771
 30
0.0
 40
38.318756796563228
 50
81.048224768439326
 51
125.5396843756951
  0
ARC
  5
5AE
  8
0
 10
3790.4134358551819
 20
419.74327514326473
 30
0.0
 40
98.638639604916733
 50
286.56232004634052
 51
304.90180598688232
  0
ARC
  5
5AF
  8
0
 10
3807.4839367457712
 20
368.24888219878852
 30
0.0
 40
44.446541149773537
 50
244.6116886074978
 51
284.3917945031094
  0
ARC
  5
5B0
  8
0
 10
3771.0970911233858
 20
288.859179044104
 30
0.0
 40
42.892658741243878
 50
66.169011666817241
 51
95.635128114031588
  0
ARC
  5
5B1
  8
0
 10
3746.2734535346231
 20
285.81881015960022
 30
0.0
 40
50.156685512185867
 50
42.460350494214111
 51
65.735490728716172
  0
ARC
  5
5B2
  8
0
 10
3780.828348798344
 20
316.54877781289957
 30
0.0
 40
3.9734140234340738
 50
302.30121512460232
 51
51.969715909759238
  0
ARC
  5
5B3
  8
0
 10
3795.6563742758749
 20
286.39989307738472
 30
0.0
 40
29.650190519859301
 50
115.3716436664246
 51
140.9527347286635
  0
ARC
  5
5B4
  8
0
 10
3778.4397525670379
 20
339.03981477059762
 30
0.0
 40
34.454927579250459
 50
260.29120356683211
 51
301.78298595976349
  0
ARC
  5
5B5
  8
0
 10
3805.7101810329341
 20
294.16205731181668
 30
0.0
 40
18.062557138790929
 50
77.01614894302331
 51
120.33616599613239
  0
ARC
  5
5B6
  8
0
 10
3790.0646742100339
 20
297.0385417219365
 30
0.0
 40
24.597592277817562
 50
23.703479147569869
 51
36.770150315845832
  0
ARC
  5
5B7
  8
0
 10
3807.8206187530382
 20
296.30566509322767
 30
0.0
 40
11.64172306495359
 50
23.229827112001971
 51
65.83053773594078
  0
ARC
  5
5B8
  8
0
 10
3852.7607669043359
 20
352.47119721159493
 30
0.0
 40
61.906270381644141
 50
236.41798687092421
 51
258.7382530819844
  0
ARC
  5
5B9
  8
0
 10
3863.7350106337158
 20
297.09121732524562
 30
0.0
 40
23.672835586626292
 50
162.96067320773381
 51
193.0225360750791
  0
ARC
  5
5BA
  8
0
 10
3918.333378797653
 20
399.68878529211798
 30
0.0
 40
122.94621753849
 50
231.08420465688189
 51
246.51208085695049
  0
ARC
  5
5BB
  8
0
 10
3889.3626997562942
 20
283.79030220528102
 30
0.0
 40
20.274718304808179
 50
117.463311071532
 51
171.09321561529021
  0
ARC
  5
5BC
  8
0
 10
3859.5614043543928
 20
364.11168922595027
 30
0.0
 40
65.600754822102061
 50
288.16468375627568
 51
297.86418234876419
  0
ARC
  5
5BD
  8
0
 10
3910.8651105661788
 20
200.0901685076449
 30
0.0
 40
108.0175945862666
 50
97.649166221865755
 51
101.017657898903
  0
ARC
  5
5BE
  8
0
 10
3901.725686851858
 20
308.14096099511841
 30
0.0
 40
5.33200656188066
 50
124.0107347709781
 51
190.7480876477747
  0
ARC
  5
5BF
  8
0
 10
3925.8855979992591
 20
358.25821949376899
 30
0.0
 40
53.150338970528793
 50
210.21243506018209
 51
239.29143639062119
  0
ENDBLK
  5
5C1
  8
0
 62
     1
  0
BLOCK
  8
0
 62
     1
  2
*U53
 70
     1
 10
0.0
 20
0.0
 30
0.0
  3
*U53
  1

  0
ARC
  5
5C3
  8
0
 10
3949.0934287804148
 20
297.03854172193672
 30
0.0
 40
24.59759227781754
 50
23.703479147569759
 51
36.770150315845747
  0
ARC
  5
5C4
  8
0
 10
3964.738935603315
 20
294.1620573118168
 30
0.0
 40
18.06255713879106
 50
77.016148943021989
 51
120.33616599613271
  0
ARC
  5
5C5
  8
0
 10
3937.4685071374201
 20
339.03981477059767
 30
0.0
 40
34.454927579250338
 50
260.29120356683211
 51
301.7829859597627
  0
ARC
  5
5C6
  8
0
 10
3954.6851288462558
 20
286.39989307738517
 30
0.0
 40
29.650190519859009
 50
115.37164366642401
 51
140.95273472866339
  0
ARC
  5
5C7
  8
0
 10
3939.8571033687249
 20
316.54877781289969
 30
0.0
 40
3.9734140234340938
 50
302.30121512460852
 51
51.969715909711603
  0
ARC
  5
5C8
  8
0
 10
3905.3022081050049
 20
285.81881015959988
 30
0.0
 40
50.156685512186172
 50
42.460350494211028
 51
65.735490728719824
  0
ARC
  5
5C9
  8
0
 10
3974.9149998872558
 20
444.30395585457501
 30
0.0
 40
122.9462175384904
 50
231.08420465688201
 51
246.51208085694921
  0
ARC
  5
5CA
  8
0
 10
3920.316631723319
 20
341.70638788770219
 30
0.0
 40
23.672835586626231
 50
162.96067320773369
 51
193.02253607507899
  0
ARC
  5
5CB
  8
0
 10
3909.3423879939401
 20
397.08636777405161
 30
0.0
 40
61.906270381644077
 50
236.4036829862707
 51
258.7382530819844
  0
ARC
  5
5CC
  8
0
 10
3905.0893734388619
 20
348.48583601412417
 30
0.0
 40
30.148204288214789
 50
185.64348020259271
 51
208.8510831909216
  0
ARC
  5
5CD
  8
0
 10
3880.8797572823878
 20
333.54358579156161
 30
0.0
 40
2.2316769170409052
 50
169.8131096333459
 51
245.51712393648839
  0
ARC
  5
5CE
  8
0
 10
3925.8855979992582
 20
358.25821949376922
 30
0.0
 40
53.150338970528701
 50
210.21243506018291
 51
239.2914363906221
  0
ARC
  5
5CF
  8
0
 10
3901.725686851858
 20
308.14096099511812
 30
0.0
 40
5.332006561880835
 50
124.0107347709716
 51
190.74808764777109
  0
ARC
  5
5D0
  8
0
 10
3910.8651105661779
 20
200.09016850764721
 30
0.0
 40
108.01759458626449
 50
97.649166221865684
 51
101.0176578989028
  0
ARC
  5
5D1
  8
0
 10
3859.5614043543919
 20
364.1116892259497
 30
0.0
 40
65.600754822101436
 50
288.16468375627801
 51
297.86418234876493
  0
ARC
  5
5D2
  8
0
 10
3889.3626997562942
 20
283.79030220528091
 30
0.0
 40
20.274718304808282
 50
117.4633110715276
 51
171.09321561529021
  0
ARC
  5
5D3
  8
0
 10
3873.5442246041648
 20
244.244008481648
 30
0.0
 40
42.89265874124338
 50
66.16901166683293
 51
95.635128114031048
  0
ARC
  5
5D4
  8
0
 10
3909.9310702265489
 20
323.63371163633218
 30
0.0
 40
44.446541149773743
 50
244.61168860748251
 51
284.39179450311542
  0
ARC
  5
5D5
  8
0
 10
3892.8605693359609
 20
375.1281045808085
 30
0.0
 40
98.638639604917046
 50
286.56232004634347
 51
304.90180598688602
  0
ARC
  5
5D6
  8
0
 10
3971.5722268662798
 20
263.05074324070108
 30
0.0
 40
38.318756796563378
 50
81.031574444311474
 51
125.53968437568589
  0
ARC
  5
5D7
  8
0
 10
3966.84937332342
 20
296.30566509322767
 30
0.0
 40
11.64172306495372
 50
23.249284493959721
 51
65.830537735941164
  0
ENDBLK
  5
5D9
  8
0
 62
     1
  0
BLOCK
  8
0
 62
     1
  2
*U54
 70
     1
 10
0.0
 20
0.0
 30
0.0
  3
*U54
  1

  0
ARC
  5
5DB
  8
0
 10
3949.0934287804148
 20
297.03854172193672
 30
0.0
 40
24.59759227781754
 50
23.703479147569759
 51
36.770150315845747
  0
ARC
  5
5DC
  8
0
 10
3964.738935603315
 20
294.1620573118168
 30
0.0
 40
18.06255713879106
 50
77.016148943021989
 51
120.33616599613271
  0
ARC
  5
5DD
  8
0
 10
3937.4685071374201
 20
339.03981477059767
 30
0.0
 40
34.454927579250338
 50
260.29120356683211
 51
301.7829859597627
  0
ARC
  5
5DE
  8
0
 10
3954.6851288462558
 20
286.39989307738517
 30
0.0
 40
29.650190519859009
 50
115.37164366642401
 51
140.95273472866339
  0
ARC
  5
5DF
  8
0
 10
3939.8571033687249
 20
316.5487778128998
 30
0.0
 40
3.9734140234340938
 50
302.30121512460818
 51
51.969715909711518
  0
ARC
  5
5E0
  8
0
 10
3905.3022081050049
 20
285.81881015959999
 30
0.0
 40
50.156685512186172
 50
42.460350494211049
 51
65.735490728719824
  0
ARC
  5
5E1
  8
0
 10
3974.9149998872558
 20
444.30395585457501
 30
0.0
 40
122.9462175384904
 50
231.08420465688201
 51
246.51208085694921
  0
ARC
  5
5E2
  8
0
 10
3920.316631723319
 20
341.70638788770231
 30
0.0
 40
23.672835586626231
 50
162.96067320773381
 51
193.02253607507899
  0
ARC
  5
5E3
  8
0
 10
3909.3423879939401
 20
397.08636777405161
 30
0.0
 40
61.906270381644077
 50
236.4036829862707
 51
258.7382530819844
  0
ARC
  5
5E4
  8
0
 10
3905.0893734388619
 20
348.48583601412417
 30
0.0
 40
30.148204288214789
 50
185.6434802025928
 51
208.85108319092171
  0
ARC
  5
5E5
  8
0
 10
3880.8797572823878
 20
333.54358579156161
 30
0.0
 40
2.2316769170409052
 50
169.8131096333473
 51
245.51712393648839
  0
ARC
  5
5E6
  8
0
 10
3925.8855979992582
 20
358.25821949376922
 30
0.0
 40
53.150338970528701
 50
210.2124350601828
 51
239.29143639062201
  0
ARC
  5
5E7
  8
0
 10
3901.725686851858
 20
308.14096099511812
 30
0.0
 40
5.332006561880835
 50
124.0107347709716
 51
190.74808764777109
  0
ARC
  5
5E8
  8
0
 10
3910.8651105661779
 20
200.09016850764721
 30
0.0
 40
108.01759458626449
 50
97.649166221865684
 51
101.0176578989028
  0
ARC
  5
5E9
  8
0
 10
3859.5614043543919
 20
364.11168922594982
 30
0.0
 40
65.600754822101436
 50
288.1646837562779
 51
297.86418234876481
  0
ARC
  5
5EA
  8
0
 10
3889.3626997562942
 20
283.79030220528091
 30
0.0
 40
20.274718304808282
 50
117.4633110715276
 51
171.09321561529021
  0
ARC
  5
5EB
  8
0
 10
3873.5442246041648
 20
244.244008481648
 30
0.0
 40
42.89265874124338
 50
66.16901166683293
 51
95.635128114031048
  0
ARC
  5
5EC
  8
0
 10
3909.9310702265489
 20
323.63371163633218
 30
0.0
 40
44.446541149773743
 50
244.61168860748251
 51
284.39179450311548
  0
ARC
  5
5ED
  8
0
 10
3892.8605693359609
 20
375.1281045808085
 30
0.0
 40
98.638639604917046
 50
286.56232004634347
 51
304.90180598688602
  0
ARC
  5
5EE
  8
0
 10
3971.5722268662798
 20
263.05074324070108
 30
0.0
 40
38.318756796563378
 50
81.031574444311474
 51
125.53968437568589
  0
ARC
  5
5EF
  8
0
 10
3966.84937332342
 20
296.30566509322767
 30
0.0
 40
11.64172306495372
 50
23.249284493959721
 51
65.830537735941164
  0
ENDBLK
  5
5F1
  8
0
 62
     1
  0
BLOCK
  8
0
 62
     1
  2
*U55
 70
     1
 10
0.0
 20
0.0
 30
0.0
  3
*U55
  1

  0
ARC
  5
5F3
  8
0
 10
3937.4613783719919
 20
378.15875635401858
 30
0.0
 40
2.2316769170409172
 50
169.81310963335019
 51
245.51712393648791
  0
ARC
  5
5F4
  8
0
 10
3961.6709945284638
 20
393.10100657658268
 30
0.0
 40
30.14820428821535
 50
185.6495591754869
 51
208.8510831909247
  0
ARC
  5
5F5
  8
0
 10
3925.7067144751031
 20
352.28108436561467
 30
0.0
 40
38.318756796563228
 50
81.048224768439326
 51
125.5396843756951
  0
ARC
  5
5F6
  8
0
 10
3846.9950569447842
 20
464.35844570572181
 30
0.0
 40
98.638639604916733
 50
286.56232004634052
 51
304.90180598688232
  0
ARC
  5
5F7
  8
0
 10
3864.0655578353731
 20
412.86405276124549
 30
0.0
 40
44.446541149773537
 50
244.6116886074978
 51
284.3917945031094
  0
ARC
  5
5F8
  8
0
 10
3827.678712212989
 20
333.47434960656102
 30
0.0
 40
42.892658741243878
 50
66.169011666817241
 51
95.635128114031588
  0
ARC
  5
5F9
  8
0
 10
3802.8550746242258
 20
330.43398072205719
 30
0.0
 40
50.156685512185867
 50
42.460350494214111
 51
65.735490728716172
  0
ARC
  5
5FA
  8
0
 10
3837.4099698879459
 20
361.16394837535671
 30
0.0
 40
3.9734140234340738
 50
302.30121512460232
 51
51.969715909759238
  0
ARC
  5
5FB
  8
0
 10
3852.2379953654772
 20
331.0150636398418
 30
0.0
 40
29.650190519859301
 50
115.3716436664246
 51
140.9527347286635
  0
ARC
  5
5FC
  8
0
 10
3835.0213736566402
 20
383.6549853330547
 30
0.0
 40
34.454927579250459
 50
260.29120356683211
 51
301.78298595976349
  0
ARC
  5
5FD
  8
0
 10
3862.2918021225369
 20
338.77722787427382
 30
0.0
 40
18.062557138790929
 50
77.01614894302331
 51
120.33616599613239
  0
ARC
  5
5FE
  8
0
 10
3846.6462952996371
 20
341.65371228439352
 30
0.0
 40
24.597592277817562
 50
23.703479147569869
 51
36.770150315845832
  0
ARC
  5
5FF
  8
0
 10
3864.4022398426409
 20
340.92083565568481
 30
0.0
 40
11.64172306495359
 50
23.229827112001971
 51
65.83053773594078
  0
ARC
  5
600
  8
0
 10
3909.3423879939401
 20
397.08636777405201
 30
0.0
 40
61.906270381644141
 50
236.41798687092421
 51
258.7382530819844
  0
ARC
  5
601
  8
0
 10
3920.316631723319
 20
341.70638788770259
 30
0.0
 40
23.672835586626292
 50
162.96067320773381
 51
193.0225360750791
  0
ARC
  5
602
  8
0
 10
3974.9149998872558
 20
444.30395585457501
 30
0.0
 40
122.94621753849
 50
231.08420465688189
 51
246.51208085695049
  0
ARC
  5
603
  8
0
 10
3945.9443208458961
 20
328.40547276773799
 30
0.0
 40
20.274718304808179
 50
117.463311071532
 51
171.09321561529021
  0
ARC
  5
604
  8
0
 10
3916.1430254439952
 20
408.7268597884073
 30
0.0
 40
65.600754822102061
 50
288.16468375627568
 51
297.86418234876419
  0
ARC
  5
605
  8
0
 10
3967.4467316557812
 20
244.7053390701019
 30
0.0
 40
108.0175945862666
 50
97.649166221865755
 51
101.017657898903
  0
ARC
  5
606
  8
0
 10
3958.3073079414612
 20
352.75613155757537
 30
0.0
 40
5.33200656188066
 50
124.0107347709781
 51
190.7480876477747
  0
ARC
  5
607
  8
0
 10
3982.4672190888618
 20
402.87339005622613
 30
0.0
 40
53.150338970528793
 50
210.21243506018209
 51
239.29143639062119
  0
ENDBLK
  5
609
  8
0
 62
     1
  0
BLOCK
  8
0
 62
     1
  2
*U56
 70
     1
 10
0.0
 20
0.0
 30
0.0
  3
*U56
  1

  0
ARC
  5
60B
  8
0
 10
4005.675049870018
 20
341.65371228439369
 30
0.0
 40
24.59759227781754
 50
23.703479147569759
 51
36.770150315845747
  0
ARC
  5
60C
  8
0
 10
4021.3205566929182
 20
338.77722787427382
 30
0.0
 40
18.06255713879106
 50
77.016148943021989
 51
120.33616599613271
  0
ARC
  5
60D
  8
0
 10
3994.050128227022
 20
383.65498533305481
 30
0.0
 40
34.454927579250338
 50
260.29120356683211
 51
301.7829859597627
  0
ARC
  5
60E
  8
0
 10
4011.266749935859
 20
331.01506363984231
 30
0.0
 40
29.650190519859009
 50
115.37164366642401
 51
140.95273472866339
  0
ARC
  5
60F
  8
0
 10
3996.4387244583281
 20
361.16394837535682
 30
0.0
 40
3.9734140234340938
 50
302.30121512460852
 51
51.969715909711603
  0
ARC
  5
610
  8
0
 10
3961.8838291946081
 20
330.43398072205707
 30
0.0
 40
50.156685512186172
 50
42.460350494211028
 51
65.735490728719824
  0
ARC
  5
611
  8
0
 10
4031.496620976859
 20
488.91912641703209
 30
0.0
 40
122.9462175384904
 50
231.08420465688201
 51
246.51208085694921
  0
ARC
  5
612
  8
0
 10
3976.8982528129209
 20
386.32155845015927
 30
0.0
 40
23.672835586626231
 50
162.96067320773369
 51
193.02253607507899
  0
ARC
  5
613
  8
0
 10
3965.9240090835419
 20
441.70153833650869
 30
0.0
 40
61.906270381644077
 50
236.4036829862707
 51
258.7382530819844
  0
ARC
  5
614
  8
0
 10
3961.6709945284638
 20
393.1010065765812
 30
0.0
 40
30.148204288214789
 50
185.64348020259271
 51
208.8510831909216
  0
ARC
  5
615
  8
0
 10
3937.4613783719919
 20
378.15875635401858
 30
0.0
 40
2.2316769170409052
 50
169.8131096333459
 51
245.51712393648839
  0
ARC
  5
616
  8
0
 10
3982.46721908886
 20
402.87339005622619
 30
0.0
 40
53.150338970528701
 50
210.21243506018291
 51
239.2914363906221
  0
ARC
  5
617
  8
0
 10
3958.3073079414598
 20
352.7561315575752
 30
0.0
 40
5.332006561880835
 50
124.0107347709716
 51
190.74808764777109
  0
ARC
  5
618
  8
0
 10
3967.4467316557798
 20
244.7053390701042
 30
0.0
 40
108.01759458626449
 50
97.649166221865684
 51
101.0176578989028
  0
ARC
  5
619
  8
0
 10
3916.1430254439952
 20
408.72685978840673
 30
0.0
 40
65.600754822101436
 50
288.16468375627801
 51
297.86418234876493
  0
ARC
  5
61A
  8
0
 10
3945.9443208458961
 20
328.40547276773788
 30
0.0
 40
20.274718304808282
 50
117.4633110715276
 51
171.09321561529021
  0
ARC
  5
61B
  8
0
 10
3930.125845693768
 20
288.85917904410508
 30
0.0
 40
42.89265874124338
 50
66.16901166683293
 51
95.635128114031048
  0
ARC
  5
61C
  8
0
 10
3966.5126913161521
 20
368.24888219878932
 30
0.0
 40
44.446541149773743
 50
244.61168860748251
 51
284.39179450311542
  0
ARC
  5
61D
  8
0
 10
3949.4421904255628
 20
419.74327514326558
 30
0.0
 40
98.638639604917046
 50
286.56232004634347
 51
304.90180598688602
  0
ARC
  5
61E
  8
0
 10
4028.1538479558822
 20
307.66591380315822
 30
0.0
 40
38.318756796563378
 50
81.031574444311474
 51
125.53968437568589
  0
ARC
  5
61F
  8
0
 10
4023.4309944130218
 20
340.92083565568481
 30
0.0
 40
11.64172306495372
 50
23.249284493959721
 51
65.830537735941164
  0
ENDBLK
  5
621
  8
0
 62
     1
  0
BLOCK
  8
0
 62
     1
  2
*U57
 70
     1
 10
0.0
 20
0.0
 30
0.0
  3
*U57
  1

  0
ARC
  5
623
  8
0
 10
4005.675049870018
 20
341.65371228439381
 30
0.0
 40
24.59759227781754
 50
23.703479147569759
 51
36.770150315845747
  0
ARC
  5
624
  8
0
 10
4021.3205566929182
 20
338.77722787427382
 30
0.0
 40
18.06255713879106
 50
77.016148943021989
 51
120.33616599613271
  0
ARC
  5
625
  8
0
 10
3994.050128227022
 20
383.65498533305481
 30
0.0
 40
34.454927579250338
 50
260.29120356683211
 51
301.7829859597627
  0
ARC
  5
626
  8
0
 10
4011.266749935859
 20
331.01506363984231
 30
0.0
 40
29.650190519859009
 50
115.37164366642401
 51
140.95273472866339
  0
ARC
  5
627
  8
0
 10
3996.4387244583281
 20
361.16394837535688
 30
0.0
 40
3.9734140234340938
 50
302.30121512460818
 51
51.969715909711518
  0
ARC
  5
628
  8
0
 10
3961.8838291946081
 20
330.43398072205707
 30
0.0
 40
50.156685512186172
 50
42.460350494211049
 51
65.735490728719824
  0
ARC
  5
629
  8
0
 10
4031.496620976859
 20
488.91912641703209
 30
0.0
 40
122.9462175384904
 50
231.08420465688201
 51
246.51208085694921
  0
ARC
  5
62A
  8
0
 10
3976.8982528129209
 20
386.32155845015939
 30
0.0
 40
23.672835586626231
 50
162.96067320773381
 51
193.02253607507899
  0
ARC
  5
62B
  8
0
 10
3965.9240090835419
 20
441.70153833650869
 30
0.0
 40
61.906270381644077
 50
236.4036829862707
 51
258.7382530819844
  0
ARC
  5
62C
  8
0
 10
3961.6709945284638
 20
393.10100657658131
 30
0.0
 40
30.148204288214789
 50
185.6434802025928
 51
208.85108319092171
  0
ARC
  5
62D
  8
0
 10
3937.4613783719919
 20
378.15875635401869
 30
0.0
 40
2.2316769170409052
 50
169.8131096333473
 51
245.51712393648839
  0
ARC
  5
62E
  8
0
 10
3982.46721908886
 20
402.87339005622619
 30
0.0
 40
53.150338970528701
 50
210.2124350601828
 51
239.29143639062201
  0
ARC
  5
62F
  8
0
 10
3958.3073079414598
 20
352.7561315575752
 30
0.0
 40
5.332006561880835
 50
124.0107347709716
 51
190.74808764777109
  0
ARC
  5
630
  8
0
 10
3967.4467316557798
 20
244.70533907010429
 30
0.0
 40
108.01759458626449
 50
97.649166221865684
 51
101.0176578989028
  0
ARC
  5
631
  8
0
 10
3916.1430254439952
 20
408.72685978840678
 30
0.0
 40
65.600754822101436
 50
288.1646837562779
 51
297.86418234876481
  0
ARC
  5
632
  8
0
 10
3945.9443208458961
 20
328.40547276773799
 30
0.0
 40
20.274718304808282
 50
117.4633110715276
 51
171.09321561529021
  0
ARC
  5
633
  8
0
 10
3930.125845693768
 20
288.85917904410508
 30
0.0
 40
42.89265874124338
 50
66.16901166683293
 51
95.635128114031048
  0
ARC
  5
634
  8
0
 10
3966.5126913161521
 20
368.24888219878932
 30
0.0
 40
44.446541149773743
 50
244.61168860748251
 51
284.39179450311548
  0
ARC
  5
635
  8
0
 10
3949.4421904255628
 20
419.74327514326558
 30
0.0
 40
98.638639604917046
 50
286.56232004634347
 51
304.90180598688602
  0
ARC
  5
636
  8
0
 10
4028.1538479558822
 20
307.66591380315822
 30
0.0
 40
38.318756796563378
 50
81.031574444311474
 51
125.53968437568589
  0
ARC
  5
637
  8
0
 10
4023.4309944130218
 20
340.92083565568481
 30
0.0
 40
11.64172306495372
 50
23.249284493959721
 51
65.830537735941164
  0
ENDBLK
  5
639
  8
0
 62
     1
  0
BLOCK
  8
0
 62
     1
  2
*U58
 70
     1
 10
0.0
 20
0.0
 30
0.0
  3
*U58
  1

  0
ARC
  5
63B
  8
0
 10
3778.4326238016101
 20
378.15875635401858
 30
0.0
 40
2.2316769170409172
 50
169.81310963335019
 51
245.51712393648791
  0
ARC
  5
63C
  8
0
 10
3802.642239958082
 20
393.10100657658268
 30
0.0
 40
30.14820428821535
 50
185.6495591754869
 51
208.8510831909247
  0
ARC
  5
63D
  8
0
 10
3766.6779599047218
 20
352.28108436561467
 30
0.0
 40
38.318756796563228
 50
81.048224768439326
 51
125.5396843756951
  0
ARC
  5
63E
  8
0
 10
3687.9663023744029
 20
464.35844570572181
 30
0.0
 40
98.638639604916733
 50
286.56232004634052
 51
304.90180598688232
  0
ARC
  5
63F
  8
0
 10
3705.0368032649922
 20
412.86405276124549
 30
0.0
 40
44.446541149773537
 50
244.6116886074978
 51
284.3917945031094
  0
ARC
  5
640
  8
0
 10
3668.6499576426072
 20
333.47434960656102
 30
0.0
 40
42.892658741243878
 50
66.169011666817241
 51
95.635128114031588
  0
ARC
  5
641
  8
0
 10
3643.826320053844
 20
330.43398072205719
 30
0.0
 40
50.156685512185867
 50
42.460350494214111
 51
65.735490728716172
  0
ARC
  5
642
  8
0
 10
3678.381215317565
 20
361.16394837535671
 30
0.0
 40
3.9734140234340738
 50
302.30121512460232
 51
51.969715909759238
  0
ARC
  5
643
  8
0
 10
3693.209240795095
 20
331.0150636398418
 30
0.0
 40
29.650190519859301
 50
115.3716436664246
 51
140.9527347286635
  0
ARC
  5
644
  8
0
 10
3675.9926190862589
 20
383.6549853330547
 30
0.0
 40
34.454927579250459
 50
260.29120356683211
 51
301.78298595976349
  0
ARC
  5
645
  8
0
 10
3703.2630475521551
 20
338.77722787427382
 30
0.0
 40
18.062557138790929
 50
77.01614894302331
 51
120.33616599613239
  0
ARC
  5
646
  8
0
 10
3687.6175407292549
 20
341.65371228439352
 30
0.0
 40
24.597592277817562
 50
23.703479147569869
 51
36.770150315845832
  0
ARC
  5
647
  8
0
 10
3705.3734852722591
 20
340.92083565568481
 30
0.0
 40
11.64172306495359
 50
23.229827112001971
 51
65.83053773594078
  0
ARC
  5
648
  8
0
 10
3750.3136334235578
 20
397.08636777405201
 30
0.0
 40
61.906270381644141
 50
236.41798687092421
 51
258.7382530819844
  0
ARC
  5
649
  8
0
 10
3761.2878771529372
 20
341.70638788770259
 30
0.0
 40
23.672835586626292
 50
162.96067320773381
 51
193.0225360750791
  0
ARC
  5
64A
  8
0
 10
3815.886245316874
 20
444.30395585457501
 30
0.0
 40
122.94621753849
 50
231.08420465688189
 51
246.51208085695049
  0
ARC
  5
64B
  8
0
 10
3786.9155662755138
 20
328.40547276773799
 30
0.0
 40
20.274718304808179
 50
117.463311071532
 51
171.09321561529021
  0
ARC
  5
64C
  8
0
 10
3757.1142708736129
 20
408.7268597884073
 30
0.0
 40
65.600754822102061
 50
288.16468375627568
 51
297.86418234876419
  0
ARC
  5
64D
  8
0
 10
3808.4179770853989
 20
244.7053390701019
 30
0.0
 40
108.0175945862666
 50
97.649166221865755
 51
101.017657898903
  0
ARC
  5
64E
  8
0
 10
3799.2785533710789
 20
352.75613155757537
 30
0.0
 40
5.33200656188066
 50
124.0107347709781
 51
190.7480876477747
  0
ARC
  5
64F
  8
0
 10
3823.43846451848
 20
402.87339005622613
 30
0.0
 40
53.150338970528793
 50
210.21243506018209
 51
239.29143639062119
  0
ENDBLK
  5
651
  8
0
 62
     1
  0
BLOCK
  8
0
 62
     1
  2
*U59
 70
     1
 10
0.0
 20
0.0
 30
0.0
  3
*U59
  1

  0
ARC
  5
653
  8
0
 10
3846.6462952996371
 20
341.65371228439369
 30
0.0
 40
24.59759227781754
 50
23.703479147569759
 51
36.770150315845747
  0
ARC
  5
654
  8
0
 10
3862.2918021225369
 20
338.77722787427382
 30
0.0
 40
18.06255713879106
 50
77.016148943021989
 51
120.33616599613271
  0
ARC
  5
655
  8
0
 10
3835.0213736566402
 20
383.65498533305481
 30
0.0
 40
34.454927579250338
 50
260.29120356683211
 51
301.7829859597627
  0
ARC
  5
656
  8
0
 10
3852.2379953654772
 20
331.01506363984231
 30
0.0
 40
29.650190519859009
 50
115.37164366642401
 51
140.95273472866339
  0
ARC
  5
657
  8
0
 10
3837.4099698879459
 20
361.16394837535682
 30
0.0
 40
3.9734140234340938
 50
302.30121512460852
 51
51.969715909711603
  0
ARC
  5
658
  8
0
 10
3802.8550746242258
 20
330.43398072205707
 30
0.0
 40
50.156685512186172
 50
42.460350494211028
 51
65.735490728719824
  0
ARC
  5
659
  8
0
 10
3872.4678664064759
 20
488.91912641703209
 30
0.0
 40
122.9462175384904
 50
231.08420465688201
 51
246.51208085694921
  0
ARC
  5
65A
  8
0
 10
3817.86949824254
 20
386.32155845015927
 30
0.0
 40
23.672835586626231
 50
162.96067320773369
 51
193.02253607507899
  0
ARC
  5
65B
  8
0
 10
3806.8952545131601
 20
441.70153833650869
 30
0.0
 40
61.906270381644077
 50
236.4036829862707
 51
258.7382530819844
  0
ARC
  5
65C
  8
0
 10
3802.642239958082
 20
393.1010065765812
 30
0.0
 40
30.148204288214789
 50
185.64348020259271
 51
208.8510831909216
  0
ARC
  5
65D
  8
0
 10
3778.4326238016101
 20
378.15875635401858
 30
0.0
 40
2.2316769170409052
 50
169.8131096333459
 51
245.51712393648839
  0
ARC
  5
65E
  8
0
 10
3823.4384645184791
 20
402.87339005622619
 30
0.0
 40
53.150338970528701
 50
210.21243506018291
 51
239.2914363906221
  0
ARC
  5
65F
  8
0
 10
3799.2785533710789
 20
352.7561315575752
 30
0.0
 40
5.332006561880835
 50
124.0107347709716
 51
190.74808764777109
  0
ARC
  5
660
  8
0
 10
3808.4179770853989
 20
244.7053390701042
 30
0.0
 40
108.01759458626449
 50
97.649166221865684
 51
101.0176578989028
  0
ARC
  5
661
  8
0
 10
3757.1142708736129
 20
408.72685978840673
 30
0.0
 40
65.600754822101436
 50
288.16468375627801
 51
297.86418234876493
  0
ARC
  5
662
  8
0
 10
3786.9155662755152
 20
328.40547276773788
 30
0.0
 40
20.274718304808282
 50
117.4633110715276
 51
171.09321561529021
  0
ARC
  5
663
  8
0
 10
3771.0970911233858
 20
288.85917904410508
 30
0.0
 40
42.89265874124338
 50
66.16901166683293
 51
95.635128114031048
  0
ARC
  5
664
  8
0
 10
3807.4839367457712
 20
368.24888219878932
 30
0.0
 40
44.446541149773743
 50
244.61168860748251
 51
284.39179450311542
  0
ARC
  5
665
  8
0
 10
3790.4134358551819
 20
419.74327514326558
 30
0.0
 40
98.638639604917046
 50
286.56232004634347
 51
304.90180598688602
  0
ARC
  5
666
  8
0
 10
3869.1250933854999
 20
307.66591380315822
 30
0.0
 40
38.318756796563378
 50
81.031574444311474
 51
125.53968437568589
  0
ARC
  5
667
  8
0
 10
3864.4022398426409
 20
340.92083565568481
 30
0.0
 40
11.64172306495372
 50
23.249284493959721
 51
65.830537735941164
  0
ENDBLK
  5
669
  8
0
 62
     1
  0
BLOCK
  8
0
 62
     1
  2
*U60
 70
     1
 10
0.0
 20
0.0
 30
0.0
  3
*U60
  1

  0
ARC
  5
66B
  8
0
 10
3846.6462952996371
 20
341.65371228439381
 30
0.0
 40
24.59759227781754
 50
23.703479147569759
 51
36.770150315845747
  0
ARC
  5
66C
  8
0
 10
3862.2918021225369
 20
338.77722787427382
 30
0.0
 40
18.06255713879106
 50
77.016148943021989
 51
120.33616599613271
  0
ARC
  5
66D
  8
0
 10
3835.0213736566402
 20
383.65498533305481
 30
0.0
 40
34.454927579250338
 50
260.29120356683211
 51
301.7829859597627
  0
ARC
  5
66E
  8
0
 10
3852.2379953654772
 20
331.01506363984231
 30
0.0
 40
29.650190519859009
 50
115.37164366642401
 51
140.95273472866339
  0
ARC
  5
66F
  8
0
 10
3837.4099698879459
 20
361.16394837535688
 30
0.0
 40
3.9734140234340938
 50
302.30121512460818
 51
51.969715909711518
  0
ARC
  5
670
  8
0
 10
3802.8550746242258
 20
330.43398072205707
 30
0.0
 40
50.156685512186172
 50
42.460350494211049
 51
65.735490728719824
  0
ARC
  5
671
  8
0
 10
3872.4678664064759
 20
488.91912641703209
 30
0.0
 40
122.9462175384904
 50
231.08420465688201
 51
246.51208085694921
  0
ARC
  5
672
  8
0
 10
3817.86949824254
 20
386.32155845015939
 30
0.0
 40
23.672835586626231
 50
162.96067320773381
 51
193.02253607507899
  0
ARC
  5
673
  8
0
 10
3806.8952545131601
 20
441.70153833650869
 30
0.0
 40
61.906270381644077
 50
236.4036829862707
 51
258.7382530819844
  0
ARC
  5
674
  8
0
 10
3802.642239958082
 20
393.10100657658131
 30
0.0
 40
30.148204288214789
 50
185.6434802025928
 51
208.85108319092171
  0
ARC
  5
675
  8
0
 10
3778.4326238016101
 20
378.15875635401869
 30
0.0
 40
2.2316769170409052
 50
169.8131096333473
 51
245.51712393648839
  0
ARC
  5
676
  8
0
 10
3823.4384645184791
 20
402.87339005622619
 30
0.0
 40
53.150338970528701
 50
210.2124350601828
 51
239.29143639062201
  0
ARC
  5
677
  8
0
 10
3799.2785533710789
 20
352.7561315575752
 30
0.0
 40
5.332006561880835
 50
124.0107347709716
 51
190.74808764777109
  0
ARC
  5
678
  8
0
 10
3808.4179770853989
 20
244.70533907010429
 30
0.0
 40
108.01759458626449
 50
97.649166221865684
 51
101.0176578989028
  0
ARC
  5
679
  8
0
 10
3757.1142708736129
 20
408.72685978840678
 30
0.0
 40
65.600754822101436
 50
288.1646837562779
 51
297.86418234876481
  0
ARC
  5
67A
  8
0
 10
3786.9155662755152
 20
328.40547276773799
 30
0.0
 40
20.274718304808282
 50
117.4633110715276
 51
171.09321561529021
  0
ARC
  5
67B
  8
0
 10
3771.0970911233858
 20
288.85917904410508
 30
0.0
 40
42.89265874124338
 50
66.16901166683293
 51
95.635128114031048
  0
ARC
  5
67C
  8
0
 10
3807.4839367457712
 20
368.24888219878932
 30
0.0
 40
44.446541149773743
 50
244.61168860748251
 51
284.39179450311548
  0
ARC
  5
67D
  8
0
 10
3790.4134358551819
 20
419.74327514326558
 30
0.0
 40
98.638639604917046
 50
286.56232004634347
 51
304.90180598688602
  0
ARC
  5
67E
  8
0
 10
3869.1250933854999
 20
307.66591380315822
 30
0.0
 40
38.318756796563378
 50
81.031574444311474
 51
125.53968437568589
  0
ARC
  5
67F
  8
0
 10
3864.4022398426409
 20
340.92083565568481
 30
0.0
 40
11.64172306495372
 50
23.249284493959721
 51
65.830537735941164
  0
ENDBLK
  5
681
  8
0
 62
     1
  0
BLOCK
  8
0
 62
     1
  2
*U61
 70
     1
 10
0.0
 20
0.0
 30
0.0
  3
*U61
  1

  0
ARC
  5
683
  8
0
 10
3913.9327107097388
 20
520.11931200421304
 30
0.0
 40
24.59759227781754
 50
23.703479147569759
 51
36.770150315845747
  0
ARC
  5
684
  8
0
 10
3929.578217532639
 20
517.24282759409311
 30
0.0
 40
18.06255713879106
 50
77.016148943021989
 51
120.33616599613271
  0
ARC
  5
685
  8
0
 10
3902.3077890667432
 20
562.12058505287405
 30
0.0
 40
34.454927579250338
 50
260.29120356683211
 51
301.7829859597627
  0
ARC
  5
686
  8
0
 10
3919.5244107755789
 20
509.48066335966149
 30
0.0
 40
29.650190519859009
 50
115.37164366642401
 51
140.95273472866339
  0
ARC
  5
687
  8
0
 10
3904.696385298048
 20
539.62954809517612
 30
0.0
 40
3.9734140234340938
 50
302.30121512460852
 51
51.969715909711603
  0
ARC
  5
688
  8
0
 10
3870.1414900343279
 20
508.89958044187631
 30
0.0
 40
50.156685512186172
 50
42.460350494211028
 51
65.735490728719824
  0
ARC
  5
689
  8
0
 10
3939.754281816578
 20
667.38472613685144
 30
0.0
 40
122.9462175384904
 50
231.08420465688201
 51
246.51208085694921
  0
ARC
  5
68A
  8
0
 10
3885.1559136526421
 20
564.78715816997862
 30
0.0
 40
23.672835586626231
 50
162.96067320773369
 51
193.02253607507899
  0
ARC
  5
68B
  8
0
 10
3874.1816699232618
 20
620.16713805632787
 30
0.0
 40
61.906270381644077
 50
236.4036829862707
 51
258.7382530819844
  0
ARC
  5
68C
  8
0
 10
3869.9286553681841
 20
571.56660629640055
 30
0.0
 40
30.148204288214789
 50
185.64348020259271
 51
208.8510831909216
  0
ARC
  5
68D
  8
0
 10
3845.7190392117118
 20
556.62435607383793
 30
0.0
 40
2.2316769170409052
 50
169.8131096333459
 51
245.51712393648839
  0
ARC
  5
68E
  8
0
 10
3890.7248799285808
 20
581.33898977604554
 30
0.0
 40
53.150338970528701
 50
210.21243506018291
 51
239.2914363906221
  0
ARC
  5
68F
  8
0
 10
3866.5649687811811
 20
531.22173127739438
 30
0.0
 40
5.332006561880835
 50
124.0107347709716
 51
190.74808764777109
  0
ARC
  5
690
  8
0
 10
3875.704392495501
 20
423.17093878992341
 30
0.0
 40
108.01759458626449
 50
97.649166221865684
 51
101.0176578989028
  0
ARC
  5
691
  8
0
 10
3824.400686283715
 20
587.19245950822597
 30
0.0
 40
65.600754822101436
 50
288.16468375627801
 51
297.86418234876493
  0
ARC
  5
692
  8
0
 10
3854.2019816856168
 20
506.87107248755729
 30
0.0
 40
20.274718304808282
 50
117.4633110715276
 51
171.09321561529021
  0
ARC
  5
693
  8
0
 10
3838.3835065334879
 20
467.32477876392443
 30
0.0
 40
42.89265874124338
 50
66.16901166683293
 51
95.635128114031048
  0
ARC
  5
694
  8
0
 10
3874.7703521558728
 20
546.71448191860861
 30
0.0
 40
44.446541149773743
 50
244.61168860748251
 51
284.39179450311542
  0
ARC
  5
695
  8
0
 10
3857.699851265284
 20
598.20887486308493
 30
0.0
 40
98.638639604917046
 50
286.56232004634347
 51
304.90180598688602
  0
ARC
  5
696
  8
0
 10
3936.411508795602
 20
486.1315135229774
 30
0.0
 40
38.318756796563378
 50
81.031574444311474
 51
125.53968437568589
  0
ARC
  5
697
  8
0
 10
3931.688655252743
 20
519.38643537550399
 30
0.0
 40
11.64172306495372
 50
23.249284493959721
 51
65.830537735941164
  0
ENDBLK
  5
699
  8
0
 62
     1
  0
BLOCK
  8
0
 62
     1
  2
*U62
 70
     1
 10
0.0
 20
0.0
 30
0.0
  3
*U62
  1

  0
ARC
  5
69B
  8
0
 10
3913.9327107097388
 20
520.11931200421304
 30
0.0
 40
24.59759227781754
 50
23.703479147569759
 51
36.770150315845747
  0
ARC
  5
69C
  8
0
 10
3929.578217532639
 20
517.24282759409311
 30
0.0
 40
18.06255713879106
 50
77.016148943021989
 51
120.33616599613271
  0
ARC
  5
69D
  8
0
 10
3902.3077890667432
 20
562.12058505287405
 30
0.0
 40
34.454927579250338
 50
260.29120356683211
 51
301.7829859597627
  0
ARC
  5
69E
  8
0
 10
3919.5244107755789
 20
509.48066335966161
 30
0.0
 40
29.650190519859009
 50
115.37164366642401
 51
140.95273472866339
  0
ARC
  5
69F
  8
0
 10
3904.696385298048
 20
539.62954809517623
 30
0.0
 40
3.9734140234340938
 50
302.30121512460818
 51
51.969715909711518
  0
ARC
  5
6A0
  8
0
 10
3870.1414900343279
 20
508.89958044187642
 30
0.0
 40
50.156685512186172
 50
42.460350494211049
 51
65.735490728719824
  0
ARC
  5
6A1
  8
0
 10
3939.754281816578
 20
667.38472613685144
 30
0.0
 40
122.9462175384904
 50
231.08420465688201
 51
246.51208085694921
  0
ARC
  5
6A2
  8
0
 10
3885.1559136526421
 20
564.78715816997874
 30
0.0
 40
23.672835586626231
 50
162.96067320773381
 51
193.02253607507899
  0
ARC
  5
6A3
  8
0
 10
3874.1816699232618
 20
620.16713805632787
 30
0.0
 40
61.906270381644077
 50
236.4036829862707
 51
258.7382530819844
  0
ARC
  5
6A4
  8
0
 10
3869.9286553681841
 20
571.56660629640055
 30
0.0
 40
30.148204288214789
 50
185.6434802025928
 51
208.85108319092171
  0
ARC
  5
6A5
  8
0
 10
3845.7190392117118
 20
556.62435607383804
 30
0.0
 40
2.2316769170409052
 50
169.8131096333473
 51
245.51712393648839
  0
ARC
  5
6A6
  8
0
 10
3890.7248799285808
 20
581.33898977604554
 30
0.0
 40
53.150338970528701
 50
210.2124350601828
 51
239.29143639062201
  0
ARC
  5
6A7
  8
0
 10
3866.5649687811811
 20
531.22173127739438
 30
0.0
 40
5.332006561880835
 50
124.0107347709716
 51
190.74808764777109
  0
ARC
  5
6A8
  8
0
 10
3875.704392495501
 20
423.17093878992353
 30
0.0
 40
108.01759458626449
 50
97.649166221865684
 51
101.0176578989028
  0
ARC
  5
6A9
  8
0
 10
3824.400686283715
 20
587.19245950822608
 30
0.0
 40
65.600754822101436
 50
288.1646837562779
 51
297.86418234876481
  0
ARC
  5
6AA
  8
0
 10
3854.2019816856168
 20
506.87107248755729
 30
0.0
 40
20.274718304808282
 50
117.4633110715276
 51
171.09321561529021
  0
ARC
  5
6AB
  8
0
 10
3838.3835065334879
 20
467.32477876392443
 30
0.0
 40
42.89265874124338
 50
66.16901166683293
 51
95.635128114031048
  0
ARC
  5
6AC
  8
0
 10
3874.7703521558728
 20
546.71448191860861
 30
0.0
 40
44.446541149773743
 50
244.61168860748251
 51
284.39179450311548
  0
ARC
  5
6AD
  8
0
 10
3857.699851265284
 20
598.20887486308493
 30
0.0
 40
98.638639604917046
 50
286.56232004634347
 51
304.90180598688602
  0
ARC
  5
6AE
  8
0
 10
3936.411508795602
 20
486.13151352297751
 30
0.0
 40
38.318756796563378
 50
81.031574444311474
 51
125.53968437568589
  0
ARC
  5
6AF
  8
0
 10
3931.688655252743
 20
519.38643537550399
 30
0.0
 40
11.64172306495372
 50
23.249284493959721
 51
65.830537735941164
  0
ENDBLK
  5
6B1
  8
0
 62
     1
  0
BLOCK
  8
0
 62
     1
  2
*U63
 70
     1
 10
0.0
 20
0.0
 30
0.0
  3
*U63
  1

  0
ARC
  5
6B3
  8
0
 10
3857.3639639460011
 20
475.49559126895849
 30
0.0
 40
24.59759227781754
 50
23.703479147569759
 51
36.770150315845747
  0
ARC
  5
6B4
  8
0
 10
3873.0094707689009
 20
472.61910685883851
 30
0.0
 40
18.06255713879106
 50
77.016148943021989
 51
120.33616599613271
  0
ARC
  5
6B5
  8
0
 10
3845.7390423030042
 20
517.49686431761938
 30
0.0
 40
34.454927579250338
 50
260.29120356683211
 51
301.7829859597627
  0
ARC
  5
6B6
  8
0
 10
3862.9556640118408
 20
464.856942624407
 30
0.0
 40
29.650190519859009
 50
115.37164366642401
 51
140.95273472866339
  0
ARC
  5
6B7
  8
0
 10
3848.1276385343099
 20
495.00582735992151
 30
0.0
 40
3.9734140234340938
 50
302.30121512460852
 51
51.969715909711603
  0
ARC
  5
6B8
  8
0
 10
3813.5727432705899
 20
464.2758597066217
 30
0.0
 40
50.156685512186172
 50
42.460350494211028
 51
65.735490728719824
  0
ARC
  5
6B9
  8
0
 10
3883.1855350528408
 20
622.76100540159678
 30
0.0
 40
122.9462175384904
 50
231.08420465688201
 51
246.51208085694921
  0
ARC
  5
6BA
  8
0
 10
3828.587166888904
 20
520.16343743472396
 30
0.0
 40
23.672835586626231
 50
162.96067320773369
 51
193.02253607507899
  0
ARC
  5
6BB
  8
0
 10
3817.6129231595241
 20
575.54341732107343
 30
0.0
 40
61.906270381644077
 50
236.4036829862707
 51
258.7382530819844
  0
ARC
  5
6BC
  8
0
 10
3813.359908604446
 20
526.942885561146
 30
0.0
 40
30.148204288214789
 50
185.64348020259271
 51
208.8510831909216
  0
ARC
  5
6BD
  8
0
 10
3789.1502924479742
 20
512.00063533858327
 30
0.0
 40
2.2316769170409052
 50
169.8131096333459
 51
245.51712393648839
  0
ARC
  5
6BE
  8
0
 10
3834.1561331648431
 20
536.71526904079099
 30
0.0
 40
53.150338970528701
 50
210.21243506018291
 51
239.2914363906221
  0
ARC
  5
6BF
  8
0
 10
3809.9962220174421
 20
486.59801054213989
 30
0.0
 40
5.332006561880835
 50
124.0107347709716
 51
190.74808764777109
  0
ARC
  5
6C0
  8
0
 10
3819.135645731762
 20
378.54721805466897
 30
0.0
 40
108.01759458626449
 50
97.649166221865684
 51
101.0176578989028
  0
ARC
  5
6C1
  8
0
 10
3767.8319395199769
 20
542.56873877297153
 30
0.0
 40
65.600754822101436
 50
288.16468375627801
 51
297.86418234876493
  0
ARC
  5
6C2
  8
0
 10
3797.6332349218792
 20
462.24735175230268
 30
0.0
 40
20.274718304808282
 50
117.4633110715276
 51
171.09321561529021
  0
ARC
  5
6C3
  8
0
 10
3781.8147597697498
 20
422.70105802866982
 30
0.0
 40
42.89265874124338
 50
66.16901166683293
 51
95.635128114031048
  0
ARC
  5
6C4
  8
0
 10
3818.2016053921352
 20
502.090761183354
 30
0.0
 40
44.446541149773743
 50
244.61168860748251
 51
284.39179450311542
  0
ARC
  5
6C5
  8
0
 10
3801.131104501545
 20
553.58515412783038
 30
0.0
 40
98.638639604917046
 50
286.56232004634347
 51
304.90180598688602
  0
ARC
  5
6C6
  8
0
 10
3879.8427620318639
 20
441.50779278772291
 30
0.0
 40
38.318756796563378
 50
81.031574444311474
 51
125.53968437568589
  0
ARC
  5
6C7
  8
0
 10
3875.119908489005
 20
474.7627146402495
 30
0.0
 40
11.64172306495372
 50
23.249284493959721
 51
65.830537735941164
  0
ENDBLK
  5
6C9
  8
0
 62
     1
  0
BLOCK
  8
0
 62
     1
  2
*U64
 70
     1
 10
0.0
 20
0.0
 30
0.0
  3
*U64
  1

  0
ARC
  5
6CB
  8
0
 10
3857.3639639460011
 20
475.49559126895849
 30
0.0
 40
24.59759227781754
 50
23.703479147569759
 51
36.770150315845747
  0
ARC
  5
6CC
  8
0
 10
3873.0094707689009
 20
472.61910685883851
 30
0.0
 40
18.06255713879106
 50
77.016148943021989
 51
120.33616599613271
  0
ARC
  5
6CD
  8
0
 10
3845.7390423030042
 20
517.49686431761938
 30
0.0
 40
34.454927579250338
 50
260.29120356683211
 51
301.7829859597627
  0
ARC
  5
6CE
  8
0
 10
3862.9556640118408
 20
464.856942624407
 30
0.0
 40
29.650190519859009
 50
115.37164366642401
 51
140.95273472866339
  0
ARC
  5
6CF
  8
0
 10
3848.1276385343099
 20
495.00582735992162
 30
0.0
 40
3.9734140234340938
 50
302.30121512460818
 51
51.969715909711518
  0
ARC
  5
6D0
  8
0
 10
3813.5727432705899
 20
464.27585970662182
 30
0.0
 40
50.156685512186172
 50
42.460350494211049
 51
65.735490728719824
  0
ARC
  5
6D1
  8
0
 10
3883.1855350528408
 20
622.76100540159678
 30
0.0
 40
122.9462175384904
 50
231.08420465688201
 51
246.51208085694921
  0
ARC
  5
6D2
  8
0
 10
3828.587166888904
 20
520.16343743472396
 30
0.0
 40
23.672835586626231
 50
162.96067320773381
 51
193.02253607507899
  0
ARC
  5
6D3
  8
0
 10
3817.6129231595241
 20
575.54341732107343
 30
0.0
 40
61.906270381644077
 50
236.4036829862707
 51
258.7382530819844
  0
ARC
  5
6D4
  8
0
 10
3813.359908604446
 20
526.94288556114611
 30
0.0
 40
30.148204288214789
 50
185.6434802025928
 51
208.85108319092171
  0
ARC
  5
6D5
  8
0
 10
3789.1502924479742
 20
512.00063533858327
 30
0.0
 40
2.2316769170409052
 50
169.8131096333473
 51
245.51712393648839
  0
ARC
  5
6D6
  8
0
 10
3834.1561331648431
 20
536.71526904079099
 30
0.0
 40
53.150338970528701
 50
210.2124350601828
 51
239.29143639062201
  0
ARC
  5
6D7
  8
0
 10
3809.9962220174421
 20
486.59801054213989
 30
0.0
 40
5.332006561880835
 50
124.0107347709716
 51
190.74808764777109
  0
ARC
  5
6D8
  8
0
 10
3819.135645731762
 20
378.54721805466897
 30
0.0
 40
108.01759458626449
 50
97.649166221865684
 51
101.0176578989028
  0
ARC
  5
6D9
  8
0
 10
3767.8319395199769
 20
542.56873877297153
 30
0.0
 40
65.600754822101436
 50
288.1646837562779
 51
297.86418234876481
  0
ARC
  5
6DA
  8
0
 10
3797.6332349218792
 20
462.24735175230268
 30
0.0
 40
20.274718304808282
 50
117.4633110715276
 51
171.09321561529021
  0
ARC
  5
6DB
  8
0
 10
3781.8147597697498
 20
422.70105802866982
 30
0.0
 40
42.89265874124338
 50
66.16901166683293
 51
95.635128114031048
  0
ARC
  5
6DC
  8
0
 10
3818.2016053921352
 20
502.090761183354
 30
0.0
 40
44.446541149773743
 50
244.61168860748251
 51
284.39179450311548
  0
ARC
  5
6DD
  8
0
 10
3801.131104501545
 20
553.58515412783038
 30
0.0
 40
98.638639604917046
 50
286.56232004634347
 51
304.90180598688602
  0
ARC
  5
6DE
  8
0
 10
3879.8427620318639
 20
441.50779278772291
 30
0.0
 40
38.318756796563378
 50
81.031574444311474
 51
125.53968437568589
  0
ARC
  5
6DF
  8
0
 10
3875.119908489005
 20
474.7627146402495
 30
0.0
 40
11.64172306495372
 50
23.249284493959721
 51
65.830537735941164
  0
ENDBLK
  5
6E1
  8
0
 62
     1
  0
BLOCK
  8
0
 62
     1
  2
*U65
 70
     1
 10
0.0
 20
0.0
 30
0.0
  3
*U65
  1

  0
ARC
  5
6E3
  8
0
 10
3800.7694685305328
 20
430.8889708792999
 30
0.0
 40
24.59759227781754
 50
23.703479147569759
 51
36.770150315845747
  0
ARC
  5
6E4
  8
0
 10
3816.414975353433
 20
428.01248646917992
 30
0.0
 40
18.06255713879106
 50
77.016148943021989
 51
120.33616599613271
  0
ARC
  5
6E5
  8
0
 10
3789.1445468875372
 20
472.8902439279608
 30
0.0
 40
34.454927579250338
 50
260.29120356683211
 51
301.7829859597627
  0
ARC
  5
6E6
  8
0
 10
3806.3611685963738
 20
420.25032223474841
 30
0.0
 40
29.650190519859009
 50
115.37164366642401
 51
140.95273472866339
  0
ARC
  5
6E7
  8
0
 10
3791.5331431188429
 20
450.39920697026292
 30
0.0
 40
3.9734140234340938
 50
302.30121512460852
 51
51.969715909711603
  0
ARC
  5
6E8
  8
0
 10
3756.9782478551228
 20
419.66923931696311
 30
0.0
 40
50.156685512186172
 50
42.460350494211028
 51
65.735490728719824
  0
ARC
  5
6E9
  8
0
 10
3826.5910396373729
 20
578.15438501193819
 30
0.0
 40
122.9462175384904
 50
231.08420465688201
 51
246.51208085694921
  0
ARC
  5
6EA
  8
0
 10
3771.9926714734361
 20
475.55681704506537
 30
0.0
 40
23.672835586626231
 50
162.96067320773369
 51
193.02253607507899
  0
ARC
  5
6EB
  8
0
 10
3761.0184277440571
 20
530.93679693141485
 30
0.0
 40
61.906270381644077
 50
236.4036829862707
 51
258.7382530819844
  0
ARC
  5
6EC
  8
0
 10
3756.765413188979
 20
482.33626517148741
 30
0.0
 40
30.148204288214789
 50
185.64348020259271
 51
208.8510831909216
  0
ARC
  5
6ED
  8
0
 10
3732.5557970325071
 20
467.39401494892468
 30
0.0
 40
2.2316769170409052
 50
169.8131096333459
 51
245.51712393648839
  0
ARC
  5
6EE
  8
0
 10
3777.5616377493752
 20
492.1086486511324
 30
0.0
 40
53.150338970528701
 50
210.21243506018291
 51
239.2914363906221
  0
ARC
  5
6EF
  8
0
 10
3753.401726601975
 20
441.99139015248142
 30
0.0
 40
5.332006561880835
 50
124.0107347709716
 51
190.74808764777109
  0
ARC
  5
6F0
  8
0
 10
3762.541150316295
 20
333.94059766501039
 30
0.0
 40
108.01759458626449
 50
97.649166221865684
 51
101.0176578989028
  0
ARC
  5
6F1
  8
0
 10
3711.2374441045099
 20
497.96211838331288
 30
0.0
 40
65.600754822101436
 50
288.16468375627801
 51
297.86418234876493
  0
ARC
  5
6F2
  8
0
 10
3741.0387395064108
 20
417.64073136264409
 30
0.0
 40
20.274718304808282
 50
117.4633110715276
 51
171.09321561529021
  0
ARC
  5
6F3
  8
0
 10
3725.2202643542828
 20
378.09443763901129
 30
0.0
 40
42.89265874124338
 50
66.16901166683293
 51
95.635128114031048
  0
ARC
  5
6F4
  8
0
 10
3761.6071099766668
 20
457.48414079369542
 30
0.0
 40
44.446541149773743
 50
244.61168860748251
 51
284.39179450311542
  0
ARC
  5
6F5
  8
0
 10
3744.536609086078
 20
508.97853373817179
 30
0.0
 40
98.638639604917046
 50
286.56232004634347
 51
304.90180598688602
  0
ARC
  5
6F6
  8
0
 10
3823.2482666163969
 20
396.90117239806432
 30
0.0
 40
38.318756796563378
 50
81.031574444311474
 51
125.53968437568589
  0
ARC
  5
6F7
  8
0
 10
3818.525413073537
 20
430.15609425059102
 30
0.0
 40
11.64172306495372
 50
23.249284493959721
 51
65.830537735941164
  0
ENDBLK
  5
6F9
  8
0
 62
     1
  0
BLOCK
  8
0
 62
     1
  2
*U66
 70
     1
 10
0.0
 20
0.0
 30
0.0
  3
*U66
  1

  0
ARC
  5
6FB
  8
0
 10
3800.7694685305328
 20
430.8889708792999
 30
0.0
 40
24.59759227781754
 50
23.703479147569759
 51
36.770150315845747
  0
ARC
  5
6FC
  8
0
 10
3816.414975353433
 20
428.01248646917992
 30
0.0
 40
18.06255713879106
 50
77.016148943021989
 51
120.33616599613271
  0
ARC
  5
6FD
  8
0
 10
3789.1445468875372
 20
472.8902439279608
 30
0.0
 40
34.454927579250338
 50
260.29120356683211
 51
301.7829859597627
  0
ARC
  5
6FE
  8
0
 10
3806.3611685963738
 20
420.25032223474841
 30
0.0
 40
29.650190519859009
 50
115.37164366642401
 51
140.95273472866339
  0
ARC
  5
6FF
  8
0
 10
3791.5331431188429
 20
450.39920697026298
 30
0.0
 40
3.9734140234340938
 50
302.30121512460818
 51
51.969715909711518
  0
ARC
  5
700
  8
0
 10
3756.9782478551228
 20
419.66923931696323
 30
0.0
 40
50.156685512186172
 50
42.460350494211049
 51
65.735490728719824
  0
ARC
  5
701
  8
0
 10
3826.5910396373729
 20
578.15438501193819
 30
0.0
 40
122.9462175384904
 50
231.08420465688201
 51
246.51208085694921
  0
ARC
  5
702
  8
0
 10
3771.9926714734361
 20
475.55681704506549
 30
0.0
 40
23.672835586626231
 50
162.96067320773381
 51
193.02253607507899
  0
ARC
  5
703
  8
0
 10
3761.0184277440571
 20
530.93679693141485
 30
0.0
 40
61.906270381644077
 50
236.4036829862707
 51
258.7382530819844
  0
ARC
  5
704
  8
0
 10
3756.765413188979
 20
482.33626517148741
 30
0.0
 40
30.148204288214789
 50
185.6434802025928
 51
208.85108319092171
  0
ARC
  5
705
  8
0
 10
3732.5557970325071
 20
467.39401494892479
 30
0.0
 40
2.2316769170409052
 50
169.8131096333473
 51
245.51712393648839
  0
ARC
  5
706
  8
0
 10
3777.5616377493752
 20
492.1086486511324
 30
0.0
 40
53.150338970528701
 50
210.2124350601828
 51
239.29143639062201
  0
ARC
  5
707
  8
0
 10
3753.401726601975
 20
441.99139015248142
 30
0.0
 40
5.332006561880835
 50
124.0107347709716
 51
190.74808764777109
  0
ARC
  5
708
  8
0
 10
3762.541150316295
 20
333.94059766501039
 30
0.0
 40
108.01759458626449
 50
97.649166221865684
 51
101.0176578989028
  0
ARC
  5
709
  8
0
 10
3711.2374441045099
 20
497.96211838331288
 30
0.0
 40
65.600754822101436
 50
288.1646837562779
 51
297.86418234876481
  0
ARC
  5
70A
  8
0
 10
3741.0387395064108
 20
417.64073136264409
 30
0.0
 40
20.274718304808282
 50
117.4633110715276
 51
171.09321561529021
  0
ARC
  5
70B
  8
0
 10
3725.2202643542828
 20
378.09443763901129
 30
0.0
 40
42.89265874124338
 50
66.16901166683293
 51
95.635128114031048
  0
ARC
  5
70C
  8
0
 10
3761.6071099766668
 20
457.48414079369542
 30
0.0
 40
44.446541149773743
 50
244.61168860748251
 51
284.39179450311548
  0
ARC
  5
70D
  8
0
 10
3744.536609086078
 20
508.97853373817179
 30
0.0
 40
98.638639604917046
 50
286.56232004634347
 51
304.90180598688602
  0
ARC
  5
70E
  8
0
 10
3823.2482666163969
 20
396.90117239806438
 30
0.0
 40
38.318756796563378
 50
81.031574444311474
 51
125.53968437568589
  0
ARC
  5
70F
  8
0
 10
3818.525413073537
 20
430.15609425059102
 30
0.0
 40
11.64172306495372
 50
23.249284493959721
 51
65.830537735941164
  0
ENDBLK
  5
711
  8
0
 62
     1
  0
BLOCK
  8
0
 62
     1
  2
*U67
 70
     1
 10
0.0
 20
0.0
 30
0.0
  3
*U67
  1

  0
ARC
  5
713
  8
0
 10
3835.014244891212
 20
422.7739269164756
 30
0.0
 40
2.2316769170409172
 50
169.81310963335019
 51
245.51712393648791
  0
ARC
  5
714
  8
0
 10
3859.2238610476852
 20
437.7161771390397
 30
0.0
 40
30.14820428821535
 50
185.6495591754869
 51
208.8510831909247
  0
ARC
  5
715
  8
0
 10
3823.2595809943241
 20
396.89625492807181
 30
0.0
 40
38.318756796563228
 50
81.048224768439326
 51
125.5396843756951
  0
ARC
  5
716
  8
0
 10
3744.5479234640061
 20
508.97361626817889
 30
0.0
 40
98.638639604916733
 50
286.56232004634052
 51
304.90180598688232
  0
ARC
  5
717
  8
0
 10
3761.618424354594
 20
457.47922332370263
 30
0.0
 40
44.446541149773537
 50
244.6116886074978
 51
284.3917945031094
  0
ARC
  5
718
  8
0
 10
3725.23157873221
 20
378.0895201690181
 30
0.0
 40
42.892658741243878
 50
66.169011666817241
 51
95.635128114031588
  0
ARC
  5
719
  8
0
 10
3700.4079411434468
 20
375.04915128451432
 30
0.0
 40
50.156685512185867
 50
42.460350494214111
 51
65.735490728716172
  0
ARC
  5
71A
  8
0
 10
3734.9628364071682
 20
405.77911893781368
 30
0.0
 40
3.9734140234340738
 50
302.30121512460232
 51
51.969715909759238
  0
ARC
  5
71B
  8
0
 10
3749.7908618846991
 20
375.63023420229888
 30
0.0
 40
29.650190519859301
 50
115.3716436664246
 51
140.9527347286635
  0
ARC
  5
71C
  8
0
 10
3732.5742401758612
 20
428.27015589551178
 30
0.0
 40
34.454927579250459
 50
260.29120356683211
 51
301.78298595976349
  0
ARC
  5
71D
  8
0
 10
3759.8446686417578
 20
383.39239843673079
 30
0.0
 40
18.062557138790929
 50
77.01614894302331
 51
120.33616599613239
  0
ARC
  5
71E
  8
0
 10
3744.1991618188572
 20
386.2688828468506
 30
0.0
 40
24.597592277817562
 50
23.703479147569869
 51
36.770150315845832
  0
ARC
  5
71F
  8
0
 10
3761.9551063618619
 20
385.53600621814189
 30
0.0
 40
11.64172306495359
 50
23.229827112001971
 51
65.83053773594078
  0
ARC
  5
720
  8
0
 10
3806.8952545131601
 20
441.70153833650897
 30
0.0
 40
61.906270381644141
 50
236.41798687092421
 51
258.7382530819844
  0
ARC
  5
721
  8
0
 10
3817.86949824254
 20
386.32155845015973
 30
0.0
 40
23.672835586626292
 50
162.96067320773381
 51
193.0225360750791
  0
ARC
  5
722
  8
0
 10
3872.4678664064759
 20
488.91912641703209
 30
0.0
 40
122.94621753849
 50
231.08420465688189
 51
246.51208085695049
  0
ARC
  5
723
  8
0
 10
3843.497187365117
 20
373.02064333019518
 30
0.0
 40
20.274718304808179
 50
117.463311071532
 51
171.09321561529021
  0
ARC
  5
724
  8
0
 10
3813.695891963217
 20
453.34203035086438
 30
0.0
 40
65.600754822102061
 50
288.16468375627568
 51
297.86418234876419
  0
ARC
  5
725
  8
0
 10
3864.9995981750021
 20
289.32050963255909
 30
0.0
 40
108.0175945862666
 50
97.649166221865755
 51
101.017657898903
  0
ARC
  5
726
  8
0
 10
3855.8601744606822
 20
397.37130212003251
 30
0.0
 40
5.33200656188066
 50
124.0107347709781
 51
190.7480876477747
  0
ARC
  5
727
  8
0
 10
3880.0200856080828
 20
447.4885606186831
 30
0.0
 40
53.150338970528793
 50
210.21243506018209
 51
239.29143639062119
  0
ENDBLK
  5
729
  8
0
 62
     1
  0
BLOCK
  8
0
 62
     1
  2
*U68
 70
     1
 10
0.0
 20
0.0
 30
0.0
  3
*U68
  1

  0
ARC
  5
72B
  8
0
 10
3994.0429994615952
 20
422.7739269164756
 30
0.0
 40
2.2316769170409172
 50
169.81310963335019
 51
245.51712393648791
  0
ARC
  5
72C
  8
0
 10
4018.2526156180661
 20
437.7161771390397
 30
0.0
 40
30.14820428821535
 50
185.6495591754869
 51
208.8510831909247
  0
ARC
  5
72D
  8
0
 10
3982.2883355647059
 20
396.89625492807181
 30
0.0
 40
38.318756796563228
 50
81.048224768439326
 51
125.5396843756951
  0
ARC
  5
72E
  8
0
 10
3903.5766780343879
 20
508.97361626817889
 30
0.0
 40
98.638639604916733
 50
286.56232004634052
 51
304.90180598688232
  0
ARC
  5
72F
  8
0
 10
3920.6471789249758
 20
457.47922332370263
 30
0.0
 40
44.446541149773537
 50
244.6116886074978
 51
284.3917945031094
  0
ARC
  5
730
  8
0
 10
3884.2603333025918
 20
378.0895201690181
 30
0.0
 40
42.892658741243878
 50
66.169011666817241
 51
95.635128114031588
  0
ARC
  5
731
  8
0
 10
3859.4366957138282
 20
375.04915128451432
 30
0.0
 40
50.156685512185867
 50
42.460350494214111
 51
65.735490728716172
  0
ARC
  5
732
  8
0
 10
3893.9915909775491
 20
405.77911893781368
 30
0.0
 40
3.9734140234340738
 50
302.30121512460232
 51
51.969715909759238
  0
ARC
  5
733
  8
0
 10
3908.81961645508
 20
375.63023420229888
 30
0.0
 40
29.650190519859301
 50
115.3716436664246
 51
140.9527347286635
  0
ARC
  5
734
  8
0
 10
3891.602994746243
 20
428.27015589551178
 30
0.0
 40
34.454927579250459
 50
260.29120356683211
 51
301.78298595976349
  0
ARC
  5
735
  8
0
 10
3918.8734232121401
 20
383.39239843673079
 30
0.0
 40
18.062557138790929
 50
77.01614894302331
 51
120.33616599613239
  0
ARC
  5
736
  8
0
 10
3903.227916389239
 20
386.2688828468506
 30
0.0
 40
24.597592277817562
 50
23.703479147569869
 51
36.770150315845832
  0
ARC
  5
737
  8
0
 10
3920.9838609322428
 20
385.53600621814189
 30
0.0
 40
11.64172306495359
 50
23.229827112001971
 51
65.83053773594078
  0
ARC
  5
738
  8
0
 10
3965.9240090835419
 20
441.70153833650897
 30
0.0
 40
61.906270381644141
 50
236.41798687092421
 51
258.7382530819844
  0
ARC
  5
739
  8
0
 10
3976.8982528129209
 20
386.32155845015973
 30
0.0
 40
23.672835586626292
 50
162.96067320773381
 51
193.0225360750791
  0
ARC
  5
73A
  8
0
 10
4031.496620976859
 20
488.91912641703209
 30
0.0
 40
122.94621753849
 50
231.08420465688189
 51
246.51208085695049
  0
ARC
  5
73B
  8
0
 10
4002.5259419354979
 20
373.02064333019518
 30
0.0
 40
20.274718304808179
 50
117.463311071532
 51
171.09321561529021
  0
ARC
  5
73C
  8
0
 10
3972.7246465335979
 20
453.34203035086438
 30
0.0
 40
65.600754822102061
 50
288.16468375627568
 51
297.86418234876419
  0
ARC
  5
73D
  8
0
 10
4024.0283527453839
 20
289.32050963255909
 30
0.0
 40
108.0175945862666
 50
97.649166221865755
 51
101.017657898903
  0
ARC
  5
73E
  8
0
 10
4014.8889290310631
 20
397.37130212003251
 30
0.0
 40
5.33200656188066
 50
124.0107347709781
 51
190.7480876477747
  0
ARC
  5
73F
  8
0
 10
4039.0488401784642
 20
447.4885606186831
 30
0.0
 40
53.150338970528793
 50
210.21243506018209
 51
239.29143639062119
  0
ENDBLK
  5
741
  8
0
 62
     1
  0
BLOCK
  8
0
 62
     1
  2
*U69
 70
     1
 10
0.0
 20
0.0
 30
0.0
  3
*U69
  1

  0
ARC
  5
743
  8
0
 10
4107.2062416407998
 20
512.0042680413892
 30
0.0
 40
2.2316769170409172
 50
169.81310963335019
 51
245.51712393648791
  0
ARC
  5
744
  8
0
 10
4131.4158577972712
 20
526.94651826395329
 30
0.0
 40
30.14820428821535
 50
185.6495591754869
 51
208.8510831909247
  0
ARC
  5
745
  8
0
 10
4095.451577743911
 20
486.12659605298529
 30
0.0
 40
38.318756796563228
 50
81.048224768439326
 51
125.5396843756951
  0
ARC
  5
746
  8
0
 10
4016.739920213593
 20
598.20395739309242
 30
0.0
 40
98.638639604916733
 50
286.56232004634052
 51
304.90180598688232
  0
ARC
  5
747
  8
0
 10
4033.8104211041809
 20
546.70956444861599
 30
0.0
 40
44.446541149773537
 50
244.6116886074978
 51
284.3917945031094
  0
ARC
  5
748
  8
0
 10
3997.4235754817969
 20
467.31986129393152
 30
0.0
 40
42.892658741243878
 50
66.169011666817241
 51
95.635128114031588
  0
ARC
  5
749
  8
0
 10
3972.5999378930342
 20
464.27949240942769
 30
0.0
 40
50.156685512185867
 50
42.460350494214111
 51
65.735490728716172
  0
ARC
  5
74A
  8
0
 10
4007.1548331567551
 20
495.00946006272733
 30
0.0
 40
3.9734140234340738
 50
302.30121512460232
 51
51.969715909759238
  0
ARC
  5
74B
  8
0
 10
4021.9828586342851
 20
464.8605753272123
 30
0.0
 40
29.650190519859301
 50
115.3716436664246
 51
140.9527347286635
  0
ARC
  5
74C
  8
0
 10
4004.766236925449
 20
517.5004970204252
 30
0.0
 40
34.454927579250459
 50
260.29120356683211
 51
301.78298595976349
  0
ARC
  5
74D
  8
0
 10
4032.0366653913452
 20
472.62273956164432
 30
0.0
 40
18.062557138790929
 50
77.01614894302331
 51
120.33616599613239
  0
ARC
  5
74E
  8
0
 10
4016.391158568445
 20
475.49922397176402
 30
0.0
 40
24.597592277817562
 50
23.703479147569869
 51
36.770150315845832
  0
ARC
  5
74F
  8
0
 10
4034.1471031114488
 20
474.76634734305532
 30
0.0
 40
11.64172306495359
 50
23.229827112001971
 51
65.83053773594078
  0
ARC
  5
750
  8
0
 10
4079.087251262747
 20
530.93187946142257
 30
0.0
 40
61.906270381644141
 50
236.41798687092421
 51
258.7382530819844
  0
ARC
  5
751
  8
0
 10
4090.061494992126
 20
475.55189957507321
 30
0.0
 40
23.672835586626292
 50
162.96067320773381
 51
193.0225360750791
  0
ARC
  5
752
  8
0
 10
4144.6598631560628
 20
578.14946754194546
 30
0.0
 40
122.94621753849
 50
231.08420465688189
 51
246.51208085695049
  0
ARC
  5
753
  8
0
 10
4115.6891841147044
 20
462.25098445510849
 30
0.0
 40
20.274718304808179
 50
117.463311071532
 51
171.09321561529021
  0
ARC
  5
754
  8
0
 10
4085.887888712803
 20
542.5723714757778
 30
0.0
 40
65.600754822102061
 50
288.16468375627568
 51
297.86418234876419
  0
ARC
  5
755
  8
0
 10
4137.1915949245904
 20
378.55085075747252
 30
0.0
 40
108.0175945862666
 50
97.649166221865755
 51
101.017657898903
  0
ARC
  5
756
  8
0
 10
4128.0521712102691
 20
486.60164324494599
 30
0.0
 40
5.33200656188066
 50
124.0107347709781
 51
190.7480876477747
  0
ARC
  5
757
  8
0
 10
4152.2120823576697
 20
536.71890174359669
 30
0.0
 40
53.150338970528793
 50
210.21243506018209
 51
239.29143639062119
  0
ENDBLK
  5
759
  8
0
 62
     1
  0
BLOCK
  8
0
 62
     1
  2
*U70
 70
     1
 10
0.0
 20
0.0
 30
0.0
  3
*U70
  1

  0
ARC
  5
75B
  8
0
 10
3948.177487070418
 20
512.0042680413892
 30
0.0
 40
2.2316769170409172
 50
169.81310963335019
 51
245.51712393648791
  0
ARC
  5
75C
  8
0
 10
3972.3871032268912
 20
526.94651826395329
 30
0.0
 40
30.14820428821535
 50
185.6495591754869
 51
208.8510831909247
  0
ARC
  5
75D
  8
0
 10
3936.4228231735301
 20
486.12659605298529
 30
0.0
 40
38.318756796563228
 50
81.048224768439326
 51
125.5396843756951
  0
ARC
  5
75E
  8
0
 10
3857.7111656432121
 20
598.20395739309242
 30
0.0
 40
98.638639604916733
 50
286.56232004634052
 51
304.90180598688232
  0
ARC
  5
75F
  8
0
 10
3874.7816665338
 20
546.70956444861599
 30
0.0
 40
44.446541149773537
 50
244.6116886074978
 51
284.3917945031094
  0
ARC
  5
760
  8
0
 10
3838.3948209114151
 20
467.31986129393152
 30
0.0
 40
42.892658741243878
 50
66.169011666817241
 51
95.635128114031588
  0
ARC
  5
761
  8
0
 10
3813.5711833226528
 20
464.27949240942769
 30
0.0
 40
50.156685512185867
 50
42.460350494214111
 51
65.735490728716172
  0
ARC
  5
762
  8
0
 10
3848.1260785863728
 20
495.00946006272733
 30
0.0
 40
3.9734140234340738
 50
302.30121512460232
 51
51.969715909759238
  0
ARC
  5
763
  8
0
 10
3862.9541040639042
 20
464.8605753272123
 30
0.0
 40
29.650190519859301
 50
115.3716436664246
 51
140.9527347286635
  0
ARC
  5
764
  8
0
 10
3845.7374823550672
 20
517.5004970204252
 30
0.0
 40
34.454927579250459
 50
260.29120356683211
 51
301.78298595976349
  0
ARC
  5
765
  8
0
 10
3873.0079108209638
 20
472.62273956164432
 30
0.0
 40
18.062557138790929
 50
77.01614894302331
 51
120.33616599613239
  0
ARC
  5
766
  8
0
 10
3857.3624039980632
 20
475.49922397176402
 30
0.0
 40
24.597592277817562
 50
23.703479147569869
 51
36.770150315845832
  0
ARC
  5
767
  8
0
 10
3875.118348541067
 20
474.76634734305532
 30
0.0
 40
11.64172306495359
 50
23.229827112001971
 51
65.83053773594078
  0
ARC
  5
768
  8
0
 10
3920.0584966923661
 20
530.93187946142257
 30
0.0
 40
61.906270381644141
 50
236.41798687092421
 51
258.7382530819844
  0
ARC
  5
769
  8
0
 10
3931.0327404217451
 20
475.55189957507321
 30
0.0
 40
23.672835586626292
 50
162.96067320773381
 51
193.0225360750791
  0
ARC
  5
76A
  8
0
 10
3985.6311085856819
 20
578.14946754194546
 30
0.0
 40
122.94621753849
 50
231.08420465688189
 51
246.51208085695049
  0
ARC
  5
76B
  8
0
 10
3956.6604295443231
 20
462.25098445510849
 30
0.0
 40
20.274718304808179
 50
117.463311071532
 51
171.09321561529021
  0
ARC
  5
76C
  8
0
 10
3926.8591341424221
 20
542.5723714757778
 30
0.0
 40
65.600754822102061
 50
288.16468375627568
 51
297.86418234876419
  0
ARC
  5
76D
  8
0
 10
3978.1628403542081
 20
378.55085075747252
 30
0.0
 40
108.0175945862666
 50
97.649166221865755
 51
101.017657898903
  0
ARC
  5
76E
  8
0
 10
3969.0234166398868
 20
486.60164324494599
 30
0.0
 40
5.33200656188066
 50
124.0107347709781
 51
190.7480876477747
  0
ARC
  5
76F
  8
0
 10
3993.1833277872888
 20
536.71890174359669
 30
0.0
 40
53.150338970528793
 50
210.21243506018209
 51
239.29143639062119
  0
ENDBLK
  5
771
  8
0
 62
     1
  0
BLOCK
  8
0
 62
     1
  2
*U71
 70
     1
 10
0.0
 20
0.0
 30
0.0
  3
*U71
  1

  0
ARC
  5
773
  8
0
 10
3891.5958659808161
 20
467.38909747893263
 30
0.0
 40
2.2316769170409172
 50
169.81310963335019
 51
245.51712393648791
  0
ARC
  5
774
  8
0
 10
3915.805482137288
 20
482.33134770149661
 30
0.0
 40
30.14820428821535
 50
185.6495591754869
 51
208.8510831909247
  0
ARC
  5
775
  8
0
 10
3879.8412020839269
 20
441.51142549052872
 30
0.0
 40
38.318756796563228
 50
81.048224768439326
 51
125.5396843756951
  0
ARC
  5
776
  8
0
 10
3801.1295445536089
 20
553.58878683063585
 30
0.0
 40
98.638639604916733
 50
286.56232004634052
 51
304.90180598688232
  0
ARC
  5
777
  8
0
 10
3818.2000454441968
 20
502.09439388615948
 30
0.0
 40
44.446541149773537
 50
244.6116886074978
 51
284.3917945031094
  0
ARC
  5
778
  8
0
 10
3781.8131998218118
 20
422.70469073147501
 30
0.0
 40
42.892658741243878
 50
66.169011666817241
 51
95.635128114031588
  0
ARC
  5
779
  8
0
 10
3756.98956223305
 20
419.66432184697118
 30
0.0
 40
50.156685512185867
 50
42.460350494214111
 51
65.735490728716172
  0
ARC
  5
77A
  8
0
 10
3791.5444574967701
 20
450.39428950027059
 30
0.0
 40
3.9734140234340738
 50
302.30121512460232
 51
51.969715909759238
  0
ARC
  5
77B
  8
0
 10
3806.372482974301
 20
420.24540476475579
 30
0.0
 40
29.650190519859301
 50
115.3716436664246
 51
140.9527347286635
  0
ARC
  5
77C
  8
0
 10
3789.155861265464
 20
472.88532645796869
 30
0.0
 40
34.454927579250459
 50
260.29120356683211
 51
301.78298595976349
  0
ARC
  5
77D
  8
0
 10
3816.4262897313602
 20
428.0075689991877
 30
0.0
 40
18.062557138790929
 50
77.01614894302331
 51
120.33616599613239
  0
ARC
  5
77E
  8
0
 10
3800.78078290846
 20
430.88405340930751
 30
0.0
 40
24.597592277817562
 50
23.703479147569869
 51
36.770150315845832
  0
ARC
  5
77F
  8
0
 10
3818.5367274514638
 20
430.1511767805988
 30
0.0
 40
11.64172306495359
 50
23.229827112001971
 51
65.83053773594078
  0
ARC
  5
780
  8
0
 10
3863.4768756027629
 20
486.31670889896589
 30
0.0
 40
61.906270381644141
 50
236.41798687092421
 51
258.7382530819844
  0
ARC
  5
781
  8
0
 10
3874.4511193321418
 20
430.93672901261658
 30
0.0
 40
23.672835586626292
 50
162.96067320773381
 51
193.0225360750791
  0
ARC
  5
782
  8
0
 10
3929.0494874960791
 20
533.534296979489
 30
0.0
 40
122.94621753849
 50
231.08420465688189
 51
246.51208085695049
  0
ARC
  5
783
  8
0
 10
3900.0788084547198
 20
417.63581389265198
 30
0.0
 40
20.274718304808179
 50
117.463311071532
 51
171.09321561529021
  0
ARC
  5
784
  8
0
 10
3870.2775130528189
 20
497.95720091332129
 30
0.0
 40
65.600754822102061
 50
288.16468375627568
 51
297.86418234876419
  0
ARC
  5
785
  8
0
 10
3921.5812192646049
 20
333.935680195016
 30
0.0
 40
108.0175945862666
 50
97.649166221865755
 51
101.017657898903
  0
ARC
  5
786
  8
0
 10
3912.441795550284
 20
441.98647268248942
 30
0.0
 40
5.33200656188066
 50
124.0107347709781
 51
190.7480876477747
  0
ARC
  5
787
  8
0
 10
3936.6017066976851
 20
492.10373118114001
 30
0.0
 40
53.150338970528793
 50
210.21243506018209
 51
239.29143639062119
  0
ENDBLK
  5
789
  8
0
 62
     1
  0
BLOCK
  8
0
 62
     1
  2
*U72
 70
     1
 10
0.0
 20
0.0
 30
0.0
  3
*U72
  1

  0
ARC
  5
78B
  8
0
 10
4050.624620551197
 20
467.3890974789324
 30
0.0
 40
2.2316769170409172
 50
169.81310963335019
 51
245.51712393648791
  0
ARC
  5
78C
  8
0
 10
4074.8342367076689
 20
482.3313477014965
 30
0.0
 40
30.14820428821535
 50
185.6495591754869
 51
208.8510831909247
  0
ARC
  5
78D
  8
0
 10
4038.8699566543082
 20
441.5114254905285
 30
0.0
 40
38.318756796563228
 50
81.048224768439326
 51
125.5396843756951
  0
ARC
  5
78E
  8
0
 10
3960.1582991239902
 20
553.58878683063563
 30
0.0
 40
98.638639604916733
 50
286.56232004634052
 51
304.90180598688232
  0
ARC
  5
78F
  8
0
 10
3977.2288000145791
 20
502.09439388615931
 30
0.0
 40
44.446541149773537
 50
244.6116886074978
 51
284.3917945031094
  0
ARC
  5
790
  8
0
 10
3940.8419543921941
 20
422.70469073147478
 30
0.0
 40
42.892658741243878
 50
66.169011666817241
 51
95.635128114031588
  0
ARC
  5
791
  8
0
 10
3916.0183168034318
 20
419.66432184697101
 30
0.0
 40
50.156685512185867
 50
42.460350494214111
 51
65.735490728716172
  0
ARC
  5
792
  8
0
 10
3950.5732120671519
 20
450.39428950027047
 30
0.0
 40
3.9734140234340738
 50
302.30121512460232
 51
51.969715909759238
  0
ARC
  5
793
  8
0
 10
3965.4012375446819
 20
420.24540476475562
 30
0.0
 40
29.650190519859301
 50
115.3716436664246
 51
140.9527347286635
  0
ARC
  5
794
  8
0
 10
3948.1846158358462
 20
472.88532645796852
 30
0.0
 40
34.454927579250459
 50
260.29120356683211
 51
301.78298595976349
  0
ARC
  5
795
  8
0
 10
3975.455044301742
 20
428.00756899918758
 30
0.0
 40
18.062557138790929
 50
77.01614894302331
 51
120.33616599613239
  0
ARC
  5
796
  8
0
 10
3959.8095374788418
 20
430.88405340930728
 30
0.0
 40
24.597592277817562
 50
23.703479147569869
 51
36.770150315845832
  0
ARC
  5
797
  8
0
 10
3977.5654820218469
 20
430.15117678059858
 30
0.0
 40
11.64172306495359
 50
23.229827112001971
 51
65.83053773594078
  0
ARC
  5
798
  8
0
 10
4022.5056301731452
 20
486.31670889896583
 30
0.0
 40
61.906270381644141
 50
236.41798687092421
 51
258.7382530819844
  0
ARC
  5
799
  8
0
 10
4033.4798739025241
 20
430.93672901261641
 30
0.0
 40
23.672835586626292
 50
162.96067320773381
 51
193.0225360750791
  0
ARC
  5
79A
  8
0
 10
4088.0782420664609
 20
533.53429697948877
 30
0.0
 40
122.94621753849
 50
231.08420465688189
 51
246.51208085695049
  0
ARC
  5
79B
  8
0
 10
4059.1075630251021
 20
417.63581389265181
 30
0.0
 40
20.274718304808179
 50
117.463311071532
 51
171.09321561529021
  0
ARC
  5
79C
  8
0
 10
4029.3062676231998
 20
497.95720091332112
 30
0.0
 40
65.600754822102061
 50
288.16468375627568
 51
297.86418234876419
  0
ARC
  5
79D
  8
0
 10
4080.6099738349858
 20
333.93568019501578
 30
0.0
 40
108.0175945862666
 50
97.649166221865755
 51
101.017657898903
  0
ARC
  5
79E
  8
0
 10
4071.4705501206658
 20
441.98647268248919
 30
0.0
 40
5.33200656188066
 50
124.0107347709781
 51
190.7480876477747
  0
ARC
  5
79F
  8
0
 10
4095.6304612680669
 20
492.10373118113989
 30
0.0
 40
53.150338970528793
 50
210.21243506018209
 51
239.29143639062119
  0
ENDBLK
  5
7A1
  8
0
 62
     1
  0
BLOCK
  8
0
 62
     1
  2
*U73
 70
     1
 10
0.0
 20
0.0
 30
0.0
  3
*U73
  1

  0
ARC
  5
7A3
  8
0
 10
4175.4199131388268
 20
475.49922397176402
 30
0.0
 40
24.59759227781754
 50
23.703479147570189
 51
36.770150315846273
  0
ARC
  5
7A4
  8
0
 10
4191.0654199617256
 20
472.62273956164398
 30
0.0
 40
18.06255713879106
 50
77.016148943021946
 51
120.33616599613271
  0
ARC
  5
7A5
  8
0
 10
4163.794991495829
 20
517.50049702042486
 30
0.0
 40
34.454927579250338
 50
260.29120356683359
 51
301.78298595976332
  0
ARC
  5
7A6
  8
0
 10
4181.0116132046669
 20
464.86057532721242
 30
0.0
 40
29.650190519859009
 50
115.37164366642391
 51
140.9527347286629
  0
ARC
  5
7A7
  8
0
 10
4166.1835877271351
 20
495.00946006272699
 30
0.0
 40
3.9734140234340938
 50
302.30121512460869
 51
51.969715909711603
  0
ARC
  5
7A8
  8
0
 10
4131.628692463416
 20
464.27949240942718
 30
0.0
 40
50.156685512186172
 50
42.460350494211049
 51
65.735490728719356
  0
ARC
  5
7A9
  8
0
 10
4201.2414842456656
 20
622.76463810440225
 30
0.0
 40
122.9462175384904
 50
231.08420465688201
 51
246.51208085694941
  0
ARC
  5
7AA
  8
0
 10
4146.6431160817301
 20
520.16707013752955
 30
0.0
 40
23.672835586626231
 50
162.960673207734
 51
193.02253607507879
  0
ARC
  5
7AB
  8
0
 10
4135.6688723523503
 20
575.5470500238788
 30
0.0
 40
61.906270381644077
 50
236.40368298627101
 51
258.7382530819844
  0
ARC
  5
7AC
  8
0
 10
4131.4158577972712
 20
526.94651826395136
 30
0.0
 40
30.148204288214789
 50
185.64348020259291
 51
208.851083190922
  0
ARC
  5
7AD
  8
0
 10
4107.2062416407998
 20
512.00426804138885
 30
0.0
 40
2.2316769170409052
 50
169.8131096333459
 51
245.51712393648839
  0
ARC
  5
7AE
  8
0
 10
4152.2120823576688
 20
536.71890174359635
 30
0.0
 40
53.150338970528701
 50
210.21243506018291
 51
239.29143639062201
  0
ARC
  5
7AF
  8
0
 10
4128.0521712102691
 20
486.60164324494542
 30
0.0
 40
5.332006561880835
 50
124.0107347709757
 51
190.7480876477693
  0
ARC
  5
7B0
  8
0
 10
4137.1915949245886
 20
378.55085075747439
 30
0.0
 40
108.01759458626449
 50
97.649166221865912
 51
101.0176578989028
  0
ARC
  5
7B1
  8
0
 10
4085.887888712803
 20
542.57237147577689
 30
0.0
 40
65.600754822101436
 50
288.1646837562779
 51
297.86418234876493
  0
ARC
  5
7B2
  8
0
 10
4115.6891841147044
 20
462.25098445510821
 30
0.0
 40
20.274718304808282
 50
117.46331107152641
 51
171.09321561529001
  0
ARC
  5
7B3
  8
0
 10
4099.870708962575
 20
422.7046907314753
 30
0.0
 40
42.89265874124338
 50
66.169011666833498
 51
95.635128114031048
  0
ARC
  5
7B4
  8
0
 10
4136.2575545849604
 20
502.09439388615948
 30
0.0
 40
44.446541149773743
 50
244.61168860748191
 51
284.39179450311542
  0
ARC
  5
7B5
  8
0
 10
4119.1870536943707
 20
553.58878683063585
 30
0.0
 40
98.638639604917046
 50
286.56232004634347
 51
304.90180598688619
  0
ARC
  5
7B6
  8
0
 10
4197.8987112246914
 20
441.51142549052832
 30
0.0
 40
38.318756796563378
 50
81.031574444311488
 51
125.5396843756853
  0
ARC
  5
7B7
  8
0
 10
4193.1758576818302
 20
474.76634734305497
 30
0.0
 40
11.64172306495372
 50
23.249284493958839
 51
65.830537735939117
  0
ENDBLK
  5
7B9
  8
0
 62
     1
  0
BLOCK
  8
0
 62
     1
  2
*U74
 70
     1
 10
0.0
 20
0.0
 30
0.0
  3
*U74
  1

  0
ARC
  5
7BB
  8
0
 10
4016.391158568445
 20
475.49922397176402
 30
0.0
 40
24.59759227781754
 50
23.703479147569759
 51
36.77015031584564
  0
ARC
  5
7BC
  8
0
 10
4032.0366653913438
 20
472.62273956164398
 30
0.0
 40
18.06255713879106
 50
77.016148943021946
 51
120.33616599613271
  0
ARC
  5
7BD
  8
0
 10
4004.766236925449
 20
517.50049702042486
 30
0.0
 40
34.454927579250338
 50
260.29120356683211
 51
301.7829859597627
  0
ARC
  5
7BE
  8
0
 10
4021.9828586342842
 20
464.86057532721242
 30
0.0
 40
29.650190519859009
 50
115.37164366642391
 51
140.9527347286635
  0
ARC
  5
7BF
  8
0
 10
4007.1548331567542
 20
495.00946006272699
 30
0.0
 40
3.9734140234340938
 50
302.30121512460869
 51
51.969715909711603
  0
ARC
  5
7C0
  8
0
 10
3972.5999378930342
 20
464.27949240942718
 30
0.0
 40
50.156685512186172
 50
42.460350494211049
 51
65.735490728719824
  0
ARC
  5
7C1
  8
0
 10
4042.2127296752842
 20
622.76463810440225
 30
0.0
 40
122.9462175384904
 50
231.08420465688201
 51
246.51208085694921
  0
ARC
  5
7C2
  8
0
 10
3987.6143615113479
 20
520.16707013752955
 30
0.0
 40
23.672835586626231
 50
162.96067320773369
 51
193.02253607507899
  0
ARC
  5
7C3
  8
0
 10
3976.6401177819689
 20
575.5470500238788
 30
0.0
 40
61.906270381644077
 50
236.4036829862707
 51
258.7382530819844
  0
ARC
  5
7C4
  8
0
 10
3972.3871032268912
 20
526.94651826395136
 30
0.0
 40
30.148204288214789
 50
185.64348020259271
 51
208.8510831909216
  0
ARC
  5
7C5
  8
0
 10
3948.177487070418
 20
512.00426804138885
 30
0.0
 40
2.2316769170409052
 50
169.8131096333459
 51
245.51712393648839
  0
ARC
  5
7C6
  8
0
 10
3993.183327787287
 20
536.71890174359635
 30
0.0
 40
53.150338970528701
 50
210.21243506018291
 51
239.29143639062201
  0
ARC
  5
7C7
  8
0
 10
3969.0234166398868
 20
486.60164324494542
 30
0.0
 40
5.332006561880835
 50
124.0107347709716
 51
190.74808764777109
  0
ARC
  5
7C8
  8
0
 10
3978.1628403542072
 20
378.55085075747439
 30
0.0
 40
108.01759458626449
 50
97.649166221865684
 51
101.0176578989028
  0
ARC
  5
7C9
  8
0
 10
3926.8591341424212
 20
542.57237147577689
 30
0.0
 40
65.600754822101436
 50
288.1646837562779
 51
297.86418234876493
  0
ARC
  5
7CA
  8
0
 10
3956.6604295443231
 20
462.25098445510821
 30
0.0
 40
20.274718304808282
 50
117.4633110715276
 51
171.09321561529021
  0
ARC
  5
7CB
  8
0
 10
3940.8419543921941
 20
422.7046907314753
 30
0.0
 40
42.89265874124338
 50
66.16901166683293
 51
95.635128114031048
  0
ARC
  5
7CC
  8
0
 10
3977.2288000145791
 20
502.09439388615948
 30
0.0
 40
44.446541149773743
 50
244.61168860748251
 51
284.39179450311548
  0
ARC
  5
7CD
  8
0
 10
3960.1582991239902
 20
553.58878683063585
 30
0.0
 40
98.638639604917046
 50
286.56232004634347
 51
304.90180598688602
  0
ARC
  5
7CE
  8
0
 10
4038.8699566543082
 20
441.51142549052832
 30
0.0
 40
38.318756796563378
 50
81.031574444311488
 51
125.53968437568589
  0
ARC
  5
7CF
  8
0
 10
4034.1471031114488
 20
474.76634734305497
 30
0.0
 40
11.64172306495372
 50
23.249284493959721
 51
65.830537735941164
  0
ENDBLK
  5
7D1
  8
0
 62
     1
  0
BLOCK
  8
0
 62
     1
  2
*U75
 70
     1
 10
0.0
 20
0.0
 30
0.0
  3
*U75
  1

  0
ARC
  5
7D3
  8
0
 10
4062.2566709596208
 20
386.26888284685077
 30
0.0
 40
24.59759227781754
 50
23.703479147570189
 51
36.770150315846379
  0
ARC
  5
7D4
  8
0
 10
4077.902177782521
 20
383.3923984367309
 30
0.0
 40
18.06255713879106
 50
77.016148943021989
 51
120.33616599613271
  0
ARC
  5
7D5
  8
0
 10
4050.6317493166239
 20
428.27015589551178
 30
0.0
 40
34.454927579250338
 50
260.29120356683291
 51
301.78298595976332
  0
ARC
  5
7D6
  8
0
 10
4067.8483710254609
 20
375.63023420229928
 30
0.0
 40
29.650190519859009
 50
115.37164366642401
 51
140.95273472866339
  0
ARC
  5
7D7
  8
0
 10
4053.02034554793
 20
405.77911893781379
 30
0.0
 40
3.9734140234340938
 50
302.30121512460852
 51
51.969715909711603
  0
ARC
  5
7D8
  8
0
 10
4018.46545028421
 20
375.0491512845141
 30
0.0
 40
50.156685512186172
 50
42.460350494211028
 51
65.735490728719824
  0
ARC
  5
7D9
  8
0
 10
4088.0782420664609
 20
533.53429697948923
 30
0.0
 40
122.9462175384904
 50
231.08420465688201
 51
246.51208085694921
  0
ARC
  5
7DA
  8
0
 10
4033.4798739025241
 20
430.9367290126163
 30
0.0
 40
23.672835586626231
 50
162.96067320773369
 51
193.02253607507899
  0
ARC
  5
7DB
  8
0
 10
4022.5056301731452
 20
486.31670889896583
 30
0.0
 40
61.906270381644077
 50
236.4036829862707
 51
258.7382530819844
  0
ARC
  5
7DC
  8
0
 10
4018.252615618067
 20
437.71617713903828
 30
0.0
 40
30.148204288214789
 50
185.64348020259271
 51
208.8510831909216
  0
ARC
  5
7DD
  8
0
 10
3994.0429994615952
 20
422.7739269164756
 30
0.0
 40
2.2316769170409052
 50
169.8131096333459
 51
245.51712393648839
  0
ARC
  5
7DE
  8
0
 10
4039.0488401784619
 20
447.48856061868332
 30
0.0
 40
53.150338970528701
 50
210.21243506018291
 51
239.2914363906221
  0
ARC
  5
7DF
  8
0
 10
4014.8889290310631
 20
397.37130212003228
 30
0.0
 40
5.332006561880835
 50
124.0107347709716
 51
190.74808764777109
  0
ARC
  5
7E0
  8
0
 10
4024.028352745383
 20
289.32050963256131
 30
0.0
 40
108.01759458626449
 50
97.649166221865684
 51
101.0176578989028
  0
ARC
  5
7E1
  8
0
 10
3972.7246465335979
 20
453.34203035086392
 30
0.0
 40
65.600754822101436
 50
288.16468375627801
 51
297.86418234876493
  0
ARC
  5
7E2
  8
0
 10
4002.5259419354988
 20
373.02064333019513
 30
0.0
 40
20.274718304808282
 50
117.4633110715276
 51
171.09321561529021
  0
ARC
  5
7E3
  8
0
 10
3986.7074667833708
 20
333.47434960656221
 30
0.0
 40
42.89265874124338
 50
66.16901166683293
 51
95.635128114031048
  0
ARC
  5
7E4
  8
0
 10
4023.094312405754
 20
412.86405276124628
 30
0.0
 40
44.446541149773743
 50
244.61168860748251
 51
284.39179450311542
  0
ARC
  5
7E5
  8
0
 10
4006.023811515166
 20
464.35844570572272
 30
0.0
 40
98.638639604917046
 50
286.56232004634347
 51
304.90180598688619
  0
ARC
  5
7E6
  8
0
 10
4084.7354690454849
 20
352.2810843656153
 30
0.0
 40
38.318756796563378
 50
81.031574444311474
 51
125.5396843756854
  0
ARC
  5
7E7
  8
0
 10
4080.0126155026242
 20
385.53600621814189
 30
0.0
 40
11.64172306495372
 50
23.249284493958839
 51
65.830537735939117
  0
ENDBLK
  5
7E9
  8
0
 62
     1
  0
BLOCK
  8
0
 62
     1
  2
*U76
 70
     1
 10
0.0
 20
0.0
 30
0.0
  3
*U76
  1

  0
ARC
  5
7EB
  8
0
 10
4062.2566709596208
 20
386.26888284685077
 30
0.0
 40
24.59759227781754
 50
23.703479147570189
 51
36.770150315846379
  0
ARC
  5
7EC
  8
0
 10
4077.902177782521
 20
383.3923984367309
 30
0.0
 40
18.06255713879106
 50
77.016148943021989
 51
120.33616599613271
  0
ARC
  5
7ED
  8
0
 10
4050.6317493166239
 20
428.27015589551178
 30
0.0
 40
34.454927579250338
 50
260.29120356683291
 51
301.78298595976332
  0
ARC
  5
7EE
  8
0
 10
4067.8483710254609
 20
375.63023420229939
 30
0.0
 40
29.650190519859009
 50
115.37164366642401
 51
140.95273472866339
  0
ARC
  5
7EF
  8
0
 10
4053.02034554793
 20
405.77911893781391
 30
0.0
 40
3.9734140234340938
 50
302.30121512460818
 51
51.969715909711518
  0
ARC
  5
7F0
  8
0
 10
4018.46545028421
 20
375.04915128451421
 30
0.0
 40
50.156685512186172
 50
42.460350494211049
 51
65.735490728719824
  0
ARC
  5
7F1
  8
0
 10
4088.0782420664609
 20
533.53429697948923
 30
0.0
 40
122.9462175384904
 50
231.08420465688201
 51
246.51208085694921
  0
ARC
  5
7F2
  8
0
 10
4033.4798739025241
 20
430.93672901261641
 30
0.0
 40
23.672835586626231
 50
162.96067320773381
 51
193.02253607507899
  0
ARC
  5
7F3
  8
0
 10
4022.5056301731452
 20
486.31670889896583
 30
0.0
 40
61.906270381644077
 50
236.4036829862707
 51
258.7382530819844
  0
ARC
  5
7F4
  8
0
 10
4018.252615618067
 20
437.71617713903828
 30
0.0
 40
30.148204288214789
 50
185.6434802025928
 51
208.85108319092171
  0
ARC
  5
7F5
  8
0
 10
3994.0429994615952
 20
422.77392691647572
 30
0.0
 40
2.2316769170409052
 50
169.8131096333473
 51
245.51712393648839
  0
ARC
  5
7F6
  8
0
 10
4039.0488401784619
 20
447.48856061868332
 30
0.0
 40
53.150338970528701
 50
210.2124350601828
 51
239.29143639062201
  0
ARC
  5
7F7
  8
0
 10
4014.8889290310631
 20
397.37130212003228
 30
0.0
 40
5.332006561880835
 50
124.0107347709716
 51
190.74808764777109
  0
ARC
  5
7F8
  8
0
 10
4024.028352745383
 20
289.32050963256142
 30
0.0
 40
108.01759458626449
 50
97.649166221865684
 51
101.0176578989028
  0
ARC
  5
7F9
  8
0
 10
3972.7246465335979
 20
453.34203035086392
 30
0.0
 40
65.600754822101436
 50
288.1646837562779
 51
297.86418234876481
  0
ARC
  5
7FA
  8
0
 10
4002.5259419354988
 20
373.02064333019513
 30
0.0
 40
20.274718304808282
 50
117.4633110715276
 51
171.09321561529021
  0
ARC
  5
7FB
  8
0
 10
3986.7074667833708
 20
333.47434960656221
 30
0.0
 40
42.89265874124338
 50
66.16901166683293
 51
95.635128114031048
  0
ARC
  5
7FC
  8
0
 10
4023.094312405754
 20
412.86405276124628
 30
0.0
 40
44.446541149773743
 50
244.61168860748251
 51
284.39179450311548
  0
ARC
  5
7FD
  8
0
 10
4006.023811515166
 20
464.35844570572272
 30
0.0
 40
98.638639604917046
 50
286.56232004634347
 51
304.90180598688619
  0
ARC
  5
7FE
  8
0
 10
4084.7354690454849
 20
352.2810843656153
 30
0.0
 40
38.318756796563378
 50
81.031574444311474
 51
125.5396843756854
  0
ARC
  5
7FF
  8
0
 10
4080.0126155026242
 20
385.53600621814189
 30
0.0
 40
11.64172306495372
 50
23.249284493958839
 51
65.830537735939117
  0
ENDBLK
  5
801
  8
0
 62
     1
  0
BLOCK
  8
0
 62
     1
  2
*U77
 70
     1
 10
0.0
 20
0.0
 30
0.0
  3
*U77
  1

  0
ARC
  5
803
  8
0
 10
4118.838292049224
 20
430.88405340930728
 30
0.0
 40
24.59759227781754
 50
23.703479147570189
 51
36.770150315846379
  0
ARC
  5
804
  8
0
 10
4134.4837988721238
 20
428.00756899918741
 30
0.0
 40
18.06255713879106
 50
77.016148943021989
 51
120.33616599613271
  0
ARC
  5
805
  8
0
 10
4107.2133704062271
 20
472.8853264579684
 30
0.0
 40
34.454927579250338
 50
260.29120356683359
 51
301.78298595976332
  0
ARC
  5
806
  8
0
 10
4124.4299921150641
 20
420.24540476475602
 30
0.0
 40
29.650190519859009
 50
115.37164366642401
 51
140.9527347286629
  0
ARC
  5
807
  8
0
 10
4109.6019666375332
 20
450.39428950027047
 30
0.0
 40
3.9734140234340938
 50
302.30121512460818
 51
51.969715909711518
  0
ARC
  5
808
  8
0
 10
4075.0470713738132
 20
419.66432184697072
 30
0.0
 40
50.156685512186172
 50
42.460350494211049
 51
65.735490728719356
  0
ARC
  5
809
  8
0
 10
4144.6598631560628
 20
578.1494675419458
 30
0.0
 40
122.9462175384904
 50
231.08420465688201
 51
246.51208085694941
  0
ARC
  5
80A
  8
0
 10
4090.0614949921269
 20
475.55189957507298
 30
0.0
 40
23.672835586626231
 50
162.96067320773409
 51
193.02253607507879
  0
ARC
  5
80B
  8
0
 10
4079.087251262747
 20
530.93187946142234
 30
0.0
 40
61.906270381644077
 50
236.4036829862707
 51
258.7382530819844
  0
ARC
  5
80C
  8
0
 10
4074.8342367076689
 20
482.33134770149491
 30
0.0
 40
30.148204288214789
 50
185.64348020259291
 51
208.85108319092211
  0
ARC
  5
80D
  8
0
 10
4050.624620551197
 20
467.38909747893229
 30
0.0
 40
2.2316769170409052
 50
169.8131096333473
 51
245.51712393648839
  0
ARC
  5
80E
  8
0
 10
4095.630461268066
 20
492.10373118113989
 30
0.0
 40
53.150338970528701
 50
210.2124350601828
 51
239.29143639062201
  0
ARC
  5
80F
  8
0
 10
4071.4705501206658
 20
441.9864726824888
 30
0.0
 40
5.332006561880835
 50
124.0107347709757
 51
190.7480876477693
  0
ARC
  5
810
  8
0
 10
4080.6099738349849
 20
333.93568019501799
 30
0.0
 40
108.01759458626449
 50
97.649166221865912
 51
101.0176578989028
  0
ARC
  5
811
  8
0
 10
4029.3062676231998
 20
497.95720091332049
 30
0.0
 40
65.600754822101436
 50
288.1646837562779
 51
297.86418234876481
  0
ARC
  5
812
  8
0
 10
4059.1075630251021
 20
417.63581389265158
 30
0.0
 40
20.274718304808282
 50
117.46331107152641
 51
171.09321561529001
  0
ARC
  5
813
  8
0
 10
4043.2890878729731
 20
378.08952016901878
 30
0.0
 40
42.89265874124338
 50
66.169011666833498
 51
95.635128114031048
  0
ARC
  5
814
  8
0
 10
4079.6759334953581
 20
457.47922332370302
 30
0.0
 40
44.446541149773743
 50
244.61168860748191
 51
284.39179450311542
  0
ARC
  5
815
  8
0
 10
4062.6054326047679
 20
508.97361626817923
 30
0.0
 40
98.638639604917046
 50
286.56232004634347
 51
304.90180598688619
  0
ARC
  5
816
  8
0
 10
4141.3170901350877
 20
396.89625492807193
 30
0.0
 40
38.318756796563378
 50
81.031574444311474
 51
125.5396843756854
  0
ARC
  5
817
  8
0
 10
4136.5942365922274
 20
430.15117678059841
 30
0.0
 40
11.64172306495372
 50
23.249284493958839
 51
65.830537735939117
  0
ENDBLK
  5
819
  8
0
 62
     1
  0
BLOCK
  8
0
 62
     1
  2
*U78
 70
     1
 10
0.0
 20
0.0
 30
0.0
  3
*U78
  1

  0
ARC
  5
81B
  8
0
 10
3903.227916389239
 20
386.26888284685077
 30
0.0
 40
24.59759227781754
 50
23.703479147569759
 51
36.770150315845747
  0
ARC
  5
81C
  8
0
 10
3918.8734232121392
 20
383.3923984367309
 30
0.0
 40
18.06255713879106
 50
77.016148943021989
 51
120.33616599613271
  0
ARC
  5
81D
  8
0
 10
3891.602994746243
 20
428.27015589551178
 30
0.0
 40
34.454927579250338
 50
260.29120356683211
 51
301.7829859597627
  0
ARC
  5
81E
  8
0
 10
3908.81961645508
 20
375.63023420229928
 30
0.0
 40
29.650190519859009
 50
115.37164366642401
 51
140.95273472866339
  0
ARC
  5
81F
  8
0
 10
3893.9915909775491
 20
405.77911893781379
 30
0.0
 40
3.9734140234340938
 50
302.30121512460852
 51
51.969715909711603
  0
ARC
  5
820
  8
0
 10
3859.4366957138282
 20
375.0491512845141
 30
0.0
 40
50.156685512186172
 50
42.460350494211028
 51
65.735490728719824
  0
ARC
  5
821
  8
0
 10
3929.0494874960791
 20
533.53429697948923
 30
0.0
 40
122.9462175384904
 50
231.08420465688201
 51
246.51208085694921
  0
ARC
  5
822
  8
0
 10
3874.4511193321418
 20
430.9367290126163
 30
0.0
 40
23.672835586626231
 50
162.96067320773369
 51
193.02253607507899
  0
ARC
  5
823
  8
0
 10
3863.4768756027629
 20
486.31670889896583
 30
0.0
 40
61.906270381644077
 50
236.4036829862707
 51
258.7382530819844
  0
ARC
  5
824
  8
0
 10
3859.2238610476861
 20
437.71617713903828
 30
0.0
 40
30.148204288214789
 50
185.64348020259271
 51
208.8510831909216
  0
ARC
  5
825
  8
0
 10
3835.014244891212
 20
422.7739269164756
 30
0.0
 40
2.2316769170409052
 50
169.8131096333459
 51
245.51712393648839
  0
ARC
  5
826
  8
0
 10
3880.0200856080819
 20
447.48856061868332
 30
0.0
 40
53.150338970528701
 50
210.21243506018291
 51
239.2914363906221
  0
ARC
  5
827
  8
0
 10
3855.8601744606808
 20
397.37130212003228
 30
0.0
 40
5.332006561880835
 50
124.0107347709716
 51
190.74808764777109
  0
ARC
  5
828
  8
0
 10
3864.9995981750012
 20
289.32050963256131
 30
0.0
 40
108.01759458626449
 50
97.649166221865684
 51
101.0176578989028
  0
ARC
  5
829
  8
0
 10
3813.6958919632161
 20
453.34203035086392
 30
0.0
 40
65.600754822101436
 50
288.16468375627801
 51
297.86418234876493
  0
ARC
  5
82A
  8
0
 10
3843.497187365118
 20
373.02064333019513
 30
0.0
 40
20.274718304808282
 50
117.4633110715276
 51
171.09321561529021
  0
ARC
  5
82B
  8
0
 10
3827.678712212989
 20
333.47434960656221
 30
0.0
 40
42.89265874124338
 50
66.16901166683293
 51
95.635128114031048
  0
ARC
  5
82C
  8
0
 10
3864.0655578353731
 20
412.86405276124628
 30
0.0
 40
44.446541149773743
 50
244.61168860748251
 51
284.39179450311542
  0
ARC
  5
82D
  8
0
 10
3846.9950569447842
 20
464.35844570572272
 30
0.0
 40
98.638639604917046
 50
286.56232004634347
 51
304.90180598688602
  0
ARC
  5
82E
  8
0
 10
3925.7067144751031
 20
352.2810843656153
 30
0.0
 40
38.318756796563378
 50
81.031574444311474
 51
125.53968437568589
  0
ARC
  5
82F
  8
0
 10
3920.9838609322428
 20
385.53600621814189
 30
0.0
 40
11.64172306495372
 50
23.249284493959721
 51
65.830537735941164
  0
ENDBLK
  5
831
  8
0
 62
     1
  0
BLOCK
  8
0
 62
     1
  2
*U79
 70
     1
 10
0.0
 20
0.0
 30
0.0
  3
*U79
  1

  0
ARC
  5
833
  8
0
 10
3903.227916389239
 20
386.26888284685077
 30
0.0
 40
24.59759227781754
 50
23.703479147569759
 51
36.770150315845747
  0
ARC
  5
834
  8
0
 10
3918.8734232121392
 20
383.3923984367309
 30
0.0
 40
18.06255713879106
 50
77.016148943021989
 51
120.33616599613271
  0
ARC
  5
835
  8
0
 10
3891.602994746243
 20
428.27015589551178
 30
0.0
 40
34.454927579250338
 50
260.29120356683211
 51
301.7829859597627
  0
ARC
  5
836
  8
0
 10
3908.81961645508
 20
375.63023420229939
 30
0.0
 40
29.650190519859009
 50
115.37164366642401
 51
140.95273472866339
  0
ARC
  5
837
  8
0
 10
3893.9915909775491
 20
405.77911893781391
 30
0.0
 40
3.9734140234340938
 50
302.30121512460818
 51
51.969715909711518
  0
ARC
  5
838
  8
0
 10
3859.4366957138282
 20
375.04915128451421
 30
0.0
 40
50.156685512186172
 50
42.460350494211049
 51
65.735490728719824
  0
ARC
  5
839
  8
0
 10
3929.0494874960791
 20
533.53429697948923
 30
0.0
 40
122.9462175384904
 50
231.08420465688201
 51
246.51208085694921
  0
ARC
  5
83A
  8
0
 10
3874.4511193321418
 20
430.93672901261641
 30
0.0
 40
23.672835586626231
 50
162.96067320773381
 51
193.02253607507899
  0
ARC
  5
83B
  8
0
 10
3863.4768756027629
 20
486.31670889896583
 30
0.0
 40
61.906270381644077
 50
236.4036829862707
 51
258.7382530819844
  0
ARC
  5
83C
  8
0
 10
3859.2238610476861
 20
437.71617713903828
 30
0.0
 40
30.148204288214789
 50
185.6434802025928
 51
208.85108319092171
  0
ARC
  5
83D
  8
0
 10
3835.014244891212
 20
422.77392691647572
 30
0.0
 40
2.2316769170409052
 50
169.8131096333473
 51
245.51712393648839
  0
ARC
  5
83E
  8
0
 10
3880.0200856080819
 20
447.48856061868332
 30
0.0
 40
53.150338970528701
 50
210.2124350601828
 51
239.29143639062201
  0
ARC
  5
83F
  8
0
 10
3855.8601744606808
 20
397.37130212003228
 30
0.0
 40
5.332006561880835
 50
124.0107347709716
 51
190.74808764777109
  0
ARC
  5
840
  8
0
 10
3864.9995981750012
 20
289.32050963256142
 30
0.0
 40
108.01759458626449
 50
97.649166221865684
 51
101.0176578989028
  0
ARC
  5
841
  8
0
 10
3813.6958919632161
 20
453.34203035086392
 30
0.0
 40
65.600754822101436
 50
288.1646837562779
 51
297.86418234876481
  0
ARC
  5
842
  8
0
 10
3843.497187365118
 20
373.02064333019513
 30
0.0
 40
20.274718304808282
 50
117.4633110715276
 51
171.09321561529021
  0
ARC
  5
843
  8
0
 10
3827.678712212989
 20
333.47434960656221
 30
0.0
 40
42.89265874124338
 50
66.16901166683293
 51
95.635128114031048
  0
ARC
  5
844
  8
0
 10
3864.0655578353731
 20
412.86405276124628
 30
0.0
 40
44.446541149773743
 50
244.61168860748251
 51
284.39179450311548
  0
ARC
  5
845
  8
0
 10
3846.9950569447842
 20
464.35844570572272
 30
0.0
 40
98.638639604917046
 50
286.56232004634347
 51
304.90180598688602
  0
ARC
  5
846
  8
0
 10
3925.7067144751031
 20
352.2810843656153
 30
0.0
 40
38.318756796563378
 50
81.031574444311474
 51
125.53968437568589
  0
ARC
  5
847
  8
0
 10
3920.9838609322428
 20
385.53600621814189
 30
0.0
 40
11.64172306495372
 50
23.249284493959721
 51
65.830537735941164
  0
ENDBLK
  5
849
  8
0
 62
     1
  0
BLOCK
  8
0
 62
     1
  2
*U80
 70
     1
 10
0.0
 20
0.0
 30
0.0
  3
*U80
  1

  0
ARC
  5
84B
  8
0
 10
3959.8095374788418
 20
430.88405340930728
 30
0.0
 40
24.59759227781754
 50
23.703479147569759
 51
36.770150315845747
  0
ARC
  5
84C
  8
0
 10
3975.455044301742
 20
428.00756899918741
 30
0.0
 40
18.06255713879106
 50
77.016148943021989
 51
120.33616599613271
  0
ARC
  5
84D
  8
0
 10
3948.1846158358462
 20
472.8853264579684
 30
0.0
 40
34.454927579250338
 50
260.29120356683211
 51
301.7829859597627
  0
ARC
  5
84E
  8
0
 10
3965.4012375446819
 20
420.24540476475602
 30
0.0
 40
29.650190519859009
 50
115.37164366642401
 51
140.95273472866339
  0
ARC
  5
84F
  8
0
 10
3950.5732120671519
 20
450.39428950027047
 30
0.0
 40
3.9734140234340938
 50
302.30121512460818
 51
51.969715909711518
  0
ARC
  5
850
  8
0
 10
3916.0183168034318
 20
419.66432184697072
 30
0.0
 40
50.156685512186172
 50
42.460350494211049
 51
65.735490728719824
  0
ARC
  5
851
  8
0
 10
3985.6311085856819
 20
578.1494675419458
 30
0.0
 40
122.9462175384904
 50
231.08420465688201
 51
246.51208085694921
  0
ARC
  5
852
  8
0
 10
3931.0327404217451
 20
475.55189957507298
 30
0.0
 40
23.672835586626231
 50
162.96067320773381
 51
193.02253607507899
  0
ARC
  5
853
  8
0
 10
3920.0584966923661
 20
530.93187946142234
 30
0.0
 40
61.906270381644077
 50
236.4036829862707
 51
258.7382530819844
  0
ARC
  5
854
  8
0
 10
3915.805482137288
 20
482.33134770149491
 30
0.0
 40
30.148204288214789
 50
185.6434802025928
 51
208.85108319092171
  0
ARC
  5
855
  8
0
 10
3891.5958659808161
 20
467.38909747893229
 30
0.0
 40
2.2316769170409052
 50
169.8131096333473
 51
245.51712393648839
  0
ARC
  5
856
  8
0
 10
3936.6017066976851
 20
492.10373118113989
 30
0.0
 40
53.150338970528701
 50
210.2124350601828
 51
239.29143639062201
  0
ARC
  5
857
  8
0
 10
3912.441795550284
 20
441.9864726824888
 30
0.0
 40
5.332006561880835
 50
124.0107347709716
 51
190.74808764777109
  0
ARC
  5
858
  8
0
 10
3921.581219264604
 20
333.93568019501799
 30
0.0
 40
108.01759458626449
 50
97.649166221865684
 51
101.0176578989028
  0
ARC
  5
859
  8
0
 10
3870.2775130528189
 20
497.95720091332049
 30
0.0
 40
65.600754822101436
 50
288.1646837562779
 51
297.86418234876481
  0
ARC
  5
85A
  8
0
 10
3900.0788084547212
 20
417.63581389265158
 30
0.0
 40
20.274718304808282
 50
117.4633110715276
 51
171.09321561529021
  0
ARC
  5
85B
  8
0
 10
3884.2603333025918
 20
378.08952016901878
 30
0.0
 40
42.89265874124338
 50
66.16901166683293
 51
95.635128114031048
  0
ARC
  5
85C
  8
0
 10
3920.6471789249758
 20
457.47922332370302
 30
0.0
 40
44.446541149773743
 50
244.61168860748251
 51
284.39179450311548
  0
ARC
  5
85D
  8
0
 10
3903.576678034387
 20
508.97361626817923
 30
0.0
 40
98.638639604917046
 50
286.56232004634347
 51
304.90180598688602
  0
ARC
  5
85E
  8
0
 10
3982.2883355647059
 20
396.89625492807193
 30
0.0
 40
38.318756796563378
 50
81.031574444311474
 51
125.53968437568589
  0
ARC
  5
85F
  8
0
 10
3977.5654820218469
 20
430.15117678059841
 30
0.0
 40
11.64172306495372
 50
23.249284493959721
 51
65.830537735941164
  0
ENDBLK
  5
861
  8
0
 62
     1
  0
ENDSEC
  0
SECTION
  2
ENTITIES
  0
INSERT
  5
52
  8
0
 62
     1
  2
*U0
 10
0.0
 20
0.0
 30
0.0
  0
INSERT
  5
53
  8
0
 62
     1
  2
*U1
 10
0.0
 20
0.0
 30
0.0
  0
INSERT
  5
54
  8
0
 62
     1
  2
*U2
 10
0.0
 20
0.0
 30
0.0
  0
INSERT
  5
55
  8
0
 62
     1
  2
*U3
 10
0.0
 20
0.0
 30
0.0
  0
INSERT
  5
56
  8
0
 62
     1
  2
*U4
 10
0.0
 20
0.0
 30
0.0
  0
INSERT
  5
57
  8
0
 62
     1
  2
*U5
 10
0.0
 20
0.0
 30
0.0
  0
INSERT
  5
58
  8
0
 62
     1
  2
*U6
 10
0.0
 20
0.0
 30
0.0
  0
INSERT
  5
59
  8
0
 62
     1
  2
*U7
 10
0.0
 20
0.0
 30
0.0
  0
INSERT
  5
5A
  8
0
 62
     1
  2
*U8
 10
0.0
 20
0.0
 30
0.0
  0
INSERT
  5
5B
  8
0
 62
     1
  2
*U9
 10
0.0
 20
0.0
 30
0.0
  0
INSERT
  5
5C
  8
0
 62
     1
  2
*U10
 10
0.0
 20
0.0
 30
0.0
  0
INSERT
  5
5D
  8
0
 62
     1
  2
*U11
 10
0.0
 20
0.0
 30
0.0
  0
INSERT
  5
5E
  8
0
 62
     1
  2
*U12
 10
0.0
 20
0.0
 30
0.0
  0
INSERT
  5
5F
  8
0
 62
     1
  2
*U13
 10
0.0
 20
0.0
 30
0.0
  0
INSERT
  5
60
  8
0
 62
     1
  2
*U14
 10
0.0
 20
0.0
 30
0.0
  0
INSERT
  5
61
  8
0
 62
     1
  2
*U15
 10
0.0
 20
0.0
 30
0.0
  0
INSERT
  5
62
  8
0
 62
     1
  2
*U16
 10
0.0
 20
0.0
 30
0.0
  0
INSERT
  5
63
  8
0
 62
     1
  2
*U17
 10
0.0
 20
0.0
 30
0.0
  0
INSERT
  5
64
  8
0
 62
     1
  2
*U18
 10
0.0
 20
0.0
 30
0.0
  0
INSERT
  5
65
  8
0
 62
     1
  2
*U19
 10
0.0
 20
0.0
 30
0.0
  0
INSERT
  5
66
  8
0
 62
     1
  2
*U20
 10
0.0
 20
0.0
 30
0.0
  0
INSERT
  5
67
  8
0
 62
     1
  2
*U21
 10
0.0
 20
0.0
 30
0.0
  0
INSERT
  5
68
  8
0
 62
     1
  2
*U22
 10
0.0
 20
0.0
 30
0.0
  0
INSERT
  5
69
  8
0
 62
     1
  2
*U23
 10
0.0
 20
0.0
 30
0.0
  0
INSERT
  5
6A
  8
0
 62
     1
  2
*U24
 10
0.0
 20
0.0
 30
0.0
  0
INSERT
  5
6B
  8
0
 62
     1
  2
*U25
 10
0.0
 20
0.0
 30
0.0
  0
INSERT
  5
6C
  8
0
 62
     1
  2
*U26
 10
0.0
 20
0.0
 30
0.0
  0
INSERT
  5
6D
  8
0
 62
     1
  2
*U27
 10
0.0
 20
0.0
 30
0.0
  0
INSERT
  5
6E
  8
0
 62
     1
  2
*U28
 10
0.0
 20
0.0
 30
0.0
  0
INSERT
  5
6F
  8
0
 62
     1
  2
*U29
 10
0.0
 20
0.0
 30
0.0
  0
INSERT
  5
70
  8
0
 62
     1
  2
*U30
 10
0.0
 20
0.0
 30
0.0
  0
INSERT
  5
71
  8
0
 62
     1
  2
*U31
 10
0.0
 20
0.0
 30
0.0
  0
INSERT
  5
72
  8
0
 62
     1
  2
*U32
 10
0.0
 20
0.0
 30
0.0
  0
INSERT
  5
73
  8
0
 62
     1
  2
*U33
 10
0.0
 20
0.0
 30
0.0
  0
INSERT
  5
74
  8
0
 62
     1
  2
*U34
 10
0.0
 20
0.0
 30
0.0
  0
INSERT
  5
75
  8
0
 62
     1
  2
*U35
 10
0.0
 20
0.0
 30
0.0
  0
INSERT
  5
76
  8
0
 62
     1
  2
*U36
 10
0.0
 20
0.0
 30
0.0
  0
INSERT
  5
77
  8
0
 62
     1
  2
*U37
 10
0.0
 20
0.0
 30
0.0
  0
INSERT
  5
78
  8
0
 62
     1
  2
*U38
 10
0.0
 20
0.0
 30
0.0
  0
INSERT
  5
79
  8
0
 62
     1
  2
*U39
 10
0.0
 20
0.0
 30
0.0
  0
INSERT
  5
7A
  8
0
 62
     1
  2
*U40
 10
0.0
 20
0.0
 30
0.0
  0
INSERT
  5
7B
  8
0
 62
     1
  2
*U41
 10
0.0
 20
0.0
 30
0.0
  0
INSERT
  5
7C
  8
0
 62
     1
  2
*U42
 10
0.0
 20
0.0
 30
0.0
  0
INSERT
  5
7D
  8
0
 62
     1
  2
*U43
 10
0.0
 20
0.0
 30
0.0
  0
INSERT
  5
7E
  8
0
 62
     1
  2
*U44
 10
0.0
 20
0.0
 30
0.0
  0
INSERT
  5
7F
  8
0
 62
     1
  2
*U45
 10
0.0
 20
0.0
 30
0.0
  0
INSERT
  5
80
  8
0
 62
     1
  2
*U46
 10
0.0
 20
0.0
 30
0.0
  0
INSERT
  5
81
  8
0
 62
     1
  2
*U47
 10
0.0
 20
0.0
 30
0.0
  0
INSERT
  5
82
  8
0
 62
     1
  2
*U48
 10
0.0
 20
0.0
 30
0.0
  0
INSERT
  5
83
  8
0
 62
     1
  2
*U49
 10
0.0
 20
0.0
 30
0.0
  0
INSERT
  5
84
  8
0
 62
     1
  2
*U50
 10
0.0
 20
0.0
 30
0.0
  0
INSERT
  5
85
  8
0
 62
     1
  2
*U51
 10
0.0
 20
0.0
 30
0.0
  0
INSERT
  5
86
  8
0
 62
     1
  2
*U52
 10
0.0
 20
0.0
 30
0.0
  0
INSERT
  5
87
  8
0
 62
     1
  2
*U53
 10
0.0
 20
0.0
 30
0.0
  0
INSERT
  5
88
  8
0
 62
     1
  2
*U54
 10
0.0
 20
0.0
 30
0.0
  0
INSERT
  5
89
  8
0
 62
     1
  2
*U55
 10
0.0
 20
0.0
 30
0.0
  0
INSERT
  5
8A
  8
0
 62
     1
  2
*U56
 10
0.0
 20
0.0
 30
0.0
  0
INSERT
  5
8B
  8
0
 62
     1
  2
*U57
 10
0.0
 20
0.0
 30
0.0
  0
INSERT
  5
8C
  8
0
 62
     1
  2
*U58
 10
0.0
 20
0.0
 30
0.0
  0
INSERT
  5
8D
  8
0
 62
     1
  2
*U59
 10
0.0
 20
0.0
 30
0.0
  0
INSERT
  5
8E
  8
0
 62
     1
  2
*U60
 10
0.0
 20
0.0
 30
0.0
  0
INSERT
  5
8F
  8
0
 62
     1
  2
*U61
 10
0.0
 20
0.0
 30
0.0
  0
INSERT
  5
90
  8
0
 62
     1
  2
*U62
 10
0.0
 20
0.0
 30
0.0
  0
INSERT
  5
91
  8
0
 62
     1
  2
*U63
 10
0.0
 20
0.0
 30
0.0
  0
INSERT
  5
92
  8
0
 62
     1
  2
*U64
 10
0.0
 20
0.0
 30
0.0
  0
INSERT
  5
93
  8
0
 62
     1
  2
*U65
 10
0.0
 20
0.0
 30
0.0
  0
INSERT
  5
94
  8
0
 62
     1
  2
*U66
 10
0.0
 20
0.0
 30
0.0
  0
INSERT
  5
95
  8
0
 62
     1
  2
*U67
 10
0.0
 20
0.0
 30
0.0
  0
INSERT
  5
96
  8
0
 62
     1
  2
*U68
 10
0.0
 20
0.0
 30
0.0
  0
INSERT
  5
97
  8
0
 62
     1
  2
*U69
 10
0.0
 20
0.0
 30
0.0
  0
INSERT
  5
98
  8
0
 62
     1
  2
*U70
 10
0.0
 20
0.0
 30
0.0
  0
INSERT
  5
99
  8
0
 62
     1
  2
*U71
 10
0.0
 20
0.0
 30
0.0
  0
INSERT
  5
9A
  8
0
 62
     1
  2
*U72
 10
0.0
 20
0.0
 30
0.0
  0
INSERT
  5
9B
  8
0
 62
     1
  2
*U73
 10
0.0
 20
0.0
 30
0.0
  0
INSERT
  5
9C
  8
0
 62
     1
  2
*U74
 10
0.0
 20
0.0
 30
0.0
  0
INSERT
  5
9D
  8
0
 62
     1
  2
*U75
 10
0.0
 20
0.0
 30
0.0
  0
INSERT
  5
9E
  8
0
 62
     1
  2
*U76
 10
0.0
 20
0.0
 30
0.0
  0
INSERT
  5
9F
  8
0
 62
     1
  2
*U77
 10
0.0
 20
0.0
 30
0.0
  0
INSERT
  5
A0
  8
0
 62
     1
  2
*U78
 10
0.0
 20
0.0
 30
0.0
  0
INSERT
  5
A1
  8
0
 62
     1
  2
*U79
 10
0.0
 20
0.0
 30
0.0
  0
INSERT
  5
A2
  8
0
 62
     1
  2
*U80
 10
0.0
 20
0.0
 30
0.0
  0
ENDSEC
  0
EOF
