  0
SECTION
  2
HEADER
  9
$ACADVER
  1
AC1015
  9
$ACADMAINTVER
 70
     6
  9
$DWGCODEPAGE
  3
ANSI_1252
  9
$INSBASE
 10
0.0
 20
0.0
 30
0.0
  9
$EXTMIN
 10
-9.69789
 20
-6.80358
 30
0.0
  9
$EXTMAX
 10
1.59104
 20
19.28861
 30
0.0
  9
$LIMMIN
 10
0.0
 20
0.0
  9
$LIMMAX
 10
12.0
 20
9.0
  9
$ORTHOMODE
 70
     0
  9
$REGENMODE
 70
     1
  9
$FILLMODE
 70
     1
  9
$QTEXTMODE
 70
     0
  9
$MIRRTEXT
 70
     1
  9
$LTSCALE
 40
1.0
  9
$ATTMODE
 70
     1
  9
$TEXTSIZE
 40
0.2
  9
$TRACEWID
 40
0.05
  9
$TEXTSTYLE
  7
Standard
  9
$CLAYER
  8
0
  9
$CELTYPE
  6
ByLayer
  9
$CECOLOR
 62
   256
  9
$CELTSCALE
 40
1.0
  9
$DISPSILH
 70
     0
  9
$DIMSCALE
 40
1.0
  9
$DIMASZ
 40
0.18
  9
$DIMEXO
 40
0.0625
  9
$DIMDLI
 40
0.38
  9
$DIMRND
 40
0.0
  9
$DIMDLE
 40
0.0
  9
$DIMEXE
 40
0.18
  9
$DIMTP
 40
0.0
  9
$DIMTM
 40
0.0
  9
$DIMTXT
 40
0.18
  9
$DIMCEN
 40
0.09
  9
$DIMTSZ
 40
0.0
  9
$DIMTOL
 70
     0
  9
$DIMLIM
 70
     0
  9
$DIMTIH
 70
     1
  9
$DIMTOH
 70
     1
  9
$DIMSE1
 70
     0
  9
$DIMSE2
 70
     0
  9
$DIMTAD
 70
     0
  9
$DIMZIN
 70
     0
  9
$DIMBLK
  1

  9
$DIMASO
 70
     1
  9
$DIMSHO
 70
     1
  9
$DIMPOST
  1

  9
$DIMAPOST
  1

  9
$DIMALT
 70
     0
  9
$DIMALTD
 70
     2
  9
$DIMALTF
 40
25.4
  9
$DIMLFAC
 40
1.0
  9
$DIMTOFL
 70
     0
  9
$DIMTVP
 40
0.0
  9
$DIMTIX
 70
     0
  9
$DIMSOXD
 70
     0
  9
$DIMSAH
 70
     0
  9
$DIMBLK1
  1

  9
$DIMBLK2
  1

  9
$DIMSTYLE
  2
Standard
  9
$DIMCLRD
 70
     0
  9
$DIMCLRE
 70
     0
  9
$DIMCLRT
 70
     0
  9
$DIMTFAC
 40
1.0
  9
$DIMGAP
 40
0.09
  9
$DIMJUST
 70
     0
  9
$DIMSD1
 70
     0
  9
$DIMSD2
 70
     0
  9
$DIMTOLJ
 70
     1
  9
$DIMTZIN
 70
     0
  9
$DIMALTZ
 70
     0
  9
$DIMALTTZ
 70
     0
  9
$DIMUPT
 70
     0
  9
$DIMDEC
 70
     4
  9
$DIMTDEC
 70
     4
  9
$DIMALTU
 70
     2
  9
$DIMALTTD
 70
     2
  9
$DIMTXSTY
  7
Standard
  9
$DIMAUNIT
 70
     0
  9
$DIMADEC
 70
     0
  9
$DIMALTRND
 40
0.0
  9
$DIMAZIN
 70
     0
  9
$DIMDSEP
 70
    46
  9
$DIMATFIT
 70
     3
  9
$DIMFRAC
 70
     0
  9
$DIMLDRBLK
  1

  9
$DIMLUNIT
 70
     2
  9
$DIMLWD
 70
    -2
  9
$DIMLWE
 70
    -2
  9
$DIMTMOVE
 70
     0
  9
$LUNITS
 70
     2
  9
$LUPREC
 70
     4
  9
$SKETCHINC
 40
0.1
  9
$FILLETRAD
 40
0.5
  9
$AUNITS
 70
     0
  9
$AUPREC
 70
     0
  9
$MENU
  1
.
  9
$ELEVATION
 40
0.0
  9
$PELEVATION
 40
0.0
  9
$THICKNESS
 40
0.0
  9
$LIMCHECK
 70
     0
  9
$CHAMFERA
 40
0.5
  9
$CHAMFERB
 40
0.5
  9
$CHAMFERC
 40
1.0
  9
$CHAMFERD
 40
0.0
  9
$SKPOLY
 70
     0
  9
$TDCREATE
 40
2458031.532563009
  9
$TDUCREATE
 40
2458031.303396343
  9
$TDUPDATE
 40
2458031.532563368
  9
$TDUUPDATE
 40
2458031.303396701
  9
$TDINDWG
 40
0.0000000116
  9
$TDUSRTIMER
 40
0.0000000116
  9
$USRTIMER
 70
     1
  9
$ANGBASE
 50
0.0
  9
$ANGDIR
 70
     0
  9
$PDMODE
 70
     0
  9
$PDSIZE
 40
0.0
  9
$PLINEWID
 40
0.0
  9
$SPLFRAME
 70
     0
  9
$SPLINETYPE
 70
     6
  9
$SPLINESEGS
 70
     8
  9
$HANDSEED
  5
15E
  9
$SURFTAB1
 70
     6
  9
$SURFTAB2
 70
     6
  9
$SURFTYPE
 70
     6
  9
$SURFU
 70
     6
  9
$SURFV
 70
     6
  9
$UCSBASE
  2

  9
$UCSNAME
  2

  9
$UCSORG
 10
0.0
 20
0.0
 30
0.0
  9
$UCSXDIR
 10
1.0
 20
0.0
 30
0.0
  9
$UCSYDIR
 10
0.0
 20
1.0
 30
0.0
  9
$UCSORTHOREF
  2

  9
$UCSORTHOVIEW
 70
     0
  9
$UCSORGTOP
 10
0.0
 20
0.0
 30
0.0
  9
$UCSORGBOTTOM
 10
0.0
 20
0.0
 30
0.0
  9
$UCSORGLEFT
 10
0.0
 20
0.0
 30
0.0
  9
$UCSORGRIGHT
 10
0.0
 20
0.0
 30
0.0
  9
$UCSORGFRONT
 10
0.0
 20
0.0
 30
0.0
  9
$UCSORGBACK
 10
0.0
 20
0.0
 30
0.0
  9
$PUCSBASE
  2

  9
$PUCSNAME
  2

  9
$PUCSORG
 10
0.0
 20
0.0
 30
0.0
  9
$PUCSXDIR
 10
1.0
 20
0.0
 30
0.0
  9
$PUCSYDIR
 10
0.0
 20
1.0
 30
0.0
  9
$PUCSORTHOREF
  2

  9
$PUCSORTHOVIEW
 70
     0
  9
$PUCSORGTOP
 10
0.0
 20
0.0
 30
0.0
  9
$PUCSORGBOTTOM
 10
0.0
 20
0.0
 30
0.0
  9
$PUCSORGLEFT
 10
0.0
 20
0.0
 30
0.0
  9
$PUCSORGRIGHT
 10
0.0
 20
0.0
 30
0.0
  9
$PUCSORGFRONT
 10
0.0
 20
0.0
 30
0.0
  9
$PUCSORGBACK
 10
0.0
 20
0.0
 30
0.0
  9
$USERI1
 70
     0
  9
$USERI2
 70
     0
  9
$USERI3
 70
     0
  9
$USERI4
 70
     0
  9
$USERI5
 70
     0
  9
$USERR1
 40
0.0
  9
$USERR2
 40
0.0
  9
$USERR3
 40
0.0
  9
$USERR4
 40
0.0
  9
$USERR5
 40
0.0
  9
$WORLDVIEW
 70
     1
  9
$SHADEDGE
 70
     3
  9
$SHADEDIF
 70
    70
  9
$TILEMODE
 70
     1
  9
$MAXACTVP
 70
    64
  9
$PINSBASE
 10
0.0
 20
0.0
 30
0.0
  9
$PLIMCHECK
 70
     0
  9
$PEXTMIN
 10
1.000000000000000E+20
 20
1.000000000000000E+20
 30
1.000000000000000E+20
  9
$PEXTMAX
 10
-1.000000000000000E+20
 20
-1.000000000000000E+20
 30
-1.000000000000000E+20
  9
$PLIMMIN
 10
0.0
 20
0.0
  9
$PLIMMAX
 10
12.0
 20
9.0
  9
$UNITMODE
 70
     0
  9
$VISRETAIN
 70
     1
  9
$PLINEGEN
 70
     0
  9
$PSLTSCALE
 70
     1
  9
$TREEDEPTH
 70
  3020
  9
$CMLSTYLE
  2
Standard
  9
$CMLJUST
 70
     0
  9
$CMLSCALE
 40
1.0
  9
$PROXYGRAPHICS
 70
     1
  9
$MEASUREMENT
 70
     0
  9
$CELWEIGHT
370
    -1
  9
$ENDCAPS
280
     0
  9
$JOINSTYLE
280
     0
  9
$LWDISPLAY
290
     0
  9
$INSUNITS
 70
     5
  9
$HYPERLINKBASE
  1

  9
$STYLESHEET
  1

  9
$XEDIT
290
     1
  9
$CEPSNTYPE
380
     0
  9
$PSTYLEMODE
290
     1
  9
$FINGERPRINTGUID
  2
{14562632-46F7-4C42-8EB8-9C54255C35BC}
  9
$VERSIONGUID
  2
{FAEB1C32-E019-11D5-929B-00C0DF256EC4}
  9
$EXTNAMES
290
     1
  9
$PSVPSCALE
 40
0.0
  9
$OLESTARTUP
290
     0
  0
ENDSEC
  0
SECTION
  2
CLASSES
  0
CLASS
  1
ACDBDICTIONARYWDFLT
  2
AcDbDictionaryWithDefault
  3
ObjectDBX Classes
 90
        0
280
     0
281
     0
  0
CLASS
  1
VISUALSTYLE
  2
AcDbVisualStyle
  3
ObjectDBX Classes
 90
     4095
280
     0
281
     0
  0
CLASS
  1
MATERIAL
  2
AcDbMaterial
  3
ObjectDBX Classes
 90
     1153
280
     0
281
     0
  0
CLASS
  1
DICTIONARYVAR
  2
AcDbDictionaryVar
  3
ObjectDBX Classes
 90
        0
280
     0
281
     0
  0
CLASS
  1
ACDBPLACEHOLDER
  2
AcDbPlaceHolder
  3
ObjectDBX Classes
 90
        0
280
     0
281
     0
  0
CLASS
  1
LAYOUT
  2
AcDbLayout
  3
ObjectDBX Classes
 90
        0
280
     0
281
     0
  0
ENDSEC
  0
SECTION
  2
TABLES
  0
TABLE
  2
VPORT
  5
8
330
0
100
AcDbSymbolTable
 70
     1
  0
VPORT
  5
29
330
8
100
AcDbSymbolTableRecord
100
AcDbViewportTableRecord
  2
*Active
 70
     0
 10
0.0
 20
0.0
 11
1.0
 21
1.0
 12
10.42990654205607
 22
4.5
 13
0.0
 23
0.0
 14
0.5
 24
0.5
 15
0.5
 25
0.5
 16
0.0
 26
0.0
 36
1.0
 17
0.0
 27
0.0
 37
0.0
 40
9.0
 41
1.972972972850329
 42
50.0
 43
0.0
 44
0.0
 50
0.0
 51
0.0
 71
     0
 72
   100
 73
     1
 74
     3
 75
     0
 76
     0
 77
     0
 78
     0
281
     0
 65
     1
110
0.0
120
0.0
130
0.0
111
1.0
121
0.0
131
0.0
112
0.0
122
1.0
132
0.0
 79
     0
146
0.0
  0
ENDTAB
  0
TABLE
  2
LTYPE
  5
5
330
0
100
AcDbSymbolTable
 70
     1
  0
LTYPE
  5
14
330
5
100
AcDbSymbolTableRecord
100
AcDbLinetypeTableRecord
  2
ByBlock
 70
     0
  3

 72
    65
 73
     0
 40
0.0
  0
LTYPE
  5
15
330
5
100
AcDbSymbolTableRecord
100
AcDbLinetypeTableRecord
  2
ByLayer
 70
     0
  3

 72
    65
 73
     0
 40
0.0
  0
LTYPE
  5
16
330
5
100
AcDbSymbolTableRecord
100
AcDbLinetypeTableRecord
  2
Continuous
 70
     0
  3
Solid line
 72
    65
 73
     0
 40
0.0
  0
ENDTAB
  0
TABLE
  2
LAYER
  5
2
330
0
100
AcDbSymbolTable
 70
     2
  0
LAYER
  5
10
330
2
100
AcDbSymbolTableRecord
100
AcDbLayerTableRecord
  2
0
 70
     0
 62
     7
  6
Continuous
370
    -3
390
F
  0
LAYER
  5
40
330
2
100
AcDbSymbolTableRecord
100
AcDbLayerTableRecord
  2
Layer 1
 70
     0
 62
     7
  6
Continuous
370
    -3
390
F
  0
ENDTAB
  0
TABLE
  2
STYLE
  5
3
330
0
100
AcDbSymbolTable
 70
     1
  0
STYLE
  5
11
330
3
100
AcDbSymbolTableRecord
100
AcDbTextStyleTableRecord
  2
Standard
 70
     0
 40
0.0
 41
1.0
 50
0.0
 71
     0
 42
0.2
  3
txt
  4

  0
ENDTAB
  0
TABLE
  2
VIEW
  5
6
330
0
100
AcDbSymbolTable
 70
     0
  0
ENDTAB
  0
TABLE
  2
UCS
  5
7
330
0
100
AcDbSymbolTable
 70
     0
  0
ENDTAB
  0
TABLE
  2
APPID
  5
9
330
0
100
AcDbSymbolTable
 70
     2
  0
APPID
  5
12
330
9
100
AcDbSymbolTableRecord
100
AcDbRegAppTableRecord
  2
ACAD
 70
     0
  0
APPID
  5
3F
330
9
100
AcDbSymbolTableRecord
100
AcDbRegAppTableRecord
  2
ODA
 70
     0
  0
ENDTAB
  0
TABLE
  2
DIMSTYLE
  5
A
330
0
100
AcDbSymbolTable
 70
     1
100
AcDbDimStyleTable
  0
DIMSTYLE
105
27
330
A
100
AcDbSymbolTableRecord
100
AcDbDimStyleTableRecord
  2
Standard
 70
     0
178
     0
340
11
  0
ENDTAB
  0
TABLE
  2
BLOCK_RECORD
  5
1
330
0
100
AcDbSymbolTable
 70
     1
  0
BLOCK_RECORD
  5
1F
330
1
100
AcDbSymbolTableRecord
100
AcDbBlockTableRecord
  2
*Model_Space
340
22
  0
BLOCK_RECORD
  5
1B
330
1
100
AcDbSymbolTableRecord
100
AcDbBlockTableRecord
  2
*Paper_Space
340
1E
  0
BLOCK_RECORD
  5
23
330
1
100
AcDbSymbolTableRecord
100
AcDbBlockTableRecord
  2
*Paper_Space0
340
26
  0
ENDTAB
  0
ENDSEC
  0
SECTION
  2
BLOCKS
  0
BLOCK
  5
20
330
1F
100
AcDbEntity
  8
0
100
AcDbBlockBegin
  2
*Model_Space
 70
     0
 10
0.0
 20
0.0
 30
0.0
  3
*Model_Space
  1

  0
ENDBLK
  5
21
330
1F
100
AcDbEntity
  8
0
100
AcDbBlockEnd
  0
BLOCK
  5
1C
330
1B
100
AcDbEntity
 67
     1
  8
0
100
AcDbBlockBegin
  2
*Paper_Space
 70
     0
 10
0.0
 20
0.0
 30
0.0
  3
*Paper_Space
  1

  0
ENDBLK
  5
1D
330
1B
100
AcDbEntity
 67
     1
  8
0
100
AcDbBlockEnd
  0
BLOCK
  5
24
330
23
100
AcDbEntity
  8
0
100
AcDbBlockBegin
  2
*Paper_Space0
 70
     0
 10
0.0
 20
0.0
 30
0.0
  3
*Paper_Space0
  1

  0
ENDBLK
  5
25
330
23
100
AcDbEntity
  8
0
100
AcDbBlockEnd
  0
ENDSEC
  0
SECTION
  2
ENTITIES
  0
SPLINE
  5
41
330
1F
100
AcDbEntity
  8
Layer 1
 62
   177
100
AcDbSpline
210
0.0
220
0.0
230
1.0
 70
    11
 71
     3
 72
    20
 73
    16
 74
     0
 42
0.0000000001
 43
0.0000000001
 12
1.0
 22
0.0
 32
0.0
 13
1.0
 23
0.0
 33
0.0
 40
0.0
 40
0.0
 40
0.0
 40
0.0
 40
0.2
 40
0.2
 40
0.2
 40
0.2
 40
0.4
 40
0.4
 40
0.4
 40
0.4
 40
0.6
 40
0.6
 40
0.6
 40
0.6
 40
1.0
 40
1.0
 40
1.0
 40
1.0
 10
-9.69789
 20
19.2848
 30
0.0
 10
-8.1465
 20
19.2848
 30
0.0
 10
-6.59509
 20
19.2848
 30
0.0
 10
-5.04378
 20
19.2848
 30
0.0
 10
-5.04378
 20
19.2848
 30
0.0
 10
-5.04378
 20
10.58994
 30
0.0
 10
-5.04378
 20
1.8951
 30
0.0
 10
-5.04378
 20
-6.79977
 30
0.0
 10
-5.04378
 20
-6.79977
 30
0.0
 10
-6.59509
 20
-6.79977
 30
0.0
 10
-8.1465
 20
-6.79977
 30
0.0
 10
-9.69789
 20
-6.79977
 30
0.0
 10
-9.69789
 20
-6.79977
 30
0.0
 10
-9.69789
 20
1.8951
 30
0.0
 10
-9.69789
 20
10.58994
 30
0.0
 10
-9.69789
 20
19.2848
 30
0.0
  0
SPLINE
  5
42
330
1F
100
AcDbEntity
  8
Layer 1
 62
     7
100
AcDbSpline
210
0.0
220
0.0
230
1.0
 70
    11
 71
     3
 72
    20
 73
    16
 74
     0
 42
0.0000000001
 43
0.0000000001
 12
1.0
 22
0.0
 32
0.0
 13
1.0
 23
0.0
 33
0.0
 40
0.0
 40
0.0
 40
0.0
 40
0.0
 40
0.2
 40
0.2
 40
0.2
 40
0.2
 40
0.4
 40
0.4
 40
0.4
 40
0.4
 40
0.6
 40
0.6
 40
0.6
 40
0.6
 40
1.0
 40
1.0
 40
1.0
 40
1.0
 10
-6.06085
 20
9.94258
 30
0.0
 10
-6.06085
 20
10.0991
 30
0.0
 10
-6.06085
 20
10.2557
 30
0.0
 10
-6.06085
 20
10.41217
 30
0.0
 10
-6.06085
 20
10.41217
 30
0.0
 10
-6.45631
 20
10.41217
 30
0.0
 10
-6.85179
 20
10.41217
 30
0.0
 10
-7.24722
 20
10.41217
 30
0.0
 10
-7.24722
 20
10.41217
 30
0.0
 10
-7.24722
 20
10.2557
 30
0.0
 10
-7.24722
 20
10.0991
 30
0.0
 10
-7.24722
 20
9.94258
 30
0.0
 10
-7.24722
 20
9.94258
 30
0.0
 10
-6.85179
 20
9.94258
 30
0.0
 10
-6.45631
 20
9.94258
 30
0.0
 10
-6.06085
 20
9.94258
 30
0.0
  0
SPLINE
  5
43
330
1F
100
AcDbEntity
  8
Layer 1
 62
     7
100
AcDbSpline
210
0.0
220
0.0
230
1.0
 70
    11
 71
     3
 72
    20
 73
    16
 74
     0
 42
0.0000000001
 43
0.0000000001
 12
1.0
 22
0.0
 32
0.0
 13
1.0
 23
0.0
 33
0.0
 40
0.0
 40
0.0
 40
0.0
 40
0.0
 40
0.2
 40
0.2
 40
0.2
 40
0.2
 40
0.4
 40
0.4
 40
0.4
 40
0.4
 40
0.6
 40
0.6
 40
0.6
 40
0.6
 40
1.0
 40
1.0
 40
1.0
 40
1.0
 10
-8.6808
 20
7.54501
 30
0.0
 10
-8.52428
 20
7.54501
 30
0.0
 10
-8.36773
 20
7.54501
 30
0.0
 10
-8.21121
 20
7.54501
 30
0.0
 10
-8.21121
 20
7.54501
 30
0.0
 10
-8.21121
 20
7.38848
 30
0.0
 10
-8.21121
 20
7.23193
 30
0.0
 10
-8.21121
 20
7.07538
 30
0.0
 10
-8.21121
 20
7.07538
 30
0.0
 10
-8.36773
 20
7.07538
 30
0.0
 10
-8.52428
 20
7.07538
 30
0.0
 10
-8.6808
 20
7.07538
 30
0.0
 10
-8.6808
 20
7.07538
 30
0.0
 10
-8.6808
 20
7.23193
 30
0.0
 10
-8.6808
 20
7.38848
 30
0.0
 10
-8.6808
 20
7.54501
 30
0.0
  0
SPLINE
  5
44
330
1F
100
AcDbEntity
  8
Layer 1
 62
     7
100
AcDbSpline
210
0.0
220
0.0
230
1.0
 70
    11
 71
     3
 72
    20
 73
    16
 74
     0
 42
0.0000000001
 43
0.0000000001
 12
1.0
 22
0.0
 32
0.0
 13
1.0
 23
0.0
 33
0.0
 40
0.0
 40
0.0
 40
0.0
 40
0.0
 40
0.2
 40
0.2
 40
0.2
 40
0.2
 40
0.4
 40
0.4
 40
0.4
 40
0.4
 40
0.6
 40
0.6
 40
0.6
 40
0.6
 40
1.0
 40
1.0
 40
1.0
 40
1.0
 10
-8.928
 20
6.35858
 30
0.0
 10
-9.0845
 20
6.35858
 30
0.0
 10
-9.24109
 20
6.35858
 30
0.0
 10
-9.39759
 20
6.35858
 30
0.0
 10
-9.39759
 20
6.35858
 30
0.0
 10
-9.39759
 20
6.75411
 30
0.0
 10
-9.39759
 20
7.14951
 30
0.0
 10
-9.39759
 20
7.54501
 30
0.0
 10
-9.39759
 20
7.54501
 30
0.0
 10
-9.24109
 20
7.54501
 30
0.0
 10
-9.0845
 20
7.54501
 30
0.0
 10
-8.928
 20
7.54501
 30
0.0
 10
-8.928
 20
7.54501
 30
0.0
 10
-8.928
 20
7.14951
 30
0.0
 10
-8.928
 20
6.75411
 30
0.0
 10
-8.928
 20
6.35858
 30
0.0
  0
SPLINE
  5
45
330
1F
100
AcDbEntity
  8
Layer 1
 62
     7
100
AcDbSpline
210
0.0
220
0.0
230
1.0
 70
    11
 71
     3
 72
    20
 73
    16
 74
     0
 42
0.0000000001
 43
0.0000000001
 12
1.0
 22
0.0
 32
0.0
 13
1.0
 23
0.0
 33
0.0
 40
0.0
 40
0.0
 40
0.0
 40
0.0
 40
0.2
 40
0.2
 40
0.2
 40
0.2
 40
0.4
 40
0.4
 40
0.4
 40
0.4
 40
0.6
 40
0.6
 40
0.6
 40
0.6
 40
1.0
 40
1.0
 40
1.0
 40
1.0
 10
-7.49441
 20
6.82819
 30
0.0
 10
-7.88991
 20
6.82819
 30
0.0
 10
-8.28533
 20
6.82819
 30
0.0
 10
-8.6808
 20
6.82819
 30
0.0
 10
-8.6808
 20
6.82819
 30
0.0
 10
-8.6808
 20
6.67167
 30
0.0
 10
-8.6808
 20
6.51508
 30
0.0
 10
-8.6808
 20
6.35858
 30
0.0
 10
-8.6808
 20
6.35858
 30
0.0
 10
-8.28533
 20
6.35858
 30
0.0
 10
-7.88991
 20
6.35858
 30
0.0
 10
-7.49441
 20
6.35858
 30
0.0
 10
-7.49441
 20
6.35858
 30
0.0
 10
-7.49441
 20
6.51508
 30
0.0
 10
-7.49441
 20
6.67167
 30
0.0
 10
-7.49441
 20
6.82819
 30
0.0
  0
SPLINE
  5
46
330
1F
100
AcDbEntity
  8
Layer 1
 62
     7
100
AcDbSpline
210
0.0
220
0.0
230
1.0
 70
    11
 71
     3
 72
    20
 73
    16
 74
     0
 42
0.0000000001
 43
0.0000000001
 12
1.0
 22
0.0
 32
0.0
 13
1.0
 23
0.0
 33
0.0
 40
0.0
 40
0.0
 40
0.0
 40
0.0
 40
0.2
 40
0.2
 40
0.2
 40
0.2
 40
0.4
 40
0.4
 40
0.4
 40
0.4
 40
0.6
 40
0.6
 40
0.6
 40
0.6
 40
1.0
 40
1.0
 40
1.0
 40
1.0
 10
-7.96401
 20
8.26179
 30
0.0
 10
-7.80749
 20
8.26179
 30
0.0
 10
-7.65096
 20
8.26179
 30
0.0
 10
-7.49441
 20
8.26179
 30
0.0
 10
-7.49441
 20
8.26179
 30
0.0
 10
-7.49441
 20
7.86632
 30
0.0
 10
-7.49441
 20
7.47086
 30
0.0
 10
-7.49441
 20
7.07538
 30
0.0
 10
-7.49441
 20
7.07538
 30
0.0
 10
-7.65096
 20
7.07538
 30
0.0
 10
-7.80749
 20
7.07538
 30
0.0
 10
-7.96401
 20
7.07538
 30
0.0
 10
-7.96401
 20
7.07538
 30
0.0
 10
-7.96401
 20
7.47089
 30
0.0
 10
-7.96401
 20
7.86632
 30
0.0
 10
-7.96401
 20
8.26179
 30
0.0
  0
SPLINE
  5
47
330
1F
100
AcDbEntity
  8
Layer 1
 62
     7
100
AcDbSpline
210
0.0
220
0.0
230
1.0
 70
    11
 71
     3
 72
    20
 73
    16
 74
     0
 42
0.0000000001
 43
0.0000000001
 12
1.0
 22
0.0
 32
0.0
 13
1.0
 23
0.0
 33
0.0
 40
0.0
 40
0.0
 40
0.0
 40
0.0
 40
0.2
 40
0.2
 40
0.2
 40
0.2
 40
0.4
 40
0.4
 40
0.4
 40
0.4
 40
0.6
 40
0.6
 40
0.6
 40
0.6
 40
1.0
 40
1.0
 40
1.0
 40
1.0
 10
-8.21121
 20
7.79222
 30
0.0
 10
-8.21121
 20
7.94871
 30
0.0
 10
-8.21121
 20
8.1053
 30
0.0
 10
-8.21121
 20
8.26179
 30
0.0
 10
-8.21121
 20
8.26179
 30
0.0
 10
-8.60668
 20
8.26179
 30
0.0
 10
-9.0021
 20
8.26179
 30
0.0
 10
-9.39759
 20
8.26179
 30
0.0
 10
-9.39759
 20
8.26179
 30
0.0
 10
-9.39759
 20
8.1053
 30
0.0
 10
-9.39759
 20
7.94871
 30
0.0
 10
-9.39759
 20
7.79222
 30
0.0
 10
-9.39759
 20
7.79222
 30
0.0
 10
-9.0021
 20
7.79222
 30
0.0
 10
-8.60668
 20
7.79222
 30
0.0
 10
-8.21121
 20
7.79222
 30
0.0
  0
SPLINE
  5
48
330
1F
100
AcDbEntity
  8
Layer 1
 62
     7
100
AcDbSpline
210
0.0
220
0.0
230
1.0
 70
    11
 71
     3
 72
    20
 73
    16
 74
     0
 42
0.0000000001
 43
0.0000000001
 12
1.0
 22
0.0
 32
0.0
 13
1.0
 23
0.0
 33
0.0
 40
0.0
 40
0.0
 40
0.0
 40
0.0
 40
0.2
 40
0.2
 40
0.2
 40
0.2
 40
0.4
 40
0.4
 40
0.4
 40
0.4
 40
0.6
 40
0.6
 40
0.6
 40
0.6
 40
1.0
 40
1.0
 40
1.0
 40
1.0
 10
-8.6808
 20
5.39466
 30
0.0
 10
-8.52428
 20
5.39466
 30
0.0
 10
-8.36773
 20
5.39466
 30
0.0
 10
-8.21121
 20
5.39466
 30
0.0
 10
-8.21121
 20
5.39466
 30
0.0
 10
-8.21121
 20
5.23811
 30
0.0
 10
-8.21121
 20
5.08154
 30
0.0
 10
-8.21121
 20
4.92499
 30
0.0
 10
-8.21121
 20
4.92499
 30
0.0
 10
-8.36773
 20
4.92499
 30
0.0
 10
-8.52428
 20
4.92499
 30
0.0
 10
-8.6808
 20
4.92499
 30
0.0
 10
-8.6808
 20
4.92499
 30
0.0
 10
-8.6808
 20
5.08154
 30
0.0
 10
-8.6808
 20
5.23811
 30
0.0
 10
-8.6808
 20
5.39466
 30
0.0
  0
SPLINE
  5
49
330
1F
100
AcDbEntity
  8
Layer 1
 62
     7
100
AcDbSpline
210
0.0
220
0.0
230
1.0
 70
    11
 71
     3
 72
    20
 73
    16
 74
     0
 42
0.0000000001
 43
0.0000000001
 12
1.0
 22
0.0
 32
0.0
 13
1.0
 23
0.0
 33
0.0
 40
0.0
 40
0.0
 40
0.0
 40
0.0
 40
0.2
 40
0.2
 40
0.2
 40
0.2
 40
0.4
 40
0.4
 40
0.4
 40
0.4
 40
0.6
 40
0.6
 40
0.6
 40
0.6
 40
1.0
 40
1.0
 40
1.0
 40
1.0
 10
-8.928
 20
4.20821
 30
0.0
 10
-9.0845
 20
4.20821
 30
0.0
 10
-9.24109
 20
4.20821
 30
0.0
 10
-9.39759
 20
4.20821
 30
0.0
 10
-9.39759
 20
4.20821
 30
0.0
 10
-9.39759
 20
4.60371
 30
0.0
 10
-9.39759
 20
4.99915
 30
0.0
 10
-9.39759
 20
5.39466
 30
0.0
 10
-9.39759
 20
5.39466
 30
0.0
 10
-9.24109
 20
5.39466
 30
0.0
 10
-9.0845
 20
5.39466
 30
0.0
 10
-8.928
 20
5.39466
 30
0.0
 10
-8.928
 20
5.39466
 30
0.0
 10
-8.928
 20
4.99915
 30
0.0
 10
-8.928
 20
4.60373
 30
0.0
 10
-8.928
 20
4.20821
 30
0.0
  0
SPLINE
  5
4A
330
1F
100
AcDbEntity
  8
Layer 1
 62
     7
100
AcDbSpline
210
0.0
220
0.0
230
1.0
 70
    11
 71
     3
 72
    20
 73
    16
 74
     0
 42
0.0000000001
 43
0.0000000001
 12
1.0
 22
0.0
 32
0.0
 13
1.0
 23
0.0
 33
0.0
 40
0.0
 40
0.0
 40
0.0
 40
0.0
 40
0.2
 40
0.2
 40
0.2
 40
0.2
 40
0.4
 40
0.4
 40
0.4
 40
0.4
 40
0.6
 40
0.6
 40
0.6
 40
0.6
 40
1.0
 40
1.0
 40
1.0
 40
1.0
 10
-7.49441
 20
4.67782
 30
0.0
 10
-7.88991
 20
4.67782
 30
0.0
 10
-8.28533
 20
4.67782
 30
0.0
 10
-8.6808
 20
4.67782
 30
0.0
 10
-8.6808
 20
4.67782
 30
0.0
 10
-8.6808
 20
4.52128
 30
0.0
 10
-8.6808
 20
4.36474
 30
0.0
 10
-8.6808
 20
4.20821
 30
0.0
 10
-8.6808
 20
4.20821
 30
0.0
 10
-8.28533
 20
4.20821
 30
0.0
 10
-7.88991
 20
4.20821
 30
0.0
 10
-7.49441
 20
4.20821
 30
0.0
 10
-7.49441
 20
4.20821
 30
0.0
 10
-7.49441
 20
4.36474
 30
0.0
 10
-7.49441
 20
4.52128
 30
0.0
 10
-7.49441
 20
4.67782
 30
0.0
  0
SPLINE
  5
4B
330
1F
100
AcDbEntity
  8
Layer 1
 62
     7
100
AcDbSpline
210
0.0
220
0.0
230
1.0
 70
    11
 71
     3
 72
    20
 73
    16
 74
     0
 42
0.0000000001
 43
0.0000000001
 12
1.0
 22
0.0
 32
0.0
 13
1.0
 23
0.0
 33
0.0
 40
0.0
 40
0.0
 40
0.0
 40
0.0
 40
0.2
 40
0.2
 40
0.2
 40
0.2
 40
0.4
 40
0.4
 40
0.4
 40
0.4
 40
0.6
 40
0.6
 40
0.6
 40
0.6
 40
1.0
 40
1.0
 40
1.0
 40
1.0
 10
-7.96401
 20
6.11144
 30
0.0
 10
-7.80749
 20
6.11144
 30
0.0
 10
-7.65096
 20
6.11144
 30
0.0
 10
-7.49441
 20
6.11144
 30
0.0
 10
-7.49441
 20
6.11144
 30
0.0
 10
-7.49441
 20
5.71597
 30
0.0
 10
-7.49441
 20
5.32048
 30
0.0
 10
-7.49441
 20
4.92499
 30
0.0
 10
-7.49441
 20
4.92499
 30
0.0
 10
-7.65096
 20
4.92499
 30
0.0
 10
-7.80749
 20
4.92499
 30
0.0
 10
-7.96401
 20
4.92499
 30
0.0
 10
-7.96401
 20
4.92499
 30
0.0
 10
-7.96401
 20
5.32048
 30
0.0
 10
-7.96401
 20
5.71597
 30
0.0
 10
-7.96401
 20
6.11144
 30
0.0
  0
SPLINE
  5
4C
330
1F
100
AcDbEntity
  8
Layer 1
 62
     7
100
AcDbSpline
210
0.0
220
0.0
230
1.0
 70
    11
 71
     3
 72
    20
 73
    16
 74
     0
 42
0.0000000001
 43
0.0000000001
 12
1.0
 22
0.0
 32
0.0
 13
1.0
 23
0.0
 33
0.0
 40
0.0
 40
0.0
 40
0.0
 40
0.0
 40
0.2
 40
0.2
 40
0.2
 40
0.2
 40
0.4
 40
0.4
 40
0.4
 40
0.4
 40
0.6
 40
0.6
 40
0.6
 40
0.6
 40
1.0
 40
1.0
 40
1.0
 40
1.0
 10
-8.21121
 20
5.64182
 30
0.0
 10
-8.21121
 20
5.79831
 30
0.0
 10
-8.21121
 20
5.95491
 30
0.0
 10
-8.21121
 20
6.11144
 30
0.0
 10
-8.21121
 20
6.11144
 30
0.0
 10
-8.60668
 20
6.11144
 30
0.0
 10
-9.0021
 20
6.11144
 30
0.0
 10
-9.39759
 20
6.11144
 30
0.0
 10
-9.39759
 20
6.11144
 30
0.0
 10
-9.39759
 20
5.95491
 30
0.0
 10
-9.39759
 20
5.79831
 30
0.0
 10
-9.39759
 20
5.64182
 30
0.0
 10
-9.39759
 20
5.64182
 30
0.0
 10
-9.0021
 20
5.64182
 30
0.0
 10
-8.60668
 20
5.64182
 30
0.0
 10
-8.21121
 20
5.64182
 30
0.0
  0
SPLINE
  5
4D
330
1F
100
AcDbEntity
  8
Layer 1
 62
     7
100
AcDbSpline
210
0.0
220
0.0
230
1.0
 70
    11
 71
     3
 72
    20
 73
    16
 74
     0
 42
0.0000000001
 43
0.0000000001
 12
1.0
 22
0.0
 32
0.0
 13
1.0
 23
0.0
 33
0.0
 40
0.0
 40
0.0
 40
0.0
 40
0.0
 40
0.2
 40
0.2
 40
0.2
 40
0.2
 40
0.4
 40
0.4
 40
0.4
 40
0.4
 40
0.6
 40
0.6
 40
0.6
 40
0.6
 40
1.0
 40
1.0
 40
1.0
 40
1.0
 10
-8.6808
 20
3.24426
 30
0.0
 10
-8.52428
 20
3.24426
 30
0.0
 10
-8.36773
 20
3.24426
 30
0.0
 10
-8.21121
 20
3.24426
 30
0.0
 10
-8.21121
 20
3.24426
 30
0.0
 10
-8.21121
 20
3.08772
 30
0.0
 10
-8.21121
 20
2.93117
 30
0.0
 10
-8.21121
 20
2.77461
 30
0.0
 10
-8.21121
 20
2.77461
 30
0.0
 10
-8.36773
 20
2.77461
 30
0.0
 10
-8.52428
 20
2.77461
 30
0.0
 10
-8.6808
 20
2.77461
 30
0.0
 10
-8.6808
 20
2.77461
 30
0.0
 10
-8.6808
 20
2.93117
 30
0.0
 10
-8.6808
 20
3.08772
 30
0.0
 10
-8.6808
 20
3.24426
 30
0.0
  0
SPLINE
  5
4E
330
1F
100
AcDbEntity
  8
Layer 1
 62
     7
100
AcDbSpline
210
0.0
220
0.0
230
1.0
 70
    11
 71
     3
 72
    20
 73
    16
 74
     0
 42
0.0000000001
 43
0.0000000001
 12
1.0
 22
0.0
 32
0.0
 13
1.0
 23
0.0
 33
0.0
 40
0.0
 40
0.0
 40
0.0
 40
0.0
 40
0.2
 40
0.2
 40
0.2
 40
0.2
 40
0.4
 40
0.4
 40
0.4
 40
0.4
 40
0.6
 40
0.6
 40
0.6
 40
0.6
 40
1.0
 40
1.0
 40
1.0
 40
1.0
 10
-8.928
 20
2.05784
 30
0.0
 10
-9.0845
 20
2.05784
 30
0.0
 10
-9.24109
 20
2.05784
 30
0.0
 10
-9.39759
 20
2.05784
 30
0.0
 10
-9.39759
 20
2.05784
 30
0.0
 10
-9.39759
 20
2.45333
 30
0.0
 10
-9.39759
 20
2.84876
 30
0.0
 10
-9.39759
 20
3.24426
 30
0.0
 10
-9.39759
 20
3.24426
 30
0.0
 10
-9.24109
 20
3.24426
 30
0.0
 10
-9.0845
 20
3.24426
 30
0.0
 10
-8.928
 20
3.24426
 30
0.0
 10
-8.928
 20
3.24426
 30
0.0
 10
-8.928
 20
2.84876
 30
0.0
 10
-8.928
 20
2.45333
 30
0.0
 10
-8.928
 20
2.05784
 30
0.0
  0
SPLINE
  5
4F
330
1F
100
AcDbEntity
  8
Layer 1
 62
     7
100
AcDbSpline
210
0.0
220
0.0
230
1.0
 70
    11
 71
     3
 72
    20
 73
    16
 74
     0
 42
0.0000000001
 43
0.0000000001
 12
1.0
 22
0.0
 32
0.0
 13
1.0
 23
0.0
 33
0.0
 40
0.0
 40
0.0
 40
0.0
 40
0.0
 40
0.2
 40
0.2
 40
0.2
 40
0.2
 40
0.4
 40
0.4
 40
0.4
 40
0.4
 40
0.6
 40
0.6
 40
0.6
 40
0.6
 40
1.0
 40
1.0
 40
1.0
 40
1.0
 10
-7.49441
 20
2.52745
 30
0.0
 10
-7.88991
 20
2.52745
 30
0.0
 10
-8.28533
 20
2.52745
 30
0.0
 10
-8.6808
 20
2.52745
 30
0.0
 10
-8.6808
 20
2.52745
 30
0.0
 10
-8.6808
 20
2.37091
 30
0.0
 10
-8.6808
 20
2.21442
 30
0.0
 10
-8.6808
 20
2.05784
 30
0.0
 10
-8.6808
 20
2.05784
 30
0.0
 10
-8.28533
 20
2.05784
 30
0.0
 10
-7.88991
 20
2.05784
 30
0.0
 10
-7.49441
 20
2.05784
 30
0.0
 10
-7.49441
 20
2.05784
 30
0.0
 10
-7.49441
 20
2.21442
 30
0.0
 10
-7.49441
 20
2.37091
 30
0.0
 10
-7.49441
 20
2.52745
 30
0.0
  0
SPLINE
  5
50
330
1F
100
AcDbEntity
  8
Layer 1
 62
     7
100
AcDbSpline
210
0.0
220
0.0
230
1.0
 70
    11
 71
     3
 72
    20
 73
    16
 74
     0
 42
0.0000000001
 43
0.0000000001
 12
1.0
 22
0.0
 32
0.0
 13
1.0
 23
0.0
 33
0.0
 40
0.0
 40
0.0
 40
0.0
 40
0.0
 40
0.2
 40
0.2
 40
0.2
 40
0.2
 40
0.4
 40
0.4
 40
0.4
 40
0.4
 40
0.6
 40
0.6
 40
0.6
 40
0.6
 40
1.0
 40
1.0
 40
1.0
 40
1.0
 10
-7.96401
 20
3.96106
 30
0.0
 10
-7.80749
 20
3.96106
 30
0.0
 10
-7.65096
 20
3.96106
 30
0.0
 10
-7.49441
 20
3.96106
 30
0.0
 10
-7.49441
 20
3.96106
 30
0.0
 10
-7.49441
 20
3.5656
 30
0.0
 10
-7.49441
 20
3.17008
 30
0.0
 10
-7.49441
 20
2.77461
 30
0.0
 10
-7.49441
 20
2.77461
 30
0.0
 10
-7.65096
 20
2.77461
 30
0.0
 10
-7.80749
 20
2.77461
 30
0.0
 10
-7.96401
 20
2.77461
 30
0.0
 10
-7.96401
 20
2.77461
 30
0.0
 10
-7.96401
 20
3.17008
 30
0.0
 10
-7.96401
 20
3.5656
 30
0.0
 10
-7.96401
 20
3.96106
 30
0.0
  0
SPLINE
  5
51
330
1F
100
AcDbEntity
  8
Layer 1
 62
     7
100
AcDbSpline
210
0.0
220
0.0
230
1.0
 70
    11
 71
     3
 72
    20
 73
    16
 74
     0
 42
0.0000000001
 43
0.0000000001
 12
1.0
 22
0.0
 32
0.0
 13
1.0
 23
0.0
 33
0.0
 40
0.0
 40
0.0
 40
0.0
 40
0.0
 40
0.2
 40
0.2
 40
0.2
 40
0.2
 40
0.4
 40
0.4
 40
0.4
 40
0.4
 40
0.6
 40
0.6
 40
0.6
 40
0.6
 40
1.0
 40
1.0
 40
1.0
 40
1.0
 10
-8.21121
 20
3.49142
 30
0.0
 10
-8.21121
 20
3.64801
 30
0.0
 10
-8.21121
 20
3.80451
 30
0.0
 10
-8.21121
 20
3.96106
 30
0.0
 10
-8.21121
 20
3.96106
 30
0.0
 10
-8.60668
 20
3.96106
 30
0.0
 10
-9.0021
 20
3.96106
 30
0.0
 10
-9.39759
 20
3.96106
 30
0.0
 10
-9.39759
 20
3.96106
 30
0.0
 10
-9.39759
 20
3.80451
 30
0.0
 10
-9.39759
 20
3.64801
 30
0.0
 10
-9.39759
 20
3.49142
 30
0.0
 10
-9.39759
 20
3.49142
 30
0.0
 10
-9.0021
 20
3.49142
 30
0.0
 10
-8.60668
 20
3.49142
 30
0.0
 10
-8.21121
 20
3.49142
 30
0.0
  0
SPLINE
  5
52
330
1F
100
AcDbEntity
  8
Layer 1
 62
     7
100
AcDbSpline
210
0.0
220
0.0
230
1.0
 70
    11
 71
     3
 72
    20
 73
    16
 74
     0
 42
0.0000000001
 43
0.0000000001
 12
1.0
 22
0.0
 32
0.0
 13
1.0
 23
0.0
 33
0.0
 40
0.0
 40
0.0
 40
0.0
 40
0.0
 40
0.2
 40
0.2
 40
0.2
 40
0.2
 40
0.4
 40
0.4
 40
0.4
 40
0.4
 40
0.6
 40
0.6
 40
0.6
 40
0.6
 40
1.0
 40
1.0
 40
1.0
 40
1.0
 10
-8.6808
 20
1.09393
 30
0.0
 10
-8.52428
 20
1.09393
 30
0.0
 10
-8.36773
 20
1.09393
 30
0.0
 10
-8.21121
 20
1.09393
 30
0.0
 10
-8.21121
 20
1.09393
 30
0.0
 10
-8.21121
 20
0.93735
 30
0.0
 10
-8.21121
 20
0.78081
 30
0.0
 10
-8.21121
 20
0.62424
 30
0.0
 10
-8.21121
 20
0.62424
 30
0.0
 10
-8.36773
 20
0.62424
 30
0.0
 10
-8.52428
 20
0.62424
 30
0.0
 10
-8.6808
 20
0.62424
 30
0.0
 10
-8.6808
 20
0.62424
 30
0.0
 10
-8.6808
 20
0.78081
 30
0.0
 10
-8.6808
 20
0.93735
 30
0.0
 10
-8.6808
 20
1.09393
 30
0.0
  0
SPLINE
  5
53
330
1F
100
AcDbEntity
  8
Layer 1
 62
     7
100
AcDbSpline
210
0.0
220
0.0
230
1.0
 70
    11
 71
     3
 72
    20
 73
    16
 74
     0
 42
0.0000000001
 43
0.0000000001
 12
1.0
 22
0.0
 32
0.0
 13
1.0
 23
0.0
 33
0.0
 40
0.0
 40
0.0
 40
0.0
 40
0.0
 40
0.2
 40
0.2
 40
0.2
 40
0.2
 40
0.4
 40
0.4
 40
0.4
 40
0.4
 40
0.6
 40
0.6
 40
0.6
 40
0.6
 40
1.0
 40
1.0
 40
1.0
 40
1.0
 10
-8.928
 20
-0.09257
 30
0.0
 10
-9.0845
 20
-0.09257
 30
0.0
 10
-9.24109
 20
-0.09257
 30
0.0
 10
-9.39759
 20
-0.09257
 30
0.0
 10
-9.39759
 20
-0.09257
 30
0.0
 10
-9.39759
 20
0.30297
 30
0.0
 10
-9.39759
 20
0.69844
 30
0.0
 10
-9.39759
 20
1.09393
 30
0.0
 10
-9.39759
 20
1.09393
 30
0.0
 10
-9.24109
 20
1.09393
 30
0.0
 10
-9.0845
 20
1.09393
 30
0.0
 10
-8.928
 20
1.09393
 30
0.0
 10
-8.928
 20
1.09393
 30
0.0
 10
-8.928
 20
0.69844
 30
0.0
 10
-8.928
 20
0.30297
 30
0.0
 10
-8.928
 20
-0.09257
 30
0.0
  0
SPLINE
  5
54
330
1F
100
AcDbEntity
  8
Layer 1
 62
     7
100
AcDbSpline
210
0.0
220
0.0
230
1.0
 70
    11
 71
     3
 72
    20
 73
    16
 74
     0
 42
0.0000000001
 43
0.0000000001
 12
1.0
 22
0.0
 32
0.0
 13
1.0
 23
0.0
 33
0.0
 40
0.0
 40
0.0
 40
0.0
 40
0.0
 40
0.2
 40
0.2
 40
0.2
 40
0.2
 40
0.4
 40
0.4
 40
0.4
 40
0.4
 40
0.6
 40
0.6
 40
0.6
 40
0.6
 40
1.0
 40
1.0
 40
1.0
 40
1.0
 10
-7.49441
 20
0.37711
 30
0.0
 10
-7.88991
 20
0.37711
 30
0.0
 10
-8.28533
 20
0.37711
 30
0.0
 10
-8.6808
 20
0.37711
 30
0.0
 10
-8.6808
 20
0.37711
 30
0.0
 10
-8.6808
 20
0.22055
 30
0.0
 10
-8.6808
 20
0.06403
 30
0.0
 10
-8.6808
 20
-0.09257
 30
0.0
 10
-8.6808
 20
-0.09257
 30
0.0
 10
-8.28533
 20
-0.09257
 30
0.0
 10
-7.88991
 20
-0.09257
 30
0.0
 10
-7.49441
 20
-0.09257
 30
0.0
 10
-7.49441
 20
-0.09257
 30
0.0
 10
-7.49441
 20
0.06403
 30
0.0
 10
-7.49441
 20
0.22055
 30
0.0
 10
-7.49441
 20
0.37711
 30
0.0
  0
SPLINE
  5
55
330
1F
100
AcDbEntity
  8
Layer 1
 62
     7
100
AcDbSpline
210
0.0
220
0.0
230
1.0
 70
    11
 71
     3
 72
    20
 73
    16
 74
     0
 42
0.0000000001
 43
0.0000000001
 12
1.0
 22
0.0
 32
0.0
 13
1.0
 23
0.0
 33
0.0
 40
0.0
 40
0.0
 40
0.0
 40
0.0
 40
0.2
 40
0.2
 40
0.2
 40
0.2
 40
0.4
 40
0.4
 40
0.4
 40
0.4
 40
0.6
 40
0.6
 40
0.6
 40
0.6
 40
1.0
 40
1.0
 40
1.0
 40
1.0
 10
-7.96401
 20
1.81066
 30
0.0
 10
-7.80749
 20
1.81066
 30
0.0
 10
-7.65096
 20
1.81066
 30
0.0
 10
-7.49441
 20
1.81066
 30
0.0
 10
-7.49441
 20
1.81066
 30
0.0
 10
-7.49441
 20
1.41524
 30
0.0
 10
-7.49441
 20
1.01971
 30
0.0
 10
-7.49441
 20
0.62424
 30
0.0
 10
-7.49441
 20
0.62424
 30
0.0
 10
-7.65096
 20
0.62424
 30
0.0
 10
-7.80749
 20
0.62424
 30
0.0
 10
-7.96401
 20
0.62424
 30
0.0
 10
-7.96401
 20
0.62424
 30
0.0
 10
-7.96401
 20
1.01974
 30
0.0
 10
-7.96401
 20
1.41524
 30
0.0
 10
-7.96401
 20
1.81066
 30
0.0
  0
SPLINE
  5
56
330
1F
100
AcDbEntity
  8
Layer 1
 62
     7
100
AcDbSpline
210
0.0
220
0.0
230
1.0
 70
    11
 71
     3
 72
    20
 73
    16
 74
     0
 42
0.0000000001
 43
0.0000000001
 12
1.0
 22
0.0
 32
0.0
 13
1.0
 23
0.0
 33
0.0
 40
0.0
 40
0.0
 40
0.0
 40
0.0
 40
0.2
 40
0.2
 40
0.2
 40
0.2
 40
0.4
 40
0.4
 40
0.4
 40
0.4
 40
0.6
 40
0.6
 40
0.6
 40
0.6
 40
1.0
 40
1.0
 40
1.0
 40
1.0
 10
-8.21121
 20
1.34106
 30
0.0
 10
-8.21121
 20
1.49765
 30
0.0
 10
-8.21121
 20
1.65414
 30
0.0
 10
-8.21121
 20
1.81066
 30
0.0
 10
-8.21121
 20
1.81066
 30
0.0
 10
-8.60668
 20
1.81066
 30
0.0
 10
-9.0021
 20
1.81066
 30
0.0
 10
-9.39759
 20
1.81066
 30
0.0
 10
-9.39759
 20
1.81066
 30
0.0
 10
-9.39759
 20
1.65414
 30
0.0
 10
-9.39759
 20
1.49765
 30
0.0
 10
-9.39759
 20
1.34106
 30
0.0
 10
-9.39759
 20
1.34106
 30
0.0
 10
-9.0021
 20
1.34106
 30
0.0
 10
-8.60668
 20
1.34106
 30
0.0
 10
-8.21121
 20
1.34106
 30
0.0
  0
SPLINE
  5
57
330
1F
100
AcDbEntity
  8
Layer 1
 62
     7
100
AcDbSpline
210
0.0
220
0.0
230
1.0
 70
    11
 71
     3
 72
    20
 73
    16
 74
     0
 42
0.0000000001
 43
0.0000000001
 12
1.0
 22
0.0
 32
0.0
 13
1.0
 23
0.0
 33
0.0
 40
0.0
 40
0.0
 40
0.0
 40
0.0
 40
0.2
 40
0.2
 40
0.2
 40
0.2
 40
0.4
 40
0.4
 40
0.4
 40
0.4
 40
0.6
 40
0.6
 40
0.6
 40
0.6
 40
1.0
 40
1.0
 40
1.0
 40
1.0
 10
-8.6808
 20
-1.0565
 30
0.0
 10
-8.52428
 20
-1.0565
 30
0.0
 10
-8.36773
 20
-1.0565
 30
0.0
 10
-8.21121
 20
-1.0565
 30
0.0
 10
-8.21121
 20
-1.0565
 30
0.0
 10
-8.21121
 20
-1.213
 30
0.0
 10
-8.21121
 20
-1.36956
 30
0.0
 10
-8.21121
 20
-1.52612
 30
0.0
 10
-8.21121
 20
-1.52612
 30
0.0
 10
-8.36773
 20
-1.52612
 30
0.0
 10
-8.52428
 20
-1.52612
 30
0.0
 10
-8.6808
 20
-1.52612
 30
0.0
 10
-8.6808
 20
-1.52612
 30
0.0
 10
-8.6808
 20
-1.36956
 30
0.0
 10
-8.6808
 20
-1.213
 30
0.0
 10
-8.6808
 20
-1.0565
 30
0.0
  0
SPLINE
  5
58
330
1F
100
AcDbEntity
  8
Layer 1
 62
     7
100
AcDbSpline
210
0.0
220
0.0
230
1.0
 70
    11
 71
     3
 72
    20
 73
    16
 74
     0
 42
0.0000000001
 43
0.0000000001
 12
1.0
 22
0.0
 32
0.0
 13
1.0
 23
0.0
 33
0.0
 40
0.0
 40
0.0
 40
0.0
 40
0.0
 40
0.2
 40
0.2
 40
0.2
 40
0.2
 40
0.4
 40
0.4
 40
0.4
 40
0.4
 40
0.6
 40
0.6
 40
0.6
 40
0.6
 40
1.0
 40
1.0
 40
1.0
 40
1.0
 10
-8.928
 20
-2.24295
 30
0.0
 10
-9.0845
 20
-2.24295
 30
0.0
 10
-9.24109
 20
-2.24295
 30
0.0
 10
-9.39759
 20
-2.24295
 30
0.0
 10
-9.39759
 20
-2.24295
 30
0.0
 10
-9.39759
 20
-1.84744
 30
0.0
 10
-9.39759
 20
-1.45195
 30
0.0
 10
-9.39759
 20
-1.0565
 30
0.0
 10
-9.39759
 20
-1.0565
 30
0.0
 10
-9.24109
 20
-1.0565
 30
0.0
 10
-9.0845
 20
-1.0565
 30
0.0
 10
-8.928
 20
-1.0565
 30
0.0
 10
-8.928
 20
-1.0565
 30
0.0
 10
-8.928
 20
-1.45195
 30
0.0
 10
-8.928
 20
-1.84744
 30
0.0
 10
-8.928
 20
-2.24295
 30
0.0
  0
SPLINE
  5
59
330
1F
100
AcDbEntity
  8
Layer 1
 62
     7
100
AcDbSpline
210
0.0
220
0.0
230
1.0
 70
    11
 71
     3
 72
    20
 73
    16
 74
     0
 42
0.0000000001
 43
0.0000000001
 12
1.0
 22
0.0
 32
0.0
 13
1.0
 23
0.0
 33
0.0
 40
0.0
 40
0.0
 40
0.0
 40
0.0
 40
0.2
 40
0.2
 40
0.2
 40
0.2
 40
0.4
 40
0.4
 40
0.4
 40
0.4
 40
0.6
 40
0.6
 40
0.6
 40
0.6
 40
1.0
 40
1.0
 40
1.0
 40
1.0
 10
-7.49441
 20
-1.77326
 30
0.0
 10
-7.88991
 20
-1.77326
 30
0.0
 10
-8.28533
 20
-1.77326
 30
0.0
 10
-8.6808
 20
-1.77326
 30
0.0
 10
-8.6808
 20
-1.77326
 30
0.0
 10
-8.6808
 20
-1.92985
 30
0.0
 10
-8.6808
 20
-2.08637
 30
0.0
 10
-8.6808
 20
-2.24295
 30
0.0
 10
-8.6808
 20
-2.24295
 30
0.0
 10
-8.28533
 20
-2.24295
 30
0.0
 10
-7.88991
 20
-2.24295
 30
0.0
 10
-7.49441
 20
-2.24295
 30
0.0
 10
-7.49441
 20
-2.24295
 30
0.0
 10
-7.49441
 20
-2.08637
 30
0.0
 10
-7.49441
 20
-1.92985
 30
0.0
 10
-7.49441
 20
-1.77326
 30
0.0
  0
SPLINE
  5
5A
330
1F
100
AcDbEntity
  8
Layer 1
 62
     7
100
AcDbSpline
210
0.0
220
0.0
230
1.0
 70
    11
 71
     3
 72
    20
 73
    16
 74
     0
 42
0.0000000001
 43
0.0000000001
 12
1.0
 22
0.0
 32
0.0
 13
1.0
 23
0.0
 33
0.0
 40
0.0
 40
0.0
 40
0.0
 40
0.0
 40
0.2
 40
0.2
 40
0.2
 40
0.2
 40
0.4
 40
0.4
 40
0.4
 40
0.4
 40
0.6
 40
0.6
 40
0.6
 40
0.6
 40
1.0
 40
1.0
 40
1.0
 40
1.0
 10
-7.96401
 20
-0.3397
 30
0.0
 10
-7.80749
 20
-0.3397
 30
0.0
 10
-7.65096
 20
-0.3397
 30
0.0
 10
-7.49441
 20
-0.3397
 30
0.0
 10
-7.49441
 20
-0.3397
 30
0.0
 10
-7.49441
 20
-0.73515
 30
0.0
 10
-7.49441
 20
-1.13064
 30
0.0
 10
-7.49441
 20
-1.52612
 30
0.0
 10
-7.49441
 20
-1.52612
 30
0.0
 10
-7.65096
 20
-1.52612
 30
0.0
 10
-7.80749
 20
-1.52612
 30
0.0
 10
-7.96401
 20
-1.52612
 30
0.0
 10
-7.96401
 20
-1.52612
 30
0.0
 10
-7.96401
 20
-1.13064
 30
0.0
 10
-7.96401
 20
-0.73515
 30
0.0
 10
-7.96401
 20
-0.3397
 30
0.0
  0
SPLINE
  5
5B
330
1F
100
AcDbEntity
  8
Layer 1
 62
     7
100
AcDbSpline
210
0.0
220
0.0
230
1.0
 70
    11
 71
     3
 72
    20
 73
    16
 74
     0
 42
0.0000000001
 43
0.0000000001
 12
1.0
 22
0.0
 32
0.0
 13
1.0
 23
0.0
 33
0.0
 40
0.0
 40
0.0
 40
0.0
 40
0.0
 40
0.2
 40
0.2
 40
0.2
 40
0.2
 40
0.4
 40
0.4
 40
0.4
 40
0.4
 40
0.6
 40
0.6
 40
0.6
 40
0.6
 40
1.0
 40
1.0
 40
1.0
 40
1.0
 10
-8.21121
 20
-0.80934
 30
0.0
 10
-8.21121
 20
-0.65274
 30
0.0
 10
-8.21121
 20
-0.49624
 30
0.0
 10
-8.21121
 20
-0.3397
 30
0.0
 10
-8.21121
 20
-0.3397
 30
0.0
 10
-8.60668
 20
-0.3397
 30
0.0
 10
-9.0021
 20
-0.3397
 30
0.0
 10
-9.39759
 20
-0.3397
 30
0.0
 10
-9.39759
 20
-0.3397
 30
0.0
 10
-9.39759
 20
-0.49624
 30
0.0
 10
-9.39759
 20
-0.65274
 30
0.0
 10
-9.39759
 20
-0.80934
 30
0.0
 10
-9.39759
 20
-0.80934
 30
0.0
 10
-9.0021
 20
-0.80934
 30
0.0
 10
-8.60668
 20
-0.80934
 30
0.0
 10
-8.21121
 20
-0.80934
 30
0.0
  0
SPLINE
  5
5C
330
1F
100
AcDbEntity
  8
Layer 1
 62
     7
100
AcDbSpline
210
0.0
220
0.0
230
1.0
 70
    11
 71
     3
 72
    20
 73
    16
 74
     0
 42
0.0000000001
 43
0.0000000001
 12
1.0
 22
0.0
 32
0.0
 13
1.0
 23
0.0
 33
0.0
 40
0.0
 40
0.0
 40
0.0
 40
0.0
 40
0.2
 40
0.2
 40
0.2
 40
0.2
 40
0.4
 40
0.4
 40
0.4
 40
0.4
 40
0.6
 40
0.6
 40
0.6
 40
0.6
 40
1.0
 40
1.0
 40
1.0
 40
1.0
 10
-8.6808
 20
-3.20686
 30
0.0
 10
-8.52428
 20
-3.20686
 30
0.0
 10
-8.36773
 20
-3.20686
 30
0.0
 10
-8.21121
 20
-3.20686
 30
0.0
 10
-8.21121
 20
-3.20686
 30
0.0
 10
-8.21121
 20
-3.3634
 30
0.0
 10
-8.21121
 20
-3.51994
 30
0.0
 10
-8.21121
 20
-3.6765
 30
0.0
 10
-8.21121
 20
-3.6765
 30
0.0
 10
-8.36773
 20
-3.6765
 30
0.0
 10
-8.52428
 20
-3.6765
 30
0.0
 10
-8.6808
 20
-3.6765
 30
0.0
 10
-8.6808
 20
-3.6765
 30
0.0
 10
-8.6808
 20
-3.51994
 30
0.0
 10
-8.6808
 20
-3.3634
 30
0.0
 10
-8.6808
 20
-3.20686
 30
0.0
  0
SPLINE
  5
5D
330
1F
100
AcDbEntity
  8
Layer 1
 62
     7
100
AcDbSpline
210
0.0
220
0.0
230
1.0
 70
    11
 71
     3
 72
    20
 73
    16
 74
     0
 42
0.0000000001
 43
0.0000000001
 12
1.0
 22
0.0
 32
0.0
 13
1.0
 23
0.0
 33
0.0
 40
0.0
 40
0.0
 40
0.0
 40
0.0
 40
0.2
 40
0.2
 40
0.2
 40
0.2
 40
0.4
 40
0.4
 40
0.4
 40
0.4
 40
0.6
 40
0.6
 40
0.6
 40
0.6
 40
1.0
 40
1.0
 40
1.0
 40
1.0
 10
-8.928
 20
-4.39333
 30
0.0
 10
-9.0845
 20
-4.39333
 30
0.0
 10
-9.24109
 20
-4.39333
 30
0.0
 10
-9.39759
 20
-4.39333
 30
0.0
 10
-9.39759
 20
-4.39333
 30
0.0
 10
-9.39759
 20
-3.99782
 30
0.0
 10
-9.39759
 20
-3.60231
 30
0.0
 10
-9.39759
 20
-3.20686
 30
0.0
 10
-9.39759
 20
-3.20686
 30
0.0
 10
-9.24109
 20
-3.20686
 30
0.0
 10
-9.0845
 20
-3.20686
 30
0.0
 10
-8.928
 20
-3.20686
 30
0.0
 10
-8.928
 20
-3.20686
 30
0.0
 10
-8.928
 20
-3.60231
 30
0.0
 10
-8.928
 20
-3.99782
 30
0.0
 10
-8.928
 20
-4.39333
 30
0.0
  0
SPLINE
  5
5E
330
1F
100
AcDbEntity
  8
Layer 1
 62
     7
100
AcDbSpline
210
0.0
220
0.0
230
1.0
 70
    11
 71
     3
 72
    20
 73
    16
 74
     0
 42
0.0000000001
 43
0.0000000001
 12
1.0
 22
0.0
 32
0.0
 13
1.0
 23
0.0
 33
0.0
 40
0.0
 40
0.0
 40
0.0
 40
0.0
 40
0.2
 40
0.2
 40
0.2
 40
0.2
 40
0.4
 40
0.4
 40
0.4
 40
0.4
 40
0.6
 40
0.6
 40
0.6
 40
0.6
 40
1.0
 40
1.0
 40
1.0
 40
1.0
 10
-7.49441
 20
-3.92363
 30
0.0
 10
-7.88991
 20
-3.92363
 30
0.0
 10
-8.28533
 20
-3.92363
 30
0.0
 10
-8.6808
 20
-3.92363
 30
0.0
 10
-8.6808
 20
-3.92363
 30
0.0
 10
-8.6808
 20
-4.08024
 30
0.0
 10
-8.6808
 20
-4.23675
 30
0.0
 10
-8.6808
 20
-4.39333
 30
0.0
 10
-8.6808
 20
-4.39333
 30
0.0
 10
-8.28533
 20
-4.39333
 30
0.0
 10
-7.88991
 20
-4.39333
 30
0.0
 10
-7.49441
 20
-4.39333
 30
0.0
 10
-7.49441
 20
-4.39333
 30
0.0
 10
-7.49441
 20
-4.23675
 30
0.0
 10
-7.49441
 20
-4.08024
 30
0.0
 10
-7.49441
 20
-3.92363
 30
0.0
  0
SPLINE
  5
5F
330
1F
100
AcDbEntity
  8
Layer 1
 62
     7
100
AcDbSpline
210
0.0
220
0.0
230
1.0
 70
    11
 71
     3
 72
    20
 73
    16
 74
     0
 42
0.0000000001
 43
0.0000000001
 12
1.0
 22
0.0
 32
0.0
 13
1.0
 23
0.0
 33
0.0
 40
0.0
 40
0.0
 40
0.0
 40
0.0
 40
0.2
 40
0.2
 40
0.2
 40
0.2
 40
0.4
 40
0.4
 40
0.4
 40
0.4
 40
0.6
 40
0.6
 40
0.6
 40
0.6
 40
1.0
 40
1.0
 40
1.0
 40
1.0
 10
-7.96401
 20
-2.49011
 30
0.0
 10
-7.80749
 20
-2.49011
 30
0.0
 10
-7.65096
 20
-2.49011
 30
0.0
 10
-7.49441
 20
-2.49011
 30
0.0
 10
-7.49441
 20
-2.49011
 30
0.0
 10
-7.49441
 20
-2.88552
 30
0.0
 10
-7.49441
 20
-3.28105
 30
0.0
 10
-7.49441
 20
-3.6765
 30
0.0
 10
-7.49441
 20
-3.6765
 30
0.0
 10
-7.65096
 20
-3.6765
 30
0.0
 10
-7.80749
 20
-3.6765
 30
0.0
 10
-7.96401
 20
-3.6765
 30
0.0
 10
-7.96401
 20
-3.6765
 30
0.0
 10
-7.96401
 20
-3.28105
 30
0.0
 10
-7.96401
 20
-2.88555
 30
0.0
 10
-7.96401
 20
-2.49011
 30
0.0
  0
SPLINE
  5
60
330
1F
100
AcDbEntity
  8
Layer 1
 62
     7
100
AcDbSpline
210
0.0
220
0.0
230
1.0
 70
    11
 71
     3
 72
    20
 73
    16
 74
     0
 42
0.0000000001
 43
0.0000000001
 12
1.0
 22
0.0
 32
0.0
 13
1.0
 23
0.0
 33
0.0
 40
0.0
 40
0.0
 40
0.0
 40
0.0
 40
0.2
 40
0.2
 40
0.2
 40
0.2
 40
0.4
 40
0.4
 40
0.4
 40
0.4
 40
0.6
 40
0.6
 40
0.6
 40
0.6
 40
1.0
 40
1.0
 40
1.0
 40
1.0
 10
-8.21121
 20
-2.95973
 30
0.0
 10
-8.21121
 20
-2.80314
 30
0.0
 10
-8.21121
 20
-2.64662
 30
0.0
 10
-8.21121
 20
-2.49011
 30
0.0
 10
-8.21121
 20
-2.49011
 30
0.0
 10
-8.60668
 20
-2.49011
 30
0.0
 10
-9.0021
 20
-2.49011
 30
0.0
 10
-9.39759
 20
-2.49011
 30
0.0
 10
-9.39759
 20
-2.49011
 30
0.0
 10
-9.39759
 20
-2.64662
 30
0.0
 10
-9.39759
 20
-2.80314
 30
0.0
 10
-9.39759
 20
-2.95973
 30
0.0
 10
-9.39759
 20
-2.95973
 30
0.0
 10
-9.0021
 20
-2.95973
 30
0.0
 10
-8.60668
 20
-2.95973
 30
0.0
 10
-8.21121
 20
-2.95973
 30
0.0
  0
SPLINE
  5
61
330
1F
100
AcDbEntity
  8
Layer 1
 62
     7
100
AcDbSpline
210
0.0
220
0.0
230
1.0
 70
    11
 71
     3
 72
    20
 73
    16
 74
     0
 42
0.0000000001
 43
0.0000000001
 12
1.0
 22
0.0
 32
0.0
 13
1.0
 23
0.0
 33
0.0
 40
0.0
 40
0.0
 40
0.0
 40
0.0
 40
0.2
 40
0.2
 40
0.2
 40
0.2
 40
0.4
 40
0.4
 40
0.4
 40
0.4
 40
0.6
 40
0.6
 40
0.6
 40
0.6
 40
1.0
 40
1.0
 40
1.0
 40
1.0
 10
-8.6808
 20
-5.35728
 30
0.0
 10
-8.52428
 20
-5.35728
 30
0.0
 10
-8.36773
 20
-5.35728
 30
0.0
 10
-8.21121
 20
-5.35728
 30
0.0
 10
-8.21121
 20
-5.35728
 30
0.0
 10
-8.21121
 20
-5.51377
 30
0.0
 10
-8.21121
 20
-5.67033
 30
0.0
 10
-8.21121
 20
-5.82687
 30
0.0
 10
-8.21121
 20
-5.82687
 30
0.0
 10
-8.36773
 20
-5.82687
 30
0.0
 10
-8.52428
 20
-5.82687
 30
0.0
 10
-8.6808
 20
-5.82687
 30
0.0
 10
-8.6808
 20
-5.82687
 30
0.0
 10
-8.6808
 20
-5.67033
 30
0.0
 10
-8.6808
 20
-5.51377
 30
0.0
 10
-8.6808
 20
-5.35728
 30
0.0
  0
SPLINE
  5
62
330
1F
100
AcDbEntity
  8
Layer 1
 62
     7
100
AcDbSpline
210
0.0
220
0.0
230
1.0
 70
    11
 71
     3
 72
    20
 73
    16
 74
     0
 42
0.0000000001
 43
0.0000000001
 12
1.0
 22
0.0
 32
0.0
 13
1.0
 23
0.0
 33
0.0
 40
0.0
 40
0.0
 40
0.0
 40
0.0
 40
0.2
 40
0.2
 40
0.2
 40
0.2
 40
0.4
 40
0.4
 40
0.4
 40
0.4
 40
0.6
 40
0.6
 40
0.6
 40
0.6
 40
1.0
 40
1.0
 40
1.0
 40
1.0
 10
-8.928
 20
-6.54363
 30
0.0
 10
-9.0845
 20
-6.54363
 30
0.0
 10
-9.24109
 20
-6.54363
 30
0.0
 10
-9.39759
 20
-6.54363
 30
0.0
 10
-9.39759
 20
-6.54363
 30
0.0
 10
-9.39759
 20
-6.14821
 30
0.0
 10
-9.39759
 20
-5.75272
 30
0.0
 10
-9.39759
 20
-5.35728
 30
0.0
 10
-9.39759
 20
-5.35728
 30
0.0
 10
-9.24109
 20
-5.35728
 30
0.0
 10
-9.0845
 20
-5.35728
 30
0.0
 10
-8.928
 20
-5.35728
 30
0.0
 10
-8.928
 20
-5.35728
 30
0.0
 10
-8.928
 20
-5.75272
 30
0.0
 10
-8.928
 20
-6.14821
 30
0.0
 10
-8.928
 20
-6.54363
 30
0.0
  0
SPLINE
  5
63
330
1F
100
AcDbEntity
  8
Layer 1
 62
     7
100
AcDbSpline
210
0.0
220
0.0
230
1.0
 70
    11
 71
     3
 72
    20
 73
    16
 74
     0
 42
0.0000000001
 43
0.0000000001
 12
1.0
 22
0.0
 32
0.0
 13
1.0
 23
0.0
 33
0.0
 40
0.0
 40
0.0
 40
0.0
 40
0.0
 40
0.2
 40
0.2
 40
0.2
 40
0.2
 40
0.4
 40
0.4
 40
0.4
 40
0.4
 40
0.6
 40
0.6
 40
0.6
 40
0.6
 40
1.0
 40
1.0
 40
1.0
 40
1.0
 10
-7.49441
 20
-6.074
 30
0.0
 10
-7.88991
 20
-6.074
 30
0.0
 10
-8.28533
 20
-6.074
 30
0.0
 10
-8.6808
 20
-6.074
 30
0.0
 10
-8.6808
 20
-6.074
 30
0.0
 10
-8.6808
 20
-6.23059
 30
0.0
 10
-8.6808
 20
-6.38714
 30
0.0
 10
-8.6808
 20
-6.54363
 30
0.0
 10
-8.6808
 20
-6.54363
 30
0.0
 10
-8.28533
 20
-6.54363
 30
0.0
 10
-7.88991
 20
-6.54363
 30
0.0
 10
-7.49441
 20
-6.54363
 30
0.0
 10
-7.49441
 20
-6.54363
 30
0.0
 10
-7.49441
 20
-6.38714
 30
0.0
 10
-7.49441
 20
-6.23059
 30
0.0
 10
-7.49441
 20
-6.074
 30
0.0
  0
SPLINE
  5
64
330
1F
100
AcDbEntity
  8
Layer 1
 62
     7
100
AcDbSpline
210
0.0
220
0.0
230
1.0
 70
    11
 71
     3
 72
    20
 73
    16
 74
     0
 42
0.0000000001
 43
0.0000000001
 12
1.0
 22
0.0
 32
0.0
 13
1.0
 23
0.0
 33
0.0
 40
0.0
 40
0.0
 40
0.0
 40
0.0
 40
0.2
 40
0.2
 40
0.2
 40
0.2
 40
0.4
 40
0.4
 40
0.4
 40
0.4
 40
0.6
 40
0.6
 40
0.6
 40
0.6
 40
1.0
 40
1.0
 40
1.0
 40
1.0
 10
-7.96401
 20
-4.64049
 30
0.0
 10
-7.80749
 20
-4.64049
 30
0.0
 10
-7.65096
 20
-4.64049
 30
0.0
 10
-7.49441
 20
-4.64049
 30
0.0
 10
-7.49441
 20
-4.64049
 30
0.0
 10
-7.49441
 20
-5.03592
 30
0.0
 10
-7.49441
 20
-5.43143
 30
0.0
 10
-7.49441
 20
-5.82687
 30
0.0
 10
-7.49441
 20
-5.82687
 30
0.0
 10
-7.65096
 20
-5.82687
 30
0.0
 10
-7.80749
 20
-5.82687
 30
0.0
 10
-7.96401
 20
-5.82687
 30
0.0
 10
-7.96401
 20
-5.82687
 30
0.0
 10
-7.96401
 20
-5.43143
 30
0.0
 10
-7.96401
 20
-5.03592
 30
0.0
 10
-7.96401
 20
-4.64049
 30
0.0
  0
SPLINE
  5
65
330
1F
100
AcDbEntity
  8
Layer 1
 62
     7
100
AcDbSpline
210
0.0
220
0.0
230
1.0
 70
    11
 71
     3
 72
    20
 73
    16
 74
     0
 42
0.0000000001
 43
0.0000000001
 12
1.0
 22
0.0
 32
0.0
 13
1.0
 23
0.0
 33
0.0
 40
0.0
 40
0.0
 40
0.0
 40
0.0
 40
0.2
 40
0.2
 40
0.2
 40
0.2
 40
0.4
 40
0.4
 40
0.4
 40
0.4
 40
0.6
 40
0.6
 40
0.6
 40
0.6
 40
1.0
 40
1.0
 40
1.0
 40
1.0
 10
-8.21121
 20
-5.11007
 30
0.0
 10
-8.21121
 20
-4.95352
 30
0.0
 10
-8.21121
 20
-4.79702
 30
0.0
 10
-8.21121
 20
-4.64049
 30
0.0
 10
-8.21121
 20
-4.64049
 30
0.0
 10
-8.60668
 20
-4.64049
 30
0.0
 10
-9.0021
 20
-4.64049
 30
0.0
 10
-9.39759
 20
-4.64049
 30
0.0
 10
-9.39759
 20
-4.64049
 30
0.0
 10
-9.39759
 20
-4.79702
 30
0.0
 10
-9.39759
 20
-4.95352
 30
0.0
 10
-9.39759
 20
-5.11007
 30
0.0
 10
-9.39759
 20
-5.11007
 30
0.0
 10
-9.0021
 20
-5.11007
 30
0.0
 10
-8.60668
 20
-5.11007
 30
0.0
 10
-8.21121
 20
-5.11007
 30
0.0
  0
SPLINE
  5
66
330
1F
100
AcDbEntity
  8
Layer 1
 62
     7
100
AcDbSpline
210
0.0
220
0.0
230
1.0
 70
    11
 71
     3
 72
    20
 73
    16
 74
     0
 42
0.0000000001
 43
0.0000000001
 12
1.0
 22
0.0
 32
0.0
 13
1.0
 23
0.0
 33
0.0
 40
0.0
 40
0.0
 40
0.0
 40
0.0
 40
0.2
 40
0.2
 40
0.2
 40
0.2
 40
0.4
 40
0.4
 40
0.4
 40
0.4
 40
0.6
 40
0.6
 40
0.6
 40
0.6
 40
1.0
 40
1.0
 40
1.0
 40
1.0
 10
-6.53043
 20
7.54501
 30
0.0
 10
-6.37388
 20
7.54501
 30
0.0
 10
-6.21733
 20
7.54501
 30
0.0
 10
-6.06085
 20
7.54501
 30
0.0
 10
-6.06085
 20
7.54501
 30
0.0
 10
-6.06085
 20
7.38848
 30
0.0
 10
-6.06085
 20
7.23193
 30
0.0
 10
-6.06085
 20
7.07538
 30
0.0
 10
-6.06085
 20
7.07538
 30
0.0
 10
-6.21733
 20
7.07538
 30
0.0
 10
-6.37388
 20
7.07538
 30
0.0
 10
-6.53043
 20
7.07538
 30
0.0
 10
-6.53043
 20
7.07538
 30
0.0
 10
-6.53043
 20
7.23193
 30
0.0
 10
-6.53043
 20
7.38848
 30
0.0
 10
-6.53043
 20
7.54501
 30
0.0
  0
SPLINE
  5
67
330
1F
100
AcDbEntity
  8
Layer 1
 62
     7
100
AcDbSpline
210
0.0
220
0.0
230
1.0
 70
    11
 71
     3
 72
    20
 73
    16
 74
     0
 42
0.0000000001
 43
0.0000000001
 12
1.0
 22
0.0
 32
0.0
 13
1.0
 23
0.0
 33
0.0
 40
0.0
 40
0.0
 40
0.0
 40
0.0
 40
0.2
 40
0.2
 40
0.2
 40
0.2
 40
0.4
 40
0.4
 40
0.4
 40
0.4
 40
0.6
 40
0.6
 40
0.6
 40
0.6
 40
1.0
 40
1.0
 40
1.0
 40
1.0
 10
-6.7776
 20
6.35858
 30
0.0
 10
-6.93413
 20
6.35858
 30
0.0
 10
-7.09074
 20
6.35858
 30
0.0
 10
-7.24722
 20
6.35858
 30
0.0
 10
-7.24722
 20
6.35858
 30
0.0
 10
-7.24722
 20
6.75411
 30
0.0
 10
-7.24722
 20
7.14951
 30
0.0
 10
-7.24722
 20
7.54501
 30
0.0
 10
-7.24722
 20
7.54501
 30
0.0
 10
-7.09074
 20
7.54501
 30
0.0
 10
-6.93413
 20
7.54501
 30
0.0
 10
-6.7776
 20
7.54501
 30
0.0
 10
-6.7776
 20
7.54501
 30
0.0
 10
-6.7776
 20
7.14951
 30
0.0
 10
-6.7776
 20
6.75411
 30
0.0
 10
-6.7776
 20
6.35858
 30
0.0
  0
SPLINE
  5
68
330
1F
100
AcDbEntity
  8
Layer 1
 62
     7
100
AcDbSpline
210
0.0
220
0.0
230
1.0
 70
    11
 71
     3
 72
    20
 73
    16
 74
     0
 42
0.0000000001
 43
0.0000000001
 12
1.0
 22
0.0
 32
0.0
 13
1.0
 23
0.0
 33
0.0
 40
0.0
 40
0.0
 40
0.0
 40
0.0
 40
0.2
 40
0.2
 40
0.2
 40
0.2
 40
0.4
 40
0.4
 40
0.4
 40
0.4
 40
0.6
 40
0.6
 40
0.6
 40
0.6
 40
1.0
 40
1.0
 40
1.0
 40
1.0
 10
-5.34406
 20
6.82819
 30
0.0
 10
-5.7395
 20
6.82819
 30
0.0
 10
-6.13503
 20
6.82819
 30
0.0
 10
-6.53043
 20
6.82819
 30
0.0
 10
-6.53043
 20
6.82819
 30
0.0
 10
-6.53043
 20
6.67167
 30
0.0
 10
-6.53043
 20
6.51508
 30
0.0
 10
-6.53043
 20
6.35858
 30
0.0
 10
-6.53043
 20
6.35858
 30
0.0
 10
-6.13503
 20
6.35858
 30
0.0
 10
-5.7395
 20
6.35858
 30
0.0
 10
-5.34406
 20
6.35858
 30
0.0
 10
-5.34406
 20
6.35858
 30
0.0
 10
-5.34406
 20
6.51508
 30
0.0
 10
-5.34406
 20
6.67167
 30
0.0
 10
-5.34406
 20
6.82819
 30
0.0
  0
SPLINE
  5
69
330
1F
100
AcDbEntity
  8
Layer 1
 62
     7
100
AcDbSpline
210
0.0
220
0.0
230
1.0
 70
    11
 71
     3
 72
    20
 73
    16
 74
     0
 42
0.0000000001
 43
0.0000000001
 12
1.0
 22
0.0
 32
0.0
 13
1.0
 23
0.0
 33
0.0
 40
0.0
 40
0.0
 40
0.0
 40
0.0
 40
0.2
 40
0.2
 40
0.2
 40
0.2
 40
0.4
 40
0.4
 40
0.4
 40
0.4
 40
0.6
 40
0.6
 40
0.6
 40
0.6
 40
1.0
 40
1.0
 40
1.0
 40
1.0
 10
-5.81359
 20
8.26179
 30
0.0
 10
-5.65713
 20
8.26179
 30
0.0
 10
-5.50057
 20
8.26179
 30
0.0
 10
-5.34406
 20
8.26179
 30
0.0
 10
-5.34406
 20
8.26179
 30
0.0
 10
-5.34406
 20
7.86632
 30
0.0
 10
-5.34406
 20
7.47086
 30
0.0
 10
-5.34406
 20
7.07538
 30
0.0
 10
-5.34406
 20
7.07538
 30
0.0
 10
-5.50057
 20
7.07538
 30
0.0
 10
-5.65713
 20
7.07538
 30
0.0
 10
-5.81359
 20
7.07538
 30
0.0
 10
-5.81359
 20
7.07538
 30
0.0
 10
-5.81359
 20
7.47089
 30
0.0
 10
-5.81359
 20
7.86632
 30
0.0
 10
-5.81359
 20
8.26179
 30
0.0
  0
SPLINE
  5
6A
330
1F
100
AcDbEntity
  8
Layer 1
 62
     7
100
AcDbSpline
210
0.0
220
0.0
230
1.0
 70
    11
 71
     3
 72
    20
 73
    16
 74
     0
 42
0.0000000001
 43
0.0000000001
 12
1.0
 22
0.0
 32
0.0
 13
1.0
 23
0.0
 33
0.0
 40
0.0
 40
0.0
 40
0.0
 40
0.0
 40
0.2
 40
0.2
 40
0.2
 40
0.2
 40
0.4
 40
0.4
 40
0.4
 40
0.4
 40
0.6
 40
0.6
 40
0.6
 40
0.6
 40
1.0
 40
1.0
 40
1.0
 40
1.0
 10
-6.06085
 20
7.79222
 30
0.0
 10
-6.06085
 20
7.94871
 30
0.0
 10
-6.06085
 20
8.1053
 30
0.0
 10
-6.06085
 20
8.26179
 30
0.0
 10
-6.06085
 20
8.26179
 30
0.0
 10
-6.45631
 20
8.26179
 30
0.0
 10
-6.85179
 20
8.26179
 30
0.0
 10
-7.24722
 20
8.26179
 30
0.0
 10
-7.24722
 20
8.26179
 30
0.0
 10
-7.24722
 20
8.1053
 30
0.0
 10
-7.24722
 20
7.94871
 30
0.0
 10
-7.24722
 20
7.79222
 30
0.0
 10
-7.24722
 20
7.79222
 30
0.0
 10
-6.85179
 20
7.79222
 30
0.0
 10
-6.45631
 20
7.79222
 30
0.0
 10
-6.06085
 20
7.79222
 30
0.0
  0
SPLINE
  5
6B
330
1F
100
AcDbEntity
  8
Layer 1
 62
     7
100
AcDbSpline
210
0.0
220
0.0
230
1.0
 70
    11
 71
     3
 72
    20
 73
    16
 74
     0
 42
0.0000000001
 43
0.0000000001
 12
1.0
 22
0.0
 32
0.0
 13
1.0
 23
0.0
 33
0.0
 40
0.0
 40
0.0
 40
0.0
 40
0.0
 40
0.2
 40
0.2
 40
0.2
 40
0.2
 40
0.4
 40
0.4
 40
0.4
 40
0.4
 40
0.6
 40
0.6
 40
0.6
 40
0.6
 40
1.0
 40
1.0
 40
1.0
 40
1.0
 10
-6.53043
 20
5.39466
 30
0.0
 10
-6.37388
 20
5.39466
 30
0.0
 10
-6.21733
 20
5.39466
 30
0.0
 10
-6.06085
 20
5.39466
 30
0.0
 10
-6.06085
 20
5.39466
 30
0.0
 10
-6.06085
 20
5.23811
 30
0.0
 10
-6.06085
 20
5.08154
 30
0.0
 10
-6.06085
 20
4.92499
 30
0.0
 10
-6.06085
 20
4.92499
 30
0.0
 10
-6.21733
 20
4.92499
 30
0.0
 10
-6.37388
 20
4.92499
 30
0.0
 10
-6.53043
 20
4.92499
 30
0.0
 10
-6.53043
 20
4.92499
 30
0.0
 10
-6.53043
 20
5.08154
 30
0.0
 10
-6.53043
 20
5.23811
 30
0.0
 10
-6.53043
 20
5.39466
 30
0.0
  0
SPLINE
  5
6C
330
1F
100
AcDbEntity
  8
Layer 1
 62
     7
100
AcDbSpline
210
0.0
220
0.0
230
1.0
 70
    11
 71
     3
 72
    20
 73
    16
 74
     0
 42
0.0000000001
 43
0.0000000001
 12
1.0
 22
0.0
 32
0.0
 13
1.0
 23
0.0
 33
0.0
 40
0.0
 40
0.0
 40
0.0
 40
0.0
 40
0.2
 40
0.2
 40
0.2
 40
0.2
 40
0.4
 40
0.4
 40
0.4
 40
0.4
 40
0.6
 40
0.6
 40
0.6
 40
0.6
 40
1.0
 40
1.0
 40
1.0
 40
1.0
 10
-6.7776
 20
4.20821
 30
0.0
 10
-6.93413
 20
4.20821
 30
0.0
 10
-7.09074
 20
4.20821
 30
0.0
 10
-7.24722
 20
4.20821
 30
0.0
 10
-7.24722
 20
4.20821
 30
0.0
 10
-7.24722
 20
4.60371
 30
0.0
 10
-7.24722
 20
4.99915
 30
0.0
 10
-7.24722
 20
5.39466
 30
0.0
 10
-7.24722
 20
5.39466
 30
0.0
 10
-7.09074
 20
5.39466
 30
0.0
 10
-6.93413
 20
5.39466
 30
0.0
 10
-6.7776
 20
5.39466
 30
0.0
 10
-6.7776
 20
5.39466
 30
0.0
 10
-6.7776
 20
4.99915
 30
0.0
 10
-6.7776
 20
4.60373
 30
0.0
 10
-6.7776
 20
4.20821
 30
0.0
  0
SPLINE
  5
6D
330
1F
100
AcDbEntity
  8
Layer 1
 62
     7
100
AcDbSpline
210
0.0
220
0.0
230
1.0
 70
    11
 71
     3
 72
    20
 73
    16
 74
     0
 42
0.0000000001
 43
0.0000000001
 12
1.0
 22
0.0
 32
0.0
 13
1.0
 23
0.0
 33
0.0
 40
0.0
 40
0.0
 40
0.0
 40
0.0
 40
0.2
 40
0.2
 40
0.2
 40
0.2
 40
0.4
 40
0.4
 40
0.4
 40
0.4
 40
0.6
 40
0.6
 40
0.6
 40
0.6
 40
1.0
 40
1.0
 40
1.0
 40
1.0
 10
-5.34406
 20
4.67782
 30
0.0
 10
-5.7395
 20
4.67782
 30
0.0
 10
-6.13503
 20
4.67782
 30
0.0
 10
-6.53043
 20
4.67782
 30
0.0
 10
-6.53043
 20
4.67782
 30
0.0
 10
-6.53043
 20
4.52128
 30
0.0
 10
-6.53043
 20
4.36474
 30
0.0
 10
-6.53043
 20
4.20821
 30
0.0
 10
-6.53043
 20
4.20821
 30
0.0
 10
-6.13503
 20
4.20821
 30
0.0
 10
-5.7395
 20
4.20821
 30
0.0
 10
-5.34406
 20
4.20821
 30
0.0
 10
-5.34406
 20
4.20821
 30
0.0
 10
-5.34406
 20
4.36474
 30
0.0
 10
-5.34406
 20
4.52128
 30
0.0
 10
-5.34406
 20
4.67782
 30
0.0
  0
SPLINE
  5
6E
330
1F
100
AcDbEntity
  8
Layer 1
 62
     7
100
AcDbSpline
210
0.0
220
0.0
230
1.0
 70
    11
 71
     3
 72
    20
 73
    16
 74
     0
 42
0.0000000001
 43
0.0000000001
 12
1.0
 22
0.0
 32
0.0
 13
1.0
 23
0.0
 33
0.0
 40
0.0
 40
0.0
 40
0.0
 40
0.0
 40
0.2
 40
0.2
 40
0.2
 40
0.2
 40
0.4
 40
0.4
 40
0.4
 40
0.4
 40
0.6
 40
0.6
 40
0.6
 40
0.6
 40
1.0
 40
1.0
 40
1.0
 40
1.0
 10
-5.81359
 20
6.11144
 30
0.0
 10
-5.65713
 20
6.11144
 30
0.0
 10
-5.50057
 20
6.11144
 30
0.0
 10
-5.34406
 20
6.11144
 30
0.0
 10
-5.34406
 20
6.11144
 30
0.0
 10
-5.34406
 20
5.71597
 30
0.0
 10
-5.34406
 20
5.32048
 30
0.0
 10
-5.34406
 20
4.92499
 30
0.0
 10
-5.34406
 20
4.92499
 30
0.0
 10
-5.50057
 20
4.92499
 30
0.0
 10
-5.65713
 20
4.92499
 30
0.0
 10
-5.81359
 20
4.92499
 30
0.0
 10
-5.81359
 20
4.92499
 30
0.0
 10
-5.81359
 20
5.32048
 30
0.0
 10
-5.81359
 20
5.71597
 30
0.0
 10
-5.81359
 20
6.11144
 30
0.0
  0
SPLINE
  5
6F
330
1F
100
AcDbEntity
  8
Layer 1
 62
     7
100
AcDbSpline
210
0.0
220
0.0
230
1.0
 70
    11
 71
     3
 72
    20
 73
    16
 74
     0
 42
0.0000000001
 43
0.0000000001
 12
1.0
 22
0.0
 32
0.0
 13
1.0
 23
0.0
 33
0.0
 40
0.0
 40
0.0
 40
0.0
 40
0.0
 40
0.2
 40
0.2
 40
0.2
 40
0.2
 40
0.4
 40
0.4
 40
0.4
 40
0.4
 40
0.6
 40
0.6
 40
0.6
 40
0.6
 40
1.0
 40
1.0
 40
1.0
 40
1.0
 10
-6.06085
 20
5.64182
 30
0.0
 10
-6.06085
 20
5.79831
 30
0.0
 10
-6.06085
 20
5.95491
 30
0.0
 10
-6.06085
 20
6.11144
 30
0.0
 10
-6.06085
 20
6.11144
 30
0.0
 10
-6.45631
 20
6.11144
 30
0.0
 10
-6.85179
 20
6.11144
 30
0.0
 10
-7.24722
 20
6.11144
 30
0.0
 10
-7.24722
 20
6.11144
 30
0.0
 10
-7.24722
 20
5.95491
 30
0.0
 10
-7.24722
 20
5.79831
 30
0.0
 10
-7.24722
 20
5.64182
 30
0.0
 10
-7.24722
 20
5.64182
 30
0.0
 10
-6.85179
 20
5.64182
 30
0.0
 10
-6.45631
 20
5.64182
 30
0.0
 10
-6.06085
 20
5.64182
 30
0.0
  0
SPLINE
  5
70
330
1F
100
AcDbEntity
  8
Layer 1
 62
     7
100
AcDbSpline
210
0.0
220
0.0
230
1.0
 70
    11
 71
     3
 72
    20
 73
    16
 74
     0
 42
0.0000000001
 43
0.0000000001
 12
1.0
 22
0.0
 32
0.0
 13
1.0
 23
0.0
 33
0.0
 40
0.0
 40
0.0
 40
0.0
 40
0.0
 40
0.2
 40
0.2
 40
0.2
 40
0.2
 40
0.4
 40
0.4
 40
0.4
 40
0.4
 40
0.6
 40
0.6
 40
0.6
 40
0.6
 40
1.0
 40
1.0
 40
1.0
 40
1.0
 10
-6.53043
 20
3.24426
 30
0.0
 10
-6.37388
 20
3.24426
 30
0.0
 10
-6.21733
 20
3.24426
 30
0.0
 10
-6.06085
 20
3.24426
 30
0.0
 10
-6.06085
 20
3.24426
 30
0.0
 10
-6.06085
 20
3.08772
 30
0.0
 10
-6.06085
 20
2.93117
 30
0.0
 10
-6.06085
 20
2.77461
 30
0.0
 10
-6.06085
 20
2.77461
 30
0.0
 10
-6.21733
 20
2.77461
 30
0.0
 10
-6.37388
 20
2.77461
 30
0.0
 10
-6.53043
 20
2.77461
 30
0.0
 10
-6.53043
 20
2.77461
 30
0.0
 10
-6.53043
 20
2.93117
 30
0.0
 10
-6.53043
 20
3.08772
 30
0.0
 10
-6.53043
 20
3.24426
 30
0.0
  0
SPLINE
  5
71
330
1F
100
AcDbEntity
  8
Layer 1
 62
     7
100
AcDbSpline
210
0.0
220
0.0
230
1.0
 70
    11
 71
     3
 72
    20
 73
    16
 74
     0
 42
0.0000000001
 43
0.0000000001
 12
1.0
 22
0.0
 32
0.0
 13
1.0
 23
0.0
 33
0.0
 40
0.0
 40
0.0
 40
0.0
 40
0.0
 40
0.2
 40
0.2
 40
0.2
 40
0.2
 40
0.4
 40
0.4
 40
0.4
 40
0.4
 40
0.6
 40
0.6
 40
0.6
 40
0.6
 40
1.0
 40
1.0
 40
1.0
 40
1.0
 10
-6.7776
 20
2.05784
 30
0.0
 10
-6.93413
 20
2.05784
 30
0.0
 10
-7.09074
 20
2.05784
 30
0.0
 10
-7.24722
 20
2.05784
 30
0.0
 10
-7.24722
 20
2.05784
 30
0.0
 10
-7.24722
 20
2.45333
 30
0.0
 10
-7.24722
 20
2.84876
 30
0.0
 10
-7.24722
 20
3.24426
 30
0.0
 10
-7.24722
 20
3.24426
 30
0.0
 10
-7.09074
 20
3.24426
 30
0.0
 10
-6.93413
 20
3.24426
 30
0.0
 10
-6.7776
 20
3.24426
 30
0.0
 10
-6.7776
 20
3.24426
 30
0.0
 10
-6.7776
 20
2.84876
 30
0.0
 10
-6.7776
 20
2.45333
 30
0.0
 10
-6.7776
 20
2.05784
 30
0.0
  0
SPLINE
  5
72
330
1F
100
AcDbEntity
  8
Layer 1
 62
     7
100
AcDbSpline
210
0.0
220
0.0
230
1.0
 70
    11
 71
     3
 72
    20
 73
    16
 74
     0
 42
0.0000000001
 43
0.0000000001
 12
1.0
 22
0.0
 32
0.0
 13
1.0
 23
0.0
 33
0.0
 40
0.0
 40
0.0
 40
0.0
 40
0.0
 40
0.2
 40
0.2
 40
0.2
 40
0.2
 40
0.4
 40
0.4
 40
0.4
 40
0.4
 40
0.6
 40
0.6
 40
0.6
 40
0.6
 40
1.0
 40
1.0
 40
1.0
 40
1.0
 10
-5.34406
 20
2.52745
 30
0.0
 10
-5.7395
 20
2.52745
 30
0.0
 10
-6.13503
 20
2.52745
 30
0.0
 10
-6.53043
 20
2.52745
 30
0.0
 10
-6.53043
 20
2.52745
 30
0.0
 10
-6.53043
 20
2.37091
 30
0.0
 10
-6.53043
 20
2.21442
 30
0.0
 10
-6.53043
 20
2.05784
 30
0.0
 10
-6.53043
 20
2.05784
 30
0.0
 10
-6.13503
 20
2.05784
 30
0.0
 10
-5.7395
 20
2.05784
 30
0.0
 10
-5.34406
 20
2.05784
 30
0.0
 10
-5.34406
 20
2.05784
 30
0.0
 10
-5.34406
 20
2.21442
 30
0.0
 10
-5.34406
 20
2.37091
 30
0.0
 10
-5.34406
 20
2.52745
 30
0.0
  0
SPLINE
  5
73
330
1F
100
AcDbEntity
  8
Layer 1
 62
     7
100
AcDbSpline
210
0.0
220
0.0
230
1.0
 70
    11
 71
     3
 72
    20
 73
    16
 74
     0
 42
0.0000000001
 43
0.0000000001
 12
1.0
 22
0.0
 32
0.0
 13
1.0
 23
0.0
 33
0.0
 40
0.0
 40
0.0
 40
0.0
 40
0.0
 40
0.2
 40
0.2
 40
0.2
 40
0.2
 40
0.4
 40
0.4
 40
0.4
 40
0.4
 40
0.6
 40
0.6
 40
0.6
 40
0.6
 40
1.0
 40
1.0
 40
1.0
 40
1.0
 10
-5.81359
 20
3.96106
 30
0.0
 10
-5.65713
 20
3.96106
 30
0.0
 10
-5.50057
 20
3.96106
 30
0.0
 10
-5.34406
 20
3.96106
 30
0.0
 10
-5.34406
 20
3.96106
 30
0.0
 10
-5.34406
 20
3.5656
 30
0.0
 10
-5.34406
 20
3.17008
 30
0.0
 10
-5.34406
 20
2.77461
 30
0.0
 10
-5.34406
 20
2.77461
 30
0.0
 10
-5.50057
 20
2.77461
 30
0.0
 10
-5.65713
 20
2.77461
 30
0.0
 10
-5.81359
 20
2.77461
 30
0.0
 10
-5.81359
 20
2.77461
 30
0.0
 10
-5.81359
 20
3.17008
 30
0.0
 10
-5.81359
 20
3.5656
 30
0.0
 10
-5.81359
 20
3.96106
 30
0.0
  0
SPLINE
  5
74
330
1F
100
AcDbEntity
  8
Layer 1
 62
     7
100
AcDbSpline
210
0.0
220
0.0
230
1.0
 70
    11
 71
     3
 72
    20
 73
    16
 74
     0
 42
0.0000000001
 43
0.0000000001
 12
1.0
 22
0.0
 32
0.0
 13
1.0
 23
0.0
 33
0.0
 40
0.0
 40
0.0
 40
0.0
 40
0.0
 40
0.2
 40
0.2
 40
0.2
 40
0.2
 40
0.4
 40
0.4
 40
0.4
 40
0.4
 40
0.6
 40
0.6
 40
0.6
 40
0.6
 40
1.0
 40
1.0
 40
1.0
 40
1.0
 10
-6.06085
 20
3.49142
 30
0.0
 10
-6.06085
 20
3.64801
 30
0.0
 10
-6.06085
 20
3.80451
 30
0.0
 10
-6.06085
 20
3.96106
 30
0.0
 10
-6.06085
 20
3.96106
 30
0.0
 10
-6.45631
 20
3.96106
 30
0.0
 10
-6.85179
 20
3.96106
 30
0.0
 10
-7.24722
 20
3.96106
 30
0.0
 10
-7.24722
 20
3.96106
 30
0.0
 10
-7.24722
 20
3.80451
 30
0.0
 10
-7.24722
 20
3.64801
 30
0.0
 10
-7.24722
 20
3.49142
 30
0.0
 10
-7.24722
 20
3.49142
 30
0.0
 10
-6.85179
 20
3.49142
 30
0.0
 10
-6.45631
 20
3.49142
 30
0.0
 10
-6.06085
 20
3.49142
 30
0.0
  0
SPLINE
  5
75
330
1F
100
AcDbEntity
  8
Layer 1
 62
     7
100
AcDbSpline
210
0.0
220
0.0
230
1.0
 70
    11
 71
     3
 72
    20
 73
    16
 74
     0
 42
0.0000000001
 43
0.0000000001
 12
1.0
 22
0.0
 32
0.0
 13
1.0
 23
0.0
 33
0.0
 40
0.0
 40
0.0
 40
0.0
 40
0.0
 40
0.2
 40
0.2
 40
0.2
 40
0.2
 40
0.4
 40
0.4
 40
0.4
 40
0.4
 40
0.6
 40
0.6
 40
0.6
 40
0.6
 40
1.0
 40
1.0
 40
1.0
 40
1.0
 10
-6.53043
 20
1.09393
 30
0.0
 10
-6.37388
 20
1.09393
 30
0.0
 10
-6.21733
 20
1.09393
 30
0.0
 10
-6.06085
 20
1.09393
 30
0.0
 10
-6.06085
 20
1.09393
 30
0.0
 10
-6.06085
 20
0.93735
 30
0.0
 10
-6.06085
 20
0.78081
 30
0.0
 10
-6.06085
 20
0.62424
 30
0.0
 10
-6.06085
 20
0.62424
 30
0.0
 10
-6.21733
 20
0.62424
 30
0.0
 10
-6.37388
 20
0.62424
 30
0.0
 10
-6.53043
 20
0.62424
 30
0.0
 10
-6.53043
 20
0.62424
 30
0.0
 10
-6.53043
 20
0.78081
 30
0.0
 10
-6.53043
 20
0.93735
 30
0.0
 10
-6.53043
 20
1.09393
 30
0.0
  0
SPLINE
  5
76
330
1F
100
AcDbEntity
  8
Layer 1
 62
     7
100
AcDbSpline
210
0.0
220
0.0
230
1.0
 70
    11
 71
     3
 72
    20
 73
    16
 74
     0
 42
0.0000000001
 43
0.0000000001
 12
1.0
 22
0.0
 32
0.0
 13
1.0
 23
0.0
 33
0.0
 40
0.0
 40
0.0
 40
0.0
 40
0.0
 40
0.2
 40
0.2
 40
0.2
 40
0.2
 40
0.4
 40
0.4
 40
0.4
 40
0.4
 40
0.6
 40
0.6
 40
0.6
 40
0.6
 40
1.0
 40
1.0
 40
1.0
 40
1.0
 10
-6.7776
 20
-0.09257
 30
0.0
 10
-6.93413
 20
-0.09257
 30
0.0
 10
-7.09074
 20
-0.09257
 30
0.0
 10
-7.24722
 20
-0.09257
 30
0.0
 10
-7.24722
 20
-0.09257
 30
0.0
 10
-7.24722
 20
0.30297
 30
0.0
 10
-7.24722
 20
0.69844
 30
0.0
 10
-7.24722
 20
1.09393
 30
0.0
 10
-7.24722
 20
1.09393
 30
0.0
 10
-7.09074
 20
1.09393
 30
0.0
 10
-6.93413
 20
1.09393
 30
0.0
 10
-6.7776
 20
1.09393
 30
0.0
 10
-6.7776
 20
1.09393
 30
0.0
 10
-6.7776
 20
0.69844
 30
0.0
 10
-6.7776
 20
0.30297
 30
0.0
 10
-6.7776
 20
-0.09257
 30
0.0
  0
SPLINE
  5
77
330
1F
100
AcDbEntity
  8
Layer 1
 62
     7
100
AcDbSpline
210
0.0
220
0.0
230
1.0
 70
    11
 71
     3
 72
    20
 73
    16
 74
     0
 42
0.0000000001
 43
0.0000000001
 12
1.0
 22
0.0
 32
0.0
 13
1.0
 23
0.0
 33
0.0
 40
0.0
 40
0.0
 40
0.0
 40
0.0
 40
0.2
 40
0.2
 40
0.2
 40
0.2
 40
0.4
 40
0.4
 40
0.4
 40
0.4
 40
0.6
 40
0.6
 40
0.6
 40
0.6
 40
1.0
 40
1.0
 40
1.0
 40
1.0
 10
-5.34406
 20
0.37711
 30
0.0
 10
-5.7395
 20
0.37711
 30
0.0
 10
-6.13503
 20
0.37711
 30
0.0
 10
-6.53043
 20
0.37711
 30
0.0
 10
-6.53043
 20
0.37711
 30
0.0
 10
-6.53043
 20
0.22055
 30
0.0
 10
-6.53043
 20
0.06403
 30
0.0
 10
-6.53043
 20
-0.09257
 30
0.0
 10
-6.53043
 20
-0.09257
 30
0.0
 10
-6.13503
 20
-0.09257
 30
0.0
 10
-5.7395
 20
-0.09257
 30
0.0
 10
-5.34406
 20
-0.09257
 30
0.0
 10
-5.34406
 20
-0.09257
 30
0.0
 10
-5.34406
 20
0.06403
 30
0.0
 10
-5.34406
 20
0.22055
 30
0.0
 10
-5.34406
 20
0.37711
 30
0.0
  0
SPLINE
  5
78
330
1F
100
AcDbEntity
  8
Layer 1
 62
     7
100
AcDbSpline
210
0.0
220
0.0
230
1.0
 70
    11
 71
     3
 72
    20
 73
    16
 74
     0
 42
0.0000000001
 43
0.0000000001
 12
1.0
 22
0.0
 32
0.0
 13
1.0
 23
0.0
 33
0.0
 40
0.0
 40
0.0
 40
0.0
 40
0.0
 40
0.2
 40
0.2
 40
0.2
 40
0.2
 40
0.4
 40
0.4
 40
0.4
 40
0.4
 40
0.6
 40
0.6
 40
0.6
 40
0.6
 40
1.0
 40
1.0
 40
1.0
 40
1.0
 10
-5.81359
 20
1.81066
 30
0.0
 10
-5.65713
 20
1.81066
 30
0.0
 10
-5.50057
 20
1.81066
 30
0.0
 10
-5.34406
 20
1.81066
 30
0.0
 10
-5.34406
 20
1.81066
 30
0.0
 10
-5.34406
 20
1.41524
 30
0.0
 10
-5.34406
 20
1.01971
 30
0.0
 10
-5.34406
 20
0.62424
 30
0.0
 10
-5.34406
 20
0.62424
 30
0.0
 10
-5.50057
 20
0.62424
 30
0.0
 10
-5.65713
 20
0.62424
 30
0.0
 10
-5.81359
 20
0.62424
 30
0.0
 10
-5.81359
 20
0.62424
 30
0.0
 10
-5.81359
 20
1.01974
 30
0.0
 10
-5.81359
 20
1.41524
 30
0.0
 10
-5.81359
 20
1.81066
 30
0.0
  0
SPLINE
  5
79
330
1F
100
AcDbEntity
  8
Layer 1
 62
     7
100
AcDbSpline
210
0.0
220
0.0
230
1.0
 70
    11
 71
     3
 72
    20
 73
    16
 74
     0
 42
0.0000000001
 43
0.0000000001
 12
1.0
 22
0.0
 32
0.0
 13
1.0
 23
0.0
 33
0.0
 40
0.0
 40
0.0
 40
0.0
 40
0.0
 40
0.2
 40
0.2
 40
0.2
 40
0.2
 40
0.4
 40
0.4
 40
0.4
 40
0.4
 40
0.6
 40
0.6
 40
0.6
 40
0.6
 40
1.0
 40
1.0
 40
1.0
 40
1.0
 10
-6.06085
 20
1.34106
 30
0.0
 10
-6.06085
 20
1.49765
 30
0.0
 10
-6.06085
 20
1.65414
 30
0.0
 10
-6.06085
 20
1.81066
 30
0.0
 10
-6.06085
 20
1.81066
 30
0.0
 10
-6.45631
 20
1.81066
 30
0.0
 10
-6.85179
 20
1.81066
 30
0.0
 10
-7.24722
 20
1.81066
 30
0.0
 10
-7.24722
 20
1.81066
 30
0.0
 10
-7.24722
 20
1.65414
 30
0.0
 10
-7.24722
 20
1.49765
 30
0.0
 10
-7.24722
 20
1.34106
 30
0.0
 10
-7.24722
 20
1.34106
 30
0.0
 10
-6.85179
 20
1.34106
 30
0.0
 10
-6.45631
 20
1.34106
 30
0.0
 10
-6.06085
 20
1.34106
 30
0.0
  0
SPLINE
  5
7A
330
1F
100
AcDbEntity
  8
Layer 1
 62
     7
100
AcDbSpline
210
0.0
220
0.0
230
1.0
 70
    11
 71
     3
 72
    20
 73
    16
 74
     0
 42
0.0000000001
 43
0.0000000001
 12
1.0
 22
0.0
 32
0.0
 13
1.0
 23
0.0
 33
0.0
 40
0.0
 40
0.0
 40
0.0
 40
0.0
 40
0.2
 40
0.2
 40
0.2
 40
0.2
 40
0.4
 40
0.4
 40
0.4
 40
0.4
 40
0.6
 40
0.6
 40
0.6
 40
0.6
 40
1.0
 40
1.0
 40
1.0
 40
1.0
 10
-6.53043
 20
-1.0565
 30
0.0
 10
-6.37388
 20
-1.0565
 30
0.0
 10
-6.21733
 20
-1.0565
 30
0.0
 10
-6.06085
 20
-1.0565
 30
0.0
 10
-6.06085
 20
-1.0565
 30
0.0
 10
-6.06085
 20
-1.213
 30
0.0
 10
-6.06085
 20
-1.36956
 30
0.0
 10
-6.06085
 20
-1.52612
 30
0.0
 10
-6.06085
 20
-1.52612
 30
0.0
 10
-6.21733
 20
-1.52612
 30
0.0
 10
-6.37388
 20
-1.52612
 30
0.0
 10
-6.53043
 20
-1.52612
 30
0.0
 10
-6.53043
 20
-1.52612
 30
0.0
 10
-6.53043
 20
-1.36956
 30
0.0
 10
-6.53043
 20
-1.213
 30
0.0
 10
-6.53043
 20
-1.0565
 30
0.0
  0
SPLINE
  5
7B
330
1F
100
AcDbEntity
  8
Layer 1
 62
     7
100
AcDbSpline
210
0.0
220
0.0
230
1.0
 70
    11
 71
     3
 72
    20
 73
    16
 74
     0
 42
0.0000000001
 43
0.0000000001
 12
1.0
 22
0.0
 32
0.0
 13
1.0
 23
0.0
 33
0.0
 40
0.0
 40
0.0
 40
0.0
 40
0.0
 40
0.2
 40
0.2
 40
0.2
 40
0.2
 40
0.4
 40
0.4
 40
0.4
 40
0.4
 40
0.6
 40
0.6
 40
0.6
 40
0.6
 40
1.0
 40
1.0
 40
1.0
 40
1.0
 10
-6.7776
 20
-2.24295
 30
0.0
 10
-6.93413
 20
-2.24295
 30
0.0
 10
-7.09074
 20
-2.24295
 30
0.0
 10
-7.24722
 20
-2.24295
 30
0.0
 10
-7.24722
 20
-2.24295
 30
0.0
 10
-7.24722
 20
-1.84744
 30
0.0
 10
-7.24722
 20
-1.45195
 30
0.0
 10
-7.24722
 20
-1.0565
 30
0.0
 10
-7.24722
 20
-1.0565
 30
0.0
 10
-7.09074
 20
-1.0565
 30
0.0
 10
-6.93413
 20
-1.0565
 30
0.0
 10
-6.7776
 20
-1.0565
 30
0.0
 10
-6.7776
 20
-1.0565
 30
0.0
 10
-6.7776
 20
-1.45195
 30
0.0
 10
-6.7776
 20
-1.84744
 30
0.0
 10
-6.7776
 20
-2.24295
 30
0.0
  0
SPLINE
  5
7C
330
1F
100
AcDbEntity
  8
Layer 1
 62
     7
100
AcDbSpline
210
0.0
220
0.0
230
1.0
 70
    11
 71
     3
 72
    20
 73
    16
 74
     0
 42
0.0000000001
 43
0.0000000001
 12
1.0
 22
0.0
 32
0.0
 13
1.0
 23
0.0
 33
0.0
 40
0.0
 40
0.0
 40
0.0
 40
0.0
 40
0.2
 40
0.2
 40
0.2
 40
0.2
 40
0.4
 40
0.4
 40
0.4
 40
0.4
 40
0.6
 40
0.6
 40
0.6
 40
0.6
 40
1.0
 40
1.0
 40
1.0
 40
1.0
 10
-5.34406
 20
-1.77326
 30
0.0
 10
-5.7395
 20
-1.77326
 30
0.0
 10
-6.13503
 20
-1.77326
 30
0.0
 10
-6.53043
 20
-1.77326
 30
0.0
 10
-6.53043
 20
-1.77326
 30
0.0
 10
-6.53043
 20
-1.92985
 30
0.0
 10
-6.53043
 20
-2.08637
 30
0.0
 10
-6.53043
 20
-2.24295
 30
0.0
 10
-6.53043
 20
-2.24295
 30
0.0
 10
-6.13503
 20
-2.24295
 30
0.0
 10
-5.7395
 20
-2.24295
 30
0.0
 10
-5.34406
 20
-2.24295
 30
0.0
 10
-5.34406
 20
-2.24295
 30
0.0
 10
-5.34406
 20
-2.08637
 30
0.0
 10
-5.34406
 20
-1.92985
 30
0.0
 10
-5.34406
 20
-1.77326
 30
0.0
  0
SPLINE
  5
7D
330
1F
100
AcDbEntity
  8
Layer 1
 62
     7
100
AcDbSpline
210
0.0
220
0.0
230
1.0
 70
    11
 71
     3
 72
    20
 73
    16
 74
     0
 42
0.0000000001
 43
0.0000000001
 12
1.0
 22
0.0
 32
0.0
 13
1.0
 23
0.0
 33
0.0
 40
0.0
 40
0.0
 40
0.0
 40
0.0
 40
0.2
 40
0.2
 40
0.2
 40
0.2
 40
0.4
 40
0.4
 40
0.4
 40
0.4
 40
0.6
 40
0.6
 40
0.6
 40
0.6
 40
1.0
 40
1.0
 40
1.0
 40
1.0
 10
-5.81359
 20
-0.3397
 30
0.0
 10
-5.65713
 20
-0.3397
 30
0.0
 10
-5.50057
 20
-0.3397
 30
0.0
 10
-5.34406
 20
-0.3397
 30
0.0
 10
-5.34406
 20
-0.3397
 30
0.0
 10
-5.34406
 20
-0.73515
 30
0.0
 10
-5.34406
 20
-1.13064
 30
0.0
 10
-5.34406
 20
-1.52612
 30
0.0
 10
-5.34406
 20
-1.52612
 30
0.0
 10
-5.50057
 20
-1.52612
 30
0.0
 10
-5.65713
 20
-1.52612
 30
0.0
 10
-5.81359
 20
-1.52612
 30
0.0
 10
-5.81359
 20
-1.52612
 30
0.0
 10
-5.81359
 20
-1.13064
 30
0.0
 10
-5.81359
 20
-0.73515
 30
0.0
 10
-5.81359
 20
-0.3397
 30
0.0
  0
SPLINE
  5
7E
330
1F
100
AcDbEntity
  8
Layer 1
 62
     7
100
AcDbSpline
210
0.0
220
0.0
230
1.0
 70
    11
 71
     3
 72
    20
 73
    16
 74
     0
 42
0.0000000001
 43
0.0000000001
 12
1.0
 22
0.0
 32
0.0
 13
1.0
 23
0.0
 33
0.0
 40
0.0
 40
0.0
 40
0.0
 40
0.0
 40
0.2
 40
0.2
 40
0.2
 40
0.2
 40
0.4
 40
0.4
 40
0.4
 40
0.4
 40
0.6
 40
0.6
 40
0.6
 40
0.6
 40
1.0
 40
1.0
 40
1.0
 40
1.0
 10
-6.06085
 20
-0.80934
 30
0.0
 10
-6.06085
 20
-0.65274
 30
0.0
 10
-6.06085
 20
-0.49624
 30
0.0
 10
-6.06085
 20
-0.3397
 30
0.0
 10
-6.06085
 20
-0.3397
 30
0.0
 10
-6.45631
 20
-0.3397
 30
0.0
 10
-6.85179
 20
-0.3397
 30
0.0
 10
-7.24722
 20
-0.3397
 30
0.0
 10
-7.24722
 20
-0.3397
 30
0.0
 10
-7.24722
 20
-0.49624
 30
0.0
 10
-7.24722
 20
-0.65274
 30
0.0
 10
-7.24722
 20
-0.80934
 30
0.0
 10
-7.24722
 20
-0.80934
 30
0.0
 10
-6.85179
 20
-0.80934
 30
0.0
 10
-6.45631
 20
-0.80934
 30
0.0
 10
-6.06085
 20
-0.80934
 30
0.0
  0
SPLINE
  5
7F
330
1F
100
AcDbEntity
  8
Layer 1
 62
     7
100
AcDbSpline
210
0.0
220
0.0
230
1.0
 70
    11
 71
     3
 72
    20
 73
    16
 74
     0
 42
0.0000000001
 43
0.0000000001
 12
1.0
 22
0.0
 32
0.0
 13
1.0
 23
0.0
 33
0.0
 40
0.0
 40
0.0
 40
0.0
 40
0.0
 40
0.2
 40
0.2
 40
0.2
 40
0.2
 40
0.4
 40
0.4
 40
0.4
 40
0.4
 40
0.6
 40
0.6
 40
0.6
 40
0.6
 40
1.0
 40
1.0
 40
1.0
 40
1.0
 10
-6.53043
 20
-3.20686
 30
0.0
 10
-6.37388
 20
-3.20686
 30
0.0
 10
-6.21733
 20
-3.20686
 30
0.0
 10
-6.06085
 20
-3.20686
 30
0.0
 10
-6.06085
 20
-3.20686
 30
0.0
 10
-6.06085
 20
-3.3634
 30
0.0
 10
-6.06085
 20
-3.51994
 30
0.0
 10
-6.06085
 20
-3.6765
 30
0.0
 10
-6.06085
 20
-3.6765
 30
0.0
 10
-6.21733
 20
-3.6765
 30
0.0
 10
-6.37388
 20
-3.6765
 30
0.0
 10
-6.53043
 20
-3.6765
 30
0.0
 10
-6.53043
 20
-3.6765
 30
0.0
 10
-6.53043
 20
-3.51994
 30
0.0
 10
-6.53043
 20
-3.3634
 30
0.0
 10
-6.53043
 20
-3.20686
 30
0.0
  0
SPLINE
  5
80
330
1F
100
AcDbEntity
  8
Layer 1
 62
     7
100
AcDbSpline
210
0.0
220
0.0
230
1.0
 70
    11
 71
     3
 72
    20
 73
    16
 74
     0
 42
0.0000000001
 43
0.0000000001
 12
1.0
 22
0.0
 32
0.0
 13
1.0
 23
0.0
 33
0.0
 40
0.0
 40
0.0
 40
0.0
 40
0.0
 40
0.2
 40
0.2
 40
0.2
 40
0.2
 40
0.4
 40
0.4
 40
0.4
 40
0.4
 40
0.6
 40
0.6
 40
0.6
 40
0.6
 40
1.0
 40
1.0
 40
1.0
 40
1.0
 10
-6.7776
 20
-4.39333
 30
0.0
 10
-6.93413
 20
-4.39333
 30
0.0
 10
-7.09074
 20
-4.39333
 30
0.0
 10
-7.24722
 20
-4.39333
 30
0.0
 10
-7.24722
 20
-4.39333
 30
0.0
 10
-7.24722
 20
-3.99782
 30
0.0
 10
-7.24722
 20
-3.60231
 30
0.0
 10
-7.24722
 20
-3.20686
 30
0.0
 10
-7.24722
 20
-3.20686
 30
0.0
 10
-7.09074
 20
-3.20686
 30
0.0
 10
-6.93413
 20
-3.20686
 30
0.0
 10
-6.7776
 20
-3.20686
 30
0.0
 10
-6.7776
 20
-3.20686
 30
0.0
 10
-6.7776
 20
-3.60231
 30
0.0
 10
-6.7776
 20
-3.99782
 30
0.0
 10
-6.7776
 20
-4.39333
 30
0.0
  0
SPLINE
  5
81
330
1F
100
AcDbEntity
  8
Layer 1
 62
     7
100
AcDbSpline
210
0.0
220
0.0
230
1.0
 70
    11
 71
     3
 72
    20
 73
    16
 74
     0
 42
0.0000000001
 43
0.0000000001
 12
1.0
 22
0.0
 32
0.0
 13
1.0
 23
0.0
 33
0.0
 40
0.0
 40
0.0
 40
0.0
 40
0.0
 40
0.2
 40
0.2
 40
0.2
 40
0.2
 40
0.4
 40
0.4
 40
0.4
 40
0.4
 40
0.6
 40
0.6
 40
0.6
 40
0.6
 40
1.0
 40
1.0
 40
1.0
 40
1.0
 10
-5.34406
 20
-3.92363
 30
0.0
 10
-5.7395
 20
-3.92363
 30
0.0
 10
-6.13503
 20
-3.92363
 30
0.0
 10
-6.53043
 20
-3.92363
 30
0.0
 10
-6.53043
 20
-3.92363
 30
0.0
 10
-6.53043
 20
-4.08024
 30
0.0
 10
-6.53043
 20
-4.23675
 30
0.0
 10
-6.53043
 20
-4.39333
 30
0.0
 10
-6.53043
 20
-4.39333
 30
0.0
 10
-6.13503
 20
-4.39333
 30
0.0
 10
-5.7395
 20
-4.39333
 30
0.0
 10
-5.34406
 20
-4.39333
 30
0.0
 10
-5.34406
 20
-4.39333
 30
0.0
 10
-5.34406
 20
-4.23675
 30
0.0
 10
-5.34406
 20
-4.08024
 30
0.0
 10
-5.34406
 20
-3.92363
 30
0.0
  0
SPLINE
  5
82
330
1F
100
AcDbEntity
  8
Layer 1
 62
     7
100
AcDbSpline
210
0.0
220
0.0
230
1.0
 70
    11
 71
     3
 72
    20
 73
    16
 74
     0
 42
0.0000000001
 43
0.0000000001
 12
1.0
 22
0.0
 32
0.0
 13
1.0
 23
0.0
 33
0.0
 40
0.0
 40
0.0
 40
0.0
 40
0.0
 40
0.2
 40
0.2
 40
0.2
 40
0.2
 40
0.4
 40
0.4
 40
0.4
 40
0.4
 40
0.6
 40
0.6
 40
0.6
 40
0.6
 40
1.0
 40
1.0
 40
1.0
 40
1.0
 10
-5.81359
 20
-2.49011
 30
0.0
 10
-5.65713
 20
-2.49011
 30
0.0
 10
-5.50057
 20
-2.49011
 30
0.0
 10
-5.34406
 20
-2.49011
 30
0.0
 10
-5.34406
 20
-2.49011
 30
0.0
 10
-5.34406
 20
-2.88552
 30
0.0
 10
-5.34406
 20
-3.28105
 30
0.0
 10
-5.34406
 20
-3.6765
 30
0.0
 10
-5.34406
 20
-3.6765
 30
0.0
 10
-5.50057
 20
-3.6765
 30
0.0
 10
-5.65713
 20
-3.6765
 30
0.0
 10
-5.81359
 20
-3.6765
 30
0.0
 10
-5.81359
 20
-3.6765
 30
0.0
 10
-5.81359
 20
-3.28105
 30
0.0
 10
-5.81359
 20
-2.88555
 30
0.0
 10
-5.81359
 20
-2.49011
 30
0.0
  0
SPLINE
  5
83
330
1F
100
AcDbEntity
  8
Layer 1
 62
     7
100
AcDbSpline
210
0.0
220
0.0
230
1.0
 70
    11
 71
     3
 72
    20
 73
    16
 74
     0
 42
0.0000000001
 43
0.0000000001
 12
1.0
 22
0.0
 32
0.0
 13
1.0
 23
0.0
 33
0.0
 40
0.0
 40
0.0
 40
0.0
 40
0.0
 40
0.2
 40
0.2
 40
0.2
 40
0.2
 40
0.4
 40
0.4
 40
0.4
 40
0.4
 40
0.6
 40
0.6
 40
0.6
 40
0.6
 40
1.0
 40
1.0
 40
1.0
 40
1.0
 10
-6.06085
 20
-2.95973
 30
0.0
 10
-6.06085
 20
-2.80314
 30
0.0
 10
-6.06085
 20
-2.64662
 30
0.0
 10
-6.06085
 20
-2.49011
 30
0.0
 10
-6.06085
 20
-2.49011
 30
0.0
 10
-6.45631
 20
-2.49011
 30
0.0
 10
-6.85179
 20
-2.49011
 30
0.0
 10
-7.24722
 20
-2.49011
 30
0.0
 10
-7.24722
 20
-2.49011
 30
0.0
 10
-7.24722
 20
-2.64662
 30
0.0
 10
-7.24722
 20
-2.80314
 30
0.0
 10
-7.24722
 20
-2.95973
 30
0.0
 10
-7.24722
 20
-2.95973
 30
0.0
 10
-6.85179
 20
-2.95973
 30
0.0
 10
-6.45631
 20
-2.95973
 30
0.0
 10
-6.06085
 20
-2.95973
 30
0.0
  0
SPLINE
  5
84
330
1F
100
AcDbEntity
  8
Layer 1
 62
     7
100
AcDbSpline
210
0.0
220
0.0
230
1.0
 70
    11
 71
     3
 72
    20
 73
    16
 74
     0
 42
0.0000000001
 43
0.0000000001
 12
1.0
 22
0.0
 32
0.0
 13
1.0
 23
0.0
 33
0.0
 40
0.0
 40
0.0
 40
0.0
 40
0.0
 40
0.2
 40
0.2
 40
0.2
 40
0.2
 40
0.4
 40
0.4
 40
0.4
 40
0.4
 40
0.6
 40
0.6
 40
0.6
 40
0.6
 40
1.0
 40
1.0
 40
1.0
 40
1.0
 10
-6.53043
 20
-5.35728
 30
0.0
 10
-6.37388
 20
-5.35728
 30
0.0
 10
-6.21733
 20
-5.35728
 30
0.0
 10
-6.06085
 20
-5.35728
 30
0.0
 10
-6.06085
 20
-5.35728
 30
0.0
 10
-6.06085
 20
-5.51377
 30
0.0
 10
-6.06085
 20
-5.67033
 30
0.0
 10
-6.06085
 20
-5.82687
 30
0.0
 10
-6.06085
 20
-5.82687
 30
0.0
 10
-6.21733
 20
-5.82687
 30
0.0
 10
-6.37388
 20
-5.82687
 30
0.0
 10
-6.53043
 20
-5.82687
 30
0.0
 10
-6.53043
 20
-5.82687
 30
0.0
 10
-6.53043
 20
-5.67033
 30
0.0
 10
-6.53043
 20
-5.51377
 30
0.0
 10
-6.53043
 20
-5.35728
 30
0.0
  0
SPLINE
  5
85
330
1F
100
AcDbEntity
  8
Layer 1
 62
     7
100
AcDbSpline
210
0.0
220
0.0
230
1.0
 70
    11
 71
     3
 72
    20
 73
    16
 74
     0
 42
0.0000000001
 43
0.0000000001
 12
1.0
 22
0.0
 32
0.0
 13
1.0
 23
0.0
 33
0.0
 40
0.0
 40
0.0
 40
0.0
 40
0.0
 40
0.2
 40
0.2
 40
0.2
 40
0.2
 40
0.4
 40
0.4
 40
0.4
 40
0.4
 40
0.6
 40
0.6
 40
0.6
 40
0.6
 40
1.0
 40
1.0
 40
1.0
 40
1.0
 10
-6.7776
 20
-6.54363
 30
0.0
 10
-6.93413
 20
-6.54363
 30
0.0
 10
-7.09074
 20
-6.54363
 30
0.0
 10
-7.24722
 20
-6.54363
 30
0.0
 10
-7.24722
 20
-6.54363
 30
0.0
 10
-7.24722
 20
-6.14821
 30
0.0
 10
-7.24722
 20
-5.75272
 30
0.0
 10
-7.24722
 20
-5.35728
 30
0.0
 10
-7.24722
 20
-5.35728
 30
0.0
 10
-7.09074
 20
-5.35728
 30
0.0
 10
-6.93413
 20
-5.35728
 30
0.0
 10
-6.7776
 20
-5.35728
 30
0.0
 10
-6.7776
 20
-5.35728
 30
0.0
 10
-6.7776
 20
-5.75272
 30
0.0
 10
-6.7776
 20
-6.14821
 30
0.0
 10
-6.7776
 20
-6.54363
 30
0.0
  0
SPLINE
  5
86
330
1F
100
AcDbEntity
  8
Layer 1
 62
     7
100
AcDbSpline
210
0.0
220
0.0
230
1.0
 70
    11
 71
     3
 72
    20
 73
    16
 74
     0
 42
0.0000000001
 43
0.0000000001
 12
1.0
 22
0.0
 32
0.0
 13
1.0
 23
0.0
 33
0.0
 40
0.0
 40
0.0
 40
0.0
 40
0.0
 40
0.2
 40
0.2
 40
0.2
 40
0.2
 40
0.4
 40
0.4
 40
0.4
 40
0.4
 40
0.6
 40
0.6
 40
0.6
 40
0.6
 40
1.0
 40
1.0
 40
1.0
 40
1.0
 10
-5.34406
 20
-6.074
 30
0.0
 10
-5.7395
 20
-6.074
 30
0.0
 10
-6.13503
 20
-6.074
 30
0.0
 10
-6.53043
 20
-6.074
 30
0.0
 10
-6.53043
 20
-6.074
 30
0.0
 10
-6.53043
 20
-6.23059
 30
0.0
 10
-6.53043
 20
-6.38714
 30
0.0
 10
-6.53043
 20
-6.54363
 30
0.0
 10
-6.53043
 20
-6.54363
 30
0.0
 10
-6.13503
 20
-6.54363
 30
0.0
 10
-5.7395
 20
-6.54363
 30
0.0
 10
-5.34406
 20
-6.54363
 30
0.0
 10
-5.34406
 20
-6.54363
 30
0.0
 10
-5.34406
 20
-6.38714
 30
0.0
 10
-5.34406
 20
-6.23059
 30
0.0
 10
-5.34406
 20
-6.074
 30
0.0
  0
SPLINE
  5
87
330
1F
100
AcDbEntity
  8
Layer 1
 62
     7
100
AcDbSpline
210
0.0
220
0.0
230
1.0
 70
    11
 71
     3
 72
    20
 73
    16
 74
     0
 42
0.0000000001
 43
0.0000000001
 12
1.0
 22
0.0
 32
0.0
 13
1.0
 23
0.0
 33
0.0
 40
0.0
 40
0.0
 40
0.0
 40
0.0
 40
0.2
 40
0.2
 40
0.2
 40
0.2
 40
0.4
 40
0.4
 40
0.4
 40
0.4
 40
0.6
 40
0.6
 40
0.6
 40
0.6
 40
1.0
 40
1.0
 40
1.0
 40
1.0
 10
-5.81359
 20
-4.64049
 30
0.0
 10
-5.65713
 20
-4.64049
 30
0.0
 10
-5.50057
 20
-4.64049
 30
0.0
 10
-5.34406
 20
-4.64049
 30
0.0
 10
-5.34406
 20
-4.64049
 30
0.0
 10
-5.34406
 20
-5.03592
 30
0.0
 10
-5.34406
 20
-5.43143
 30
0.0
 10
-5.34406
 20
-5.82687
 30
0.0
 10
-5.34406
 20
-5.82687
 30
0.0
 10
-5.50057
 20
-5.82687
 30
0.0
 10
-5.65713
 20
-5.82687
 30
0.0
 10
-5.81359
 20
-5.82687
 30
0.0
 10
-5.81359
 20
-5.82687
 30
0.0
 10
-5.81359
 20
-5.43143
 30
0.0
 10
-5.81359
 20
-5.03592
 30
0.0
 10
-5.81359
 20
-4.64049
 30
0.0
  0
SPLINE
  5
88
330
1F
100
AcDbEntity
  8
Layer 1
 62
     7
100
AcDbSpline
210
0.0
220
0.0
230
1.0
 70
    11
 71
     3
 72
    20
 73
    16
 74
     0
 42
0.0000000001
 43
0.0000000001
 12
1.0
 22
0.0
 32
0.0
 13
1.0
 23
0.0
 33
0.0
 40
0.0
 40
0.0
 40
0.0
 40
0.0
 40
0.2
 40
0.2
 40
0.2
 40
0.2
 40
0.4
 40
0.4
 40
0.4
 40
0.4
 40
0.6
 40
0.6
 40
0.6
 40
0.6
 40
1.0
 40
1.0
 40
1.0
 40
1.0
 10
-6.06085
 20
-5.11007
 30
0.0
 10
-6.06085
 20
-4.95352
 30
0.0
 10
-6.06085
 20
-4.79702
 30
0.0
 10
-6.06085
 20
-4.64049
 30
0.0
 10
-6.06085
 20
-4.64049
 30
0.0
 10
-6.45631
 20
-4.64049
 30
0.0
 10
-6.85179
 20
-4.64049
 30
0.0
 10
-7.24722
 20
-4.64049
 30
0.0
 10
-7.24722
 20
-4.64049
 30
0.0
 10
-7.24722
 20
-4.79702
 30
0.0
 10
-7.24722
 20
-4.95352
 30
0.0
 10
-7.24722
 20
-5.11007
 30
0.0
 10
-7.24722
 20
-5.11007
 30
0.0
 10
-6.85179
 20
-5.11007
 30
0.0
 10
-6.45631
 20
-5.11007
 30
0.0
 10
-6.06085
 20
-5.11007
 30
0.0
  0
SPLINE
  5
89
330
1F
100
AcDbEntity
  8
Layer 1
 62
     7
100
AcDbSpline
210
0.0
220
0.0
230
1.0
 70
    11
 71
     3
 72
    20
 73
    16
 74
     0
 42
0.0000000001
 43
0.0000000001
 12
1.0
 22
0.0
 32
0.0
 13
1.0
 23
0.0
 33
0.0
 40
0.0
 40
0.0
 40
0.0
 40
0.0
 40
0.2
 40
0.2
 40
0.2
 40
0.2
 40
0.4
 40
0.4
 40
0.4
 40
0.4
 40
0.6
 40
0.6
 40
0.6
 40
0.6
 40
1.0
 40
1.0
 40
1.0
 40
1.0
 10
-8.6808
 20
18.29691
 30
0.0
 10
-8.52428
 20
18.29691
 30
0.0
 10
-8.36773
 20
18.29691
 30
0.0
 10
-8.21121
 20
18.29691
 30
0.0
 10
-8.21121
 20
18.29691
 30
0.0
 10
-8.21121
 20
18.14035
 30
0.0
 10
-8.21121
 20
17.9838
 30
0.0
 10
-8.21121
 20
17.82726
 30
0.0
 10
-8.21121
 20
17.82726
 30
0.0
 10
-8.36773
 20
17.82726
 30
0.0
 10
-8.52428
 20
17.82726
 30
0.0
 10
-8.6808
 20
17.82726
 30
0.0
 10
-8.6808
 20
17.82726
 30
0.0
 10
-8.6808
 20
17.9838
 30
0.0
 10
-8.6808
 20
18.14035
 30
0.0
 10
-8.6808
 20
18.29691
 30
0.0
  0
SPLINE
  5
8A
330
1F
100
AcDbEntity
  8
Layer 1
 62
     7
100
AcDbSpline
210
0.0
220
0.0
230
1.0
 70
    11
 71
     3
 72
    20
 73
    16
 74
     0
 42
0.0000000001
 43
0.0000000001
 12
1.0
 22
0.0
 32
0.0
 13
1.0
 23
0.0
 33
0.0
 40
0.0
 40
0.0
 40
0.0
 40
0.0
 40
0.2
 40
0.2
 40
0.2
 40
0.2
 40
0.4
 40
0.4
 40
0.4
 40
0.4
 40
0.6
 40
0.6
 40
0.6
 40
0.6
 40
1.0
 40
1.0
 40
1.0
 40
1.0
 10
-8.928
 20
17.1105
 30
0.0
 10
-9.0845
 20
17.1105
 30
0.0
 10
-9.24109
 20
17.1105
 30
0.0
 10
-9.39759
 20
17.1105
 30
0.0
 10
-9.39759
 20
17.1105
 30
0.0
 10
-9.39759
 20
17.50593
 30
0.0
 10
-9.39759
 20
17.90143
 30
0.0
 10
-9.39759
 20
18.29691
 30
0.0
 10
-9.39759
 20
18.29691
 30
0.0
 10
-9.24109
 20
18.29691
 30
0.0
 10
-9.0845
 20
18.29691
 30
0.0
 10
-8.928
 20
18.29691
 30
0.0
 10
-8.928
 20
18.29691
 30
0.0
 10
-8.928
 20
17.90143
 30
0.0
 10
-8.928
 20
17.50593
 30
0.0
 10
-8.928
 20
17.1105
 30
0.0
  0
SPLINE
  5
8B
330
1F
100
AcDbEntity
  8
Layer 1
 62
     7
100
AcDbSpline
210
0.0
220
0.0
230
1.0
 70
    11
 71
     3
 72
    20
 73
    16
 74
     0
 42
0.0000000001
 43
0.0000000001
 12
1.0
 22
0.0
 32
0.0
 13
1.0
 23
0.0
 33
0.0
 40
0.0
 40
0.0
 40
0.0
 40
0.0
 40
0.2
 40
0.2
 40
0.2
 40
0.2
 40
0.4
 40
0.4
 40
0.4
 40
0.4
 40
0.6
 40
0.6
 40
0.6
 40
0.6
 40
1.0
 40
1.0
 40
1.0
 40
1.0
 10
-7.49441
 20
17.58011
 30
0.0
 10
-7.88991
 20
17.58011
 30
0.0
 10
-8.28533
 20
17.58011
 30
0.0
 10
-8.6808
 20
17.58011
 30
0.0
 10
-8.6808
 20
17.58011
 30
0.0
 10
-8.6808
 20
17.42355
 30
0.0
 10
-8.6808
 20
17.26702
 30
0.0
 10
-8.6808
 20
17.1105
 30
0.0
 10
-8.6808
 20
17.1105
 30
0.0
 10
-8.28533
 20
17.1105
 30
0.0
 10
-7.88991
 20
17.1105
 30
0.0
 10
-7.49441
 20
17.1105
 30
0.0
 10
-7.49441
 20
17.1105
 30
0.0
 10
-7.49441
 20
17.26702
 30
0.0
 10
-7.49441
 20
17.42355
 30
0.0
 10
-7.49441
 20
17.58011
 30
0.0
  0
SPLINE
  5
8C
330
1F
100
AcDbEntity
  8
Layer 1
 62
     7
100
AcDbSpline
210
0.0
220
0.0
230
1.0
 70
    11
 71
     3
 72
    20
 73
    16
 74
     0
 42
0.0000000001
 43
0.0000000001
 12
1.0
 22
0.0
 32
0.0
 13
1.0
 23
0.0
 33
0.0
 40
0.0
 40
0.0
 40
0.0
 40
0.0
 40
0.2
 40
0.2
 40
0.2
 40
0.2
 40
0.4
 40
0.4
 40
0.4
 40
0.4
 40
0.6
 40
0.6
 40
0.6
 40
0.6
 40
1.0
 40
1.0
 40
1.0
 40
1.0
 10
-7.96401
 20
19.01373
 30
0.0
 10
-7.80749
 20
19.01373
 30
0.0
 10
-7.65096
 20
19.01373
 30
0.0
 10
-7.49441
 20
19.01373
 30
0.0
 10
-7.49441
 20
19.01373
 30
0.0
 10
-7.49441
 20
18.6182
 30
0.0
 10
-7.49441
 20
18.22277
 30
0.0
 10
-7.49441
 20
17.82726
 30
0.0
 10
-7.49441
 20
17.82726
 30
0.0
 10
-7.65096
 20
17.82726
 30
0.0
 10
-7.80749
 20
17.82726
 30
0.0
 10
-7.96401
 20
17.82726
 30
0.0
 10
-7.96401
 20
17.82726
 30
0.0
 10
-7.96401
 20
18.22277
 30
0.0
 10
-7.96401
 20
18.6182
 30
0.0
 10
-7.96401
 20
19.01373
 30
0.0
  0
SPLINE
  5
8D
330
1F
100
AcDbEntity
  8
Layer 1
 62
     7
100
AcDbSpline
210
0.0
220
0.0
230
1.0
 70
    11
 71
     3
 72
    20
 73
    16
 74
     0
 42
0.0000000001
 43
0.0000000001
 12
1.0
 22
0.0
 32
0.0
 13
1.0
 23
0.0
 33
0.0
 40
0.0
 40
0.0
 40
0.0
 40
0.0
 40
0.2
 40
0.2
 40
0.2
 40
0.2
 40
0.4
 40
0.4
 40
0.4
 40
0.4
 40
0.6
 40
0.6
 40
0.6
 40
0.6
 40
1.0
 40
1.0
 40
1.0
 40
1.0
 10
-8.21121
 20
18.54406
 30
0.0
 10
-8.21121
 20
18.70063
 30
0.0
 10
-8.21121
 20
18.85713
 30
0.0
 10
-8.21121
 20
19.01373
 30
0.0
 10
-8.21121
 20
19.01373
 30
0.0
 10
-8.60668
 20
19.01373
 30
0.0
 10
-9.0021
 20
19.01373
 30
0.0
 10
-9.39759
 20
19.01373
 30
0.0
 10
-9.39759
 20
19.01373
 30
0.0
 10
-9.39759
 20
18.85713
 30
0.0
 10
-9.39759
 20
18.70063
 30
0.0
 10
-9.39759
 20
18.54406
 30
0.0
 10
-9.39759
 20
18.54406
 30
0.0
 10
-9.0021
 20
18.54406
 30
0.0
 10
-8.60668
 20
18.54406
 30
0.0
 10
-8.21121
 20
18.54406
 30
0.0
  0
SPLINE
  5
8E
330
1F
100
AcDbEntity
  8
Layer 1
 62
     7
100
AcDbSpline
210
0.0
220
0.0
230
1.0
 70
    11
 71
     3
 72
    20
 73
    16
 74
     0
 42
0.0000000001
 43
0.0000000001
 12
1.0
 22
0.0
 32
0.0
 13
1.0
 23
0.0
 33
0.0
 40
0.0
 40
0.0
 40
0.0
 40
0.0
 40
0.2
 40
0.2
 40
0.2
 40
0.2
 40
0.4
 40
0.4
 40
0.4
 40
0.4
 40
0.6
 40
0.6
 40
0.6
 40
0.6
 40
1.0
 40
1.0
 40
1.0
 40
1.0
 10
-8.6808
 20
16.14653
 30
0.0
 10
-8.52428
 20
16.14653
 30
0.0
 10
-8.36773
 20
16.14653
 30
0.0
 10
-8.21121
 20
16.14653
 30
0.0
 10
-8.21121
 20
16.14653
 30
0.0
 10
-8.21121
 20
15.98997
 30
0.0
 10
-8.21121
 20
15.83339
 30
0.0
 10
-8.21121
 20
15.67687
 30
0.0
 10
-8.21121
 20
15.67687
 30
0.0
 10
-8.36773
 20
15.67687
 30
0.0
 10
-8.52428
 20
15.67687
 30
0.0
 10
-8.6808
 20
15.67687
 30
0.0
 10
-8.6808
 20
15.67687
 30
0.0
 10
-8.6808
 20
15.83339
 30
0.0
 10
-8.6808
 20
15.98997
 30
0.0
 10
-8.6808
 20
16.14653
 30
0.0
  0
SPLINE
  5
8F
330
1F
100
AcDbEntity
  8
Layer 1
 62
     7
100
AcDbSpline
210
0.0
220
0.0
230
1.0
 70
    11
 71
     3
 72
    20
 73
    16
 74
     0
 42
0.0000000001
 43
0.0000000001
 12
1.0
 22
0.0
 32
0.0
 13
1.0
 23
0.0
 33
0.0
 40
0.0
 40
0.0
 40
0.0
 40
0.0
 40
0.2
 40
0.2
 40
0.2
 40
0.2
 40
0.4
 40
0.4
 40
0.4
 40
0.4
 40
0.6
 40
0.6
 40
0.6
 40
0.6
 40
1.0
 40
1.0
 40
1.0
 40
1.0
 10
-8.928
 20
14.96012
 30
0.0
 10
-9.0845
 20
14.96012
 30
0.0
 10
-9.24109
 20
14.96012
 30
0.0
 10
-9.39759
 20
14.96012
 30
0.0
 10
-9.39759
 20
14.96012
 30
0.0
 10
-9.39759
 20
15.35558
 30
0.0
 10
-9.39759
 20
15.75108
 30
0.0
 10
-9.39759
 20
16.14653
 30
0.0
 10
-9.39759
 20
16.14653
 30
0.0
 10
-9.24109
 20
16.14653
 30
0.0
 10
-9.0845
 20
16.14653
 30
0.0
 10
-8.928
 20
16.14653
 30
0.0
 10
-8.928
 20
16.14653
 30
0.0
 10
-8.928
 20
15.75108
 30
0.0
 10
-8.928
 20
15.35558
 30
0.0
 10
-8.928
 20
14.96012
 30
0.0
  0
SPLINE
  5
90
330
1F
100
AcDbEntity
  8
Layer 1
 62
     7
100
AcDbSpline
210
0.0
220
0.0
230
1.0
 70
    11
 71
     3
 72
    20
 73
    16
 74
     0
 42
0.0000000001
 43
0.0000000001
 12
1.0
 22
0.0
 32
0.0
 13
1.0
 23
0.0
 33
0.0
 40
0.0
 40
0.0
 40
0.0
 40
0.0
 40
0.2
 40
0.2
 40
0.2
 40
0.2
 40
0.4
 40
0.4
 40
0.4
 40
0.4
 40
0.6
 40
0.6
 40
0.6
 40
0.6
 40
1.0
 40
1.0
 40
1.0
 40
1.0
 10
-7.49441
 20
15.42972
 30
0.0
 10
-7.88991
 20
15.42972
 30
0.0
 10
-8.28533
 20
15.42972
 30
0.0
 10
-8.6808
 20
15.42972
 30
0.0
 10
-8.6808
 20
15.42972
 30
0.0
 10
-8.6808
 20
15.27314
 30
0.0
 10
-8.6808
 20
15.11661
 30
0.0
 10
-8.6808
 20
14.96012
 30
0.0
 10
-8.6808
 20
14.96012
 30
0.0
 10
-8.28533
 20
14.96012
 30
0.0
 10
-7.88991
 20
14.96012
 30
0.0
 10
-7.49441
 20
14.96012
 30
0.0
 10
-7.49441
 20
14.96012
 30
0.0
 10
-7.49441
 20
15.11661
 30
0.0
 10
-7.49441
 20
15.27314
 30
0.0
 10
-7.49441
 20
15.42972
 30
0.0
  0
SPLINE
  5
91
330
1F
100
AcDbEntity
  8
Layer 1
 62
     7
100
AcDbSpline
210
0.0
220
0.0
230
1.0
 70
    11
 71
     3
 72
    20
 73
    16
 74
     0
 42
0.0000000001
 43
0.0000000001
 12
1.0
 22
0.0
 32
0.0
 13
1.0
 23
0.0
 33
0.0
 40
0.0
 40
0.0
 40
0.0
 40
0.0
 40
0.2
 40
0.2
 40
0.2
 40
0.2
 40
0.4
 40
0.4
 40
0.4
 40
0.4
 40
0.6
 40
0.6
 40
0.6
 40
0.6
 40
1.0
 40
1.0
 40
1.0
 40
1.0
 10
-7.96401
 20
16.86335
 30
0.0
 10
-7.80749
 20
16.86335
 30
0.0
 10
-7.65096
 20
16.86335
 30
0.0
 10
-7.49441
 20
16.86335
 30
0.0
 10
-7.49441
 20
16.86335
 30
0.0
 10
-7.49441
 20
16.46782
 30
0.0
 10
-7.49441
 20
16.07239
 30
0.0
 10
-7.49441
 20
15.67687
 30
0.0
 10
-7.49441
 20
15.67687
 30
0.0
 10
-7.65096
 20
15.67687
 30
0.0
 10
-7.80749
 20
15.67687
 30
0.0
 10
-7.96401
 20
15.67687
 30
0.0
 10
-7.96401
 20
15.67687
 30
0.0
 10
-7.96401
 20
16.07239
 30
0.0
 10
-7.96401
 20
16.46782
 30
0.0
 10
-7.96401
 20
16.86335
 30
0.0
  0
SPLINE
  5
92
330
1F
100
AcDbEntity
  8
Layer 1
 62
     7
100
AcDbSpline
210
0.0
220
0.0
230
1.0
 70
    11
 71
     3
 72
    20
 73
    16
 74
     0
 42
0.0000000001
 43
0.0000000001
 12
1.0
 22
0.0
 32
0.0
 13
1.0
 23
0.0
 33
0.0
 40
0.0
 40
0.0
 40
0.0
 40
0.0
 40
0.2
 40
0.2
 40
0.2
 40
0.2
 40
0.4
 40
0.4
 40
0.4
 40
0.4
 40
0.6
 40
0.6
 40
0.6
 40
0.6
 40
1.0
 40
1.0
 40
1.0
 40
1.0
 10
-8.21121
 20
16.39367
 30
0.0
 10
-8.21121
 20
16.55026
 30
0.0
 10
-8.21121
 20
16.70675
 30
0.0
 10
-8.21121
 20
16.86335
 30
0.0
 10
-8.21121
 20
16.86335
 30
0.0
 10
-8.60668
 20
16.86335
 30
0.0
 10
-9.0021
 20
16.86335
 30
0.0
 10
-9.39759
 20
16.86335
 30
0.0
 10
-9.39759
 20
16.86335
 30
0.0
 10
-9.39759
 20
16.70675
 30
0.0
 10
-9.39759
 20
16.55026
 30
0.0
 10
-9.39759
 20
16.39367
 30
0.0
 10
-9.39759
 20
16.39367
 30
0.0
 10
-9.0021
 20
16.39367
 30
0.0
 10
-8.60668
 20
16.39367
 30
0.0
 10
-8.21121
 20
16.39367
 30
0.0
  0
SPLINE
  5
93
330
1F
100
AcDbEntity
  8
Layer 1
 62
     7
100
AcDbSpline
210
0.0
220
0.0
230
1.0
 70
    11
 71
     3
 72
    20
 73
    16
 74
     0
 42
0.0000000001
 43
0.0000000001
 12
1.0
 22
0.0
 32
0.0
 13
1.0
 23
0.0
 33
0.0
 40
0.0
 40
0.0
 40
0.0
 40
0.0
 40
0.2
 40
0.2
 40
0.2
 40
0.2
 40
0.4
 40
0.4
 40
0.4
 40
0.4
 40
0.6
 40
0.6
 40
0.6
 40
0.6
 40
1.0
 40
1.0
 40
1.0
 40
1.0
 10
-8.6808
 20
13.99615
 30
0.0
 10
-8.52428
 20
13.99615
 30
0.0
 10
-8.36773
 20
13.99615
 30
0.0
 10
-8.21121
 20
13.99615
 30
0.0
 10
-8.21121
 20
13.99615
 30
0.0
 10
-8.21121
 20
13.8396
 30
0.0
 10
-8.21121
 20
13.68305
 30
0.0
 10
-8.21121
 20
13.52651
 30
0.0
 10
-8.21121
 20
13.52651
 30
0.0
 10
-8.36773
 20
13.52651
 30
0.0
 10
-8.52428
 20
13.52651
 30
0.0
 10
-8.6808
 20
13.52651
 30
0.0
 10
-8.6808
 20
13.52651
 30
0.0
 10
-8.6808
 20
13.68305
 30
0.0
 10
-8.6808
 20
13.8396
 30
0.0
 10
-8.6808
 20
13.99615
 30
0.0
  0
SPLINE
  5
94
330
1F
100
AcDbEntity
  8
Layer 1
 62
     7
100
AcDbSpline
210
0.0
220
0.0
230
1.0
 70
    11
 71
     3
 72
    20
 73
    16
 74
     0
 42
0.0000000001
 43
0.0000000001
 12
1.0
 22
0.0
 32
0.0
 13
1.0
 23
0.0
 33
0.0
 40
0.0
 40
0.0
 40
0.0
 40
0.0
 40
0.2
 40
0.2
 40
0.2
 40
0.2
 40
0.4
 40
0.4
 40
0.4
 40
0.4
 40
0.6
 40
0.6
 40
0.6
 40
0.6
 40
1.0
 40
1.0
 40
1.0
 40
1.0
 10
-8.928
 20
12.80977
 30
0.0
 10
-9.0845
 20
12.80977
 30
0.0
 10
-9.24109
 20
12.80977
 30
0.0
 10
-9.39759
 20
12.80977
 30
0.0
 10
-9.39759
 20
12.80977
 30
0.0
 10
-9.39759
 20
13.2052
 30
0.0
 10
-9.39759
 20
13.60068
 30
0.0
 10
-9.39759
 20
13.99615
 30
0.0
 10
-9.39759
 20
13.99615
 30
0.0
 10
-9.24109
 20
13.99615
 30
0.0
 10
-9.0845
 20
13.99615
 30
0.0
 10
-8.928
 20
13.99615
 30
0.0
 10
-8.928
 20
13.99615
 30
0.0
 10
-8.928
 20
13.60068
 30
0.0
 10
-8.928
 20
13.2052
 30
0.0
 10
-8.928
 20
12.80977
 30
0.0
  0
SPLINE
  5
95
330
1F
100
AcDbEntity
  8
Layer 1
 62
     7
100
AcDbSpline
210
0.0
220
0.0
230
1.0
 70
    11
 71
     3
 72
    20
 73
    16
 74
     0
 42
0.0000000001
 43
0.0000000001
 12
1.0
 22
0.0
 32
0.0
 13
1.0
 23
0.0
 33
0.0
 40
0.0
 40
0.0
 40
0.0
 40
0.0
 40
0.2
 40
0.2
 40
0.2
 40
0.2
 40
0.4
 40
0.4
 40
0.4
 40
0.4
 40
0.6
 40
0.6
 40
0.6
 40
0.6
 40
1.0
 40
1.0
 40
1.0
 40
1.0
 10
-7.49441
 20
13.27935
 30
0.0
 10
-7.88991
 20
13.27935
 30
0.0
 10
-8.28533
 20
13.27935
 30
0.0
 10
-8.6808
 20
13.27935
 30
0.0
 10
-8.6808
 20
13.27935
 30
0.0
 10
-8.6808
 20
13.12284
 30
0.0
 10
-8.6808
 20
12.96627
 30
0.0
 10
-8.6808
 20
12.80977
 30
0.0
 10
-8.6808
 20
12.80977
 30
0.0
 10
-8.28533
 20
12.80977
 30
0.0
 10
-7.88991
 20
12.80977
 30
0.0
 10
-7.49441
 20
12.80977
 30
0.0
 10
-7.49441
 20
12.80977
 30
0.0
 10
-7.49441
 20
12.96627
 30
0.0
 10
-7.49441
 20
13.12284
 30
0.0
 10
-7.49441
 20
13.27935
 30
0.0
  0
SPLINE
  5
96
330
1F
100
AcDbEntity
  8
Layer 1
 62
     7
100
AcDbSpline
210
0.0
220
0.0
230
1.0
 70
    11
 71
     3
 72
    20
 73
    16
 74
     0
 42
0.0000000001
 43
0.0000000001
 12
1.0
 22
0.0
 32
0.0
 13
1.0
 23
0.0
 33
0.0
 40
0.0
 40
0.0
 40
0.0
 40
0.0
 40
0.2
 40
0.2
 40
0.2
 40
0.2
 40
0.4
 40
0.4
 40
0.4
 40
0.4
 40
0.6
 40
0.6
 40
0.6
 40
0.6
 40
1.0
 40
1.0
 40
1.0
 40
1.0
 10
-7.96401
 20
14.71295
 30
0.0
 10
-7.80749
 20
14.71295
 30
0.0
 10
-7.65096
 20
14.71295
 30
0.0
 10
-7.49441
 20
14.71295
 30
0.0
 10
-7.49441
 20
14.71295
 30
0.0
 10
-7.49441
 20
14.31743
 30
0.0
 10
-7.49441
 20
13.92201
 30
0.0
 10
-7.49441
 20
13.52651
 30
0.0
 10
-7.49441
 20
13.52651
 30
0.0
 10
-7.65096
 20
13.52651
 30
0.0
 10
-7.80749
 20
13.52651
 30
0.0
 10
-7.96401
 20
13.52651
 30
0.0
 10
-7.96401
 20
13.52651
 30
0.0
 10
-7.96401
 20
13.92203
 30
0.0
 10
-7.96401
 20
14.31743
 30
0.0
 10
-7.96401
 20
14.71295
 30
0.0
  0
SPLINE
  5
97
330
1F
100
AcDbEntity
  8
Layer 1
 62
     7
100
AcDbSpline
210
0.0
220
0.0
230
1.0
 70
    11
 71
     3
 72
    20
 73
    16
 74
     0
 42
0.0000000001
 43
0.0000000001
 12
1.0
 22
0.0
 32
0.0
 13
1.0
 23
0.0
 33
0.0
 40
0.0
 40
0.0
 40
0.0
 40
0.0
 40
0.2
 40
0.2
 40
0.2
 40
0.2
 40
0.4
 40
0.4
 40
0.4
 40
0.4
 40
0.6
 40
0.6
 40
0.6
 40
0.6
 40
1.0
 40
1.0
 40
1.0
 40
1.0
 10
-8.21121
 20
14.24332
 30
0.0
 10
-8.21121
 20
14.39987
 30
0.0
 10
-8.21121
 20
14.55636
 30
0.0
 10
-8.21121
 20
14.71295
 30
0.0
 10
-8.21121
 20
14.71295
 30
0.0
 10
-8.60668
 20
14.71295
 30
0.0
 10
-9.0021
 20
14.71295
 30
0.0
 10
-9.39759
 20
14.71295
 30
0.0
 10
-9.39759
 20
14.71295
 30
0.0
 10
-9.39759
 20
14.55636
 30
0.0
 10
-9.39759
 20
14.39987
 30
0.0
 10
-9.39759
 20
14.24332
 30
0.0
 10
-9.39759
 20
14.24332
 30
0.0
 10
-9.0021
 20
14.24332
 30
0.0
 10
-8.60668
 20
14.24332
 30
0.0
 10
-8.21121
 20
14.24332
 30
0.0
  0
SPLINE
  5
98
330
1F
100
AcDbEntity
  8
Layer 1
 62
     7
100
AcDbSpline
210
0.0
220
0.0
230
1.0
 70
    11
 71
     3
 72
    20
 73
    16
 74
     0
 42
0.0000000001
 43
0.0000000001
 12
1.0
 22
0.0
 32
0.0
 13
1.0
 23
0.0
 33
0.0
 40
0.0
 40
0.0
 40
0.0
 40
0.0
 40
0.2
 40
0.2
 40
0.2
 40
0.2
 40
0.4
 40
0.4
 40
0.4
 40
0.4
 40
0.6
 40
0.6
 40
0.6
 40
0.6
 40
1.0
 40
1.0
 40
1.0
 40
1.0
 10
-8.6808
 20
11.84578
 30
0.0
 10
-8.52428
 20
11.84578
 30
0.0
 10
-8.36773
 20
11.84578
 30
0.0
 10
-8.21121
 20
11.84578
 30
0.0
 10
-8.21121
 20
11.84578
 30
0.0
 10
-8.21121
 20
11.68924
 30
0.0
 10
-8.21121
 20
11.53267
 30
0.0
 10
-8.21121
 20
11.37615
 30
0.0
 10
-8.21121
 20
11.37615
 30
0.0
 10
-8.36773
 20
11.37615
 30
0.0
 10
-8.52428
 20
11.37615
 30
0.0
 10
-8.6808
 20
11.37615
 30
0.0
 10
-8.6808
 20
11.37615
 30
0.0
 10
-8.6808
 20
11.53267
 30
0.0
 10
-8.6808
 20
11.68924
 30
0.0
 10
-8.6808
 20
11.84578
 30
0.0
  0
SPLINE
  5
99
330
1F
100
AcDbEntity
  8
Layer 1
 62
     7
100
AcDbSpline
210
0.0
220
0.0
230
1.0
 70
    11
 71
     3
 72
    20
 73
    16
 74
     0
 42
0.0000000001
 43
0.0000000001
 12
1.0
 22
0.0
 32
0.0
 13
1.0
 23
0.0
 33
0.0
 40
0.0
 40
0.0
 40
0.0
 40
0.0
 40
0.2
 40
0.2
 40
0.2
 40
0.2
 40
0.4
 40
0.4
 40
0.4
 40
0.4
 40
0.6
 40
0.6
 40
0.6
 40
0.6
 40
1.0
 40
1.0
 40
1.0
 40
1.0
 10
-8.928
 20
10.65936
 30
0.0
 10
-9.0845
 20
10.65936
 30
0.0
 10
-9.24109
 20
10.65936
 30
0.0
 10
-9.39759
 20
10.65936
 30
0.0
 10
-9.39759
 20
10.65936
 30
0.0
 10
-9.39759
 20
11.05481
 30
0.0
 10
-9.39759
 20
11.4503
 30
0.0
 10
-9.39759
 20
11.84578
 30
0.0
 10
-9.39759
 20
11.84578
 30
0.0
 10
-9.24109
 20
11.84578
 30
0.0
 10
-9.0845
 20
11.84578
 30
0.0
 10
-8.928
 20
11.84578
 30
0.0
 10
-8.928
 20
11.84578
 30
0.0
 10
-8.928
 20
11.4503
 30
0.0
 10
-8.928
 20
11.05483
 30
0.0
 10
-8.928
 20
10.65936
 30
0.0
  0
SPLINE
  5
9A
330
1F
100
AcDbEntity
  8
Layer 1
 62
     7
100
AcDbSpline
210
0.0
220
0.0
230
1.0
 70
    11
 71
     3
 72
    20
 73
    16
 74
     0
 42
0.0000000001
 43
0.0000000001
 12
1.0
 22
0.0
 32
0.0
 13
1.0
 23
0.0
 33
0.0
 40
0.0
 40
0.0
 40
0.0
 40
0.0
 40
0.2
 40
0.2
 40
0.2
 40
0.2
 40
0.4
 40
0.4
 40
0.4
 40
0.4
 40
0.6
 40
0.6
 40
0.6
 40
0.6
 40
1.0
 40
1.0
 40
1.0
 40
1.0
 10
-7.49441
 20
11.12896
 30
0.0
 10
-7.88991
 20
11.12896
 30
0.0
 10
-8.28533
 20
11.12896
 30
0.0
 10
-8.6808
 20
11.12896
 30
0.0
 10
-8.6808
 20
11.12896
 30
0.0
 10
-8.6808
 20
10.97247
 30
0.0
 10
-8.6808
 20
10.81587
 30
0.0
 10
-8.6808
 20
10.65936
 30
0.0
 10
-8.6808
 20
10.65936
 30
0.0
 10
-8.28533
 20
10.65936
 30
0.0
 10
-7.88991
 20
10.65936
 30
0.0
 10
-7.49441
 20
10.65936
 30
0.0
 10
-7.49441
 20
10.65936
 30
0.0
 10
-7.49441
 20
10.81587
 30
0.0
 10
-7.49441
 20
10.97247
 30
0.0
 10
-7.49441
 20
11.12896
 30
0.0
  0
SPLINE
  5
9B
330
1F
100
AcDbEntity
  8
Layer 1
 62
     7
100
AcDbSpline
210
0.0
220
0.0
230
1.0
 70
    11
 71
     3
 72
    20
 73
    16
 74
     0
 42
0.0000000001
 43
0.0000000001
 12
1.0
 22
0.0
 32
0.0
 13
1.0
 23
0.0
 33
0.0
 40
0.0
 40
0.0
 40
0.0
 40
0.0
 40
0.2
 40
0.2
 40
0.2
 40
0.2
 40
0.4
 40
0.4
 40
0.4
 40
0.4
 40
0.6
 40
0.6
 40
0.6
 40
0.6
 40
1.0
 40
1.0
 40
1.0
 40
1.0
 10
-7.96401
 20
12.56259
 30
0.0
 10
-7.80749
 20
12.56259
 30
0.0
 10
-7.65096
 20
12.56259
 30
0.0
 10
-7.49441
 20
12.56259
 30
0.0
 10
-7.49441
 20
12.56259
 30
0.0
 10
-7.49441
 20
12.16707
 30
0.0
 10
-7.49441
 20
11.77164
 30
0.0
 10
-7.49441
 20
11.37615
 30
0.0
 10
-7.49441
 20
11.37615
 30
0.0
 10
-7.65096
 20
11.37615
 30
0.0
 10
-7.80749
 20
11.37615
 30
0.0
 10
-7.96401
 20
11.37615
 30
0.0
 10
-7.96401
 20
11.37615
 30
0.0
 10
-7.96401
 20
11.77165
 30
0.0
 10
-7.96401
 20
12.16707
 30
0.0
 10
-7.96401
 20
12.56259
 30
0.0
  0
SPLINE
  5
9C
330
1F
100
AcDbEntity
  8
Layer 1
 62
     7
100
AcDbSpline
210
0.0
220
0.0
230
1.0
 70
    11
 71
     3
 72
    20
 73
    16
 74
     0
 42
0.0000000001
 43
0.0000000001
 12
1.0
 22
0.0
 32
0.0
 13
1.0
 23
0.0
 33
0.0
 40
0.0
 40
0.0
 40
0.0
 40
0.0
 40
0.2
 40
0.2
 40
0.2
 40
0.2
 40
0.4
 40
0.4
 40
0.4
 40
0.4
 40
0.6
 40
0.6
 40
0.6
 40
0.6
 40
1.0
 40
1.0
 40
1.0
 40
1.0
 10
-8.21121
 20
12.09296
 30
0.0
 10
-8.21121
 20
12.2495
 30
0.0
 10
-8.21121
 20
12.40608
 30
0.0
 10
-8.21121
 20
12.56259
 30
0.0
 10
-8.21121
 20
12.56259
 30
0.0
 10
-8.60668
 20
12.56259
 30
0.0
 10
-9.0021
 20
12.56259
 30
0.0
 10
-9.39759
 20
12.56259
 30
0.0
 10
-9.39759
 20
12.56259
 30
0.0
 10
-9.39759
 20
12.40608
 30
0.0
 10
-9.39759
 20
12.2495
 30
0.0
 10
-9.39759
 20
12.09296
 30
0.0
 10
-9.39759
 20
12.09296
 30
0.0
 10
-9.0021
 20
12.09296
 30
0.0
 10
-8.60668
 20
12.09296
 30
0.0
 10
-8.21121
 20
12.09296
 30
0.0
  0
SPLINE
  5
9D
330
1F
100
AcDbEntity
  8
Layer 1
 62
     7
100
AcDbSpline
210
0.0
220
0.0
230
1.0
 70
    11
 71
     3
 72
    20
 73
    16
 74
     0
 42
0.0000000001
 43
0.0000000001
 12
1.0
 22
0.0
 32
0.0
 13
1.0
 23
0.0
 33
0.0
 40
0.0
 40
0.0
 40
0.0
 40
0.0
 40
0.2
 40
0.2
 40
0.2
 40
0.2
 40
0.4
 40
0.4
 40
0.4
 40
0.4
 40
0.6
 40
0.6
 40
0.6
 40
0.6
 40
1.0
 40
1.0
 40
1.0
 40
1.0
 10
-8.6808
 20
9.6954
 30
0.0
 10
-8.52428
 20
9.6954
 30
0.0
 10
-8.36773
 20
9.6954
 30
0.0
 10
-8.21121
 20
9.6954
 30
0.0
 10
-8.21121
 20
9.6954
 30
0.0
 10
-8.21121
 20
9.53887
 30
0.0
 10
-8.21121
 20
9.3823
 30
0.0
 10
-8.21121
 20
9.22576
 30
0.0
 10
-8.21121
 20
9.22576
 30
0.0
 10
-8.36773
 20
9.22576
 30
0.0
 10
-8.52428
 20
9.22576
 30
0.0
 10
-8.6808
 20
9.22576
 30
0.0
 10
-8.6808
 20
9.22576
 30
0.0
 10
-8.6808
 20
9.3823
 30
0.0
 10
-8.6808
 20
9.53887
 30
0.0
 10
-8.6808
 20
9.6954
 30
0.0
  0
SPLINE
  5
9E
330
1F
100
AcDbEntity
  8
Layer 1
 62
     7
100
AcDbSpline
210
0.0
220
0.0
230
1.0
 70
    11
 71
     3
 72
    20
 73
    16
 74
     0
 42
0.0000000001
 43
0.0000000001
 12
1.0
 22
0.0
 32
0.0
 13
1.0
 23
0.0
 33
0.0
 40
0.0
 40
0.0
 40
0.0
 40
0.0
 40
0.2
 40
0.2
 40
0.2
 40
0.2
 40
0.4
 40
0.4
 40
0.4
 40
0.4
 40
0.6
 40
0.6
 40
0.6
 40
0.6
 40
1.0
 40
1.0
 40
1.0
 40
1.0
 10
-8.928
 20
8.50898
 30
0.0
 10
-9.0845
 20
8.50898
 30
0.0
 10
-9.24109
 20
8.50898
 30
0.0
 10
-9.39759
 20
8.50898
 30
0.0
 10
-9.39759
 20
8.50898
 30
0.0
 10
-9.39759
 20
8.90446
 30
0.0
 10
-9.39759
 20
9.2999
 30
0.0
 10
-9.39759
 20
9.6954
 30
0.0
 10
-9.39759
 20
9.6954
 30
0.0
 10
-9.24109
 20
9.6954
 30
0.0
 10
-9.0845
 20
9.6954
 30
0.0
 10
-8.928
 20
9.6954
 30
0.0
 10
-8.928
 20
9.6954
 30
0.0
 10
-8.928
 20
9.2999
 30
0.0
 10
-8.928
 20
8.90448
 30
0.0
 10
-8.928
 20
8.50898
 30
0.0
  0
SPLINE
  5
9F
330
1F
100
AcDbEntity
  8
Layer 1
 62
     7
100
AcDbSpline
210
0.0
220
0.0
230
1.0
 70
    11
 71
     3
 72
    20
 73
    16
 74
     0
 42
0.0000000001
 43
0.0000000001
 12
1.0
 22
0.0
 32
0.0
 13
1.0
 23
0.0
 33
0.0
 40
0.0
 40
0.0
 40
0.0
 40
0.0
 40
0.2
 40
0.2
 40
0.2
 40
0.2
 40
0.4
 40
0.4
 40
0.4
 40
0.4
 40
0.6
 40
0.6
 40
0.6
 40
0.6
 40
1.0
 40
1.0
 40
1.0
 40
1.0
 10
-7.49441
 20
8.97857
 30
0.0
 10
-7.88991
 20
8.97857
 30
0.0
 10
-8.28533
 20
8.97857
 30
0.0
 10
-8.6808
 20
8.97857
 30
0.0
 10
-8.6808
 20
8.97857
 30
0.0
 10
-8.6808
 20
8.82207
 30
0.0
 10
-8.6808
 20
8.66549
 30
0.0
 10
-8.6808
 20
8.50898
 30
0.0
 10
-8.6808
 20
8.50898
 30
0.0
 10
-8.28533
 20
8.50898
 30
0.0
 10
-7.88991
 20
8.50898
 30
0.0
 10
-7.49441
 20
8.50898
 30
0.0
 10
-7.49441
 20
8.50898
 30
0.0
 10
-7.49441
 20
8.66549
 30
0.0
 10
-7.49441
 20
8.82207
 30
0.0
 10
-7.49441
 20
8.97857
 30
0.0
  0
SPLINE
  5
A0
330
1F
100
AcDbEntity
  8
Layer 1
 62
     7
100
AcDbSpline
210
0.0
220
0.0
230
1.0
 70
    11
 71
     3
 72
    20
 73
    16
 74
     0
 42
0.0000000001
 43
0.0000000001
 12
1.0
 22
0.0
 32
0.0
 13
1.0
 23
0.0
 33
0.0
 40
0.0
 40
0.0
 40
0.0
 40
0.0
 40
0.2
 40
0.2
 40
0.2
 40
0.2
 40
0.4
 40
0.4
 40
0.4
 40
0.4
 40
0.6
 40
0.6
 40
0.6
 40
0.6
 40
1.0
 40
1.0
 40
1.0
 40
1.0
 10
-7.96401
 20
10.41217
 30
0.0
 10
-7.80749
 20
10.41217
 30
0.0
 10
-7.65096
 20
10.41217
 30
0.0
 10
-7.49441
 20
10.41217
 30
0.0
 10
-7.49441
 20
10.41217
 30
0.0
 10
-7.49441
 20
10.01668
 30
0.0
 10
-7.49441
 20
9.62127
 30
0.0
 10
-7.49441
 20
9.22576
 30
0.0
 10
-7.49441
 20
9.22576
 30
0.0
 10
-7.65096
 20
9.22576
 30
0.0
 10
-7.80749
 20
9.22576
 30
0.0
 10
-7.96401
 20
9.22576
 30
0.0
 10
-7.96401
 20
9.22576
 30
0.0
 10
-7.96401
 20
9.62127
 30
0.0
 10
-7.96401
 20
10.01668
 30
0.0
 10
-7.96401
 20
10.41217
 30
0.0
  0
SPLINE
  5
A1
330
1F
100
AcDbEntity
  8
Layer 1
 62
     7
100
AcDbSpline
210
0.0
220
0.0
230
1.0
 70
    11
 71
     3
 72
    20
 73
    16
 74
     0
 42
0.0000000001
 43
0.0000000001
 12
1.0
 22
0.0
 32
0.0
 13
1.0
 23
0.0
 33
0.0
 40
0.0
 40
0.0
 40
0.0
 40
0.0
 40
0.2
 40
0.2
 40
0.2
 40
0.2
 40
0.4
 40
0.4
 40
0.4
 40
0.4
 40
0.6
 40
0.6
 40
0.6
 40
0.6
 40
1.0
 40
1.0
 40
1.0
 40
1.0
 10
-8.21121
 20
9.94258
 30
0.0
 10
-8.21121
 20
10.0991
 30
0.0
 10
-8.21121
 20
10.2557
 30
0.0
 10
-8.21121
 20
10.41217
 30
0.0
 10
-8.21121
 20
10.41217
 30
0.0
 10
-8.60668
 20
10.41217
 30
0.0
 10
-9.0021
 20
10.41217
 30
0.0
 10
-9.39759
 20
10.41217
 30
0.0
 10
-9.39759
 20
10.41217
 30
0.0
 10
-9.39759
 20
10.2557
 30
0.0
 10
-9.39759
 20
10.0991
 30
0.0
 10
-9.39759
 20
9.94258
 30
0.0
 10
-9.39759
 20
9.94258
 30
0.0
 10
-9.0021
 20
9.94258
 30
0.0
 10
-8.60668
 20
9.94258
 30
0.0
 10
-8.21121
 20
9.94258
 30
0.0
  0
SPLINE
  5
A2
330
1F
100
AcDbEntity
  8
Layer 1
 62
     7
100
AcDbSpline
210
0.0
220
0.0
230
1.0
 70
    11
 71
     3
 72
    20
 73
    16
 74
     0
 42
0.0000000001
 43
0.0000000001
 12
1.0
 22
0.0
 32
0.0
 13
1.0
 23
0.0
 33
0.0
 40
0.0
 40
0.0
 40
0.0
 40
0.0
 40
0.2
 40
0.2
 40
0.2
 40
0.2
 40
0.4
 40
0.4
 40
0.4
 40
0.4
 40
0.6
 40
0.6
 40
0.6
 40
0.6
 40
1.0
 40
1.0
 40
1.0
 40
1.0
 10
-6.53043
 20
18.29691
 30
0.0
 10
-6.37388
 20
18.29691
 30
0.0
 10
-6.21733
 20
18.29691
 30
0.0
 10
-6.06085
 20
18.29691
 30
0.0
 10
-6.06085
 20
18.29691
 30
0.0
 10
-6.06085
 20
18.14035
 30
0.0
 10
-6.06085
 20
17.9838
 30
0.0
 10
-6.06085
 20
17.82726
 30
0.0
 10
-6.06085
 20
17.82726
 30
0.0
 10
-6.21733
 20
17.82726
 30
0.0
 10
-6.37388
 20
17.82726
 30
0.0
 10
-6.53043
 20
17.82726
 30
0.0
 10
-6.53043
 20
17.82726
 30
0.0
 10
-6.53043
 20
17.9838
 30
0.0
 10
-6.53043
 20
18.14035
 30
0.0
 10
-6.53043
 20
18.29691
 30
0.0
  0
SPLINE
  5
A3
330
1F
100
AcDbEntity
  8
Layer 1
 62
     7
100
AcDbSpline
210
0.0
220
0.0
230
1.0
 70
    11
 71
     3
 72
    20
 73
    16
 74
     0
 42
0.0000000001
 43
0.0000000001
 12
1.0
 22
0.0
 32
0.0
 13
1.0
 23
0.0
 33
0.0
 40
0.0
 40
0.0
 40
0.0
 40
0.0
 40
0.2
 40
0.2
 40
0.2
 40
0.2
 40
0.4
 40
0.4
 40
0.4
 40
0.4
 40
0.6
 40
0.6
 40
0.6
 40
0.6
 40
1.0
 40
1.0
 40
1.0
 40
1.0
 10
-6.7776
 20
17.1105
 30
0.0
 10
-6.93413
 20
17.1105
 30
0.0
 10
-7.09074
 20
17.1105
 30
0.0
 10
-7.24722
 20
17.1105
 30
0.0
 10
-7.24722
 20
17.1105
 30
0.0
 10
-7.24722
 20
17.50593
 30
0.0
 10
-7.24722
 20
17.90143
 30
0.0
 10
-7.24722
 20
18.29691
 30
0.0
 10
-7.24722
 20
18.29691
 30
0.0
 10
-7.09074
 20
18.29691
 30
0.0
 10
-6.93413
 20
18.29691
 30
0.0
 10
-6.7776
 20
18.29691
 30
0.0
 10
-6.7776
 20
18.29691
 30
0.0
 10
-6.7776
 20
17.90143
 30
0.0
 10
-6.7776
 20
17.50593
 30
0.0
 10
-6.7776
 20
17.1105
 30
0.0
  0
SPLINE
  5
A4
330
1F
100
AcDbEntity
  8
Layer 1
 62
     7
100
AcDbSpline
210
0.0
220
0.0
230
1.0
 70
    11
 71
     3
 72
    20
 73
    16
 74
     0
 42
0.0000000001
 43
0.0000000001
 12
1.0
 22
0.0
 32
0.0
 13
1.0
 23
0.0
 33
0.0
 40
0.0
 40
0.0
 40
0.0
 40
0.0
 40
0.2
 40
0.2
 40
0.2
 40
0.2
 40
0.4
 40
0.4
 40
0.4
 40
0.4
 40
0.6
 40
0.6
 40
0.6
 40
0.6
 40
1.0
 40
1.0
 40
1.0
 40
1.0
 10
-5.34406
 20
17.58011
 30
0.0
 10
-5.7395
 20
17.58011
 30
0.0
 10
-6.13503
 20
17.58011
 30
0.0
 10
-6.53043
 20
17.58011
 30
0.0
 10
-6.53043
 20
17.58011
 30
0.0
 10
-6.53043
 20
17.42355
 30
0.0
 10
-6.53043
 20
17.26702
 30
0.0
 10
-6.53043
 20
17.1105
 30
0.0
 10
-6.53043
 20
17.1105
 30
0.0
 10
-6.13503
 20
17.1105
 30
0.0
 10
-5.7395
 20
17.1105
 30
0.0
 10
-5.34406
 20
17.1105
 30
0.0
 10
-5.34406
 20
17.1105
 30
0.0
 10
-5.34406
 20
17.26702
 30
0.0
 10
-5.34406
 20
17.42355
 30
0.0
 10
-5.34406
 20
17.58011
 30
0.0
  0
SPLINE
  5
A5
330
1F
100
AcDbEntity
  8
Layer 1
 62
     7
100
AcDbSpline
210
0.0
220
0.0
230
1.0
 70
    11
 71
     3
 72
    20
 73
    16
 74
     0
 42
0.0000000001
 43
0.0000000001
 12
1.0
 22
0.0
 32
0.0
 13
1.0
 23
0.0
 33
0.0
 40
0.0
 40
0.0
 40
0.0
 40
0.0
 40
0.2
 40
0.2
 40
0.2
 40
0.2
 40
0.4
 40
0.4
 40
0.4
 40
0.4
 40
0.6
 40
0.6
 40
0.6
 40
0.6
 40
1.0
 40
1.0
 40
1.0
 40
1.0
 10
-5.81359
 20
19.01373
 30
0.0
 10
-5.65713
 20
19.01373
 30
0.0
 10
-5.50057
 20
19.01373
 30
0.0
 10
-5.34406
 20
19.01373
 30
0.0
 10
-5.34406
 20
19.01373
 30
0.0
 10
-5.34406
 20
18.6182
 30
0.0
 10
-5.34406
 20
18.22277
 30
0.0
 10
-5.34406
 20
17.82726
 30
0.0
 10
-5.34406
 20
17.82726
 30
0.0
 10
-5.50057
 20
17.82726
 30
0.0
 10
-5.65713
 20
17.82726
 30
0.0
 10
-5.81359
 20
17.82726
 30
0.0
 10
-5.81359
 20
17.82726
 30
0.0
 10
-5.81359
 20
18.22277
 30
0.0
 10
-5.81359
 20
18.6182
 30
0.0
 10
-5.81359
 20
19.01373
 30
0.0
  0
SPLINE
  5
A6
330
1F
100
AcDbEntity
  8
Layer 1
 62
     7
100
AcDbSpline
210
0.0
220
0.0
230
1.0
 70
    11
 71
     3
 72
    20
 73
    16
 74
     0
 42
0.0000000001
 43
0.0000000001
 12
1.0
 22
0.0
 32
0.0
 13
1.0
 23
0.0
 33
0.0
 40
0.0
 40
0.0
 40
0.0
 40
0.0
 40
0.2
 40
0.2
 40
0.2
 40
0.2
 40
0.4
 40
0.4
 40
0.4
 40
0.4
 40
0.6
 40
0.6
 40
0.6
 40
0.6
 40
1.0
 40
1.0
 40
1.0
 40
1.0
 10
-6.06085
 20
18.54406
 30
0.0
 10
-6.06085
 20
18.70063
 30
0.0
 10
-6.06085
 20
18.85713
 30
0.0
 10
-6.06085
 20
19.01373
 30
0.0
 10
-6.06085
 20
19.01373
 30
0.0
 10
-6.45631
 20
19.01373
 30
0.0
 10
-6.85179
 20
19.01373
 30
0.0
 10
-7.24722
 20
19.01373
 30
0.0
 10
-7.24722
 20
19.01373
 30
0.0
 10
-7.24722
 20
18.85713
 30
0.0
 10
-7.24722
 20
18.70063
 30
0.0
 10
-7.24722
 20
18.54406
 30
0.0
 10
-7.24722
 20
18.54406
 30
0.0
 10
-6.85179
 20
18.54406
 30
0.0
 10
-6.45631
 20
18.54406
 30
0.0
 10
-6.06085
 20
18.54406
 30
0.0
  0
SPLINE
  5
A7
330
1F
100
AcDbEntity
  8
Layer 1
 62
     7
100
AcDbSpline
210
0.0
220
0.0
230
1.0
 70
    11
 71
     3
 72
    20
 73
    16
 74
     0
 42
0.0000000001
 43
0.0000000001
 12
1.0
 22
0.0
 32
0.0
 13
1.0
 23
0.0
 33
0.0
 40
0.0
 40
0.0
 40
0.0
 40
0.0
 40
0.2
 40
0.2
 40
0.2
 40
0.2
 40
0.4
 40
0.4
 40
0.4
 40
0.4
 40
0.6
 40
0.6
 40
0.6
 40
0.6
 40
1.0
 40
1.0
 40
1.0
 40
1.0
 10
-6.53043
 20
16.14653
 30
0.0
 10
-6.37388
 20
16.14653
 30
0.0
 10
-6.21733
 20
16.14653
 30
0.0
 10
-6.06085
 20
16.14653
 30
0.0
 10
-6.06085
 20
16.14653
 30
0.0
 10
-6.06085
 20
15.98997
 30
0.0
 10
-6.06085
 20
15.83339
 30
0.0
 10
-6.06085
 20
15.67687
 30
0.0
 10
-6.06085
 20
15.67687
 30
0.0
 10
-6.21733
 20
15.67687
 30
0.0
 10
-6.37388
 20
15.67687
 30
0.0
 10
-6.53043
 20
15.67687
 30
0.0
 10
-6.53043
 20
15.67687
 30
0.0
 10
-6.53043
 20
15.83339
 30
0.0
 10
-6.53043
 20
15.98997
 30
0.0
 10
-6.53043
 20
16.14653
 30
0.0
  0
SPLINE
  5
A8
330
1F
100
AcDbEntity
  8
Layer 1
 62
     7
100
AcDbSpline
210
0.0
220
0.0
230
1.0
 70
    11
 71
     3
 72
    20
 73
    16
 74
     0
 42
0.0000000001
 43
0.0000000001
 12
1.0
 22
0.0
 32
0.0
 13
1.0
 23
0.0
 33
0.0
 40
0.0
 40
0.0
 40
0.0
 40
0.0
 40
0.2
 40
0.2
 40
0.2
 40
0.2
 40
0.4
 40
0.4
 40
0.4
 40
0.4
 40
0.6
 40
0.6
 40
0.6
 40
0.6
 40
1.0
 40
1.0
 40
1.0
 40
1.0
 10
-6.7776
 20
14.96012
 30
0.0
 10
-6.93413
 20
14.96012
 30
0.0
 10
-7.09074
 20
14.96012
 30
0.0
 10
-7.24722
 20
14.96012
 30
0.0
 10
-7.24722
 20
14.96012
 30
0.0
 10
-7.24722
 20
15.35558
 30
0.0
 10
-7.24722
 20
15.75108
 30
0.0
 10
-7.24722
 20
16.14653
 30
0.0
 10
-7.24722
 20
16.14653
 30
0.0
 10
-7.09074
 20
16.14653
 30
0.0
 10
-6.93413
 20
16.14653
 30
0.0
 10
-6.7776
 20
16.14653
 30
0.0
 10
-6.7776
 20
16.14653
 30
0.0
 10
-6.7776
 20
15.75108
 30
0.0
 10
-6.7776
 20
15.35558
 30
0.0
 10
-6.7776
 20
14.96012
 30
0.0
  0
SPLINE
  5
A9
330
1F
100
AcDbEntity
  8
Layer 1
 62
     7
100
AcDbSpline
210
0.0
220
0.0
230
1.0
 70
    11
 71
     3
 72
    20
 73
    16
 74
     0
 42
0.0000000001
 43
0.0000000001
 12
1.0
 22
0.0
 32
0.0
 13
1.0
 23
0.0
 33
0.0
 40
0.0
 40
0.0
 40
0.0
 40
0.0
 40
0.2
 40
0.2
 40
0.2
 40
0.2
 40
0.4
 40
0.4
 40
0.4
 40
0.4
 40
0.6
 40
0.6
 40
0.6
 40
0.6
 40
1.0
 40
1.0
 40
1.0
 40
1.0
 10
-5.34406
 20
15.42972
 30
0.0
 10
-5.7395
 20
15.42972
 30
0.0
 10
-6.13503
 20
15.42972
 30
0.0
 10
-6.53043
 20
15.42972
 30
0.0
 10
-6.53043
 20
15.42972
 30
0.0
 10
-6.53043
 20
15.27314
 30
0.0
 10
-6.53043
 20
15.11661
 30
0.0
 10
-6.53043
 20
14.96012
 30
0.0
 10
-6.53043
 20
14.96012
 30
0.0
 10
-6.13503
 20
14.96012
 30
0.0
 10
-5.7395
 20
14.96012
 30
0.0
 10
-5.34406
 20
14.96012
 30
0.0
 10
-5.34406
 20
14.96012
 30
0.0
 10
-5.34406
 20
15.11661
 30
0.0
 10
-5.34406
 20
15.27314
 30
0.0
 10
-5.34406
 20
15.42972
 30
0.0
  0
SPLINE
  5
AA
330
1F
100
AcDbEntity
  8
Layer 1
 62
     7
100
AcDbSpline
210
0.0
220
0.0
230
1.0
 70
    11
 71
     3
 72
    20
 73
    16
 74
     0
 42
0.0000000001
 43
0.0000000001
 12
1.0
 22
0.0
 32
0.0
 13
1.0
 23
0.0
 33
0.0
 40
0.0
 40
0.0
 40
0.0
 40
0.0
 40
0.2
 40
0.2
 40
0.2
 40
0.2
 40
0.4
 40
0.4
 40
0.4
 40
0.4
 40
0.6
 40
0.6
 40
0.6
 40
0.6
 40
1.0
 40
1.0
 40
1.0
 40
1.0
 10
-5.81359
 20
16.86335
 30
0.0
 10
-5.65713
 20
16.86335
 30
0.0
 10
-5.50057
 20
16.86335
 30
0.0
 10
-5.34406
 20
16.86335
 30
0.0
 10
-5.34406
 20
16.86335
 30
0.0
 10
-5.34406
 20
16.46782
 30
0.0
 10
-5.34406
 20
16.07239
 30
0.0
 10
-5.34406
 20
15.67687
 30
0.0
 10
-5.34406
 20
15.67687
 30
0.0
 10
-5.50057
 20
15.67687
 30
0.0
 10
-5.65713
 20
15.67687
 30
0.0
 10
-5.81359
 20
15.67687
 30
0.0
 10
-5.81359
 20
15.67687
 30
0.0
 10
-5.81359
 20
16.07239
 30
0.0
 10
-5.81359
 20
16.46782
 30
0.0
 10
-5.81359
 20
16.86335
 30
0.0
  0
SPLINE
  5
AB
330
1F
100
AcDbEntity
  8
Layer 1
 62
     7
100
AcDbSpline
210
0.0
220
0.0
230
1.0
 70
    11
 71
     3
 72
    20
 73
    16
 74
     0
 42
0.0000000001
 43
0.0000000001
 12
1.0
 22
0.0
 32
0.0
 13
1.0
 23
0.0
 33
0.0
 40
0.0
 40
0.0
 40
0.0
 40
0.0
 40
0.2
 40
0.2
 40
0.2
 40
0.2
 40
0.4
 40
0.4
 40
0.4
 40
0.4
 40
0.6
 40
0.6
 40
0.6
 40
0.6
 40
1.0
 40
1.0
 40
1.0
 40
1.0
 10
-6.06085
 20
16.39367
 30
0.0
 10
-6.06085
 20
16.55026
 30
0.0
 10
-6.06085
 20
16.70675
 30
0.0
 10
-6.06085
 20
16.86335
 30
0.0
 10
-6.06085
 20
16.86335
 30
0.0
 10
-6.45631
 20
16.86335
 30
0.0
 10
-6.85179
 20
16.86335
 30
0.0
 10
-7.24722
 20
16.86335
 30
0.0
 10
-7.24722
 20
16.86335
 30
0.0
 10
-7.24722
 20
16.70675
 30
0.0
 10
-7.24722
 20
16.55026
 30
0.0
 10
-7.24722
 20
16.39367
 30
0.0
 10
-7.24722
 20
16.39367
 30
0.0
 10
-6.85179
 20
16.39367
 30
0.0
 10
-6.45631
 20
16.39367
 30
0.0
 10
-6.06085
 20
16.39367
 30
0.0
  0
SPLINE
  5
AC
330
1F
100
AcDbEntity
  8
Layer 1
 62
     7
100
AcDbSpline
210
0.0
220
0.0
230
1.0
 70
    11
 71
     3
 72
    20
 73
    16
 74
     0
 42
0.0000000001
 43
0.0000000001
 12
1.0
 22
0.0
 32
0.0
 13
1.0
 23
0.0
 33
0.0
 40
0.0
 40
0.0
 40
0.0
 40
0.0
 40
0.2
 40
0.2
 40
0.2
 40
0.2
 40
0.4
 40
0.4
 40
0.4
 40
0.4
 40
0.6
 40
0.6
 40
0.6
 40
0.6
 40
1.0
 40
1.0
 40
1.0
 40
1.0
 10
-6.53043
 20
13.99615
 30
0.0
 10
-6.37388
 20
13.99615
 30
0.0
 10
-6.21733
 20
13.99615
 30
0.0
 10
-6.06085
 20
13.99615
 30
0.0
 10
-6.06085
 20
13.99615
 30
0.0
 10
-6.06085
 20
13.8396
 30
0.0
 10
-6.06085
 20
13.68305
 30
0.0
 10
-6.06085
 20
13.52651
 30
0.0
 10
-6.06085
 20
13.52651
 30
0.0
 10
-6.21733
 20
13.52651
 30
0.0
 10
-6.37388
 20
13.52651
 30
0.0
 10
-6.53043
 20
13.52651
 30
0.0
 10
-6.53043
 20
13.52651
 30
0.0
 10
-6.53043
 20
13.68305
 30
0.0
 10
-6.53043
 20
13.8396
 30
0.0
 10
-6.53043
 20
13.99615
 30
0.0
  0
SPLINE
  5
AD
330
1F
100
AcDbEntity
  8
Layer 1
 62
     7
100
AcDbSpline
210
0.0
220
0.0
230
1.0
 70
    11
 71
     3
 72
    20
 73
    16
 74
     0
 42
0.0000000001
 43
0.0000000001
 12
1.0
 22
0.0
 32
0.0
 13
1.0
 23
0.0
 33
0.0
 40
0.0
 40
0.0
 40
0.0
 40
0.0
 40
0.2
 40
0.2
 40
0.2
 40
0.2
 40
0.4
 40
0.4
 40
0.4
 40
0.4
 40
0.6
 40
0.6
 40
0.6
 40
0.6
 40
1.0
 40
1.0
 40
1.0
 40
1.0
 10
-6.7776
 20
12.80977
 30
0.0
 10
-6.93413
 20
12.80977
 30
0.0
 10
-7.09074
 20
12.80977
 30
0.0
 10
-7.24722
 20
12.80977
 30
0.0
 10
-7.24722
 20
12.80977
 30
0.0
 10
-7.24722
 20
13.2052
 30
0.0
 10
-7.24722
 20
13.60068
 30
0.0
 10
-7.24722
 20
13.99615
 30
0.0
 10
-7.24722
 20
13.99615
 30
0.0
 10
-7.09074
 20
13.99615
 30
0.0
 10
-6.93413
 20
13.99615
 30
0.0
 10
-6.7776
 20
13.99615
 30
0.0
 10
-6.7776
 20
13.99615
 30
0.0
 10
-6.7776
 20
13.60068
 30
0.0
 10
-6.7776
 20
13.2052
 30
0.0
 10
-6.7776
 20
12.80977
 30
0.0
  0
SPLINE
  5
AE
330
1F
100
AcDbEntity
  8
Layer 1
 62
     7
100
AcDbSpline
210
0.0
220
0.0
230
1.0
 70
    11
 71
     3
 72
    20
 73
    16
 74
     0
 42
0.0000000001
 43
0.0000000001
 12
1.0
 22
0.0
 32
0.0
 13
1.0
 23
0.0
 33
0.0
 40
0.0
 40
0.0
 40
0.0
 40
0.0
 40
0.2
 40
0.2
 40
0.2
 40
0.2
 40
0.4
 40
0.4
 40
0.4
 40
0.4
 40
0.6
 40
0.6
 40
0.6
 40
0.6
 40
1.0
 40
1.0
 40
1.0
 40
1.0
 10
-5.34406
 20
13.27935
 30
0.0
 10
-5.7395
 20
13.27935
 30
0.0
 10
-6.13503
 20
13.27935
 30
0.0
 10
-6.53043
 20
13.27935
 30
0.0
 10
-6.53043
 20
13.27935
 30
0.0
 10
-6.53043
 20
13.12284
 30
0.0
 10
-6.53043
 20
12.96627
 30
0.0
 10
-6.53043
 20
12.80977
 30
0.0
 10
-6.53043
 20
12.80977
 30
0.0
 10
-6.13503
 20
12.80977
 30
0.0
 10
-5.7395
 20
12.80977
 30
0.0
 10
-5.34406
 20
12.80977
 30
0.0
 10
-5.34406
 20
12.80977
 30
0.0
 10
-5.34406
 20
12.96627
 30
0.0
 10
-5.34406
 20
13.12284
 30
0.0
 10
-5.34406
 20
13.27935
 30
0.0
  0
SPLINE
  5
AF
330
1F
100
AcDbEntity
  8
Layer 1
 62
     7
100
AcDbSpline
210
0.0
220
0.0
230
1.0
 70
    11
 71
     3
 72
    20
 73
    16
 74
     0
 42
0.0000000001
 43
0.0000000001
 12
1.0
 22
0.0
 32
0.0
 13
1.0
 23
0.0
 33
0.0
 40
0.0
 40
0.0
 40
0.0
 40
0.0
 40
0.2
 40
0.2
 40
0.2
 40
0.2
 40
0.4
 40
0.4
 40
0.4
 40
0.4
 40
0.6
 40
0.6
 40
0.6
 40
0.6
 40
1.0
 40
1.0
 40
1.0
 40
1.0
 10
-5.81359
 20
14.71295
 30
0.0
 10
-5.65713
 20
14.71295
 30
0.0
 10
-5.50057
 20
14.71295
 30
0.0
 10
-5.34406
 20
14.71295
 30
0.0
 10
-5.34406
 20
14.71295
 30
0.0
 10
-5.34406
 20
14.31743
 30
0.0
 10
-5.34406
 20
13.92201
 30
0.0
 10
-5.34406
 20
13.52651
 30
0.0
 10
-5.34406
 20
13.52651
 30
0.0
 10
-5.50057
 20
13.52651
 30
0.0
 10
-5.65713
 20
13.52651
 30
0.0
 10
-5.81359
 20
13.52651
 30
0.0
 10
-5.81359
 20
13.52651
 30
0.0
 10
-5.81359
 20
13.92203
 30
0.0
 10
-5.81359
 20
14.31743
 30
0.0
 10
-5.81359
 20
14.71295
 30
0.0
  0
SPLINE
  5
B0
330
1F
100
AcDbEntity
  8
Layer 1
 62
     7
100
AcDbSpline
210
0.0
220
0.0
230
1.0
 70
    11
 71
     3
 72
    20
 73
    16
 74
     0
 42
0.0000000001
 43
0.0000000001
 12
1.0
 22
0.0
 32
0.0
 13
1.0
 23
0.0
 33
0.0
 40
0.0
 40
0.0
 40
0.0
 40
0.0
 40
0.2
 40
0.2
 40
0.2
 40
0.2
 40
0.4
 40
0.4
 40
0.4
 40
0.4
 40
0.6
 40
0.6
 40
0.6
 40
0.6
 40
1.0
 40
1.0
 40
1.0
 40
1.0
 10
-6.06085
 20
14.24332
 30
0.0
 10
-6.06085
 20
14.39987
 30
0.0
 10
-6.06085
 20
14.55636
 30
0.0
 10
-6.06085
 20
14.71295
 30
0.0
 10
-6.06085
 20
14.71295
 30
0.0
 10
-6.45631
 20
14.71295
 30
0.0
 10
-6.85179
 20
14.71295
 30
0.0
 10
-7.24722
 20
14.71295
 30
0.0
 10
-7.24722
 20
14.71295
 30
0.0
 10
-7.24722
 20
14.55636
 30
0.0
 10
-7.24722
 20
14.39987
 30
0.0
 10
-7.24722
 20
14.24332
 30
0.0
 10
-7.24722
 20
14.24332
 30
0.0
 10
-6.85179
 20
14.24332
 30
0.0
 10
-6.45631
 20
14.24332
 30
0.0
 10
-6.06085
 20
14.24332
 30
0.0
  0
SPLINE
  5
B1
330
1F
100
AcDbEntity
  8
Layer 1
 62
     7
100
AcDbSpline
210
0.0
220
0.0
230
1.0
 70
    11
 71
     3
 72
    20
 73
    16
 74
     0
 42
0.0000000001
 43
0.0000000001
 12
1.0
 22
0.0
 32
0.0
 13
1.0
 23
0.0
 33
0.0
 40
0.0
 40
0.0
 40
0.0
 40
0.0
 40
0.2
 40
0.2
 40
0.2
 40
0.2
 40
0.4
 40
0.4
 40
0.4
 40
0.4
 40
0.6
 40
0.6
 40
0.6
 40
0.6
 40
1.0
 40
1.0
 40
1.0
 40
1.0
 10
-6.53043
 20
11.84578
 30
0.0
 10
-6.37388
 20
11.84578
 30
0.0
 10
-6.21733
 20
11.84578
 30
0.0
 10
-6.06085
 20
11.84578
 30
0.0
 10
-6.06085
 20
11.84578
 30
0.0
 10
-6.06085
 20
11.68924
 30
0.0
 10
-6.06085
 20
11.53267
 30
0.0
 10
-6.06085
 20
11.37615
 30
0.0
 10
-6.06085
 20
11.37615
 30
0.0
 10
-6.21733
 20
11.37615
 30
0.0
 10
-6.37388
 20
11.37615
 30
0.0
 10
-6.53043
 20
11.37615
 30
0.0
 10
-6.53043
 20
11.37615
 30
0.0
 10
-6.53043
 20
11.53267
 30
0.0
 10
-6.53043
 20
11.68924
 30
0.0
 10
-6.53043
 20
11.84578
 30
0.0
  0
SPLINE
  5
B2
330
1F
100
AcDbEntity
  8
Layer 1
 62
     7
100
AcDbSpline
210
0.0
220
0.0
230
1.0
 70
    11
 71
     3
 72
    20
 73
    16
 74
     0
 42
0.0000000001
 43
0.0000000001
 12
1.0
 22
0.0
 32
0.0
 13
1.0
 23
0.0
 33
0.0
 40
0.0
 40
0.0
 40
0.0
 40
0.0
 40
0.2
 40
0.2
 40
0.2
 40
0.2
 40
0.4
 40
0.4
 40
0.4
 40
0.4
 40
0.6
 40
0.6
 40
0.6
 40
0.6
 40
1.0
 40
1.0
 40
1.0
 40
1.0
 10
-6.7776
 20
10.65936
 30
0.0
 10
-6.93413
 20
10.65936
 30
0.0
 10
-7.09074
 20
10.65936
 30
0.0
 10
-7.24722
 20
10.65936
 30
0.0
 10
-7.24722
 20
10.65936
 30
0.0
 10
-7.24722
 20
11.05481
 30
0.0
 10
-7.24722
 20
11.4503
 30
0.0
 10
-7.24722
 20
11.84578
 30
0.0
 10
-7.24722
 20
11.84578
 30
0.0
 10
-7.09074
 20
11.84578
 30
0.0
 10
-6.93413
 20
11.84578
 30
0.0
 10
-6.7776
 20
11.84578
 30
0.0
 10
-6.7776
 20
11.84578
 30
0.0
 10
-6.7776
 20
11.4503
 30
0.0
 10
-6.7776
 20
11.05483
 30
0.0
 10
-6.7776
 20
10.65936
 30
0.0
  0
SPLINE
  5
B3
330
1F
100
AcDbEntity
  8
Layer 1
 62
     7
100
AcDbSpline
210
0.0
220
0.0
230
1.0
 70
    11
 71
     3
 72
    20
 73
    16
 74
     0
 42
0.0000000001
 43
0.0000000001
 12
1.0
 22
0.0
 32
0.0
 13
1.0
 23
0.0
 33
0.0
 40
0.0
 40
0.0
 40
0.0
 40
0.0
 40
0.2
 40
0.2
 40
0.2
 40
0.2
 40
0.4
 40
0.4
 40
0.4
 40
0.4
 40
0.6
 40
0.6
 40
0.6
 40
0.6
 40
1.0
 40
1.0
 40
1.0
 40
1.0
 10
-5.34406
 20
11.12896
 30
0.0
 10
-5.7395
 20
11.12896
 30
0.0
 10
-6.13503
 20
11.12896
 30
0.0
 10
-6.53043
 20
11.12896
 30
0.0
 10
-6.53043
 20
11.12896
 30
0.0
 10
-6.53043
 20
10.97247
 30
0.0
 10
-6.53043
 20
10.81587
 30
0.0
 10
-6.53043
 20
10.65936
 30
0.0
 10
-6.53043
 20
10.65936
 30
0.0
 10
-6.13503
 20
10.65936
 30
0.0
 10
-5.7395
 20
10.65936
 30
0.0
 10
-5.34406
 20
10.65936
 30
0.0
 10
-5.34406
 20
10.65936
 30
0.0
 10
-5.34406
 20
10.81587
 30
0.0
 10
-5.34406
 20
10.97247
 30
0.0
 10
-5.34406
 20
11.12896
 30
0.0
  0
SPLINE
  5
B4
330
1F
100
AcDbEntity
  8
Layer 1
 62
     7
100
AcDbSpline
210
0.0
220
0.0
230
1.0
 70
    11
 71
     3
 72
    20
 73
    16
 74
     0
 42
0.0000000001
 43
0.0000000001
 12
1.0
 22
0.0
 32
0.0
 13
1.0
 23
0.0
 33
0.0
 40
0.0
 40
0.0
 40
0.0
 40
0.0
 40
0.2
 40
0.2
 40
0.2
 40
0.2
 40
0.4
 40
0.4
 40
0.4
 40
0.4
 40
0.6
 40
0.6
 40
0.6
 40
0.6
 40
1.0
 40
1.0
 40
1.0
 40
1.0
 10
-5.81359
 20
12.56259
 30
0.0
 10
-5.65713
 20
12.56259
 30
0.0
 10
-5.50057
 20
12.56259
 30
0.0
 10
-5.34406
 20
12.56259
 30
0.0
 10
-5.34406
 20
12.56259
 30
0.0
 10
-5.34406
 20
12.16707
 30
0.0
 10
-5.34406
 20
11.77164
 30
0.0
 10
-5.34406
 20
11.37615
 30
0.0
 10
-5.34406
 20
11.37615
 30
0.0
 10
-5.50057
 20
11.37615
 30
0.0
 10
-5.65713
 20
11.37615
 30
0.0
 10
-5.81359
 20
11.37615
 30
0.0
 10
-5.81359
 20
11.37615
 30
0.0
 10
-5.81359
 20
11.77165
 30
0.0
 10
-5.81359
 20
12.16707
 30
0.0
 10
-5.81359
 20
12.56259
 30
0.0
  0
SPLINE
  5
B5
330
1F
100
AcDbEntity
  8
Layer 1
 62
     7
100
AcDbSpline
210
0.0
220
0.0
230
1.0
 70
    11
 71
     3
 72
    20
 73
    16
 74
     0
 42
0.0000000001
 43
0.0000000001
 12
1.0
 22
0.0
 32
0.0
 13
1.0
 23
0.0
 33
0.0
 40
0.0
 40
0.0
 40
0.0
 40
0.0
 40
0.2
 40
0.2
 40
0.2
 40
0.2
 40
0.4
 40
0.4
 40
0.4
 40
0.4
 40
0.6
 40
0.6
 40
0.6
 40
0.6
 40
1.0
 40
1.0
 40
1.0
 40
1.0
 10
-6.06085
 20
12.09296
 30
0.0
 10
-6.06085
 20
12.2495
 30
0.0
 10
-6.06085
 20
12.40608
 30
0.0
 10
-6.06085
 20
12.56259
 30
0.0
 10
-6.06085
 20
12.56259
 30
0.0
 10
-6.45631
 20
12.56259
 30
0.0
 10
-6.85179
 20
12.56259
 30
0.0
 10
-7.24722
 20
12.56259
 30
0.0
 10
-7.24722
 20
12.56259
 30
0.0
 10
-7.24722
 20
12.40608
 30
0.0
 10
-7.24722
 20
12.2495
 30
0.0
 10
-7.24722
 20
12.09296
 30
0.0
 10
-7.24722
 20
12.09296
 30
0.0
 10
-6.85179
 20
12.09296
 30
0.0
 10
-6.45631
 20
12.09296
 30
0.0
 10
-6.06085
 20
12.09296
 30
0.0
  0
SPLINE
  5
B6
330
1F
100
AcDbEntity
  8
Layer 1
 62
     7
100
AcDbSpline
210
0.0
220
0.0
230
1.0
 70
    11
 71
     3
 72
    20
 73
    16
 74
     0
 42
0.0000000001
 43
0.0000000001
 12
1.0
 22
0.0
 32
0.0
 13
1.0
 23
0.0
 33
0.0
 40
0.0
 40
0.0
 40
0.0
 40
0.0
 40
0.2
 40
0.2
 40
0.2
 40
0.2
 40
0.4
 40
0.4
 40
0.4
 40
0.4
 40
0.6
 40
0.6
 40
0.6
 40
0.6
 40
1.0
 40
1.0
 40
1.0
 40
1.0
 10
-6.53043
 20
9.6954
 30
0.0
 10
-6.37388
 20
9.6954
 30
0.0
 10
-6.21733
 20
9.6954
 30
0.0
 10
-6.06085
 20
9.6954
 30
0.0
 10
-6.06085
 20
9.6954
 30
0.0
 10
-6.06085
 20
9.53887
 30
0.0
 10
-6.06085
 20
9.3823
 30
0.0
 10
-6.06085
 20
9.22576
 30
0.0
 10
-6.06085
 20
9.22576
 30
0.0
 10
-6.21733
 20
9.22576
 30
0.0
 10
-6.37388
 20
9.22576
 30
0.0
 10
-6.53043
 20
9.22576
 30
0.0
 10
-6.53043
 20
9.22576
 30
0.0
 10
-6.53043
 20
9.3823
 30
0.0
 10
-6.53043
 20
9.53887
 30
0.0
 10
-6.53043
 20
9.6954
 30
0.0
  0
SPLINE
  5
B7
330
1F
100
AcDbEntity
  8
Layer 1
 62
     7
100
AcDbSpline
210
0.0
220
0.0
230
1.0
 70
    11
 71
     3
 72
    20
 73
    16
 74
     0
 42
0.0000000001
 43
0.0000000001
 12
1.0
 22
0.0
 32
0.0
 13
1.0
 23
0.0
 33
0.0
 40
0.0
 40
0.0
 40
0.0
 40
0.0
 40
0.2
 40
0.2
 40
0.2
 40
0.2
 40
0.4
 40
0.4
 40
0.4
 40
0.4
 40
0.6
 40
0.6
 40
0.6
 40
0.6
 40
1.0
 40
1.0
 40
1.0
 40
1.0
 10
-6.7776
 20
8.50898
 30
0.0
 10
-6.93413
 20
8.50898
 30
0.0
 10
-7.09074
 20
8.50898
 30
0.0
 10
-7.24722
 20
8.50898
 30
0.0
 10
-7.24722
 20
8.50898
 30
0.0
 10
-7.24722
 20
8.90446
 30
0.0
 10
-7.24722
 20
9.2999
 30
0.0
 10
-7.24722
 20
9.6954
 30
0.0
 10
-7.24722
 20
9.6954
 30
0.0
 10
-7.09074
 20
9.6954
 30
0.0
 10
-6.93413
 20
9.6954
 30
0.0
 10
-6.7776
 20
9.6954
 30
0.0
 10
-6.7776
 20
9.6954
 30
0.0
 10
-6.7776
 20
9.2999
 30
0.0
 10
-6.7776
 20
8.90448
 30
0.0
 10
-6.7776
 20
8.50898
 30
0.0
  0
SPLINE
  5
B8
330
1F
100
AcDbEntity
  8
Layer 1
 62
     7
100
AcDbSpline
210
0.0
220
0.0
230
1.0
 70
    11
 71
     3
 72
    20
 73
    16
 74
     0
 42
0.0000000001
 43
0.0000000001
 12
1.0
 22
0.0
 32
0.0
 13
1.0
 23
0.0
 33
0.0
 40
0.0
 40
0.0
 40
0.0
 40
0.0
 40
0.2
 40
0.2
 40
0.2
 40
0.2
 40
0.4
 40
0.4
 40
0.4
 40
0.4
 40
0.6
 40
0.6
 40
0.6
 40
0.6
 40
1.0
 40
1.0
 40
1.0
 40
1.0
 10
-5.34406
 20
8.97857
 30
0.0
 10
-5.7395
 20
8.97857
 30
0.0
 10
-6.13503
 20
8.97857
 30
0.0
 10
-6.53043
 20
8.97857
 30
0.0
 10
-6.53043
 20
8.97857
 30
0.0
 10
-6.53043
 20
8.82207
 30
0.0
 10
-6.53043
 20
8.66549
 30
0.0
 10
-6.53043
 20
8.50898
 30
0.0
 10
-6.53043
 20
8.50898
 30
0.0
 10
-6.13503
 20
8.50898
 30
0.0
 10
-5.7395
 20
8.50898
 30
0.0
 10
-5.34406
 20
8.50898
 30
0.0
 10
-5.34406
 20
8.50898
 30
0.0
 10
-5.34406
 20
8.66549
 30
0.0
 10
-5.34406
 20
8.82207
 30
0.0
 10
-5.34406
 20
8.97857
 30
0.0
  0
SPLINE
  5
B9
330
1F
100
AcDbEntity
  8
Layer 1
 62
     7
100
AcDbSpline
210
0.0
220
0.0
230
1.0
 70
    11
 71
     3
 72
    20
 73
    16
 74
     0
 42
0.0000000001
 43
0.0000000001
 12
1.0
 22
0.0
 32
0.0
 13
1.0
 23
0.0
 33
0.0
 40
0.0
 40
0.0
 40
0.0
 40
0.0
 40
0.2
 40
0.2
 40
0.2
 40
0.2
 40
0.4
 40
0.4
 40
0.4
 40
0.4
 40
0.6
 40
0.6
 40
0.6
 40
0.6
 40
1.0
 40
1.0
 40
1.0
 40
1.0
 10
-5.81359
 20
10.41217
 30
0.0
 10
-5.65713
 20
10.41217
 30
0.0
 10
-5.50057
 20
10.41217
 30
0.0
 10
-5.34406
 20
10.41217
 30
0.0
 10
-5.34406
 20
10.41217
 30
0.0
 10
-5.34406
 20
10.01668
 30
0.0
 10
-5.34406
 20
9.62127
 30
0.0
 10
-5.34406
 20
9.22576
 30
0.0
 10
-5.34406
 20
9.22576
 30
0.0
 10
-5.50057
 20
9.22576
 30
0.0
 10
-5.65713
 20
9.22576
 30
0.0
 10
-5.81359
 20
9.22576
 30
0.0
 10
-5.81359
 20
9.22576
 30
0.0
 10
-5.81359
 20
9.62127
 30
0.0
 10
-5.81359
 20
10.01668
 30
0.0
 10
-5.81359
 20
10.41217
 30
0.0
  0
SPLINE
  5
BA
330
1F
100
AcDbEntity
  8
Layer 1
 62
   242
370
     9
100
AcDbSpline
210
0.0
220
0.0
230
1.0
 70
    11
 71
     3
 72
    20
 73
    16
 74
     0
 42
0.0000000001
 43
0.0000000001
 12
1.0
 22
0.0
 32
0.0
 13
1.0
 23
0.0
 33
0.0
 40
0.0
 40
0.0
 40
0.0
 40
0.0
 40
0.2
 40
0.2
 40
0.2
 40
0.2
 40
0.4
 40
0.4
 40
0.4
 40
0.4
 40
0.6
 40
0.6
 40
0.6
 40
0.6
 40
1.0
 40
1.0
 40
1.0
 40
1.0
 10
-3.06688
 20
19.2848
 30
0.0
 10
-1.51549
 20
19.2848
 30
0.0
 10
0.03592
 20
19.2848
 30
0.0
 10
1.58723
 20
19.2848
 30
0.0
 10
1.58723
 20
19.2848
 30
0.0
 10
1.58723
 20
10.58994
 30
0.0
 10
1.58723
 20
1.8951
 30
0.0
 10
1.58723
 20
-6.79977
 30
0.0
 10
1.58723
 20
-6.79977
 30
0.0
 10
0.03592
 20
-6.79977
 30
0.0
 10
-1.51549
 20
-6.79977
 30
0.0
 10
-3.06688
 20
-6.79977
 30
0.0
 10
-3.06688
 20
-6.79977
 30
0.0
 10
-3.06688
 20
1.8951
 30
0.0
 10
-3.06688
 20
10.58994
 30
0.0
 10
-3.06688
 20
19.2848
 30
0.0
  0
SPLINE
  5
BB
330
1F
100
AcDbEntity
  8
Layer 1
 62
   242
370
     9
100
AcDbSpline
210
0.0
220
0.0
230
1.0
 70
    11
 71
     3
 72
    20
 73
    16
 74
     0
 42
0.0000000001
 43
0.0000000001
 12
1.0
 22
0.0
 32
0.0
 13
1.0
 23
0.0
 33
0.0
 40
0.0
 40
0.0
 40
0.0
 40
0.0
 40
0.2
 40
0.2
 40
0.2
 40
0.2
 40
0.4
 40
0.4
 40
0.4
 40
0.4
 40
0.6
 40
0.6
 40
0.6
 40
0.6
 40
1.0
 40
1.0
 40
1.0
 40
1.0
 10
0.57016
 20
9.94258
 30
0.0
 10
0.57016
 20
10.0991
 30
0.0
 10
0.57016
 20
10.2557
 30
0.0
 10
0.57016
 20
10.41217
 30
0.0
 10
0.57016
 20
10.41217
 30
0.0
 10
0.1747
 20
10.41217
 30
0.0
 10
-0.22078
 20
10.41217
 30
0.0
 10
-0.61621
 20
10.41217
 30
0.0
 10
-0.61621
 20
10.41217
 30
0.0
 10
-0.61621
 20
10.2557
 30
0.0
 10
-0.61621
 20
10.0991
 30
0.0
 10
-0.61621
 20
9.94258
 30
0.0
 10
-0.61621
 20
9.94258
 30
0.0
 10
-0.22078
 20
9.94258
 30
0.0
 10
0.1747
 20
9.94258
 30
0.0
 10
0.57016
 20
9.94258
 30
0.0
  0
SPLINE
  5
BC
330
1F
100
AcDbEntity
  8
Layer 1
 62
   242
370
     9
100
AcDbSpline
210
0.0
220
0.0
230
1.0
 70
    11
 71
     3
 72
    20
 73
    16
 74
     0
 42
0.0000000001
 43
0.0000000001
 12
1.0
 22
0.0
 32
0.0
 13
1.0
 23
0.0
 33
0.0
 40
0.0
 40
0.0
 40
0.0
 40
0.0
 40
0.2
 40
0.2
 40
0.2
 40
0.2
 40
0.4
 40
0.4
 40
0.4
 40
0.4
 40
0.6
 40
0.6
 40
0.6
 40
0.6
 40
1.0
 40
1.0
 40
1.0
 40
1.0
 10
-2.04979
 20
7.54501
 30
0.0
 10
-1.89327
 20
7.54501
 30
0.0
 10
-1.73672
 20
7.54501
 30
0.0
 10
-1.5802
 20
7.54501
 30
0.0
 10
-1.5802
 20
7.54501
 30
0.0
 10
-1.5802
 20
7.38848
 30
0.0
 10
-1.5802
 20
7.23193
 30
0.0
 10
-1.5802
 20
7.07538
 30
0.0
 10
-1.5802
 20
7.07538
 30
0.0
 10
-1.73672
 20
7.07538
 30
0.0
 10
-1.89327
 20
7.07538
 30
0.0
 10
-2.04979
 20
7.07538
 30
0.0
 10
-2.04979
 20
7.07538
 30
0.0
 10
-2.04979
 20
7.23193
 30
0.0
 10
-2.04979
 20
7.38848
 30
0.0
 10
-2.04979
 20
7.54501
 30
0.0
  0
SPLINE
  5
BD
330
1F
100
AcDbEntity
  8
Layer 1
 62
   242
370
     9
100
AcDbSpline
210
0.0
220
0.0
230
1.0
 70
    11
 71
     3
 72
    20
 73
    16
 74
     0
 42
0.0000000001
 43
0.0000000001
 12
1.0
 22
0.0
 32
0.0
 13
1.0
 23
0.0
 33
0.0
 40
0.0
 40
0.0
 40
0.0
 40
0.0
 40
0.2
 40
0.2
 40
0.2
 40
0.2
 40
0.4
 40
0.4
 40
0.4
 40
0.4
 40
0.6
 40
0.6
 40
0.6
 40
0.6
 40
1.0
 40
1.0
 40
1.0
 40
1.0
 10
-2.29699
 20
6.35858
 30
0.0
 10
-2.45349
 20
6.35858
 30
0.0
 10
-2.61008
 20
6.35858
 30
0.0
 10
-2.76658
 20
6.35858
 30
0.0
 10
-2.76658
 20
6.35858
 30
0.0
 10
-2.76658
 20
6.75411
 30
0.0
 10
-2.76658
 20
7.14951
 30
0.0
 10
-2.76658
 20
7.54501
 30
0.0
 10
-2.76658
 20
7.54501
 30
0.0
 10
-2.61008
 20
7.54501
 30
0.0
 10
-2.45349
 20
7.54501
 30
0.0
 10
-2.29699
 20
7.54501
 30
0.0
 10
-2.29699
 20
7.54501
 30
0.0
 10
-2.29699
 20
7.14951
 30
0.0
 10
-2.29699
 20
6.75411
 30
0.0
 10
-2.29699
 20
6.35858
 30
0.0
  0
SPLINE
  5
BE
330
1F
100
AcDbEntity
  8
Layer 1
 62
   242
370
     9
100
AcDbSpline
210
0.0
220
0.0
230
1.0
 70
    11
 71
     3
 72
    20
 73
    16
 74
     0
 42
0.0000000001
 43
0.0000000001
 12
1.0
 22
0.0
 32
0.0
 13
1.0
 23
0.0
 33
0.0
 40
0.0
 40
0.0
 40
0.0
 40
0.0
 40
0.2
 40
0.2
 40
0.2
 40
0.2
 40
0.4
 40
0.4
 40
0.4
 40
0.4
 40
0.6
 40
0.6
 40
0.6
 40
0.6
 40
1.0
 40
1.0
 40
1.0
 40
1.0
 10
-0.8634
 20
6.82819
 30
0.0
 10
-1.2589
 20
6.82819
 30
0.0
 10
-1.65432
 20
6.82819
 30
0.0
 10
-2.04979
 20
6.82819
 30
0.0
 10
-2.04979
 20
6.82819
 30
0.0
 10
-2.04979
 20
6.67167
 30
0.0
 10
-2.04979
 20
6.51508
 30
0.0
 10
-2.04979
 20
6.35858
 30
0.0
 10
-2.04979
 20
6.35858
 30
0.0
 10
-1.65432
 20
6.35858
 30
0.0
 10
-1.2589
 20
6.35858
 30
0.0
 10
-0.8634
 20
6.35858
 30
0.0
 10
-0.8634
 20
6.35858
 30
0.0
 10
-0.8634
 20
6.51508
 30
0.0
 10
-0.8634
 20
6.67167
 30
0.0
 10
-0.8634
 20
6.82819
 30
0.0
  0
SPLINE
  5
BF
330
1F
100
AcDbEntity
  8
Layer 1
 62
   242
370
     9
100
AcDbSpline
210
0.0
220
0.0
230
1.0
 70
    11
 71
     3
 72
    20
 73
    16
 74
     0
 42
0.0000000001
 43
0.0000000001
 12
1.0
 22
0.0
 32
0.0
 13
1.0
 23
0.0
 33
0.0
 40
0.0
 40
0.0
 40
0.0
 40
0.0
 40
0.2
 40
0.2
 40
0.2
 40
0.2
 40
0.4
 40
0.4
 40
0.4
 40
0.4
 40
0.6
 40
0.6
 40
0.6
 40
0.6
 40
1.0
 40
1.0
 40
1.0
 40
1.0
 10
-1.333
 20
8.26179
 30
0.0
 10
-1.17648
 20
8.26179
 30
0.0
 10
-1.01995
 20
8.26179
 30
0.0
 10
-0.8634
 20
8.26179
 30
0.0
 10
-0.8634
 20
8.26179
 30
0.0
 10
-0.8634
 20
7.86632
 30
0.0
 10
-0.8634
 20
7.47086
 30
0.0
 10
-0.8634
 20
7.07538
 30
0.0
 10
-0.8634
 20
7.07538
 30
0.0
 10
-1.01995
 20
7.07538
 30
0.0
 10
-1.17648
 20
7.07538
 30
0.0
 10
-1.333
 20
7.07538
 30
0.0
 10
-1.333
 20
7.07538
 30
0.0
 10
-1.333
 20
7.47089
 30
0.0
 10
-1.333
 20
7.86632
 30
0.0
 10
-1.333
 20
8.26179
 30
0.0
  0
SPLINE
  5
C0
330
1F
100
AcDbEntity
  8
Layer 1
 62
   242
370
     9
100
AcDbSpline
210
0.0
220
0.0
230
1.0
 70
    11
 71
     3
 72
    20
 73
    16
 74
     0
 42
0.0000000001
 43
0.0000000001
 12
1.0
 22
0.0
 32
0.0
 13
1.0
 23
0.0
 33
0.0
 40
0.0
 40
0.0
 40
0.0
 40
0.0
 40
0.2
 40
0.2
 40
0.2
 40
0.2
 40
0.4
 40
0.4
 40
0.4
 40
0.4
 40
0.6
 40
0.6
 40
0.6
 40
0.6
 40
1.0
 40
1.0
 40
1.0
 40
1.0
 10
-1.5802
 20
7.79222
 30
0.0
 10
-1.5802
 20
7.94871
 30
0.0
 10
-1.5802
 20
8.1053
 30
0.0
 10
-1.5802
 20
8.26179
 30
0.0
 10
-1.5802
 20
8.26179
 30
0.0
 10
-1.97567
 20
8.26179
 30
0.0
 10
-2.37109
 20
8.26179
 30
0.0
 10
-2.76658
 20
8.26179
 30
0.0
 10
-2.76658
 20
8.26179
 30
0.0
 10
-2.76658
 20
8.1053
 30
0.0
 10
-2.76658
 20
7.94871
 30
0.0
 10
-2.76658
 20
7.79222
 30
0.0
 10
-2.76658
 20
7.79222
 30
0.0
 10
-2.37109
 20
7.79222
 30
0.0
 10
-1.97567
 20
7.79222
 30
0.0
 10
-1.5802
 20
7.79222
 30
0.0
  0
SPLINE
  5
C1
330
1F
100
AcDbEntity
  8
Layer 1
 62
   242
370
     9
100
AcDbSpline
210
0.0
220
0.0
230
1.0
 70
    11
 71
     3
 72
    20
 73
    16
 74
     0
 42
0.0000000001
 43
0.0000000001
 12
1.0
 22
0.0
 32
0.0
 13
1.0
 23
0.0
 33
0.0
 40
0.0
 40
0.0
 40
0.0
 40
0.0
 40
0.2
 40
0.2
 40
0.2
 40
0.2
 40
0.4
 40
0.4
 40
0.4
 40
0.4
 40
0.6
 40
0.6
 40
0.6
 40
0.6
 40
1.0
 40
1.0
 40
1.0
 40
1.0
 10
-2.04979
 20
5.39466
 30
0.0
 10
-1.89327
 20
5.39466
 30
0.0
 10
-1.73672
 20
5.39466
 30
0.0
 10
-1.5802
 20
5.39466
 30
0.0
 10
-1.5802
 20
5.39466
 30
0.0
 10
-1.5802
 20
5.23811
 30
0.0
 10
-1.5802
 20
5.08154
 30
0.0
 10
-1.5802
 20
4.92499
 30
0.0
 10
-1.5802
 20
4.92499
 30
0.0
 10
-1.73672
 20
4.92499
 30
0.0
 10
-1.89327
 20
4.92499
 30
0.0
 10
-2.04979
 20
4.92499
 30
0.0
 10
-2.04979
 20
4.92499
 30
0.0
 10
-2.04979
 20
5.08154
 30
0.0
 10
-2.04979
 20
5.23811
 30
0.0
 10
-2.04979
 20
5.39466
 30
0.0
  0
SPLINE
  5
C2
330
1F
100
AcDbEntity
  8
Layer 1
 62
   242
370
     9
100
AcDbSpline
210
0.0
220
0.0
230
1.0
 70
    11
 71
     3
 72
    20
 73
    16
 74
     0
 42
0.0000000001
 43
0.0000000001
 12
1.0
 22
0.0
 32
0.0
 13
1.0
 23
0.0
 33
0.0
 40
0.0
 40
0.0
 40
0.0
 40
0.0
 40
0.2
 40
0.2
 40
0.2
 40
0.2
 40
0.4
 40
0.4
 40
0.4
 40
0.4
 40
0.6
 40
0.6
 40
0.6
 40
0.6
 40
1.0
 40
1.0
 40
1.0
 40
1.0
 10
-2.29699
 20
4.20821
 30
0.0
 10
-2.45349
 20
4.20821
 30
0.0
 10
-2.61008
 20
4.20821
 30
0.0
 10
-2.76658
 20
4.20821
 30
0.0
 10
-2.76658
 20
4.20821
 30
0.0
 10
-2.76658
 20
4.60371
 30
0.0
 10
-2.76658
 20
4.99915
 30
0.0
 10
-2.76658
 20
5.39466
 30
0.0
 10
-2.76658
 20
5.39466
 30
0.0
 10
-2.61008
 20
5.39466
 30
0.0
 10
-2.45349
 20
5.39466
 30
0.0
 10
-2.29699
 20
5.39466
 30
0.0
 10
-2.29699
 20
5.39466
 30
0.0
 10
-2.29699
 20
4.99915
 30
0.0
 10
-2.29699
 20
4.60373
 30
0.0
 10
-2.29699
 20
4.20821
 30
0.0
  0
SPLINE
  5
C3
330
1F
100
AcDbEntity
  8
Layer 1
 62
   242
370
     9
100
AcDbSpline
210
0.0
220
0.0
230
1.0
 70
    11
 71
     3
 72
    20
 73
    16
 74
     0
 42
0.0000000001
 43
0.0000000001
 12
1.0
 22
0.0
 32
0.0
 13
1.0
 23
0.0
 33
0.0
 40
0.0
 40
0.0
 40
0.0
 40
0.0
 40
0.2
 40
0.2
 40
0.2
 40
0.2
 40
0.4
 40
0.4
 40
0.4
 40
0.4
 40
0.6
 40
0.6
 40
0.6
 40
0.6
 40
1.0
 40
1.0
 40
1.0
 40
1.0
 10
-0.8634
 20
4.67782
 30
0.0
 10
-1.2589
 20
4.67782
 30
0.0
 10
-1.65432
 20
4.67782
 30
0.0
 10
-2.04979
 20
4.67782
 30
0.0
 10
-2.04979
 20
4.67782
 30
0.0
 10
-2.04979
 20
4.52128
 30
0.0
 10
-2.04979
 20
4.36474
 30
0.0
 10
-2.04979
 20
4.20821
 30
0.0
 10
-2.04979
 20
4.20821
 30
0.0
 10
-1.65432
 20
4.20821
 30
0.0
 10
-1.2589
 20
4.20821
 30
0.0
 10
-0.8634
 20
4.20821
 30
0.0
 10
-0.8634
 20
4.20821
 30
0.0
 10
-0.8634
 20
4.36474
 30
0.0
 10
-0.8634
 20
4.52128
 30
0.0
 10
-0.8634
 20
4.67782
 30
0.0
  0
SPLINE
  5
C4
330
1F
100
AcDbEntity
  8
Layer 1
 62
   242
370
     9
100
AcDbSpline
210
0.0
220
0.0
230
1.0
 70
    11
 71
     3
 72
    20
 73
    16
 74
     0
 42
0.0000000001
 43
0.0000000001
 12
1.0
 22
0.0
 32
0.0
 13
1.0
 23
0.0
 33
0.0
 40
0.0
 40
0.0
 40
0.0
 40
0.0
 40
0.2
 40
0.2
 40
0.2
 40
0.2
 40
0.4
 40
0.4
 40
0.4
 40
0.4
 40
0.6
 40
0.6
 40
0.6
 40
0.6
 40
1.0
 40
1.0
 40
1.0
 40
1.0
 10
-1.333
 20
6.11144
 30
0.0
 10
-1.17648
 20
6.11144
 30
0.0
 10
-1.01995
 20
6.11144
 30
0.0
 10
-0.8634
 20
6.11144
 30
0.0
 10
-0.8634
 20
6.11144
 30
0.0
 10
-0.8634
 20
5.71597
 30
0.0
 10
-0.8634
 20
5.32048
 30
0.0
 10
-0.8634
 20
4.92499
 30
0.0
 10
-0.8634
 20
4.92499
 30
0.0
 10
-1.01995
 20
4.92499
 30
0.0
 10
-1.17648
 20
4.92499
 30
0.0
 10
-1.333
 20
4.92499
 30
0.0
 10
-1.333
 20
4.92499
 30
0.0
 10
-1.333
 20
5.32048
 30
0.0
 10
-1.333
 20
5.71597
 30
0.0
 10
-1.333
 20
6.11144
 30
0.0
  0
SPLINE
  5
C5
330
1F
100
AcDbEntity
  8
Layer 1
 62
   242
370
     9
100
AcDbSpline
210
0.0
220
0.0
230
1.0
 70
    11
 71
     3
 72
    20
 73
    16
 74
     0
 42
0.0000000001
 43
0.0000000001
 12
1.0
 22
0.0
 32
0.0
 13
1.0
 23
0.0
 33
0.0
 40
0.0
 40
0.0
 40
0.0
 40
0.0
 40
0.2
 40
0.2
 40
0.2
 40
0.2
 40
0.4
 40
0.4
 40
0.4
 40
0.4
 40
0.6
 40
0.6
 40
0.6
 40
0.6
 40
1.0
 40
1.0
 40
1.0
 40
1.0
 10
-1.5802
 20
5.64182
 30
0.0
 10
-1.5802
 20
5.79831
 30
0.0
 10
-1.5802
 20
5.95491
 30
0.0
 10
-1.5802
 20
6.11144
 30
0.0
 10
-1.5802
 20
6.11144
 30
0.0
 10
-1.97567
 20
6.11144
 30
0.0
 10
-2.37109
 20
6.11144
 30
0.0
 10
-2.76658
 20
6.11144
 30
0.0
 10
-2.76658
 20
6.11144
 30
0.0
 10
-2.76658
 20
5.95491
 30
0.0
 10
-2.76658
 20
5.79831
 30
0.0
 10
-2.76658
 20
5.64182
 30
0.0
 10
-2.76658
 20
5.64182
 30
0.0
 10
-2.37109
 20
5.64182
 30
0.0
 10
-1.97567
 20
5.64182
 30
0.0
 10
-1.5802
 20
5.64182
 30
0.0
  0
SPLINE
  5
C6
330
1F
100
AcDbEntity
  8
Layer 1
 62
   242
370
     9
100
AcDbSpline
210
0.0
220
0.0
230
1.0
 70
    11
 71
     3
 72
    20
 73
    16
 74
     0
 42
0.0000000001
 43
0.0000000001
 12
1.0
 22
0.0
 32
0.0
 13
1.0
 23
0.0
 33
0.0
 40
0.0
 40
0.0
 40
0.0
 40
0.0
 40
0.2
 40
0.2
 40
0.2
 40
0.2
 40
0.4
 40
0.4
 40
0.4
 40
0.4
 40
0.6
 40
0.6
 40
0.6
 40
0.6
 40
1.0
 40
1.0
 40
1.0
 40
1.0
 10
-2.04979
 20
3.24426
 30
0.0
 10
-1.89327
 20
3.24426
 30
0.0
 10
-1.73672
 20
3.24426
 30
0.0
 10
-1.5802
 20
3.24426
 30
0.0
 10
-1.5802
 20
3.24426
 30
0.0
 10
-1.5802
 20
3.08772
 30
0.0
 10
-1.5802
 20
2.93117
 30
0.0
 10
-1.5802
 20
2.77461
 30
0.0
 10
-1.5802
 20
2.77461
 30
0.0
 10
-1.73672
 20
2.77461
 30
0.0
 10
-1.89327
 20
2.77461
 30
0.0
 10
-2.04979
 20
2.77461
 30
0.0
 10
-2.04979
 20
2.77461
 30
0.0
 10
-2.04979
 20
2.93117
 30
0.0
 10
-2.04979
 20
3.08772
 30
0.0
 10
-2.04979
 20
3.24426
 30
0.0
  0
SPLINE
  5
C7
330
1F
100
AcDbEntity
  8
Layer 1
 62
   242
370
     9
100
AcDbSpline
210
0.0
220
0.0
230
1.0
 70
    11
 71
     3
 72
    20
 73
    16
 74
     0
 42
0.0000000001
 43
0.0000000001
 12
1.0
 22
0.0
 32
0.0
 13
1.0
 23
0.0
 33
0.0
 40
0.0
 40
0.0
 40
0.0
 40
0.0
 40
0.2
 40
0.2
 40
0.2
 40
0.2
 40
0.4
 40
0.4
 40
0.4
 40
0.4
 40
0.6
 40
0.6
 40
0.6
 40
0.6
 40
1.0
 40
1.0
 40
1.0
 40
1.0
 10
-2.29699
 20
2.05784
 30
0.0
 10
-2.45349
 20
2.05784
 30
0.0
 10
-2.61008
 20
2.05784
 30
0.0
 10
-2.76658
 20
2.05784
 30
0.0
 10
-2.76658
 20
2.05784
 30
0.0
 10
-2.76658
 20
2.45333
 30
0.0
 10
-2.76658
 20
2.84876
 30
0.0
 10
-2.76658
 20
3.24426
 30
0.0
 10
-2.76658
 20
3.24426
 30
0.0
 10
-2.61008
 20
3.24426
 30
0.0
 10
-2.45349
 20
3.24426
 30
0.0
 10
-2.29699
 20
3.24426
 30
0.0
 10
-2.29699
 20
3.24426
 30
0.0
 10
-2.29699
 20
2.84876
 30
0.0
 10
-2.29699
 20
2.45333
 30
0.0
 10
-2.29699
 20
2.05784
 30
0.0
  0
SPLINE
  5
C8
330
1F
100
AcDbEntity
  8
Layer 1
 62
   242
370
     9
100
AcDbSpline
210
0.0
220
0.0
230
1.0
 70
    11
 71
     3
 72
    20
 73
    16
 74
     0
 42
0.0000000001
 43
0.0000000001
 12
1.0
 22
0.0
 32
0.0
 13
1.0
 23
0.0
 33
0.0
 40
0.0
 40
0.0
 40
0.0
 40
0.0
 40
0.2
 40
0.2
 40
0.2
 40
0.2
 40
0.4
 40
0.4
 40
0.4
 40
0.4
 40
0.6
 40
0.6
 40
0.6
 40
0.6
 40
1.0
 40
1.0
 40
1.0
 40
1.0
 10
-0.8634
 20
2.52745
 30
0.0
 10
-1.2589
 20
2.52745
 30
0.0
 10
-1.65432
 20
2.52745
 30
0.0
 10
-2.04979
 20
2.52745
 30
0.0
 10
-2.04979
 20
2.52745
 30
0.0
 10
-2.04979
 20
2.37091
 30
0.0
 10
-2.04979
 20
2.21442
 30
0.0
 10
-2.04979
 20
2.05784
 30
0.0
 10
-2.04979
 20
2.05784
 30
0.0
 10
-1.65432
 20
2.05784
 30
0.0
 10
-1.2589
 20
2.05784
 30
0.0
 10
-0.8634
 20
2.05784
 30
0.0
 10
-0.8634
 20
2.05784
 30
0.0
 10
-0.8634
 20
2.21442
 30
0.0
 10
-0.8634
 20
2.37091
 30
0.0
 10
-0.8634
 20
2.52745
 30
0.0
  0
SPLINE
  5
C9
330
1F
100
AcDbEntity
  8
Layer 1
 62
   242
370
     9
100
AcDbSpline
210
0.0
220
0.0
230
1.0
 70
    11
 71
     3
 72
    20
 73
    16
 74
     0
 42
0.0000000001
 43
0.0000000001
 12
1.0
 22
0.0
 32
0.0
 13
1.0
 23
0.0
 33
0.0
 40
0.0
 40
0.0
 40
0.0
 40
0.0
 40
0.2
 40
0.2
 40
0.2
 40
0.2
 40
0.4
 40
0.4
 40
0.4
 40
0.4
 40
0.6
 40
0.6
 40
0.6
 40
0.6
 40
1.0
 40
1.0
 40
1.0
 40
1.0
 10
-1.333
 20
3.96106
 30
0.0
 10
-1.17648
 20
3.96106
 30
0.0
 10
-1.01995
 20
3.96106
 30
0.0
 10
-0.8634
 20
3.96106
 30
0.0
 10
-0.8634
 20
3.96106
 30
0.0
 10
-0.8634
 20
3.5656
 30
0.0
 10
-0.8634
 20
3.17008
 30
0.0
 10
-0.8634
 20
2.77461
 30
0.0
 10
-0.8634
 20
2.77461
 30
0.0
 10
-1.01995
 20
2.77461
 30
0.0
 10
-1.17648
 20
2.77461
 30
0.0
 10
-1.333
 20
2.77461
 30
0.0
 10
-1.333
 20
2.77461
 30
0.0
 10
-1.333
 20
3.17008
 30
0.0
 10
-1.333
 20
3.5656
 30
0.0
 10
-1.333
 20
3.96106
 30
0.0
  0
SPLINE
  5
CA
330
1F
100
AcDbEntity
  8
Layer 1
 62
   242
370
     9
100
AcDbSpline
210
0.0
220
0.0
230
1.0
 70
    11
 71
     3
 72
    20
 73
    16
 74
     0
 42
0.0000000001
 43
0.0000000001
 12
1.0
 22
0.0
 32
0.0
 13
1.0
 23
0.0
 33
0.0
 40
0.0
 40
0.0
 40
0.0
 40
0.0
 40
0.2
 40
0.2
 40
0.2
 40
0.2
 40
0.4
 40
0.4
 40
0.4
 40
0.4
 40
0.6
 40
0.6
 40
0.6
 40
0.6
 40
1.0
 40
1.0
 40
1.0
 40
1.0
 10
-1.5802
 20
3.49142
 30
0.0
 10
-1.5802
 20
3.64801
 30
0.0
 10
-1.5802
 20
3.80451
 30
0.0
 10
-1.5802
 20
3.96106
 30
0.0
 10
-1.5802
 20
3.96106
 30
0.0
 10
-1.97567
 20
3.96106
 30
0.0
 10
-2.37109
 20
3.96106
 30
0.0
 10
-2.76658
 20
3.96106
 30
0.0
 10
-2.76658
 20
3.96106
 30
0.0
 10
-2.76658
 20
3.80451
 30
0.0
 10
-2.76658
 20
3.64801
 30
0.0
 10
-2.76658
 20
3.49142
 30
0.0
 10
-2.76658
 20
3.49142
 30
0.0
 10
-2.37109
 20
3.49142
 30
0.0
 10
-1.97567
 20
3.49142
 30
0.0
 10
-1.5802
 20
3.49142
 30
0.0
  0
SPLINE
  5
CB
330
1F
100
AcDbEntity
  8
Layer 1
 62
   242
370
     9
100
AcDbSpline
210
0.0
220
0.0
230
1.0
 70
    11
 71
     3
 72
    20
 73
    16
 74
     0
 42
0.0000000001
 43
0.0000000001
 12
1.0
 22
0.0
 32
0.0
 13
1.0
 23
0.0
 33
0.0
 40
0.0
 40
0.0
 40
0.0
 40
0.0
 40
0.2
 40
0.2
 40
0.2
 40
0.2
 40
0.4
 40
0.4
 40
0.4
 40
0.4
 40
0.6
 40
0.6
 40
0.6
 40
0.6
 40
1.0
 40
1.0
 40
1.0
 40
1.0
 10
-2.04979
 20
1.09393
 30
0.0
 10
-1.89327
 20
1.09393
 30
0.0
 10
-1.73672
 20
1.09393
 30
0.0
 10
-1.5802
 20
1.09393
 30
0.0
 10
-1.5802
 20
1.09393
 30
0.0
 10
-1.5802
 20
0.93735
 30
0.0
 10
-1.5802
 20
0.78081
 30
0.0
 10
-1.5802
 20
0.62424
 30
0.0
 10
-1.5802
 20
0.62424
 30
0.0
 10
-1.73672
 20
0.62424
 30
0.0
 10
-1.89327
 20
0.62424
 30
0.0
 10
-2.04979
 20
0.62424
 30
0.0
 10
-2.04979
 20
0.62424
 30
0.0
 10
-2.04979
 20
0.78081
 30
0.0
 10
-2.04979
 20
0.93735
 30
0.0
 10
-2.04979
 20
1.09393
 30
0.0
  0
SPLINE
  5
CC
330
1F
100
AcDbEntity
  8
Layer 1
 62
   242
370
     9
100
AcDbSpline
210
0.0
220
0.0
230
1.0
 70
    11
 71
     3
 72
    20
 73
    16
 74
     0
 42
0.0000000001
 43
0.0000000001
 12
1.0
 22
0.0
 32
0.0
 13
1.0
 23
0.0
 33
0.0
 40
0.0
 40
0.0
 40
0.0
 40
0.0
 40
0.2
 40
0.2
 40
0.2
 40
0.2
 40
0.4
 40
0.4
 40
0.4
 40
0.4
 40
0.6
 40
0.6
 40
0.6
 40
0.6
 40
1.0
 40
1.0
 40
1.0
 40
1.0
 10
-2.29699
 20
-0.09257
 30
0.0
 10
-2.45349
 20
-0.09257
 30
0.0
 10
-2.61008
 20
-0.09257
 30
0.0
 10
-2.76658
 20
-0.09257
 30
0.0
 10
-2.76658
 20
-0.09257
 30
0.0
 10
-2.76658
 20
0.30297
 30
0.0
 10
-2.76658
 20
0.69844
 30
0.0
 10
-2.76658
 20
1.09393
 30
0.0
 10
-2.76658
 20
1.09393
 30
0.0
 10
-2.61008
 20
1.09393
 30
0.0
 10
-2.45349
 20
1.09393
 30
0.0
 10
-2.29699
 20
1.09393
 30
0.0
 10
-2.29699
 20
1.09393
 30
0.0
 10
-2.29699
 20
0.69844
 30
0.0
 10
-2.29699
 20
0.30297
 30
0.0
 10
-2.29699
 20
-0.09257
 30
0.0
  0
SPLINE
  5
CD
330
1F
100
AcDbEntity
  8
Layer 1
 62
   242
370
     9
100
AcDbSpline
210
0.0
220
0.0
230
1.0
 70
    11
 71
     3
 72
    20
 73
    16
 74
     0
 42
0.0000000001
 43
0.0000000001
 12
1.0
 22
0.0
 32
0.0
 13
1.0
 23
0.0
 33
0.0
 40
0.0
 40
0.0
 40
0.0
 40
0.0
 40
0.2
 40
0.2
 40
0.2
 40
0.2
 40
0.4
 40
0.4
 40
0.4
 40
0.4
 40
0.6
 40
0.6
 40
0.6
 40
0.6
 40
1.0
 40
1.0
 40
1.0
 40
1.0
 10
-0.8634
 20
0.37711
 30
0.0
 10
-1.2589
 20
0.37711
 30
0.0
 10
-1.65432
 20
0.37711
 30
0.0
 10
-2.04979
 20
0.37711
 30
0.0
 10
-2.04979
 20
0.37711
 30
0.0
 10
-2.04979
 20
0.22055
 30
0.0
 10
-2.04979
 20
0.06403
 30
0.0
 10
-2.04979
 20
-0.09257
 30
0.0
 10
-2.04979
 20
-0.09257
 30
0.0
 10
-1.65432
 20
-0.09257
 30
0.0
 10
-1.2589
 20
-0.09257
 30
0.0
 10
-0.8634
 20
-0.09257
 30
0.0
 10
-0.8634
 20
-0.09257
 30
0.0
 10
-0.8634
 20
0.06403
 30
0.0
 10
-0.8634
 20
0.22055
 30
0.0
 10
-0.8634
 20
0.37711
 30
0.0
  0
SPLINE
  5
CE
330
1F
100
AcDbEntity
  8
Layer 1
 62
   242
370
     9
100
AcDbSpline
210
0.0
220
0.0
230
1.0
 70
    11
 71
     3
 72
    20
 73
    16
 74
     0
 42
0.0000000001
 43
0.0000000001
 12
1.0
 22
0.0
 32
0.0
 13
1.0
 23
0.0
 33
0.0
 40
0.0
 40
0.0
 40
0.0
 40
0.0
 40
0.2
 40
0.2
 40
0.2
 40
0.2
 40
0.4
 40
0.4
 40
0.4
 40
0.4
 40
0.6
 40
0.6
 40
0.6
 40
0.6
 40
1.0
 40
1.0
 40
1.0
 40
1.0
 10
-1.333
 20
1.81066
 30
0.0
 10
-1.17648
 20
1.81066
 30
0.0
 10
-1.01995
 20
1.81066
 30
0.0
 10
-0.8634
 20
1.81066
 30
0.0
 10
-0.8634
 20
1.81066
 30
0.0
 10
-0.8634
 20
1.41524
 30
0.0
 10
-0.8634
 20
1.01971
 30
0.0
 10
-0.8634
 20
0.62424
 30
0.0
 10
-0.8634
 20
0.62424
 30
0.0
 10
-1.01995
 20
0.62424
 30
0.0
 10
-1.17648
 20
0.62424
 30
0.0
 10
-1.333
 20
0.62424
 30
0.0
 10
-1.333
 20
0.62424
 30
0.0
 10
-1.333
 20
1.01974
 30
0.0
 10
-1.333
 20
1.41524
 30
0.0
 10
-1.333
 20
1.81066
 30
0.0
  0
SPLINE
  5
CF
330
1F
100
AcDbEntity
  8
Layer 1
 62
   242
370
     9
100
AcDbSpline
210
0.0
220
0.0
230
1.0
 70
    11
 71
     3
 72
    20
 73
    16
 74
     0
 42
0.0000000001
 43
0.0000000001
 12
1.0
 22
0.0
 32
0.0
 13
1.0
 23
0.0
 33
0.0
 40
0.0
 40
0.0
 40
0.0
 40
0.0
 40
0.2
 40
0.2
 40
0.2
 40
0.2
 40
0.4
 40
0.4
 40
0.4
 40
0.4
 40
0.6
 40
0.6
 40
0.6
 40
0.6
 40
1.0
 40
1.0
 40
1.0
 40
1.0
 10
-1.5802
 20
1.34106
 30
0.0
 10
-1.5802
 20
1.49765
 30
0.0
 10
-1.5802
 20
1.65414
 30
0.0
 10
-1.5802
 20
1.81066
 30
0.0
 10
-1.5802
 20
1.81066
 30
0.0
 10
-1.97567
 20
1.81066
 30
0.0
 10
-2.37109
 20
1.81066
 30
0.0
 10
-2.76658
 20
1.81066
 30
0.0
 10
-2.76658
 20
1.81066
 30
0.0
 10
-2.76658
 20
1.65414
 30
0.0
 10
-2.76658
 20
1.49765
 30
0.0
 10
-2.76658
 20
1.34106
 30
0.0
 10
-2.76658
 20
1.34106
 30
0.0
 10
-2.37109
 20
1.34106
 30
0.0
 10
-1.97567
 20
1.34106
 30
0.0
 10
-1.5802
 20
1.34106
 30
0.0
  0
SPLINE
  5
D0
330
1F
100
AcDbEntity
  8
Layer 1
 62
   242
370
     9
100
AcDbSpline
210
0.0
220
0.0
230
1.0
 70
    11
 71
     3
 72
    20
 73
    16
 74
     0
 42
0.0000000001
 43
0.0000000001
 12
1.0
 22
0.0
 32
0.0
 13
1.0
 23
0.0
 33
0.0
 40
0.0
 40
0.0
 40
0.0
 40
0.0
 40
0.2
 40
0.2
 40
0.2
 40
0.2
 40
0.4
 40
0.4
 40
0.4
 40
0.4
 40
0.6
 40
0.6
 40
0.6
 40
0.6
 40
1.0
 40
1.0
 40
1.0
 40
1.0
 10
-2.04979
 20
-1.0565
 30
0.0
 10
-1.89327
 20
-1.0565
 30
0.0
 10
-1.73672
 20
-1.0565
 30
0.0
 10
-1.5802
 20
-1.0565
 30
0.0
 10
-1.5802
 20
-1.0565
 30
0.0
 10
-1.5802
 20
-1.213
 30
0.0
 10
-1.5802
 20
-1.36956
 30
0.0
 10
-1.5802
 20
-1.52612
 30
0.0
 10
-1.5802
 20
-1.52612
 30
0.0
 10
-1.73672
 20
-1.52612
 30
0.0
 10
-1.89327
 20
-1.52612
 30
0.0
 10
-2.04979
 20
-1.52612
 30
0.0
 10
-2.04979
 20
-1.52612
 30
0.0
 10
-2.04979
 20
-1.36956
 30
0.0
 10
-2.04979
 20
-1.213
 30
0.0
 10
-2.04979
 20
-1.0565
 30
0.0
  0
SPLINE
  5
D1
330
1F
100
AcDbEntity
  8
Layer 1
 62
   242
370
     9
100
AcDbSpline
210
0.0
220
0.0
230
1.0
 70
    11
 71
     3
 72
    20
 73
    16
 74
     0
 42
0.0000000001
 43
0.0000000001
 12
1.0
 22
0.0
 32
0.0
 13
1.0
 23
0.0
 33
0.0
 40
0.0
 40
0.0
 40
0.0
 40
0.0
 40
0.2
 40
0.2
 40
0.2
 40
0.2
 40
0.4
 40
0.4
 40
0.4
 40
0.4
 40
0.6
 40
0.6
 40
0.6
 40
0.6
 40
1.0
 40
1.0
 40
1.0
 40
1.0
 10
-2.29699
 20
-2.24295
 30
0.0
 10
-2.45349
 20
-2.24295
 30
0.0
 10
-2.61008
 20
-2.24295
 30
0.0
 10
-2.76658
 20
-2.24295
 30
0.0
 10
-2.76658
 20
-2.24295
 30
0.0
 10
-2.76658
 20
-1.84744
 30
0.0
 10
-2.76658
 20
-1.45195
 30
0.0
 10
-2.76658
 20
-1.0565
 30
0.0
 10
-2.76658
 20
-1.0565
 30
0.0
 10
-2.61008
 20
-1.0565
 30
0.0
 10
-2.45349
 20
-1.0565
 30
0.0
 10
-2.29699
 20
-1.0565
 30
0.0
 10
-2.29699
 20
-1.0565
 30
0.0
 10
-2.29699
 20
-1.45195
 30
0.0
 10
-2.29699
 20
-1.84744
 30
0.0
 10
-2.29699
 20
-2.24295
 30
0.0
  0
SPLINE
  5
D2
330
1F
100
AcDbEntity
  8
Layer 1
 62
   242
370
     9
100
AcDbSpline
210
0.0
220
0.0
230
1.0
 70
    11
 71
     3
 72
    20
 73
    16
 74
     0
 42
0.0000000001
 43
0.0000000001
 12
1.0
 22
0.0
 32
0.0
 13
1.0
 23
0.0
 33
0.0
 40
0.0
 40
0.0
 40
0.0
 40
0.0
 40
0.2
 40
0.2
 40
0.2
 40
0.2
 40
0.4
 40
0.4
 40
0.4
 40
0.4
 40
0.6
 40
0.6
 40
0.6
 40
0.6
 40
1.0
 40
1.0
 40
1.0
 40
1.0
 10
-0.8634
 20
-1.77326
 30
0.0
 10
-1.2589
 20
-1.77326
 30
0.0
 10
-1.65432
 20
-1.77326
 30
0.0
 10
-2.04979
 20
-1.77326
 30
0.0
 10
-2.04979
 20
-1.77326
 30
0.0
 10
-2.04979
 20
-1.92985
 30
0.0
 10
-2.04979
 20
-2.08637
 30
0.0
 10
-2.04979
 20
-2.24295
 30
0.0
 10
-2.04979
 20
-2.24295
 30
0.0
 10
-1.65432
 20
-2.24295
 30
0.0
 10
-1.2589
 20
-2.24295
 30
0.0
 10
-0.8634
 20
-2.24295
 30
0.0
 10
-0.8634
 20
-2.24295
 30
0.0
 10
-0.8634
 20
-2.08637
 30
0.0
 10
-0.8634
 20
-1.92985
 30
0.0
 10
-0.8634
 20
-1.77326
 30
0.0
  0
SPLINE
  5
D3
330
1F
100
AcDbEntity
  8
Layer 1
 62
   242
370
     9
100
AcDbSpline
210
0.0
220
0.0
230
1.0
 70
    11
 71
     3
 72
    20
 73
    16
 74
     0
 42
0.0000000001
 43
0.0000000001
 12
1.0
 22
0.0
 32
0.0
 13
1.0
 23
0.0
 33
0.0
 40
0.0
 40
0.0
 40
0.0
 40
0.0
 40
0.2
 40
0.2
 40
0.2
 40
0.2
 40
0.4
 40
0.4
 40
0.4
 40
0.4
 40
0.6
 40
0.6
 40
0.6
 40
0.6
 40
1.0
 40
1.0
 40
1.0
 40
1.0
 10
-1.333
 20
-0.3397
 30
0.0
 10
-1.17648
 20
-0.3397
 30
0.0
 10
-1.01995
 20
-0.3397
 30
0.0
 10
-0.8634
 20
-0.3397
 30
0.0
 10
-0.8634
 20
-0.3397
 30
0.0
 10
-0.8634
 20
-0.73515
 30
0.0
 10
-0.8634
 20
-1.13064
 30
0.0
 10
-0.8634
 20
-1.52612
 30
0.0
 10
-0.8634
 20
-1.52612
 30
0.0
 10
-1.01995
 20
-1.52612
 30
0.0
 10
-1.17648
 20
-1.52612
 30
0.0
 10
-1.333
 20
-1.52612
 30
0.0
 10
-1.333
 20
-1.52612
 30
0.0
 10
-1.333
 20
-1.13064
 30
0.0
 10
-1.333
 20
-0.73515
 30
0.0
 10
-1.333
 20
-0.3397
 30
0.0
  0
SPLINE
  5
D4
330
1F
100
AcDbEntity
  8
Layer 1
 62
   242
370
     9
100
AcDbSpline
210
0.0
220
0.0
230
1.0
 70
    11
 71
     3
 72
    20
 73
    16
 74
     0
 42
0.0000000001
 43
0.0000000001
 12
1.0
 22
0.0
 32
0.0
 13
1.0
 23
0.0
 33
0.0
 40
0.0
 40
0.0
 40
0.0
 40
0.0
 40
0.2
 40
0.2
 40
0.2
 40
0.2
 40
0.4
 40
0.4
 40
0.4
 40
0.4
 40
0.6
 40
0.6
 40
0.6
 40
0.6
 40
1.0
 40
1.0
 40
1.0
 40
1.0
 10
-1.5802
 20
-0.80934
 30
0.0
 10
-1.5802
 20
-0.65274
 30
0.0
 10
-1.5802
 20
-0.49624
 30
0.0
 10
-1.5802
 20
-0.3397
 30
0.0
 10
-1.5802
 20
-0.3397
 30
0.0
 10
-1.97567
 20
-0.3397
 30
0.0
 10
-2.37109
 20
-0.3397
 30
0.0
 10
-2.76658
 20
-0.3397
 30
0.0
 10
-2.76658
 20
-0.3397
 30
0.0
 10
-2.76658
 20
-0.49624
 30
0.0
 10
-2.76658
 20
-0.65274
 30
0.0
 10
-2.76658
 20
-0.80934
 30
0.0
 10
-2.76658
 20
-0.80934
 30
0.0
 10
-2.37109
 20
-0.80934
 30
0.0
 10
-1.97567
 20
-0.80934
 30
0.0
 10
-1.5802
 20
-0.80934
 30
0.0
  0
SPLINE
  5
D5
330
1F
100
AcDbEntity
  8
Layer 1
 62
   242
370
     9
100
AcDbSpline
210
0.0
220
0.0
230
1.0
 70
    11
 71
     3
 72
    20
 73
    16
 74
     0
 42
0.0000000001
 43
0.0000000001
 12
1.0
 22
0.0
 32
0.0
 13
1.0
 23
0.0
 33
0.0
 40
0.0
 40
0.0
 40
0.0
 40
0.0
 40
0.2
 40
0.2
 40
0.2
 40
0.2
 40
0.4
 40
0.4
 40
0.4
 40
0.4
 40
0.6
 40
0.6
 40
0.6
 40
0.6
 40
1.0
 40
1.0
 40
1.0
 40
1.0
 10
-2.04979
 20
-3.20686
 30
0.0
 10
-1.89327
 20
-3.20686
 30
0.0
 10
-1.73672
 20
-3.20686
 30
0.0
 10
-1.5802
 20
-3.20686
 30
0.0
 10
-1.5802
 20
-3.20686
 30
0.0
 10
-1.5802
 20
-3.3634
 30
0.0
 10
-1.5802
 20
-3.51994
 30
0.0
 10
-1.5802
 20
-3.6765
 30
0.0
 10
-1.5802
 20
-3.6765
 30
0.0
 10
-1.73672
 20
-3.6765
 30
0.0
 10
-1.89327
 20
-3.6765
 30
0.0
 10
-2.04979
 20
-3.6765
 30
0.0
 10
-2.04979
 20
-3.6765
 30
0.0
 10
-2.04979
 20
-3.51994
 30
0.0
 10
-2.04979
 20
-3.3634
 30
0.0
 10
-2.04979
 20
-3.20686
 30
0.0
  0
SPLINE
  5
D6
330
1F
100
AcDbEntity
  8
Layer 1
 62
   242
370
     9
100
AcDbSpline
210
0.0
220
0.0
230
1.0
 70
    11
 71
     3
 72
    20
 73
    16
 74
     0
 42
0.0000000001
 43
0.0000000001
 12
1.0
 22
0.0
 32
0.0
 13
1.0
 23
0.0
 33
0.0
 40
0.0
 40
0.0
 40
0.0
 40
0.0
 40
0.2
 40
0.2
 40
0.2
 40
0.2
 40
0.4
 40
0.4
 40
0.4
 40
0.4
 40
0.6
 40
0.6
 40
0.6
 40
0.6
 40
1.0
 40
1.0
 40
1.0
 40
1.0
 10
-2.29699
 20
-4.39333
 30
0.0
 10
-2.45349
 20
-4.39333
 30
0.0
 10
-2.61008
 20
-4.39333
 30
0.0
 10
-2.76658
 20
-4.39333
 30
0.0
 10
-2.76658
 20
-4.39333
 30
0.0
 10
-2.76658
 20
-3.99782
 30
0.0
 10
-2.76658
 20
-3.60231
 30
0.0
 10
-2.76658
 20
-3.20686
 30
0.0
 10
-2.76658
 20
-3.20686
 30
0.0
 10
-2.61008
 20
-3.20686
 30
0.0
 10
-2.45349
 20
-3.20686
 30
0.0
 10
-2.29699
 20
-3.20686
 30
0.0
 10
-2.29699
 20
-3.20686
 30
0.0
 10
-2.29699
 20
-3.60231
 30
0.0
 10
-2.29699
 20
-3.99782
 30
0.0
 10
-2.29699
 20
-4.39333
 30
0.0
  0
SPLINE
  5
D7
330
1F
100
AcDbEntity
  8
Layer 1
 62
   242
370
     9
100
AcDbSpline
210
0.0
220
0.0
230
1.0
 70
    11
 71
     3
 72
    20
 73
    16
 74
     0
 42
0.0000000001
 43
0.0000000001
 12
1.0
 22
0.0
 32
0.0
 13
1.0
 23
0.0
 33
0.0
 40
0.0
 40
0.0
 40
0.0
 40
0.0
 40
0.2
 40
0.2
 40
0.2
 40
0.2
 40
0.4
 40
0.4
 40
0.4
 40
0.4
 40
0.6
 40
0.6
 40
0.6
 40
0.6
 40
1.0
 40
1.0
 40
1.0
 40
1.0
 10
-0.8634
 20
-3.92363
 30
0.0
 10
-1.2589
 20
-3.92363
 30
0.0
 10
-1.65432
 20
-3.92363
 30
0.0
 10
-2.04979
 20
-3.92363
 30
0.0
 10
-2.04979
 20
-3.92363
 30
0.0
 10
-2.04979
 20
-4.08024
 30
0.0
 10
-2.04979
 20
-4.23675
 30
0.0
 10
-2.04979
 20
-4.39333
 30
0.0
 10
-2.04979
 20
-4.39333
 30
0.0
 10
-1.65432
 20
-4.39333
 30
0.0
 10
-1.2589
 20
-4.39333
 30
0.0
 10
-0.8634
 20
-4.39333
 30
0.0
 10
-0.8634
 20
-4.39333
 30
0.0
 10
-0.8634
 20
-4.23675
 30
0.0
 10
-0.8634
 20
-4.08024
 30
0.0
 10
-0.8634
 20
-3.92363
 30
0.0
  0
SPLINE
  5
D8
330
1F
100
AcDbEntity
  8
Layer 1
 62
   242
370
     9
100
AcDbSpline
210
0.0
220
0.0
230
1.0
 70
    11
 71
     3
 72
    20
 73
    16
 74
     0
 42
0.0000000001
 43
0.0000000001
 12
1.0
 22
0.0
 32
0.0
 13
1.0
 23
0.0
 33
0.0
 40
0.0
 40
0.0
 40
0.0
 40
0.0
 40
0.2
 40
0.2
 40
0.2
 40
0.2
 40
0.4
 40
0.4
 40
0.4
 40
0.4
 40
0.6
 40
0.6
 40
0.6
 40
0.6
 40
1.0
 40
1.0
 40
1.0
 40
1.0
 10
-1.333
 20
-2.49011
 30
0.0
 10
-1.17648
 20
-2.49011
 30
0.0
 10
-1.01995
 20
-2.49011
 30
0.0
 10
-0.8634
 20
-2.49011
 30
0.0
 10
-0.8634
 20
-2.49011
 30
0.0
 10
-0.8634
 20
-2.88552
 30
0.0
 10
-0.8634
 20
-3.28105
 30
0.0
 10
-0.8634
 20
-3.6765
 30
0.0
 10
-0.8634
 20
-3.6765
 30
0.0
 10
-1.01995
 20
-3.6765
 30
0.0
 10
-1.17648
 20
-3.6765
 30
0.0
 10
-1.333
 20
-3.6765
 30
0.0
 10
-1.333
 20
-3.6765
 30
0.0
 10
-1.333
 20
-3.28105
 30
0.0
 10
-1.333
 20
-2.88555
 30
0.0
 10
-1.333
 20
-2.49011
 30
0.0
  0
SPLINE
  5
D9
330
1F
100
AcDbEntity
  8
Layer 1
 62
   242
370
     9
100
AcDbSpline
210
0.0
220
0.0
230
1.0
 70
    11
 71
     3
 72
    20
 73
    16
 74
     0
 42
0.0000000001
 43
0.0000000001
 12
1.0
 22
0.0
 32
0.0
 13
1.0
 23
0.0
 33
0.0
 40
0.0
 40
0.0
 40
0.0
 40
0.0
 40
0.2
 40
0.2
 40
0.2
 40
0.2
 40
0.4
 40
0.4
 40
0.4
 40
0.4
 40
0.6
 40
0.6
 40
0.6
 40
0.6
 40
1.0
 40
1.0
 40
1.0
 40
1.0
 10
-1.5802
 20
-2.95973
 30
0.0
 10
-1.5802
 20
-2.80314
 30
0.0
 10
-1.5802
 20
-2.64662
 30
0.0
 10
-1.5802
 20
-2.49011
 30
0.0
 10
-1.5802
 20
-2.49011
 30
0.0
 10
-1.97567
 20
-2.49011
 30
0.0
 10
-2.37109
 20
-2.49011
 30
0.0
 10
-2.76658
 20
-2.49011
 30
0.0
 10
-2.76658
 20
-2.49011
 30
0.0
 10
-2.76658
 20
-2.64662
 30
0.0
 10
-2.76658
 20
-2.80314
 30
0.0
 10
-2.76658
 20
-2.95973
 30
0.0
 10
-2.76658
 20
-2.95973
 30
0.0
 10
-2.37109
 20
-2.95973
 30
0.0
 10
-1.97567
 20
-2.95973
 30
0.0
 10
-1.5802
 20
-2.95973
 30
0.0
  0
SPLINE
  5
DA
330
1F
100
AcDbEntity
  8
Layer 1
 62
   242
370
     9
100
AcDbSpline
210
0.0
220
0.0
230
1.0
 70
    11
 71
     3
 72
    20
 73
    16
 74
     0
 42
0.0000000001
 43
0.0000000001
 12
1.0
 22
0.0
 32
0.0
 13
1.0
 23
0.0
 33
0.0
 40
0.0
 40
0.0
 40
0.0
 40
0.0
 40
0.2
 40
0.2
 40
0.2
 40
0.2
 40
0.4
 40
0.4
 40
0.4
 40
0.4
 40
0.6
 40
0.6
 40
0.6
 40
0.6
 40
1.0
 40
1.0
 40
1.0
 40
1.0
 10
-2.04979
 20
-5.35728
 30
0.0
 10
-1.89327
 20
-5.35728
 30
0.0
 10
-1.73672
 20
-5.35728
 30
0.0
 10
-1.5802
 20
-5.35728
 30
0.0
 10
-1.5802
 20
-5.35728
 30
0.0
 10
-1.5802
 20
-5.51377
 30
0.0
 10
-1.5802
 20
-5.67033
 30
0.0
 10
-1.5802
 20
-5.82687
 30
0.0
 10
-1.5802
 20
-5.82687
 30
0.0
 10
-1.73672
 20
-5.82687
 30
0.0
 10
-1.89327
 20
-5.82687
 30
0.0
 10
-2.04979
 20
-5.82687
 30
0.0
 10
-2.04979
 20
-5.82687
 30
0.0
 10
-2.04979
 20
-5.67033
 30
0.0
 10
-2.04979
 20
-5.51377
 30
0.0
 10
-2.04979
 20
-5.35728
 30
0.0
  0
SPLINE
  5
DB
330
1F
100
AcDbEntity
  8
Layer 1
 62
   242
370
     9
100
AcDbSpline
210
0.0
220
0.0
230
1.0
 70
    11
 71
     3
 72
    20
 73
    16
 74
     0
 42
0.0000000001
 43
0.0000000001
 12
1.0
 22
0.0
 32
0.0
 13
1.0
 23
0.0
 33
0.0
 40
0.0
 40
0.0
 40
0.0
 40
0.0
 40
0.2
 40
0.2
 40
0.2
 40
0.2
 40
0.4
 40
0.4
 40
0.4
 40
0.4
 40
0.6
 40
0.6
 40
0.6
 40
0.6
 40
1.0
 40
1.0
 40
1.0
 40
1.0
 10
-2.29699
 20
-6.54363
 30
0.0
 10
-2.45349
 20
-6.54363
 30
0.0
 10
-2.61008
 20
-6.54363
 30
0.0
 10
-2.76658
 20
-6.54363
 30
0.0
 10
-2.76658
 20
-6.54363
 30
0.0
 10
-2.76658
 20
-6.14821
 30
0.0
 10
-2.76658
 20
-5.75272
 30
0.0
 10
-2.76658
 20
-5.35728
 30
0.0
 10
-2.76658
 20
-5.35728
 30
0.0
 10
-2.61008
 20
-5.35728
 30
0.0
 10
-2.45349
 20
-5.35728
 30
0.0
 10
-2.29699
 20
-5.35728
 30
0.0
 10
-2.29699
 20
-5.35728
 30
0.0
 10
-2.29699
 20
-5.75272
 30
0.0
 10
-2.29699
 20
-6.14821
 30
0.0
 10
-2.29699
 20
-6.54363
 30
0.0
  0
SPLINE
  5
DC
330
1F
100
AcDbEntity
  8
Layer 1
 62
   242
370
     9
100
AcDbSpline
210
0.0
220
0.0
230
1.0
 70
    11
 71
     3
 72
    20
 73
    16
 74
     0
 42
0.0000000001
 43
0.0000000001
 12
1.0
 22
0.0
 32
0.0
 13
1.0
 23
0.0
 33
0.0
 40
0.0
 40
0.0
 40
0.0
 40
0.0
 40
0.2
 40
0.2
 40
0.2
 40
0.2
 40
0.4
 40
0.4
 40
0.4
 40
0.4
 40
0.6
 40
0.6
 40
0.6
 40
0.6
 40
1.0
 40
1.0
 40
1.0
 40
1.0
 10
-0.8634
 20
-6.074
 30
0.0
 10
-1.2589
 20
-6.074
 30
0.0
 10
-1.65432
 20
-6.074
 30
0.0
 10
-2.04979
 20
-6.074
 30
0.0
 10
-2.04979
 20
-6.074
 30
0.0
 10
-2.04979
 20
-6.23059
 30
0.0
 10
-2.04979
 20
-6.38714
 30
0.0
 10
-2.04979
 20
-6.54363
 30
0.0
 10
-2.04979
 20
-6.54363
 30
0.0
 10
-1.65432
 20
-6.54363
 30
0.0
 10
-1.2589
 20
-6.54363
 30
0.0
 10
-0.8634
 20
-6.54363
 30
0.0
 10
-0.8634
 20
-6.54363
 30
0.0
 10
-0.8634
 20
-6.38714
 30
0.0
 10
-0.8634
 20
-6.23059
 30
0.0
 10
-0.8634
 20
-6.074
 30
0.0
  0
SPLINE
  5
DD
330
1F
100
AcDbEntity
  8
Layer 1
 62
   242
370
     9
100
AcDbSpline
210
0.0
220
0.0
230
1.0
 70
    11
 71
     3
 72
    20
 73
    16
 74
     0
 42
0.0000000001
 43
0.0000000001
 12
1.0
 22
0.0
 32
0.0
 13
1.0
 23
0.0
 33
0.0
 40
0.0
 40
0.0
 40
0.0
 40
0.0
 40
0.2
 40
0.2
 40
0.2
 40
0.2
 40
0.4
 40
0.4
 40
0.4
 40
0.4
 40
0.6
 40
0.6
 40
0.6
 40
0.6
 40
1.0
 40
1.0
 40
1.0
 40
1.0
 10
-1.333
 20
-4.64049
 30
0.0
 10
-1.17648
 20
-4.64049
 30
0.0
 10
-1.01995
 20
-4.64049
 30
0.0
 10
-0.8634
 20
-4.64049
 30
0.0
 10
-0.8634
 20
-4.64049
 30
0.0
 10
-0.8634
 20
-5.03592
 30
0.0
 10
-0.8634
 20
-5.43143
 30
0.0
 10
-0.8634
 20
-5.82687
 30
0.0
 10
-0.8634
 20
-5.82687
 30
0.0
 10
-1.01995
 20
-5.82687
 30
0.0
 10
-1.17648
 20
-5.82687
 30
0.0
 10
-1.333
 20
-5.82687
 30
0.0
 10
-1.333
 20
-5.82687
 30
0.0
 10
-1.333
 20
-5.43143
 30
0.0
 10
-1.333
 20
-5.03592
 30
0.0
 10
-1.333
 20
-4.64049
 30
0.0
  0
SPLINE
  5
DE
330
1F
100
AcDbEntity
  8
Layer 1
 62
   242
370
     9
100
AcDbSpline
210
0.0
220
0.0
230
1.0
 70
    11
 71
     3
 72
    20
 73
    16
 74
     0
 42
0.0000000001
 43
0.0000000001
 12
1.0
 22
0.0
 32
0.0
 13
1.0
 23
0.0
 33
0.0
 40
0.0
 40
0.0
 40
0.0
 40
0.0
 40
0.2
 40
0.2
 40
0.2
 40
0.2
 40
0.4
 40
0.4
 40
0.4
 40
0.4
 40
0.6
 40
0.6
 40
0.6
 40
0.6
 40
1.0
 40
1.0
 40
1.0
 40
1.0
 10
-1.5802
 20
-5.11007
 30
0.0
 10
-1.5802
 20
-4.95352
 30
0.0
 10
-1.5802
 20
-4.79702
 30
0.0
 10
-1.5802
 20
-4.64049
 30
0.0
 10
-1.5802
 20
-4.64049
 30
0.0
 10
-1.97567
 20
-4.64049
 30
0.0
 10
-2.37109
 20
-4.64049
 30
0.0
 10
-2.76658
 20
-4.64049
 30
0.0
 10
-2.76658
 20
-4.64049
 30
0.0
 10
-2.76658
 20
-4.79702
 30
0.0
 10
-2.76658
 20
-4.95352
 30
0.0
 10
-2.76658
 20
-5.11007
 30
0.0
 10
-2.76658
 20
-5.11007
 30
0.0
 10
-2.37109
 20
-5.11007
 30
0.0
 10
-1.97567
 20
-5.11007
 30
0.0
 10
-1.5802
 20
-5.11007
 30
0.0
  0
SPLINE
  5
DF
330
1F
100
AcDbEntity
  8
Layer 1
 62
   242
370
     9
100
AcDbSpline
210
0.0
220
0.0
230
1.0
 70
    11
 71
     3
 72
    20
 73
    16
 74
     0
 42
0.0000000001
 43
0.0000000001
 12
1.0
 22
0.0
 32
0.0
 13
1.0
 23
0.0
 33
0.0
 40
0.0
 40
0.0
 40
0.0
 40
0.0
 40
0.2
 40
0.2
 40
0.2
 40
0.2
 40
0.4
 40
0.4
 40
0.4
 40
0.4
 40
0.6
 40
0.6
 40
0.6
 40
0.6
 40
1.0
 40
1.0
 40
1.0
 40
1.0
 10
0.10058
 20
7.54501
 30
0.0
 10
0.25713
 20
7.54501
 30
0.0
 10
0.41368
 20
7.54501
 30
0.0
 10
0.57016
 20
7.54501
 30
0.0
 10
0.57016
 20
7.54501
 30
0.0
 10
0.57016
 20
7.38848
 30
0.0
 10
0.57016
 20
7.23193
 30
0.0
 10
0.57016
 20
7.07538
 30
0.0
 10
0.57016
 20
7.07538
 30
0.0
 10
0.41368
 20
7.07538
 30
0.0
 10
0.25713
 20
7.07538
 30
0.0
 10
0.10058
 20
7.07538
 30
0.0
 10
0.10058
 20
7.07538
 30
0.0
 10
0.10058
 20
7.23193
 30
0.0
 10
0.10058
 20
7.38848
 30
0.0
 10
0.10058
 20
7.54501
 30
0.0
  0
SPLINE
  5
E0
330
1F
100
AcDbEntity
  8
Layer 1
 62
   242
370
     9
100
AcDbSpline
210
0.0
220
0.0
230
1.0
 70
    11
 71
     3
 72
    20
 73
    16
 74
     0
 42
0.0000000001
 43
0.0000000001
 12
1.0
 22
0.0
 32
0.0
 13
1.0
 23
0.0
 33
0.0
 40
0.0
 40
0.0
 40
0.0
 40
0.0
 40
0.2
 40
0.2
 40
0.2
 40
0.2
 40
0.4
 40
0.4
 40
0.4
 40
0.4
 40
0.6
 40
0.6
 40
0.6
 40
0.6
 40
1.0
 40
1.0
 40
1.0
 40
1.0
 10
-0.14659
 20
6.35858
 30
0.0
 10
-0.30312
 20
6.35858
 30
0.0
 10
-0.45973
 20
6.35858
 30
0.0
 10
-0.61621
 20
6.35858
 30
0.0
 10
-0.61621
 20
6.35858
 30
0.0
 10
-0.61621
 20
6.75411
 30
0.0
 10
-0.61621
 20
7.14951
 30
0.0
 10
-0.61621
 20
7.54501
 30
0.0
 10
-0.61621
 20
7.54501
 30
0.0
 10
-0.45973
 20
7.54501
 30
0.0
 10
-0.30312
 20
7.54501
 30
0.0
 10
-0.14659
 20
7.54501
 30
0.0
 10
-0.14659
 20
7.54501
 30
0.0
 10
-0.14659
 20
7.14951
 30
0.0
 10
-0.14659
 20
6.75411
 30
0.0
 10
-0.14659
 20
6.35858
 30
0.0
  0
SPLINE
  5
E1
330
1F
100
AcDbEntity
  8
Layer 1
 62
   242
370
     9
100
AcDbSpline
210
0.0
220
0.0
230
1.0
 70
    11
 71
     3
 72
    20
 73
    16
 74
     0
 42
0.0000000001
 43
0.0000000001
 12
1.0
 22
0.0
 32
0.0
 13
1.0
 23
0.0
 33
0.0
 40
0.0
 40
0.0
 40
0.0
 40
0.0
 40
0.2
 40
0.2
 40
0.2
 40
0.2
 40
0.4
 40
0.4
 40
0.4
 40
0.4
 40
0.6
 40
0.6
 40
0.6
 40
0.6
 40
1.0
 40
1.0
 40
1.0
 40
1.0
 10
1.28695
 20
6.82819
 30
0.0
 10
0.89151
 20
6.82819
 30
0.0
 10
0.49598
 20
6.82819
 30
0.0
 10
0.10058
 20
6.82819
 30
0.0
 10
0.10058
 20
6.82819
 30
0.0
 10
0.10058
 20
6.67167
 30
0.0
 10
0.10058
 20
6.51508
 30
0.0
 10
0.10058
 20
6.35858
 30
0.0
 10
0.10058
 20
6.35858
 30
0.0
 10
0.49598
 20
6.35858
 30
0.0
 10
0.89151
 20
6.35858
 30
0.0
 10
1.28695
 20
6.35858
 30
0.0
 10
1.28695
 20
6.35858
 30
0.0
 10
1.28695
 20
6.51508
 30
0.0
 10
1.28695
 20
6.67167
 30
0.0
 10
1.28695
 20
6.82819
 30
0.0
  0
SPLINE
  5
E2
330
1F
100
AcDbEntity
  8
Layer 1
 62
   242
370
     9
100
AcDbSpline
210
0.0
220
0.0
230
1.0
 70
    11
 71
     3
 72
    20
 73
    16
 74
     0
 42
0.0000000001
 43
0.0000000001
 12
1.0
 22
0.0
 32
0.0
 13
1.0
 23
0.0
 33
0.0
 40
0.0
 40
0.0
 40
0.0
 40
0.0
 40
0.2
 40
0.2
 40
0.2
 40
0.2
 40
0.4
 40
0.4
 40
0.4
 40
0.4
 40
0.6
 40
0.6
 40
0.6
 40
0.6
 40
1.0
 40
1.0
 40
1.0
 40
1.0
 10
0.81742
 20
8.26179
 30
0.0
 10
0.97388
 20
8.26179
 30
0.0
 10
1.13044
 20
8.26179
 30
0.0
 10
1.28695
 20
8.26179
 30
0.0
 10
1.28695
 20
8.26179
 30
0.0
 10
1.28695
 20
7.86632
 30
0.0
 10
1.28695
 20
7.47086
 30
0.0
 10
1.28695
 20
7.07538
 30
0.0
 10
1.28695
 20
7.07538
 30
0.0
 10
1.13044
 20
7.07538
 30
0.0
 10
0.97388
 20
7.07538
 30
0.0
 10
0.81742
 20
7.07538
 30
0.0
 10
0.81742
 20
7.07538
 30
0.0
 10
0.81742
 20
7.47089
 30
0.0
 10
0.81742
 20
7.86632
 30
0.0
 10
0.81742
 20
8.26179
 30
0.0
  0
SPLINE
  5
E3
330
1F
100
AcDbEntity
  8
Layer 1
 62
   242
370
     9
100
AcDbSpline
210
0.0
220
0.0
230
1.0
 70
    11
 71
     3
 72
    20
 73
    16
 74
     0
 42
0.0000000001
 43
0.0000000001
 12
1.0
 22
0.0
 32
0.0
 13
1.0
 23
0.0
 33
0.0
 40
0.0
 40
0.0
 40
0.0
 40
0.0
 40
0.2
 40
0.2
 40
0.2
 40
0.2
 40
0.4
 40
0.4
 40
0.4
 40
0.4
 40
0.6
 40
0.6
 40
0.6
 40
0.6
 40
1.0
 40
1.0
 40
1.0
 40
1.0
 10
0.57016
 20
7.79222
 30
0.0
 10
0.57016
 20
7.94871
 30
0.0
 10
0.57016
 20
8.1053
 30
0.0
 10
0.57016
 20
8.26179
 30
0.0
 10
0.57016
 20
8.26179
 30
0.0
 10
0.1747
 20
8.26179
 30
0.0
 10
-0.22078
 20
8.26179
 30
0.0
 10
-0.61621
 20
8.26179
 30
0.0
 10
-0.61621
 20
8.26179
 30
0.0
 10
-0.61621
 20
8.1053
 30
0.0
 10
-0.61621
 20
7.94871
 30
0.0
 10
-0.61621
 20
7.79222
 30
0.0
 10
-0.61621
 20
7.79222
 30
0.0
 10
-0.22078
 20
7.79222
 30
0.0
 10
0.1747
 20
7.79222
 30
0.0
 10
0.57016
 20
7.79222
 30
0.0
  0
SPLINE
  5
E4
330
1F
100
AcDbEntity
  8
Layer 1
 62
   242
370
     9
100
AcDbSpline
210
0.0
220
0.0
230
1.0
 70
    11
 71
     3
 72
    20
 73
    16
 74
     0
 42
0.0000000001
 43
0.0000000001
 12
1.0
 22
0.0
 32
0.0
 13
1.0
 23
0.0
 33
0.0
 40
0.0
 40
0.0
 40
0.0
 40
0.0
 40
0.2
 40
0.2
 40
0.2
 40
0.2
 40
0.4
 40
0.4
 40
0.4
 40
0.4
 40
0.6
 40
0.6
 40
0.6
 40
0.6
 40
1.0
 40
1.0
 40
1.0
 40
1.0
 10
0.10058
 20
5.39466
 30
0.0
 10
0.25713
 20
5.39466
 30
0.0
 10
0.41368
 20
5.39466
 30
0.0
 10
0.57016
 20
5.39466
 30
0.0
 10
0.57016
 20
5.39466
 30
0.0
 10
0.57016
 20
5.23811
 30
0.0
 10
0.57016
 20
5.08154
 30
0.0
 10
0.57016
 20
4.92499
 30
0.0
 10
0.57016
 20
4.92499
 30
0.0
 10
0.41368
 20
4.92499
 30
0.0
 10
0.25713
 20
4.92499
 30
0.0
 10
0.10058
 20
4.92499
 30
0.0
 10
0.10058
 20
4.92499
 30
0.0
 10
0.10058
 20
5.08154
 30
0.0
 10
0.10058
 20
5.23811
 30
0.0
 10
0.10058
 20
5.39466
 30
0.0
  0
SPLINE
  5
E5
330
1F
100
AcDbEntity
  8
Layer 1
 62
   242
370
     9
100
AcDbSpline
210
0.0
220
0.0
230
1.0
 70
    11
 71
     3
 72
    20
 73
    16
 74
     0
 42
0.0000000001
 43
0.0000000001
 12
1.0
 22
0.0
 32
0.0
 13
1.0
 23
0.0
 33
0.0
 40
0.0
 40
0.0
 40
0.0
 40
0.0
 40
0.2
 40
0.2
 40
0.2
 40
0.2
 40
0.4
 40
0.4
 40
0.4
 40
0.4
 40
0.6
 40
0.6
 40
0.6
 40
0.6
 40
1.0
 40
1.0
 40
1.0
 40
1.0
 10
-0.14659
 20
4.20821
 30
0.0
 10
-0.30312
 20
4.20821
 30
0.0
 10
-0.45973
 20
4.20821
 30
0.0
 10
-0.61621
 20
4.20821
 30
0.0
 10
-0.61621
 20
4.20821
 30
0.0
 10
-0.61621
 20
4.60371
 30
0.0
 10
-0.61621
 20
4.99915
 30
0.0
 10
-0.61621
 20
5.39466
 30
0.0
 10
-0.61621
 20
5.39466
 30
0.0
 10
-0.45973
 20
5.39466
 30
0.0
 10
-0.30312
 20
5.39466
 30
0.0
 10
-0.14659
 20
5.39466
 30
0.0
 10
-0.14659
 20
5.39466
 30
0.0
 10
-0.14659
 20
4.99915
 30
0.0
 10
-0.14659
 20
4.60373
 30
0.0
 10
-0.14659
 20
4.20821
 30
0.0
  0
SPLINE
  5
E6
330
1F
100
AcDbEntity
  8
Layer 1
 62
   242
370
     9
100
AcDbSpline
210
0.0
220
0.0
230
1.0
 70
    11
 71
     3
 72
    20
 73
    16
 74
     0
 42
0.0000000001
 43
0.0000000001
 12
1.0
 22
0.0
 32
0.0
 13
1.0
 23
0.0
 33
0.0
 40
0.0
 40
0.0
 40
0.0
 40
0.0
 40
0.2
 40
0.2
 40
0.2
 40
0.2
 40
0.4
 40
0.4
 40
0.4
 40
0.4
 40
0.6
 40
0.6
 40
0.6
 40
0.6
 40
1.0
 40
1.0
 40
1.0
 40
1.0
 10
1.28695
 20
4.67782
 30
0.0
 10
0.89151
 20
4.67782
 30
0.0
 10
0.49598
 20
4.67782
 30
0.0
 10
0.10058
 20
4.67782
 30
0.0
 10
0.10058
 20
4.67782
 30
0.0
 10
0.10058
 20
4.52128
 30
0.0
 10
0.10058
 20
4.36474
 30
0.0
 10
0.10058
 20
4.20821
 30
0.0
 10
0.10058
 20
4.20821
 30
0.0
 10
0.49598
 20
4.20821
 30
0.0
 10
0.89151
 20
4.20821
 30
0.0
 10
1.28695
 20
4.20821
 30
0.0
 10
1.28695
 20
4.20821
 30
0.0
 10
1.28695
 20
4.36474
 30
0.0
 10
1.28695
 20
4.52128
 30
0.0
 10
1.28695
 20
4.67782
 30
0.0
  0
SPLINE
  5
E7
330
1F
100
AcDbEntity
  8
Layer 1
 62
   242
370
     9
100
AcDbSpline
210
0.0
220
0.0
230
1.0
 70
    11
 71
     3
 72
    20
 73
    16
 74
     0
 42
0.0000000001
 43
0.0000000001
 12
1.0
 22
0.0
 32
0.0
 13
1.0
 23
0.0
 33
0.0
 40
0.0
 40
0.0
 40
0.0
 40
0.0
 40
0.2
 40
0.2
 40
0.2
 40
0.2
 40
0.4
 40
0.4
 40
0.4
 40
0.4
 40
0.6
 40
0.6
 40
0.6
 40
0.6
 40
1.0
 40
1.0
 40
1.0
 40
1.0
 10
0.81742
 20
6.11144
 30
0.0
 10
0.97388
 20
6.11144
 30
0.0
 10
1.13044
 20
6.11144
 30
0.0
 10
1.28695
 20
6.11144
 30
0.0
 10
1.28695
 20
6.11144
 30
0.0
 10
1.28695
 20
5.71597
 30
0.0
 10
1.28695
 20
5.32048
 30
0.0
 10
1.28695
 20
4.92499
 30
0.0
 10
1.28695
 20
4.92499
 30
0.0
 10
1.13044
 20
4.92499
 30
0.0
 10
0.97388
 20
4.92499
 30
0.0
 10
0.81742
 20
4.92499
 30
0.0
 10
0.81742
 20
4.92499
 30
0.0
 10
0.81742
 20
5.32048
 30
0.0
 10
0.81742
 20
5.71597
 30
0.0
 10
0.81742
 20
6.11144
 30
0.0
  0
SPLINE
  5
E8
330
1F
100
AcDbEntity
  8
Layer 1
 62
   242
370
     9
100
AcDbSpline
210
0.0
220
0.0
230
1.0
 70
    11
 71
     3
 72
    20
 73
    16
 74
     0
 42
0.0000000001
 43
0.0000000001
 12
1.0
 22
0.0
 32
0.0
 13
1.0
 23
0.0
 33
0.0
 40
0.0
 40
0.0
 40
0.0
 40
0.0
 40
0.2
 40
0.2
 40
0.2
 40
0.2
 40
0.4
 40
0.4
 40
0.4
 40
0.4
 40
0.6
 40
0.6
 40
0.6
 40
0.6
 40
1.0
 40
1.0
 40
1.0
 40
1.0
 10
0.57016
 20
5.64182
 30
0.0
 10
0.57016
 20
5.79831
 30
0.0
 10
0.57016
 20
5.95491
 30
0.0
 10
0.57016
 20
6.11144
 30
0.0
 10
0.57016
 20
6.11144
 30
0.0
 10
0.1747
 20
6.11144
 30
0.0
 10
-0.22078
 20
6.11144
 30
0.0
 10
-0.61621
 20
6.11144
 30
0.0
 10
-0.61621
 20
6.11144
 30
0.0
 10
-0.61621
 20
5.95491
 30
0.0
 10
-0.61621
 20
5.79831
 30
0.0
 10
-0.61621
 20
5.64182
 30
0.0
 10
-0.61621
 20
5.64182
 30
0.0
 10
-0.22078
 20
5.64182
 30
0.0
 10
0.1747
 20
5.64182
 30
0.0
 10
0.57016
 20
5.64182
 30
0.0
  0
SPLINE
  5
E9
330
1F
100
AcDbEntity
  8
Layer 1
 62
   242
370
     9
100
AcDbSpline
210
0.0
220
0.0
230
1.0
 70
    11
 71
     3
 72
    20
 73
    16
 74
     0
 42
0.0000000001
 43
0.0000000001
 12
1.0
 22
0.0
 32
0.0
 13
1.0
 23
0.0
 33
0.0
 40
0.0
 40
0.0
 40
0.0
 40
0.0
 40
0.2
 40
0.2
 40
0.2
 40
0.2
 40
0.4
 40
0.4
 40
0.4
 40
0.4
 40
0.6
 40
0.6
 40
0.6
 40
0.6
 40
1.0
 40
1.0
 40
1.0
 40
1.0
 10
0.10058
 20
3.24426
 30
0.0
 10
0.25713
 20
3.24426
 30
0.0
 10
0.41368
 20
3.24426
 30
0.0
 10
0.57016
 20
3.24426
 30
0.0
 10
0.57016
 20
3.24426
 30
0.0
 10
0.57016
 20
3.08772
 30
0.0
 10
0.57016
 20
2.93117
 30
0.0
 10
0.57016
 20
2.77461
 30
0.0
 10
0.57016
 20
2.77461
 30
0.0
 10
0.41368
 20
2.77461
 30
0.0
 10
0.25713
 20
2.77461
 30
0.0
 10
0.10058
 20
2.77461
 30
0.0
 10
0.10058
 20
2.77461
 30
0.0
 10
0.10058
 20
2.93117
 30
0.0
 10
0.10058
 20
3.08772
 30
0.0
 10
0.10058
 20
3.24426
 30
0.0
  0
SPLINE
  5
EA
330
1F
100
AcDbEntity
  8
Layer 1
 62
   242
370
     9
100
AcDbSpline
210
0.0
220
0.0
230
1.0
 70
    11
 71
     3
 72
    20
 73
    16
 74
     0
 42
0.0000000001
 43
0.0000000001
 12
1.0
 22
0.0
 32
0.0
 13
1.0
 23
0.0
 33
0.0
 40
0.0
 40
0.0
 40
0.0
 40
0.0
 40
0.2
 40
0.2
 40
0.2
 40
0.2
 40
0.4
 40
0.4
 40
0.4
 40
0.4
 40
0.6
 40
0.6
 40
0.6
 40
0.6
 40
1.0
 40
1.0
 40
1.0
 40
1.0
 10
-0.14659
 20
2.05784
 30
0.0
 10
-0.30312
 20
2.05784
 30
0.0
 10
-0.45973
 20
2.05784
 30
0.0
 10
-0.61621
 20
2.05784
 30
0.0
 10
-0.61621
 20
2.05784
 30
0.0
 10
-0.61621
 20
2.45333
 30
0.0
 10
-0.61621
 20
2.84876
 30
0.0
 10
-0.61621
 20
3.24426
 30
0.0
 10
-0.61621
 20
3.24426
 30
0.0
 10
-0.45973
 20
3.24426
 30
0.0
 10
-0.30312
 20
3.24426
 30
0.0
 10
-0.14659
 20
3.24426
 30
0.0
 10
-0.14659
 20
3.24426
 30
0.0
 10
-0.14659
 20
2.84876
 30
0.0
 10
-0.14659
 20
2.45333
 30
0.0
 10
-0.14659
 20
2.05784
 30
0.0
  0
SPLINE
  5
EB
330
1F
100
AcDbEntity
  8
Layer 1
 62
   242
370
     9
100
AcDbSpline
210
0.0
220
0.0
230
1.0
 70
    11
 71
     3
 72
    20
 73
    16
 74
     0
 42
0.0000000001
 43
0.0000000001
 12
1.0
 22
0.0
 32
0.0
 13
1.0
 23
0.0
 33
0.0
 40
0.0
 40
0.0
 40
0.0
 40
0.0
 40
0.2
 40
0.2
 40
0.2
 40
0.2
 40
0.4
 40
0.4
 40
0.4
 40
0.4
 40
0.6
 40
0.6
 40
0.6
 40
0.6
 40
1.0
 40
1.0
 40
1.0
 40
1.0
 10
1.28695
 20
2.52745
 30
0.0
 10
0.89151
 20
2.52745
 30
0.0
 10
0.49598
 20
2.52745
 30
0.0
 10
0.10058
 20
2.52745
 30
0.0
 10
0.10058
 20
2.52745
 30
0.0
 10
0.10058
 20
2.37091
 30
0.0
 10
0.10058
 20
2.21442
 30
0.0
 10
0.10058
 20
2.05784
 30
0.0
 10
0.10058
 20
2.05784
 30
0.0
 10
0.49598
 20
2.05784
 30
0.0
 10
0.89151
 20
2.05784
 30
0.0
 10
1.28695
 20
2.05784
 30
0.0
 10
1.28695
 20
2.05784
 30
0.0
 10
1.28695
 20
2.21442
 30
0.0
 10
1.28695
 20
2.37091
 30
0.0
 10
1.28695
 20
2.52745
 30
0.0
  0
SPLINE
  5
EC
330
1F
100
AcDbEntity
  8
Layer 1
 62
   242
370
     9
100
AcDbSpline
210
0.0
220
0.0
230
1.0
 70
    11
 71
     3
 72
    20
 73
    16
 74
     0
 42
0.0000000001
 43
0.0000000001
 12
1.0
 22
0.0
 32
0.0
 13
1.0
 23
0.0
 33
0.0
 40
0.0
 40
0.0
 40
0.0
 40
0.0
 40
0.2
 40
0.2
 40
0.2
 40
0.2
 40
0.4
 40
0.4
 40
0.4
 40
0.4
 40
0.6
 40
0.6
 40
0.6
 40
0.6
 40
1.0
 40
1.0
 40
1.0
 40
1.0
 10
0.81742
 20
3.96106
 30
0.0
 10
0.97388
 20
3.96106
 30
0.0
 10
1.13044
 20
3.96106
 30
0.0
 10
1.28695
 20
3.96106
 30
0.0
 10
1.28695
 20
3.96106
 30
0.0
 10
1.28695
 20
3.5656
 30
0.0
 10
1.28695
 20
3.17008
 30
0.0
 10
1.28695
 20
2.77461
 30
0.0
 10
1.28695
 20
2.77461
 30
0.0
 10
1.13044
 20
2.77461
 30
0.0
 10
0.97388
 20
2.77461
 30
0.0
 10
0.81742
 20
2.77461
 30
0.0
 10
0.81742
 20
2.77461
 30
0.0
 10
0.81742
 20
3.17008
 30
0.0
 10
0.81742
 20
3.5656
 30
0.0
 10
0.81742
 20
3.96106
 30
0.0
  0
SPLINE
  5
ED
330
1F
100
AcDbEntity
  8
Layer 1
 62
   242
370
     9
100
AcDbSpline
210
0.0
220
0.0
230
1.0
 70
    11
 71
     3
 72
    20
 73
    16
 74
     0
 42
0.0000000001
 43
0.0000000001
 12
1.0
 22
0.0
 32
0.0
 13
1.0
 23
0.0
 33
0.0
 40
0.0
 40
0.0
 40
0.0
 40
0.0
 40
0.2
 40
0.2
 40
0.2
 40
0.2
 40
0.4
 40
0.4
 40
0.4
 40
0.4
 40
0.6
 40
0.6
 40
0.6
 40
0.6
 40
1.0
 40
1.0
 40
1.0
 40
1.0
 10
0.57016
 20
3.49142
 30
0.0
 10
0.57016
 20
3.64801
 30
0.0
 10
0.57016
 20
3.80451
 30
0.0
 10
0.57016
 20
3.96106
 30
0.0
 10
0.57016
 20
3.96106
 30
0.0
 10
0.1747
 20
3.96106
 30
0.0
 10
-0.22078
 20
3.96106
 30
0.0
 10
-0.61621
 20
3.96106
 30
0.0
 10
-0.61621
 20
3.96106
 30
0.0
 10
-0.61621
 20
3.80451
 30
0.0
 10
-0.61621
 20
3.64801
 30
0.0
 10
-0.61621
 20
3.49142
 30
0.0
 10
-0.61621
 20
3.49142
 30
0.0
 10
-0.22078
 20
3.49142
 30
0.0
 10
0.1747
 20
3.49142
 30
0.0
 10
0.57016
 20
3.49142
 30
0.0
  0
SPLINE
  5
EE
330
1F
100
AcDbEntity
  8
Layer 1
 62
   242
370
     9
100
AcDbSpline
210
0.0
220
0.0
230
1.0
 70
    11
 71
     3
 72
    20
 73
    16
 74
     0
 42
0.0000000001
 43
0.0000000001
 12
1.0
 22
0.0
 32
0.0
 13
1.0
 23
0.0
 33
0.0
 40
0.0
 40
0.0
 40
0.0
 40
0.0
 40
0.2
 40
0.2
 40
0.2
 40
0.2
 40
0.4
 40
0.4
 40
0.4
 40
0.4
 40
0.6
 40
0.6
 40
0.6
 40
0.6
 40
1.0
 40
1.0
 40
1.0
 40
1.0
 10
0.10058
 20
1.09393
 30
0.0
 10
0.25713
 20
1.09393
 30
0.0
 10
0.41368
 20
1.09393
 30
0.0
 10
0.57016
 20
1.09393
 30
0.0
 10
0.57016
 20
1.09393
 30
0.0
 10
0.57016
 20
0.93735
 30
0.0
 10
0.57016
 20
0.78081
 30
0.0
 10
0.57016
 20
0.62424
 30
0.0
 10
0.57016
 20
0.62424
 30
0.0
 10
0.41368
 20
0.62424
 30
0.0
 10
0.25713
 20
0.62424
 30
0.0
 10
0.10058
 20
0.62424
 30
0.0
 10
0.10058
 20
0.62424
 30
0.0
 10
0.10058
 20
0.78081
 30
0.0
 10
0.10058
 20
0.93735
 30
0.0
 10
0.10058
 20
1.09393
 30
0.0
  0
SPLINE
  5
EF
330
1F
100
AcDbEntity
  8
Layer 1
 62
   242
370
     9
100
AcDbSpline
210
0.0
220
0.0
230
1.0
 70
    11
 71
     3
 72
    20
 73
    16
 74
     0
 42
0.0000000001
 43
0.0000000001
 12
1.0
 22
0.0
 32
0.0
 13
1.0
 23
0.0
 33
0.0
 40
0.0
 40
0.0
 40
0.0
 40
0.0
 40
0.2
 40
0.2
 40
0.2
 40
0.2
 40
0.4
 40
0.4
 40
0.4
 40
0.4
 40
0.6
 40
0.6
 40
0.6
 40
0.6
 40
1.0
 40
1.0
 40
1.0
 40
1.0
 10
-0.14659
 20
-0.09257
 30
0.0
 10
-0.30312
 20
-0.09257
 30
0.0
 10
-0.45973
 20
-0.09257
 30
0.0
 10
-0.61621
 20
-0.09257
 30
0.0
 10
-0.61621
 20
-0.09257
 30
0.0
 10
-0.61621
 20
0.30297
 30
0.0
 10
-0.61621
 20
0.69844
 30
0.0
 10
-0.61621
 20
1.09393
 30
0.0
 10
-0.61621
 20
1.09393
 30
0.0
 10
-0.45973
 20
1.09393
 30
0.0
 10
-0.30312
 20
1.09393
 30
0.0
 10
-0.14659
 20
1.09393
 30
0.0
 10
-0.14659
 20
1.09393
 30
0.0
 10
-0.14659
 20
0.69844
 30
0.0
 10
-0.14659
 20
0.30297
 30
0.0
 10
-0.14659
 20
-0.09257
 30
0.0
  0
SPLINE
  5
F0
330
1F
100
AcDbEntity
  8
Layer 1
 62
   242
370
     9
100
AcDbSpline
210
0.0
220
0.0
230
1.0
 70
    11
 71
     3
 72
    20
 73
    16
 74
     0
 42
0.0000000001
 43
0.0000000001
 12
1.0
 22
0.0
 32
0.0
 13
1.0
 23
0.0
 33
0.0
 40
0.0
 40
0.0
 40
0.0
 40
0.0
 40
0.2
 40
0.2
 40
0.2
 40
0.2
 40
0.4
 40
0.4
 40
0.4
 40
0.4
 40
0.6
 40
0.6
 40
0.6
 40
0.6
 40
1.0
 40
1.0
 40
1.0
 40
1.0
 10
1.28695
 20
0.37711
 30
0.0
 10
0.89151
 20
0.37711
 30
0.0
 10
0.49598
 20
0.37711
 30
0.0
 10
0.10058
 20
0.37711
 30
0.0
 10
0.10058
 20
0.37711
 30
0.0
 10
0.10058
 20
0.22055
 30
0.0
 10
0.10058
 20
0.06403
 30
0.0
 10
0.10058
 20
-0.09257
 30
0.0
 10
0.10058
 20
-0.09257
 30
0.0
 10
0.49598
 20
-0.09257
 30
0.0
 10
0.89151
 20
-0.09257
 30
0.0
 10
1.28695
 20
-0.09257
 30
0.0
 10
1.28695
 20
-0.09257
 30
0.0
 10
1.28695
 20
0.06403
 30
0.0
 10
1.28695
 20
0.22055
 30
0.0
 10
1.28695
 20
0.37711
 30
0.0
  0
SPLINE
  5
F1
330
1F
100
AcDbEntity
  8
Layer 1
 62
   242
370
     9
100
AcDbSpline
210
0.0
220
0.0
230
1.0
 70
    11
 71
     3
 72
    20
 73
    16
 74
     0
 42
0.0000000001
 43
0.0000000001
 12
1.0
 22
0.0
 32
0.0
 13
1.0
 23
0.0
 33
0.0
 40
0.0
 40
0.0
 40
0.0
 40
0.0
 40
0.2
 40
0.2
 40
0.2
 40
0.2
 40
0.4
 40
0.4
 40
0.4
 40
0.4
 40
0.6
 40
0.6
 40
0.6
 40
0.6
 40
1.0
 40
1.0
 40
1.0
 40
1.0
 10
0.81742
 20
1.81066
 30
0.0
 10
0.97388
 20
1.81066
 30
0.0
 10
1.13044
 20
1.81066
 30
0.0
 10
1.28695
 20
1.81066
 30
0.0
 10
1.28695
 20
1.81066
 30
0.0
 10
1.28695
 20
1.41524
 30
0.0
 10
1.28695
 20
1.01971
 30
0.0
 10
1.28695
 20
0.62424
 30
0.0
 10
1.28695
 20
0.62424
 30
0.0
 10
1.13044
 20
0.62424
 30
0.0
 10
0.97388
 20
0.62424
 30
0.0
 10
0.81742
 20
0.62424
 30
0.0
 10
0.81742
 20
0.62424
 30
0.0
 10
0.81742
 20
1.01974
 30
0.0
 10
0.81742
 20
1.41524
 30
0.0
 10
0.81742
 20
1.81066
 30
0.0
  0
SPLINE
  5
F2
330
1F
100
AcDbEntity
  8
Layer 1
 62
   242
370
     9
100
AcDbSpline
210
0.0
220
0.0
230
1.0
 70
    11
 71
     3
 72
    20
 73
    16
 74
     0
 42
0.0000000001
 43
0.0000000001
 12
1.0
 22
0.0
 32
0.0
 13
1.0
 23
0.0
 33
0.0
 40
0.0
 40
0.0
 40
0.0
 40
0.0
 40
0.2
 40
0.2
 40
0.2
 40
0.2
 40
0.4
 40
0.4
 40
0.4
 40
0.4
 40
0.6
 40
0.6
 40
0.6
 40
0.6
 40
1.0
 40
1.0
 40
1.0
 40
1.0
 10
0.57016
 20
1.34106
 30
0.0
 10
0.57016
 20
1.49765
 30
0.0
 10
0.57016
 20
1.65414
 30
0.0
 10
0.57016
 20
1.81066
 30
0.0
 10
0.57016
 20
1.81066
 30
0.0
 10
0.1747
 20
1.81066
 30
0.0
 10
-0.22078
 20
1.81066
 30
0.0
 10
-0.61621
 20
1.81066
 30
0.0
 10
-0.61621
 20
1.81066
 30
0.0
 10
-0.61621
 20
1.65414
 30
0.0
 10
-0.61621
 20
1.49765
 30
0.0
 10
-0.61621
 20
1.34106
 30
0.0
 10
-0.61621
 20
1.34106
 30
0.0
 10
-0.22078
 20
1.34106
 30
0.0
 10
0.1747
 20
1.34106
 30
0.0
 10
0.57016
 20
1.34106
 30
0.0
  0
SPLINE
  5
F3
330
1F
100
AcDbEntity
  8
Layer 1
 62
   242
370
     9
100
AcDbSpline
210
0.0
220
0.0
230
1.0
 70
    11
 71
     3
 72
    20
 73
    16
 74
     0
 42
0.0000000001
 43
0.0000000001
 12
1.0
 22
0.0
 32
0.0
 13
1.0
 23
0.0
 33
0.0
 40
0.0
 40
0.0
 40
0.0
 40
0.0
 40
0.2
 40
0.2
 40
0.2
 40
0.2
 40
0.4
 40
0.4
 40
0.4
 40
0.4
 40
0.6
 40
0.6
 40
0.6
 40
0.6
 40
1.0
 40
1.0
 40
1.0
 40
1.0
 10
0.10058
 20
-1.0565
 30
0.0
 10
0.25713
 20
-1.0565
 30
0.0
 10
0.41368
 20
-1.0565
 30
0.0
 10
0.57016
 20
-1.0565
 30
0.0
 10
0.57016
 20
-1.0565
 30
0.0
 10
0.57016
 20
-1.213
 30
0.0
 10
0.57016
 20
-1.36956
 30
0.0
 10
0.57016
 20
-1.52612
 30
0.0
 10
0.57016
 20
-1.52612
 30
0.0
 10
0.41368
 20
-1.52612
 30
0.0
 10
0.25713
 20
-1.52612
 30
0.0
 10
0.10058
 20
-1.52612
 30
0.0
 10
0.10058
 20
-1.52612
 30
0.0
 10
0.10058
 20
-1.36956
 30
0.0
 10
0.10058
 20
-1.213
 30
0.0
 10
0.10058
 20
-1.0565
 30
0.0
  0
SPLINE
  5
F4
330
1F
100
AcDbEntity
  8
Layer 1
 62
   242
370
     9
100
AcDbSpline
210
0.0
220
0.0
230
1.0
 70
    11
 71
     3
 72
    20
 73
    16
 74
     0
 42
0.0000000001
 43
0.0000000001
 12
1.0
 22
0.0
 32
0.0
 13
1.0
 23
0.0
 33
0.0
 40
0.0
 40
0.0
 40
0.0
 40
0.0
 40
0.2
 40
0.2
 40
0.2
 40
0.2
 40
0.4
 40
0.4
 40
0.4
 40
0.4
 40
0.6
 40
0.6
 40
0.6
 40
0.6
 40
1.0
 40
1.0
 40
1.0
 40
1.0
 10
-0.14659
 20
-2.24295
 30
0.0
 10
-0.30312
 20
-2.24295
 30
0.0
 10
-0.45973
 20
-2.24295
 30
0.0
 10
-0.61621
 20
-2.24295
 30
0.0
 10
-0.61621
 20
-2.24295
 30
0.0
 10
-0.61621
 20
-1.84744
 30
0.0
 10
-0.61621
 20
-1.45195
 30
0.0
 10
-0.61621
 20
-1.0565
 30
0.0
 10
-0.61621
 20
-1.0565
 30
0.0
 10
-0.45973
 20
-1.0565
 30
0.0
 10
-0.30312
 20
-1.0565
 30
0.0
 10
-0.14659
 20
-1.0565
 30
0.0
 10
-0.14659
 20
-1.0565
 30
0.0
 10
-0.14659
 20
-1.45195
 30
0.0
 10
-0.14659
 20
-1.84744
 30
0.0
 10
-0.14659
 20
-2.24295
 30
0.0
  0
SPLINE
  5
F5
330
1F
100
AcDbEntity
  8
Layer 1
 62
   242
370
     9
100
AcDbSpline
210
0.0
220
0.0
230
1.0
 70
    11
 71
     3
 72
    20
 73
    16
 74
     0
 42
0.0000000001
 43
0.0000000001
 12
1.0
 22
0.0
 32
0.0
 13
1.0
 23
0.0
 33
0.0
 40
0.0
 40
0.0
 40
0.0
 40
0.0
 40
0.2
 40
0.2
 40
0.2
 40
0.2
 40
0.4
 40
0.4
 40
0.4
 40
0.4
 40
0.6
 40
0.6
 40
0.6
 40
0.6
 40
1.0
 40
1.0
 40
1.0
 40
1.0
 10
1.28695
 20
-1.77326
 30
0.0
 10
0.89151
 20
-1.77326
 30
0.0
 10
0.49598
 20
-1.77326
 30
0.0
 10
0.10058
 20
-1.77326
 30
0.0
 10
0.10058
 20
-1.77326
 30
0.0
 10
0.10058
 20
-1.92985
 30
0.0
 10
0.10058
 20
-2.08637
 30
0.0
 10
0.10058
 20
-2.24295
 30
0.0
 10
0.10058
 20
-2.24295
 30
0.0
 10
0.49598
 20
-2.24295
 30
0.0
 10
0.89151
 20
-2.24295
 30
0.0
 10
1.28695
 20
-2.24295
 30
0.0
 10
1.28695
 20
-2.24295
 30
0.0
 10
1.28695
 20
-2.08637
 30
0.0
 10
1.28695
 20
-1.92985
 30
0.0
 10
1.28695
 20
-1.77326
 30
0.0
  0
SPLINE
  5
F6
330
1F
100
AcDbEntity
  8
Layer 1
 62
   242
370
     9
100
AcDbSpline
210
0.0
220
0.0
230
1.0
 70
    11
 71
     3
 72
    20
 73
    16
 74
     0
 42
0.0000000001
 43
0.0000000001
 12
1.0
 22
0.0
 32
0.0
 13
1.0
 23
0.0
 33
0.0
 40
0.0
 40
0.0
 40
0.0
 40
0.0
 40
0.2
 40
0.2
 40
0.2
 40
0.2
 40
0.4
 40
0.4
 40
0.4
 40
0.4
 40
0.6
 40
0.6
 40
0.6
 40
0.6
 40
1.0
 40
1.0
 40
1.0
 40
1.0
 10
0.81742
 20
-0.3397
 30
0.0
 10
0.97388
 20
-0.3397
 30
0.0
 10
1.13044
 20
-0.3397
 30
0.0
 10
1.28695
 20
-0.3397
 30
0.0
 10
1.28695
 20
-0.3397
 30
0.0
 10
1.28695
 20
-0.73515
 30
0.0
 10
1.28695
 20
-1.13064
 30
0.0
 10
1.28695
 20
-1.52612
 30
0.0
 10
1.28695
 20
-1.52612
 30
0.0
 10
1.13044
 20
-1.52612
 30
0.0
 10
0.97388
 20
-1.52612
 30
0.0
 10
0.81742
 20
-1.52612
 30
0.0
 10
0.81742
 20
-1.52612
 30
0.0
 10
0.81742
 20
-1.13064
 30
0.0
 10
0.81742
 20
-0.73515
 30
0.0
 10
0.81742
 20
-0.3397
 30
0.0
  0
SPLINE
  5
F7
330
1F
100
AcDbEntity
  8
Layer 1
 62
   242
370
     9
100
AcDbSpline
210
0.0
220
0.0
230
1.0
 70
    11
 71
     3
 72
    20
 73
    16
 74
     0
 42
0.0000000001
 43
0.0000000001
 12
1.0
 22
0.0
 32
0.0
 13
1.0
 23
0.0
 33
0.0
 40
0.0
 40
0.0
 40
0.0
 40
0.0
 40
0.2
 40
0.2
 40
0.2
 40
0.2
 40
0.4
 40
0.4
 40
0.4
 40
0.4
 40
0.6
 40
0.6
 40
0.6
 40
0.6
 40
1.0
 40
1.0
 40
1.0
 40
1.0
 10
0.57016
 20
-0.80934
 30
0.0
 10
0.57016
 20
-0.65274
 30
0.0
 10
0.57016
 20
-0.49624
 30
0.0
 10
0.57016
 20
-0.3397
 30
0.0
 10
0.57016
 20
-0.3397
 30
0.0
 10
0.1747
 20
-0.3397
 30
0.0
 10
-0.22078
 20
-0.3397
 30
0.0
 10
-0.61621
 20
-0.3397
 30
0.0
 10
-0.61621
 20
-0.3397
 30
0.0
 10
-0.61621
 20
-0.49624
 30
0.0
 10
-0.61621
 20
-0.65274
 30
0.0
 10
-0.61621
 20
-0.80934
 30
0.0
 10
-0.61621
 20
-0.80934
 30
0.0
 10
-0.22078
 20
-0.80934
 30
0.0
 10
0.1747
 20
-0.80934
 30
0.0
 10
0.57016
 20
-0.80934
 30
0.0
  0
SPLINE
  5
F8
330
1F
100
AcDbEntity
  8
Layer 1
 62
   242
370
     9
100
AcDbSpline
210
0.0
220
0.0
230
1.0
 70
    11
 71
     3
 72
    20
 73
    16
 74
     0
 42
0.0000000001
 43
0.0000000001
 12
1.0
 22
0.0
 32
0.0
 13
1.0
 23
0.0
 33
0.0
 40
0.0
 40
0.0
 40
0.0
 40
0.0
 40
0.2
 40
0.2
 40
0.2
 40
0.2
 40
0.4
 40
0.4
 40
0.4
 40
0.4
 40
0.6
 40
0.6
 40
0.6
 40
0.6
 40
1.0
 40
1.0
 40
1.0
 40
1.0
 10
0.10058
 20
-3.20686
 30
0.0
 10
0.25713
 20
-3.20686
 30
0.0
 10
0.41368
 20
-3.20686
 30
0.0
 10
0.57016
 20
-3.20686
 30
0.0
 10
0.57016
 20
-3.20686
 30
0.0
 10
0.57016
 20
-3.3634
 30
0.0
 10
0.57016
 20
-3.51994
 30
0.0
 10
0.57016
 20
-3.6765
 30
0.0
 10
0.57016
 20
-3.6765
 30
0.0
 10
0.41368
 20
-3.6765
 30
0.0
 10
0.25713
 20
-3.6765
 30
0.0
 10
0.10058
 20
-3.6765
 30
0.0
 10
0.10058
 20
-3.6765
 30
0.0
 10
0.10058
 20
-3.51994
 30
0.0
 10
0.10058
 20
-3.3634
 30
0.0
 10
0.10058
 20
-3.20686
 30
0.0
  0
SPLINE
  5
F9
330
1F
100
AcDbEntity
  8
Layer 1
 62
   242
370
     9
100
AcDbSpline
210
0.0
220
0.0
230
1.0
 70
    11
 71
     3
 72
    20
 73
    16
 74
     0
 42
0.0000000001
 43
0.0000000001
 12
1.0
 22
0.0
 32
0.0
 13
1.0
 23
0.0
 33
0.0
 40
0.0
 40
0.0
 40
0.0
 40
0.0
 40
0.2
 40
0.2
 40
0.2
 40
0.2
 40
0.4
 40
0.4
 40
0.4
 40
0.4
 40
0.6
 40
0.6
 40
0.6
 40
0.6
 40
1.0
 40
1.0
 40
1.0
 40
1.0
 10
-0.14659
 20
-4.39333
 30
0.0
 10
-0.30312
 20
-4.39333
 30
0.0
 10
-0.45973
 20
-4.39333
 30
0.0
 10
-0.61621
 20
-4.39333
 30
0.0
 10
-0.61621
 20
-4.39333
 30
0.0
 10
-0.61621
 20
-3.99782
 30
0.0
 10
-0.61621
 20
-3.60231
 30
0.0
 10
-0.61621
 20
-3.20686
 30
0.0
 10
-0.61621
 20
-3.20686
 30
0.0
 10
-0.45973
 20
-3.20686
 30
0.0
 10
-0.30312
 20
-3.20686
 30
0.0
 10
-0.14659
 20
-3.20686
 30
0.0
 10
-0.14659
 20
-3.20686
 30
0.0
 10
-0.14659
 20
-3.60231
 30
0.0
 10
-0.14659
 20
-3.99782
 30
0.0
 10
-0.14659
 20
-4.39333
 30
0.0
  0
SPLINE
  5
FA
330
1F
100
AcDbEntity
  8
Layer 1
 62
   242
370
     9
100
AcDbSpline
210
0.0
220
0.0
230
1.0
 70
    11
 71
     3
 72
    20
 73
    16
 74
     0
 42
0.0000000001
 43
0.0000000001
 12
1.0
 22
0.0
 32
0.0
 13
1.0
 23
0.0
 33
0.0
 40
0.0
 40
0.0
 40
0.0
 40
0.0
 40
0.2
 40
0.2
 40
0.2
 40
0.2
 40
0.4
 40
0.4
 40
0.4
 40
0.4
 40
0.6
 40
0.6
 40
0.6
 40
0.6
 40
1.0
 40
1.0
 40
1.0
 40
1.0
 10
1.28695
 20
-3.92363
 30
0.0
 10
0.89151
 20
-3.92363
 30
0.0
 10
0.49598
 20
-3.92363
 30
0.0
 10
0.10058
 20
-3.92363
 30
0.0
 10
0.10058
 20
-3.92363
 30
0.0
 10
0.10058
 20
-4.08024
 30
0.0
 10
0.10058
 20
-4.23675
 30
0.0
 10
0.10058
 20
-4.39333
 30
0.0
 10
0.10058
 20
-4.39333
 30
0.0
 10
0.49598
 20
-4.39333
 30
0.0
 10
0.89151
 20
-4.39333
 30
0.0
 10
1.28695
 20
-4.39333
 30
0.0
 10
1.28695
 20
-4.39333
 30
0.0
 10
1.28695
 20
-4.23675
 30
0.0
 10
1.28695
 20
-4.08024
 30
0.0
 10
1.28695
 20
-3.92363
 30
0.0
  0
SPLINE
  5
FB
330
1F
100
AcDbEntity
  8
Layer 1
 62
   242
370
     9
100
AcDbSpline
210
0.0
220
0.0
230
1.0
 70
    11
 71
     3
 72
    20
 73
    16
 74
     0
 42
0.0000000001
 43
0.0000000001
 12
1.0
 22
0.0
 32
0.0
 13
1.0
 23
0.0
 33
0.0
 40
0.0
 40
0.0
 40
0.0
 40
0.0
 40
0.2
 40
0.2
 40
0.2
 40
0.2
 40
0.4
 40
0.4
 40
0.4
 40
0.4
 40
0.6
 40
0.6
 40
0.6
 40
0.6
 40
1.0
 40
1.0
 40
1.0
 40
1.0
 10
0.81742
 20
-2.49011
 30
0.0
 10
0.97388
 20
-2.49011
 30
0.0
 10
1.13044
 20
-2.49011
 30
0.0
 10
1.28695
 20
-2.49011
 30
0.0
 10
1.28695
 20
-2.49011
 30
0.0
 10
1.28695
 20
-2.88552
 30
0.0
 10
1.28695
 20
-3.28105
 30
0.0
 10
1.28695
 20
-3.6765
 30
0.0
 10
1.28695
 20
-3.6765
 30
0.0
 10
1.13044
 20
-3.6765
 30
0.0
 10
0.97388
 20
-3.6765
 30
0.0
 10
0.81742
 20
-3.6765
 30
0.0
 10
0.81742
 20
-3.6765
 30
0.0
 10
0.81742
 20
-3.28105
 30
0.0
 10
0.81742
 20
-2.88555
 30
0.0
 10
0.81742
 20
-2.49011
 30
0.0
  0
SPLINE
  5
FC
330
1F
100
AcDbEntity
  8
Layer 1
 62
   242
370
     9
100
AcDbSpline
210
0.0
220
0.0
230
1.0
 70
    11
 71
     3
 72
    20
 73
    16
 74
     0
 42
0.0000000001
 43
0.0000000001
 12
1.0
 22
0.0
 32
0.0
 13
1.0
 23
0.0
 33
0.0
 40
0.0
 40
0.0
 40
0.0
 40
0.0
 40
0.2
 40
0.2
 40
0.2
 40
0.2
 40
0.4
 40
0.4
 40
0.4
 40
0.4
 40
0.6
 40
0.6
 40
0.6
 40
0.6
 40
1.0
 40
1.0
 40
1.0
 40
1.0
 10
0.57016
 20
-2.95973
 30
0.0
 10
0.57016
 20
-2.80314
 30
0.0
 10
0.57016
 20
-2.64662
 30
0.0
 10
0.57016
 20
-2.49011
 30
0.0
 10
0.57016
 20
-2.49011
 30
0.0
 10
0.1747
 20
-2.49011
 30
0.0
 10
-0.22078
 20
-2.49011
 30
0.0
 10
-0.61621
 20
-2.49011
 30
0.0
 10
-0.61621
 20
-2.49011
 30
0.0
 10
-0.61621
 20
-2.64662
 30
0.0
 10
-0.61621
 20
-2.80314
 30
0.0
 10
-0.61621
 20
-2.95973
 30
0.0
 10
-0.61621
 20
-2.95973
 30
0.0
 10
-0.22078
 20
-2.95973
 30
0.0
 10
0.1747
 20
-2.95973
 30
0.0
 10
0.57016
 20
-2.95973
 30
0.0
  0
SPLINE
  5
FD
330
1F
100
AcDbEntity
  8
Layer 1
 62
   242
370
     9
100
AcDbSpline
210
0.0
220
0.0
230
1.0
 70
    11
 71
     3
 72
    20
 73
    16
 74
     0
 42
0.0000000001
 43
0.0000000001
 12
1.0
 22
0.0
 32
0.0
 13
1.0
 23
0.0
 33
0.0
 40
0.0
 40
0.0
 40
0.0
 40
0.0
 40
0.2
 40
0.2
 40
0.2
 40
0.2
 40
0.4
 40
0.4
 40
0.4
 40
0.4
 40
0.6
 40
0.6
 40
0.6
 40
0.6
 40
1.0
 40
1.0
 40
1.0
 40
1.0
 10
0.10058
 20
-5.35728
 30
0.0
 10
0.25713
 20
-5.35728
 30
0.0
 10
0.41368
 20
-5.35728
 30
0.0
 10
0.57016
 20
-5.35728
 30
0.0
 10
0.57016
 20
-5.35728
 30
0.0
 10
0.57016
 20
-5.51377
 30
0.0
 10
0.57016
 20
-5.67033
 30
0.0
 10
0.57016
 20
-5.82687
 30
0.0
 10
0.57016
 20
-5.82687
 30
0.0
 10
0.41368
 20
-5.82687
 30
0.0
 10
0.25713
 20
-5.82687
 30
0.0
 10
0.10058
 20
-5.82687
 30
0.0
 10
0.10058
 20
-5.82687
 30
0.0
 10
0.10058
 20
-5.67033
 30
0.0
 10
0.10058
 20
-5.51377
 30
0.0
 10
0.10058
 20
-5.35728
 30
0.0
  0
SPLINE
  5
FE
330
1F
100
AcDbEntity
  8
Layer 1
 62
   242
370
     9
100
AcDbSpline
210
0.0
220
0.0
230
1.0
 70
    11
 71
     3
 72
    20
 73
    16
 74
     0
 42
0.0000000001
 43
0.0000000001
 12
1.0
 22
0.0
 32
0.0
 13
1.0
 23
0.0
 33
0.0
 40
0.0
 40
0.0
 40
0.0
 40
0.0
 40
0.2
 40
0.2
 40
0.2
 40
0.2
 40
0.4
 40
0.4
 40
0.4
 40
0.4
 40
0.6
 40
0.6
 40
0.6
 40
0.6
 40
1.0
 40
1.0
 40
1.0
 40
1.0
 10
-0.14659
 20
-6.54363
 30
0.0
 10
-0.30312
 20
-6.54363
 30
0.0
 10
-0.45973
 20
-6.54363
 30
0.0
 10
-0.61621
 20
-6.54363
 30
0.0
 10
-0.61621
 20
-6.54363
 30
0.0
 10
-0.61621
 20
-6.14821
 30
0.0
 10
-0.61621
 20
-5.75272
 30
0.0
 10
-0.61621
 20
-5.35728
 30
0.0
 10
-0.61621
 20
-5.35728
 30
0.0
 10
-0.45973
 20
-5.35728
 30
0.0
 10
-0.30312
 20
-5.35728
 30
0.0
 10
-0.14659
 20
-5.35728
 30
0.0
 10
-0.14659
 20
-5.35728
 30
0.0
 10
-0.14659
 20
-5.75272
 30
0.0
 10
-0.14659
 20
-6.14821
 30
0.0
 10
-0.14659
 20
-6.54363
 30
0.0
  0
SPLINE
  5
FF
330
1F
100
AcDbEntity
  8
Layer 1
 62
   242
370
     9
100
AcDbSpline
210
0.0
220
0.0
230
1.0
 70
    11
 71
     3
 72
    20
 73
    16
 74
     0
 42
0.0000000001
 43
0.0000000001
 12
1.0
 22
0.0
 32
0.0
 13
1.0
 23
0.0
 33
0.0
 40
0.0
 40
0.0
 40
0.0
 40
0.0
 40
0.2
 40
0.2
 40
0.2
 40
0.2
 40
0.4
 40
0.4
 40
0.4
 40
0.4
 40
0.6
 40
0.6
 40
0.6
 40
0.6
 40
1.0
 40
1.0
 40
1.0
 40
1.0
 10
1.28695
 20
-6.074
 30
0.0
 10
0.89151
 20
-6.074
 30
0.0
 10
0.49598
 20
-6.074
 30
0.0
 10
0.10058
 20
-6.074
 30
0.0
 10
0.10058
 20
-6.074
 30
0.0
 10
0.10058
 20
-6.23059
 30
0.0
 10
0.10058
 20
-6.38714
 30
0.0
 10
0.10058
 20
-6.54363
 30
0.0
 10
0.10058
 20
-6.54363
 30
0.0
 10
0.49598
 20
-6.54363
 30
0.0
 10
0.89151
 20
-6.54363
 30
0.0
 10
1.28695
 20
-6.54363
 30
0.0
 10
1.28695
 20
-6.54363
 30
0.0
 10
1.28695
 20
-6.38714
 30
0.0
 10
1.28695
 20
-6.23059
 30
0.0
 10
1.28695
 20
-6.074
 30
0.0
  0
SPLINE
  5
100
330
1F
100
AcDbEntity
  8
Layer 1
 62
   242
370
     9
100
AcDbSpline
210
0.0
220
0.0
230
1.0
 70
    11
 71
     3
 72
    20
 73
    16
 74
     0
 42
0.0000000001
 43
0.0000000001
 12
1.0
 22
0.0
 32
0.0
 13
1.0
 23
0.0
 33
0.0
 40
0.0
 40
0.0
 40
0.0
 40
0.0
 40
0.2
 40
0.2
 40
0.2
 40
0.2
 40
0.4
 40
0.4
 40
0.4
 40
0.4
 40
0.6
 40
0.6
 40
0.6
 40
0.6
 40
1.0
 40
1.0
 40
1.0
 40
1.0
 10
0.81742
 20
-4.64049
 30
0.0
 10
0.97388
 20
-4.64049
 30
0.0
 10
1.13044
 20
-4.64049
 30
0.0
 10
1.28695
 20
-4.64049
 30
0.0
 10
1.28695
 20
-4.64049
 30
0.0
 10
1.28695
 20
-5.03592
 30
0.0
 10
1.28695
 20
-5.43143
 30
0.0
 10
1.28695
 20
-5.82687
 30
0.0
 10
1.28695
 20
-5.82687
 30
0.0
 10
1.13044
 20
-5.82687
 30
0.0
 10
0.97388
 20
-5.82687
 30
0.0
 10
0.81742
 20
-5.82687
 30
0.0
 10
0.81742
 20
-5.82687
 30
0.0
 10
0.81742
 20
-5.43143
 30
0.0
 10
0.81742
 20
-5.03592
 30
0.0
 10
0.81742
 20
-4.64049
 30
0.0
  0
SPLINE
  5
101
330
1F
100
AcDbEntity
  8
Layer 1
 62
   242
370
     9
100
AcDbSpline
210
0.0
220
0.0
230
1.0
 70
    11
 71
     3
 72
    20
 73
    16
 74
     0
 42
0.0000000001
 43
0.0000000001
 12
1.0
 22
0.0
 32
0.0
 13
1.0
 23
0.0
 33
0.0
 40
0.0
 40
0.0
 40
0.0
 40
0.0
 40
0.2
 40
0.2
 40
0.2
 40
0.2
 40
0.4
 40
0.4
 40
0.4
 40
0.4
 40
0.6
 40
0.6
 40
0.6
 40
0.6
 40
1.0
 40
1.0
 40
1.0
 40
1.0
 10
0.57016
 20
-5.11007
 30
0.0
 10
0.57016
 20
-4.95352
 30
0.0
 10
0.57016
 20
-4.79702
 30
0.0
 10
0.57016
 20
-4.64049
 30
0.0
 10
0.57016
 20
-4.64049
 30
0.0
 10
0.1747
 20
-4.64049
 30
0.0
 10
-0.22078
 20
-4.64049
 30
0.0
 10
-0.61621
 20
-4.64049
 30
0.0
 10
-0.61621
 20
-4.64049
 30
0.0
 10
-0.61621
 20
-4.79702
 30
0.0
 10
-0.61621
 20
-4.95352
 30
0.0
 10
-0.61621
 20
-5.11007
 30
0.0
 10
-0.61621
 20
-5.11007
 30
0.0
 10
-0.22078
 20
-5.11007
 30
0.0
 10
0.1747
 20
-5.11007
 30
0.0
 10
0.57016
 20
-5.11007
 30
0.0
  0
SPLINE
  5
102
330
1F
100
AcDbEntity
  8
Layer 1
 62
   242
370
     9
100
AcDbSpline
210
0.0
220
0.0
230
1.0
 70
    11
 71
     3
 72
    20
 73
    16
 74
     0
 42
0.0000000001
 43
0.0000000001
 12
1.0
 22
0.0
 32
0.0
 13
1.0
 23
0.0
 33
0.0
 40
0.0
 40
0.0
 40
0.0
 40
0.0
 40
0.2
 40
0.2
 40
0.2
 40
0.2
 40
0.4
 40
0.4
 40
0.4
 40
0.4
 40
0.6
 40
0.6
 40
0.6
 40
0.6
 40
1.0
 40
1.0
 40
1.0
 40
1.0
 10
-2.04979
 20
18.29691
 30
0.0
 10
-1.89327
 20
18.29691
 30
0.0
 10
-1.73672
 20
18.29691
 30
0.0
 10
-1.5802
 20
18.29691
 30
0.0
 10
-1.5802
 20
18.29691
 30
0.0
 10
-1.5802
 20
18.14035
 30
0.0
 10
-1.5802
 20
17.9838
 30
0.0
 10
-1.5802
 20
17.82726
 30
0.0
 10
-1.5802
 20
17.82726
 30
0.0
 10
-1.73672
 20
17.82726
 30
0.0
 10
-1.89327
 20
17.82726
 30
0.0
 10
-2.04979
 20
17.82726
 30
0.0
 10
-2.04979
 20
17.82726
 30
0.0
 10
-2.04979
 20
17.9838
 30
0.0
 10
-2.04979
 20
18.14035
 30
0.0
 10
-2.04979
 20
18.29691
 30
0.0
  0
SPLINE
  5
103
330
1F
100
AcDbEntity
  8
Layer 1
 62
   242
370
     9
100
AcDbSpline
210
0.0
220
0.0
230
1.0
 70
    11
 71
     3
 72
    20
 73
    16
 74
     0
 42
0.0000000001
 43
0.0000000001
 12
1.0
 22
0.0
 32
0.0
 13
1.0
 23
0.0
 33
0.0
 40
0.0
 40
0.0
 40
0.0
 40
0.0
 40
0.2
 40
0.2
 40
0.2
 40
0.2
 40
0.4
 40
0.4
 40
0.4
 40
0.4
 40
0.6
 40
0.6
 40
0.6
 40
0.6
 40
1.0
 40
1.0
 40
1.0
 40
1.0
 10
-2.29699
 20
17.1105
 30
0.0
 10
-2.45349
 20
17.1105
 30
0.0
 10
-2.61008
 20
17.1105
 30
0.0
 10
-2.76658
 20
17.1105
 30
0.0
 10
-2.76658
 20
17.1105
 30
0.0
 10
-2.76658
 20
17.50593
 30
0.0
 10
-2.76658
 20
17.90143
 30
0.0
 10
-2.76658
 20
18.29691
 30
0.0
 10
-2.76658
 20
18.29691
 30
0.0
 10
-2.61008
 20
18.29691
 30
0.0
 10
-2.45349
 20
18.29691
 30
0.0
 10
-2.29699
 20
18.29691
 30
0.0
 10
-2.29699
 20
18.29691
 30
0.0
 10
-2.29699
 20
17.90143
 30
0.0
 10
-2.29699
 20
17.50593
 30
0.0
 10
-2.29699
 20
17.1105
 30
0.0
  0
SPLINE
  5
104
330
1F
100
AcDbEntity
  8
Layer 1
 62
   242
370
     9
100
AcDbSpline
210
0.0
220
0.0
230
1.0
 70
    11
 71
     3
 72
    20
 73
    16
 74
     0
 42
0.0000000001
 43
0.0000000001
 12
1.0
 22
0.0
 32
0.0
 13
1.0
 23
0.0
 33
0.0
 40
0.0
 40
0.0
 40
0.0
 40
0.0
 40
0.2
 40
0.2
 40
0.2
 40
0.2
 40
0.4
 40
0.4
 40
0.4
 40
0.4
 40
0.6
 40
0.6
 40
0.6
 40
0.6
 40
1.0
 40
1.0
 40
1.0
 40
1.0
 10
-0.8634
 20
17.58011
 30
0.0
 10
-1.2589
 20
17.58011
 30
0.0
 10
-1.65432
 20
17.58011
 30
0.0
 10
-2.04979
 20
17.58011
 30
0.0
 10
-2.04979
 20
17.58011
 30
0.0
 10
-2.04979
 20
17.42355
 30
0.0
 10
-2.04979
 20
17.26702
 30
0.0
 10
-2.04979
 20
17.1105
 30
0.0
 10
-2.04979
 20
17.1105
 30
0.0
 10
-1.65432
 20
17.1105
 30
0.0
 10
-1.2589
 20
17.1105
 30
0.0
 10
-0.8634
 20
17.1105
 30
0.0
 10
-0.8634
 20
17.1105
 30
0.0
 10
-0.8634
 20
17.26702
 30
0.0
 10
-0.8634
 20
17.42355
 30
0.0
 10
-0.8634
 20
17.58011
 30
0.0
  0
SPLINE
  5
105
330
1F
100
AcDbEntity
  8
Layer 1
 62
   242
370
     9
100
AcDbSpline
210
0.0
220
0.0
230
1.0
 70
    11
 71
     3
 72
    20
 73
    16
 74
     0
 42
0.0000000001
 43
0.0000000001
 12
1.0
 22
0.0
 32
0.0
 13
1.0
 23
0.0
 33
0.0
 40
0.0
 40
0.0
 40
0.0
 40
0.0
 40
0.2
 40
0.2
 40
0.2
 40
0.2
 40
0.4
 40
0.4
 40
0.4
 40
0.4
 40
0.6
 40
0.6
 40
0.6
 40
0.6
 40
1.0
 40
1.0
 40
1.0
 40
1.0
 10
-1.333
 20
19.01373
 30
0.0
 10
-1.17648
 20
19.01373
 30
0.0
 10
-1.01995
 20
19.01373
 30
0.0
 10
-0.8634
 20
19.01373
 30
0.0
 10
-0.8634
 20
19.01373
 30
0.0
 10
-0.8634
 20
18.6182
 30
0.0
 10
-0.8634
 20
18.22277
 30
0.0
 10
-0.8634
 20
17.82726
 30
0.0
 10
-0.8634
 20
17.82726
 30
0.0
 10
-1.01995
 20
17.82726
 30
0.0
 10
-1.17648
 20
17.82726
 30
0.0
 10
-1.333
 20
17.82726
 30
0.0
 10
-1.333
 20
17.82726
 30
0.0
 10
-1.333
 20
18.22277
 30
0.0
 10
-1.333
 20
18.6182
 30
0.0
 10
-1.333
 20
19.01373
 30
0.0
  0
SPLINE
  5
106
330
1F
100
AcDbEntity
  8
Layer 1
 62
   242
370
     9
100
AcDbSpline
210
0.0
220
0.0
230
1.0
 70
    11
 71
     3
 72
    20
 73
    16
 74
     0
 42
0.0000000001
 43
0.0000000001
 12
1.0
 22
0.0
 32
0.0
 13
1.0
 23
0.0
 33
0.0
 40
0.0
 40
0.0
 40
0.0
 40
0.0
 40
0.2
 40
0.2
 40
0.2
 40
0.2
 40
0.4
 40
0.4
 40
0.4
 40
0.4
 40
0.6
 40
0.6
 40
0.6
 40
0.6
 40
1.0
 40
1.0
 40
1.0
 40
1.0
 10
-1.5802
 20
18.54406
 30
0.0
 10
-1.5802
 20
18.70063
 30
0.0
 10
-1.5802
 20
18.85713
 30
0.0
 10
-1.5802
 20
19.01373
 30
0.0
 10
-1.5802
 20
19.01373
 30
0.0
 10
-1.97567
 20
19.01373
 30
0.0
 10
-2.37109
 20
19.01373
 30
0.0
 10
-2.76658
 20
19.01373
 30
0.0
 10
-2.76658
 20
19.01373
 30
0.0
 10
-2.76658
 20
18.85713
 30
0.0
 10
-2.76658
 20
18.70063
 30
0.0
 10
-2.76658
 20
18.54406
 30
0.0
 10
-2.76658
 20
18.54406
 30
0.0
 10
-2.37109
 20
18.54406
 30
0.0
 10
-1.97567
 20
18.54406
 30
0.0
 10
-1.5802
 20
18.54406
 30
0.0
  0
SPLINE
  5
107
330
1F
100
AcDbEntity
  8
Layer 1
 62
   242
370
     9
100
AcDbSpline
210
0.0
220
0.0
230
1.0
 70
    11
 71
     3
 72
    20
 73
    16
 74
     0
 42
0.0000000001
 43
0.0000000001
 12
1.0
 22
0.0
 32
0.0
 13
1.0
 23
0.0
 33
0.0
 40
0.0
 40
0.0
 40
0.0
 40
0.0
 40
0.2
 40
0.2
 40
0.2
 40
0.2
 40
0.4
 40
0.4
 40
0.4
 40
0.4
 40
0.6
 40
0.6
 40
0.6
 40
0.6
 40
1.0
 40
1.0
 40
1.0
 40
1.0
 10
-2.04979
 20
16.14653
 30
0.0
 10
-1.89327
 20
16.14653
 30
0.0
 10
-1.73672
 20
16.14653
 30
0.0
 10
-1.5802
 20
16.14653
 30
0.0
 10
-1.5802
 20
16.14653
 30
0.0
 10
-1.5802
 20
15.98997
 30
0.0
 10
-1.5802
 20
15.83339
 30
0.0
 10
-1.5802
 20
15.67687
 30
0.0
 10
-1.5802
 20
15.67687
 30
0.0
 10
-1.73672
 20
15.67687
 30
0.0
 10
-1.89327
 20
15.67687
 30
0.0
 10
-2.04979
 20
15.67687
 30
0.0
 10
-2.04979
 20
15.67687
 30
0.0
 10
-2.04979
 20
15.83339
 30
0.0
 10
-2.04979
 20
15.98997
 30
0.0
 10
-2.04979
 20
16.14653
 30
0.0
  0
SPLINE
  5
108
330
1F
100
AcDbEntity
  8
Layer 1
 62
   242
370
     9
100
AcDbSpline
210
0.0
220
0.0
230
1.0
 70
    11
 71
     3
 72
    20
 73
    16
 74
     0
 42
0.0000000001
 43
0.0000000001
 12
1.0
 22
0.0
 32
0.0
 13
1.0
 23
0.0
 33
0.0
 40
0.0
 40
0.0
 40
0.0
 40
0.0
 40
0.2
 40
0.2
 40
0.2
 40
0.2
 40
0.4
 40
0.4
 40
0.4
 40
0.4
 40
0.6
 40
0.6
 40
0.6
 40
0.6
 40
1.0
 40
1.0
 40
1.0
 40
1.0
 10
-2.29699
 20
14.96012
 30
0.0
 10
-2.45349
 20
14.96012
 30
0.0
 10
-2.61008
 20
14.96012
 30
0.0
 10
-2.76658
 20
14.96012
 30
0.0
 10
-2.76658
 20
14.96012
 30
0.0
 10
-2.76658
 20
15.35558
 30
0.0
 10
-2.76658
 20
15.75108
 30
0.0
 10
-2.76658
 20
16.14653
 30
0.0
 10
-2.76658
 20
16.14653
 30
0.0
 10
-2.61008
 20
16.14653
 30
0.0
 10
-2.45349
 20
16.14653
 30
0.0
 10
-2.29699
 20
16.14653
 30
0.0
 10
-2.29699
 20
16.14653
 30
0.0
 10
-2.29699
 20
15.75108
 30
0.0
 10
-2.29699
 20
15.35558
 30
0.0
 10
-2.29699
 20
14.96012
 30
0.0
  0
SPLINE
  5
109
330
1F
100
AcDbEntity
  8
Layer 1
 62
   242
370
     9
100
AcDbSpline
210
0.0
220
0.0
230
1.0
 70
    11
 71
     3
 72
    20
 73
    16
 74
     0
 42
0.0000000001
 43
0.0000000001
 12
1.0
 22
0.0
 32
0.0
 13
1.0
 23
0.0
 33
0.0
 40
0.0
 40
0.0
 40
0.0
 40
0.0
 40
0.2
 40
0.2
 40
0.2
 40
0.2
 40
0.4
 40
0.4
 40
0.4
 40
0.4
 40
0.6
 40
0.6
 40
0.6
 40
0.6
 40
1.0
 40
1.0
 40
1.0
 40
1.0
 10
-0.8634
 20
15.42972
 30
0.0
 10
-1.2589
 20
15.42972
 30
0.0
 10
-1.65432
 20
15.42972
 30
0.0
 10
-2.04979
 20
15.42972
 30
0.0
 10
-2.04979
 20
15.42972
 30
0.0
 10
-2.04979
 20
15.27314
 30
0.0
 10
-2.04979
 20
15.11661
 30
0.0
 10
-2.04979
 20
14.96012
 30
0.0
 10
-2.04979
 20
14.96012
 30
0.0
 10
-1.65432
 20
14.96012
 30
0.0
 10
-1.2589
 20
14.96012
 30
0.0
 10
-0.8634
 20
14.96012
 30
0.0
 10
-0.8634
 20
14.96012
 30
0.0
 10
-0.8634
 20
15.11661
 30
0.0
 10
-0.8634
 20
15.27314
 30
0.0
 10
-0.8634
 20
15.42972
 30
0.0
  0
SPLINE
  5
10A
330
1F
100
AcDbEntity
  8
Layer 1
 62
   242
370
     9
100
AcDbSpline
210
0.0
220
0.0
230
1.0
 70
    11
 71
     3
 72
    20
 73
    16
 74
     0
 42
0.0000000001
 43
0.0000000001
 12
1.0
 22
0.0
 32
0.0
 13
1.0
 23
0.0
 33
0.0
 40
0.0
 40
0.0
 40
0.0
 40
0.0
 40
0.2
 40
0.2
 40
0.2
 40
0.2
 40
0.4
 40
0.4
 40
0.4
 40
0.4
 40
0.6
 40
0.6
 40
0.6
 40
0.6
 40
1.0
 40
1.0
 40
1.0
 40
1.0
 10
-1.333
 20
16.86335
 30
0.0
 10
-1.17648
 20
16.86335
 30
0.0
 10
-1.01995
 20
16.86335
 30
0.0
 10
-0.8634
 20
16.86335
 30
0.0
 10
-0.8634
 20
16.86335
 30
0.0
 10
-0.8634
 20
16.46782
 30
0.0
 10
-0.8634
 20
16.07239
 30
0.0
 10
-0.8634
 20
15.67687
 30
0.0
 10
-0.8634
 20
15.67687
 30
0.0
 10
-1.01995
 20
15.67687
 30
0.0
 10
-1.17648
 20
15.67687
 30
0.0
 10
-1.333
 20
15.67687
 30
0.0
 10
-1.333
 20
15.67687
 30
0.0
 10
-1.333
 20
16.07239
 30
0.0
 10
-1.333
 20
16.46782
 30
0.0
 10
-1.333
 20
16.86335
 30
0.0
  0
SPLINE
  5
10B
330
1F
100
AcDbEntity
  8
Layer 1
 62
   242
370
     9
100
AcDbSpline
210
0.0
220
0.0
230
1.0
 70
    11
 71
     3
 72
    20
 73
    16
 74
     0
 42
0.0000000001
 43
0.0000000001
 12
1.0
 22
0.0
 32
0.0
 13
1.0
 23
0.0
 33
0.0
 40
0.0
 40
0.0
 40
0.0
 40
0.0
 40
0.2
 40
0.2
 40
0.2
 40
0.2
 40
0.4
 40
0.4
 40
0.4
 40
0.4
 40
0.6
 40
0.6
 40
0.6
 40
0.6
 40
1.0
 40
1.0
 40
1.0
 40
1.0
 10
-1.5802
 20
16.39367
 30
0.0
 10
-1.5802
 20
16.55026
 30
0.0
 10
-1.5802
 20
16.70675
 30
0.0
 10
-1.5802
 20
16.86335
 30
0.0
 10
-1.5802
 20
16.86335
 30
0.0
 10
-1.97567
 20
16.86335
 30
0.0
 10
-2.37109
 20
16.86335
 30
0.0
 10
-2.76658
 20
16.86335
 30
0.0
 10
-2.76658
 20
16.86335
 30
0.0
 10
-2.76658
 20
16.70675
 30
0.0
 10
-2.76658
 20
16.55026
 30
0.0
 10
-2.76658
 20
16.39367
 30
0.0
 10
-2.76658
 20
16.39367
 30
0.0
 10
-2.37109
 20
16.39367
 30
0.0
 10
-1.97567
 20
16.39367
 30
0.0
 10
-1.5802
 20
16.39367
 30
0.0
  0
SPLINE
  5
10C
330
1F
100
AcDbEntity
  8
Layer 1
 62
   242
370
     9
100
AcDbSpline
210
0.0
220
0.0
230
1.0
 70
    11
 71
     3
 72
    20
 73
    16
 74
     0
 42
0.0000000001
 43
0.0000000001
 12
1.0
 22
0.0
 32
0.0
 13
1.0
 23
0.0
 33
0.0
 40
0.0
 40
0.0
 40
0.0
 40
0.0
 40
0.2
 40
0.2
 40
0.2
 40
0.2
 40
0.4
 40
0.4
 40
0.4
 40
0.4
 40
0.6
 40
0.6
 40
0.6
 40
0.6
 40
1.0
 40
1.0
 40
1.0
 40
1.0
 10
-2.04979
 20
13.99615
 30
0.0
 10
-1.89327
 20
13.99615
 30
0.0
 10
-1.73672
 20
13.99615
 30
0.0
 10
-1.5802
 20
13.99615
 30
0.0
 10
-1.5802
 20
13.99615
 30
0.0
 10
-1.5802
 20
13.8396
 30
0.0
 10
-1.5802
 20
13.68305
 30
0.0
 10
-1.5802
 20
13.52651
 30
0.0
 10
-1.5802
 20
13.52651
 30
0.0
 10
-1.73672
 20
13.52651
 30
0.0
 10
-1.89327
 20
13.52651
 30
0.0
 10
-2.04979
 20
13.52651
 30
0.0
 10
-2.04979
 20
13.52651
 30
0.0
 10
-2.04979
 20
13.68305
 30
0.0
 10
-2.04979
 20
13.8396
 30
0.0
 10
-2.04979
 20
13.99615
 30
0.0
  0
SPLINE
  5
10D
330
1F
100
AcDbEntity
  8
Layer 1
 62
   242
370
     9
100
AcDbSpline
210
0.0
220
0.0
230
1.0
 70
    11
 71
     3
 72
    20
 73
    16
 74
     0
 42
0.0000000001
 43
0.0000000001
 12
1.0
 22
0.0
 32
0.0
 13
1.0
 23
0.0
 33
0.0
 40
0.0
 40
0.0
 40
0.0
 40
0.0
 40
0.2
 40
0.2
 40
0.2
 40
0.2
 40
0.4
 40
0.4
 40
0.4
 40
0.4
 40
0.6
 40
0.6
 40
0.6
 40
0.6
 40
1.0
 40
1.0
 40
1.0
 40
1.0
 10
-2.29699
 20
12.80977
 30
0.0
 10
-2.45349
 20
12.80977
 30
0.0
 10
-2.61008
 20
12.80977
 30
0.0
 10
-2.76658
 20
12.80977
 30
0.0
 10
-2.76658
 20
12.80977
 30
0.0
 10
-2.76658
 20
13.2052
 30
0.0
 10
-2.76658
 20
13.60068
 30
0.0
 10
-2.76658
 20
13.99615
 30
0.0
 10
-2.76658
 20
13.99615
 30
0.0
 10
-2.61008
 20
13.99615
 30
0.0
 10
-2.45349
 20
13.99615
 30
0.0
 10
-2.29699
 20
13.99615
 30
0.0
 10
-2.29699
 20
13.99615
 30
0.0
 10
-2.29699
 20
13.60068
 30
0.0
 10
-2.29699
 20
13.2052
 30
0.0
 10
-2.29699
 20
12.80977
 30
0.0
  0
SPLINE
  5
10E
330
1F
100
AcDbEntity
  8
Layer 1
 62
   242
370
     9
100
AcDbSpline
210
0.0
220
0.0
230
1.0
 70
    11
 71
     3
 72
    20
 73
    16
 74
     0
 42
0.0000000001
 43
0.0000000001
 12
1.0
 22
0.0
 32
0.0
 13
1.0
 23
0.0
 33
0.0
 40
0.0
 40
0.0
 40
0.0
 40
0.0
 40
0.2
 40
0.2
 40
0.2
 40
0.2
 40
0.4
 40
0.4
 40
0.4
 40
0.4
 40
0.6
 40
0.6
 40
0.6
 40
0.6
 40
1.0
 40
1.0
 40
1.0
 40
1.0
 10
-0.8634
 20
13.27935
 30
0.0
 10
-1.2589
 20
13.27935
 30
0.0
 10
-1.65432
 20
13.27935
 30
0.0
 10
-2.04979
 20
13.27935
 30
0.0
 10
-2.04979
 20
13.27935
 30
0.0
 10
-2.04979
 20
13.12284
 30
0.0
 10
-2.04979
 20
12.96627
 30
0.0
 10
-2.04979
 20
12.80977
 30
0.0
 10
-2.04979
 20
12.80977
 30
0.0
 10
-1.65432
 20
12.80977
 30
0.0
 10
-1.2589
 20
12.80977
 30
0.0
 10
-0.8634
 20
12.80977
 30
0.0
 10
-0.8634
 20
12.80977
 30
0.0
 10
-0.8634
 20
12.96627
 30
0.0
 10
-0.8634
 20
13.12284
 30
0.0
 10
-0.8634
 20
13.27935
 30
0.0
  0
SPLINE
  5
10F
330
1F
100
AcDbEntity
  8
Layer 1
 62
   242
370
     9
100
AcDbSpline
210
0.0
220
0.0
230
1.0
 70
    11
 71
     3
 72
    20
 73
    16
 74
     0
 42
0.0000000001
 43
0.0000000001
 12
1.0
 22
0.0
 32
0.0
 13
1.0
 23
0.0
 33
0.0
 40
0.0
 40
0.0
 40
0.0
 40
0.0
 40
0.2
 40
0.2
 40
0.2
 40
0.2
 40
0.4
 40
0.4
 40
0.4
 40
0.4
 40
0.6
 40
0.6
 40
0.6
 40
0.6
 40
1.0
 40
1.0
 40
1.0
 40
1.0
 10
-1.333
 20
14.71295
 30
0.0
 10
-1.17648
 20
14.71295
 30
0.0
 10
-1.01995
 20
14.71295
 30
0.0
 10
-0.8634
 20
14.71295
 30
0.0
 10
-0.8634
 20
14.71295
 30
0.0
 10
-0.8634
 20
14.31743
 30
0.0
 10
-0.8634
 20
13.92201
 30
0.0
 10
-0.8634
 20
13.52651
 30
0.0
 10
-0.8634
 20
13.52651
 30
0.0
 10
-1.01995
 20
13.52651
 30
0.0
 10
-1.17648
 20
13.52651
 30
0.0
 10
-1.333
 20
13.52651
 30
0.0
 10
-1.333
 20
13.52651
 30
0.0
 10
-1.333
 20
13.92203
 30
0.0
 10
-1.333
 20
14.31743
 30
0.0
 10
-1.333
 20
14.71295
 30
0.0
  0
SPLINE
  5
110
330
1F
100
AcDbEntity
  8
Layer 1
 62
   242
370
     9
100
AcDbSpline
210
0.0
220
0.0
230
1.0
 70
    11
 71
     3
 72
    20
 73
    16
 74
     0
 42
0.0000000001
 43
0.0000000001
 12
1.0
 22
0.0
 32
0.0
 13
1.0
 23
0.0
 33
0.0
 40
0.0
 40
0.0
 40
0.0
 40
0.0
 40
0.2
 40
0.2
 40
0.2
 40
0.2
 40
0.4
 40
0.4
 40
0.4
 40
0.4
 40
0.6
 40
0.6
 40
0.6
 40
0.6
 40
1.0
 40
1.0
 40
1.0
 40
1.0
 10
-1.5802
 20
14.24332
 30
0.0
 10
-1.5802
 20
14.39987
 30
0.0
 10
-1.5802
 20
14.55636
 30
0.0
 10
-1.5802
 20
14.71295
 30
0.0
 10
-1.5802
 20
14.71295
 30
0.0
 10
-1.97567
 20
14.71295
 30
0.0
 10
-2.37109
 20
14.71295
 30
0.0
 10
-2.76658
 20
14.71295
 30
0.0
 10
-2.76658
 20
14.71295
 30
0.0
 10
-2.76658
 20
14.55636
 30
0.0
 10
-2.76658
 20
14.39987
 30
0.0
 10
-2.76658
 20
14.24332
 30
0.0
 10
-2.76658
 20
14.24332
 30
0.0
 10
-2.37109
 20
14.24332
 30
0.0
 10
-1.97567
 20
14.24332
 30
0.0
 10
-1.5802
 20
14.24332
 30
0.0
  0
SPLINE
  5
111
330
1F
100
AcDbEntity
  8
Layer 1
 62
   242
370
     9
100
AcDbSpline
210
0.0
220
0.0
230
1.0
 70
    11
 71
     3
 72
    20
 73
    16
 74
     0
 42
0.0000000001
 43
0.0000000001
 12
1.0
 22
0.0
 32
0.0
 13
1.0
 23
0.0
 33
0.0
 40
0.0
 40
0.0
 40
0.0
 40
0.0
 40
0.2
 40
0.2
 40
0.2
 40
0.2
 40
0.4
 40
0.4
 40
0.4
 40
0.4
 40
0.6
 40
0.6
 40
0.6
 40
0.6
 40
1.0
 40
1.0
 40
1.0
 40
1.0
 10
-2.04979
 20
11.84578
 30
0.0
 10
-1.89327
 20
11.84578
 30
0.0
 10
-1.73672
 20
11.84578
 30
0.0
 10
-1.5802
 20
11.84578
 30
0.0
 10
-1.5802
 20
11.84578
 30
0.0
 10
-1.5802
 20
11.68924
 30
0.0
 10
-1.5802
 20
11.53267
 30
0.0
 10
-1.5802
 20
11.37615
 30
0.0
 10
-1.5802
 20
11.37615
 30
0.0
 10
-1.73672
 20
11.37615
 30
0.0
 10
-1.89327
 20
11.37615
 30
0.0
 10
-2.04979
 20
11.37615
 30
0.0
 10
-2.04979
 20
11.37615
 30
0.0
 10
-2.04979
 20
11.53267
 30
0.0
 10
-2.04979
 20
11.68924
 30
0.0
 10
-2.04979
 20
11.84578
 30
0.0
  0
SPLINE
  5
112
330
1F
100
AcDbEntity
  8
Layer 1
 62
   242
370
     9
100
AcDbSpline
210
0.0
220
0.0
230
1.0
 70
    11
 71
     3
 72
    20
 73
    16
 74
     0
 42
0.0000000001
 43
0.0000000001
 12
1.0
 22
0.0
 32
0.0
 13
1.0
 23
0.0
 33
0.0
 40
0.0
 40
0.0
 40
0.0
 40
0.0
 40
0.2
 40
0.2
 40
0.2
 40
0.2
 40
0.4
 40
0.4
 40
0.4
 40
0.4
 40
0.6
 40
0.6
 40
0.6
 40
0.6
 40
1.0
 40
1.0
 40
1.0
 40
1.0
 10
-2.29699
 20
10.65936
 30
0.0
 10
-2.45349
 20
10.65936
 30
0.0
 10
-2.61008
 20
10.65936
 30
0.0
 10
-2.76658
 20
10.65936
 30
0.0
 10
-2.76658
 20
10.65936
 30
0.0
 10
-2.76658
 20
11.05481
 30
0.0
 10
-2.76658
 20
11.4503
 30
0.0
 10
-2.76658
 20
11.84578
 30
0.0
 10
-2.76658
 20
11.84578
 30
0.0
 10
-2.61008
 20
11.84578
 30
0.0
 10
-2.45349
 20
11.84578
 30
0.0
 10
-2.29699
 20
11.84578
 30
0.0
 10
-2.29699
 20
11.84578
 30
0.0
 10
-2.29699
 20
11.4503
 30
0.0
 10
-2.29699
 20
11.05483
 30
0.0
 10
-2.29699
 20
10.65936
 30
0.0
  0
SPLINE
  5
113
330
1F
100
AcDbEntity
  8
Layer 1
 62
   242
370
     9
100
AcDbSpline
210
0.0
220
0.0
230
1.0
 70
    11
 71
     3
 72
    20
 73
    16
 74
     0
 42
0.0000000001
 43
0.0000000001
 12
1.0
 22
0.0
 32
0.0
 13
1.0
 23
0.0
 33
0.0
 40
0.0
 40
0.0
 40
0.0
 40
0.0
 40
0.2
 40
0.2
 40
0.2
 40
0.2
 40
0.4
 40
0.4
 40
0.4
 40
0.4
 40
0.6
 40
0.6
 40
0.6
 40
0.6
 40
1.0
 40
1.0
 40
1.0
 40
1.0
 10
-0.8634
 20
11.12896
 30
0.0
 10
-1.2589
 20
11.12896
 30
0.0
 10
-1.65432
 20
11.12896
 30
0.0
 10
-2.04979
 20
11.12896
 30
0.0
 10
-2.04979
 20
11.12896
 30
0.0
 10
-2.04979
 20
10.97247
 30
0.0
 10
-2.04979
 20
10.81587
 30
0.0
 10
-2.04979
 20
10.65936
 30
0.0
 10
-2.04979
 20
10.65936
 30
0.0
 10
-1.65432
 20
10.65936
 30
0.0
 10
-1.2589
 20
10.65936
 30
0.0
 10
-0.8634
 20
10.65936
 30
0.0
 10
-0.8634
 20
10.65936
 30
0.0
 10
-0.8634
 20
10.81587
 30
0.0
 10
-0.8634
 20
10.97247
 30
0.0
 10
-0.8634
 20
11.12896
 30
0.0
  0
SPLINE
  5
114
330
1F
100
AcDbEntity
  8
Layer 1
 62
   242
370
     9
100
AcDbSpline
210
0.0
220
0.0
230
1.0
 70
    11
 71
     3
 72
    20
 73
    16
 74
     0
 42
0.0000000001
 43
0.0000000001
 12
1.0
 22
0.0
 32
0.0
 13
1.0
 23
0.0
 33
0.0
 40
0.0
 40
0.0
 40
0.0
 40
0.0
 40
0.2
 40
0.2
 40
0.2
 40
0.2
 40
0.4
 40
0.4
 40
0.4
 40
0.4
 40
0.6
 40
0.6
 40
0.6
 40
0.6
 40
1.0
 40
1.0
 40
1.0
 40
1.0
 10
-1.333
 20
12.56259
 30
0.0
 10
-1.17648
 20
12.56259
 30
0.0
 10
-1.01995
 20
12.56259
 30
0.0
 10
-0.8634
 20
12.56259
 30
0.0
 10
-0.8634
 20
12.56259
 30
0.0
 10
-0.8634
 20
12.16707
 30
0.0
 10
-0.8634
 20
11.77164
 30
0.0
 10
-0.8634
 20
11.37615
 30
0.0
 10
-0.8634
 20
11.37615
 30
0.0
 10
-1.01995
 20
11.37615
 30
0.0
 10
-1.17648
 20
11.37615
 30
0.0
 10
-1.333
 20
11.37615
 30
0.0
 10
-1.333
 20
11.37615
 30
0.0
 10
-1.333
 20
11.77165
 30
0.0
 10
-1.333
 20
12.16707
 30
0.0
 10
-1.333
 20
12.56259
 30
0.0
  0
SPLINE
  5
115
330
1F
100
AcDbEntity
  8
Layer 1
 62
   242
370
     9
100
AcDbSpline
210
0.0
220
0.0
230
1.0
 70
    11
 71
     3
 72
    20
 73
    16
 74
     0
 42
0.0000000001
 43
0.0000000001
 12
1.0
 22
0.0
 32
0.0
 13
1.0
 23
0.0
 33
0.0
 40
0.0
 40
0.0
 40
0.0
 40
0.0
 40
0.2
 40
0.2
 40
0.2
 40
0.2
 40
0.4
 40
0.4
 40
0.4
 40
0.4
 40
0.6
 40
0.6
 40
0.6
 40
0.6
 40
1.0
 40
1.0
 40
1.0
 40
1.0
 10
-1.5802
 20
12.09296
 30
0.0
 10
-1.5802
 20
12.2495
 30
0.0
 10
-1.5802
 20
12.40608
 30
0.0
 10
-1.5802
 20
12.56259
 30
0.0
 10
-1.5802
 20
12.56259
 30
0.0
 10
-1.97567
 20
12.56259
 30
0.0
 10
-2.37109
 20
12.56259
 30
0.0
 10
-2.76658
 20
12.56259
 30
0.0
 10
-2.76658
 20
12.56259
 30
0.0
 10
-2.76658
 20
12.40608
 30
0.0
 10
-2.76658
 20
12.2495
 30
0.0
 10
-2.76658
 20
12.09296
 30
0.0
 10
-2.76658
 20
12.09296
 30
0.0
 10
-2.37109
 20
12.09296
 30
0.0
 10
-1.97567
 20
12.09296
 30
0.0
 10
-1.5802
 20
12.09296
 30
0.0
  0
SPLINE
  5
116
330
1F
100
AcDbEntity
  8
Layer 1
 62
   242
370
     9
100
AcDbSpline
210
0.0
220
0.0
230
1.0
 70
    11
 71
     3
 72
    20
 73
    16
 74
     0
 42
0.0000000001
 43
0.0000000001
 12
1.0
 22
0.0
 32
0.0
 13
1.0
 23
0.0
 33
0.0
 40
0.0
 40
0.0
 40
0.0
 40
0.0
 40
0.2
 40
0.2
 40
0.2
 40
0.2
 40
0.4
 40
0.4
 40
0.4
 40
0.4
 40
0.6
 40
0.6
 40
0.6
 40
0.6
 40
1.0
 40
1.0
 40
1.0
 40
1.0
 10
-2.04979
 20
9.6954
 30
0.0
 10
-1.89327
 20
9.6954
 30
0.0
 10
-1.73672
 20
9.6954
 30
0.0
 10
-1.5802
 20
9.6954
 30
0.0
 10
-1.5802
 20
9.6954
 30
0.0
 10
-1.5802
 20
9.53887
 30
0.0
 10
-1.5802
 20
9.3823
 30
0.0
 10
-1.5802
 20
9.22576
 30
0.0
 10
-1.5802
 20
9.22576
 30
0.0
 10
-1.73672
 20
9.22576
 30
0.0
 10
-1.89327
 20
9.22576
 30
0.0
 10
-2.04979
 20
9.22576
 30
0.0
 10
-2.04979
 20
9.22576
 30
0.0
 10
-2.04979
 20
9.3823
 30
0.0
 10
-2.04979
 20
9.53887
 30
0.0
 10
-2.04979
 20
9.6954
 30
0.0
  0
SPLINE
  5
117
330
1F
100
AcDbEntity
  8
Layer 1
 62
   242
370
     9
100
AcDbSpline
210
0.0
220
0.0
230
1.0
 70
    11
 71
     3
 72
    20
 73
    16
 74
     0
 42
0.0000000001
 43
0.0000000001
 12
1.0
 22
0.0
 32
0.0
 13
1.0
 23
0.0
 33
0.0
 40
0.0
 40
0.0
 40
0.0
 40
0.0
 40
0.2
 40
0.2
 40
0.2
 40
0.2
 40
0.4
 40
0.4
 40
0.4
 40
0.4
 40
0.6
 40
0.6
 40
0.6
 40
0.6
 40
1.0
 40
1.0
 40
1.0
 40
1.0
 10
-2.29699
 20
8.50898
 30
0.0
 10
-2.45349
 20
8.50898
 30
0.0
 10
-2.61008
 20
8.50898
 30
0.0
 10
-2.76658
 20
8.50898
 30
0.0
 10
-2.76658
 20
8.50898
 30
0.0
 10
-2.76658
 20
8.90446
 30
0.0
 10
-2.76658
 20
9.2999
 30
0.0
 10
-2.76658
 20
9.6954
 30
0.0
 10
-2.76658
 20
9.6954
 30
0.0
 10
-2.61008
 20
9.6954
 30
0.0
 10
-2.45349
 20
9.6954
 30
0.0
 10
-2.29699
 20
9.6954
 30
0.0
 10
-2.29699
 20
9.6954
 30
0.0
 10
-2.29699
 20
9.2999
 30
0.0
 10
-2.29699
 20
8.90448
 30
0.0
 10
-2.29699
 20
8.50898
 30
0.0
  0
SPLINE
  5
118
330
1F
100
AcDbEntity
  8
Layer 1
 62
   242
370
     9
100
AcDbSpline
210
0.0
220
0.0
230
1.0
 70
    11
 71
     3
 72
    20
 73
    16
 74
     0
 42
0.0000000001
 43
0.0000000001
 12
1.0
 22
0.0
 32
0.0
 13
1.0
 23
0.0
 33
0.0
 40
0.0
 40
0.0
 40
0.0
 40
0.0
 40
0.2
 40
0.2
 40
0.2
 40
0.2
 40
0.4
 40
0.4
 40
0.4
 40
0.4
 40
0.6
 40
0.6
 40
0.6
 40
0.6
 40
1.0
 40
1.0
 40
1.0
 40
1.0
 10
-0.8634
 20
8.97857
 30
0.0
 10
-1.2589
 20
8.97857
 30
0.0
 10
-1.65432
 20
8.97857
 30
0.0
 10
-2.04979
 20
8.97857
 30
0.0
 10
-2.04979
 20
8.97857
 30
0.0
 10
-2.04979
 20
8.82207
 30
0.0
 10
-2.04979
 20
8.66549
 30
0.0
 10
-2.04979
 20
8.50898
 30
0.0
 10
-2.04979
 20
8.50898
 30
0.0
 10
-1.65432
 20
8.50898
 30
0.0
 10
-1.2589
 20
8.50898
 30
0.0
 10
-0.8634
 20
8.50898
 30
0.0
 10
-0.8634
 20
8.50898
 30
0.0
 10
-0.8634
 20
8.66549
 30
0.0
 10
-0.8634
 20
8.82207
 30
0.0
 10
-0.8634
 20
8.97857
 30
0.0
  0
SPLINE
  5
119
330
1F
100
AcDbEntity
  8
Layer 1
 62
   242
370
     9
100
AcDbSpline
210
0.0
220
0.0
230
1.0
 70
    11
 71
     3
 72
    20
 73
    16
 74
     0
 42
0.0000000001
 43
0.0000000001
 12
1.0
 22
0.0
 32
0.0
 13
1.0
 23
0.0
 33
0.0
 40
0.0
 40
0.0
 40
0.0
 40
0.0
 40
0.2
 40
0.2
 40
0.2
 40
0.2
 40
0.4
 40
0.4
 40
0.4
 40
0.4
 40
0.6
 40
0.6
 40
0.6
 40
0.6
 40
1.0
 40
1.0
 40
1.0
 40
1.0
 10
-1.333
 20
10.41217
 30
0.0
 10
-1.17648
 20
10.41217
 30
0.0
 10
-1.01995
 20
10.41217
 30
0.0
 10
-0.8634
 20
10.41217
 30
0.0
 10
-0.8634
 20
10.41217
 30
0.0
 10
-0.8634
 20
10.01668
 30
0.0
 10
-0.8634
 20
9.62127
 30
0.0
 10
-0.8634
 20
9.22576
 30
0.0
 10
-0.8634
 20
9.22576
 30
0.0
 10
-1.01995
 20
9.22576
 30
0.0
 10
-1.17648
 20
9.22576
 30
0.0
 10
-1.333
 20
9.22576
 30
0.0
 10
-1.333
 20
9.22576
 30
0.0
 10
-1.333
 20
9.62127
 30
0.0
 10
-1.333
 20
10.01668
 30
0.0
 10
-1.333
 20
10.41217
 30
0.0
  0
SPLINE
  5
11A
330
1F
100
AcDbEntity
  8
Layer 1
 62
   242
370
     9
100
AcDbSpline
210
0.0
220
0.0
230
1.0
 70
    11
 71
     3
 72
    20
 73
    16
 74
     0
 42
0.0000000001
 43
0.0000000001
 12
1.0
 22
0.0
 32
0.0
 13
1.0
 23
0.0
 33
0.0
 40
0.0
 40
0.0
 40
0.0
 40
0.0
 40
0.2
 40
0.2
 40
0.2
 40
0.2
 40
0.4
 40
0.4
 40
0.4
 40
0.4
 40
0.6
 40
0.6
 40
0.6
 40
0.6
 40
1.0
 40
1.0
 40
1.0
 40
1.0
 10
-1.5802
 20
9.94258
 30
0.0
 10
-1.5802
 20
10.0991
 30
0.0
 10
-1.5802
 20
10.2557
 30
0.0
 10
-1.5802
 20
10.41217
 30
0.0
 10
-1.5802
 20
10.41217
 30
0.0
 10
-1.97567
 20
10.41217
 30
0.0
 10
-2.37109
 20
10.41217
 30
0.0
 10
-2.76658
 20
10.41217
 30
0.0
 10
-2.76658
 20
10.41217
 30
0.0
 10
-2.76658
 20
10.2557
 30
0.0
 10
-2.76658
 20
10.0991
 30
0.0
 10
-2.76658
 20
9.94258
 30
0.0
 10
-2.76658
 20
9.94258
 30
0.0
 10
-2.37109
 20
9.94258
 30
0.0
 10
-1.97567
 20
9.94258
 30
0.0
 10
-1.5802
 20
9.94258
 30
0.0
  0
SPLINE
  5
11B
330
1F
100
AcDbEntity
  8
Layer 1
 62
   242
370
     9
100
AcDbSpline
210
0.0
220
0.0
230
1.0
 70
    11
 71
     3
 72
    20
 73
    16
 74
     0
 42
0.0000000001
 43
0.0000000001
 12
1.0
 22
0.0
 32
0.0
 13
1.0
 23
0.0
 33
0.0
 40
0.0
 40
0.0
 40
0.0
 40
0.0
 40
0.2
 40
0.2
 40
0.2
 40
0.2
 40
0.4
 40
0.4
 40
0.4
 40
0.4
 40
0.6
 40
0.6
 40
0.6
 40
0.6
 40
1.0
 40
1.0
 40
1.0
 40
1.0
 10
0.10058
 20
18.29691
 30
0.0
 10
0.25713
 20
18.29691
 30
0.0
 10
0.41368
 20
18.29691
 30
0.0
 10
0.57016
 20
18.29691
 30
0.0
 10
0.57016
 20
18.29691
 30
0.0
 10
0.57016
 20
18.14035
 30
0.0
 10
0.57016
 20
17.9838
 30
0.0
 10
0.57016
 20
17.82726
 30
0.0
 10
0.57016
 20
17.82726
 30
0.0
 10
0.41368
 20
17.82726
 30
0.0
 10
0.25713
 20
17.82726
 30
0.0
 10
0.10058
 20
17.82726
 30
0.0
 10
0.10058
 20
17.82726
 30
0.0
 10
0.10058
 20
17.9838
 30
0.0
 10
0.10058
 20
18.14035
 30
0.0
 10
0.10058
 20
18.29691
 30
0.0
  0
SPLINE
  5
11C
330
1F
100
AcDbEntity
  8
Layer 1
 62
   242
370
     9
100
AcDbSpline
210
0.0
220
0.0
230
1.0
 70
    11
 71
     3
 72
    20
 73
    16
 74
     0
 42
0.0000000001
 43
0.0000000001
 12
1.0
 22
0.0
 32
0.0
 13
1.0
 23
0.0
 33
0.0
 40
0.0
 40
0.0
 40
0.0
 40
0.0
 40
0.2
 40
0.2
 40
0.2
 40
0.2
 40
0.4
 40
0.4
 40
0.4
 40
0.4
 40
0.6
 40
0.6
 40
0.6
 40
0.6
 40
1.0
 40
1.0
 40
1.0
 40
1.0
 10
-0.14659
 20
17.1105
 30
0.0
 10
-0.30312
 20
17.1105
 30
0.0
 10
-0.45973
 20
17.1105
 30
0.0
 10
-0.61621
 20
17.1105
 30
0.0
 10
-0.61621
 20
17.1105
 30
0.0
 10
-0.61621
 20
17.50593
 30
0.0
 10
-0.61621
 20
17.90143
 30
0.0
 10
-0.61621
 20
18.29691
 30
0.0
 10
-0.61621
 20
18.29691
 30
0.0
 10
-0.45973
 20
18.29691
 30
0.0
 10
-0.30312
 20
18.29691
 30
0.0
 10
-0.14659
 20
18.29691
 30
0.0
 10
-0.14659
 20
18.29691
 30
0.0
 10
-0.14659
 20
17.90143
 30
0.0
 10
-0.14659
 20
17.50593
 30
0.0
 10
-0.14659
 20
17.1105
 30
0.0
  0
SPLINE
  5
11D
330
1F
100
AcDbEntity
  8
Layer 1
 62
   242
370
     9
100
AcDbSpline
210
0.0
220
0.0
230
1.0
 70
    11
 71
     3
 72
    20
 73
    16
 74
     0
 42
0.0000000001
 43
0.0000000001
 12
1.0
 22
0.0
 32
0.0
 13
1.0
 23
0.0
 33
0.0
 40
0.0
 40
0.0
 40
0.0
 40
0.0
 40
0.2
 40
0.2
 40
0.2
 40
0.2
 40
0.4
 40
0.4
 40
0.4
 40
0.4
 40
0.6
 40
0.6
 40
0.6
 40
0.6
 40
1.0
 40
1.0
 40
1.0
 40
1.0
 10
1.28695
 20
17.58011
 30
0.0
 10
0.89151
 20
17.58011
 30
0.0
 10
0.49598
 20
17.58011
 30
0.0
 10
0.10058
 20
17.58011
 30
0.0
 10
0.10058
 20
17.58011
 30
0.0
 10
0.10058
 20
17.42355
 30
0.0
 10
0.10058
 20
17.26702
 30
0.0
 10
0.10058
 20
17.1105
 30
0.0
 10
0.10058
 20
17.1105
 30
0.0
 10
0.49598
 20
17.1105
 30
0.0
 10
0.89151
 20
17.1105
 30
0.0
 10
1.28695
 20
17.1105
 30
0.0
 10
1.28695
 20
17.1105
 30
0.0
 10
1.28695
 20
17.26702
 30
0.0
 10
1.28695
 20
17.42355
 30
0.0
 10
1.28695
 20
17.58011
 30
0.0
  0
SPLINE
  5
11E
330
1F
100
AcDbEntity
  8
Layer 1
 62
   242
370
     9
100
AcDbSpline
210
0.0
220
0.0
230
1.0
 70
    11
 71
     3
 72
    20
 73
    16
 74
     0
 42
0.0000000001
 43
0.0000000001
 12
1.0
 22
0.0
 32
0.0
 13
1.0
 23
0.0
 33
0.0
 40
0.0
 40
0.0
 40
0.0
 40
0.0
 40
0.2
 40
0.2
 40
0.2
 40
0.2
 40
0.4
 40
0.4
 40
0.4
 40
0.4
 40
0.6
 40
0.6
 40
0.6
 40
0.6
 40
1.0
 40
1.0
 40
1.0
 40
1.0
 10
0.81742
 20
19.01373
 30
0.0
 10
0.97388
 20
19.01373
 30
0.0
 10
1.13044
 20
19.01373
 30
0.0
 10
1.28695
 20
19.01373
 30
0.0
 10
1.28695
 20
19.01373
 30
0.0
 10
1.28695
 20
18.6182
 30
0.0
 10
1.28695
 20
18.22277
 30
0.0
 10
1.28695
 20
17.82726
 30
0.0
 10
1.28695
 20
17.82726
 30
0.0
 10
1.13044
 20
17.82726
 30
0.0
 10
0.97388
 20
17.82726
 30
0.0
 10
0.81742
 20
17.82726
 30
0.0
 10
0.81742
 20
17.82726
 30
0.0
 10
0.81742
 20
18.22277
 30
0.0
 10
0.81742
 20
18.6182
 30
0.0
 10
0.81742
 20
19.01373
 30
0.0
  0
SPLINE
  5
11F
330
1F
100
AcDbEntity
  8
Layer 1
 62
   242
370
     9
100
AcDbSpline
210
0.0
220
0.0
230
1.0
 70
    11
 71
     3
 72
    20
 73
    16
 74
     0
 42
0.0000000001
 43
0.0000000001
 12
1.0
 22
0.0
 32
0.0
 13
1.0
 23
0.0
 33
0.0
 40
0.0
 40
0.0
 40
0.0
 40
0.0
 40
0.2
 40
0.2
 40
0.2
 40
0.2
 40
0.4
 40
0.4
 40
0.4
 40
0.4
 40
0.6
 40
0.6
 40
0.6
 40
0.6
 40
1.0
 40
1.0
 40
1.0
 40
1.0
 10
0.57016
 20
18.54406
 30
0.0
 10
0.57016
 20
18.70063
 30
0.0
 10
0.57016
 20
18.85713
 30
0.0
 10
0.57016
 20
19.01373
 30
0.0
 10
0.57016
 20
19.01373
 30
0.0
 10
0.1747
 20
19.01373
 30
0.0
 10
-0.22078
 20
19.01373
 30
0.0
 10
-0.61621
 20
19.01373
 30
0.0
 10
-0.61621
 20
19.01373
 30
0.0
 10
-0.61621
 20
18.85713
 30
0.0
 10
-0.61621
 20
18.70063
 30
0.0
 10
-0.61621
 20
18.54406
 30
0.0
 10
-0.61621
 20
18.54406
 30
0.0
 10
-0.22078
 20
18.54406
 30
0.0
 10
0.1747
 20
18.54406
 30
0.0
 10
0.57016
 20
18.54406
 30
0.0
  0
SPLINE
  5
120
330
1F
100
AcDbEntity
  8
Layer 1
 62
   242
370
     9
100
AcDbSpline
210
0.0
220
0.0
230
1.0
 70
    11
 71
     3
 72
    20
 73
    16
 74
     0
 42
0.0000000001
 43
0.0000000001
 12
1.0
 22
0.0
 32
0.0
 13
1.0
 23
0.0
 33
0.0
 40
0.0
 40
0.0
 40
0.0
 40
0.0
 40
0.2
 40
0.2
 40
0.2
 40
0.2
 40
0.4
 40
0.4
 40
0.4
 40
0.4
 40
0.6
 40
0.6
 40
0.6
 40
0.6
 40
1.0
 40
1.0
 40
1.0
 40
1.0
 10
0.10058
 20
16.14653
 30
0.0
 10
0.25713
 20
16.14653
 30
0.0
 10
0.41368
 20
16.14653
 30
0.0
 10
0.57016
 20
16.14653
 30
0.0
 10
0.57016
 20
16.14653
 30
0.0
 10
0.57016
 20
15.98997
 30
0.0
 10
0.57016
 20
15.83339
 30
0.0
 10
0.57016
 20
15.67687
 30
0.0
 10
0.57016
 20
15.67687
 30
0.0
 10
0.41368
 20
15.67687
 30
0.0
 10
0.25713
 20
15.67687
 30
0.0
 10
0.10058
 20
15.67687
 30
0.0
 10
0.10058
 20
15.67687
 30
0.0
 10
0.10058
 20
15.83339
 30
0.0
 10
0.10058
 20
15.98997
 30
0.0
 10
0.10058
 20
16.14653
 30
0.0
  0
SPLINE
  5
121
330
1F
100
AcDbEntity
  8
Layer 1
 62
   242
370
     9
100
AcDbSpline
210
0.0
220
0.0
230
1.0
 70
    11
 71
     3
 72
    20
 73
    16
 74
     0
 42
0.0000000001
 43
0.0000000001
 12
1.0
 22
0.0
 32
0.0
 13
1.0
 23
0.0
 33
0.0
 40
0.0
 40
0.0
 40
0.0
 40
0.0
 40
0.2
 40
0.2
 40
0.2
 40
0.2
 40
0.4
 40
0.4
 40
0.4
 40
0.4
 40
0.6
 40
0.6
 40
0.6
 40
0.6
 40
1.0
 40
1.0
 40
1.0
 40
1.0
 10
-0.14659
 20
14.96012
 30
0.0
 10
-0.30312
 20
14.96012
 30
0.0
 10
-0.45973
 20
14.96012
 30
0.0
 10
-0.61621
 20
14.96012
 30
0.0
 10
-0.61621
 20
14.96012
 30
0.0
 10
-0.61621
 20
15.35558
 30
0.0
 10
-0.61621
 20
15.75108
 30
0.0
 10
-0.61621
 20
16.14653
 30
0.0
 10
-0.61621
 20
16.14653
 30
0.0
 10
-0.45973
 20
16.14653
 30
0.0
 10
-0.30312
 20
16.14653
 30
0.0
 10
-0.14659
 20
16.14653
 30
0.0
 10
-0.14659
 20
16.14653
 30
0.0
 10
-0.14659
 20
15.75108
 30
0.0
 10
-0.14659
 20
15.35558
 30
0.0
 10
-0.14659
 20
14.96012
 30
0.0
  0
SPLINE
  5
122
330
1F
100
AcDbEntity
  8
Layer 1
 62
   242
370
     9
100
AcDbSpline
210
0.0
220
0.0
230
1.0
 70
    11
 71
     3
 72
    20
 73
    16
 74
     0
 42
0.0000000001
 43
0.0000000001
 12
1.0
 22
0.0
 32
0.0
 13
1.0
 23
0.0
 33
0.0
 40
0.0
 40
0.0
 40
0.0
 40
0.0
 40
0.2
 40
0.2
 40
0.2
 40
0.2
 40
0.4
 40
0.4
 40
0.4
 40
0.4
 40
0.6
 40
0.6
 40
0.6
 40
0.6
 40
1.0
 40
1.0
 40
1.0
 40
1.0
 10
1.28695
 20
15.42972
 30
0.0
 10
0.89151
 20
15.42972
 30
0.0
 10
0.49598
 20
15.42972
 30
0.0
 10
0.10058
 20
15.42972
 30
0.0
 10
0.10058
 20
15.42972
 30
0.0
 10
0.10058
 20
15.27314
 30
0.0
 10
0.10058
 20
15.11661
 30
0.0
 10
0.10058
 20
14.96012
 30
0.0
 10
0.10058
 20
14.96012
 30
0.0
 10
0.49598
 20
14.96012
 30
0.0
 10
0.89151
 20
14.96012
 30
0.0
 10
1.28695
 20
14.96012
 30
0.0
 10
1.28695
 20
14.96012
 30
0.0
 10
1.28695
 20
15.11661
 30
0.0
 10
1.28695
 20
15.27314
 30
0.0
 10
1.28695
 20
15.42972
 30
0.0
  0
SPLINE
  5
123
330
1F
100
AcDbEntity
  8
Layer 1
 62
   242
370
     9
100
AcDbSpline
210
0.0
220
0.0
230
1.0
 70
    11
 71
     3
 72
    20
 73
    16
 74
     0
 42
0.0000000001
 43
0.0000000001
 12
1.0
 22
0.0
 32
0.0
 13
1.0
 23
0.0
 33
0.0
 40
0.0
 40
0.0
 40
0.0
 40
0.0
 40
0.2
 40
0.2
 40
0.2
 40
0.2
 40
0.4
 40
0.4
 40
0.4
 40
0.4
 40
0.6
 40
0.6
 40
0.6
 40
0.6
 40
1.0
 40
1.0
 40
1.0
 40
1.0
 10
0.81742
 20
16.86335
 30
0.0
 10
0.97388
 20
16.86335
 30
0.0
 10
1.13044
 20
16.86335
 30
0.0
 10
1.28695
 20
16.86335
 30
0.0
 10
1.28695
 20
16.86335
 30
0.0
 10
1.28695
 20
16.46782
 30
0.0
 10
1.28695
 20
16.07239
 30
0.0
 10
1.28695
 20
15.67687
 30
0.0
 10
1.28695
 20
15.67687
 30
0.0
 10
1.13044
 20
15.67687
 30
0.0
 10
0.97388
 20
15.67687
 30
0.0
 10
0.81742
 20
15.67687
 30
0.0
 10
0.81742
 20
15.67687
 30
0.0
 10
0.81742
 20
16.07239
 30
0.0
 10
0.81742
 20
16.46782
 30
0.0
 10
0.81742
 20
16.86335
 30
0.0
  0
SPLINE
  5
124
330
1F
100
AcDbEntity
  8
Layer 1
 62
   242
370
     9
100
AcDbSpline
210
0.0
220
0.0
230
1.0
 70
    11
 71
     3
 72
    20
 73
    16
 74
     0
 42
0.0000000001
 43
0.0000000001
 12
1.0
 22
0.0
 32
0.0
 13
1.0
 23
0.0
 33
0.0
 40
0.0
 40
0.0
 40
0.0
 40
0.0
 40
0.2
 40
0.2
 40
0.2
 40
0.2
 40
0.4
 40
0.4
 40
0.4
 40
0.4
 40
0.6
 40
0.6
 40
0.6
 40
0.6
 40
1.0
 40
1.0
 40
1.0
 40
1.0
 10
0.57016
 20
16.39367
 30
0.0
 10
0.57016
 20
16.55026
 30
0.0
 10
0.57016
 20
16.70675
 30
0.0
 10
0.57016
 20
16.86335
 30
0.0
 10
0.57016
 20
16.86335
 30
0.0
 10
0.1747
 20
16.86335
 30
0.0
 10
-0.22078
 20
16.86335
 30
0.0
 10
-0.61621
 20
16.86335
 30
0.0
 10
-0.61621
 20
16.86335
 30
0.0
 10
-0.61621
 20
16.70675
 30
0.0
 10
-0.61621
 20
16.55026
 30
0.0
 10
-0.61621
 20
16.39367
 30
0.0
 10
-0.61621
 20
16.39367
 30
0.0
 10
-0.22078
 20
16.39367
 30
0.0
 10
0.1747
 20
16.39367
 30
0.0
 10
0.57016
 20
16.39367
 30
0.0
  0
SPLINE
  5
125
330
1F
100
AcDbEntity
  8
Layer 1
 62
   242
370
     9
100
AcDbSpline
210
0.0
220
0.0
230
1.0
 70
    11
 71
     3
 72
    20
 73
    16
 74
     0
 42
0.0000000001
 43
0.0000000001
 12
1.0
 22
0.0
 32
0.0
 13
1.0
 23
0.0
 33
0.0
 40
0.0
 40
0.0
 40
0.0
 40
0.0
 40
0.2
 40
0.2
 40
0.2
 40
0.2
 40
0.4
 40
0.4
 40
0.4
 40
0.4
 40
0.6
 40
0.6
 40
0.6
 40
0.6
 40
1.0
 40
1.0
 40
1.0
 40
1.0
 10
0.10058
 20
13.99615
 30
0.0
 10
0.25713
 20
13.99615
 30
0.0
 10
0.41368
 20
13.99615
 30
0.0
 10
0.57016
 20
13.99615
 30
0.0
 10
0.57016
 20
13.99615
 30
0.0
 10
0.57016
 20
13.8396
 30
0.0
 10
0.57016
 20
13.68305
 30
0.0
 10
0.57016
 20
13.52651
 30
0.0
 10
0.57016
 20
13.52651
 30
0.0
 10
0.41368
 20
13.52651
 30
0.0
 10
0.25713
 20
13.52651
 30
0.0
 10
0.10058
 20
13.52651
 30
0.0
 10
0.10058
 20
13.52651
 30
0.0
 10
0.10058
 20
13.68305
 30
0.0
 10
0.10058
 20
13.8396
 30
0.0
 10
0.10058
 20
13.99615
 30
0.0
  0
SPLINE
  5
126
330
1F
100
AcDbEntity
  8
Layer 1
 62
   242
370
     9
100
AcDbSpline
210
0.0
220
0.0
230
1.0
 70
    11
 71
     3
 72
    20
 73
    16
 74
     0
 42
0.0000000001
 43
0.0000000001
 12
1.0
 22
0.0
 32
0.0
 13
1.0
 23
0.0
 33
0.0
 40
0.0
 40
0.0
 40
0.0
 40
0.0
 40
0.2
 40
0.2
 40
0.2
 40
0.2
 40
0.4
 40
0.4
 40
0.4
 40
0.4
 40
0.6
 40
0.6
 40
0.6
 40
0.6
 40
1.0
 40
1.0
 40
1.0
 40
1.0
 10
-0.14659
 20
12.80977
 30
0.0
 10
-0.30312
 20
12.80977
 30
0.0
 10
-0.45973
 20
12.80977
 30
0.0
 10
-0.61621
 20
12.80977
 30
0.0
 10
-0.61621
 20
12.80977
 30
0.0
 10
-0.61621
 20
13.2052
 30
0.0
 10
-0.61621
 20
13.60068
 30
0.0
 10
-0.61621
 20
13.99615
 30
0.0
 10
-0.61621
 20
13.99615
 30
0.0
 10
-0.45973
 20
13.99615
 30
0.0
 10
-0.30312
 20
13.99615
 30
0.0
 10
-0.14659
 20
13.99615
 30
0.0
 10
-0.14659
 20
13.99615
 30
0.0
 10
-0.14659
 20
13.60068
 30
0.0
 10
-0.14659
 20
13.2052
 30
0.0
 10
-0.14659
 20
12.80977
 30
0.0
  0
SPLINE
  5
127
330
1F
100
AcDbEntity
  8
Layer 1
 62
   242
370
     9
100
AcDbSpline
210
0.0
220
0.0
230
1.0
 70
    11
 71
     3
 72
    20
 73
    16
 74
     0
 42
0.0000000001
 43
0.0000000001
 12
1.0
 22
0.0
 32
0.0
 13
1.0
 23
0.0
 33
0.0
 40
0.0
 40
0.0
 40
0.0
 40
0.0
 40
0.2
 40
0.2
 40
0.2
 40
0.2
 40
0.4
 40
0.4
 40
0.4
 40
0.4
 40
0.6
 40
0.6
 40
0.6
 40
0.6
 40
1.0
 40
1.0
 40
1.0
 40
1.0
 10
1.28695
 20
13.27935
 30
0.0
 10
0.89151
 20
13.27935
 30
0.0
 10
0.49598
 20
13.27935
 30
0.0
 10
0.10058
 20
13.27935
 30
0.0
 10
0.10058
 20
13.27935
 30
0.0
 10
0.10058
 20
13.12284
 30
0.0
 10
0.10058
 20
12.96627
 30
0.0
 10
0.10058
 20
12.80977
 30
0.0
 10
0.10058
 20
12.80977
 30
0.0
 10
0.49598
 20
12.80977
 30
0.0
 10
0.89151
 20
12.80977
 30
0.0
 10
1.28695
 20
12.80977
 30
0.0
 10
1.28695
 20
12.80977
 30
0.0
 10
1.28695
 20
12.96627
 30
0.0
 10
1.28695
 20
13.12284
 30
0.0
 10
1.28695
 20
13.27935
 30
0.0
  0
SPLINE
  5
128
330
1F
100
AcDbEntity
  8
Layer 1
 62
   242
370
     9
100
AcDbSpline
210
0.0
220
0.0
230
1.0
 70
    11
 71
     3
 72
    20
 73
    16
 74
     0
 42
0.0000000001
 43
0.0000000001
 12
1.0
 22
0.0
 32
0.0
 13
1.0
 23
0.0
 33
0.0
 40
0.0
 40
0.0
 40
0.0
 40
0.0
 40
0.2
 40
0.2
 40
0.2
 40
0.2
 40
0.4
 40
0.4
 40
0.4
 40
0.4
 40
0.6
 40
0.6
 40
0.6
 40
0.6
 40
1.0
 40
1.0
 40
1.0
 40
1.0
 10
0.81742
 20
14.71295
 30
0.0
 10
0.97388
 20
14.71295
 30
0.0
 10
1.13044
 20
14.71295
 30
0.0
 10
1.28695
 20
14.71295
 30
0.0
 10
1.28695
 20
14.71295
 30
0.0
 10
1.28695
 20
14.31743
 30
0.0
 10
1.28695
 20
13.92201
 30
0.0
 10
1.28695
 20
13.52651
 30
0.0
 10
1.28695
 20
13.52651
 30
0.0
 10
1.13044
 20
13.52651
 30
0.0
 10
0.97388
 20
13.52651
 30
0.0
 10
0.81742
 20
13.52651
 30
0.0
 10
0.81742
 20
13.52651
 30
0.0
 10
0.81742
 20
13.92203
 30
0.0
 10
0.81742
 20
14.31743
 30
0.0
 10
0.81742
 20
14.71295
 30
0.0
  0
SPLINE
  5
129
330
1F
100
AcDbEntity
  8
Layer 1
 62
   242
370
     9
100
AcDbSpline
210
0.0
220
0.0
230
1.0
 70
    11
 71
     3
 72
    20
 73
    16
 74
     0
 42
0.0000000001
 43
0.0000000001
 12
1.0
 22
0.0
 32
0.0
 13
1.0
 23
0.0
 33
0.0
 40
0.0
 40
0.0
 40
0.0
 40
0.0
 40
0.2
 40
0.2
 40
0.2
 40
0.2
 40
0.4
 40
0.4
 40
0.4
 40
0.4
 40
0.6
 40
0.6
 40
0.6
 40
0.6
 40
1.0
 40
1.0
 40
1.0
 40
1.0
 10
0.57016
 20
14.24332
 30
0.0
 10
0.57016
 20
14.39987
 30
0.0
 10
0.57016
 20
14.55636
 30
0.0
 10
0.57016
 20
14.71295
 30
0.0
 10
0.57016
 20
14.71295
 30
0.0
 10
0.1747
 20
14.71295
 30
0.0
 10
-0.22078
 20
14.71295
 30
0.0
 10
-0.61621
 20
14.71295
 30
0.0
 10
-0.61621
 20
14.71295
 30
0.0
 10
-0.61621
 20
14.55636
 30
0.0
 10
-0.61621
 20
14.39987
 30
0.0
 10
-0.61621
 20
14.24332
 30
0.0
 10
-0.61621
 20
14.24332
 30
0.0
 10
-0.22078
 20
14.24332
 30
0.0
 10
0.1747
 20
14.24332
 30
0.0
 10
0.57016
 20
14.24332
 30
0.0
  0
SPLINE
  5
12A
330
1F
100
AcDbEntity
  8
Layer 1
 62
   242
370
     9
100
AcDbSpline
210
0.0
220
0.0
230
1.0
 70
    11
 71
     3
 72
    20
 73
    16
 74
     0
 42
0.0000000001
 43
0.0000000001
 12
1.0
 22
0.0
 32
0.0
 13
1.0
 23
0.0
 33
0.0
 40
0.0
 40
0.0
 40
0.0
 40
0.0
 40
0.2
 40
0.2
 40
0.2
 40
0.2
 40
0.4
 40
0.4
 40
0.4
 40
0.4
 40
0.6
 40
0.6
 40
0.6
 40
0.6
 40
1.0
 40
1.0
 40
1.0
 40
1.0
 10
0.10058
 20
11.84578
 30
0.0
 10
0.25713
 20
11.84578
 30
0.0
 10
0.41368
 20
11.84578
 30
0.0
 10
0.57016
 20
11.84578
 30
0.0
 10
0.57016
 20
11.84578
 30
0.0
 10
0.57016
 20
11.68924
 30
0.0
 10
0.57016
 20
11.53267
 30
0.0
 10
0.57016
 20
11.37615
 30
0.0
 10
0.57016
 20
11.37615
 30
0.0
 10
0.41368
 20
11.37615
 30
0.0
 10
0.25713
 20
11.37615
 30
0.0
 10
0.10058
 20
11.37615
 30
0.0
 10
0.10058
 20
11.37615
 30
0.0
 10
0.10058
 20
11.53267
 30
0.0
 10
0.10058
 20
11.68924
 30
0.0
 10
0.10058
 20
11.84578
 30
0.0
  0
SPLINE
  5
12B
330
1F
100
AcDbEntity
  8
Layer 1
 62
   242
370
     9
100
AcDbSpline
210
0.0
220
0.0
230
1.0
 70
    11
 71
     3
 72
    20
 73
    16
 74
     0
 42
0.0000000001
 43
0.0000000001
 12
1.0
 22
0.0
 32
0.0
 13
1.0
 23
0.0
 33
0.0
 40
0.0
 40
0.0
 40
0.0
 40
0.0
 40
0.2
 40
0.2
 40
0.2
 40
0.2
 40
0.4
 40
0.4
 40
0.4
 40
0.4
 40
0.6
 40
0.6
 40
0.6
 40
0.6
 40
1.0
 40
1.0
 40
1.0
 40
1.0
 10
-0.14659
 20
10.65936
 30
0.0
 10
-0.30312
 20
10.65936
 30
0.0
 10
-0.45973
 20
10.65936
 30
0.0
 10
-0.61621
 20
10.65936
 30
0.0
 10
-0.61621
 20
10.65936
 30
0.0
 10
-0.61621
 20
11.05481
 30
0.0
 10
-0.61621
 20
11.4503
 30
0.0
 10
-0.61621
 20
11.84578
 30
0.0
 10
-0.61621
 20
11.84578
 30
0.0
 10
-0.45973
 20
11.84578
 30
0.0
 10
-0.30312
 20
11.84578
 30
0.0
 10
-0.14659
 20
11.84578
 30
0.0
 10
-0.14659
 20
11.84578
 30
0.0
 10
-0.14659
 20
11.4503
 30
0.0
 10
-0.14659
 20
11.05483
 30
0.0
 10
-0.14659
 20
10.65936
 30
0.0
  0
SPLINE
  5
12C
330
1F
100
AcDbEntity
  8
Layer 1
 62
   242
370
     9
100
AcDbSpline
210
0.0
220
0.0
230
1.0
 70
    11
 71
     3
 72
    20
 73
    16
 74
     0
 42
0.0000000001
 43
0.0000000001
 12
1.0
 22
0.0
 32
0.0
 13
1.0
 23
0.0
 33
0.0
 40
0.0
 40
0.0
 40
0.0
 40
0.0
 40
0.2
 40
0.2
 40
0.2
 40
0.2
 40
0.4
 40
0.4
 40
0.4
 40
0.4
 40
0.6
 40
0.6
 40
0.6
 40
0.6
 40
1.0
 40
1.0
 40
1.0
 40
1.0
 10
1.28695
 20
11.12896
 30
0.0
 10
0.89151
 20
11.12896
 30
0.0
 10
0.49598
 20
11.12896
 30
0.0
 10
0.10058
 20
11.12896
 30
0.0
 10
0.10058
 20
11.12896
 30
0.0
 10
0.10058
 20
10.97247
 30
0.0
 10
0.10058
 20
10.81587
 30
0.0
 10
0.10058
 20
10.65936
 30
0.0
 10
0.10058
 20
10.65936
 30
0.0
 10
0.49598
 20
10.65936
 30
0.0
 10
0.89151
 20
10.65936
 30
0.0
 10
1.28695
 20
10.65936
 30
0.0
 10
1.28695
 20
10.65936
 30
0.0
 10
1.28695
 20
10.81587
 30
0.0
 10
1.28695
 20
10.97247
 30
0.0
 10
1.28695
 20
11.12896
 30
0.0
  0
SPLINE
  5
12D
330
1F
100
AcDbEntity
  8
Layer 1
 62
   242
370
     9
100
AcDbSpline
210
0.0
220
0.0
230
1.0
 70
    11
 71
     3
 72
    20
 73
    16
 74
     0
 42
0.0000000001
 43
0.0000000001
 12
1.0
 22
0.0
 32
0.0
 13
1.0
 23
0.0
 33
0.0
 40
0.0
 40
0.0
 40
0.0
 40
0.0
 40
0.2
 40
0.2
 40
0.2
 40
0.2
 40
0.4
 40
0.4
 40
0.4
 40
0.4
 40
0.6
 40
0.6
 40
0.6
 40
0.6
 40
1.0
 40
1.0
 40
1.0
 40
1.0
 10
0.81742
 20
12.56259
 30
0.0
 10
0.97388
 20
12.56259
 30
0.0
 10
1.13044
 20
12.56259
 30
0.0
 10
1.28695
 20
12.56259
 30
0.0
 10
1.28695
 20
12.56259
 30
0.0
 10
1.28695
 20
12.16707
 30
0.0
 10
1.28695
 20
11.77164
 30
0.0
 10
1.28695
 20
11.37615
 30
0.0
 10
1.28695
 20
11.37615
 30
0.0
 10
1.13044
 20
11.37615
 30
0.0
 10
0.97388
 20
11.37615
 30
0.0
 10
0.81742
 20
11.37615
 30
0.0
 10
0.81742
 20
11.37615
 30
0.0
 10
0.81742
 20
11.77165
 30
0.0
 10
0.81742
 20
12.16707
 30
0.0
 10
0.81742
 20
12.56259
 30
0.0
  0
SPLINE
  5
12E
330
1F
100
AcDbEntity
  8
Layer 1
 62
   242
370
     9
100
AcDbSpline
210
0.0
220
0.0
230
1.0
 70
    11
 71
     3
 72
    20
 73
    16
 74
     0
 42
0.0000000001
 43
0.0000000001
 12
1.0
 22
0.0
 32
0.0
 13
1.0
 23
0.0
 33
0.0
 40
0.0
 40
0.0
 40
0.0
 40
0.0
 40
0.2
 40
0.2
 40
0.2
 40
0.2
 40
0.4
 40
0.4
 40
0.4
 40
0.4
 40
0.6
 40
0.6
 40
0.6
 40
0.6
 40
1.0
 40
1.0
 40
1.0
 40
1.0
 10
0.57016
 20
12.09296
 30
0.0
 10
0.57016
 20
12.2495
 30
0.0
 10
0.57016
 20
12.40608
 30
0.0
 10
0.57016
 20
12.56259
 30
0.0
 10
0.57016
 20
12.56259
 30
0.0
 10
0.1747
 20
12.56259
 30
0.0
 10
-0.22078
 20
12.56259
 30
0.0
 10
-0.61621
 20
12.56259
 30
0.0
 10
-0.61621
 20
12.56259
 30
0.0
 10
-0.61621
 20
12.40608
 30
0.0
 10
-0.61621
 20
12.2495
 30
0.0
 10
-0.61621
 20
12.09296
 30
0.0
 10
-0.61621
 20
12.09296
 30
0.0
 10
-0.22078
 20
12.09296
 30
0.0
 10
0.1747
 20
12.09296
 30
0.0
 10
0.57016
 20
12.09296
 30
0.0
  0
SPLINE
  5
12F
330
1F
100
AcDbEntity
  8
Layer 1
 62
   242
370
     9
100
AcDbSpline
210
0.0
220
0.0
230
1.0
 70
    11
 71
     3
 72
    20
 73
    16
 74
     0
 42
0.0000000001
 43
0.0000000001
 12
1.0
 22
0.0
 32
0.0
 13
1.0
 23
0.0
 33
0.0
 40
0.0
 40
0.0
 40
0.0
 40
0.0
 40
0.2
 40
0.2
 40
0.2
 40
0.2
 40
0.4
 40
0.4
 40
0.4
 40
0.4
 40
0.6
 40
0.6
 40
0.6
 40
0.6
 40
1.0
 40
1.0
 40
1.0
 40
1.0
 10
0.10058
 20
9.6954
 30
0.0
 10
0.25713
 20
9.6954
 30
0.0
 10
0.41368
 20
9.6954
 30
0.0
 10
0.57016
 20
9.6954
 30
0.0
 10
0.57016
 20
9.6954
 30
0.0
 10
0.57016
 20
9.53887
 30
0.0
 10
0.57016
 20
9.3823
 30
0.0
 10
0.57016
 20
9.22576
 30
0.0
 10
0.57016
 20
9.22576
 30
0.0
 10
0.41368
 20
9.22576
 30
0.0
 10
0.25713
 20
9.22576
 30
0.0
 10
0.10058
 20
9.22576
 30
0.0
 10
0.10058
 20
9.22576
 30
0.0
 10
0.10058
 20
9.3823
 30
0.0
 10
0.10058
 20
9.53887
 30
0.0
 10
0.10058
 20
9.6954
 30
0.0
  0
SPLINE
  5
130
330
1F
100
AcDbEntity
  8
Layer 1
 62
   242
370
     9
100
AcDbSpline
210
0.0
220
0.0
230
1.0
 70
    11
 71
     3
 72
    20
 73
    16
 74
     0
 42
0.0000000001
 43
0.0000000001
 12
1.0
 22
0.0
 32
0.0
 13
1.0
 23
0.0
 33
0.0
 40
0.0
 40
0.0
 40
0.0
 40
0.0
 40
0.2
 40
0.2
 40
0.2
 40
0.2
 40
0.4
 40
0.4
 40
0.4
 40
0.4
 40
0.6
 40
0.6
 40
0.6
 40
0.6
 40
1.0
 40
1.0
 40
1.0
 40
1.0
 10
-0.14659
 20
8.50898
 30
0.0
 10
-0.30312
 20
8.50898
 30
0.0
 10
-0.45973
 20
8.50898
 30
0.0
 10
-0.61621
 20
8.50898
 30
0.0
 10
-0.61621
 20
8.50898
 30
0.0
 10
-0.61621
 20
8.90446
 30
0.0
 10
-0.61621
 20
9.2999
 30
0.0
 10
-0.61621
 20
9.6954
 30
0.0
 10
-0.61621
 20
9.6954
 30
0.0
 10
-0.45973
 20
9.6954
 30
0.0
 10
-0.30312
 20
9.6954
 30
0.0
 10
-0.14659
 20
9.6954
 30
0.0
 10
-0.14659
 20
9.6954
 30
0.0
 10
-0.14659
 20
9.2999
 30
0.0
 10
-0.14659
 20
8.90448
 30
0.0
 10
-0.14659
 20
8.50898
 30
0.0
  0
SPLINE
  5
131
330
1F
100
AcDbEntity
  8
Layer 1
 62
   242
370
     9
100
AcDbSpline
210
0.0
220
0.0
230
1.0
 70
    11
 71
     3
 72
    20
 73
    16
 74
     0
 42
0.0000000001
 43
0.0000000001
 12
1.0
 22
0.0
 32
0.0
 13
1.0
 23
0.0
 33
0.0
 40
0.0
 40
0.0
 40
0.0
 40
0.0
 40
0.2
 40
0.2
 40
0.2
 40
0.2
 40
0.4
 40
0.4
 40
0.4
 40
0.4
 40
0.6
 40
0.6
 40
0.6
 40
0.6
 40
1.0
 40
1.0
 40
1.0
 40
1.0
 10
1.28695
 20
8.97857
 30
0.0
 10
0.89151
 20
8.97857
 30
0.0
 10
0.49598
 20
8.97857
 30
0.0
 10
0.10058
 20
8.97857
 30
0.0
 10
0.10058
 20
8.97857
 30
0.0
 10
0.10058
 20
8.82207
 30
0.0
 10
0.10058
 20
8.66549
 30
0.0
 10
0.10058
 20
8.50898
 30
0.0
 10
0.10058
 20
8.50898
 30
0.0
 10
0.49598
 20
8.50898
 30
0.0
 10
0.89151
 20
8.50898
 30
0.0
 10
1.28695
 20
8.50898
 30
0.0
 10
1.28695
 20
8.50898
 30
0.0
 10
1.28695
 20
8.66549
 30
0.0
 10
1.28695
 20
8.82207
 30
0.0
 10
1.28695
 20
8.97857
 30
0.0
  0
SPLINE
  5
132
330
1F
100
AcDbEntity
  8
Layer 1
 62
   242
370
     9
100
AcDbSpline
210
0.0
220
0.0
230
1.0
 70
    11
 71
     3
 72
    20
 73
    16
 74
     0
 42
0.0000000001
 43
0.0000000001
 12
1.0
 22
0.0
 32
0.0
 13
1.0
 23
0.0
 33
0.0
 40
0.0
 40
0.0
 40
0.0
 40
0.0
 40
0.2
 40
0.2
 40
0.2
 40
0.2
 40
0.4
 40
0.4
 40
0.4
 40
0.4
 40
0.6
 40
0.6
 40
0.6
 40
0.6
 40
1.0
 40
1.0
 40
1.0
 40
1.0
 10
0.81742
 20
10.41217
 30
0.0
 10
0.97388
 20
10.41217
 30
0.0
 10
1.13044
 20
10.41217
 30
0.0
 10
1.28695
 20
10.41217
 30
0.0
 10
1.28695
 20
10.41217
 30
0.0
 10
1.28695
 20
10.01668
 30
0.0
 10
1.28695
 20
9.62127
 30
0.0
 10
1.28695
 20
9.22576
 30
0.0
 10
1.28695
 20
9.22576
 30
0.0
 10
1.13044
 20
9.22576
 30
0.0
 10
0.97388
 20
9.22576
 30
0.0
 10
0.81742
 20
9.22576
 30
0.0
 10
0.81742
 20
9.22576
 30
0.0
 10
0.81742
 20
9.62127
 30
0.0
 10
0.81742
 20
10.01668
 30
0.0
 10
0.81742
 20
10.41217
 30
0.0
  0
ENDSEC
  0
SECTION
  2
OBJECTS
  0
DICTIONARY
  5
C
330
0
100
AcDbDictionary
281
     1
  3
ACAD_GROUP
350
D
  3
ACAD_LAYOUT
350
1A
  3
ACAD_MATERIAL
350
3B
  3
ACAD_MLEADERSTYLE
350
135
  3
ACAD_MLINESTYLE
350
17
  3
ACAD_PLOTSETTINGS
350
19
  3
ACAD_PLOTSTYLENAME
350
E
  3
ACAD_VISUALSTYLE
350
2A
  3
AcDbVariableDictionary
350
133
  0
DICTIONARY
  5
D
102
{ACAD_REACTORS
330
C
102
}
330
C
100
AcDbDictionary
281
     1
  0
DICTIONARY
  5
1A
102
{ACAD_REACTORS
330
C
102
}
330
C
100
AcDbDictionary
281
     1
  3
Layout1
350
1E
  3
Layout2
350
26
  3
Model
350
22
  0
DICTIONARY
  5
3B
102
{ACAD_REACTORS
330
C
102
}
330
C
100
AcDbDictionary
281
     1
  3
ByBlock
350
3D
  3
ByLayer
350
3C
  3
Global
350
3E
  0
DICTIONARY
  5
135
102
{ACAD_REACTORS
330
C
102
}
330
C
100
AcDbDictionary
281
     1
  0
DICTIONARY
  5
17
102
{ACAD_REACTORS
330
C
102
}
330
C
100
AcDbDictionary
281
     1
  3
Standard
350
18
  0
DICTIONARY
  5
19
102
{ACAD_REACTORS
330
C
102
}
330
C
100
AcDbDictionary
281
     1
  0
ACDBDICTIONARYWDFLT
  5
E
102
{ACAD_REACTORS
330
C
102
}
330
C
100
AcDbDictionary
281
     1
  3
Normal
350
F
100
AcDbDictionaryWithDefault
340
F
  0
DICTIONARY
  5
2A
102
{ACAD_REACTORS
330
C
102
}
330
C
100
AcDbDictionary
281
     1
  3
2dWireframe
350
2F
  3
3D Hidden
350
31
  3
3dWireframe
350
30
  3
Basic
350
32
  3
Brighten
350
36
  3
ColorChange
350
3A
  3
Conceptual
350
34
  3
Dim
350
35
  3
Facepattern
350
39
  3
Flat
350
2B
  3
FlatWithEdges
350
2C
  3
Gouraud
350
2D
  3
GouraudWithEdges
350
2E
  3
Linepattern
350
38
  3
Realistic
350
33
  3
Thicken
350
37
  0
DICTIONARY
  5
133
102
{ACAD_REACTORS
330
C
102
}
330
C
100
AcDbDictionary
281
     1
  3
DIMASSOC
350
136
  3
HIDETEXT
350
137
  0
LAYOUT
  5
1E
102
{ACAD_REACTORS
330
1A
102
}
330
1A
100
AcDbPlotSettings
  1

  2
none_device
  4

  6

 40
0.0
 41
0.0
 42
0.0
 43
0.0
 44
0.0
 45
0.0
 46
0.0
 47
0.0
 48
0.0
 49
0.0
140
0.0
141
0.0
142
1.0
143
1.0
 70
   688
 72
     0
 73
     0
 74
     5
  7

 75
    16
147
1.0
148
0.0
149
0.0
100
AcDbLayout
  1
Layout1
 70
     1
 71
     1
 10
0.0
 20
0.0
 11
12.0
 21
9.0
 12
0.0
 22
0.0
 32
0.0
 14
1.000000000000000E+20
 24
1.000000000000000E+20
 34
1.000000000000000E+20
 15
-1.000000000000000E+20
 25
-1.000000000000000E+20
 35
-1.000000000000000E+20
146
0.0
 13
0.0
 23
0.0
 33
0.0
 16
1.0
 26
0.0
 36
0.0
 17
0.0
 27
1.0
 37
0.0
 76
     0
330
1B
  0
LAYOUT
  5
26
102
{ACAD_REACTORS
330
1A
102
}
330
1A
100
AcDbPlotSettings
  1

  2
none_device
  4

  6

 40
0.0
 41
0.0
 42
0.0
 43
0.0
 44
0.0
 45
0.0
 46
0.0
 47
0.0
 48
0.0
 49
0.0
140
0.0
141
0.0
142
1.0
143
1.0
 70
   688
 72
     0
 73
     0
 74
     5
  7

 75
    16
147
1.0
148
0.0
149
0.0
100
AcDbLayout
  1
Layout2
 70
     1
 71
     2
 10
0.0
 20
0.0
 11
0.0
 21
0.0
 12
0.0
 22
0.0
 32
0.0
 14
0.0
 24
0.0
 34
0.0
 15
0.0
 25
0.0
 35
0.0
146
0.0
 13
0.0
 23
0.0
 33
0.0
 16
1.0
 26
0.0
 36
0.0
 17
0.0
 27
1.0
 37
0.0
 76
     0
330
23
  0
LAYOUT
  5
22
102
{ACAD_REACTORS
330
1A
102
}
330
1A
100
AcDbPlotSettings
  1

  2
none_device
  4

  6

 40
0.0
 41
0.0
 42
0.0
 43
0.0
 44
0.0
 45
0.0
 46
0.0
 47
0.0
 48
0.0
 49
0.0
140
0.0
141
0.0
142
1.0
143
1.0
 70
  1712
 72
     0
 73
     0
 74
     0
  7

 75
     0
147
1.0
148
0.0
149
0.0
100
AcDbLayout
  1
Model
 70
     1
 71
     0
 10
0.0
 20
0.0
 11
12.0
 21
9.0
 12
0.0
 22
0.0
 32
0.0
 14
-9.69789
 24
-6.80358
 34
0.0
 15
1.59104
 25
19.28861
 35
0.0
146
0.0
 13
0.0
 23
0.0
 33
0.0
 16
1.0
 26
0.0
 36
0.0
 17
0.0
 27
1.0
 37
0.0
 76
     0
330
1F
331
29
  0
MATERIAL
  5
3D
102
{ACAD_REACTORS
330
3B
102
}
102
{ACAD_XDICTIONARY
360
15A
102
}
330
3B
100
AcDbMaterial
  1
ByBlock
  0
MATERIAL
  5
3C
102
{ACAD_REACTORS
330
3B
102
}
102
{ACAD_XDICTIONARY
360
158
102
}
330
3B
100
AcDbMaterial
  1
ByLayer
  0
MATERIAL
  5
3E
102
{ACAD_REACTORS
330
3B
102
}
102
{ACAD_XDICTIONARY
360
15C
102
}
330
3B
100
AcDbMaterial
  1
Global
  0
MLINESTYLE
  5
18
102
{ACAD_REACTORS
330
17
102
}
330
17
100
AcDbMlineStyle
  2
Standard
 70
     0
  3

 62
   256
 51
90.0
 52
90.0
 71
     2
 49
0.5
 62
   256
  6
BYLAYER
 49
-0.5
 62
   256
  6
BYLAYER
  0
ACDBPLACEHOLDER
  5
F
102
{ACAD_REACTORS
330
E
102
}
330
E
  0
VISUALSTYLE
  5
2F
102
{ACAD_REACTORS
330
2A
102
}
102
{ACAD_XDICTIONARY
360
140
102
}
330
2A
100
AcDbVisualStyle
  2
2dWireframe
 70
     4
 71
     0
 72
     2
 73
     0
 90
        0
 40
-0.6
 41
-30.0
 62
     5
 63
     7
 74
     1
 91
        4
 64
     7
 65
   257
 75
     1
175
     1
 42
1.0
 92
        0
 66
   257
 43
1.0
 76
     1
 77
     6
 78
     2
 67
     7
 79
     5
170
     0
171
     0
290
     0
174
     0
 93
        1
 44
0.0
173
     0
291
     0
 45
0.0
1001
ACAD
1000
AcDbSavedByObjectVersion
1070
     0
  0
VISUALSTYLE
  5
31
102
{ACAD_REACTORS
330
2A
102
}
102
{ACAD_XDICTIONARY
360
144
102
}
330
2A
100
AcDbVisualStyle
  2
3D Hidden
 70
     6
 71
     1
 72
     2
 73
     2
 90
        0
 40
-0.6
 41
-30.0
 62
     5
 63
     7
 74
     2
 91
        2
 64
     7
 65
   257
 75
     2
175
     1
 42
40.0
 92
        0
 66
   257
 43
1.0
 76
     1
 77
     6
 78
     2
 67
     7
 79
     3
170
     0
171
     0
290
     0
174
     0
 93
        1
 44
0.0
173
     0
291
     0
 45
0.0
1001
ACAD
1000
AcDbSavedByObjectVersion
1070
     0
  0
VISUALSTYLE
  5
30
102
{ACAD_REACTORS
330
2A
102
}
102
{ACAD_XDICTIONARY
360
142
102
}
330
2A
100
AcDbVisualStyle
  2
3dWireframe
 70
     5
 71
     0
 72
     2
 73
     0
 90
        0
 40
-0.6
 41
-30.0
 62
     5
 63
     7
 74
     1
 91
        4
 64
     7
 65
   257
 75
     1
175
     1
 42
1.0
 92
        0
 66
   257
 43
1.0
 76
     1
 77
     6
 78
     2
 67
     7
 79
     5
170
     0
171
     0
290
     0
174
     0
 93
        1
 44
0.0
173
     0
291
     0
 45
0.0
1001
ACAD
1000
AcDbSavedByObjectVersion
1070
     0
  0
VISUALSTYLE
  5
32
102
{ACAD_REACTORS
330
2A
102
}
102
{ACAD_XDICTIONARY
360
146
102
}
330
2A
100
AcDbVisualStyle
  2
Basic
 70
     7
 71
     1
 72
     0
 73
     1
 90
        0
 40
-0.6
 41
-30.0
 62
     5
 63
     7
 74
     0
 91
        4
 64
     7
 65
   257
 75
     1
175
     1
 42
1.0
 92
        8
 66
     7
 43
1.0
 76
     1
 77
     6
 78
     2
 67
     7
 79
     5
170
     0
171
     0
290
     0
174
     0
 93
        1
 44
0.0
173
     0
291
     1
 45
0.0
1001
ACAD
1000
AcDbSavedByObjectVersion
1070
     0
  0
VISUALSTYLE
  5
36
102
{ACAD_REACTORS
330
2A
102
}
102
{ACAD_XDICTIONARY
360
14E
102
}
330
2A
100
AcDbVisualStyle
  2
Brighten
 70
    12
 71
     2
 72
     2
 73
     0
 90
        0
 40
-0.6
 41
-30.0
 62
     5
 63
     7
 74
     1
 91
        4
 64
     7
 65
   257
 75
     1
175
     1
 42
1.0
 92
        8
 66
     7
 43
1.0
 76
     1
 77
     6
 78
     2
 67
     7
 79
     5
170
     0
171
     0
290
     0
174
     0
 93
        1
 44
50.0
173
     0
291
     1
 45
0.0
1001
ACAD
1000
AcDbSavedByObjectVersion
1070
     0
  0
VISUALSTYLE
  5
3A
102
{ACAD_REACTORS
330
2A
102
}
102
{ACAD_XDICTIONARY
360
156
102
}
330
2A
100
AcDbVisualStyle
  2
ColorChange
 70
    16
 71
     2
 72
     2
 73
     3
 90
        0
 40
-0.6
 41
-30.0
 62
     5
 63
     8
 74
     1
 91
        4
 64
     7
 65
   257
 75
     1
175
     1
 42
1.0
 92
        8
 66
     8
 43
1.0
 76
     1
 77
     6
 78
     2
 67
     7
 79
     5
170
     0
171
     0
290
     0
174
     0
 93
        1
 44
0.0
173
     0
291
     1
 45
0.0
1001
ACAD
1000
AcDbSavedByObjectVersion
1070
     0
  0
VISUALSTYLE
  5
34
102
{ACAD_REACTORS
330
2A
102
}
102
{ACAD_XDICTIONARY
360
14A
102
}
330
2A
100
AcDbVisualStyle
  2
Conceptual
 70
     9
 71
     3
 72
     2
 73
     0
 90
        0
 40
-0.6
 41
-30.0
 62
     5
 63
     7
 74
     2
 91
        2
 64
     7
 65
   257
 75
     1
175
     1
 42
40.0
 92
        8
 66
     7
 43
1.0
 76
     1
 77
     6
 78
     2
 67
     7
 79
     3
170
     0
171
     0
290
     0
174
     0
 93
        1
 44
0.0
173
     0
291
     0
 45
0.0
1001
ACAD
1000
AcDbSavedByObjectVersion
1070
     0
  0
VISUALSTYLE
  5
35
102
{ACAD_REACTORS
330
2A
102
}
102
{ACAD_XDICTIONARY
360
14C
102
}
330
2A
100
AcDbVisualStyle
  2
Dim
 70
    11
 71
     2
 72
     2
 73
     0
 90
        0
 40
-0.6
 41
-30.0
 62
     5
 63
     7
 74
     1
 91
        4
 64
     7
 65
   257
 75
     1
175
     1
 42
1.0
 92
        8
 66
     7
 43
1.0
 76
     1
 77
     6
 78
     2
 67
     7
 79
     5
170
     0
171
     0
290
     0
174
     0
 93
        1
 44
-50.0
173
     0
291
     1
 45
0.0
1001
ACAD
1000
AcDbSavedByObjectVersion
1070
     0
  0
VISUALSTYLE
  5
39
102
{ACAD_REACTORS
330
2A
102
}
102
{ACAD_XDICTIONARY
360
154
102
}
330
2A
100
AcDbVisualStyle
  2
Facepattern
 70
    15
 71
     2
 72
     2
 73
     0
 90
        0
 40
-0.6
 41
-30.0
 62
     5
 63
     7
 74
     1
 91
        4
 64
     7
 65
   257
 75
     1
175
     1
 42
1.0
 92
        8
 66
     7
 43
1.0
 76
     1
 77
     6
 78
     2
 67
     7
 79
     5
170
     0
171
     0
290
     0
174
     0
 93
        1
 44
0.0
173
     0
291
     1
 45
0.0
1001
ACAD
1000
AcDbSavedByObjectVersion
1070
     0
  0
VISUALSTYLE
  5
2B
102
{ACAD_REACTORS
330
2A
102
}
102
{ACAD_XDICTIONARY
360
138
102
}
330
2A
100
AcDbVisualStyle
  2
Flat
 70
     0
 71
     2
 72
     1
 73
     1
 90
        2
 40
-0.6
 41
30.0
 62
     5
 63
     7
 74
     0
 91
        4
 64
     7
 65
   257
 75
     1
175
     1
 42
1.0
 92
        8
 66
     7
 43
1.0
 76
     1
 77
     6
 78
     2
 67
     7
 79
     5
170
     0
171
     0
290
     0
174
     0
 93
       13
 44
0.0
173
     0
291
     1
 45
0.0
1001
ACAD
1000
AcDbSavedByObjectVersion
1070
     0
  0
VISUALSTYLE
  5
2C
102
{ACAD_REACTORS
330
2A
102
}
102
{ACAD_XDICTIONARY
360
13A
102
}
330
2A
100
AcDbVisualStyle
  2
FlatWithEdges
 70
     1
 71
     2
 72
     1
 73
     1
 90
        2
 40
-0.6
 41
30.0
 62
     5
 63
     7
 74
     1
 91
        4
 64
     7
 65
   257
 75
     1
175
     1
 42
1.0
 92
        0
 66
   257
 43
1.0
 76
     1
 77
     6
 78
     2
 67
     7
 79
     5
170
     0
171
     0
290
     0
174
     0
 93
       13
 44
0.0
173
     0
291
     1
 45
0.0
1001
ACAD
1000
AcDbSavedByObjectVersion
1070
     0
  0
VISUALSTYLE
  5
2D
102
{ACAD_REACTORS
330
2A
102
}
102
{ACAD_XDICTIONARY
360
13C
102
}
330
2A
100
AcDbVisualStyle
  2
Gouraud
 70
     2
 71
     2
 72
     2
 73
     1
 90
        2
 40
-0.6
 41
30.0
 62
     5
 63
     7
 74
     0
 91
        4
 64
     7
 65
   257
 75
     1
175
     1
 42
1.0
 92
        0
 66
     7
 43
1.0
 76
     1
 77
     6
 78
     2
 67
     7
 79
     5
170
     0
171
     0
290
     0
174
     0
 93
       13
 44
0.0
173
     0
291
     1
 45
0.0
1001
ACAD
1000
AcDbSavedByObjectVersion
1070
     0
  0
VISUALSTYLE
  5
2E
102
{ACAD_REACTORS
330
2A
102
}
102
{ACAD_XDICTIONARY
360
13E
102
}
330
2A
100
AcDbVisualStyle
  2
GouraudWithEdges
 70
     3
 71
     2
 72
     2
 73
     1
 90
        2
 40
-0.6
 41
30.0
 62
     5
 63
     7
 74
     1
 91
        4
 64
     7
 65
   257
 75
     1
175
     1
 42
1.0
 92
        0
 66
   257
 43
1.0
 76
     1
 77
     6
 78
     2
 67
     7
 79
     5
170
     0
171
     0
290
     0
174
     0
 93
       13
 44
0.0
173
     0
291
     1
 45
0.0
1001
ACAD
1000
AcDbSavedByObjectVersion
1070
     0
  0
VISUALSTYLE
  5
38
102
{ACAD_REACTORS
330
2A
102
}
102
{ACAD_XDICTIONARY
360
152
102
}
330
2A
100
AcDbVisualStyle
  2
Linepattern
 70
    14
 71
     2
 72
     2
 73
     0
 90
        0
 40
-0.6
 41
-30.0
 62
     5
 63
     7
 74
     1
 91
        4
 64
     7
 65
   257
 75
     7
175
     7
 42
1.0
 92
        8
 66
     7
 43
1.0
 76
     1
 77
     6
 78
     2
 67
     7
 79
     5
170
     0
171
     0
290
     0
174
     0
 93
        1
 44
0.0
173
     0
291
     1
 45
0.0
1001
ACAD
1000
AcDbSavedByObjectVersion
1070
     0
  0
VISUALSTYLE
  5
33
102
{ACAD_REACTORS
330
2A
102
}
102
{ACAD_XDICTIONARY
360
148
102
}
330
2A
100
AcDbVisualStyle
  2
Realistic
 70
     8
 71
     2
 72
     2
 73
     0
 90
        0
 40
-0.6
 41
-30.0
 62
     5
 63
     7
 74
     1
 91
        0
 64
     7
 65
   257
 75
     1
175
     1
 42
1.0
 92
        8
 66
     8
 43
1.0
 76
     1
 77
     6
 78
     2
 67
     7
 79
     5
170
     0
171
     0
290
     0
174
     0
 93
       13
 44
0.0
173
     0
291
     0
 45
0.0
1001
ACAD
1000
AcDbSavedByObjectVersion
1070
     0
  0
VISUALSTYLE
  5
37
102
{ACAD_REACTORS
330
2A
102
}
102
{ACAD_XDICTIONARY
360
150
102
}
330
2A
100
AcDbVisualStyle
  2
Thicken
 70
    13
 71
     2
 72
     2
 73
     0
 90
        0
 40
-0.6
 41
-30.0
 62
     5
 63
     7
 74
     1
 91
        4
 64
     7
 65
   257
 75
     1
175
     1
 42
1.0
 92
       12
 66
     7
 43
1.0
 76
     1
 77
     6
 78
     2
 67
     7
 79
     5
170
     0
171
     0
290
     0
174
     0
 93
        1
 44
0.0
173
     0
291
     1
 45
0.0
1001
ACAD
1000
AcDbSavedByObjectVersion
1070
     0
  0
DICTIONARYVAR
  5
136
102
{ACAD_REACTORS
330
133
102
}
330
133
100
DictionaryVariables
280
     0
  1
2
  0
DICTIONARYVAR
  5
137
102
{ACAD_REACTORS
330
133
102
}
330
133
100
DictionaryVariables
280
     0
  1
1
  0
DICTIONARY
  5
15A
330
3D
100
AcDbDictionary
280
     1
281
     1
  3
ACAD_XREC_ROUNDTRIP
360
15B
  0
DICTIONARY
  5
158
330
3C
100
AcDbDictionary
280
     1
281
     1
  3
ACAD_XREC_ROUNDTRIP
360
159
  0
DICTIONARY
  5
15C
330
3E
100
AcDbDictionary
280
     1
281
     1
  3
ACAD_XREC_ROUNDTRIP
360
15D
  0
DICTIONARY
  5
140
330
2F
100
AcDbDictionary
280
     1
281
     1
  3
ACAD_XREC_ROUNDTRIP
360
141
  0
DICTIONARY
  5
144
330
31
100
AcDbDictionary
280
     1
281
     1
  3
ACAD_XREC_ROUNDTRIP
360
145
  0
DICTIONARY
  5
142
330
30
100
AcDbDictionary
280
     1
281
     1
  3
ACAD_XREC_ROUNDTRIP
360
143
  0
DICTIONARY
  5
146
330
32
100
AcDbDictionary
280
     1
281
     1
  3
ACAD_XREC_ROUNDTRIP
360
147
  0
DICTIONARY
  5
14E
330
36
100
AcDbDictionary
280
     1
281
     1
  3
ACAD_XREC_ROUNDTRIP
360
14F
  0
DICTIONARY
  5
156
330
3A
100
AcDbDictionary
280
     1
281
     1
  3
ACAD_XREC_ROUNDTRIP
360
157
  0
DICTIONARY
  5
14A
330
34
100
AcDbDictionary
280
     1
281
     1
  3
ACAD_XREC_ROUNDTRIP
360
14B
  0
DICTIONARY
  5
14C
330
35
100
AcDbDictionary
280
     1
281
     1
  3
ACAD_XREC_ROUNDTRIP
360
14D
  0
DICTIONARY
  5
154
330
39
100
AcDbDictionary
280
     1
281
     1
  3
ACAD_XREC_ROUNDTRIP
360
155
  0
DICTIONARY
  5
138
330
2B
100
AcDbDictionary
280
     1
281
     1
  3
ACAD_XREC_ROUNDTRIP
360
139
  0
DICTIONARY
  5
13A
330
2C
100
AcDbDictionary
280
     1
281
     1
  3
ACAD_XREC_ROUNDTRIP
360
13B
  0
DICTIONARY
  5
13C
330
2D
100
AcDbDictionary
280
     1
281
     1
  3
ACAD_XREC_ROUNDTRIP
360
13D
  0
DICTIONARY
  5
13E
330
2E
100
AcDbDictionary
280
     1
281
     1
  3
ACAD_XREC_ROUNDTRIP
360
13F
  0
DICTIONARY
  5
152
330
38
100
AcDbDictionary
280
     1
281
     1
  3
ACAD_XREC_ROUNDTRIP
360
153
  0
DICTIONARY
  5
148
330
33
100
AcDbDictionary
280
     1
281
     1
  3
ACAD_XREC_ROUNDTRIP
360
149
  0
DICTIONARY
  5
150
330
37
100
AcDbDictionary
280
     1
281
     1
  3
ACAD_XREC_ROUNDTRIP
360
151
  0
XRECORD
  5
15B
102
{ACAD_REACTORS
330
15A
102
}
330
15A
100
AcDbXrecord
280
     1
102
MATERIAL
148
0.0
149
0.0
149
0.0
 93
        0
 94
      127
282
     0
 72
     1
 77
     1
171
     1
175
     1
179
     1
273
     0
  0
XRECORD
  5
159
102
{ACAD_REACTORS
330
158
102
}
330
158
100
AcDbXrecord
280
     1
102
MATERIAL
148
0.0
149
0.0
149
0.0
 93
        0
 94
      127
282
     0
 72
     1
 77
     1
171
     1
175
     1
179
     1
273
     0
  0
XRECORD
  5
15D
102
{ACAD_REACTORS
330
15C
102
}
330
15C
100
AcDbXrecord
280
     1
102
MATERIAL
148
0.0
149
0.0
149
0.0
 93
        0
 94
      127
282
     0
 72
     1
 77
     1
171
     1
175
     1
179
     1
273
     0
  0
XRECORD
  5
141
102
{ACAD_REACTORS
330
140
102
}
330
140
100
AcDbXrecord
280
     1
102
RTVSPropertyOp0
 70
     1
102
RTVSPropertyOp1
 70
     1
102
RTVSPropertyOp2
 70
     1
102
RTVSPropertyOp3
 70
     1
102
RTVSPropertyOp4
 70
     1
102
RTVSPropertyOp5
 70
     1
102
RTVSPropertyOp6
 70
     1
102
RTVSPropertyOp7
 70
     1
102
RTVSPropertyOp8
 70
     1
102
RTVSPropertyOp9
 70
     1
102
RTVSPropertyOp10
 70
     1
102
RTVSPropertyOp11
 70
     1
102
RTVSPropertyOp12
 70
     1
102
RTVSPropertyOp13
 70
     1
102
RTVSPropertyOp14
 70
     1
102
RTVSPropertyOp15
 70
     1
102
RTVSPropertyOp16
 70
     1
102
RTVSPropertyOp17
 70
     1
102
RTVSPropertyOp18
 70
     1
102
RTVSPropertyOp19
 70
     1
102
RTVSPropertyOp20
 70
     1
102
RTVSPropertyOp21
 70
     1
102
RTVSPropertyOp22
 70
     1
102
RTVSPropertyOp23
 70
     1
102
RTVSPropertyOp24
 70
     1
102
RTVSPropertyOp25
 70
     1
102
RTVSPropertyOp26
 70
     1
102
RTVSPropertyOp27
 70
     1
102
RTVSPropertyOp28
 70
     1
102
RTVSPropertyOp29
 70
     1
102
RTVSPropertyOp30
 70
     1
102
RTVSPropertyOp31
 70
     1
102
RTVSPropertyOp32
 70
     1
  0
XRECORD
  5
145
102
{ACAD_REACTORS
330
144
102
}
330
144
100
AcDbXrecord
280
     1
102
RTVSPropertyOp0
 70
     1
102
RTVSPropertyOp1
 70
     1
102
RTVSPropertyOp2
 70
     1
102
RTVSPropertyOp3
 70
     1
102
RTVSPropertyOp4
 70
     1
102
RTVSPropertyOp5
 70
     1
102
RTVSPropertyOp6
 70
     1
102
RTVSPropertyOp7
 70
     1
102
RTVSPropertyOp8
 70
     1
102
RTVSPropertyOp9
 70
     1
102
RTVSPropertyOp10
 70
     1
102
RTVSPropertyOp11
 70
     1
102
RTVSPropertyOp12
 70
     1
102
RTVSPropertyOp13
 70
     1
102
RTVSPropertyOp14
 70
     1
102
RTVSPropertyOp15
 70
     1
102
RTVSPropertyOp16
 70
     1
102
RTVSPropertyOp17
 70
     1
102
RTVSPropertyOp18
 70
     1
102
RTVSPropertyOp19
 70
     1
102
RTVSPropertyOp20
 70
     1
102
RTVSPropertyOp21
 70
     1
102
RTVSPropertyOp22
 70
     1
102
RTVSPropertyOp23
 70
     1
102
RTVSPropertyOp24
 70
     1
102
RTVSPropertyOp25
 70
     1
102
RTVSPropertyOp26
 70
     1
102
RTVSPropertyOp27
 70
     1
102
RTVSPropertyOp28
 70
     1
102
RTVSPropertyOp29
 70
     1
102
RTVSPropertyOp30
 70
     1
102
RTVSPropertyOp31
 70
     1
102
RTVSPropertyOp32
 70
     1
  0
XRECORD
  5
143
102
{ACAD_REACTORS
330
142
102
}
330
142
100
AcDbXrecord
280
     1
102
RTVSPropertyOp0
 70
     1
102
RTVSPropertyOp1
 70
     1
102
RTVSPropertyOp2
 70
     1
102
RTVSPropertyOp3
 70
     1
102
RTVSPropertyOp4
 70
     1
102
RTVSPropertyOp5
 70
     1
102
RTVSPropertyOp6
 70
     1
102
RTVSPropertyOp7
 70
     1
102
RTVSPropertyOp8
 70
     1
102
RTVSPropertyOp9
 70
     1
102
RTVSPropertyOp10
 70
     1
102
RTVSPropertyOp11
 70
     1
102
RTVSPropertyOp12
 70
     1
102
RTVSPropertyOp13
 70
     1
102
RTVSPropertyOp14
 70
     1
102
RTVSPropertyOp15
 70
     1
102
RTVSPropertyOp16
 70
     1
102
RTVSPropertyOp17
 70
     1
102
RTVSPropertyOp18
 70
     1
102
RTVSPropertyOp19
 70
     1
102
RTVSPropertyOp20
 70
     1
102
RTVSPropertyOp21
 70
     1
102
RTVSPropertyOp22
 70
     1
102
RTVSPropertyOp23
 70
     1
102
RTVSPropertyOp24
 70
     1
102
RTVSPropertyOp25
 70
     1
102
RTVSPropertyOp26
 70
     1
102
RTVSPropertyOp27
 70
     1
102
RTVSPropertyOp28
 70
     1
102
RTVSPropertyOp29
 70
     1
102
RTVSPropertyOp30
 70
     1
102
RTVSPropertyOp31
 70
     1
102
RTVSPropertyOp32
 70
     1
  0
XRECORD
  5
147
102
{ACAD_REACTORS
330
146
102
}
330
146
100
AcDbXrecord
280
     1
102
RTVSPropertyOp0
 70
     1
102
RTVSPropertyOp1
 70
     1
102
RTVSPropertyOp2
 70
     1
102
RTVSPropertyOp3
 70
     1
102
RTVSPropertyOp4
 70
     1
102
RTVSPropertyOp5
 70
     1
102
RTVSPropertyOp6
 70
     1
102
RTVSPropertyOp7
 70
     1
102
RTVSPropertyOp8
 70
     1
102
RTVSPropertyOp9
 70
     1
102
RTVSPropertyOp10
 70
     1
102
RTVSPropertyOp11
 70
     1
102
RTVSPropertyOp12
 70
     1
102
RTVSPropertyOp13
 70
     1
102
RTVSPropertyOp14
 70
     1
102
RTVSPropertyOp15
 70
     1
102
RTVSPropertyOp16
 70
     1
102
RTVSPropertyOp17
 70
     1
102
RTVSPropertyOp18
 70
     1
102
RTVSPropertyOp19
 70
     1
102
RTVSPropertyOp20
 70
     1
102
RTVSPropertyOp21
 70
     1
102
RTVSPropertyOp22
 70
     1
102
RTVSPropertyOp23
 70
     1
102
RTVSPropertyOp24
 70
     1
102
RTVSPropertyOp25
 70
     1
102
RTVSPropertyOp26
 70
     1
102
RTVSPropertyOp27
 70
     1
102
RTVSPropertyOp28
 70
     1
102
RTVSPropertyOp29
 70
     1
102
RTVSPropertyOp30
 70
     1
102
RTVSPropertyOp31
 70
     1
102
RTVSPropertyOp32
 70
     1
  0
XRECORD
  5
14F
102
{ACAD_REACTORS
330
14E
102
}
330
14E
100
AcDbXrecord
280
     1
102
RTVSPropertyOp0
 70
     1
102
RTVSPropertyOp1
 70
     1
102
RTVSPropertyOp2
 70
     1
102
RTVSPropertyOp3
 70
     1
102
RTVSPropertyOp4
 70
     1
102
RTVSPropertyOp5
 70
     1
102
RTVSPropertyOp6
 70
     1
102
RTVSPropertyOp7
 70
     1
102
RTVSPropertyOp8
 70
     1
102
RTVSPropertyOp9
 70
     1
102
RTVSPropertyOp10
 70
     1
102
RTVSPropertyOp11
 70
     1
102
RTVSPropertyOp12
 70
     1
102
RTVSPropertyOp13
 70
     1
102
RTVSPropertyOp14
 70
     1
102
RTVSPropertyOp15
 70
     1
102
RTVSPropertyOp16
 70
     1
102
RTVSPropertyOp17
 70
     1
102
RTVSPropertyOp18
 70
     1
102
RTVSPropertyOp19
 70
     1
102
RTVSPropertyOp20
 70
     1
102
RTVSPropertyOp21
 70
     1
102
RTVSPropertyOp22
 70
     1
102
RTVSPropertyOp23
 70
     1
102
RTVSPropertyOp24
 70
     1
102
RTVSPropertyOp25
 70
     1
102
RTVSPropertyOp26
 70
     1
102
RTVSPropertyOp27
 70
     1
102
RTVSPropertyOp28
 70
     1
102
RTVSPropertyOp29
 70
     1
102
RTVSPropertyOp30
 70
     1
102
RTVSPropertyOp31
 70
     1
102
RTVSPropertyOp32
 70
     1
  0
XRECORD
  5
157
102
{ACAD_REACTORS
330
156
102
}
330
156
100
AcDbXrecord
280
     1
102
RTVSPropertyOp0
 70
     1
102
RTVSPropertyOp1
 70
     1
102
RTVSPropertyOp2
 70
     1
102
RTVSPropertyOp3
 70
     1
102
RTVSPropertyOp4
 70
     1
102
RTVSPropertyOp5
 70
     1
102
RTVSPropertyOp6
 70
     1
102
RTVSPropertyOp7
 70
     1
102
RTVSPropertyOp8
 70
     1
102
RTVSPropertyOp9
 70
     1
102
RTVSPropertyOp10
 70
     1
102
RTVSPropertyOp11
 70
     1
102
RTVSPropertyOp12
 70
     1
102
RTVSPropertyOp13
 70
     1
102
RTVSPropertyOp14
 70
     1
102
RTVSPropertyOp15
 70
     1
102
RTVSPropertyOp16
 70
     1
102
RTVSPropertyOp17
 70
     1
102
RTVSPropertyOp18
 70
     1
102
RTVSPropertyOp19
 70
     1
102
RTVSPropertyOp20
 70
     1
102
RTVSPropertyOp21
 70
     1
102
RTVSPropertyOp22
 70
     1
102
RTVSPropertyOp23
 70
     1
102
RTVSPropertyOp24
 70
     1
102
RTVSPropertyOp25
 70
     1
102
RTVSPropertyOp26
 70
     1
102
RTVSPropertyOp27
 70
     1
102
RTVSPropertyOp28
 70
     1
102
RTVSPropertyOp29
 70
     1
102
RTVSPropertyOp30
 70
     1
102
RTVSPropertyOp31
 70
     1
102
RTVSPropertyOp32
 70
     1
  0
XRECORD
  5
14B
102
{ACAD_REACTORS
330
14A
102
}
330
14A
100
AcDbXrecord
280
     1
102
RTVSPropertyOp0
 70
     1
102
RTVSPropertyOp1
 70
     1
102
RTVSPropertyOp2
 70
     1
102
RTVSPropertyOp3
 70
     1
102
RTVSPropertyOp4
 70
     1
102
RTVSPropertyOp5
 70
     1
102
RTVSPropertyOp6
 70
     1
102
RTVSPropertyOp7
 70
     1
102
RTVSPropertyOp8
 70
     1
102
RTVSPropertyOp9
 70
     1
102
RTVSPropertyOp10
 70
     1
102
RTVSPropertyOp11
 70
     1
102
RTVSPropertyOp12
 70
     1
102
RTVSPropertyOp13
 70
     1
102
RTVSPropertyOp14
 70
     1
102
RTVSPropertyOp15
 70
     1
102
RTVSPropertyOp16
 70
     1
102
RTVSPropertyOp17
 70
     1
102
RTVSPropertyOp18
 70
     1
102
RTVSPropertyOp19
 70
     1
102
RTVSPropertyOp20
 70
     1
102
RTVSPropertyOp21
 70
     1
102
RTVSPropertyOp22
 70
     1
102
RTVSPropertyOp23
 70
     1
102
RTVSPropertyOp24
 70
     1
102
RTVSPropertyOp25
 70
     1
102
RTVSPropertyOp26
 70
     1
102
RTVSPropertyOp27
 70
     1
102
RTVSPropertyOp28
 70
     1
102
RTVSPropertyOp29
 70
     1
102
RTVSPropertyOp30
 70
     1
102
RTVSPropertyOp31
 70
     1
102
RTVSPropertyOp32
 70
     1
  0
XRECORD
  5
14D
102
{ACAD_REACTORS
330
14C
102
}
330
14C
100
AcDbXrecord
280
     1
102
RTVSPropertyOp0
 70
     1
102
RTVSPropertyOp1
 70
     1
102
RTVSPropertyOp2
 70
     1
102
RTVSPropertyOp3
 70
     1
102
RTVSPropertyOp4
 70
     1
102
RTVSPropertyOp5
 70
     1
102
RTVSPropertyOp6
 70
     1
102
RTVSPropertyOp7
 70
     1
102
RTVSPropertyOp8
 70
     1
102
RTVSPropertyOp9
 70
     1
102
RTVSPropertyOp10
 70
     1
102
RTVSPropertyOp11
 70
     1
102
RTVSPropertyOp12
 70
     1
102
RTVSPropertyOp13
 70
     1
102
RTVSPropertyOp14
 70
     1
102
RTVSPropertyOp15
 70
     1
102
RTVSPropertyOp16
 70
     1
102
RTVSPropertyOp17
 70
     1
102
RTVSPropertyOp18
 70
     1
102
RTVSPropertyOp19
 70
     1
102
RTVSPropertyOp20
 70
     1
102
RTVSPropertyOp21
 70
     1
102
RTVSPropertyOp22
 70
     1
102
RTVSPropertyOp23
 70
     1
102
RTVSPropertyOp24
 70
     1
102
RTVSPropertyOp25
 70
     1
102
RTVSPropertyOp26
 70
     1
102
RTVSPropertyOp27
 70
     1
102
RTVSPropertyOp28
 70
     1
102
RTVSPropertyOp29
 70
     1
102
RTVSPropertyOp30
 70
     1
102
RTVSPropertyOp31
 70
     1
102
RTVSPropertyOp32
 70
     1
  0
XRECORD
  5
155
102
{ACAD_REACTORS
330
154
102
}
330
154
100
AcDbXrecord
280
     1
102
RTVSPropertyOp0
 70
     1
102
RTVSPropertyOp1
 70
     1
102
RTVSPropertyOp2
 70
     1
102
RTVSPropertyOp3
 70
     1
102
RTVSPropertyOp4
 70
     1
102
RTVSPropertyOp5
 70
     1
102
RTVSPropertyOp6
 70
     1
102
RTVSPropertyOp7
 70
     1
102
RTVSPropertyOp8
 70
     1
102
RTVSPropertyOp9
 70
     1
102
RTVSPropertyOp10
 70
     1
102
RTVSPropertyOp11
 70
     1
102
RTVSPropertyOp12
 70
     1
102
RTVSPropertyOp13
 70
     1
102
RTVSPropertyOp14
 70
     1
102
RTVSPropertyOp15
 70
     1
102
RTVSPropertyOp16
 70
     1
102
RTVSPropertyOp17
 70
     1
102
RTVSPropertyOp18
 70
     1
102
RTVSPropertyOp19
 70
     1
102
RTVSPropertyOp20
 70
     1
102
RTVSPropertyOp21
 70
     1
102
RTVSPropertyOp22
 70
     1
102
RTVSPropertyOp23
 70
     1
102
RTVSPropertyOp24
 70
     1
102
RTVSPropertyOp25
 70
     1
102
RTVSPropertyOp26
 70
     1
102
RTVSPropertyOp27
 70
     1
102
RTVSPropertyOp28
 70
     1
102
RTVSPropertyOp29
 70
     1
102
RTVSPropertyOp30
 70
     1
102
RTVSPropertyOp31
 70
     1
102
RTVSPropertyOp32
 70
     1
  0
XRECORD
  5
139
102
{ACAD_REACTORS
330
138
102
}
330
138
100
AcDbXrecord
280
     1
102
RTVSPropertyOp0
 70
     1
102
RTVSPropertyOp1
 70
     1
102
RTVSPropertyOp2
 70
     1
102
RTVSPropertyOp3
 70
     1
102
RTVSPropertyOp4
 70
     1
102
RTVSPropertyOp5
 70
     1
102
RTVSPropertyOp6
 70
     1
102
RTVSPropertyOp7
 70
     1
102
RTVSPropertyOp8
 70
     1
102
RTVSPropertyOp9
 70
     1
102
RTVSPropertyOp10
 70
     1
102
RTVSPropertyOp11
 70
     1
102
RTVSPropertyOp12
 70
     1
102
RTVSPropertyOp13
 70
     1
102
RTVSPropertyOp14
 70
     1
102
RTVSPropertyOp15
 70
     1
102
RTVSPropertyOp16
 70
     1
102
RTVSPropertyOp17
 70
     1
102
RTVSPropertyOp18
 70
     1
102
RTVSPropertyOp19
 70
     1
102
RTVSPropertyOp20
 70
     1
102
RTVSPropertyOp21
 70
     1
102
RTVSPropertyOp22
 70
     1
102
RTVSPropertyOp23
 70
     1
102
RTVSPropertyOp24
 70
     1
102
RTVSPropertyOp25
 70
     1
102
RTVSPropertyOp26
 70
     1
102
RTVSPropertyOp27
 70
     1
102
RTVSPropertyOp28
 70
     1
102
RTVSPropertyOp29
 70
     1
102
RTVSPropertyOp30
 70
     1
102
RTVSPropertyOp31
 70
     1
102
RTVSPropertyOp32
 70
     1
  0
XRECORD
  5
13B
102
{ACAD_REACTORS
330
13A
102
}
330
13A
100
AcDbXrecord
280
     1
102
RTVSPropertyOp0
 70
     1
102
RTVSPropertyOp1
 70
     1
102
RTVSPropertyOp2
 70
     1
102
RTVSPropertyOp3
 70
     1
102
RTVSPropertyOp4
 70
     1
102
RTVSPropertyOp5
 70
     1
102
RTVSPropertyOp6
 70
     1
102
RTVSPropertyOp7
 70
     1
102
RTVSPropertyOp8
 70
     1
102
RTVSPropertyOp9
 70
     1
102
RTVSPropertyOp10
 70
     1
102
RTVSPropertyOp11
 70
     1
102
RTVSPropertyOp12
 70
     1
102
RTVSPropertyOp13
 70
     1
102
RTVSPropertyOp14
 70
     1
102
RTVSPropertyOp15
 70
     1
102
RTVSPropertyOp16
 70
     1
102
RTVSPropertyOp17
 70
     1
102
RTVSPropertyOp18
 70
     1
102
RTVSPropertyOp19
 70
     1
102
RTVSPropertyOp20
 70
     1
102
RTVSPropertyOp21
 70
     1
102
RTVSPropertyOp22
 70
     1
102
RTVSPropertyOp23
 70
     1
102
RTVSPropertyOp24
 70
     1
102
RTVSPropertyOp25
 70
     1
102
RTVSPropertyOp26
 70
     1
102
RTVSPropertyOp27
 70
     1
102
RTVSPropertyOp28
 70
     1
102
RTVSPropertyOp29
 70
     1
102
RTVSPropertyOp30
 70
     1
102
RTVSPropertyOp31
 70
     1
102
RTVSPropertyOp32
 70
     1
  0
XRECORD
  5
13D
102
{ACAD_REACTORS
330
13C
102
}
330
13C
100
AcDbXrecord
280
     1
102
RTVSPropertyOp0
 70
     1
102
RTVSPropertyOp1
 70
     1
102
RTVSPropertyOp2
 70
     1
102
RTVSPropertyOp3
 70
     1
102
RTVSPropertyOp4
 70
     1
102
RTVSPropertyOp5
 70
     1
102
RTVSPropertyOp6
 70
     1
102
RTVSPropertyOp7
 70
     1
102
RTVSPropertyOp8
 70
     1
102
RTVSPropertyOp9
 70
     1
102
RTVSPropertyOp10
 70
     1
102
RTVSPropertyOp11
 70
     1
102
RTVSPropertyOp12
 70
     1
102
RTVSPropertyOp13
 70
     1
102
RTVSPropertyOp14
 70
     1
102
RTVSPropertyOp15
 70
     1
102
RTVSPropertyOp16
 70
     1
102
RTVSPropertyOp17
 70
     1
102
RTVSPropertyOp18
 70
     1
102
RTVSPropertyOp19
 70
     1
102
RTVSPropertyOp20
 70
     1
102
RTVSPropertyOp21
 70
     1
102
RTVSPropertyOp22
 70
     1
102
RTVSPropertyOp23
 70
     1
102
RTVSPropertyOp24
 70
     1
102
RTVSPropertyOp25
 70
     1
102
RTVSPropertyOp26
 70
     1
102
RTVSPropertyOp27
 70
     1
102
RTVSPropertyOp28
 70
     1
102
RTVSPropertyOp29
 70
     1
102
RTVSPropertyOp30
 70
     1
102
RTVSPropertyOp31
 70
     1
102
RTVSPropertyOp32
 70
     1
  0
XRECORD
  5
13F
102
{ACAD_REACTORS
330
13E
102
}
330
13E
100
AcDbXrecord
280
     1
102
RTVSPropertyOp0
 70
     1
102
RTVSPropertyOp1
 70
     1
102
RTVSPropertyOp2
 70
     1
102
RTVSPropertyOp3
 70
     1
102
RTVSPropertyOp4
 70
     1
102
RTVSPropertyOp5
 70
     1
102
RTVSPropertyOp6
 70
     1
102
RTVSPropertyOp7
 70
     1
102
RTVSPropertyOp8
 70
     1
102
RTVSPropertyOp9
 70
     1
102
RTVSPropertyOp10
 70
     1
102
RTVSPropertyOp11
 70
     1
102
RTVSPropertyOp12
 70
     1
102
RTVSPropertyOp13
 70
     1
102
RTVSPropertyOp14
 70
     1
102
RTVSPropertyOp15
 70
     1
102
RTVSPropertyOp16
 70
     1
102
RTVSPropertyOp17
 70
     1
102
RTVSPropertyOp18
 70
     1
102
RTVSPropertyOp19
 70
     1
102
RTVSPropertyOp20
 70
     1
102
RTVSPropertyOp21
 70
     1
102
RTVSPropertyOp22
 70
     1
102
RTVSPropertyOp23
 70
     1
102
RTVSPropertyOp24
 70
     1
102
RTVSPropertyOp25
 70
     1
102
RTVSPropertyOp26
 70
     1
102
RTVSPropertyOp27
 70
     1
102
RTVSPropertyOp28
 70
     1
102
RTVSPropertyOp29
 70
     1
102
RTVSPropertyOp30
 70
     1
102
RTVSPropertyOp31
 70
     1
102
RTVSPropertyOp32
 70
     1
  0
XRECORD
  5
153
102
{ACAD_REACTORS
330
152
102
}
330
152
100
AcDbXrecord
280
     1
102
RTVSPropertyOp0
 70
     1
102
RTVSPropertyOp1
 70
     1
102
RTVSPropertyOp2
 70
     1
102
RTVSPropertyOp3
 70
     1
102
RTVSPropertyOp4
 70
     1
102
RTVSPropertyOp5
 70
     1
102
RTVSPropertyOp6
 70
     1
102
RTVSPropertyOp7
 70
     1
102
RTVSPropertyOp8
 70
     1
102
RTVSPropertyOp9
 70
     1
102
RTVSPropertyOp10
 70
     1
102
RTVSPropertyOp11
 70
     1
102
RTVSPropertyOp12
 70
     1
102
RTVSPropertyOp13
 70
     1
102
RTVSPropertyOp14
 70
     1
102
RTVSPropertyOp15
 70
     1
102
RTVSPropertyOp16
 70
     1
102
RTVSPropertyOp17
 70
     1
102
RTVSPropertyOp18
 70
     1
102
RTVSPropertyOp19
 70
     1
102
RTVSPropertyOp20
 70
     1
102
RTVSPropertyOp21
 70
     1
102
RTVSPropertyOp22
 70
     1
102
RTVSPropertyOp23
 70
     1
102
RTVSPropertyOp24
 70
     1
102
RTVSPropertyOp25
 70
     1
102
RTVSPropertyOp26
 70
     1
102
RTVSPropertyOp27
 70
     1
102
RTVSPropertyOp28
 70
     1
102
RTVSPropertyOp29
 70
     1
102
RTVSPropertyOp30
 70
     1
102
RTVSPropertyOp31
 70
     1
102
RTVSPropertyOp32
 70
     1
  0
XRECORD
  5
149
102
{ACAD_REACTORS
330
148
102
}
330
148
100
AcDbXrecord
280
     1
102
RTVSPropertyOp0
 70
     1
102
RTVSPropertyOp1
 70
     1
102
RTVSPropertyOp2
 70
     1
102
RTVSPropertyOp3
 70
     1
102
RTVSPropertyOp4
 70
     1
102
RTVSPropertyOp5
 70
     1
102
RTVSPropertyOp6
 70
     1
102
RTVSPropertyOp7
 70
     1
102
RTVSPropertyOp8
 70
     1
102
RTVSPropertyOp9
 70
     1
102
RTVSPropertyOp10
 70
     1
102
RTVSPropertyOp11
 70
     1
102
RTVSPropertyOp12
 70
     1
102
RTVSPropertyOp13
 70
     1
102
RTVSPropertyOp14
 70
     1
102
RTVSPropertyOp15
 70
     1
102
RTVSPropertyOp16
 70
     1
102
RTVSPropertyOp17
 70
     1
102
RTVSPropertyOp18
 70
     1
102
RTVSPropertyOp19
 70
     1
102
RTVSPropertyOp20
 70
     1
102
RTVSPropertyOp21
 70
     1
102
RTVSPropertyOp22
 70
     1
102
RTVSPropertyOp23
 70
     1
102
RTVSPropertyOp24
 70
     1
102
RTVSPropertyOp25
 70
     1
102
RTVSPropertyOp26
 70
     1
102
RTVSPropertyOp27
 70
     1
102
RTVSPropertyOp28
 70
     1
102
RTVSPropertyOp29
 70
     1
102
RTVSPropertyOp30
 70
     1
102
RTVSPropertyOp31
 70
     1
102
RTVSPropertyOp32
 70
     1
  0
XRECORD
  5
151
102
{ACAD_REACTORS
330
150
102
}
330
150
100
AcDbXrecord
280
     1
102
RTVSPropertyOp0
 70
     1
102
RTVSPropertyOp1
 70
     1
102
RTVSPropertyOp2
 70
     1
102
RTVSPropertyOp3
 70
     1
102
RTVSPropertyOp4
 70
     1
102
RTVSPropertyOp5
 70
     1
102
RTVSPropertyOp6
 70
     1
102
RTVSPropertyOp7
 70
     1
102
RTVSPropertyOp8
 70
     1
102
RTVSPropertyOp9
 70
     1
102
RTVSPropertyOp10
 70
     1
102
RTVSPropertyOp11
 70
     1
102
RTVSPropertyOp12
 70
     1
102
RTVSPropertyOp13
 70
     1
102
RTVSPropertyOp14
 70
     1
102
RTVSPropertyOp15
 70
     1
102
RTVSPropertyOp16
 70
     1
102
RTVSPropertyOp17
 70
     1
102
RTVSPropertyOp18
 70
     1
102
RTVSPropertyOp19
 70
     1
102
RTVSPropertyOp20
 70
     1
102
RTVSPropertyOp21
 70
     1
102
RTVSPropertyOp22
 70
     1
102
RTVSPropertyOp23
 70
     1
102
RTVSPropertyOp24
 70
     1
102
RTVSPropertyOp25
 70
     1
102
RTVSPropertyOp26
 70
     1
102
RTVSPropertyOp27
 70
     1
102
RTVSPropertyOp28
 70
     1
102
RTVSPropertyOp29
 70
     1
102
RTVSPropertyOp30
 70
     1
102
RTVSPropertyOp31
 70
     1
102
RTVSPropertyOp32
 70
     1
  0
ENDSEC
  0
EOF
