  0
SECTION
  2
HEADER
  9
$ACADVER
  1
AC1014
  9
$HANDSEED
  5
FFFF
  9
$MEASUREMENT
 70
     1
  0
ENDSEC
  0
SECTION
  2
TABLES
  0
TABLE
  2
VPORT
  5
8
330
0
100
AcDbSymbolTable
 70
     4
  0
VPORT
  5
2E
330
8
100
AcDbSymbolTableRecord
100
AcDbViewportTableRecord
  2
*ACTIVE
 70
     0
 10
0.0
 20
0.0
 11
1.0
 21
1.0
 12
210.0
 22
148.5
 13
0.0
 23
0.0
 14
10.0
 24
10.0
 15
10.0
 25
10.0
 16
0.0
 26
0.0
 36
1.0
 17
0.0
 27
0.0
 37
0.0
 40
341.0
 41
1.24
 42
50.0
 43
0.0
 44
0.0
 50
0.0
 51
0.0
 71
     0
 72
   100
 73
     1
 74
     3
 75
     0
 76
     0
 77
     0
 78
     0
  0
ENDTAB
  0
TABLE
  2
LTYPE
  5
5
330
0
100
AcDbSymbolTable
 70
     1
  0
LTYPE
  5
14
330
5
100
AcDbSymbolTableRecord
100
AcDbLinetypeTableRecord
  2
BYBLOCK
 70
     0
  3

 72
    65
 73
     0
 40
0.0
  0
LTYPE
  5
15
330
5
100
AcDbSymbolTableRecord
100
AcDbLinetypeTableRecord
  2
BYLAYER
 70
     0
  3

 72
    65
 73
     0
 40
0.0
  0
LTYPE
  5
16
330
5
100
AcDbSymbolTableRecord
100
AcDbLinetypeTableRecord
  2
CONTINUOUS
 70
     0
  3
Solid line
 72
    65
 73
     0
 40
0.0
  0
ENDTAB
  0
TABLE
  2
LAYER
  5
2
100
AcDbSymbolTable
 70
2
  0
LAYER
  5
50
100
AcDbSymbolTableRecord
100
AcDbLayerTableRecord
  2
0
 70
0
  6
CONTINUOUS
  0
LAYER
  5
51
100
AcDbSymbolTableRecord
100
AcDbLayerTableRecord
  2
Layer_1
 70
0
  6
CONTINUOUS
  0
ENDTAB
  0
TABLE
  2
STYLE
  5
3
330
0
100
AcDbSymbolTable
 70
     1
  0
STYLE
  5
11
330
3
100
AcDbSymbolTableRecord
100
AcDbTextStyleTableRecord
  2
STANDARD
 70
     0
 40
0.0
 41
1.0
 50
0.0
 71
     0
 42
2.5
  3
txt
  4

  0
ENDTAB
  0
TABLE
  2
VIEW
  5
6
330
0
100
AcDbSymbolTable
 70
     0
  0
ENDTAB
  0
TABLE
  2
UCS
  5
7
330
0
100
AcDbSymbolTable
 70
     0
  0
ENDTAB
  0
TABLE
  2
APPID
  5
9
330
0
100
AcDbSymbolTable
 70
     2
  0
APPID
  5
12
330
9
100
AcDbSymbolTableRecord
100
AcDbRegAppTableRecord
  2
ACAD
 70
     0
  0
ENDTAB
  0
TABLE
  2
DIMSTYLE
  5
A
330
0
100
AcDbSymbolTable
 70
     1
  0
DIMSTYLE
105
27
330
A
100
AcDbSymbolTableRecord
100
AcDbDimStyleTableRecord
  2
ISO-25
 70
     0
  3

  4

  5

  6

  7

 40
1.0
 41
2.5
 42
0.625
 43
3.75
 44
1.25
 45
0.0
 46
0.0
 47
0.0
 48
0.0
140
2.5
141
2.5
142
0.0
143
0.03937007874016
144
1.0
145
0.0
146
1.0
147
0.625
 71
     0
 72
     0
 73
     0
 74
     0
 75
     0
 76
     0
 77
     1
 78
     8
170
     0
171
     3
172
     1
173
     0
174
     0
175
     0
176
     0
177
     0
178
     0
270
     2
271
     2
272
     2
273
     2
274
     3
340
11
275
     0
280
     0
281
     0
282
     0
283
     0
284
     8
285
     0
286
     0
287
     3
288
     0
  0
ENDTAB
  0
TABLE
  2
BLOCK_RECORD
  5
1
330
0
100
AcDbSymbolTable
 70
     1
  0
BLOCK_RECORD
  5
1F
330
1
100
AcDbSymbolTableRecord
100
AcDbBlockTableRecord
  2
*MODEL_SPACE
  0
BLOCK_RECORD
  5
1B
330
1
100
AcDbSymbolTableRecord
100
AcDbBlockTableRecord
  2
*PAPER_SPACE
  0
ENDTAB
  0
ENDSEC
  0
SECTION
  2
BLOCKS
  0
BLOCK
  5
20
330
1F
100
AcDbEntity
  8
0
100
AcDbBlockBegin
  2
*MODEL_SPACE
 70
     0
 10
0.0
 20
0.0
 30
0.0
  3
*MODEL_SPACE
  1

  0
ENDBLK
  5
21
330
1F
100
AcDbEntity
  8
0
100
AcDbBlockEnd
  0
BLOCK
  5
1C
330
1B
100
AcDbEntity
 67
     1
  8
0
100
AcDbBlockBegin
  2
*PAPER_SPACE
  1

  0
ENDBLK
  5
1D
330
1B
100
AcDbEntity
 67
     1
  8
0
100
AcDbBlockEnd
  0
ENDSEC
  0
SECTION
  2
ENTITIES
  0
SPLINE
  5
100
100
AcDbEntity
  8
Layer_1
 62
7
100
AcDbSpline
 70
8
 71
3
 72
8
 73
4
 74
0
 40
0
 40
0
 40
0
 40
0
 40
1
 40
1
 40
1
 40
1
 10
-18.702623
 20
11.999965
 30
0.0
 10
-18.704970
 20
11.999965
 30
0.0
 10
-18.706718
 20
11.999965
 30
0.0
 10
-18.707861
 20
11.999592
 30
0.0
  0
SPLINE
  5
101
100
AcDbEntity
  8
Layer_1
 62
7
100
AcDbSpline
 70
8
 71
3
 72
8
 73
4
 74
0
 40
0
 40
0
 40
0
 40
0
 40
1
 40
1
 40
1
 40
1
 10
-18.707861
 20
11.999592
 30
0.0
 10
-18.726119
 20
11.995215
 30
0.0
 10
-18.614872
 20
11.919856
 30
0.0
 10
-18.460861
 20
11.832183
 30
0.0
  0
SPLINE
  5
102
100
AcDbEntity
  8
Layer_1
 62
7
100
AcDbSpline
 70
8
 71
3
 72
8
 73
4
 74
0
 40
0
 40
0
 40
0
 40
0
 40
1
 40
1
 40
1
 40
1
 10
-18.460861
 20
11.832183
 30
0.0
 10
-17.519380
 20
11.287277
 30
0.0
 10
-17.576771
 20
10.088940
 30
0.0
 10
-17.806703
 20
9.291334
 30
0.0
  0
SPLINE
  5
103
100
AcDbEntity
  8
Layer_1
 62
7
100
AcDbSpline
 70
8
 71
3
 72
8
 73
4
 74
0
 40
0
 40
0
 40
0
 40
0
 40
1
 40
1
 40
1
 40
1
 10
-17.806703
 20
9.291334
 30
0.0
 10
-18.100303
 20
8.222417
 30
0.0
 10
-17.328620
 20
7.006161
 30
0.0
 10
-15.841397
 20
6.193640
 30
0.0
  0
SPLINE
  5
104
100
AcDbEntity
  8
Layer_1
 62
7
100
AcDbSpline
 70
8
 71
3
 72
8
 73
4
 74
0
 40
0
 40
0
 40
0
 40
0
 40
1
 40
1
 40
1
 40
1
 10
-15.841397
 20
6.193640
 30
0.0
 10
-15.641194
 20
6.084275
 30
0.0
 10
-15.489902
 20
5.991780
 30
0.0
 10
-15.505154
 20
5.988138
 30
0.0
  0
SPLINE
  5
105
100
AcDbEntity
  8
Layer_1
 62
7
100
AcDbSpline
 70
8
 71
3
 72
8
 73
4
 74
0
 40
0
 40
0
 40
0
 40
0
 40
1
 40
1
 40
1
 40
1
 10
-15.505154
 20
5.988138
 30
0.0
 10
-15.633237
 20
5.957460
 30
0.0
 10
-16.331206
 20
5.630437
 30
0.0
 10
-16.469370
 20
5.536335
 30
0.0
  0
SPLINE
  5
106
100
AcDbEntity
  8
Layer_1
 62
7
100
AcDbSpline
 70
8
 71
3
 72
8
 73
4
 74
0
 40
0
 40
0
 40
0
 40
0
 40
1
 40
1
 40
1
 40
1
 10
-16.469370
 20
5.536335
 30
0.0
 10
-17.777529
 20
4.745720
 30
0.0
 10
-17.918219
 20
2.454590
 30
0.0
 10
-17.013118
 20
1.582678
 30
0.0
  0
SPLINE
  5
107
100
AcDbEntity
  8
Layer_1
 62
7
100
AcDbSpline
 70
8
 71
3
 72
8
 73
4
 74
0
 40
0
 40
0
 40
0
 40
0
 40
1
 40
1
 40
1
 40
1
 10
-17.013118
 20
1.582678
 30
0.0
 10
-16.750560
 20
2.108047
 30
0.0
 10
-16.322539
 20
2.543068
 30
0.0
 10
-15.835506
 20
2.778590
 30
0.0
  0
SPLINE
  5
108
100
AcDbEntity
  8
Layer_1
 62
7
100
AcDbSpline
 70
8
 71
3
 72
8
 73
4
 74
0
 40
0
 40
0
 40
0
 40
0
 40
1
 40
1
 40
1
 40
1
 10
-15.835506
 20
2.778590
 30
0.0
 10
-15.278099
 20
3.042594
 30
0.0
 10
-14.715528
 20
3.320577
 30
0.0
 10
-14.561667
 20
3.408027
 30
0.0
  0
SPLINE
  5
109
100
AcDbEntity
  8
Layer_1
 62
7
100
AcDbSpline
 70
8
 71
3
 72
8
 73
4
 74
0
 40
0
 40
0
 40
0
 40
0
 40
1
 40
1
 40
1
 40
1
 10
-14.561667
 20
3.408027
 30
0.0
 10
-14.449511
 20
3.471774
 30
0.0
 10
-14.448649
 20
3.464314
 30
0.0
 10
-14.530031
 20
3.105071
 30
0.0
  0
SPLINE
  5
10a
100
AcDbEntity
  8
Layer_1
 62
7
100
AcDbSpline
 70
8
 71
3
 72
8
 73
4
 74
0
 40
0
 40
0
 40
0
 40
0
 40
1
 40
1
 40
1
 40
1
 10
-14.530031
 20
3.105071
 30
0.0
 10
-14.768004
 20
2.237340
 30
0.0
 10
-14.639074
 20
0.805834
 30
0.0
 10
-14.099306
 20
0.102740
 30
0.0
  0
SPLINE
  5
10b
100
AcDbEntity
  8
Layer_1
 62
7
100
AcDbSpline
 70
8
 71
3
 72
8
 73
4
 74
0
 40
0
 40
0
 40
0
 40
0
 40
1
 40
1
 40
1
 40
1
 10
-13.997846
 20
0.116790
 30
0.0
 10
-13.989132
 20
0.519797
 30
0.0
 10
-13.821264
 20
1.018150
 30
0.0
 10
-13.564068
 20
1.403717
 30
0.0
  0
LWPOLYLINE
  5
10c
100
AcDbEntity
  8
Layer_1
 62
7
100
AcDbPolyline
 90
3
 70
0
 10
-14.099306
 20
0.102740
 30
0.0
 10
-14.000463
 20
0.000000
 30
0.0
 10
-13.997846
 20
0.116790
 30
0.0
  0
SPLINE
  5
10d
100
AcDbEntity
  8
Layer_1
 62
7
100
AcDbSpline
 70
8
 71
3
 72
8
 73
4
 74
0
 40
0
 40
0
 40
0
 40
0
 40
1
 40
1
 40
1
 40
1
 10
-13.402167
 20
2.170018
 30
0.0
 10
-13.548010
 20
2.722951
 30
0.0
 10
-13.493119
 20
3.532134
 30
0.0
 10
-13.218662
 20
4.158418
 30
0.0
  0
LWPOLYLINE
  5
10e
100
AcDbEntity
  8
Layer_1
 62
7
100
AcDbPolyline
 90
3
 70
0
 10
-13.564068
 20
1.403717
 30
0.0
 10
-13.289577
 20
1.815104
 30
0.0
 10
-13.402167
 20
2.170018
 30
0.0
  0
SPLINE
  5
10f
100
AcDbEntity
  8
Layer_1
 62
7
100
AcDbSpline
 70
8
 71
3
 72
8
 73
4
 74
0
 40
0
 40
0
 40
0
 40
0
 40
1
 40
1
 40
1
 40
1
 10
-12.978862
 20
3.863227
 30
0.0
 10
-12.836463
 20
3.282190
 30
0.0
 10
-12.766589
 20
2.706877
 30
0.0
 10
-12.782048
 20
2.243380
 30
0.0
  0
LWPOLYLINE
  5
110
100
AcDbEntity
  8
Layer_1
 62
7
100
AcDbPolyline
 90
3
 70
0
 10
-13.218662
 20
4.158418
 30
0.0
 10
-13.101489
 20
4.363360
 30
0.0
 10
-12.978862
 20
3.863227
 30
0.0
  0
SPLINE
  5
111
100
AcDbEntity
  8
Layer_1
 62
7
100
AcDbSpline
 70
8
 71
3
 72
8
 73
4
 74
0
 40
0
 40
0
 40
0
 40
0
 40
1
 40
1
 40
1
 40
1
 10
-12.552503
 20
1.782870
 30
0.0
 10
-12.001290
 20
1.445485
 30
0.0
 10
-11.828114
 20
0.631331
 30
0.0
 10
-11.689751
 20
0.085110
 30
0.0
  0
SPLINE
  5
112
100
AcDbEntity
  8
Layer_1
 62
7
100
AcDbSpline
 70
8
 71
3
 72
8
 73
4
 74
0
 40
0
 40
0
 40
0
 40
0
 40
1
 40
1
 40
1
 40
1
 10
-11.689751
 20
0.085110
 30
0.0
 10
-11.555992
 20
0.195663
 30
0.0
 10
-11.401901
 20
0.741865
 30
0.0
 10
-11.387766
 20
1.055800
 30
0.0
  0
SPLINE
  5
113
100
AcDbEntity
  8
Layer_1
 62
7
100
AcDbSpline
 70
8
 71
3
 72
8
 73
4
 74
0
 40
0
 40
0
 40
0
 40
0
 40
1
 40
1
 40
1
 40
1
 10
-11.387766
 20
1.055800
 30
0.0
 10
-11.363551
 20
2.182004
 30
0.0
 10
-11.804697
 20
3.332634
 30
0.0
 10
-12.089707
 20
3.917257
 30
0.0
  0
SPLINE
  5
114
100
AcDbEntity
  8
Layer_1
 62
7
100
AcDbSpline
 70
8
 71
3
 72
8
 73
4
 74
0
 40
0
 40
0
 40
0
 40
0
 40
1
 40
1
 40
1
 40
1
 10
-12.089707
 20
3.917257
 30
0.0
 10
-11.314651
 20
3.218517
 30
0.0
 10
-10.360867
 20
2.907451
 30
0.0
 10
-9.584143
 20
2.538958
 30
0.0
  0
SPLINE
  5
115
100
AcDbEntity
  8
Layer_1
 62
7
100
AcDbSpline
 70
8
 71
3
 72
8
 73
4
 74
0
 40
0
 40
0
 40
0
 40
0
 40
1
 40
1
 40
1
 40
1
 10
-9.584143
 20
2.538958
 30
0.0
 10
-8.753754
 20
2.129317
 30
0.0
 10
-8.622985
 20
1.589134
 30
0.0
 10
-8.406530
 20
1.343050
 30
0.0
  0
SPLINE
  5
116
100
AcDbEntity
  8
Layer_1
 62
7
100
AcDbSpline
 70
8
 71
3
 72
8
 73
4
 74
0
 40
0
 40
0
 40
0
 40
0
 40
1
 40
1
 40
1
 40
1
 10
-8.406530
 20
1.343050
 30
0.0
 10
-7.273015
 20
2.206954
 30
0.0
 10
-7.493092
 20
4.491937
 30
0.0
 10
-8.950279
 20
5.296527
 30
0.0
  0
SPLINE
  5
117
100
AcDbEntity
  8
Layer_1
 62
7
100
AcDbSpline
 70
8
 71
3
 72
8
 73
4
 74
0
 40
0
 40
0
 40
0
 40
0
 40
1
 40
1
 40
1
 40
1
 10
-8.950279
 20
5.296527
 30
0.0
 10
-9.088446
 20
5.390604
 30
0.0
 10
-9.786194
 20
5.717804
 30
0.0
 10
-9.914276
 20
5.748500
 30
0.0
  0
SPLINE
  5
118
100
AcDbEntity
  8
Layer_1
 62
7
100
AcDbSpline
 70
8
 71
3
 72
8
 73
4
 74
0
 40
0
 40
0
 40
0
 40
0
 40
1
 40
1
 40
1
 40
1
 10
-9.914276
 20
5.748500
 30
0.0
 10
-9.929529
 20
5.752151
 30
0.0
 10
-9.778236
 20
5.844648
 30
0.0
 10
-9.578034
 20
5.954011
 30
0.0
  0
SPLINE
  5
119
100
AcDbEntity
  8
Layer_1
 62
7
100
AcDbSpline
 70
8
 71
3
 72
8
 73
4
 74
0
 40
0
 40
0
 40
0
 40
0
 40
1
 40
1
 40
1
 40
1
 10
-9.578034
 20
5.954011
 30
0.0
 10
-8.090811
 20
6.766534
 30
0.0
 10
-7.319346
 20
7.982790
 30
0.0
 10
-7.612946
 20
9.051680
 30
0.0
  0
SPLINE
  5
11a
100
AcDbEntity
  8
Layer_1
 62
7
100
AcDbSpline
 70
8
 71
3
 72
8
 73
4
 74
0
 40
0
 40
0
 40
0
 40
0
 40
1
 40
1
 40
1
 40
1
 10
-7.612946
 20
9.051680
 30
0.0
 10
-8.030998
 20
9.967355
 30
0.0
 10
-7.783822
 20
11.112040
 30
0.0
 10
-6.958570
 20
11.592549
 30
0.0
  0
SPLINE
  5
11b
100
AcDbEntity
  8
Layer_1
 62
7
100
AcDbSpline
 70
8
 71
3
 72
8
 73
4
 74
0
 40
0
 40
0
 40
0
 40
0
 40
1
 40
1
 40
1
 40
1
 10
-6.958570
 20
11.592549
 30
0.0
 10
-6.804559
 20
11.680221
 30
0.0
 10
-6.693528
 20
11.755393
 30
0.0
 10
-6.711789
 20
11.759763
 30
0.0
  0
SPLINE
  5
11c
100
AcDbEntity
  8
Layer_1
 62
7
100
AcDbSpline
 70
8
 71
3
 72
8
 73
4
 74
0
 40
0
 40
0
 40
0
 40
0
 40
1
 40
1
 40
1
 40
1
 10
-6.711789
 20
11.759763
 30
0.0
 10
-6.730046
 20
11.764138
 30
0.0
 10
-6.906953
 20
11.739577
 30
0.0
 10
-7.104982
 20
11.704972
 30
0.0
  0
SPLINE
  5
11d
100
AcDbEntity
  8
Layer_1
 62
7
100
AcDbSpline
 70
8
 71
3
 72
8
 73
4
 74
0
 40
0
 40
0
 40
0
 40
0
 40
1
 40
1
 40
1
 40
1
 10
-7.104982
 20
11.704972
 30
0.0
 10
-10.038461
 20
10.980777
 30
0.0
 10
-11.476770
 20
9.783599
 30
0.0
 10
-11.920651
 20
7.611395
 30
0.0
  0
SPLINE
  5
11e
100
AcDbEntity
  8
Layer_1
 62
7
100
AcDbSpline
 70
8
 71
3
 72
8
 73
4
 74
0
 40
0
 40
0
 40
0
 40
0
 40
1
 40
1
 40
1
 40
1
 10
-11.920651
 20
7.611395
 30
0.0
 10
-12.053036
 20
8.245628
 30
0.0
 10
-12.521902
 20
8.373725
 30
0.0
 10
-12.929331
 20
8.312678
 30
0.0
  0
SPLINE
  5
11f
100
AcDbEntity
  8
Layer_1
 62
7
100
AcDbSpline
 70
8
 71
3
 72
8
 73
4
 74
0
 40
0
 40
0
 40
0
 40
0
 40
1
 40
1
 40
1
 40
1
 10
-12.929331
 20
8.312678
 30
0.0
 10
-13.310568
 20
8.203460
 30
0.0
 10
-13.401739
 20
8.088998
 30
0.0
 10
-13.622110
 20
7.757567
 30
0.0
  0
SPLINE
  5
120
100
AcDbEntity
  8
Layer_1
 62
7
100
AcDbSpline
 70
8
 71
3
 72
8
 73
4
 74
0
 40
0
 40
0
 40
0
 40
0
 40
1
 40
1
 40
1
 40
1
 10
-13.622110
 20
7.757567
 30
0.0
 10
-13.641691
 20
7.743600
 30
0.0
 10
-13.742740
 20
8.013170
 30
0.0
 10
-13.794703
 20
8.176937
 30
0.0
  0
SPLINE
  5
121
100
AcDbEntity
  8
Layer_1
 62
7
100
AcDbSpline
 70
8
 71
3
 72
8
 73
4
 74
0
 40
0
 40
0
 40
0
 40
0
 40
1
 40
1
 40
1
 40
1
 10
-13.794703
 20
8.176937
 30
0.0
 10
-13.912002
 20
8.545668
 30
0.0
 10
-14.256512
 20
9.205022
 30
0.0
 10
-14.513884
 20
9.553343
 30
0.0
  0
SPLINE
  5
122
100
AcDbEntity
  8
Layer_1
 62
7
100
AcDbSpline
 70
8
 71
3
 72
8
 73
4
 74
0
 40
0
 40
0
 40
0
 40
0
 40
1
 40
1
 40
1
 40
1
 10
-14.513884
 20
9.553343
 30
0.0
 10
-14.913101
 20
10.093612
 30
0.0
 10
-15.466130
 20
10.554537
 30
0.0
 10
-16.017048
 20
10.977336
 30
0.0
  0
SPLINE
  5
123
100
AcDbEntity
  8
Layer_1
 62
7
100
AcDbSpline
 70
8
 71
3
 72
8
 73
4
 74
0
 40
0
 40
0
 40
0
 40
0
 40
1
 40
1
 40
1
 40
1
 10
-16.017048
 20
10.977336
 30
0.0
 10
-16.634756
 20
11.392069
 30
0.0
 10
-17.686407
 20
11.834876
 30
0.0
 10
-18.314450
 20
11.944615
 30
0.0
  0
SPLINE
  5
124
100
AcDbEntity
  8
Layer_1
 62
7
100
AcDbSpline
 70
8
 71
3
 72
8
 73
4
 74
0
 40
0
 40
0
 40
0
 40
0
 40
1
 40
1
 40
1
 40
1
 10
-18.314450
 20
11.944615
 30
0.0
 10
-18.500102
 20
11.977054
 30
0.0
 10
-18.667412
 20
12.000736
 30
0.0
 10
-18.702623
 20
11.999975
 30
0.0
  0
LWPOLYLINE
  5
125
100
AcDbEntity
  8
Layer_1
 62
7
100
AcDbPolyline
 90
3
 70
0
 10
-12.782048
 20
2.243380
 30
0.0
 10
-12.792958
 20
1.915984
 30
0.0
 10
-12.552503
 20
1.782870
 30
0.0
  0
SPLINE
  5
126
100
AcDbEntity
  8
Layer_1
 62
7
100
AcDbSpline
 70
8
 71
3
 72
8
 73
4
 74
0
 40
0
 40
0
 40
0
 40
0
 40
1
 40
1
 40
1
 40
1
 10
-16.764372
 20
10.828686
 30
0.0
 10
-16.540891
 20
10.718437
 30
0.0
 10
-16.400916
 20
10.461966
 30
0.0
 10
-16.422459
 20
10.202285
 30
0.0
  0
SPLINE
  5
127
100
AcDbEntity
  8
Layer_1
 62
7
100
AcDbSpline
 70
8
 71
3
 72
8
 73
4
 74
0
 40
0
 40
0
 40
0
 40
0
 40
1
 40
1
 40
1
 40
1
 10
-16.422459
 20
10.202285
 30
0.0
 10
-16.453263
 20
9.831062
 30
0.0
 10
-16.691463
 20
9.737104
 30
0.0
 10
-16.960532
 20
9.989961
 30
0.0
  0
SPLINE
  5
128
100
AcDbEntity
  8
Layer_1
 62
7
100
AcDbSpline
 70
8
 71
3
 72
8
 73
4
 74
0
 40
0
 40
0
 40
0
 40
0
 40
1
 40
1
 40
1
 40
1
 10
-16.960532
 20
9.989961
 30
0.0
 10
-17.203867
 20
10.218619
 30
0.0
 10
-17.236994
 20
10.659107
 30
0.0
 10
-17.024027
 20
10.835144
 30
0.0
  0
SPLINE
  5
129
100
AcDbEntity
  8
Layer_1
 62
7
100
AcDbSpline
 70
8
 71
3
 72
8
 73
4
 74
0
 40
0
 40
0
 40
0
 40
0
 40
1
 40
1
 40
1
 40
1
 10
-17.024027
 20
10.835144
 30
0.0
 10
-16.927209
 20
10.912110
 30
0.0
 10
-16.849898
 20
10.870569
 30
0.0
 10
-16.764372
 20
10.828686
 30
0.0
  0
LWPOLYLINE
  5
12a
100
AcDbEntity
  8
Layer_1
 62
7
100
AcDbPolyline
 90
2
 70
0
 10
-18.702623
 20
11.999975
 30
0.0
 10
-18.702623
 20
11.999965
 30
0.0
  0
SPLINE
  5
12b
100
AcDbEntity
  8
Layer_1
 62
7
100
AcDbSpline
 70
8
 71
3
 72
8
 73
4
 74
0
 40
0
 40
0
 40
0
 40
0
 40
1
 40
1
 40
1
 40
1
 10
-8.395621
 20
10.595492
 30
0.0
 10
-8.182654
 20
10.419473
 30
0.0
 10
-8.215564
 20
9.978964
 30
0.0
 10
-8.458898
 20
9.750302
 30
0.0
  0
SPLINE
  5
12c
100
AcDbEntity
  8
Layer_1
 62
7
100
AcDbSpline
 70
8
 71
3
 72
8
 73
4
 74
0
 40
0
 40
0
 40
0
 40
0
 40
1
 40
1
 40
1
 40
1
 10
-8.458898
 20
9.750302
 30
0.0
 10
-8.727968
 20
9.497474
 30
0.0
 10
-8.966168
 20
9.591432
 30
0.0
 10
-8.996973
 20
9.962653
 30
0.0
  0
SPLINE
  5
12d
100
AcDbEntity
  8
Layer_1
 62
7
100
AcDbSpline
 70
8
 71
3
 72
8
 73
4
 74
0
 40
0
 40
0
 40
0
 40
0
 40
1
 40
1
 40
1
 40
1
 10
-8.996973
 20
9.962653
 30
0.0
 10
-9.018516
 20
10.222315
 30
0.0
 10
-8.878540
 20
10.478622
 30
0.0
 10
-8.655058
 20
10.588854
 30
0.0
  0
SPLINE
  5
12e
100
AcDbEntity
  8
Layer_1
 62
7
100
AcDbSpline
 70
8
 71
3
 72
8
 73
4
 74
0
 40
0
 40
0
 40
0
 40
0
 40
1
 40
1
 40
1
 40
1
 10
-8.655058
 20
10.588854
 30
0.0
 10
-8.547405
 20
10.639334
 30
0.0
 10
-8.482707
 20
10.666537
 30
0.0
 10
-8.395621
 20
10.595492
 30
0.0
  0
LWPOLYLINE
  5
12f
100
AcDbEntity
  8
Layer_1
 62
7
100
AcDbPolyline
 90
2
 70
0
 10
-16.764372
 20
10.828686
 30
0.0
 10
-16.764372
 20
10.828686
 30
0.0
  0
SPLINE
  5
130
100
AcDbEntity
  8
Layer_1
 62
7
100
AcDbSpline
 70
8
 71
3
 72
8
 73
4
 74
0
 40
0
 40
0
 40
0
 40
0
 40
1
 40
1
 40
1
 40
1
 10
-15.448641
 20
9.583088
 30
0.0
 10
-14.430731
 20
9.386284
 30
0.0
 10
-13.848829
 20
7.583161
 30
0.0
 10
-13.827153
 20
5.981461
 30
0.0
  0
SPLINE
  5
131
100
AcDbEntity
  8
Layer_1
 62
7
100
AcDbSpline
 70
8
 71
3
 72
8
 73
4
 74
0
 40
0
 40
0
 40
0
 40
0
 40
1
 40
1
 40
1
 40
1
 10
-13.827153
 20
5.981461
 30
0.0
 10
-14.588007
 20
6.012400
 30
0.0
 10
-15.499214
 20
6.448378
 30
0.0
 10
-16.036466
 20
6.970385
 30
0.0
  0
SPLINE
  5
132
100
AcDbEntity
  8
Layer_1
 62
7
100
AcDbSpline
 70
8
 71
3
 72
8
 73
4
 74
0
 40
0
 40
0
 40
0
 40
0
 40
1
 40
1
 40
1
 40
1
 10
-16.036466
 20
6.970385
 30
0.0
 10
-16.620951
 20
7.548267
 30
0.0
 10
-16.321526
 20
8.463970
 30
0.0
 10
-15.678098
 20
8.204418
 30
0.0
  0
SPLINE
  5
133
100
AcDbEntity
  8
Layer_1
 62
7
100
AcDbSpline
 70
8
 71
3
 72
8
 73
4
 74
0
 40
0
 40
0
 40
0
 40
0
 40
1
 40
1
 40
1
 40
1
 10
-15.678098
 20
8.204418
 30
0.0
 10
-16.505406
 20
8.587686
 30
0.0
 10
-16.246881
 20
9.807886
 30
0.0
 10
-15.448641
 20
9.583088
 30
0.0
  0
LWPOLYLINE
  5
134
100
AcDbEntity
  8
Layer_1
 62
7
100
AcDbPolyline
 90
2
 70
0
 10
-8.395621
 20
10.595492
 30
0.0
 10
-8.395621
 20
10.595492
 30
0.0
  0
SPLINE
  5
135
100
AcDbEntity
  8
Layer_1
 62
7
100
AcDbSpline
 70
8
 71
3
 72
8
 73
4
 74
0
 40
0
 40
0
 40
0
 40
0
 40
1
 40
1
 40
1
 40
1
 10
-17.018793
 20
9.413602
 30
0.0
 10
-16.733703
 20
9.423070
 30
0.0
 10
-16.486153
 20
9.004952
 30
0.0
 10
-16.653967
 20
8.748145
 30
0.0
  0
SPLINE
  5
136
100
AcDbEntity
  8
Layer_1
 62
7
100
AcDbSpline
 70
8
 71
3
 72
8
 73
4
 74
0
 40
0
 40
0
 40
0
 40
0
 40
1
 40
1
 40
1
 40
1
 10
-16.653967
 20
8.748145
 30
0.0
 10
-16.748102
 20
8.604095
 30
0.0
 10
-16.785354
 20
8.638714
 30
0.0
 10
-16.957261
 20
8.651637
 30
0.0
  0
SPLINE
  5
137
100
AcDbEntity
  8
Layer_1
 62
7
100
AcDbSpline
 70
8
 71
3
 72
8
 73
4
 74
0
 40
0
 40
0
 40
0
 40
0
 40
1
 40
1
 40
1
 40
1
 10
-16.957261
 20
8.651637
 30
0.0
 10
-17.310587
 20
8.749772
 30
0.0
 10
-17.414357
 20
9.398952
 30
0.0
 10
-17.018793
 20
9.413602
 30
0.0
  0
LWPOLYLINE
  5
138
100
AcDbEntity
  8
Layer_1
 62
7
100
AcDbPolyline
 90
2
 70
0
 10
-15.448641
 20
9.583088
 30
0.0
 10
-15.448641
 20
9.583088
 30
0.0
  0
SPLINE
  5
139
100
AcDbEntity
  8
Layer_1
 62
7
100
AcDbSpline
 70
8
 71
3
 72
8
 73
4
 74
0
 40
0
 40
0
 40
0
 40
0
 40
1
 40
1
 40
1
 40
1
 10
-8.414822
 20
9.173972
 30
0.0
 10
-8.036385
 20
9.069455
 30
0.0
 10
-8.253966
 20
8.489960
 30
0.0
 10
-8.462171
 20
8.412007
 30
0.0
  0
SPLINE
  5
13a
100
AcDbEntity
  8
Layer_1
 62
7
100
AcDbSpline
 70
8
 71
3
 72
8
 73
4
 74
0
 40
0
 40
0
 40
0
 40
0
 40
1
 40
1
 40
1
 40
1
 10
-8.462171
 20
8.412007
 30
0.0
 10
-8.644051
 20
8.355747
 30
0.0
 10
-8.671546
 20
8.364434
 30
0.0
 10
-8.765684
 20
8.508515
 30
0.0
  0
SPLINE
  5
13b
100
AcDbEntity
  8
Layer_1
 62
7
100
AcDbSpline
 70
8
 71
3
 72
8
 73
4
 74
0
 40
0
 40
0
 40
0
 40
0
 40
1
 40
1
 40
1
 40
1
 10
-8.765684
 20
8.508515
 30
0.0
 10
-8.930700
 20
8.761045
 30
0.0
 10
-8.693831
 20
9.169434
 30
0.0
 10
-8.414822
 20
9.173972
 30
0.0
  0
LWPOLYLINE
  5
13c
100
AcDbEntity
  8
Layer_1
 62
7
100
AcDbPolyline
 90
2
 70
0
 10
-17.018793
 20
9.413602
 30
0.0
 10
-17.018793
 20
9.413602
 30
0.0
  0
SPLINE
  5
13d
100
AcDbEntity
  8
Layer_1
 62
7
100
AcDbSpline
 70
8
 71
3
 72
8
 73
4
 74
0
 40
0
 40
0
 40
0
 40
0
 40
1
 40
1
 40
1
 40
1
 10
-16.951152
 20
8.228676
 30
0.0
 10
-16.794542
 20
8.132647
 30
0.0
 10
-16.691168
 20
7.881047
 30
0.0
 10
-16.763063
 20
7.771025
 30
0.0
  0
SPLINE
  5
13e
100
AcDbEntity
  8
Layer_1
 62
7
100
AcDbSpline
 70
8
 71
3
 72
8
 73
4
 74
0
 40
0
 40
0
 40
0
 40
0
 40
1
 40
1
 40
1
 40
1
 10
-16.763063
 20
7.771025
 30
0.0
 10
-16.835280
 20
7.660497
 30
0.0
 10
-16.936080
 20
7.656654
 30
0.0
 10
-17.070504
 20
7.759451
 30
0.0
  0
SPLINE
  5
13f
100
AcDbEntity
  8
Layer_1
 62
7
100
AcDbSpline
 70
8
 71
3
 72
8
 73
4
 74
0
 40
0
 40
0
 40
0
 40
0
 40
1
 40
1
 40
1
 40
1
 10
-17.070504
 20
7.759451
 30
0.0
 10
-17.224343
 20
7.877084
 30
0.0
 10
-17.280452
 20
8.140125
 30
0.0
 10
-17.172839
 20
8.239304
 30
0.0
  0
SPLINE
  5
140
100
AcDbEntity
  8
Layer_1
 62
7
100
AcDbSpline
 70
8
 71
3
 72
8
 73
4
 74
0
 40
0
 40
0
 40
0
 40
0
 40
1
 40
1
 40
1
 40
1
 10
-17.172839
 20
8.239304
 30
0.0
 10
-17.087567
 20
8.314857
 30
0.0
 10
-17.024170
 20
8.273124
 30
0.0
 10
-16.951152
 20
8.228676
 30
0.0
  0
LWPOLYLINE
  5
141
100
AcDbEntity
  8
Layer_1
 62
7
100
AcDbPolyline
 90
2
 70
0
 10
-8.414822
 20
9.173972
 30
0.0
 10
-8.414822
 20
9.173972
 30
0.0
  0
SPLINE
  5
142
100
AcDbEntity
  8
Layer_1
 62
7
100
AcDbSpline
 70
8
 71
3
 72
8
 73
4
 74
0
 40
0
 40
0
 40
0
 40
0
 40
1
 40
1
 40
1
 40
1
 10
-12.777466
 20
8.141081
 30
0.0
 10
-12.688156
 20
8.141081
 30
0.0
 10
-12.599260
 20
8.118500
 30
0.0
 10
-12.515848
 20
8.068665
 30
0.0
  0
SPLINE
  5
143
100
AcDbEntity
  8
Layer_1
 62
7
100
AcDbSpline
 70
8
 71
3
 72
8
 73
4
 74
0
 40
0
 40
0
 40
0
 40
0
 40
1
 40
1
 40
1
 40
1
 10
-12.515848
 20
8.068665
 30
0.0
 10
-12.288758
 20
7.933028
 30
0.0
 10
-12.172566
 20
7.731440
 30
0.0
 10
-12.083597
 20
7.319217
 30
0.0
  0
SPLINE
  5
144
100
AcDbEntity
  8
Layer_1
 62
7
100
AcDbSpline
 70
8
 71
3
 72
8
 73
4
 74
0
 40
0
 40
0
 40
0
 40
0
 40
1
 40
1
 40
1
 40
1
 10
-12.083597
 20
7.319217
 30
0.0
 10
-11.948876
 20
6.695031
 30
0.0
 10
-12.136023
 20
6.063731
 30
0.0
 10
-12.648076
 20
5.414424
 30
0.0
  0
SPLINE
  5
145
100
AcDbEntity
  8
Layer_1
 62
7
100
AcDbSpline
 70
8
 71
3
 72
8
 73
4
 74
0
 40
0
 40
0
 40
0
 40
0
 40
1
 40
1
 40
1
 40
1
 10
-12.648076
 20
5.414424
 30
0.0
 10
-13.521777
 20
4.306537
 30
0.0
 10
-13.825926
 20
3.282921
 30
0.0
 10
-13.610764
 20
2.175117
 30
0.0
  0
SPLINE
  5
146
100
AcDbEntity
  8
Layer_1
 62
7
100
AcDbSpline
 70
8
 71
3
 72
8
 73
4
 74
0
 40
0
 40
0
 40
0
 40
0
 40
1
 40
1
 40
1
 40
1
 10
-13.610764
 20
2.175117
 30
0.0
 10
-13.549770
 20
1.861108
 30
0.0
 10
-13.555779
 20
1.831337
 30
0.0
 10
-13.729899
 20
1.590255
 30
0.0
  0
SPLINE
  5
147
100
AcDbEntity
  8
Layer_1
 62
7
100
AcDbSpline
 70
8
 71
3
 72
8
 73
4
 74
0
 40
0
 40
0
 40
0
 40
0
 40
1
 40
1
 40
1
 40
1
 10
-13.729899
 20
1.590255
 30
0.0
 10
-13.934392
 20
1.289970
 30
0.0
 10
-14.084970
 20
1.087548
 30
0.0
 10
-14.152172
 20
0.738767
 30
0.0
  0
SPLINE
  5
148
100
AcDbEntity
  8
Layer_1
 62
7
100
AcDbSpline
 70
8
 71
3
 72
8
 73
4
 74
0
 40
0
 40
0
 40
0
 40
0
 40
1
 40
1
 40
1
 40
1
 10
-14.152172
 20
0.738767
 30
0.0
 10
-14.298843
 20
1.734304
 30
0.0
 10
-14.480814
 20
2.100928
 30
0.0
 10
-14.163239
 20
3.553618
 30
0.0
  0
SPLINE
  5
149
100
AcDbEntity
  8
Layer_1
 62
7
100
AcDbSpline
 70
8
 71
3
 72
8
 73
4
 74
0
 40
0
 40
0
 40
0
 40
0
 40
1
 40
1
 40
1
 40
1
 10
-14.163239
 20
3.553618
 30
0.0
 10
-13.977532
 20
4.075097
 30
0.0
 10
-13.814103
 20
4.349694
 30
0.0
 10
-13.313796
 20
4.981778
 30
0.0
  0
SPLINE
  5
14a
100
AcDbEntity
  8
Layer_1
 62
7
100
AcDbSpline
 70
8
 71
3
 72
8
 73
4
 74
0
 40
0
 40
0
 40
0
 40
0
 40
1
 40
1
 40
1
 40
1
 10
-13.313796
 20
4.981778
 30
0.0
 10
-12.812917
 20
5.614628
 30
0.0
 10
-12.580692
 20
6.030921
 30
0.0
 10
-12.475262
 20
6.484275
 30
0.0
  0
SPLINE
  5
14b
100
AcDbEntity
  8
Layer_1
 62
7
100
AcDbSpline
 70
8
 71
3
 72
8
 73
4
 74
0
 40
0
 40
0
 40
0
 40
0
 40
1
 40
1
 40
1
 40
1
 10
-12.475262
 20
6.484275
 30
0.0
 10
-12.361119
 20
6.975101
 30
0.0
 10
-12.463903
 20
7.302665
 30
0.0
 10
-12.758048
 20
7.384815
 30
0.0
  0
SPLINE
  5
14c
100
AcDbEntity
  8
Layer_1
 62
7
100
AcDbSpline
 70
8
 71
3
 72
8
 73
4
 74
0
 40
0
 40
0
 40
0
 40
0
 40
1
 40
1
 40
1
 40
1
 10
-12.758048
 20
7.384815
 30
0.0
 10
-12.908438
 20
7.392124
 30
0.0
 10
-12.939272
 20
7.374940
 30
0.0
 10
-13.029702
 20
7.317714
 30
0.0
  0
SPLINE
  5
14d
100
AcDbEntity
  8
Layer_1
 62
7
100
AcDbSpline
 70
8
 71
3
 72
8
 73
4
 74
0
 40
0
 40
0
 40
0
 40
0
 40
1
 40
1
 40
1
 40
1
 10
-13.029702
 20
7.317714
 30
0.0
 10
-13.315554
 20
7.136789
 30
0.0
 10
-13.301877
 20
6.619710
 30
0.0
 10
-13.148838
 20
5.869625
 30
0.0
  0
SPLINE
  5
14e
100
AcDbEntity
  8
Layer_1
 62
7
100
AcDbSpline
 70
8
 71
3
 72
8
 73
4
 74
0
 40
0
 40
0
 40
0
 40
0
 40
1
 40
1
 40
1
 40
1
 10
-13.148838
 20
5.869625
 30
0.0
 10
-13.130851
 20
5.528928
 30
0.0
 10
-13.319774
 20
5.754515
 30
0.0
 10
-13.342477
 20
5.864164
 30
0.0
  0
SPLINE
  5
14f
100
AcDbEntity
  8
Layer_1
 62
7
100
AcDbSpline
 70
8
 71
3
 72
8
 73
4
 74
0
 40
0
 40
0
 40
0
 40
0
 40
1
 40
1
 40
1
 40
1
 10
-13.342477
 20
5.864164
 30
0.0
 10
-13.457863
 20
6.318257
 30
0.0
 10
-13.571047
 20
6.960680
 30
0.0
 10
-13.567997
 20
7.185748
 30
0.0
  0
SPLINE
  5
150
100
AcDbEntity
  8
Layer_1
 62
7
100
AcDbSpline
 70
8
 71
3
 72
8
 73
4
 74
0
 40
0
 40
0
 40
0
 40
0
 40
1
 40
1
 40
1
 40
1
 10
-13.567997
 20
7.185748
 30
0.0
 10
-13.560880
 20
7.710950
 30
0.0
 10
-13.164479
 20
8.140824
 30
0.0
 10
-12.777466
 20
8.141081
 30
0.0
  0
LWPOLYLINE
  5
151
100
AcDbEntity
  8
Layer_1
 62
7
100
AcDbPolyline
 90
2
 70
0
 10
-16.951152
 20
8.228676
 30
0.0
 10
-16.951152
 20
8.228676
 30
0.0
  0
SPLINE
  5
152
100
AcDbEntity
  8
Layer_1
 62
7
100
AcDbSpline
 70
8
 71
3
 72
8
 73
4
 74
0
 40
0
 40
0
 40
0
 40
0
 40
1
 40
1
 40
1
 40
1
 10
-8.246592
 20
7.999644
 30
0.0
 10
-8.138979
 20
7.900497
 30
0.0
 10
-8.195087
 20
7.637454
 30
0.0
 10
-8.348927
 20
7.519821
 30
0.0
  0
SPLINE
  5
153
100
AcDbEntity
  8
Layer_1
 62
7
100
AcDbSpline
 70
8
 71
3
 72
8
 73
4
 74
0
 40
0
 40
0
 40
0
 40
0
 40
1
 40
1
 40
1
 40
1
 10
-8.348927
 20
7.519821
 30
0.0
 10
-8.483349
 20
7.417024
 30
0.0
 10
-8.584368
 20
7.420835
 30
0.0
 10
-8.656585
 20
7.531361
 30
0.0
  0
SPLINE
  5
154
100
AcDbEntity
  8
Layer_1
 62
7
100
AcDbSpline
 70
8
 71
3
 72
8
 73
4
 74
0
 40
0
 40
0
 40
0
 40
0
 40
1
 40
1
 40
1
 40
1
 10
-8.656585
 20
7.531361
 30
0.0
 10
-8.728482
 20
7.641418
 30
0.0
 10
-8.624889
 20
7.893017
 30
0.0
 10
-8.468280
 20
7.989045
 30
0.0
  0
SPLINE
  5
155
100
AcDbEntity
  8
Layer_1
 62
7
100
AcDbSpline
 70
8
 71
3
 72
8
 73
4
 74
0
 40
0
 40
0
 40
0
 40
0
 40
1
 40
1
 40
1
 40
1
 10
-8.468280
 20
7.989045
 30
0.0
 10
-8.375472
 20
8.043050
 30
0.0
 10
-8.322488
 20
8.068668
 30
0.0
 10
-8.246592
 20
7.999644
 30
0.0
  0
LWPOLYLINE
  5
156
100
AcDbEntity
  8
Layer_1
 62
7
100
AcDbPolyline
 90
2
 70
0
 10
-12.777466
 20
8.141081
 30
0.0
 10
-12.777466
 20
8.141081
 30
0.0
  0
SPLINE
  5
157
100
AcDbEntity
  8
Layer_1
 62
7
100
AcDbSpline
 70
8
 71
3
 72
8
 73
4
 74
0
 40
0
 40
0
 40
0
 40
0
 40
1
 40
1
 40
1
 40
1
 10
-12.216947
 20
5.536434
 30
0.0
 10
-11.162244
 20
6.684037
 30
0.0
 10
-11.709504
 20
8.117757
 30
0.0
 10
-10.670637
 20
9.043294
 30
0.0
  0
SPLINE
  5
158
100
AcDbEntity
  8
Layer_1
 62
7
100
AcDbSpline
 70
8
 71
3
 72
8
 73
4
 74
0
 40
0
 40
0
 40
0
 40
0
 40
1
 40
1
 40
1
 40
1
 10
-10.670637
 20
9.043294
 30
0.0
 10
-10.340357
 20
9.371818
 30
0.0
 10
-9.701397
 20
9.418311
 30
0.0
 10
-9.354631
 20
9.159945
 30
0.0
  0
SPLINE
  5
159
100
AcDbEntity
  8
Layer_1
 62
7
100
AcDbSpline
 70
8
 71
3
 72
8
 73
4
 74
0
 40
0
 40
0
 40
0
 40
0
 40
1
 40
1
 40
1
 40
1
 10
-9.354631
 20
9.159945
 30
0.0
 10
-8.895926
 20
8.942290
 30
0.0
 10
-8.885521
 20
8.318937
 30
0.0
 10
-9.716183
 20
7.853257
 30
0.0
  0
SPLINE
  5
15a
100
AcDbEntity
  8
Layer_1
 62
7
100
AcDbSpline
 70
8
 71
3
 72
8
 73
4
 74
0
 40
0
 40
0
 40
0
 40
0
 40
1
 40
1
 40
1
 40
1
 10
-9.716183
 20
7.853257
 30
0.0
 10
-7.145670
 20
7.123204
 30
0.0
 10
-11.057049
 20
5.667205
 30
0.0
 10
-12.216947
 20
5.536434
 30
0.0
  0
LWPOLYLINE
  5
15b
100
AcDbEntity
  8
Layer_1
 62
7
100
AcDbPolyline
 90
2
 70
0
 10
-8.246592
 20
7.999644
 30
0.0
 10
-8.246592
 20
7.999644
 30
0.0
  0
SPLINE
  5
15c
100
AcDbEntity
  8
Layer_1
 62
7
100
AcDbSpline
 70
8
 71
3
 72
8
 73
4
 74
0
 40
0
 40
0
 40
0
 40
0
 40
1
 40
1
 40
1
 40
1
 10
-15.327479
 20
4.391871
 30
0.0
 10
-16.074956
 20
4.423954
 30
0.0
 10
-15.987211
 20
4.846931
 30
0.0
 10
-15.775314
 20
5.181167
 30
0.0
  0
SPLINE
  5
15d
100
AcDbEntity
  8
Layer_1
 62
7
100
AcDbSpline
 70
8
 71
3
 72
8
 73
4
 74
0
 40
0
 40
0
 40
0
 40
0
 40
1
 40
1
 40
1
 40
1
 10
-15.775314
 20
5.181167
 30
0.0
 10
-15.158332
 20
5.805588
 30
0.0
 10
-14.511491
 20
5.824198
 30
0.0
 10
-13.374173
 20
5.377348
 30
0.0
  0
SPLINE
  5
15e
100
AcDbEntity
  8
Layer_1
 62
7
100
AcDbSpline
 70
8
 71
3
 72
8
 73
4
 74
0
 40
0
 40
0
 40
0
 40
0
 40
1
 40
1
 40
1
 40
1
 10
-13.374173
 20
5.377348
 30
0.0
 10
-13.753626
 20
4.980131
 30
0.0
 10
-13.902241
 20
4.655050
 30
0.0
 10
-14.078414
 20
4.405720
 30
0.0
  0
SPLINE
  5
15f
100
AcDbEntity
  8
Layer_1
 62
7
100
AcDbSpline
 70
8
 71
3
 72
8
 73
4
 74
0
 40
0
 40
0
 40
0
 40
0
 40
1
 40
1
 40
1
 40
1
 10
-14.078414
 20
4.405720
 30
0.0
 10
-14.451692
 20
3.877440
 30
0.0
 10
-14.639900
 20
3.650354
 30
0.0
 10
-14.988246
 20
3.511551
 30
0.0
  0
SPLINE
  5
160
100
AcDbEntity
  8
Layer_1
 62
7
100
AcDbSpline
 70
8
 71
3
 72
8
 73
4
 74
0
 40
0
 40
0
 40
0
 40
0
 40
1
 40
1
 40
1
 40
1
 10
-14.988246
 20
3.511551
 30
0.0
 10
-16.184078
 20
3.233838
 30
0.0
 10
-16.007157
 20
4.267311
 30
0.0
 10
-15.327479
 20
4.391871
 30
0.0
  0
LWPOLYLINE
  5
161
100
AcDbEntity
  8
Layer_1
 62
7
100
AcDbPolyline
 90
2
 70
0
 10
-12.216947
 20
5.536434
 30
0.0
 10
-12.216947
 20
5.536434
 30
0.0
  0
SPLINE
  5
162
100
AcDbEntity
  8
Layer_1
 62
7
100
AcDbSpline
 70
8
 71
3
 72
8
 73
4
 74
0
 40
0
 40
0
 40
0
 40
0
 40
1
 40
1
 40
1
 40
1
 10
-16.234591
 20
5.191298
 30
0.0
 10
-16.091113
 20
5.189715
 30
0.0
 10
-16.064674
 20
5.047217
 30
0.0
 10
-16.191823
 20
4.906527
 30
0.0
  0
SPLINE
  5
163
100
AcDbEntity
  8
Layer_1
 62
7
100
AcDbSpline
 70
8
 71
3
 72
8
 73
4
 74
0
 40
0
 40
0
 40
0
 40
0
 40
1
 40
1
 40
1
 40
1
 10
-16.191823
 20
4.906527
 30
0.0
 10
-16.328011
 20
4.755828
 30
0.0
 10
-16.601478
 20
4.633901
 30
0.0
 10
-16.673384
 20
4.691900
 30
0.0
  0
SPLINE
  5
164
100
AcDbEntity
  8
Layer_1
 62
7
100
AcDbSpline
 70
8
 71
3
 72
8
 73
4
 74
0
 40
0
 40
0
 40
0
 40
0
 40
1
 40
1
 40
1
 40
1
 10
-16.673384
 20
4.691900
 30
0.0
 10
-16.755573
 20
4.920184
 30
0.0
 10
-16.435957
 20
5.193174
 30
0.0
 10
-16.234591
 20
5.191298
 30
0.0
  0
LWPOLYLINE
  5
165
100
AcDbEntity
  8
Layer_1
 62
7
100
AcDbPolyline
 90
2
 70
0
 10
-15.327479
 20
4.391871
 30
0.0
 10
-15.327479
 20
4.391871
 30
0.0
  0
SPLINE
  5
166
100
AcDbEntity
  8
Layer_1
 62
7
100
AcDbSpline
 70
8
 71
3
 72
8
 73
4
 74
0
 40
0
 40
0
 40
0
 40
0
 40
1
 40
1
 40
1
 40
1
 10
-10.071013
 20
4.097691
 30
0.0
 10
-10.071013
 20
4.097691
 30
0.0
 10
-9.415744
 20
3.665245
 30
0.0
 10
-9.825969
 20
3.339450
 30
0.0
  0
SPLINE
  5
167
100
AcDbEntity
  8
Layer_1
 62
7
100
AcDbSpline
 70
8
 71
3
 72
8
 73
4
 74
0
 40
0
 40
0
 40
0
 40
0
 40
1
 40
1
 40
1
 40
1
 10
-9.825969
 20
3.339450
 30
0.0
 10
-10.960653
 20
2.984834
 30
0.0
 10
-12.300640
 20
4.576294
 30
0.0
 10
-12.534020
 20
5.163718
 30
0.0
  0
SPLINE
  5
168
100
AcDbEntity
  8
Layer_1
 62
7
100
AcDbSpline
 70
8
 71
3
 72
8
 73
4
 74
0
 40
0
 40
0
 40
0
 40
0
 40
1
 40
1
 40
1
 40
1
 10
-12.534020
 20
5.163718
 30
0.0
 10
-11.522964
 20
5.405744
 30
0.0
 10
-10.256568
 20
5.441954
 30
0.0
 10
-9.704183
 20
4.759501
 30
0.0
  0
SPLINE
  5
169
100
AcDbEntity
  8
Layer_1
 62
7
100
AcDbSpline
 70
8
 71
3
 72
8
 73
4
 74
0
 40
0
 40
0
 40
0
 40
0
 40
1
 40
1
 40
1
 40
1
 10
-9.704183
 20
4.759501
 30
0.0
 10
-9.484328
 20
4.441050
 30
0.0
 10
-9.665816
 20
3.960908
 30
0.0
 10
-10.071013
 20
4.097691
 30
0.0
  0
LWPOLYLINE
  5
16a
100
AcDbEntity
  8
Layer_1
 62
7
100
AcDbPolyline
 90
2
 70
0
 10
-16.234591
 20
5.191298
 30
0.0
 10
-16.234591
 20
5.191298
 30
0.0
  0
SPLINE
  5
16b
100
AcDbEntity
  8
Layer_1
 62
7
100
AcDbSpline
 70
8
 71
3
 72
8
 73
4
 74
0
 40
0
 40
0
 40
0
 40
0
 40
1
 40
1
 40
1
 40
1
 10
-9.184842
 20
4.951635
 30
0.0
 10
-9.175276
 20
4.951801
 30
0.0
 10
-9.165324
 20
4.951379
 30
0.0
 10
-9.154729
 20
4.950168
 30
0.0
  0
SPLINE
  5
16c
100
AcDbEntity
  8
Layer_1
 62
7
100
AcDbSpline
 70
8
 71
3
 72
8
 73
4
 74
0
 40
0
 40
0
 40
0
 40
0
 40
1
 40
1
 40
1
 40
1
 10
-9.154729
 20
4.950168
 30
0.0
 10
-8.871523
 20
4.918560
 30
0.0
 10
-8.591240
 20
4.577180
 30
0.0
 10
-8.746047
 20
4.452307
 30
0.0
  0
SPLINE
  5
16d
100
AcDbEntity
  8
Layer_1
 62
7
100
AcDbSpline
 70
8
 71
3
 72
8
 73
4
 74
0
 40
0
 40
0
 40
0
 40
0
 40
1
 40
1
 40
1
 40
1
 10
-8.746047
 20
4.452307
 30
0.0
 10
-8.817954
 20
4.394310
 30
0.0
 10
-9.091636
 20
4.516204
 30
0.0
 10
-9.227826
 20
4.666934
 30
0.0
  0
SPLINE
  5
16e
100
AcDbEntity
  8
Layer_1
 62
7
100
AcDbSpline
 70
8
 71
3
 72
8
 73
4
 74
0
 40
0
 40
0
 40
0
 40
0
 40
1
 40
1
 40
1
 40
1
 10
-9.227826
 20
4.666934
 30
0.0
 10
-9.354976
 20
4.807625
 30
0.0
 10
-9.328318
 20
4.950024
 30
0.0
 10
-9.184842
 20
4.951684
 30
0.0
  0
LWPOLYLINE
  5
16f
100
AcDbEntity
  8
Layer_1
 62
7
100
AcDbPolyline
 90
2
 70
0
 10
-10.071013
 20
4.097691
 30
0.0
 10
-10.071013
 20
4.097691
 30
0.0
  0
LWPOLYLINE
  5
170
100
AcDbEntity
  8
Layer_1
 62
7
100
AcDbPolyline
 90
2
 70
0
 10
-9.184842
 20
4.951684
 30
0.0
 10
-9.184842
 20
4.951635
 30
0.0
  0
SPLINE
  5
171
100
AcDbEntity
  8
Layer_1
 62
7
100
AcDbSpline
 70
8
 71
3
 72
8
 73
4
 74
0
 40
0
 40
0
 40
0
 40
0
 40
1
 40
1
 40
1
 40
1
 10
-12.587852
 20
4.480330
 30
0.0
 10
-12.129291
 20
3.412761
 30
0.0
 10
-11.500556
 20
1.835351
 30
0.0
 10
-11.641638
 20
0.927474
 30
0.0
  0
SPLINE
  5
172
100
AcDbEntity
  8
Layer_1
 62
7
100
AcDbSpline
 70
8
 71
3
 72
8
 73
4
 74
0
 40
0
 40
0
 40
0
 40
0
 40
1
 40
1
 40
1
 40
1
 10
-11.641638
 20
0.927474
 30
0.0
 10
-11.793903
 20
1.367974
 30
0.0
 10
-11.995438
 20
1.712530
 30
0.0
 10
-12.365073
 20
1.916531
 30
0.0
  0
SPLINE
  5
173
100
AcDbEntity
  8
Layer_1
 62
7
100
AcDbSpline
 70
8
 71
3
 72
8
 73
4
 74
0
 40
0
 40
0
 40
0
 40
0
 40
1
 40
1
 40
1
 40
1
 10
-12.365073
 20
1.916531
 30
0.0
 10
-12.594832
 20
2.037734
 30
0.0
 10
-12.595541
 20
2.038530
 30
0.0
 10
-12.578251
 20
2.252285
 30
0.0
  0
SPLINE
  5
174
100
AcDbEntity
  8
Layer_1
 62
7
100
AcDbSpline
 70
8
 71
3
 72
8
 73
4
 74
0
 40
0
 40
0
 40
0
 40
0
 40
1
 40
1
 40
1
 40
1
 10
-12.578251
 20
2.252285
 30
0.0
 10
-12.551106
 20
2.587854
 30
0.0
 10
-12.613163
 20
3.344561
 30
0.0
 10
-12.797917
 20
4.009707
 30
0.0
  0
SPLINE
  5
175
100
AcDbEntity
  8
Layer_1
 62
7
100
AcDbSpline
 70
8
 71
3
 72
8
 73
4
 74
0
 40
0
 40
0
 40
0
 40
0
 40
1
 40
1
 40
1
 40
1
 10
-12.797917
 20
4.009707
 30
0.0
 10
-12.965717
 20
4.613767
 30
0.0
 10
-12.966092
 20
4.619608
 30
0.0
 10
-12.847664
 20
4.800835
 30
0.0
  0
LWPOLYLINE
  5
176
100
AcDbEntity
  8
Layer_1
 62
7
100
AcDbPolyline
 90
2
 70
0
 10
-12.777684
 20
4.934571
 30
0.0
 10
-12.587852
 20
4.480330
 30
0.0
  0
SPLINE
  5
177
100
AcDbEntity
  8
Layer_1
 62
7
100
AcDbSpline
 70
8
 71
3
 72
8
 73
4
 74
0
 40
0
 40
0
 40
0
 40
0
 40
1
 40
1
 40
1
 40
1
 10
-16.482900
 20
4.132251
 30
0.0
 10
-16.438818
 20
4.132418
 30
0.0
 10
-16.406899
 20
4.116531
 30
0.0
 10
-16.395400
 20
4.080291
 30
0.0
  0
SPLINE
  5
178
100
AcDbEntity
  8
Layer_1
 62
7
100
AcDbSpline
 70
8
 71
3
 72
8
 73
4
 74
0
 40
0
 40
0
 40
0
 40
0
 40
1
 40
1
 40
1
 40
1
 10
-16.395400
 20
4.080291
 30
0.0
 10
-16.366276
 20
3.988517
 30
0.0
 10
-16.500019
 20
3.785780
 30
0.0
 10
-16.655058
 20
3.687087
 30
0.0
  0
SPLINE
  5
179
100
AcDbEntity
  8
Layer_1
 62
7
100
AcDbSpline
 70
8
 71
3
 72
8
 73
4
 74
0
 40
0
 40
0
 40
0
 40
0
 40
1
 40
1
 40
1
 40
1
 10
-16.655058
 20
3.687087
 30
0.0
 10
-16.930234
 20
3.511897
 30
0.0
 10
-17.134353
 20
3.555290
 30
0.0
 10
-17.013772
 20
3.763315
 30
0.0
  0
SPLINE
  5
17a
100
AcDbEntity
  8
Layer_1
 62
7
100
AcDbSpline
 70
8
 71
3
 72
8
 73
4
 74
0
 40
0
 40
0
 40
0
 40
0
 40
1
 40
1
 40
1
 40
1
 10
-17.013772
 20
3.763315
 30
0.0
 10
-16.900333
 20
3.959031
 30
0.0
 10
-16.626901
 20
4.131581
 30
0.0
 10
-16.482900
 20
4.132251
 30
0.0
  0
LWPOLYLINE
  5
17b
100
AcDbEntity
  8
Layer_1
 62
7
100
AcDbPolyline
 90
2
 70
0
 10
-12.847664
 20
4.800835
 30
0.0
 10
-12.777684
 20
4.934571
 30
0.0
  0
SPLINE
  5
17c
100
AcDbEntity
  8
Layer_1
 62
7
100
AcDbSpline
 70
8
 71
3
 72
8
 73
4
 74
0
 40
0
 40
0
 40
0
 40
0
 40
1
 40
1
 40
1
 40
1
 10
-8.936751
 20
3.892414
 30
0.0
 10
-8.792749
 20
3.891802
 30
0.0
 10
-8.519095
 20
3.719370
 30
0.0
 10
-8.405658
 20
3.523685
 30
0.0
  0
SPLINE
  5
17d
100
AcDbEntity
  8
Layer_1
 62
7
100
AcDbSpline
 70
8
 71
3
 72
8
 73
4
 74
0
 40
0
 40
0
 40
0
 40
0
 40
1
 40
1
 40
1
 40
1
 10
-8.405658
 20
3.523685
 30
0.0
 10
-8.285078
 20
3.315628
 30
0.0
 10
-8.489196
 20
3.272267
 30
0.0
 10
-8.764374
 20
3.447457
 30
0.0
  0
SPLINE
  5
17e
100
AcDbEntity
  8
Layer_1
 62
7
100
AcDbSpline
 70
8
 71
3
 72
8
 73
4
 74
0
 40
0
 40
0
 40
0
 40
0
 40
1
 40
1
 40
1
 40
1
 10
-8.764374
 20
3.447457
 30
0.0
 10
-8.919412
 20
3.546148
 30
0.0
 10
-9.053373
 20
3.748678
 30
0.0
 10
-9.024248
 20
3.840487
 30
0.0
  0
SPLINE
  5
17f
100
AcDbEntity
  8
Layer_1
 62
7
100
AcDbSpline
 70
8
 71
3
 72
8
 73
4
 74
0
 40
0
 40
0
 40
0
 40
0
 40
1
 40
1
 40
1
 40
1
 10
-9.024248
 20
3.840487
 30
0.0
 10
-9.012752
 20
3.876695
 30
0.0
 10
-8.980833
 20
3.892635
 30
0.0
 10
-8.936751
 20
3.892414
 30
0.0
  0
LWPOLYLINE
  5
180
100
AcDbEntity
  8
Layer_1
 62
7
100
AcDbPolyline
 90
2
 70
0
 10
-16.482900
 20
4.132251
 30
0.0
 10
-16.482900
 20
4.132251
 30
0.0
  0
SPLINE
  5
181
100
AcDbEntity
  8
Layer_1
 62
7
100
AcDbSpline
 70
8
 71
3
 72
8
 73
4
 74
0
 40
0
 40
0
 40
0
 40
0
 40
1
 40
1
 40
1
 40
1
 10
-16.638691
 20
3.251608
 30
0.0
 10
-16.310914
 20
3.187625
 30
0.0
 10
-16.559582
 20
2.813361
 30
0.0
 10
-16.645891
 20
2.751298
 30
0.0
  0
SPLINE
  5
182
100
AcDbEntity
  8
Layer_1
 62
7
100
AcDbSpline
 70
8
 71
3
 72
8
 73
4
 74
0
 40
0
 40
0
 40
0
 40
0
 40
1
 40
1
 40
1
 40
1
 10
-16.645891
 20
2.751298
 30
0.0
 10
-16.850449
 20
2.611988
 30
0.0
 10
-16.887364
 20
2.603830
 30
0.0
 10
-17.019884
 20
2.669197
 30
0.0
  0
SPLINE
  5
183
100
AcDbEntity
  8
Layer_1
 62
7
100
AcDbSpline
 70
8
 71
3
 72
8
 73
4
 74
0
 40
0
 40
0
 40
0
 40
0
 40
1
 40
1
 40
1
 40
1
 10
-17.019884
 20
2.669197
 30
0.0
 10
-17.117971
 20
2.717375
 30
0.0
 10
-17.124300
 20
2.737628
 30
0.0
 10
-17.088613
 20
2.884384
 30
0.0
  0
SPLINE
  5
184
100
AcDbEntity
  8
Layer_1
 62
7
100
AcDbSpline
 70
8
 71
3
 72
8
 73
4
 74
0
 40
0
 40
0
 40
0
 40
0
 40
1
 40
1
 40
1
 40
1
 10
-17.088613
 20
2.884384
 30
0.0
 10
-17.043347
 20
3.070538
 30
0.0
 10
-16.813518
 20
3.251758
 30
0.0
 10
-16.638691
 20
3.251608
 30
0.0
  0
LWPOLYLINE
  5
185
100
AcDbEntity
  8
Layer_1
 62
7
100
AcDbPolyline
 90
2
 70
0
 10
-8.936751
 20
3.892414
 30
0.0
 10
-8.936751
 20
3.892414
 30
0.0
  0
SPLINE
  5
186
100
AcDbEntity
  8
Layer_1
 62
7
100
AcDbSpline
 70
8
 71
3
 72
8
 73
4
 74
0
 40
0
 40
0
 40
0
 40
0
 40
1
 40
1
 40
1
 40
1
 10
-8.780957
 20
3.011978
 30
0.0
 10
-8.661696
 20
3.012145
 30
0.0
 10
-8.516738
 20
2.927767
 30
0.0
 10
-8.422269
 20
2.815078
 30
0.0
  0
SPLINE
  5
187
100
AcDbEntity
  8
Layer_1
 62
7
100
AcDbSpline
 70
8
 71
3
 72
8
 73
4
 74
0
 40
0
 40
0
 40
0
 40
0
 40
1
 40
1
 40
1
 40
1
 10
-8.422269
 20
2.815078
 30
0.0
 10
-8.320147
 20
2.691994
 30
0.0
 10
-8.274358
 20
2.492255
 30
0.0
 10
-8.399767
 20
2.429567
 30
0.0
  0
SPLINE
  5
188
100
AcDbEntity
  8
Layer_1
 62
7
100
AcDbSpline
 70
8
 71
3
 72
8
 73
4
 74
0
 40
0
 40
0
 40
0
 40
0
 40
1
 40
1
 40
1
 40
1
 10
-8.399767
 20
2.429567
 30
0.0
 10
-8.532287
 20
2.364167
 30
0.0
 10
-8.568982
 20
2.372360
 30
0.0
 10
-8.773539
 20
2.511635
 30
0.0
  0
SPLINE
  5
189
100
AcDbEntity
  8
Layer_1
 62
7
100
AcDbSpline
 70
8
 71
3
 72
8
 73
4
 74
0
 40
0
 40
0
 40
0
 40
0
 40
1
 40
1
 40
1
 40
1
 10
-8.773539
 20
2.511635
 30
0.0
 10
-9.028507
 20
2.644951
 30
0.0
 10
-9.060037
 20
2.999238
 30
0.0
 10
-8.780957
 20
3.011978
 30
0.0
  0
LWPOLYLINE
  5
18a
100
AcDbEntity
  8
Layer_1
 62
7
100
AcDbPolyline
 90
2
 70
0
 10
-16.638691
 20
3.251608
 30
0.0
 10
-16.638691
 20
3.251608
 30
0.0
  0
SPLINE
  5
18b
100
AcDbEntity
  8
Layer_1
 62
7
100
AcDbSpline
 70
8
 71
3
 72
8
 73
4
 74
0
 40
0
 40
0
 40
0
 40
0
 40
1
 40
1
 40
1
 40
1
 10
3.664070
 20
0.000023
 30
0.0
 10
3.666416
 20
0.000023
 30
0.0
 10
3.668165
 20
0.000023
 30
0.0
 10
3.669306
 20
0.000401
 30
0.0
  0
SPLINE
  5
18c
100
AcDbEntity
  8
Layer_1
 62
7
100
AcDbSpline
 70
8
 71
3
 72
8
 73
4
 74
0
 40
0
 40
0
 40
0
 40
0
 40
1
 40
1
 40
1
 40
1
 10
3.669306
 20
0.000401
 30
0.0
 10
3.687567
 20
0.004776
 30
0.0
 10
3.576317
 20
0.080136
 30
0.0
 10
3.422307
 20
0.167807
 30
0.0
  0
SPLINE
  5
18d
100
AcDbEntity
  8
Layer_1
 62
7
100
AcDbSpline
 70
8
 71
3
 72
8
 73
4
 74
0
 40
0
 40
0
 40
0
 40
0
 40
1
 40
1
 40
1
 40
1
 10
3.422307
 20
0.167807
 30
0.0
 10
2.480825
 20
0.712716
 30
0.0
 10
2.538219
 20
1.911056
 30
0.0
 10
2.768150
 20
2.708667
 30
0.0
  0
SPLINE
  5
18e
100
AcDbEntity
  8
Layer_1
 62
7
100
AcDbSpline
 70
8
 71
3
 72
8
 73
4
 74
0
 40
0
 40
0
 40
0
 40
0
 40
1
 40
1
 40
1
 40
1
 10
2.768150
 20
2.708667
 30
0.0
 10
3.061749
 20
3.777578
 30
0.0
 10
2.290066
 20
4.993830
 30
0.0
 10
0.802844
 20
5.806347
 30
0.0
  0
SPLINE
  5
18f
100
AcDbEntity
  8
Layer_1
 62
7
100
AcDbSpline
 70
8
 71
3
 72
8
 73
4
 74
0
 40
0
 40
0
 40
0
 40
0
 40
1
 40
1
 40
1
 40
1
 10
0.802844
 20
5.806347
 30
0.0
 10
0.602641
 20
5.915723
 30
0.0
 10
0.451348
 20
6.008205
 30
0.0
 10
0.466601
 20
6.011861
 30
0.0
  0
SPLINE
  5
190
100
AcDbEntity
  8
Layer_1
 62
7
100
AcDbSpline
 70
8
 71
3
 72
8
 73
4
 74
0
 40
0
 40
0
 40
0
 40
0
 40
1
 40
1
 40
1
 40
1
 10
0.466601
 20
6.011861
 30
0.0
 10
0.594684
 20
6.042543
 30
0.0
 10
1.292650
 20
6.369552
 30
0.0
 10
1.430816
 20
6.463650
 30
0.0
  0
SPLINE
  5
191
100
AcDbEntity
  8
Layer_1
 62
7
100
AcDbSpline
 70
8
 71
3
 72
8
 73
4
 74
0
 40
0
 40
0
 40
0
 40
0
 40
1
 40
1
 40
1
 40
1
 10
1.430816
 20
6.463650
 30
0.0
 10
2.738974
 20
7.254285
 30
0.0
 10
2.879664
 20
9.545398
 30
0.0
 10
1.974565
 20
10.417318
 30
0.0
  0
SPLINE
  5
192
100
AcDbEntity
  8
Layer_1
 62
7
100
AcDbSpline
 70
8
 71
3
 72
8
 73
4
 74
0
 40
0
 40
0
 40
0
 40
0
 40
1
 40
1
 40
1
 40
1
 10
1.974565
 20
10.417318
 30
0.0
 10
1.712008
 20
9.891938
 30
0.0
 10
1.283984
 20
9.456932
 30
0.0
 10
0.796952
 20
9.221398
 30
0.0
  0
SPLINE
  5
193
100
AcDbEntity
  8
Layer_1
 62
7
100
AcDbSpline
 70
8
 71
3
 72
8
 73
4
 74
0
 40
0
 40
0
 40
0
 40
0
 40
1
 40
1
 40
1
 40
1
 10
0.796952
 20
9.221398
 30
0.0
 10
0.239544
 20
8.957394
 30
0.0
 10
-0.323027
 20
8.679410
 30
0.0
 10
-0.476886
 20
8.591965
 30
0.0
  0
SPLINE
  5
194
100
AcDbEntity
  8
Layer_1
 62
7
100
AcDbSpline
 70
8
 71
3
 72
8
 73
4
 74
0
 40
0
 40
0
 40
0
 40
0
 40
1
 40
1
 40
1
 40
1
 10
-0.476886
 20
8.591965
 30
0.0
 10
-0.589044
 20
8.528214
 30
0.0
 10
-0.589905
 20
8.535672
 30
0.0
 10
-0.508524
 20
8.894927
 30
0.0
  0
SPLINE
  5
195
100
AcDbEntity
  8
Layer_1
 62
7
100
AcDbSpline
 70
8
 71
3
 72
8
 73
4
 74
0
 40
0
 40
0
 40
0
 40
0
 40
1
 40
1
 40
1
 40
1
 10
-0.508524
 20
8.894927
 30
0.0
 10
-0.270550
 20
9.762658
 30
0.0
 10
-0.399479
 20
11.194164
 30
0.0
 10
-0.939246
 20
11.897242
 30
0.0
  0
LWPOLYLINE
  5
196
100
AcDbEntity
  8
Layer_1
 62
7
100
AcDbPolyline
 90
2
 70
0
 10
-8.780957
 20
3.011978
 30
0.0
 10
-8.780957
 20
3.011978
 30
0.0
  0
SPLINE
  5
197
100
AcDbEntity
  8
Layer_1
 62
7
100
AcDbSpline
 70
8
 71
3
 72
8
 73
4
 74
0
 40
0
 40
0
 40
0
 40
0
 40
1
 40
1
 40
1
 40
1
 10
-1.040709
 20
11.883213
 30
0.0
 10
-1.049420
 20
11.480189
 30
0.0
 10
-1.217289
 20
10.981844
 30
0.0
 10
-1.474486
 20
10.596289
 30
0.0
  0
LWPOLYLINE
  5
198
100
AcDbEntity
  8
Layer_1
 62
7
100
AcDbPolyline
 90
3
 70
0
 10
-0.939246
 20
11.897242
 30
0.0
 10
-1.038090
 20
12.000000
 30
0.0
 10
-1.040709
 20
11.883213
 30
0.0
  0
SPLINE
  5
199
100
AcDbEntity
  8
Layer_1
 62
7
100
AcDbSpline
 70
8
 71
3
 72
8
 73
4
 74
0
 40
0
 40
0
 40
0
 40
0
 40
1
 40
1
 40
1
 40
1
 10
-1.636388
 20
9.829976
 30
0.0
 10
-1.495609
 20
9.450445
 30
0.0
 10
-1.725331
 20
6.773072
 30
0.0
 10
-2.059691
 20
8.136765
 30
0.0
  0
SPLINE
  5
19a
100
AcDbEntity
  8
Layer_1
 62
7
100
AcDbSpline
 70
8
 71
3
 72
8
 73
4
 74
0
 40
0
 40
0
 40
0
 40
0
 40
1
 40
1
 40
1
 40
1
 10
-2.059691
 20
8.136765
 30
0.0
 10
-2.202089
 20
8.717798
 30
0.0
 10
-2.271965
 20
9.293105
 30
0.0
 10
-2.256506
 20
9.756604
 30
0.0
  0
LWPOLYLINE
  5
19b
100
AcDbEntity
  8
Layer_1
 62
7
100
AcDbPolyline
 90
3
 70
0
 10
-1.474486
 20
10.596289
 30
0.0
 10
-1.748978
 20
10.184884
 30
0.0
 10
-1.636388
 20
9.829976
 30
0.0
  0
SPLINE
  5
19c
100
AcDbEntity
  8
Layer_1
 62
7
100
AcDbSpline
 70
8
 71
3
 72
8
 73
4
 74
0
 40
0
 40
0
 40
0
 40
0
 40
1
 40
1
 40
1
 40
1
 10
-2.486050
 20
10.217113
 30
0.0
 10
-3.037264
 20
10.554509
 30
0.0
 10
-3.210440
 20
11.368669
 30
0.0
 10
-3.348803
 20
11.914876
 30
0.0
  0
SPLINE
  5
19d
100
AcDbEntity
  8
Layer_1
 62
7
100
AcDbSpline
 70
8
 71
3
 72
8
 73
4
 74
0
 40
0
 40
0
 40
0
 40
0
 40
1
 40
1
 40
1
 40
1
 10
-3.348803
 20
11.914876
 30
0.0
 10
-3.482563
 20
11.804322
 30
0.0
 10
-3.636654
 20
11.258136
 30
0.0
 10
-3.650789
 20
10.944184
 30
0.0
  0
SPLINE
  5
19e
100
AcDbEntity
  8
Layer_1
 62
7
100
AcDbSpline
 70
8
 71
3
 72
8
 73
4
 74
0
 40
0
 40
0
 40
0
 40
0
 40
1
 40
1
 40
1
 40
1
 10
-3.650789
 20
10.944184
 30
0.0
 10
-3.675003
 20
9.817996
 30
0.0
 10
-3.233858
 20
8.667365
 30
0.0
 10
-2.948847
 20
8.082732
 30
0.0
  0
SPLINE
  5
19f
100
AcDbEntity
  8
Layer_1
 62
7
100
AcDbSpline
 70
8
 71
3
 72
8
 73
4
 74
0
 40
0
 40
0
 40
0
 40
0
 40
1
 40
1
 40
1
 40
1
 10
-2.948847
 20
8.082732
 30
0.0
 10
-3.723901
 20
8.781490
 30
0.0
 10
-4.677687
 20
9.092554
 30
0.0
 10
-5.454411
 20
9.461034
 30
0.0
  0
SPLINE
  5
1a0
100
AcDbEntity
  8
Layer_1
 62
7
100
AcDbSpline
 70
8
 71
3
 72
8
 73
4
 74
0
 40
0
 40
0
 40
0
 40
0
 40
1
 40
1
 40
1
 40
1
 10
-5.454411
 20
9.461034
 30
0.0
 10
-6.284801
 20
9.870689
 30
0.0
 10
-6.415569
 20
10.410851
 30
0.0
 10
-6.632024
 20
10.656956
 30
0.0
  0
SPLINE
  5
1a1
100
AcDbEntity
  8
Layer_1
 62
7
100
AcDbSpline
 70
8
 71
3
 72
8
 73
4
 74
0
 40
0
 40
0
 40
0
 40
0
 40
1
 40
1
 40
1
 40
1
 10
-6.632024
 20
10.656956
 30
0.0
 10
-7.765539
 20
9.793040
 30
0.0
 10
-7.545462
 20
7.508047
 30
0.0
 10
-6.088275
 20
6.703476
 30
0.0
  0
SPLINE
  5
1a2
100
AcDbEntity
  8
Layer_1
 62
7
100
AcDbSpline
 70
8
 71
3
 72
8
 73
4
 74
0
 40
0
 40
0
 40
0
 40
0
 40
1
 40
1
 40
1
 40
1
 10
-6.088275
 20
6.703476
 30
0.0
 10
-5.950109
 20
6.609381
 30
0.0
 10
-5.252360
 20
6.282181
 30
0.0
 10
-5.124278
 20
6.251498
 30
0.0
  0
SPLINE
  5
1a3
100
AcDbEntity
  8
Layer_1
 62
7
100
AcDbSpline
 70
8
 71
3
 72
8
 73
4
 74
0
 40
0
 40
0
 40
0
 40
0
 40
1
 40
1
 40
1
 40
1
 10
-5.124278
 20
6.251498
 30
0.0
 10
-5.109025
 20
6.247843
 30
0.0
 10
-5.260317
 20
6.155358
 30
0.0
 10
-5.460521
 20
6.045985
 30
0.0
  0
SPLINE
  5
1a4
100
AcDbEntity
  8
Layer_1
 62
7
100
AcDbSpline
 70
8
 71
3
 72
8
 73
4
 74
0
 40
0
 40
0
 40
0
 40
0
 40
1
 40
1
 40
1
 40
1
 10
-5.460521
 20
6.045985
 30
0.0
 10
-6.947743
 20
5.233467
 30
0.0
 10
-7.719208
 20
4.017214
 30
0.0
 10
-7.425608
 20
2.948303
 30
0.0
  0
SPLINE
  5
1a5
100
AcDbEntity
  8
Layer_1
 62
7
100
AcDbSpline
 70
8
 71
3
 72
8
 73
4
 74
0
 40
0
 40
0
 40
0
 40
0
 40
1
 40
1
 40
1
 40
1
 10
-7.425608
 20
2.948303
 30
0.0
 10
-7.007556
 20
2.032638
 30
0.0
 10
-7.254732
 20
0.887950
 30
0.0
 10
-8.079983
 20
0.407443
 30
0.0
  0
SPLINE
  5
1a6
100
AcDbEntity
  8
Layer_1
 62
7
100
AcDbSpline
 70
8
 71
3
 72
8
 73
4
 74
0
 40
0
 40
0
 40
0
 40
0
 40
1
 40
1
 40
1
 40
1
 10
-8.079983
 20
0.407443
 30
0.0
 10
-8.233995
 20
0.319774
 30
0.0
 10
-8.345026
 20
0.244601
 30
0.0
 10
-8.326765
 20
0.240227
 30
0.0
  0
SPLINE
  5
1a7
100
AcDbEntity
  8
Layer_1
 62
7
100
AcDbSpline
 70
8
 71
3
 72
8
 73
4
 74
0
 40
0
 40
0
 40
0
 40
0
 40
1
 40
1
 40
1
 40
1
 10
-8.326765
 20
0.240227
 30
0.0
 10
-8.308509
 20
0.235854
 30
0.0
 10
-8.131602
 20
0.260416
 30
0.0
 10
-7.933572
 20
0.295018
 30
0.0
  0
SPLINE
  5
1a8
100
AcDbEntity
  8
Layer_1
 62
7
100
AcDbSpline
 70
8
 71
3
 72
8
 73
4
 74
0
 40
0
 40
0
 40
0
 40
0
 40
1
 40
1
 40
1
 40
1
 10
-7.933572
 20
0.295018
 30
0.0
 10
-5.000093
 20
1.019221
 30
0.0
 10
-3.561783
 20
2.216401
 30
0.0
 10
-3.117902
 20
4.388592
 30
0.0
  0
SPLINE
  5
1a9
100
AcDbEntity
  8
Layer_1
 62
7
100
AcDbSpline
 70
8
 71
3
 72
8
 73
4
 74
0
 40
0
 40
0
 40
0
 40
0
 40
1
 40
1
 40
1
 40
1
 10
-3.117902
 20
4.388592
 30
0.0
 10
-2.985519
 20
3.754363
 30
0.0
 10
-2.516651
 20
3.626278
 30
0.0
 10
-2.109222
 20
3.687318
 30
0.0
  0
SPLINE
  5
1aa
100
AcDbEntity
  8
Layer_1
 62
7
100
AcDbSpline
 70
8
 71
3
 72
8
 73
4
 74
0
 40
0
 40
0
 40
0
 40
0
 40
1
 40
1
 40
1
 40
1
 10
-2.109222
 20
3.687318
 30
0.0
 10
-1.727986
 20
3.796543
 30
0.0
 10
-1.636816
 20
3.910987
 30
0.0
 10
-1.416444
 20
4.242432
 30
0.0
  0
SPLINE
  5
1ab
100
AcDbEntity
  8
Layer_1
 62
7
100
AcDbSpline
 70
8
 71
3
 72
8
 73
4
 74
0
 40
0
 40
0
 40
0
 40
0
 40
1
 40
1
 40
1
 40
1
 10
-1.416444
 20
4.242432
 30
0.0
 10
-1.396862
 20
4.256401
 30
0.0
 10
-1.295815
 20
3.986827
 30
0.0
 10
-1.243850
 20
3.823063
 30
0.0
  0
SPLINE
  5
1ac
100
AcDbEntity
  8
Layer_1
 62
7
100
AcDbSpline
 70
8
 71
3
 72
8
 73
4
 74
0
 40
0
 40
0
 40
0
 40
0
 40
1
 40
1
 40
1
 40
1
 10
-1.243850
 20
3.823063
 30
0.0
 10
-1.126552
 20
3.454316
 30
0.0
 10
-0.782043
 20
2.794967
 30
0.0
 10
-0.524671
 20
2.446654
 30
0.0
  0
SPLINE
  5
1ad
100
AcDbEntity
  8
Layer_1
 62
7
100
AcDbSpline
 70
8
 71
3
 72
8
 73
4
 74
0
 40
0
 40
0
 40
0
 40
0
 40
1
 40
1
 40
1
 40
1
 10
-0.524671
 20
2.446654
 30
0.0
 10
-0.125454
 20
1.906383
 30
0.0
 10
0.427577
 20
1.445458
 30
0.0
 10
0.978493
 20
1.022658
 30
0.0
  0
SPLINE
  5
1ae
100
AcDbEntity
  8
Layer_1
 62
7
100
AcDbSpline
 70
8
 71
3
 72
8
 73
4
 74
0
 40
0
 40
0
 40
0
 40
0
 40
1
 40
1
 40
1
 40
1
 10
0.978493
 20
1.022658
 30
0.0
 10
1.596201
 20
0.607925
 30
0.0
 10
2.647852
 20
0.165118
 30
0.0
 10
3.275896
 20
0.055378
 30
0.0
  0
SPLINE
  5
1af
100
AcDbEntity
  8
Layer_1
 62
7
100
AcDbSpline
 70
8
 71
3
 72
8
 73
4
 74
0
 40
0
 40
0
 40
0
 40
0
 40
1
 40
1
 40
1
 40
1
 10
3.275896
 20
0.055378
 30
0.0
 10
3.461549
 20
0.022938
 30
0.0
 10
3.628859
 20
-0.000742
 30
0.0
 10
3.664070
 20
0.000018
 30
0.0
  0
LWPOLYLINE
  5
1b0
100
AcDbEntity
  8
Layer_1
 62
7
100
AcDbPolyline
 90
3
 70
0
 10
-2.256506
 20
9.756604
 30
0.0
 10
-2.245596
 20
10.084022
 30
0.0
 10
-2.486050
 20
10.217113
 30
0.0
  0
LWPOLYLINE
  5
1b1
100
AcDbEntity
  8
Layer_1
 62
7
100
AcDbPolyline
 90
2
 70
0
 10
3.664070
 20
0.000018
 30
0.0
 10
3.664070
 20
0.000023
 30
0.0
  0
ENDSEC
  0
SECTION
  2
OBJECTS
  0
DICTIONARY
  5
C
330
0
100
AcDbDictionary
  3
ACAD_GROUP
350
D
  3
ACAD_MLINESTYLE
350
17
  0
DICTIONARY
  5
D
330
C
100
AcDbDictionary
  0
DICTIONARY
  5
1A
330
C
100
AcDbDictionary
  0
DICTIONARY
  5
17
330
C
100
AcDbDictionary
  3
STANDARD
350
18
  0
DICTIONARY
  5
19
330
C
100
AcDbDictionary
  0
ENDSEC
  0
EOF
