  0
SECTION
  2
ENTITIES
  0
ARC
  8
APS_GEOMETRY
 10
0.052615
 20
-0.004783
 40
0.000632
 50
320.710593
 51
0.0
  0
ARC
  8
APS_GEOMETRY
 10
0.052389
 20
-0.004598
 40
0.000925
 50
288.434949
 51
320.710593
  0
ARC
  8
APS_GEOMETRY
 10
0.055419
 20
-0.013689
 40
0.008657
 50
108.434949
 51
112.380135
  0
ARC
  8
APS_GEOMETRY
 10
0.055052
 20
-0.012798
 40
0.007694
 50
112.380135
 51
116.565051
  0
ARC
  8
APS_GEOMETRY
 10
0.049802
 20
-0.00863
 40
0.003262
 50
48.366461
 51
56.309932
  0
ARC
  8
APS_GEOMETRY
 10
0.039919
 20
-0.019748
 40
0.018137
 50
45.0
 51
48.366461
  0
ARC
  8
APS_GEOMETRY
 10
0.046534
 20
-0.005681
 40
0.006334
 50
342.897271
 51
348.690068
  0
ARC
  8
APS_GEOMETRY
 10
0.035563
 20
-0.002306
 40
0.017812
 50
339.443955
 51
342.897271
  0
ARC
  8
APS_GEOMETRY
 10
0.05058
 20
-0.00856
 40
0.001661
 50
0.0
 51
31.607502
  0
ARC
  8
APS_GEOMETRY
 10
0.04998
 20
-0.008929
 40
0.002365
 50
31.607502
 51
57.994617
  0
ARC
  8
APS_GEOMETRY
 10
0.051234
 20
-0.007243
 40
0.00032
 50
90.0
 51
135.0
  0
ARC
  8
APS_GEOMETRY
 10
0.051104
 20
-0.007114
 40
0.000137
 50
135.0
 51
206.565051
  0
ARC
  8
APS_GEOMETRY
 10
0.051212
 20
-0.006714
 40
0.000515
 50
213.690068
 51
243.434949
  0
ARC
  8
APS_GEOMETRY
 10
0.053417
 20
-0.005244
 40
0.003165
 50
201.801409
 51
213.690068
  0
ARC
  8
APS_GEOMETRY
 10
0.041941
 20
0.00041
 40
0.010934
 50
317.121096
 51
321.340192
  0
ARC
  8
APS_GEOMETRY
 10
0.018263
 20
0.022396
 40
0.043245
 50
315.0
 51
317.121096
  0
LINE
  8
APS_GEOMETRY
 10
0.048842
 11
0.048842
 20
-0.008182
 21
-0.010574
  0
LINE
  8
APS_GEOMETRY
 10
0.048842
 11
0.049094
 20
-0.010574
 21
-0.010826
  0
LINE
  8
APS_GEOMETRY
 10
0.049094
 11
0.049597
 20
-0.010826
 21
-0.010448
  0
ARC
  8
APS_GEOMETRY
 10
0.051947
 20
-0.010918
 40
0.002397
 50
168.690068
 51
183.814075
  0
ARC
  8
APS_GEOMETRY
 10
0.059248
 20
-0.010431
 40
0.009713
 50
183.814075
 51
191.309932
  0
ARC
  8
APS_GEOMETRY
 10
0.049375
 20
-0.012162
 40
0.000389
 50
296.565051
 51
333.434949
  0
ARC
  8
APS_GEOMETRY
 10
0.04922
 20
-0.011851
 40
0.000737
 50
270.0
 51
296.565051
  0
ARC
  8
APS_GEOMETRY
 10
0.04922
 20
-0.012352
 40
0.000236
 50
206.565051
 51
270.0
  0
ARC
  8
APS_GEOMETRY
 10
0.049493
 20
-0.012216
 40
0.000541
 50
165.963757
 51
206.565051
  0
ARC
  8
APS_GEOMETRY
 10
0.050035
 20
-0.013507
 40
0.001778
 50
126.869898
 51
146.309932
  0
ARC
  8
APS_GEOMETRY
 10
0.049806
 20
-0.013355
 40
0.001504
 50
146.309932
 51
167.471192
  0
ARC
  8
APS_GEOMETRY
 10
0.045693
 20
-0.012441
 40
0.00271
 50
336.037511
 51
347.471192
  0
ARC
  8
APS_GEOMETRY
 10
0.048087
 20
-0.013505
 40
0.000091
 50
270.0
 51
336.037511
  0
ARC
  8
APS_GEOMETRY
 10
0.048087
 20
-0.012382
 40
0.001213
 50
241.699244
 51
270.0
  0
ARC
  8
APS_GEOMETRY
 10
0.050241
 20
-0.008382
 40
0.005756
 50
228.814075
 51
241.699244
  0
LINE
  8
APS_GEOMETRY
 10
0.04645
 11
0.04645
 20
-0.012714
 21
-0.012368
  0
LINE
  8
APS_GEOMETRY
 10
0.04645
 11
0.04645
 20
-0.012368
 21
-0.011833
  0
ARC
  8
APS_GEOMETRY
 10
0.052733
 20
-0.010262
 40
0.006477
 50
189.462322
 51
194.036243
  0
ARC
  8
APS_GEOMETRY
 10
0.04784
 20
-0.011078
 40
0.001516
 50
180.0
 51
189.462322
  0
ARC
  8
APS_GEOMETRY
 10
0.054425
 20
-0.011078
 40
0.008101
 50
165.17352
 51
180.0
  0
ARC
  8
APS_GEOMETRY
 10
0.056658
 20
-0.011669
 40
0.01041
 50
152.102729
 51
165.17352
  0
ARC
  8
APS_GEOMETRY
 10
0.048251
 20
-0.007062
 40
0.000836
 50
135.0
 51
161.565051
  0
ARC
  8
APS_GEOMETRY
 10
0.074004
 20
-0.032816
 40
0.037257
 50
131.054814
 51
135.0
  0
ARC
  8
APS_GEOMETRY
 10
0.10438
 20
-0.067692
 40
0.083507
 50
129.289407
 51
131.054814
  0
ARC
  8
APS_GEOMETRY
 10
0.051611
 20
-0.003197
 40
0.000175
 50
90.0
 51
129.289407
  0
ARC
  8
APS_GEOMETRY
 10
0.051611
 20
-0.003576
 40
0.000555
 50
42.878904
 51
90.0
  0
ARC
  8
APS_GEOMETRY
 10
0.043704
 20
-0.010919
 40
0.011346
 50
32.735226
 51
42.878904
  0
ARC
  8
APS_GEOMETRY
 10
0.066765
 20
-0.026908
 40
0.002989
 50
285.945396
 51
296.565051
  0
ARC
  8
APS_GEOMETRY
 10
0.067221
 20
-0.028503
 40
0.001331
 50
270.0
 51
285.945396
  0
LINE
  8
APS_GEOMETRY
 10
0.067221
 11
0.066686
 20
-0.029834
 21
-0.029582
  0
LINE
  8
APS_GEOMETRY
 10
0.066686
 11
0.064325
 20
-0.029582
 21
-0.028827
  0
LINE
  8
APS_GEOMETRY
 10
0.064325
 11
0.064325
 20
-0.028827
 21
-0.028197
  0
LINE
  8
APS_GEOMETRY
 10
0.064325
 11
0.065081
 20
-0.028197
 21
-0.028197
  0
ARC
  8
APS_GEOMETRY
 10
0.065081
 20
-0.030501
 40
0.002304
 50
74.577839
 51
90.0
  0
ARC
  8
APS_GEOMETRY
 10
0.063053
 20
-0.037852
 40
0.009929
 50
67.166346
 51
74.577839
  0
ARC
  8
APS_GEOMETRY
 10
0.064914
 20
-0.033432
 40
0.005133
 50
53.615648
 51
67.166346
  0
ARC
  8
APS_GEOMETRY
 10
0.06775
 20
-0.029582
 40
0.000351
 50
0.0
 51
53.615648
  0
LINE
  8
APS_GEOMETRY
 10
0.068983
 11
0.068605
 20
-0.034743
 21
-0.034995
  0
LINE
  8
APS_GEOMETRY
 10
0.068605
 11
0.068102
 20
-0.034995
 21
-0.034995
  0
LINE
  8
APS_GEOMETRY
 10
0.068102
 11
0.06785
 20
-0.034995
 21
-0.034743
  0
ARC
  8
APS_GEOMETRY
 10
0.068528
 20
-0.030678
 40
0.004121
 50
250.016893
 51
260.537678
  0
ARC
  8
APS_GEOMETRY
 10
0.068412
 20
-0.030995
 40
0.003784
 50
239.036243
 51
250.016893
  0
LINE
  8
APS_GEOMETRY
 10
0.066465
 11
0.066465
 20
-0.03424
 21
-0.033736
  0
ARC
  8
APS_GEOMETRY
 10
0.067493
 20
-0.033736
 40
0.001027
 50
161.565051
 51
180.0
  0
ARC
  8
APS_GEOMETRY
 10
0.066591
 20
-0.033436
 40
0.000077
 50
90.0
 51
161.565051
  0
ARC
  8
APS_GEOMETRY
 10
0.066591
 20
-0.03538
 40
0.002021
 50
59.931417
 51
90.0
  0
ARC
  8
APS_GEOMETRY
 10
0.064711
 20
-0.038626
 40
0.005773
 50
42.273689
 51
59.931417
  0
ARC
  8
APS_GEOMETRY
 10
0.05501
 20
-0.031097
 40
0.001263
 50
90.0
 51
101.309932
  0
ARC
  8
APS_GEOMETRY
 10
0.055385
 20
-0.032974
 40
0.003177
 50
101.309932
 51
108.434949
  0
LINE
  8
APS_GEOMETRY
 10
0.054381
 11
0.05394
 20
-0.02996
 21
-0.02996
  0
LINE
  8
APS_GEOMETRY
 10
0.05394
 11
0.053625
 20
-0.02996
 21
-0.02996
  0
LINE
  8
APS_GEOMETRY
 10
0.053625
 11
0.052996
 20
-0.02996
 21
-0.02996
  0
LINE
  8
APS_GEOMETRY
 10
0.052996
 11
0.052367
 20
-0.02996
 21
-0.02996
  0
LINE
  8
APS_GEOMETRY
 10
0.052367
 11
0.052367
 20
-0.02996
 21
-0.029079
  0
ARC
  8
APS_GEOMETRY
 10
0.053486
 20
-0.030198
 40
0.001583
 50
116.565051
 51
135.0
  0
ARC
  8
APS_GEOMETRY
 10
0.053122
 20
-0.02947
 40
0.000769
 50
90.0
 51
116.565051
  0
LINE
  8
APS_GEOMETRY
 10
0.053122
 11
0.053279
 20
-0.028701
 21
-0.028858
  0
LINE
  8
APS_GEOMETRY
 10
0.053279
 11
0.05501
 20
-0.028858
 21
-0.02933
  0
LINE
  8
APS_GEOMETRY
 10
0.05501
 11
0.05501
 20
-0.02933
 21
-0.029834
  0
ARC
  8
APS_GEOMETRY
 10
0.061148
 20
-0.026608
 40
0.002427
 50
315.0
 51
333.434949
  0
ARC
  8
APS_GEOMETRY
 10
0.062563
 20
-0.028024
 40
0.000425
 50
270.0
 51
315.0
  0
ARC
  8
APS_GEOMETRY
 10
0.062563
 20
-0.024413
 40
0.004036
 50
262.874984
 51
270.0
  0
ARC
  8
APS_GEOMETRY
 10
0.064141
 20
-0.011786
 40
0.016762
 50
259.380345
 51
262.874984
  0
ARC
  8
APS_GEOMETRY
 10
0.058195
 20
-0.043502
 40
0.015507
 50
79.380345
 51
83.157227
  0
ARC
  8
APS_GEOMETRY
 10
0.059479
 20
-0.0328
 40
0.004728
 50
83.157227
 51
90.0
  0
ARC
  8
APS_GEOMETRY
 10
0.059479
 20
-0.025601
 40
0.002471
 50
257.005383
 51
270.0
  0
ARC
  8
APS_GEOMETRY
 10
0.061174
 20
-0.018253
 40
0.010011
 50
250.559965
 51
257.005383
  0
ARC
  8
APS_GEOMETRY
 10
0.054228
 20
-0.037935
 40
0.01086
 50
70.559965
 51
76.504267
  0
ARC
  8
APS_GEOMETRY
 10
0.056269
 20
-0.029431
 40
0.002115
 50
76.504267
 51
90.0
  0
ARC
  8
APS_GEOMETRY
 10
0.056269
 20
-0.028348
 40
0.001032
 50
90.0
 51
131.987212
  0
ARC
  8
APS_GEOMETRY
 10
0.056938
 20
-0.029092
 40
0.002033
 50
131.987212
 51
161.565051
  0
LINE
  8
APS_GEOMETRY
 10
0.05501
 11
0.053751
 20
-0.028449
 21
-0.028449
  0
ARC
  8
APS_GEOMETRY
 10
0.053751
 20
-0.027518
 40
0.000931
 50
254.744881
 51
270.0
  0
ARC
  8
APS_GEOMETRY
 10
0.054406
 20
-0.025117
 40
0.00342
 50
246.801409
 51
254.744881
  0
ARC
  8
APS_GEOMETRY
 10
0.051712
 20
-0.031404
 40
0.00342
 50
66.801409
 51
74.744881
  0
ARC
  8
APS_GEOMETRY
 10
0.052367
 20
-0.029003
 40
0.000931
 50
74.744881
 51
90.0
  0
ARC
  8
APS_GEOMETRY
 10
0.052367
 20
-0.032035
 40
0.003963
 50
90.0
 51
111.317912
  0
ARC
  8
APS_GEOMETRY
 10
0.062241
 20
-0.057337
 40
0.031124
 50
111.317912
 51
118.886582
  0
ARC
  8
APS_GEOMETRY
 10
-0.02526
 20
0.101259
 40
0.150009
 50
297.299572
 51
298.886582
  0
ARC
  8
APS_GEOMETRY
 10
0.043303
 20
-0.031583
 40
0.000517
 50
270.0
 51
297.299572
  0
LINE
  8
APS_GEOMETRY
 10
0.043303
 11
0.040408
 20
-0.0321
 21
-0.033988
  0
LINE
  8
APS_GEOMETRY
 10
0.040408
 11
0.040156
 20
-0.033988
 21
-0.033107
  0
ARC
  8
APS_GEOMETRY
 10
0.09765
 20
-0.131924
 40
0.114326
 50
116.211378
 51
120.191623
  0
ARC
  8
APS_GEOMETRY
 10
0.048338
 20
-0.03176
 40
0.002682
 50
90.0
 51
116.211378
  0
ARC
  8
APS_GEOMETRY
 10
0.048338
 20
-0.028758
 40
0.00032
 50
270.0
 51
291.801409
  0
ARC
  8
APS_GEOMETRY
 10
0.048061
 20
-0.028064
 40
0.001068
 50
291.801409
 51
303.690068
  0
ARC
  8
APS_GEOMETRY
 10
0.047206
 20
-0.026782
 40
0.002608
 50
303.690068
 51
308.659808
  0
ARC
  8
APS_GEOMETRY
 10
0.047834
 20
-0.027567
 40
0.001603
 50
308.659808
 51
315.0
  0
ARC
  8
APS_GEOMETRY
 10
0.052973
 20
-0.033564
 40
0.0063
 50
105.350136
 51
129.47246
  0
ARC
  8
APS_GEOMETRY
 10
0.055388
 20
-0.042361
 40
0.015422
 50
90.0
 51
105.350136
  0
ARC
  8
APS_GEOMETRY
 10
0.055846
 20
-0.027091
 40
0.000483
 50
120.963757
 51
161.565051
  0
ARC
  8
APS_GEOMETRY
 10
0.056017
 20
-0.027377
 40
0.000816
 50
90.0
 51
120.963757
  0
ARC
  8
APS_GEOMETRY
 10
0.056017
 20
-0.032991
 40
0.00643
 50
83.290163
 51
90.0
  0
ARC
  8
APS_GEOMETRY
 10
0.054153
 20
-0.048834
 40
0.022382
 50
79.695154
 51
83.290163
  0
ARC
  8
APS_GEOMETRY
 10
0.061289
 20
-0.009588
 40
0.017507
 50
259.695154
 51
264.289407
  0
ARC
  8
APS_GEOMETRY
 10
0.060675
 20
-0.01573
 40
0.011335
 50
264.289407
 51
270.0
  0
ARC
  8
APS_GEOMETRY
 10
0.060675
 20
-0.028664
 40
0.0016
 50
76.607502
 51
90.0
  0
ARC
  8
APS_GEOMETRY
 10
0.058441
 20
-0.038044
 40
0.011242
 50
71.565051
 51
76.607502
  0
ARC
  8
APS_GEOMETRY
 10
0.065552
 20
-0.016714
 40
0.011242
 50
251.565051
 51
256.607502
  0
ARC
  8
APS_GEOMETRY
 10
0.063318
 20
-0.026094
 40
0.0016
 50
256.607502
 51
270.0
  0
ARC
  8
APS_GEOMETRY
 10
0.056434
 20
-0.024286
 40
0.001868
 50
276.340192
 51
288.434949
  0
ARC
  8
APS_GEOMETRY
 10
0.055891
 20
-0.019405
 40
0.006778
 50
270.0
 51
276.340192
  0
LINE
  8
APS_GEOMETRY
 10
0.055891
 11
0.055545
 20
-0.026183
 21
-0.026057
  0
LINE
  8
APS_GEOMETRY
 10
0.055545
 11
0.053499
 20
-0.026057
 21
-0.02568
  0
LINE
  8
APS_GEOMETRY
 10
0.053499
 11
0.053248
 20
-0.02568
 21
-0.025176
  0
ARC
  8
APS_GEOMETRY
 10
0.047275
 20
-0.017876
 40
0.009432
 50
309.289407
 51
319.763642
  0
ARC
  8
APS_GEOMETRY
 10
0.053968
 20
-0.02354
 40
0.000664
 50
319.763642
 51
0.0
  0
ARC
  8
APS_GEOMETRY
 10
0.052942
 20
-0.02354
 40
0.00169
 50
0.0
 51
24.775141
  0
ARC
  8
APS_GEOMETRY
 10
0.042786
 20
-0.028227
 40
0.012876
 50
24.775141
 51
33.690068
  0
ARC
  8
APS_GEOMETRY
 10
0.065852
 20
-0.01285
 40
0.014846
 50
205.942295
 51
213.690068
  0
ARC
  8
APS_GEOMETRY
 10
0.053712
 20
-0.018756
 40
0.001345
 50
180.0
 51
205.942295
  0
LINE
  8
APS_GEOMETRY
 10
0.052367
 11
0.052744
 20
-0.018756
 21
-0.018127
  0
ARC
  8
APS_GEOMETRY
 10
0.051783
 20
-0.018608
 40
0.001075
 50
26.565051
 51
55.00798
  0
ARC
  8
APS_GEOMETRY
 10
0.050042
 20
-0.021094
 40
0.00411
 50
55.00798
 51
69.443955
  0
LINE
  8
APS_GEOMETRY
 10
0.051485
 11
0.051485
 20
-0.017246
 21
-0.016742
  0
ARC
  8
APS_GEOMETRY
 10
0.034033
 20
-0.001229
 40
0.023351
 50
318.366461
 51
329.23728
  0
ARC
  8
APS_GEOMETRY
 10
0.050782
 20
-0.011198
 40
0.003859
 50
329.23728
 51
356.185925
  0
LINE
  8
APS_GEOMETRY
 10
0.054632
 11
0.054632
 20
-0.011455
 21
-0.008969
  0
LINE
  8
APS_GEOMETRY
 10
0.054632
 11
0.054632
 20
-0.008969
 21
-0.006042
  0
ARC
  8
APS_GEOMETRY
 10
0.052657
 20
-0.006437
 40
0.002015
 50
11.309932
 51
29.291362
  0
ARC
  8
APS_GEOMETRY
 10
0.030174
 20
-0.01905
 40
0.027793
 50
29.291362
 51
34.114473
  0
ARC
  8
APS_GEOMETRY
 10
0.04335
 20
-0.010124
 40
0.011879
 50
34.114473
 51
45.0
  0
ARC
  8
APS_GEOMETRY
 10
0.051234
 20
-0.00224
 40
0.00073
 50
45.0
 51
90.0
  0
LINE
  8
APS_GEOMETRY
 10
0.051234
 11
0.047205
 20
-0.001511
 21
-0.004406
  0
LINE
  8
APS_GEOMETRY
 10
0.047205
 11
0.046828
 20
-0.004406
 21
-0.004154
  0
LINE
  8
APS_GEOMETRY
 10
0.046828
 11
0.04645
 20
-0.004154
 21
-0.004406
  0
ARC
  8
APS_GEOMETRY
 10
0.045071
 20
-0.005325
 40
0.001658
 50
18.434949
 51
33.690068
  0
ARC
  8
APS_GEOMETRY
 10
0.045564
 20
-0.005161
 40
0.001138
 50
0.0
 51
18.434949
  0
ARC
  8
APS_GEOMETRY
 10
0.045397
 20
-0.005161
 40
0.001305
 50
333.434949
 51
0.0
  0
ARC
  8
APS_GEOMETRY
 10
0.038926
 20
-0.001926
 40
0.00854
 50
323.130102
 51
333.434949
  0
ARC
  8
APS_GEOMETRY
 10
0.049159
 20
-0.0096
 40
0.004252
 50
143.130102
 51
163.663957
  0
ARC
  8
APS_GEOMETRY
 10
0.05471
 20
-0.011227
 40
0.010036
 50
163.663957
 51
176.987212
  0
LINE
  8
APS_GEOMETRY
 10
0.044688
 11
0.044688
 20
-0.0107
 21
-0.011203
  0
ARC
  8
APS_GEOMETRY
 10
0.044126
 20
-0.009519
 40
0.001775
 50
275.710593
 51
288.434949
  0
ARC
  8
APS_GEOMETRY
 10
0.043429
 20
-0.002545
 40
0.008785
 50
270.0
 51
275.710593
  0
ARC
  8
APS_GEOMETRY
 10
0.036024
 20
-0.017253
 40
0.009483
 50
38.659808
 51
48.2397
  0
ARC
  8
APS_GEOMETRY
 10
0.040747
 20
-0.011964
 40
0.002392
 50
48.2397
 51
67.380135
  0
ARC
  8
APS_GEOMETRY
 10
0.03915
 20
-0.015795
 40
0.006543
 50
67.380135
 51
74.475889
  0
ARC
  8
APS_GEOMETRY
 10
0.040534
 20
-0.010815
 40
0.001374
 50
74.475889
 51
90.0
  0
ARC
  8
APS_GEOMETRY
 10
0.040534
 20
-0.009887
 40
0.000446
 50
90.0
 51
105.945396
  0
ARC
  8
APS_GEOMETRY
 10
0.041315
 20
-0.012621
 40
0.00329
 50
105.945396
 51
111.801409
  0
ARC
  8
APS_GEOMETRY
 10
0.038871
 20
-0.006513
 40
0.00329
 50
285.945396
 51
291.801409
  0
ARC
  8
APS_GEOMETRY
 10
0.039653
 20
-0.009247
 40
0.000446
 50
270.0
 51
285.945396
  0
ARC
  8
APS_GEOMETRY
 10
0.039653
 20
-0.008303
 40
0.00139
 50
259.695154
 51
270.0
  0
ARC
  8
APS_GEOMETRY
 10
0.040232
 20
-0.005115
 40
0.00463
 50
254.054604
 51
259.695154
  0
ARC
  8
APS_GEOMETRY
 10
0.037688
 20
-0.014019
 40
0.00463
 50
74.054604
 51
79.695154
  0
ARC
  8
APS_GEOMETRY
 10
0.038268
 20
-0.010831
 40
0.00139
 50
79.695154
 51
90.0
  0
ARC
  8
APS_GEOMETRY
 10
0.038268
 20
-0.009941
 40
0.0005
 50
90.0
 51
116.565051
  0
ARC
  8
APS_GEOMETRY
 10
0.038223
 20
-0.009852
 40
0.0004
 50
116.565051
 51
146.309932
  0
ARC
  8
APS_GEOMETRY
 10
0.037557
 20
-0.009408
 40
0.0004
 50
296.565051
 51
326.309932
  0
ARC
  8
APS_GEOMETRY
 10
0.037513
 20
-0.009319
 40
0.0005
 50
270.0
 51
296.565051
  0
ARC
  8
APS_GEOMETRY
 10
0.037513
 20
-0.007538
 40
0.00228
 50
240.802514
 51
270.0
  0
ARC
  8
APS_GEOMETRY
 10
0.03798
 20
-0.006701
 40
0.003239
 50
216.384352
 51
240.802514
  0
ARC
  8
APS_GEOMETRY
 10
0.028834
 20
-0.01344
 40
0.008121
 50
36.384352
 51
46.468801
  0
ARC
  8
APS_GEOMETRY
 10
0.034114
 20
-0.007883
 40
0.000456
 50
46.468801
 51
90.0
  0
ARC
  8
APS_GEOMETRY
 10
0.034114
 20
-0.008434
 40
0.001007
 50
90.0
 51
135.0
  0
ARC
  8
APS_GEOMETRY
 10
0.034114
 20
-0.008434
 40
0.001007
 50
135.0
 51
180.0
  0
LINE
  8
APS_GEOMETRY
 10
0.033107
 11
0.033359
 20
-0.008434
 21
-0.009063
  0
ARC
  8
APS_GEOMETRY
 10
0.031292
 20
-0.006997
 40
0.002923
 50
297.897271
 51
315.0
  0
ARC
  8
APS_GEOMETRY
 10
0.028214
 20
-0.001184
 40
0.0095
 50
288.434949
 51
297.897271
  0
ARC
  8
APS_GEOMETRY
 10
0.024136
 20
-0.034985
 40
0.02578
 50
74.054604
 51
78.111342
  0
ARC
  8
APS_GEOMETRY
 10
0.028827
 20
-0.012704
 40
0.003011
 50
78.111342
 51
90.0
  0
ARC
  8
APS_GEOMETRY
 10
0.028827
 20
-0.010339
 40
0.000646
 50
90.0
 51
111.801409
  0
ARC
  8
APS_GEOMETRY
 10
0.03102
 20
-0.015823
 40
0.006552
 50
111.801409
 51
118.61046
  0
ARC
  8
APS_GEOMETRY
 10
0.024745
 20
-0.004318
 40
0.006552
 50
291.801409
 51
298.61046
  0
ARC
  8
APS_GEOMETRY
 10
0.026939
 20
-0.009802
 40
0.000646
 50
270.0
 51
291.801409
  0
ARC
  8
APS_GEOMETRY
 10
0.026939
 20
-0.009679
 40
0.000769
 50
243.434949
 51
270.0
  0
ARC
  8
APS_GEOMETRY
 10
0.027302
 20
-0.008951
 40
0.001583
 50
225.0
 51
243.434949
  0
LINE
  8
APS_GEOMETRY
 10
0.026183
 11
0.026561
 20
-0.01007
 21
-0.01007
  0
ARC
  8
APS_GEOMETRY
 10
0.026561
 20
-0.008981
 40
0.00109
 50
270.0
 51
299.744881
  0
ARC
  8
APS_GEOMETRY
 10
0.026677
 20
-0.009185
 40
0.000855
 50
299.744881
 51
333.434949
  0
ARC
  8
APS_GEOMETRY
 10
0.027094
 20
-0.009741
 40
0.000389
 50
26.565051
 51
63.434949
  0
ARC
  8
APS_GEOMETRY
 10
0.026939
 20
-0.010052
 40
0.000737
 50
63.434949
 51
90.0
  0
ARC
  8
APS_GEOMETRY
 10
0.026939
 20
-0.009699
 40
0.000383
 50
90.0
 51
108.434949
  0
ARC
  8
APS_GEOMETRY
 10
0.027436
 20
-0.011192
 40
0.001958
 50
108.434949
 51
116.565051
  0
ARC
  8
APS_GEOMETRY
 10
0.025685
 20
-0.00769
 40
0.001958
 50
288.434949
 51
296.565051
  0
ARC
  8
APS_GEOMETRY
 10
0.026183
 20
-0.009184
 40
0.000383
 50
270.0
 51
288.434949
  0
ARC
  8
APS_GEOMETRY
 10
0.026183
 20
-0.009247
 40
0.00032
 50
248.198591
 51
270.0
  0
ARC
  8
APS_GEOMETRY
 10
0.026461
 20
-0.008553
 40
0.001068
 50
236.309932
 51
248.198591
  0
ARC
  8
APS_GEOMETRY
 10
0.025276
 20
-0.01033
 40
0.001068
 50
56.309932
 51
68.198591
  0
ARC
  8
APS_GEOMETRY
 10
0.025554
 20
-0.009635
 40
0.00032
 50
68.198591
 51
90.0
  0
ARC
  8
APS_GEOMETRY
 10
0.025554
 20
-0.009685
 40
0.00037
 50
90.0
 51
153.434949
  0
ARC
  8
APS_GEOMETRY
 10
0.029355
 20
-0.011585
 40
0.004619
 50
153.434949
 51
170.537678
  0
ARC
  8
APS_GEOMETRY
 10
0.02718
 20
-0.017969
 40
0.00753
 50
108.434949
 51
117.474432
  0
ARC
  8
APS_GEOMETRY
 10
0.037512
 20
-0.037838
 40
0.029925
 50
117.474432
 51
122.005383
  0
LINE
  8
APS_GEOMETRY
 10
0.021652
 11
0.021022
 20
-0.012462
 21
-0.012085
  0
ARC
  8
APS_GEOMETRY
 10
0.02149
 20
-0.012553
 40
0.000662
 50
135.0
 51
164.054604
  0
ARC
  8
APS_GEOMETRY
 10
0.022936
 20
-0.012966
 40
0.002165
 50
164.054604
 51
180.0
  0
LINE
  8
APS_GEOMETRY
 10
0.02077
 11
0.020645
 20
-0.012966
 21
-0.012588
  0
ARC
  8
APS_GEOMETRY
 10
0.0243
 20
-0.013807
 40
0.003853
 50
161.565051
 51
167.471192
  0
ARC
  8
APS_GEOMETRY
 10
0.034482
 20
-0.016069
 40
0.014284
 50
167.471192
 51
170.537678
  0
ARC
  8
APS_GEOMETRY
 10
0.021402
 20
-0.011703
 40
0.002257
 50
236.309932
 51
243.434949
  0
ARC
  8
APS_GEOMETRY
 10
0.026429
 20
-0.004163
 40
0.011318
 50
233.130102
 51
236.309932
  0
ARC
  8
APS_GEOMETRY
 10
0.019886
 20
-0.013714
 40
0.000556
 50
116.565051
 51
144.462322
  0
ARC
  8
APS_GEOMETRY
 10
0.023727
 20
-0.016458
 40
0.005276
 50
144.462322
 51
153.434949
  0
ARC
  8
APS_GEOMETRY
 10
0.016112
 20
-0.022785
 40
0.009157
 50
71.565051
 51
74.054604
  0
ARC
  8
APS_GEOMETRY
 10
0.014351
 20
-0.028951
 40
0.015569
 50
74.054604
 51
75.963757
  0
LINE
  8
APS_GEOMETRY
 10
0.018127
 11
0.018127
 20
-0.013847
 21
-0.012085
  0
ARC
  8
APS_GEOMETRY
 10
0.025873
 20
-0.010535
 40
0.0079
 50
191.309932
 51
195.945396
  0
ARC
  8
APS_GEOMETRY
 10
0.019728
 20
-0.012291
 40
0.001509
 50
195.945396
 51
206.565051
  0
ARC
  8
APS_GEOMETRY
 10
0.018122
 20
-0.012709
 40
0.000363
 50
315.0
 51
341.565051
  0
ARC
  8
APS_GEOMETRY
 10
0.017759
 20
-0.012588
 40
0.000746
 50
341.565051
 51
0.0
  0
ARC
  8
APS_GEOMETRY
 10
0.015478
 20
-0.012588
 40
0.003026
 50
0.0
 51
14.036243
  0
ARC
  8
APS_GEOMETRY
 10
0.014733
 20
-0.012774
 40
0.003794
 50
14.036243
 51
26.565051
  0
ARC
  8
APS_GEOMETRY
 10
0.017602
 20
-0.01029
 40
0.000946
 50
303.690068
 51
329.036243
  0
ARC
  8
APS_GEOMETRY
 10
0.017865
 20
-0.010448
 40
0.000639
 50
329.036243
 51
0.0
  0
ARC
  8
APS_GEOMETRY
 10
0.017854
 20
-0.010448
 40
0.000651
 50
0.0
 51
48.012788
  0
ARC
  8
APS_GEOMETRY
 10
0.015943
 20
-0.012571
 40
0.003506
 50
48.012788
 51
68.198591
  0
LINE
  8
APS_GEOMETRY
 10
0.017246
 11
0.016868
 20
-0.009315
 21
-0.009441
  0
ARC
  8
APS_GEOMETRY
 10
0.014606
 20
-0.00831
 40
0.00253
 50
333.434949
 51
345.963757
  0
ARC
  8
APS_GEOMETRY
 10
0.015102
 20
-0.008434
 40
0.002017
 50
345.963757
 51
0.0
  0
ARC
  8
APS_GEOMETRY
 10
0.016698
 20
-0.008434
 40
0.000422
 50
0.0
 51
63.434949
  0
ARC
  8
APS_GEOMETRY
 10
0.016625
 20
-0.008578
 40
0.000583
 50
63.434949
 51
116.565051
  0
ARC
  8
APS_GEOMETRY
 10
0.01964
 20
-0.011332
 40
0.004632
 50
130.601295
 51
135.0
  0
ARC
  8
APS_GEOMETRY
 10
0.032094
 20
-0.025862
 40
0.023769
 50
128.659808
 51
130.601295
  0
LINE
  8
APS_GEOMETRY
 10
0.017246
 11
0.017246
 20
-0.007301
 21
-0.006923
  0
LINE
  8
APS_GEOMETRY
 10
0.017246
 11
0.017088
 20
-0.006923
 21
-0.006923
  0
LINE
  8
APS_GEOMETRY
 10
0.017088
 11
0.016868
 20
-0.006923
 21
-0.006923
  0
LINE
  8
APS_GEOMETRY
 10
0.016868
 11
0.016585
 20
-0.006923
 21
-0.007049
  0
LINE
  8
APS_GEOMETRY
 10
0.016585
 11
0.015735
 20
-0.007049
 21
-0.007427
  0
ARC
  8
APS_GEOMETRY
 10
0.010359
 20
-0.003126
 40
0.006884
 50
321.340192
 51
327.994617
  0
ARC
  8
APS_GEOMETRY
 10
0.014789
 20
-0.005895
 40
0.001661
 50
327.994617
 51
341.565051
  0
ARC
  8
APS_GEOMETRY
 10
0.015149
 20
-0.001557
 40
0.005012
 50
278.130102
 51
284.036243
  0
ARC
  8
APS_GEOMETRY
 10
0.015483
 20
-0.003899
 40
0.002647
 50
270.0
 51
278.130102
  0
ARC
  8
APS_GEOMETRY
 10
0.014746
 20
-0.005072
 40
0.001648
 50
296.565051
 51
323.130102
  0
ARC
  8
APS_GEOMETRY
 10
0.015369
 20
-0.005539
 40
0.00087
 50
323.130102
 51
0.0
  0
LINE
  8
APS_GEOMETRY
 10
0.016239
 11
0.01605
 20
-0.005539
 21
-0.005476
  0
LINE
  8
APS_GEOMETRY
 10
0.01605
 11
0.015483
 20
-0.005476
 21
-0.004532
  0
LINE
  8
APS_GEOMETRY
 10
0.015483
 11
0.015987
 20
-0.004532
 21
-0.004154
  0
ARC
  8
APS_GEOMETRY
 10
0.006028
 20
-0.018382
 40
0.017367
 50
36.158185
 51
55.00798
  0
ARC
  8
APS_GEOMETRY
 10
0.016973
 20
-0.010383
 40
0.003811
 50
355.236358
 51
36.158185
  0
ARC
  8
APS_GEOMETRY
 10
0.02077
 20
-0.011209
 40
0.000509
 50
75.963757
 51
90.0
  0
ARC
  8
APS_GEOMETRY
 10
0.019643
 20
-0.015719
 40
0.005158
 50
71.565051
 51
75.963757
  0
ARC
  8
APS_GEOMETRY
 10
0.021274
 20
-0.010334
 40
0.000492
 50
270.0
 51
330.255119
  0
ARC
  8
APS_GEOMETRY
 10
0.020987
 20
-0.01017
 40
0.000822
 50
330.255119
 51
15.945396
  0
LINE
  8
APS_GEOMETRY
 10
0.021777
 11
0.022533
 20
-0.009945
 21
-0.01007
  0
ARC
  8
APS_GEOMETRY
 10
0.022276
 20
-0.009814
 40
0.000363
 50
315.0
 51
341.565051
  0
ARC
  8
APS_GEOMETRY
 10
0.021913
 20
-0.009693
 40
0.000746
 50
341.565051
 51
0.0
  0
ARC
  8
APS_GEOMETRY
 10
0.020791
 20
-0.009693
 40
0.001868
 50
0.0
 51
29.291362
  0
ARC
  8
APS_GEOMETRY
 10
0.01468
 20
-0.013121
 40
0.008874
 50
29.291362
 51
42.614056
  0
ARC
  8
APS_GEOMETRY
 10
0.015838
 20
-0.012055
 40
0.0073
 50
42.614056
 51
58.626995
  0
ARC
  8
APS_GEOMETRY
 10
0.01863
 20
-0.007476
 40
0.001937
 50
58.626995
 51
90.0
  0
ARC
  8
APS_GEOMETRY
 10
0.003754
 20
-0.026366
 40
0.025594
 50
54.462322
 51
59.300277
  0
ARC
  8
APS_GEOMETRY
 10
-0.001067
 20
-0.034484
 40
0.035036
 50
59.300277
 51
63.434949
  0
ARC
  8
APS_GEOMETRY
 10
0.005083
 20
-0.001957
 40
0.009593
 50
346.827447
 51
352.874984
  0
ARC
  8
APS_GEOMETRY
 10
-0.023089
 20
0.004636
 40
0.038526
 50
343.810794
 51
346.827447
  0
LINE
  8
APS_GEOMETRY
 10
0.01391
 11
0.013485
 20
-0.006105
 21
-0.007569
  0
LINE
  8
APS_GEOMETRY
 10
0.013485
 11
0.013343
 20
-0.007569
 21
-0.008056
  0
ARC
  8
APS_GEOMETRY
 10
0.017771
 20
-0.008056
 40
0.004427
 50
180.0
 51
191.309932
  0
ARC
  8
APS_GEOMETRY
 10
0.029938
 20
-0.005623
 40
0.016836
 50
191.309932
 51
197.102729
  0
ARC
  8
APS_GEOMETRY
 10
-0.013409
 20
-0.01896
 40
0.028517
 50
13.671307
 51
17.102729
  0
ARC
  8
APS_GEOMETRY
 10
0.009753
 20
-0.013327
 40
0.00468
 50
5.194429
 51
13.671307
  0
ARC
  8
APS_GEOMETRY
 10
0.027919
 20
-0.011675
 40
0.013561
 50
185.194429
 51
188.130102
  0
ARC
  8
APS_GEOMETRY
 10
0.079672
 20
-0.004282
 40
0.06584
 50
188.130102
 51
189.462322
  0
ARC
  8
APS_GEOMETRY
 10
0.020462
 20
-0.012239
 40
0.006411
 50
206.565051
 51
226.041627
  0
ARC
  8
APS_GEOMETRY
 10
0.023341
 20
-0.009253
 40
0.010558
 50
226.041627
 51
241.189206
  0
ARC
  8
APS_GEOMETRY
 10
0.010765
 20
-0.017381
 40
0.007572
 50
332.818889
 51
351.469234
  0
ARC
  8
APS_GEOMETRY
 10
0.008463
 20
-0.0162
 40
0.010159
 50
316.735705
 51
332.818889
  0
LINE
  8
APS_GEOMETRY
 10
0.015861
 11
0.015861
 20
-0.023162
 21
-0.028827
  0
LINE
  8
APS_GEOMETRY
 10
0.015861
 11
0.01605
 20
-0.028827
 21
-0.029141
  0
LINE
  8
APS_GEOMETRY
 10
0.01605
 11
0.016616
 20
-0.029141
 21
-0.030086
  0
ARC
  8
APS_GEOMETRY
 10
0.012886
 20
-0.032324
 40
0.004351
 50
12.264774
 51
30.963757
  0
ARC
  8
APS_GEOMETRY
 10
0.011793
 20
-0.032561
 40
0.005468
 50
355.601295
 51
12.264774
  0
LINE
  8
APS_GEOMETRY
 10
0.017246
 11
0.017246
 20
-0.032981
 21
-0.03424
  0
LINE
  8
APS_GEOMETRY
 10
0.017246
 11
0.016616
 20
-0.03424
 21
-0.03424
  0
ARC
  8
APS_GEOMETRY
 10
0.076033
 20
0.010322
 40
0.07427
 50
216.384352
 51
216.869898
  0
ARC
  8
APS_GEOMETRY
 10
0.126856
 20
0.047772
 40
0.137401
 50
216.027373
 51
216.384352
  0
ARC
  8
APS_GEOMETRY
 10
0.013363
 20
-0.034769
 40
0.002934
 50
36.027373
 51
51.842773
  0
ARC
  8
APS_GEOMETRY
 10
0.014854
 20
-0.032871
 40
0.00052
 50
51.842773
 51
90.0
  0
ARC
  8
APS_GEOMETRY
 10
0.014854
 20
-0.032608
 40
0.000256
 50
90.0
 51
116.565051
  0
ARC
  8
APS_GEOMETRY
 10
0.014975
 20
-0.03285
 40
0.000528
 50
116.565051
 51
135.0
  0
ARC
  8
APS_GEOMETRY
 10
0.010175
 20
-0.032477
 40
0.004427
 50
0.0
 51
11.309932
  0
ARC
  8
APS_GEOMETRY
 10
-0.001992
 20
-0.034911
 40
0.016836
 50
11.309932
 51
17.102729
  0
ARC
  8
APS_GEOMETRY
 10
0.031984
 20
-0.024457
 40
0.018712
 50
191.888658
 51
197.102729
  0
ARC
  8
APS_GEOMETRY
 10
0.017205
 20
-0.027568
 40
0.00361
 50
180.0
 51
191.888658
  0
ARC
  8
APS_GEOMETRY
 10
0.014902
 20
-0.027568
 40
0.001307
 50
153.434949
 51
180.0
  0
ARC
  8
APS_GEOMETRY
 10
0.022804
 20
-0.031519
 40
0.010142
 50
143.972627
 51
153.434949
  0
LINE
  8
APS_GEOMETRY
 10
0.014602
 11
0.014602
 20
-0.025554
 21
-0.024924
  0
ARC
  8
APS_GEOMETRY
 10
0.014602
 20
-0.023062
 40
0.001862
 50
254.744881
 51
270.0
  0
ARC
  8
APS_GEOMETRY
 10
0.015912
 20
-0.01826
 40
0.00684
 50
246.801409
 51
254.744881
  0
ARC
  8
APS_GEOMETRY
 10
0.016196
 20
-0.025043
 40
0.00302
 50
156.194056
 51
170.537678
  0
ARC
  8
APS_GEOMETRY
 10
0.025774
 20
-0.029269
 40
0.013488
 50
149.420773
 51
156.194056
  0
ARC
  8
APS_GEOMETRY
 10
0.007988
 20
-0.018759
 40
0.007171
 50
329.420773
 51
341.995838
  0
ARC
  8
APS_GEOMETRY
 10
0.011467
 20
-0.019889
 40
0.003513
 50
341.995838
 51
0.0
  0
ARC
  8
APS_GEOMETRY
 10
0.011042
 20
-0.019889
 40
0.003937
 50
0.0
 51
24.676863
  0
ARC
  8
APS_GEOMETRY
 10
-0.000861
 20
-0.025358
 40
0.017037
 50
24.676863
 51
36.469234
  0
LINE
  8
APS_GEOMETRY
 10
0.01284
 11
0.01284
 20
-0.015232
 21
-0.014602
  0
ARC
  8
APS_GEOMETRY
 10
0.00695
 20
-0.014602
 40
0.00589
 50
0.0
 51
8.530766
  0
ARC
  8
APS_GEOMETRY
 10
-0.008471
 20
-0.016915
 40
0.021483
 50
8.530766
 51
12.994617
  0
ARC
  8
APS_GEOMETRY
 10
0.033395
 20
-0.007254
 40
0.021483
 50
188.530766
 51
192.994617
  0
ARC
  8
APS_GEOMETRY
 10
0.017975
 20
-0.009567
 40
0.00589
 50
180.0
 51
188.530766
  0
ARC
  8
APS_GEOMETRY
 10
0.022382
 20
-0.009567
 40
0.010298
 50
171.634114
 51
180.0
  0
ARC
  8
APS_GEOMETRY
 10
0.048345
 20
-0.013385
 40
0.03654
 50
167.195734
 51
171.634114
  0
ARC
  8
APS_GEOMETRY
 10
0.029682
 20
-0.008923
 40
0.017353
 50
156.801409
 51
167.905243
  0
ARC
  8
APS_GEOMETRY
 10
0.014225
 20
-0.002298
 40
0.000536
 50
90.0
 51
156.801409
  0
ARC
  8
APS_GEOMETRY
 10
0.014225
 20
-0.002717
 40
0.000955
 50
75.068583
 51
90.0
  0
ARC
  8
APS_GEOMETRY
 10
0.012332
 20
-0.009816
 40
0.008302
 50
70.016893
 51
75.068583
  0
ARC
  8
APS_GEOMETRY
 10
0.018006
 20
0.005788
 40
0.008302
 50
250.016893
 51
255.068583
  0
ARC
  8
APS_GEOMETRY
 10
0.016113
 20
-0.001311
 40
0.000955
 50
255.068583
 51
270.0
  0
ARC
  8
APS_GEOMETRY
 10
0.015398
 20
-0.007267
 40
0.005052
 50
62.281498
 51
81.869898
  0
ARC
  8
APS_GEOMETRY
 10
0.012705
 20
-0.012393
 40
0.010843
 50
48.945186
 51
62.281498
  0
ARC
  8
APS_GEOMETRY
 10
0.033419
 20
0.011389
 40
0.020696
 50
228.945186
 51
236.003541
  0
ARC
  8
APS_GEOMETRY
 10
0.022818
 20
-0.004329
 40
0.001737
 50
236.003541
 51
260.537678
  0
ARC
  8
APS_GEOMETRY
 10
0.022054
 20
-0.006521
 40
0.000678
 50
30.068583
 51
45.0
  0
ARC
  8
APS_GEOMETRY
 10
-0.004936
 20
-0.022147
 40
0.031864
 50
27.897271
 51
30.068583
  0
ARC
  8
APS_GEOMETRY
 10
0.026012
 20
-0.005763
 40
0.003153
 50
207.897271
 51
228.17983
  0
ARC
  8
APS_GEOMETRY
 10
0.024421
 20
-0.007541
 40
0.000767
 50
228.17983
 51
270.0
  0
ARC
  8
APS_GEOMETRY
 10
0.024421
 20
-0.006784
 40
0.001525
 50
270.0
 51
284.036243
  0
ARC
  8
APS_GEOMETRY
 10
0.022492
 20
0.000932
 40
0.009478
 50
284.036243
 51
289.653824
  0
ARC
  8
APS_GEOMETRY
 10
0.030023
 20
-0.020153
 40
0.012912
 50
105.524111
 51
109.653824
  0
ARC
  8
APS_GEOMETRY
 10
0.026813
 20
-0.008598
 40
0.000919
 50
90.0
 51
105.524111
  0
ARC
  8
APS_GEOMETRY
 10
0.026813
 20
-0.008735
 40
0.001056
 50
58.570434
 51
90.0
  0
ARC
  8
APS_GEOMETRY
 10
0.026306
 20
-0.009563
 40
0.002027
 50
36.027373
 51
58.570434
  0
ARC
  8
APS_GEOMETRY
 10
0.030318
 20
-0.006646
 40
0.002934
 50
216.027373
 51
231.842773
  0
ARC
  8
APS_GEOMETRY
 10
0.028827
 20
-0.008544
 40
0.00052
 50
231.842773
 51
270.0
  0
ARC
  8
APS_GEOMETRY
 10
0.028827
 20
-0.008986
 40
0.000077
 50
270.0
 51
341.565051
  0
ARC
  8
APS_GEOMETRY
 10
0.027925
 20
-0.008686
 40
0.001027
 50
341.565051
 51
0.0
  0
ARC
  8
APS_GEOMETRY
 10
0.028186
 20
-0.008686
 40
0.000767
 50
0.0
 51
34.99202
  0
ARC
  8
APS_GEOMETRY
 10
0.025203
 20
-0.010774
 40
0.004408
 50
34.99202
 51
49.398705
  0
LINE
  8
APS_GEOMETRY
 10
0.028072
 11
0.028072
 20
-0.007427
 21
-0.006923
  0
ARC
  8
APS_GEOMETRY
 10
0.028661
 20
-0.007513
 40
0.000833
 50
111.801409
 51
135.0
  0
ARC
  8
APS_GEOMETRY
 10
0.028701
 20
-0.007613
 40
0.000942
 50
90.0
 51
111.801409
  0
LINE
  8
APS_GEOMETRY
 10
0.028701
 11
0.029456
 20
-0.006672
 21
-0.007175
  0
LINE
  8
APS_GEOMETRY
 10
0.029456
 11
0.030054
 20
-0.007175
 21
-0.006798
  0
LINE
  8
APS_GEOMETRY
 10
0.030054
 11
0.030086
 20
-0.006798
 21
-0.006672
  0
ARC
  8
APS_GEOMETRY
 10
0.030086
 20
-0.007348
 40
0.000676
 50
69.443955
 51
90.0
  0
ARC
  8
APS_GEOMETRY
 10
0.029948
 20
-0.007716
 40
0.001069
 50
53.130102
 51
69.443955
  0
ARC
  8
APS_GEOMETRY
 10
0.031614
 20
-0.005494
 40
0.001708
 50
233.130102
 51
243.434949
  0
ARC
  8
APS_GEOMETRY
 10
0.030967
 20
-0.006788
 40
0.000261
 50
243.434949
 51
270.0
  0
ARC
  8
APS_GEOMETRY
 10
0.030967
 20
-0.00622
 40
0.00083
 50
270.0
 51
287.102729
  0
ARC
  8
APS_GEOMETRY
 10
0.029704
 20
-0.002114
 40
0.005125
 50
287.102729
 51
293.962489
  0
ARC
  8
APS_GEOMETRY
 10
0.033362
 20
-0.010347
 40
0.003884
 50
104.931417
 51
113.962489
  0
ARC
  8
APS_GEOMETRY
 10
0.032729
 20
-0.007972
 40
0.001426
 50
90.0
 51
104.931417
  0
ARC
  8
APS_GEOMETRY
 10
0.032729
 20
-0.00731
 40
0.000765
 50
56.309932
 51
90.0
  0
ARC
  8
APS_GEOMETRY
 10
0.032613
 20
-0.007485
 40
0.000975
 50
26.565051
 51
56.309932
  0
ARC
  8
APS_GEOMETRY
 10
0.035324
 20
-0.009808
 40
0.003316
 50
108.434949
 51
123.690068
  0
ARC
  8
APS_GEOMETRY
 10
0.034995
 20
-0.008822
 40
0.002277
 50
90.0
 51
108.434949
  0
ARC
  8
APS_GEOMETRY
 10
0.040623
 20
0.003102
 40
0.011169
 50
239.743563
 51
248.629378
  0
ARC
  8
APS_GEOMETRY
 10
0.03918
 20
-0.000585
 40
0.00721
 50
248.629378
 51
259.695154
  0
ARC
  8
APS_GEOMETRY
 10
0.038421
 20
-0.007148
 40
0.000751
 50
225.0
 51
263.418055
  0
ARC
  8
APS_GEOMETRY
 10
0.041163
 20
0.016615
 40
0.024671
 50
263.418055
 51
270.0
  0
ARC
  8
APS_GEOMETRY
 10
0.04632
 20
0.002258
 40
0.011532
 50
243.434949
 51
250.346176
  0
ARC
  8
APS_GEOMETRY
 10
0.042925
 20
-0.007248
 40
0.001438
 50
250.346176
 51
270.0
  0
ARC
  8
APS_GEOMETRY
 10
0.042925
 20
-0.008045
 40
0.000641
 50
270.0
 51
291.801409
  0
ARC
  8
APS_GEOMETRY
 10
0.04237
 20
-0.006657
 40
0.002136
 50
291.801409
 51
303.690068
  0
LINE
  8
APS_GEOMETRY
 10
0.043555
 11
0.043555
 20
-0.008434
 21
-0.008308
  0
LINE
  8
APS_GEOMETRY
 10
0.043555
 11
0.043555
 20
-0.008308
 21
-0.008182
  0
ARC
  8
APS_GEOMETRY
 10
0.046053
 20
-0.008182
 40
0.002498
 50
144.811257
 51
180.0
  0
ARC
  8
APS_GEOMETRY
 10
0.062868
 20
-0.020039
 40
0.023073
 50
133.393997
 51
144.811257
  0
ARC
  8
APS_GEOMETRY
 10
0.06402
 20
-0.021257
 40
0.02475
 50
122.699461
 51
133.393997
  0
ARC
  8
APS_GEOMETRY
 10
0.052115
 20
-0.002713
 40
0.002713
 50
90.0
 51
122.699461
  0
ARC
  8
APS_GEOMETRY
 10
0.052115
 20
-0.000633
 40
0.000633
 50
51.340192
 51
90.0
  0
ARC
  8
APS_GEOMETRY
 10
0.052087
 20
-0.000668
 40
0.000678
 50
14.036243
 51
51.340192
  0
ARC
  8
APS_GEOMETRY
 10
0.056123
 20
-0.000021
 40
0.003413
 50
188.130102
 51
202.380135
  0
ARC
  8
APS_GEOMETRY
 10
0.053458
 20
-0.001118
 40
0.000531
 50
202.380135
 51
239.036243
  0
ARC
  8
APS_GEOMETRY
 10
0.039589
 20
-0.024233
 40
0.026425
 50
58.24052
 51
59.036243
  0
ARC
  8
APS_GEOMETRY
 10
-0.092144
 20
-0.237032
 40
0.276699
 50
57.994617
 51
58.24052
  0
ARC
  8
APS_GEOMETRY
 10
0.062066
 20
0.000632
 40
0.008141
 50
201.801409
 51
206.565051
  0
ARC
  8
APS_GEOMETRY
 10
0.081434
 20
0.010316
 40
0.029796
 50
206.565051
 51
209.054604
  0
ARC
  8
APS_GEOMETRY
 10
-0.014352
 20
-0.015777
 40
0.070701
 50
8.841815
 51
9.462322
  0
ARC
  8
APS_GEOMETRY
 10
-0.470351
 20
-0.086711
 40
0.532185
 50
8.615648
 51
8.841815
  0
ARC
  8
APS_GEOMETRY
 10
0.016434
 20
-0.012955
 40
0.039844
 50
5.599339
 51
8.615648
  0
ARC
  8
APS_GEOMETRY
 10
0.044574
 20
-0.010196
 40
0.011569
 50
0.0
 51
5.599339
  0
ARC
  8
APS_GEOMETRY
 10
0.052762
 20
-0.010196
 40
0.003381
 50
343.201628
 51
0.0
  0
ARC
  8
APS_GEOMETRY
 10
0.035073
 20
-0.004856
 40
0.021858
 50
336.614779
 51
343.201628
  0
ARC
  8
APS_GEOMETRY
 10
0.178562
 20
-0.066906
 40
0.134472
 50
156.614779
 51
157.693795
  0
ARC
  8
APS_GEOMETRY
 10
0.054448
 20
-0.015987
 40
0.000319
 50
157.693795
 51
180.0
  0
ARC
  8
APS_GEOMETRY
 10
0.054936
 20
-0.015987
 40
0.000807
 50
180.0
 51
197.650124
  0
ARC
  8
APS_GEOMETRY
 10
0.072505
 20
-0.010397
 40
0.019244
 50
197.650124
 51
201.250506
  0
ARC
  8
APS_GEOMETRY
 10
0.046651
 20
-0.020451
 40
0.008497
 50
13.134022
 51
21.250506
  0
ARC
  8
APS_GEOMETRY
 10
0.051756
 20
-0.01926
 40
0.003254
 50
0.0
 51
13.134022
  0
ARC
  8
APS_GEOMETRY
 10
0.053206
 20
-0.02347
 40
0.004581
 50
45.0
 51
66.801409
  0
ARC
  8
APS_GEOMETRY
 10
0.055654
 20
-0.021022
 40
0.001119
 50
0.0
 51
45.0
  0
ARC
  8
APS_GEOMETRY
 10
0.05349
 20
-0.021022
 40
0.003283
 50
332.241459
 51
0.0
  0
ARC
  8
APS_GEOMETRY
 10
0.054613
 20
-0.021614
 40
0.002013
 50
296.565051
 51
332.241459
  0
ARC
  8
APS_GEOMETRY
 10
0.045044
 20
-0.031789
 40
0.013407
 50
35.217593
 51
38.659808
  0
ARC
  8
APS_GEOMETRY
 10
0.00039
 20
-0.06331
 40
0.068065
 50
33.690068
 51
35.217593
  0
LINE
  8
APS_GEOMETRY
 10
0.057024
 11
0.057024
 20
-0.025554
 21
-0.026057
  0
ARC
  8
APS_GEOMETRY
 10
0.07225
 20
-0.02921
 40
0.019931
 50
220.914383
 51
225.0
  0
ARC
  8
APS_GEOMETRY
 10
0.065888
 20
-0.034724
 40
0.011512
 50
215.537678
 51
220.914383
  0
ARC
  8
APS_GEOMETRY
 10
0.056248
 20
-0.043053
 40
0.00166
 50
56.309932
 51
80.537678
  0
ARC
  8
APS_GEOMETRY
 10
0.056738
 20
-0.042317
 40
0.000776
 50
20.556045
 51
56.309932
  0
ARC
  8
APS_GEOMETRY
 10
0.058716
 20
-0.041575
 40
0.001337
 50
200.556045
 51
222.510447
  0
ARC
  8
APS_GEOMETRY
 10
0.058814
 20
-0.041485
 40
0.00147
 50
222.510447
 51
243.434949
  0
LINE
  8
APS_GEOMETRY
 10
0.058157
 11
0.058157
 20
-0.0428
 21
-0.043303
  0
LINE
  8
APS_GEOMETRY
 10
0.045317
 11
0.044468
 20
-0.024421
 21
-0.024799
  0
LINE
  8
APS_GEOMETRY
 10
0.044468
 11
0.044184
 20
-0.024799
 21
-0.024924
  0
ARC
  8
APS_GEOMETRY
 10
0.044184
 20
-0.015259
 40
0.009665
 50
252.758541
 51
270.0
  0
ARC
  8
APS_GEOMETRY
 10
0.041697
 20
-0.023275
 40
0.001273
 50
203.962489
 51
252.758541
  0
LINE
  8
APS_GEOMETRY
 10
0.040534
 11
0.040156
 20
-0.023792
 21
-0.024169
  0
LINE
  8
APS_GEOMETRY
 10
0.040156
 11
0.039778
 20
-0.024169
 21
-0.024547
  0
LINE
  8
APS_GEOMETRY
 10
0.039778
 11
0.039778
 20
-0.024547
 21
-0.025176
  0
ARC
  8
APS_GEOMETRY
 10
0.039976
 20
-0.025176
 40
0.000197
 50
180.0
 51
236.309932
  0
ARC
  8
APS_GEOMETRY
 10
0.040156
 20
-0.024905
 40
0.000523
 50
236.309932
 51
270.0
  0
ARC
  8
APS_GEOMETRY
 10
0.040156
 20
-0.024794
 40
0.000634
 50
270.0
 51
281.309932
  0
ARC
  8
APS_GEOMETRY
 10
0.038147
 20
-0.014747
 40
0.01088
 50
281.309932
 51
284.036243
  0
ARC
  8
APS_GEOMETRY
 10
0.042356
 20
-0.031585
 40
0.006477
 50
99.462322
 51
104.036243
  0
ARC
  8
APS_GEOMETRY
 10
0.041541
 20
-0.026692
 40
0.001516
 50
90.0
 51
99.462322
  0
LINE
  8
APS_GEOMETRY
 10
0.041541
 11
0.041761
 20
-0.025176
 21
-0.025176
  0
LINE
  8
APS_GEOMETRY
 10
0.041761
 11
0.041918
 20
-0.025176
 21
-0.025176
  0
LINE
  8
APS_GEOMETRY
 10
0.041918
 11
0.041918
 20
-0.025176
 21
-0.025806
  0
LINE
  8
APS_GEOMETRY
 10
0.041918
 11
0.041793
 20
-0.025806
 21
-0.025302
  0
ARC
  8
APS_GEOMETRY
 10
0.046705
 20
-0.026939
 40
0.005178
 50
161.565051
 51
165.963757
  0
ARC
  8
APS_GEOMETRY
 10
0.054754
 20
-0.028952
 40
0.013475
 50
165.963757
 51
168.690068
  0
ARC
  8
APS_GEOMETRY
 10
0.04165
 20
-0.026309
 40
0.000109
 50
180.0
 51
236.309932
  0
ARC
  8
APS_GEOMETRY
 10
0.042355
 20
-0.025252
 40
0.00138
 50
236.309932
 51
251.565051
  0
ARC
  8
APS_GEOMETRY
 10
0.041918
 20
-0.02565
 40
0.000911
 50
270.0
 51
296.565051
  0
ARC
  8
APS_GEOMETRY
 10
0.042248
 20
-0.026309
 40
0.000174
 50
296.565051
 51
0.0
  0
LINE
  8
APS_GEOMETRY
 10
0.042422
 11
0.042422
 20
-0.026309
 21
-0.026687
  0
ARC
  8
APS_GEOMETRY
 10
0.04173
 20
-0.026764
 40
0.000696
 50
297.897271
 51
6.340192
  0
ARC
  8
APS_GEOMETRY
 10
0.040282
 20
-0.024029
 40
0.003791
 50
270.0
 51
297.897271
  0
ARC
  8
APS_GEOMETRY
 10
0.040282
 20
-0.02348
 40
0.004339
 50
251.075356
 51
270.0
  0
ARC
  8
APS_GEOMETRY
 10
0.0395
 20
-0.025762
 40
0.001927
 50
222.510447
 51
251.075356
  0
ARC
  8
APS_GEOMETRY
 10
0.029179
 20
-0.035223
 40
0.012074
 50
42.510447
 51
47.29061
  0
ARC
  8
APS_GEOMETRY
 10
0.037261
 20
-0.026468
 40
0.000158
 50
47.29061
 51
90.0
  0
ARC
  8
APS_GEOMETRY
 10
0.037261
 20
-0.026533
 40
0.000224
 50
90.0
 51
120.963757
  0
ARC
  8
APS_GEOMETRY
 10
0.040239
 20
-0.031497
 40
0.006013
 50
120.963757
 51
126.869898
  0
LINE
  8
APS_GEOMETRY
 10
0.036631
 11
0.036631
 20
-0.026687
 21
-0.02719
  0
ARC
  8
APS_GEOMETRY
 10
0.040379
 20
-0.020945
 40
0.007284
 50
239.036243
 51
244.798876
  0
ARC
  8
APS_GEOMETRY
 10
0.052724
 20
0.005289
 40
0.036277
 50
244.798876
 51
247.380135
  0
ARC
  8
APS_GEOMETRY
 10
0.038465
 20
-0.028044
 40
0.000343
 50
291.801409
 51
333.434949
  0
ARC
  8
APS_GEOMETRY
 10
0.038142
 20
-0.027238
 40
0.001212
 50
270.0
 51
291.801409
  0
ARC
  8
APS_GEOMETRY
 10
0.038142
 20
-0.026805
 40
0.001644
 50
261.253838
 51
270.0
  0
ARC
  8
APS_GEOMETRY
 10
0.04575
 20
0.022647
 40
0.051677
 50
259.695154
 51
261.253838
  0
ARC
  8
APS_GEOMETRY
 10
0.035741
 20
-0.031255
 40
0.003151
 50
75.963757
 51
94.085617
  0
ARC
  8
APS_GEOMETRY
 10
0.035663
 20
-0.030163
 40
0.002057
 50
94.085617
 51
116.565051
  0
LINE
  8
APS_GEOMETRY
 10
0.034743
 11
0.034743
 20
-0.028323
 21
-0.027442
  0
ARC
  8
APS_GEOMETRY
 10
0.034743
 20
-0.027296
 40
0.000146
 50
270.0
 51
316.33222
  0
ARC
  8
APS_GEOMETRY
 10
-0.075834
 20
0.078255
 40
0.153014
 50
316.33222
 51
317.726311
  0
ARC
  8
APS_GEOMETRY
 10
0.042109
 20
-0.029032
 40
0.006427
 50
118.442929
 51
137.29061
  0
ARC
  8
APS_GEOMETRY
 10
0.040408
 20
-0.025891
 40
0.002855
 50
90.0
 51
118.442929
  0
ARC
  8
APS_GEOMETRY
 10
0.040408
 20
-0.027836
 40
0.0048
 50
81.027373
 51
90.0
  0
ARC
  8
APS_GEOMETRY
 10
0.037437
 20
-0.046652
 40
0.023849
 50
77.005383
 51
81.027373
  0
ARC
  8
APS_GEOMETRY
 10
0.04763
 20
-0.002481
 40
0.021483
 50
257.005383
 51
261.469234
  0
ARC
  8
APS_GEOMETRY
 10
0.045317
 20
-0.017901
 40
0.00589
 50
261.469234
 51
270.0
  0
LINE
  8
APS_GEOMETRY
 10
0.045317
 11
0.045317
 20
-0.023792
 21
-0.024421
  0
ARC
  8
APS_GEOMETRY
 10
0.048028
 20
-0.021724
 40
0.011015
 50
288.217095
 51
293.198591
  0
ARC
  8
APS_GEOMETRY
 10
-0.017299
 20
0.176768
 40
0.21998
 50
287.102729
 51
288.217095
  0
ARC
  8
APS_GEOMETRY
 10
0.014264
 20
0.07419
 40
0.112656
 50
284.931417
 51
287.102729
  0
ARC
  8
APS_GEOMETRY
 10
0.042674
 20
-0.032348
 40
0.002396
 50
270.0
 51
284.931417
  0
LINE
  8
APS_GEOMETRY
 10
0.042674
 11
0.041918
 20
-0.034743
 21
-0.034743
  0
LINE
  8
APS_GEOMETRY
 10
0.041918
 11
0.044153
 20
-0.034743
 21
-0.033705
  0
LINE
  8
APS_GEOMETRY
 10
0.044153
 11
0.044562
 20
-0.033705
 21
-0.033359
  0
ARC
  8
APS_GEOMETRY
 10
0.044562
 20
-0.033988
 40
0.000629
 50
53.130102
 51
90.0
  0
ARC
  8
APS_GEOMETRY
 10
0.044751
 20
-0.033736
 40
0.000315
 50
0.0
 51
53.130102
  0
ARC
  8
APS_GEOMETRY
 10
0.049771
 20
-0.038996
 40
0.007057
 50
107.102729
 51
131.82017
  0
ARC
  8
APS_GEOMETRY
 10
0.051246
 20
-0.043787
 40
0.012071
 50
88.264295
 51
107.102729
  0
LINE
  8
APS_GEOMETRY
 10
0.051611
 11
0.052367
 20
-0.031722
 21
-0.031848
  0
LINE
  8
APS_GEOMETRY
 10
0.057654
 11
0.056898
 20
-0.046702
 21
-0.046702
  0
ARC
  8
APS_GEOMETRY
 10
0.054756
 20
-0.047988
 40
0.002499
 50
30.963757
 51
47.489553
  0
ARC
  8
APS_GEOMETRY
 10
0.050546
 20
-0.05258
 40
0.008728
 50
47.489553
 51
56.309932
  0
LINE
  8
APS_GEOMETRY
 10
0.055388
 11
0.055136
 20
-0.045317
 21
-0.045443
  0
ARC
  8
APS_GEOMETRY
 10
0.056082
 20
-0.045128
 40
0.000997
 50
198.434949
 51
220.601295
  0
ARC
  8
APS_GEOMETRY
 10
0.058521
 20
-0.043038
 40
0.004209
 50
220.601295
 51
231.340192
  0
LINE
  8
APS_GEOMETRY
 10
0.055891
 11
0.055891
 20
-0.046324
 21
-0.047205
  0
LINE
  8
APS_GEOMETRY
 10
0.055891
 11
0.05501
 20
-0.047205
 21
-0.047205
  0
ARC
  8
APS_GEOMETRY
 10
0.05991
 20
-0.044265
 40
0.005715
 50
203.629378
 51
210.963757
  0
ARC
  8
APS_GEOMETRY
 10
0.075836
 20
-0.037298
 40
0.023097
 50
199.983107
 51
203.629378
  0
ARC
  8
APS_GEOMETRY
 10
0.054528
 20
-0.044193
 40
0.001075
 50
213.690068
 51
248.198591
  0
ARC
  8
APS_GEOMETRY
 10
0.087677
 20
-0.022094
 40
0.040915
 50
208.17859
 51
213.690068
  0
ARC
  8
APS_GEOMETRY
 10
0.050521
 20
-0.044141
 40
0.002936
 50
68.198591
 51
81.253838
  0
ARC
  8
APS_GEOMETRY
 10
0.049975
 20
-0.04769
 40
0.006527
 50
81.253838
 51
90.0
  0
ARC
  8
APS_GEOMETRY
 10
0.092164
 20
-0.125542
 40
0.094339
 50
115.201124
 51
116.565051
  0
ARC
  8
APS_GEOMETRY
 10
0.052115
 20
-0.040437
 40
0.000281
 50
90.0
 51
115.201124
  0
ARC
  8
APS_GEOMETRY
 10
0.052115
 20
-0.043791
 40
0.003635
 50
69.443955
 51
90.0
  0
ARC
  8
APS_GEOMETRY
 10
0.05277
 20
-0.042044
 40
0.001769
 50
39.805571
 51
69.443955
  0
LINE
  8
APS_GEOMETRY
 10
0.054129
 11
0.054129
 20
-0.040911
 21
-0.041667
  0
ARC
  8
APS_GEOMETRY
 10
0.050853
 20
-0.044942
 40
0.004632
 50
45.0
 51
49.398705
  0
ARC
  8
APS_GEOMETRY
 10
0.038399
 20
-0.059472
 40
0.023769
 50
49.398705
 51
51.340192
  0
LINE
  8
APS_GEOMETRY
 10
0.053248
 11
0.051989
 20
-0.040911
 21
-0.041037
  0
ARC
  8
APS_GEOMETRY
 10
0.057301
 20
-0.037243
 40
0.006529
 50
215.537678
 51
225.0
  0
ARC
  8
APS_GEOMETRY
 10
0.103028
 20
0.008484
 40
0.071195
 50
225.0
 51
227.862405
  0
ARC
  8
APS_GEOMETRY
 10
0.055383
 20
-0.045883
 40
0.001577
 50
45.0
 51
94.398705
  0
ARC
  8
APS_GEOMETRY
 10
0.05324
 20
-0.048026
 40
0.004608
 50
16.699244
 51
45.0
  0
LINE
  8
APS_GEOMETRY
 10
0.013721
 11
0.013469
 20
-0.008308
 21
-0.008308
  0
LINE
  8
APS_GEOMETRY
 10
0.013469
 11
0.013469
 20
-0.008308
 21
-0.007679
  0
LINE
  8
APS_GEOMETRY
 10
0.013469
 11
0.013721
 20
-0.007679
 21
-0.007679
  0
LINE
  8
APS_GEOMETRY
 10
0.013721
 11
0.013721
 20
-0.007679
 21
-0.008308
  0
LINE
  8
APS_GEOMETRY
 10
0.055514
 11
0.054884
 20
-0.050227
 21
-0.050478
  0
ARC
  8
APS_GEOMETRY
 10
0.050501
 20
-0.05267
 40
0.004901
 50
26.565051
 51
36.384352
  0
ARC
  8
APS_GEOMETRY
 10
0.02886
 20
-0.068616
 40
0.031782
 50
36.384352
 51
40.236358
  0
LINE
  8
APS_GEOMETRY
 10
0.053122
 11
0.053625
 20
-0.048087
 21
-0.046954
  0
LINE
  8
APS_GEOMETRY
 10
0.053625
 11
0.054129
 20
-0.046954
 21
-0.04708
  0
ARC
  8
APS_GEOMETRY
 10
0.054428
 20
-0.04708
 40
0.000299
 50
180.0
 51
203.749494
  0
ARC
  8
APS_GEOMETRY
 10
0.25323
 20
0.040393
 40
0.217494
 50
203.749494
 51
204.623565
  0
ARC
  8
APS_GEOMETRY
 10
0.043159
 20
-0.035786
 40
0.000683
 50
284.620874
 51
341.565051
  0
ARC
  8
APS_GEOMETRY
 10
0.040911
 20
-0.027171
 40
0.009586
 50
270.0
 51
284.620874
  0
ARC
  8
APS_GEOMETRY
 10
0.040911
 20
-0.035867
 40
0.00089
 50
234.462322
 51
270.0
  0
ARC
  8
APS_GEOMETRY
 10
0.041003
 20
-0.035739
 40
0.001048
 50
201.801409
 51
234.462322
  0
ARC
  8
APS_GEOMETRY
 10
0.040698
 20
-0.038797
 40
0.002751
 50
104.036243
 51
114.775141
  0
ARC
  8
APS_GEOMETRY
 10
0.046787
 20
-0.051991
 40
0.017283
 50
114.775141
 51
119.054604
  0
LINE
  8
APS_GEOMETRY
 10
0.038394
 11
0.038394
 20
-0.036883
 21
-0.036254
  0
ARC
  8
APS_GEOMETRY
 10
0.044911
 20
-0.058411
 40
0.023096
 50
100.885527
 51
106.38954
  0
ARC
  8
APS_GEOMETRY
 10
0.041667
 20
-0.041542
 40
0.005918
 50
90.0
 51
100.885527
  0
ARC
  8
APS_GEOMETRY
 10
0.041667
 20
-0.04274
 40
0.007116
 50
79.99202
 51
90.0
  0
ARC
  8
APS_GEOMETRY
 10
0.04219
 20
-0.039774
 40
0.004104
 50
66.801409
 51
79.99202
  0
LINE
  8
APS_GEOMETRY
 10
0.043807
 11
0.043303
 20
-0.038394
 21
-0.038394
  0
ARC
  8
APS_GEOMETRY
 10
0.043303
 20
-0.03602
 40
0.002373
 50
260.909723
 51
270.0
  0
ARC
  8
APS_GEOMETRY
 10
0.063888
 20
0.092637
 40
0.132667
 50
259.695154
 51
260.909723
  0
ARC
  8
APS_GEOMETRY
 10
0.042327
 20
-0.038976
 40
0.002427
 50
135.0
 51
153.434949
  0
ARC
  8
APS_GEOMETRY
 10
0.040911
 20
-0.03756
 40
0.000425
 50
90.0
 51
135.0
  0
ARC
  8
APS_GEOMETRY
 10
0.040911
 20
-0.04118
 40
0.004045
 50
66.501434
 51
90.0
  0
ARC
  8
APS_GEOMETRY
 10
0.04104
 20
-0.040883
 40
0.003722
 50
41.987212
 51
66.501434
  0
ARC
  8
APS_GEOMETRY
 10
0.038622
 20
-0.034114
 40
0.000653
 50
328.570434
 51
0.0
  0
ARC
  8
APS_GEOMETRY
 10
0.034796
 20
-0.031775
 40
0.005137
 50
317.489553
 51
328.570434
  0
ARC
  8
APS_GEOMETRY
 10
0.03519
 20
-0.032137
 40
0.004603
 50
305.217593
 51
317.489553
  0
ARC
  8
APS_GEOMETRY
 10
0.037513
 20
-0.035427
 40
0.000575
 50
270.0
 51
305.217593
  0
LINE
  8
APS_GEOMETRY
 10
0.037513
 11
0.037513
 20
-0.036002
 21
-0.035373
  0
ARC
  8
APS_GEOMETRY
 10
0.053753
 20
-0.057026
 40
0.027067
 50
125.537678
 51
126.869898
  0
ARC
  8
APS_GEOMETRY
 10
0.131795
 20
-0.166285
 40
0.161335
 50
124.99202
 51
125.537678
  0
LINE
  8
APS_GEOMETRY
 10
0.03789
 11
0.037638
 20
-0.039653
 21
-0.039653
  0
ARC
  8
APS_GEOMETRY
 10
0.037638
 20
-0.039401
 40
0.000252
 50
225.0
 51
270.0
  0
ARC
  8
APS_GEOMETRY
 10
0.037638
 20
-0.039401
 40
0.000252
 50
180.0
 51
225.0
  0
ARC
  8
APS_GEOMETRY
 10
0.037764
 20
-0.039401
 40
0.000378
 50
135.0
 51
180.0
  0
ARC
  8
APS_GEOMETRY
 10
0.037764
 20
-0.039401
 40
0.000378
 50
90.0
 51
135.0
  0
LINE
  8
APS_GEOMETRY
 10
0.037764
 11
0.03789
 20
-0.039023
 21
-0.039653
  0
LINE
  8
APS_GEOMETRY
 10
0.027694
 11
0.02719
 20
-0.027316
 21
-0.027694
  0
ARC
  8
APS_GEOMETRY
 10
0.045822
 20
-0.009063
 40
0.026349
 50
223.451842
 51
225.0
  0
ARC
  8
APS_GEOMETRY
 10
0.059722
 20
0.004106
 40
0.045496
 50
222.273689
 51
223.451842
  0
ARC
  8
APS_GEOMETRY
 10
0.024709
 20
-0.027724
 40
0.001822
 50
42.273689
 51
69.863697
  0
ARC
  8
APS_GEOMETRY
 10
0.024169
 20
-0.029196
 40
0.00339
 50
69.863697
 51
90.0
  0
LINE
  8
APS_GEOMETRY
 10
0.024169
 11
0.023823
 20
-0.025806
 21
-0.025806
  0
LINE
  8
APS_GEOMETRY
 10
0.023823
 11
0.02354
 20
-0.025806
 21
-0.025806
  0
LINE
  8
APS_GEOMETRY
 10
0.02354
 11
0.02354
 20
-0.025806
 21
-0.026561
  0
ARC
  8
APS_GEOMETRY
 10
0.024729
 20
-0.025372
 40
0.001681
 50
225.0
 51
253.61046
  0
ARC
  8
APS_GEOMETRY
 10
0.02568
 20
-0.022138
 40
0.005052
 50
253.61046
 51
270.0
  0
ARC
  8
APS_GEOMETRY
 10
0.024251
 20
-0.026833
 40
0.001473
 50
326.309932
 51
345.963757
  0
ARC
  8
APS_GEOMETRY
 10
0.021801
 20
-0.0252
 40
0.004418
 50
315.0
 51
326.309932
  0
LINE
  8
APS_GEOMETRY
 10
0.024924
 11
0.02505
 20
-0.028323
 21
-0.028827
  0
ARC
  8
APS_GEOMETRY
 10
0.025143
 20
-0.028827
 40
0.000092
 50
116.565051
 51
180.0
  0
ARC
  8
APS_GEOMETRY
 10
0.025618
 20
-0.029777
 40
0.001155
 50
99.462322
 51
116.565051
  0
ARC
  8
APS_GEOMETRY
 10
0.025327
 20
-0.02803
 40
0.000616
 50
279.462322
 51
309.805571
  0
ARC
  8
APS_GEOMETRY
 10
0.025571
 20
-0.028323
 40
0.000235
 50
309.805571
 51
0.0
  0
LINE
  8
APS_GEOMETRY
 10
0.025806
 11
0.026309
 20
-0.028323
 21
-0.028323
  0
LINE
  8
APS_GEOMETRY
 10
0.026309
 11
0.026561
 20
-0.028323
 21
-0.028701
  0
ARC
  8
APS_GEOMETRY
 10
0.021742
 20
-0.024364
 40
0.006483
 50
303.690068
 51
318.012788
  0
ARC
  8
APS_GEOMETRY
 10
0.024673
 20
-0.02876
 40
0.0012
 50
270.0
 51
303.690068
  0
ARC
  8
APS_GEOMETRY
 10
0.024673
 20
-0.027623
 40
0.002337
 50
231.340192
 51
270.0
  0
ARC
  8
APS_GEOMETRY
 10
0.027404
 20
-0.024209
 40
0.006709
 50
208.810794
 51
231.340192
  0
ARC
  8
APS_GEOMETRY
 10
0.021526
 20
-0.027879
 40
0.000437
 50
90.0
 51
164.744881
  0
ARC
  8
APS_GEOMETRY
 10
0.022799
 20
-0.028226
 40
0.001757
 50
164.744881
 51
199.983107
  0
LINE
  8
APS_GEOMETRY
 10
0.021148
 11
0.020676
 20
-0.028827
 21
-0.028921
  0
LINE
  8
APS_GEOMETRY
 10
0.020676
 11
0.020519
 20
-0.028921
 21
-0.028953
  0
ARC
  8
APS_GEOMETRY
 10
0.020519
 20
-0.027579
 40
0.001374
 50
232.125016
 51
270.0
  0
ARC
  8
APS_GEOMETRY
 10
0.020135
 20
-0.028072
 40
0.00075
 50
180.0
 51
232.125016
  0
ARC
  8
APS_GEOMETRY
 10
0.028462
 20
-0.037148
 40
0.012836
 50
128.659808
 51
135.0
  0
ARC
  8
APS_GEOMETRY
 10
0.047627
 20
-0.061104
 40
0.043515
 50
125.217593
 51
128.659808
  0
ARC
  8
APS_GEOMETRY
 10
0.021815
 20
-0.026272
 40
0.001016
 50
45.0
 51
55.00798
  0
ARC
  8
APS_GEOMETRY
 10
-0.01193
 20
-0.074478
 40
0.059859
 50
55.00798
 51
56.309932
  0
ARC
  8
APS_GEOMETRY
 10
0.023872
 20
-0.026405
 40
0.003122
 50
130.601295
 51
146.309932
  0
ARC
  8
APS_GEOMETRY
 10
0.022155
 20
-0.024402
 40
0.000484
 50
90.0
 51
130.601295
  0
ARC
  8
APS_GEOMETRY
 10
0.022155
 20
-0.026075
 40
0.002158
 50
67.217594
 51
90.0
  0
ARC
  8
APS_GEOMETRY
 10
0.015317
 20
-0.042356
 40
0.019817
 50
59.743563
 51
67.217594
  0
ARC
  8
APS_GEOMETRY
 10
0.018493
 20
-0.036912
 40
0.013514
 50
49.028264
 51
59.743563
  0
ARC
  8
APS_GEOMETRY
 10
0.026679
 20
-0.027485
 40
0.001029
 50
9.462322
 51
49.028264
  0
ARC
  8
APS_GEOMETRY
 10
0.056768
 20
-0.053749
 40
0.002025
 50
150.255119
 51
177.70939
  0
ARC
  8
APS_GEOMETRY
 10
0.065615
 20
-0.054103
 40
0.010879
 50
177.70939
 51
189.462322
  0
ARC
  8
APS_GEOMETRY
 10
0.083834
 20
-0.067471
 40
0.03118
 50
158.198591
 51
159.443955
  0
ARC
  8
APS_GEOMETRY
 10
0.064704
 20
-0.060298
 40
0.010749
 50
159.443955
 51
161.565051
  0
ARC
  8
APS_GEOMETRY
 10
0.050638
 20
-0.05303
 40
0.00547
 50
307.568592
 51
315.0
  0
ARC
  8
APS_GEOMETRY
 10
0.041741
 20
-0.041464
 40
0.020063
 50
303.690068
 51
307.568592
  0
ARC
  8
APS_GEOMETRY
 10
0.043548
 20
-0.064372
 40
0.011204
 50
29.054604
 51
33.690068
  0
ARC
  8
APS_GEOMETRY
 10
0.0194
 20
-0.077787
 40
0.038828
 50
26.565051
 51
29.054604
  0
LINE
  8
APS_GEOMETRY
 10
0.054129
 11
0.054129
 20
-0.060423
 21
-0.062437
  0
ARC
  8
APS_GEOMETRY
 10
0.054273
 20
-0.062004
 40
0.000456
 50
206.565051
 51
251.565051
  0
ARC
  8
APS_GEOMETRY
 10
0.057866
 20
-0.060208
 40
0.004473
 50
192.528808
 51
206.565051
  0
LINE
  8
APS_GEOMETRY
 10
0.053499
 11
0.053248
 20
-0.061178
 21
-0.061556
  0
ARC
  8
APS_GEOMETRY
 10
0.050465
 20
-0.061556
 40
0.002783
 50
0.0
 51
35.706691
  0
ARC
  8
APS_GEOMETRY
 10
0.043874
 20
-0.066293
 40
0.0109
 50
35.706691
 51
53.530766
  0
LINE
  8
APS_GEOMETRY
 10
0.050352
 11
0.050352
 20
-0.057528
 21
-0.057024
  0
LINE
  8
APS_GEOMETRY
 10
0.050352
 11
0.050856
 20
-0.057024
 21
-0.056647
  0
ARC
  8
APS_GEOMETRY
 10
0.067047
 20
-0.030336
 40
0.030894
 50
238.392498
 51
241.927513
  0
ARC
  8
APS_GEOMETRY
 10
0.052744
 20
-0.057154
 40
0.0005
 50
241.927513
 51
270.0
  0
ARC
  8
APS_GEOMETRY
 10
0.052744
 20
-0.057528
 40
0.000126
 50
270.0
 51
315.0
  0
ARC
  8
APS_GEOMETRY
 10
0.052744
 20
-0.057528
 40
0.000126
 50
315.0
 51
0.0
  0
ARC
  8
APS_GEOMETRY
 10
0.052996
 20
-0.057528
 40
0.000126
 50
135.0
 51
180.0
  0
ARC
  8
APS_GEOMETRY
 10
0.052996
 20
-0.057528
 40
0.000126
 50
90.0
 51
135.0
  0
ARC
  8
APS_GEOMETRY
 10
0.052996
 20
-0.056924
 40
0.000478
 50
270.0
 51
327.994617
  0
ARC
  8
APS_GEOMETRY
 10
0.052149
 20
-0.056395
 40
0.001477
 50
327.994617
 51
0.0
  0
ARC
  8
APS_GEOMETRY
 10
0.050974
 20
-0.056395
 40
0.002652
 50
0.0
 51
8.130102
  0
ARC
  8
APS_GEOMETRY
 10
0.036463
 20
-0.058468
 40
0.01731
 50
8.130102
 51
11.309932
  0
ARC
  8
APS_GEOMETRY
 10
0.07041
 20
-0.051678
 40
0.01731
 50
188.130102
 51
191.309932
  0
ARC
  8
APS_GEOMETRY
 10
0.055899
 20
-0.053751
 40
0.002652
 50
180.0
 51
188.130102
  0
ARC
  8
APS_GEOMETRY
 10
0.05602
 20
-0.056523
 40
0.00392
 50
129.805571
 51
135.0
  0
ARC
  8
APS_GEOMETRY
 10
0.061363
 20
-0.062936
 40
0.012267
 50
126.869898
 51
129.805571
  0
ARC
  8
APS_GEOMETRY
 10
0.036694
 20
-0.056584
 40
0.017652
 50
11.309932
 51
13.392498
  0
ARC
  8
APS_GEOMETRY
 10
0.032399
 20
-0.057606
 40
0.022067
 50
13.392498
 51
15.255119
  0
ARC
  8
APS_GEOMETRY
 10
0.05281
 20
-0.05204
 40
0.00091
 50
15.255119
 51
53.746162
  0
ARC
  8
APS_GEOMETRY
 10
0.052744
 20
-0.052129
 40
0.001022
 50
53.746162
 51
90.0
  0
LINE
  8
APS_GEOMETRY
 10
0.052744
 11
0.052744
 20
-0.051108
 21
-0.050478
  0
ARC
  8
APS_GEOMETRY
 10
0.055188
 20
-0.056587
 40
0.006579
 50
105.945396
 51
111.801409
  0
ARC
  8
APS_GEOMETRY
 10
0.053625
 20
-0.051119
 40
0.000892
 50
90.0
 51
105.945396
  0
ARC
  8
APS_GEOMETRY
 10
0.053625
 20
-0.051204
 40
0.000977
 50
57.264774
 51
90.0
  0
ARC
  8
APS_GEOMETRY
 10
0.053643
 20
-0.051177
 40
0.000945
 50
23.962489
 51
57.264774
  0
ARC
  8
APS_GEOMETRY
 10
0.057118
 20
-0.049633
 40
0.002857
 50
203.962489
 51
216.027373
  0
ARC
  8
APS_GEOMETRY
 10
0.055262
 20
-0.050982
 40
0.000562
 50
216.027373
 51
243.434949
  0
LINE
  8
APS_GEOMETRY
 10
0.05501
 11
0.05501
 20
-0.051485
 21
-0.052744
  0
ARC
  8
APS_GEOMETRY
 10
0.034878
 20
-0.039032
 40
0.001055
 50
296.565051
 51
315.0
  0
ARC
  8
APS_GEOMETRY
 10
0.035121
 20
-0.039517
 40
0.000513
 50
270.0
 51
296.565051
  0
LINE
  8
APS_GEOMETRY
 10
0.035121
 11
0.034743
 20
-0.04003
 21
-0.039653
  0
ARC
  8
APS_GEOMETRY
 10
0.035251
 20
-0.039653
 40
0.000507
 50
143.130102
 51
180.0
  0
ARC
  8
APS_GEOMETRY
 10
0.035301
 20
-0.039691
 40
0.000571
 50
108.434949
 51
143.130102
  0
ARC
  8
APS_GEOMETRY
 10
0.034841
 20
-0.039709
 40
0.000626
 50
38.659808
 51
63.434949
  0
ARC
  8
APS_GEOMETRY
 10
0.033303
 20
-0.040939
 40
0.002595
 50
26.565051
 51
38.659808
  0
LINE
  8
APS_GEOMETRY
 10
0.036631
 11
0.03638
 20
-0.041037
 21
-0.041037
  0
LINE
  8
APS_GEOMETRY
 10
0.03638
 11
0.036254
 20
-0.041037
 21
-0.04066
  0
LINE
  8
APS_GEOMETRY
 10
0.036254
 11
0.036506
 20
-0.04066
 21
-0.04066
  0
LINE
  8
APS_GEOMETRY
 10
0.036506
 11
0.036631
 20
-0.04066
 21
-0.041037
  0
LINE
  8
APS_GEOMETRY
 10
0.131546
 11
0.131042
 20
-0.055765
 21
-0.056521
  0
ARC
  8
APS_GEOMETRY
 10
0.146508
 20
-0.102213
 40
0.048239
 50
108.698983
 51
118.663957
  0
ARC
  8
APS_GEOMETRY
 10
0.125461
 20
-0.063713
 40
0.004361
 50
118.663957
 51
152.241459
  0
ARC
  8
APS_GEOMETRY
 10
0.507175
 20
-0.197154
 40
0.408681
 50
160.641006
 51
161.333086
  0
ARC
  8
APS_GEOMETRY
 10
0.500881
 20
-0.195027
 40
0.402037
 50
161.333086
 51
162.03086
  0
ARC
  8
APS_GEOMETRY
 10
0.099779
 20
-0.048587
 40
0.029171
 50
307.874984
 51
309.805571
  0
ARC
  8
APS_GEOMETRY
 10
0.051616
 20
0.013337
 40
0.107621
 50
306.869898
 51
307.874984
  0
ARC
  8
APS_GEOMETRY
 10
0.139985
 20
-0.072759
 40
0.023797
 50
180.0
 51
182.121096
  0
ARC
  8
APS_GEOMETRY
 10
0.310875
 20
-0.06643
 40
0.194804
 50
182.121096
 51
182.862405
  0
ARC
  8
APS_GEOMETRY
 10
0.111881
 20
-0.07343
 40
0.005205
 50
326.199138
 51
328.392498
  0
ARC
  8
APS_GEOMETRY
 10
0.118228
 20
-0.077543
 40
0.002921
 50
180.0
 51
323.972627
  0
ARC
  8
APS_GEOMETRY
 10
0.115663
 20
-0.077543
 40
0.000356
 50
180.0
 51
216.869898
  0
ARC
  8
APS_GEOMETRY
 10
0.116378
 20
-0.077007
 40
0.001249
 50
216.869898
 51
236.309932
  0
ARC
  8
APS_GEOMETRY
 10
0.075837
 20
-0.071405
 40
0.040398
 50
348.366366
 51
350.537678
  0
ARC
  8
APS_GEOMETRY
 10
-0.020711
 20
-0.051527
 40
0.138971
 50
347.195734
 51
348.366366
  0
ARC
  8
APS_GEOMETRY
 10
0.138851
 20
-0.096068
 40
0.027696
 50
150.255119
 51
152.354025
  0
ARC
  8
APS_GEOMETRY
 10
0.206815
 20
-0.131668
 40
0.10442
 50
152.354025
 51
153.434949
  0
ARC
  8
APS_GEOMETRY
 10
0.073755
 20
-0.077037
 40
0.040449
 50
345.963757
 51
348.690068
  0
ARC
  8
APS_GEOMETRY
 10
-0.038834
 20
-0.04889
 40
0.156503
 50
344.577839
 51
345.963757
  0
ARC
  8
APS_GEOMETRY
 10
0.175827
 20
-0.122405
 40
0.071322
 50
153.434949
 51
155.695451
  0
ARC
  8
APS_GEOMETRY
 10
0.38235
 20
-0.215673
 40
0.29793
 50
155.695451
 51
156.801409
  0
ARC
  8
APS_GEOMETRY
 10
0.100456
 20
-0.095629
 40
0.008489
 50
328.24052
 51
341.565051
  0
ARC
  8
APS_GEOMETRY
 10
0.006511
 20
-0.037472
 40
0.118978
 50
324.688787
 51
328.24052
  0
ARC
  8
APS_GEOMETRY
 10
0.064307
 20
-0.066951
 40
0.055569
 50
310.601295
 51
315.0
  0
ARC
  8
APS_GEOMETRY
 10
0.024412
 20
-0.020406
 40
0.116871
 50
307.568592
 51
310.601295
  0
LINE
  8
APS_GEOMETRY
 10
0.09567
 11
0.09504
 20
-0.113041
 21
-0.113922
  0
ARC
  8
APS_GEOMETRY
 10
0.097529
 20
-0.11807
 40
0.004837
 50
120.963757
 51
137.489553
  0
ARC
  8
APS_GEOMETRY
 10
0.094874
 20
-0.115636
 40
0.001235
 50
137.489553
 51
170.537678
  0
ARC
  8
APS_GEOMETRY
 10
0.094294
 20
-0.117988
 40
0.002634
 50
104.036243
 51
115.277722
  0
ARC
  8
APS_GEOMETRY
 10
0.178663
 20
-0.296652
 40
0.200217
 50
115.277722
 51
116.565051
  0
ARC
  8
APS_GEOMETRY
 10
0.081151
 20
-0.100903
 40
0.018479
 50
285.751174
 51
295.559965
  0
ARC
  8
APS_GEOMETRY
 10
0.084215
 20
-0.111764
 40
0.007194
 50
270.0
 51
285.751174
  0
ARC
  8
APS_GEOMETRY
 10
0.081897
 20
-0.121854
 40
0.003709
 50
51.340192
 51
63.434949
  0
ARC
  8
APS_GEOMETRY
 10
0.083207
 20
-0.119234
 40
0.00078
 50
63.434949
 51
90.0
  0
LINE
  8
APS_GEOMETRY
 10
0.083207
 11
0.083097
 20
-0.118454
 21
-0.118549
  0
LINE
  8
APS_GEOMETRY
 10
0.083097
 11
0.082767
 20
-0.118549
 21
-0.118832
  0
ARC
  8
APS_GEOMETRY
 10
0.082006
 20
-0.117944
 40
0.001169
 50
283.495733
 51
310.601295
  0
ARC
  8
APS_GEOMETRY
 10
0.081193
 20
-0.114558
 40
0.004651
 50
270.0
 51
283.495733
  0
ARC
  8
APS_GEOMETRY
 10
0.081193
 20
-0.119591
 40
0.000382
 50
90.0
 51
125.837653
  0
ARC
  8
APS_GEOMETRY
 10
0.086578
 20
-0.127046
 40
0.009578
 50
125.837653
 51
132.878904
  0
ARC
  8
APS_GEOMETRY
 10
0.073543
 20
-0.113009
 40
0.009578
 50
305.837653
 51
312.878904
  0
ARC
  8
APS_GEOMETRY
 10
0.078927
 20
-0.120464
 40
0.000382
 50
270.0
 51
305.837653
  0
ARC
  8
APS_GEOMETRY
 10
0.078927
 20
-0.119078
 40
0.001768
 50
261.869898
 51
270.0
  0
ARC
  8
APS_GEOMETRY
 10
0.080309
 20
-0.109404
 40
0.01154
 50
258.690068
 51
261.869898
  0
LINE
  8
APS_GEOMETRY
 10
0.078046
 11
0.077511
 20
-0.12072
 21
-0.12072
  0
LINE
  8
APS_GEOMETRY
 10
0.077511
 11
0.077165
 20
-0.12072
 21
-0.12072
  0
ARC
  8
APS_GEOMETRY
 10
0.077165
 20
-0.121174
 40
0.000454
 50
90.0
 51
120.256437
  0
ARC
  8
APS_GEOMETRY
 10
0.078653
 20
-0.123724
 40
0.003406
 50
120.256437
 51
131.185925
  0
ARC
  8
APS_GEOMETRY
 10
0.074167
 20
-0.118597
 40
0.003406
 50
300.256437
 51
311.185925
  0
ARC
  8
APS_GEOMETRY
 10
0.075655
 20
-0.121148
 40
0.000454
 50
270.0
 51
300.256437
  0
LINE
  8
APS_GEOMETRY
 10
0.075655
 11
0.074396
 20
-0.121601
 21
-0.121601
  0
LINE
  8
APS_GEOMETRY
 10
0.074396
 11
0.074144
 20
-0.121601
 21
-0.121224
  0
ARC
  8
APS_GEOMETRY
 10
0.075275
 20
-0.117075
 40
0.0043
 50
252.838701
 51
254.744881
  0
ARC
  8
APS_GEOMETRY
 10
0.073137
 20
-0.124792
 40
0.003946
 50
90.0
 51
249.443955
  0
ARC
  8
APS_GEOMETRY
 10
0.073137
 20
-0.121163
 40
0.000317
 50
90.0
 51
112.380135
  0
ARC
  8
APS_GEOMETRY
 10
0.081595
 20
-0.141705
 40
0.022532
 50
112.380135
 51
115.016893
  0
ARC
  8
APS_GEOMETRY
 10
0.069895
 20
-0.116633
 40
0.005136
 50
283.570434
 51
295.016893
  0
ARC
  8
APS_GEOMETRY
 10
0.070242
 20
-0.118068
 40
0.003659
 50
270.0
 51
283.570434
  0
ARC
  8
APS_GEOMETRY
 10
0.070242
 20
-0.115837
 40
0.00589
 50
251.029592
 51
270.0
  0
ARC
  8
APS_GEOMETRY
 10
0.071172
 20
-0.113129
 40
0.008753
 50
235.491477
 51
251.029592
  0
ARC
  8
APS_GEOMETRY
 10
0.053942
 20
-0.107194
 40
0.017985
 50
304.99202
 51
313.025066
  0
ARC
  8
APS_GEOMETRY
 10
0.063696
 20
-0.121128
 40
0.000976
 50
270.0
 51
304.99202
  0
ARC
  8
APS_GEOMETRY
 10
0.063696
 20
-0.121173
 40
0.000931
 50
254.744881
 51
270.0
  0
ARC
  8
APS_GEOMETRY
 10
0.064351
 20
-0.118773
 40
0.00342
 50
246.801409
 51
254.744881
  0
ARC
  8
APS_GEOMETRY
 10
0.061656
 20
-0.125059
 40
0.00342
 50
66.801409
 51
74.744881
  0
ARC
  8
APS_GEOMETRY
 10
0.062311
 20
-0.122658
 40
0.000931
 50
74.744881
 51
90.0
  0
ARC
  8
APS_GEOMETRY
 10
0.062311
 20
-0.123617
 40
0.00189
 50
90.0
 51
105.068488
  0
ARC
  8
APS_GEOMETRY
 10
0.064725
 20
-0.132583
 40
0.011175
 50
105.068488
 51
111.250506
  0
ARC
  8
APS_GEOMETRY
 10
0.056624
 20
-0.111753
 40
0.011175
 50
285.068488
 51
291.250506
  0
ARC
  8
APS_GEOMETRY
 10
0.059038
 20
-0.120718
 40
0.00189
 50
270.0
 51
285.068488
  0
ARC
  8
APS_GEOMETRY
 10
0.059038
 20
-0.118566
 40
0.004042
 50
261.119341
 51
270.0
  0
ARC
  8
APS_GEOMETRY
 10
0.061606
 20
-0.102135
 40
0.020673
 50
257.195734
 51
261.119341
  0
ARC
  8
APS_GEOMETRY
 10
0.052975
 20
-0.140109
 40
0.01827
 50
77.195734
 51
81.634114
  0
ARC
  8
APS_GEOMETRY
 10
0.054884
 20
-0.127128
 40
0.005149
 50
81.634114
 51
90.0
  0
ARC
  8
APS_GEOMETRY
 10
0.054884
 20
-0.133312
 40
0.011334
 50
90.0
 51
93.814075
  0
ARC
  8
APS_GEOMETRY
 10
0.055849
 20
-0.147778
 40
0.025831
 50
93.814075
 51
96.340192
  0
ARC
  8
APS_GEOMETRY
 10
0.052648
 20
-0.121931
 40
0.000389
 50
296.565051
 51
333.434949
  0
ARC
  8
APS_GEOMETRY
 10
0.052492
 20
-0.12162
 40
0.000737
 50
270.0
 51
296.565051
  0
ARC
  8
APS_GEOMETRY
 10
0.052492
 20
-0.121568
 40
0.000788
 50
228.012788
 51
270.0
  0
ARC
  8
APS_GEOMETRY
 10
0.058728
 20
-0.114639
 40
0.01011
 50
216.528855
 51
228.012788
  0
ARC
  8
APS_GEOMETRY
 10
0.0142
 20
-0.147624
 40
0.045304
 50
36.528855
 51
39.173658
  0
ARC
  8
APS_GEOMETRY
 10
0.04922
 20
-0.119089
 40
0.000131
 50
39.173658
 51
90.0
  0
LINE
  8
APS_GEOMETRY
 10
0.04922
 11
0.04922
 20
-0.118958
 21
-0.119209
  0
ARC
  8
APS_GEOMETRY
 10
0.050887
 20
-0.119209
 40
0.001667
 50
180.0
 51
200.556045
  0
ARC
  8
APS_GEOMETRY
 10
0.050435
 20
-0.119379
 40
0.001184
 50
200.556045
 51
225.0
  0
ARC
  8
APS_GEOMETRY
 10
0.048307
 20
-0.120217
 40
0.00129
 50
324.688787
 51
0.0
  0
ARC
  8
APS_GEOMETRY
 10
0.047161
 20
-0.119404
 40
0.002695
 50
300.465545
 51
324.688787
  0
ARC
  8
APS_GEOMETRY
 10
0.044769
 20
-0.115339
 40
0.007412
 50
291.037511
 51
300.465545
  0
ARC
  8
APS_GEOMETRY
 10
0.046891
 20
-0.120854
 40
0.001502
 50
270.0
 51
291.037511
  0
ARC
  8
APS_GEOMETRY
 10
0.046891
 20
-0.128308
 40
0.005951
 50
90.0
 51
95.440332
  0
ARC
  8
APS_GEOMETRY
 10
0.047359
 20
-0.13322
 40
0.010885
 50
95.440332
 51
99.462322
  0
LINE
  8
APS_GEOMETRY
 10
0.045569
 11
0.044814
 20
-0.122482
 21
-0.122482
  0
LINE
  8
APS_GEOMETRY
 10
0.044814
 11
0.04431
 20
-0.122482
 21
-0.122482
  0
LINE
  8
APS_GEOMETRY
 10
0.04431
 11
0.044106
 20
-0.122482
 21
-0.122608
  0
LINE
  8
APS_GEOMETRY
 10
0.044106
 11
0.043492
 20
-0.122608
 21
-0.122986
  0
ARC
  8
APS_GEOMETRY
 10
0.041629
 20
-0.119959
 40
0.003554
 50
286.504361
 51
301.607502
  0
ARC
  8
APS_GEOMETRY
 10
0.041793
 20
-0.12051
 40
0.002979
 50
270.0
 51
286.504361
  0
ARC
  8
APS_GEOMETRY
 10
0.034423
 20
-0.152967
 40
0.030385
 50
75.963757
 51
80.837653
  0
ARC
  8
APS_GEOMETRY
 10
0.03789
 20
-0.131471
 40
0.008611
 50
80.837653
 51
90.0
  0
ARC
  8
APS_GEOMETRY
 10
0.03789
 20
-0.123243
 40
0.000383
 50
90.0
 51
108.434949
  0
ARC
  8
APS_GEOMETRY
 10
0.038388
 20
-0.124737
 40
0.001958
 50
108.434949
 51
116.565051
  0
ARC
  8
APS_GEOMETRY
 10
0.036637
 20
-0.121235
 40
0.001958
 50
288.434949
 51
296.565051
  0
ARC
  8
APS_GEOMETRY
 10
0.037135
 20
-0.122728
 40
0.000383
 50
270.0
 51
288.434949
  0
ARC
  8
APS_GEOMETRY
 10
0.037135
 20
-0.122282
 40
0.00083
 50
252.897271
 51
270.0
  0
ARC
  8
APS_GEOMETRY
 10
0.038398
 20
-0.118177
 40
0.005125
 50
246.037511
 51
252.897271
  0
ARC
  8
APS_GEOMETRY
 10
0.03499
 20
-0.125845
 40
0.003267
 50
66.037511
 51
76.75948
  0
ARC
  8
APS_GEOMETRY
 10
0.035247
 20
-0.124754
 40
0.002146
 50
76.75948
 51
90.0
  0
ARC
  8
APS_GEOMETRY
 10
0.035247
 20
-0.120212
 40
0.002397
 50
258.023868
 51
270.0
  0
ARC
  8
APS_GEOMETRY
 10
0.062712
 20
0.009266
 40
0.134755
 50
256.429566
 51
258.023868
  0
ARC
  8
APS_GEOMETRY
 10
0.019803
 20
-0.11205
 40
0.014869
 50
315.0
 51
319.398705
  0
ARC
  8
APS_GEOMETRY
 10
0.030211
 20
-0.122459
 40
0.00015
 50
270.0
 51
315.0
  0
LINE
  8
APS_GEOMETRY
 10
0.030211
 11
0.029834
 20
-0.122608
 21
-0.122608
  0
ARC
  8
APS_GEOMETRY
 10
0.027344
 20
-0.124683
 40
0.003241
 50
39.805571
 51
56.309932
  0
ARC
  8
APS_GEOMETRY
 10
0.028701
 20
-0.122648
 40
0.000795
 50
56.309932
 51
90.0
  0
ARC
  8
APS_GEOMETRY
 10
0.028701
 20
-0.122557
 40
0.000704
 50
90.0
 51
109.983107
  0
ARC
  8
APS_GEOMETRY
 10
0.029461
 20
-0.124646
 40
0.002926
 50
109.983107
 51
119.744881
  0
ARC
  8
APS_GEOMETRY
 10
0.026557
 20
-0.119564
 40
0.002926
 50
289.983107
 51
299.744881
  0
ARC
  8
APS_GEOMETRY
 10
0.027316
 20
-0.121653
 40
0.000704
 50
270.0
 51
289.983107
  0
ARC
  8
APS_GEOMETRY
 10
0.025503
 20
-0.12417
 40
0.002564
 50
45.0
 51
60.255119
  0
ARC
  8
APS_GEOMETRY
 10
0.026435
 20
-0.122539
 40
0.000686
 50
60.255119
 51
90.0
  0
ARC
  8
APS_GEOMETRY
 10
0.026435
 20
-0.122426
 40
0.000573
 50
90.0
 51
135.0
  0
ARC
  8
APS_GEOMETRY
 10
0.029112
 20
-0.125103
 40
0.004358
 50
135.0
 51
150.945396
  0
LINE
  8
APS_GEOMETRY
 10
0.025302
 11
0.024799
 20
-0.122986
 21
-0.122986
  0
ARC
  8
APS_GEOMETRY
 10
0.024799
 20
-0.120302
 40
0.002684
 50
251.565051
 51
270.0
  0
ARC
  8
APS_GEOMETRY
 10
0.028283
 20
-0.109849
 40
0.013703
 50
243.434949
 51
251.565051
  0
ARC
  8
APS_GEOMETRY
 10
-0.004454
 20
-0.172366
 40
0.056871
 50
62.102729
 51
64.536655
  0
ARC
  8
APS_GEOMETRY
 10
0.018884
 20
-0.123357
 40
0.002588
 50
64.536655
 51
75.963757
  0
LINE
  8
APS_GEOMETRY
 10
0.019512
 11
0.019512
 20
-0.120846
 21
-0.120217
  0
ARC
  8
APS_GEOMETRY
 10
0.011201
 20
-0.136837
 40
0.018582
 50
63.434949
 51
66.037511
  0
ARC
  8
APS_GEOMETRY
 10
-0.009605
 20
-0.183652
 40
0.069813
 50
66.037511
 51
67.380135
  0
LINE
  8
APS_GEOMETRY
 10
0.017246
 11
0.017246
 20
-0.119209
 21
-0.115559
  0
ARC
  8
APS_GEOMETRY
 10
0.020951
 20
-0.117243
 40
0.004071
 50
135.0
 51
155.556045
  0
ARC
  8
APS_GEOMETRY
 10
0.021644
 20
-0.117936
 40
0.005051
 50
116.565051
 51
135.0
  0
ARC
  8
APS_GEOMETRY
 10
-0.040635
 20
0.006623
 40
0.13421
 50
296.565051
 51
297.645975
  0
ARC
  8
APS_GEOMETRY
 10
0.019646
 20
-0.108459
 40
0.004296
 50
297.645975
 51
303.690068
  0
ARC
  8
APS_GEOMETRY
 10
0.032905
 20
-0.118249
 40
0.012526
 50
145.619655
 51
150.255119
  0
ARC
  8
APS_GEOMETRY
 10
0.058395
 20
-0.135689
 40
0.043411
 50
143.130102
 51
145.619655
  0
ARC
  8
APS_GEOMETRY
 10
0.05199
 20
-0.119084
 40
0.029856
 50
159.274441
 51
161.565051
  0
ARC
  8
APS_GEOMETRY
 10
0.057034
 20
-0.120992
 40
0.035249
 50
157.166346
 51
159.274441
  0
ARC
  8
APS_GEOMETRY
 10
0.01943
 20
-0.105159
 40
0.005552
 50
337.166346
 51
350.272421
  0
ARC
  8
APS_GEOMETRY
 10
0.021583
 20
-0.105528
 40
0.003367
 50
350.272421
 51
7.125016
  0
ARC
  8
APS_GEOMETRY
 10
0.024924
 20
-0.104969
 40
0.000142
 50
270.0
 51
315.0
  0
ARC
  8
APS_GEOMETRY
 10
0.024453
 20
-0.104497
 40
0.000809
 50
315.0
 51
333.434949
  0
ARC
  8
APS_GEOMETRY
 10
0.024975
 20
-0.104859
 40
0.000202
 50
0.0
 51
33.690068
  0
ARC
  8
APS_GEOMETRY
 10
0.023691
 20
-0.105715
 40
0.001744
 50
33.690068
 51
45.0
  0
LINE
  8
APS_GEOMETRY
 10
0.024924
 11
0.024924
 20
-0.104481
 21
-0.100579
  0
ARC
  8
APS_GEOMETRY
 10
0.021523
 20
-0.100579
 40
0.003402
 50
0.0
 51
18.799885
  0
ARC
  8
APS_GEOMETRY
 10
-0.04461
 20
-0.123092
 40
0.073262
 50
18.799885
 51
22.833654
  0
ARC
  8
APS_GEOMETRY
 10
-0.060885
 20
-0.129945
 40
0.09092
 50
22.833654
 51
26.095424
  0
ARC
  8
APS_GEOMETRY
 10
0.011941
 20
-0.094275
 40
0.009828
 50
26.095424
 51
36.027373
  0
ARC
  8
APS_GEOMETRY
 10
-0.007901
 20
-0.087916
 40
0.027796
 50
358.806511
 51
11.056413
  0
ARC
  8
APS_GEOMETRY
 10
-0.002393
 20
-0.086839
 40
0.022184
 50
11.056413
 51
24.775141
  0
ARC
  8
APS_GEOMETRY
 10
0.022711
 20
-0.077543
 40
0.004962
 50
168.465379
 51
180.0
  0
ARC
  8
APS_GEOMETRY
 10
0.040611
 20
-0.081196
 40
0.023231
 50
163.141601
 51
168.465379
  0
ARC
  8
APS_GEOMETRY
 10
-0.002147
 20
-0.068239
 40
0.021447
 50
343.141601
 51
348.906277
  0
ARC
  8
APS_GEOMETRY
 10
0.013204
 20
-0.071249
 40
0.005804
 50
348.906277
 51
0.0
  0
ARC
  8
APS_GEOMETRY
 10
0.017656
 20
-0.071249
 40
0.001352
 50
0.0
 51
20.556045
  0
ARC
  8
APS_GEOMETRY
 10
0.01692
 20
-0.071525
 40
0.002139
 50
20.556045
 51
36.869898
  0
LINE
  8
APS_GEOMETRY
 10
0.01863
 11
0.01863
 20
-0.070242
 21
-0.069235
  0
ARC
  8
APS_GEOMETRY
 10
0.015087
 20
-0.069235
 40
0.003543
 50
0.0
 51
12.144278
  0
ARC
  8
APS_GEOMETRY
 10
-0.097643
 20
-0.093493
 40
0.118854
 50
12.144278
 51
14.23728
  0
ARC
  8
APS_GEOMETRY
 10
-0.190477
 20
-0.117048
 40
0.21463
 50
14.23728
 51
15.395549
  0
ARC
  8
APS_GEOMETRY
 10
0.016127
 20
-0.060157
 40
0.000336
 50
15.395549
 51
45.0
  0
LINE
  8
APS_GEOMETRY
 10
0.016365
 11
0.016365
 20
-0.059919
 21
-0.056898
  0
ARC
  8
APS_GEOMETRY
 10
0.006519
 20
-0.051428
 40
0.011263
 50
330.945396
 51
337.520566
  0
ARC
  8
APS_GEOMETRY
 10
-0.027269
 20
-0.037447
 40
0.047829
 50
337.520566
 51
340.709954
  0
ARC
  8
APS_GEOMETRY
 10
0.02081
 20
-0.05178
 40
0.003281
 50
192.094757
 51
206.565051
  0
ARC
  8
APS_GEOMETRY
 10
0.022186
 20
-0.051485
 40
0.004689
 50
180.0
 51
192.094757
  0
ARC
  8
APS_GEOMETRY
 10
0.026321
 20
-0.051485
 40
0.008823
 50
158.702646
 51
180.0
  0
ARC
  8
APS_GEOMETRY
 10
0.035947
 20
-0.055238
 40
0.019155
 50
144.293309
 51
158.702646
  0
LINE
  8
APS_GEOMETRY
 10
0.020393
 11
0.020141
 20
-0.044058
 21
-0.043933
  0
ARC
  8
APS_GEOMETRY
 10
0.025493
 20
-0.058204
 40
0.015241
 50
110.556045
 51
130.16958
  0
ARC
  8
APS_GEOMETRY
 10
0.036838
 20
-0.071643
 40
0.032829
 50
130.16958
 51
143.498559
  0
ARC
  8
APS_GEOMETRY
 10
0.010347
 20
-0.051712
 40
0.000415
 50
233.130102
 51
284.036243
  0
ARC
  8
APS_GEOMETRY
 10
0.010328
 20
-0.051737
 40
0.000384
 50
180.0
 51
233.130102
  0
ARC
  8
APS_GEOMETRY
 10
0.011424
 20
-0.051737
 40
0.00148
 50
135.0
 51
180.0
  0
ARC
  8
APS_GEOMETRY
 10
0.049093
 20
-0.089405
 40
0.054751
 50
127.785738
 51
135.0
  0
ARC
  8
APS_GEOMETRY
 10
0.047317
 20
-0.087115
 40
0.051852
 50
120.106527
 51
127.785738
  0
ARC
  8
APS_GEOMETRY
 10
0.023036
 20
-0.04524
 40
0.003447
 50
90.0
 51
120.106527
  0
ARC
  8
APS_GEOMETRY
 10
0.023036
 20
-0.042135
 40
0.000343
 50
51.340192
 51
90.0
  0
ARC
  8
APS_GEOMETRY
 10
0.021771
 20
-0.043717
 40
0.002369
 50
36.869898
 51
51.340192
  0
LINE
  8
APS_GEOMETRY
 10
0.023666
 11
0.023917
 20
-0.042296
 21
-0.042296
  0
ARC
  8
APS_GEOMETRY
 10
0.023917
 20
-0.041764
 40
0.000532
 50
270.0
 51
315.0
  0
ARC
  8
APS_GEOMETRY
 10
0.023638
 20
-0.041485
 40
0.000927
 50
315.0
 51
348.690068
  0
ARC
  8
APS_GEOMETRY
 10
0.027509
 20
-0.042259
 40
0.00302
 50
156.801409
 51
168.690068
  0
ARC
  8
APS_GEOMETRY
 10
0.025565
 20
-0.041426
 40
0.000906
 50
135.0
 51
156.801409
  0
ARC
  8
APS_GEOMETRY
 10
0.01026
 20
0.037425
 40
0.079573
 50
280.619655
 51
282.094757
  0
ARC
  8
APS_GEOMETRY
 10
0.017308
 20
0.004535
 40
0.045937
 50
282.094757
 51
284.036243
  0
ARC
  8
APS_GEOMETRY
 10
0.028122
 20
-0.039867
 40
0.000366
 50
291.801409
 51
333.434949
  0
ARC
  8
APS_GEOMETRY
 10
0.008359
 20
0.009541
 40
0.053579
 50
288.434949
 51
291.801409
  0
LINE
  8
APS_GEOMETRY
 10
0.025302
 11
0.025302
 20
-0.041289
 21
-0.043681
  0
ARC
  8
APS_GEOMETRY
 10
0.027768
 20
-0.039242
 40
0.005078
 50
240.945396
 51
255.256437
  0
ARC
  8
APS_GEOMETRY
 10
0.027694
 20
-0.039524
 40
0.004786
 50
255.256437
 51
270.0
  0
ARC
  8
APS_GEOMETRY
 10
0.027694
 20
-0.043074
 40
0.001236
 50
270.0
 51
313.264295
  0
ARC
  8
APS_GEOMETRY
 10
0.002615
 20
-0.016428
 40
0.037827
 50
313.264295
 51
320.906141
  0
ARC
  8
APS_GEOMETRY
 10
0.026699
 20
-0.04193
 40
0.005526
 50
17.354025
 51
37.405357
  0
ARC
  8
APS_GEOMETRY
 10
0.030198
 20
-0.039255
 40
0.001121
 50
37.405357
 51
82.874984
  0
ARC
  8
APS_GEOMETRY
 10
0.029365
 20
-0.038337
 40
0.000992
 50
11.309932
 51
45.0
  0
ARC
  8
APS_GEOMETRY
 10
0.028699
 20
-0.039002
 40
0.001933
 50
45.0
 51
68.962489
  0
ARC
  8
APS_GEOMETRY
 10
0.033895
 20
-0.025494
 40
0.01254
 50
244.983107
 51
248.962489
  0
ARC
  8
APS_GEOMETRY
 10
0.028804
 20
-0.036402
 40
0.000502
 50
225.0
 51
244.983107
  0
ARC
  8
APS_GEOMETRY
 10
0.030812
 20
-0.037939
 40
0.002641
 50
141.340192
 51
153.434949
  0
ARC
  8
APS_GEOMETRY
 10
0.036235
 20
-0.042277
 40
0.009586
 50
135.0
 51
141.340192
  0
ARC
  8
APS_GEOMETRY
 10
0.046826
 20
-0.013166
 40
0.028292
 50
232.125016
 51
235.00798
  0
ARC
  8
APS_GEOMETRY
 10
0.030715
 20
-0.036182
 40
0.000198
 50
235.00798
 51
270.0
  0
ARC
  8
APS_GEOMETRY
 10
0.030715
 20
-0.03616
 40
0.000219
 50
270.0
 51
300.963757
  0
ARC
  8
APS_GEOMETRY
 10
0.030289
 20
-0.03545
 40
0.001048
 50
300.963757
 51
315.0
  0
ARC
  8
APS_GEOMETRY
 10
0.031501
 20
-0.036662
 40
0.000666
 50
113.198591
 51
135.0
  0
ARC
  8
APS_GEOMETRY
 10
0.03147
 20
-0.036591
 40
0.000589
 50
90.0
 51
113.198591
  0
ARC
  8
APS_GEOMETRY
 10
0.03147
 20
-0.036448
 40
0.000446
 50
74.054604
 51
90.0
  0
ARC
  8
APS_GEOMETRY
 10
0.030689
 20
-0.039182
 40
0.00329
 50
68.198591
 51
74.054604
  0
ARC
  8
APS_GEOMETRY
 10
0.03268
 20
-0.034205
 40
0.002071
 50
248.198591
 51
257.471192
  0
ARC
  8
APS_GEOMETRY
 10
0.032477
 20
-0.035117
 40
0.001137
 50
257.471192
 51
270.0
  0
ARC
  8
APS_GEOMETRY
 10
0.032477
 20
-0.035997
 40
0.000256
 50
270.0
 51
296.565051
  0
ARC
  8
APS_GEOMETRY
 10
0.032356
 20
-0.035755
 40
0.000528
 50
296.565051
 51
315.0
  0
ARC
  8
APS_GEOMETRY
 10
0.033102
 20
-0.036501
 40
0.000528
 50
116.565051
 51
135.0
  0
ARC
  8
APS_GEOMETRY
 10
0.032981
 20
-0.036258
 40
0.000256
 50
90.0
 51
116.565051
  0
ARC
  8
APS_GEOMETRY
 10
0.034517
 20
-0.033953
 40
0.002561
 50
233.130102
 51
246.801409
  0
ARC
  8
APS_GEOMETRY
 10
0.033862
 20
-0.035482
 40
0.000897
 50
246.801409
 51
270.0
  0
ARC
  8
APS_GEOMETRY
 10
0.033862
 20
-0.036149
 40
0.00023
 50
270.0
 51
300.256437
  0
ARC
  8
APS_GEOMETRY
 10
0.029349
 20
-0.028413
 40
0.009186
 50
300.256437
 51
304.99202
  0
ARC
  8
APS_GEOMETRY
 10
0.039073
 20
-0.042304
 40
0.00777
 50
119.357754
 51
124.99202
  0
ARC
  8
APS_GEOMETRY
 10
0.03628
 20
-0.037338
 40
0.002072
 50
108.434949
 51
119.357754
  0
LINE
  8
APS_GEOMETRY
 10
0.035624
 11
0.035624
 20
-0.035373
 21
-0.035876
  0
ARC
  8
APS_GEOMETRY
 10
-0.000798
 20
-0.004657
 40
0.047971
 50
318.012788
 51
319.398705
  0
ARC
  8
APS_GEOMETRY
 10
-0.015587
 20
0.008653
 40
0.067868
 50
316.84761
 51
318.012788
  0
ARC
  8
APS_GEOMETRY
 10
0.03726
 20
-0.040891
 40
0.004572
 50
136.84761
 51
153.434949
  0
ARC
  8
APS_GEOMETRY
 10
0.034783
 20
-0.039653
 40
0.001802
 50
153.434949
 51
180.0
  0
LINE
  8
APS_GEOMETRY
 10
0.032981
 11
0.032981
 20
-0.039653
 21
-0.040534
  0
ARC
  8
APS_GEOMETRY
 10
0.031462
 20
-0.044331
 40
0.00409
 50
58.736268
 51
68.198591
  0
ARC
  8
APS_GEOMETRY
 10
-0.021966
 20
-0.132331
 40
0.107039
 50
56.888658
 51
58.736268
  0
ARC
  8
APS_GEOMETRY
 10
0.039737
 20
-0.038007
 40
0.005677
 50
235.304846
 51
254.744881
  0
ARC
  8
APS_GEOMETRY
 10
0.04066
 20
-0.034622
 40
0.009184
 50
254.744881
 51
270.0
  0
ARC
  8
APS_GEOMETRY
 10
0.04066
 20
-0.042846
 40
0.000961
 50
270.0
 51
298.072487
  0
ARC
  8
APS_GEOMETRY
 10
0.040291
 20
-0.042154
 40
0.001744
 50
298.072487
 51
318.814075
  0
ARC
  8
APS_GEOMETRY
 10
0.020711
 20
-0.025022
 40
0.027762
 50
318.814075
 51
320.194429
  0
ARC
  8
APS_GEOMETRY
 10
0.037322
 20
-0.038865
 40
0.006139
 50
320.194429
 51
323.130102
  0
ARC
  8
APS_GEOMETRY
 10
0.041378
 20
-0.041906
 40
0.001069
 50
323.130102
 51
339.443955
  0
ARC
  8
APS_GEOMETRY
 10
0.041746
 20
-0.042044
 40
0.000676
 50
339.443955
 51
0.0
  0
ARC
  8
APS_GEOMETRY
 10
0.04166
 20
-0.042044
 40
0.000762
 50
0.0
 51
18.434949
  0
ARC
  8
APS_GEOMETRY
 10
0.040825
 20
-0.042323
 40
0.001642
 50
18.434949
 51
30.963757
  0
ARC
  8
APS_GEOMETRY
 10
0.038306
 20
-0.043834
 40
0.00458
 50
30.963757
 51
35.537678
  0
ARC
  8
APS_GEOMETRY
 10
0.04116
 20
-0.041795
 40
0.001072
 50
35.537678
 51
45.0
  0
LINE
  8
APS_GEOMETRY
 10
0.041918
 11
0.04217
 20
-0.041037
 21
-0.040534
  0
LINE
  8
APS_GEOMETRY
 10
0.04217
 11
0.042296
 20
-0.040534
 21
-0.040534
  0
ARC
  8
APS_GEOMETRY
 10
0.042296
 20
-0.041341
 40
0.000808
 50
50.194429
 51
90.0
  0
ARC
  8
APS_GEOMETRY
 10
0.041185
 20
-0.042675
 40
0.002543
 50
28.072487
 51
50.194429
  0
ARC
  8
APS_GEOMETRY
 10
0.039842
 20
-0.043391
 40
0.004065
 50
13.495733
 51
28.072487
  0
ARC
  8
APS_GEOMETRY
 10
0.042416
 20
-0.042773
 40
0.001418
 50
348.690068
 51
13.495733
  0
LINE
  8
APS_GEOMETRY
 10
0.043807
 11
0.044184
 20
-0.043051
 21
-0.043303
  0
ARC
  8
APS_GEOMETRY
 10
0.038435
 20
-0.032955
 40
0.011838
 50
299.054604
 51
305.311213
  0
ARC
  8
APS_GEOMETRY
 10
0.021408
 20
-0.008916
 40
0.041297
 50
305.311213
 51
308.659808
  0
ARC
  8
APS_GEOMETRY
 10
0.046416
 20
-0.04136
 40
0.000813
 50
14.036243
 51
48.17983
  0
ARC
  8
APS_GEOMETRY
 10
0.043777
 20
-0.04431
 40
0.004772
 50
48.17983
 51
62.102729
  0
ARC
  8
APS_GEOMETRY
 10
0.047776
 20
-0.036757
 40
0.003775
 50
225.0
 51
242.102729
  0
ARC
  8
APS_GEOMETRY
 10
0.04551
 20
-0.039023
 40
0.00057
 50
180.0
 51
225.0
  0
LINE
  8
APS_GEOMETRY
 10
0.04494
 11
0.04494
 20
-0.039023
 21
-0.038897
  0
LINE
  8
APS_GEOMETRY
 10
0.04494
 11
0.045569
 20
-0.038897
 21
-0.038646
  0
ARC
  8
APS_GEOMETRY
 10
0.048848
 20
-0.036261
 40
0.004055
 50
216.027373
 51
238.570434
  0
ARC
  8
APS_GEOMETRY
 10
0.047835
 20
-0.037919
 40
0.002112
 50
238.570434
 51
270.0
  0
ARC
  8
APS_GEOMETRY
 10
0.047835
 20
-0.039657
 40
0.000373
 50
270.0
 51
306.027373
  0
ARC
  8
APS_GEOMETRY
 10
0.046362
 20
-0.037632
 40
0.002877
 50
306.027373
 51
318.814075
  0
ARC
  8
APS_GEOMETRY
 10
0.05012
 20
-0.04092
 40
0.002116
 50
121.607502
 51
138.814075
  0
ARC
  8
APS_GEOMETRY
 10
0.049345
 20
-0.039662
 40
0.000639
 50
90.0
 51
121.607502
  0
LINE
  8
APS_GEOMETRY
 10
0.049345
 11
0.049597
 20
-0.039023
 21
-0.039023
  0
LINE
  8
APS_GEOMETRY
 10
0.049597
 11
0.049597
 20
-0.039023
 21
-0.039275
  0
ARC
  8
APS_GEOMETRY
 10
0.047702
 20
-0.039275
 40
0.001895
 50
348.690068
 51
0.0
  0
ARC
  8
APS_GEOMETRY
 10
0.044887
 20
-0.038712
 40
0.004766
 50
341.565051
 51
348.690068
  0
ARC
  8
APS_GEOMETRY
 10
0.055337
 20
-0.042195
 40
0.00625
 50
161.565051
 51
167.005383
  0
ARC
  8
APS_GEOMETRY
 10
0.050319
 20
-0.041037
 40
0.001099
 50
167.005383
 51
180.0
  0
ARC
  8
APS_GEOMETRY
 10
0.051043
 20
-0.041037
 40
0.001824
 50
180.0
 51
206.565051
  0
ARC
  8
APS_GEOMETRY
 10
0.05878
 20
-0.037169
 40
0.010474
 50
206.565051
 51
217.568592
  0
LINE
  8
APS_GEOMETRY
 10
0.050478
 11
0.050478
 20
-0.043555
 21
-0.044436
  0
LINE
  8
APS_GEOMETRY
 10
0.050478
 11
0.049597
 20
-0.044436
 21
-0.044436
  0
ARC
  8
APS_GEOMETRY
 10
0.048696
 20
-0.044211
 40
0.000929
 50
345.963757
 51
16.260205
  0
ARC
  8
APS_GEOMETRY
 10
0.044907
 20
-0.045316
 40
0.004876
 50
16.260205
 51
29.357754
  0
ARC
  8
APS_GEOMETRY
 10
0.046061
 20
-0.044666
 40
0.003551
 50
29.357754
 51
46.735705
  0
ARC
  8
APS_GEOMETRY
 10
0.048087
 20
-0.042515
 40
0.000596
 50
46.735705
 51
90.0
  0
ARC
  8
APS_GEOMETRY
 10
0.048087
 20
-0.04336
 40
0.001441
 50
90.0
 51
118.61046
  0
ARC
  8
APS_GEOMETRY
 10
0.051259
 20
-0.049175
 40
0.008066
 50
118.61046
 51
130.601295
  0
ARC
  8
APS_GEOMETRY
 10
0.038787
 20
-0.034625
 40
0.011098
 50
301.827447
 51
310.601295
  0
ARC
  8
APS_GEOMETRY
 10
0.044184
 20
-0.043321
 40
0.000864
 50
270.0
 51
301.827447
  0
ARC
  8
APS_GEOMETRY
 10
0.044184
 20
-0.043243
 40
0.000942
 50
248.198591
 51
270.0
  0
ARC
  8
APS_GEOMETRY
 10
0.044144
 20
-0.043343
 40
0.000833
 50
225.0
 51
248.198591
  0
ARC
  8
APS_GEOMETRY
 10
0.043343
 20
-0.046693
 40
0.002769
 50
85.601295
 51
116.565051
  0
ARC
  8
APS_GEOMETRY
 10
0.043776
 20
-0.04756
 40
0.003738
 50
116.565051
 51
143.130102
  0
LINE
  8
APS_GEOMETRY
 10
0.040785
 11
0.040156
 20
-0.045317
 21
-0.045317
  0
ARC
  8
APS_GEOMETRY
 10
0.048089
 20
-0.032096
 40
0.015419
 50
236.309932
 51
239.036243
  0
ARC
  8
APS_GEOMETRY
 10
0.077034
 20
0.011321
 40
0.0676
 50
235.00798
 51
236.309932
  0
LINE
  8
APS_GEOMETRY
 10
0.038268
 11
0.037638
 20
-0.044058
 21
-0.044184
  0
ARC
  8
APS_GEOMETRY
 10
0.037638
 20
-0.041174
 40
0.00301
 50
251.565051
 51
270.0
  0
ARC
  8
APS_GEOMETRY
 10
0.037432
 20
-0.041793
 40
0.002358
 50
230.710593
 51
251.565051
  0
ARC
  8
APS_GEOMETRY
 10
0.028967
 20
-0.052139
 40
0.01101
 50
50.710593
 51
55.304846
  0
ARC
  8
APS_GEOMETRY
 10
0.035121
 20
-0.04325
 40
0.000199
 50
55.304846
 51
90.0
  0
ARC
  8
APS_GEOMETRY
 10
0.035121
 20
-0.043354
 40
0.000302
 50
90.0
 51
113.198591
  0
ARC
  8
APS_GEOMETRY
 10
0.036052
 20
-0.045526
 40
0.002666
 50
113.198591
 51
120.963757
  0
ARC
  8
APS_GEOMETRY
 10
0.033836
 20
-0.041832
 40
0.001642
 50
288.434949
 51
300.963757
  0
ARC
  8
APS_GEOMETRY
 10
0.034114
 20
-0.042667
 40
0.000762
 50
270.0
 51
288.434949
  0
ARC
  8
APS_GEOMETRY
 10
0.0306
 20
-0.046942
 40
0.004969
 50
45.0
 51
59.036243
  0
ARC
  8
APS_GEOMETRY
 10
0.031395
 20
-0.045618
 40
0.003424
 50
59.036243
 51
75.963757
  0
ARC
  8
APS_GEOMETRY
 10
0.030889
 20
-0.041628
 40
0.001495
 50
322.696052
 51
333.434949
  0
ARC
  8
APS_GEOMETRY
 10
0.003001
 20
-0.02038
 40
0.036554
 50
320.52754
 51
322.696052
  0
ARC
  8
APS_GEOMETRY
 10
0.05089
 20
-0.059818
 40
0.025484
 50
140.52754
 51
143.615648
  0
ARC
  8
APS_GEOMETRY
 10
0.030527
 20
-0.044814
 40
0.00019
 50
143.615648
 51
180.0
  0
ARC
  8
APS_GEOMETRY
 10
0.031195
 20
-0.044814
 40
0.000857
 50
180.0
 51
218.659808
  0
ARC
  8
APS_GEOMETRY
 10
0.035149
 20
-0.04165
 40
0.005921
 50
218.659808
 51
233.130102
  0
ARC
  8
APS_GEOMETRY
 10
0.036077
 20
-0.040413
 40
0.007467
 50
233.130102
 51
244.885165
  0
ARC
  8
APS_GEOMETRY
 10
0.03361
 20
-0.045675
 40
0.001657
 50
244.885165
 51
270.0
  0
ARC
  8
APS_GEOMETRY
 10
0.03361
 20
-0.041329
 40
0.006002
 50
270.0
 51
291.447736
  0
ARC
  8
APS_GEOMETRY
 10
0.034614
 20
-0.043884
 40
0.003257
 50
291.447736
 51
320.710593
  0
ARC
  8
APS_GEOMETRY
 10
0.038234
 20
-0.047046
 40
0.001555
 50
122.005383
 51
135.0
  0
ARC
  8
APS_GEOMETRY
 10
0.042095
 20
-0.053223
 40
0.008839
 50
116.565051
 51
122.005383
  0
LINE
  8
APS_GEOMETRY
 10
0.038142
 11
0.038771
 20
-0.045317
 21
-0.045695
  0
LINE
  8
APS_GEOMETRY
 10
0.038771
 11
0.03638
 20
-0.045695
 21
-0.047835
  0
ARC
  8
APS_GEOMETRY
 10
0.035019
 20
-0.04239
 40
0.005612
 50
278.746162
 51
284.036243
  0
ARC
  8
APS_GEOMETRY
 10
0.031749
 20
-0.021137
 40
0.027115
 50
276.340192
 51
278.746162
  0
LINE
  8
APS_GEOMETRY
 10
0.034743
 11
0.033359
 20
-0.048087
 21
-0.047457
  0
ARC
  8
APS_GEOMETRY
 10
0.031822
 20
-0.045409
 40
0.002561
 50
293.198591
 51
306.869898
  0
ARC
  8
APS_GEOMETRY
 10
0.032477
 20
-0.046938
 40
0.000897
 50
270.0
 51
293.198591
  0
ARC
  8
APS_GEOMETRY
 10
0.032477
 20
-0.044574
 40
0.003261
 50
232.696052
 51
270.0
  0
ARC
  8
APS_GEOMETRY
 10
0.031527
 20
-0.045821
 40
0.001693
 50
180.0
 51
232.696052
  0
ARC
  8
APS_GEOMETRY
 10
0.029624
 20
-0.045821
 40
0.00021
 50
0.0
 51
79.380345
  0
ARC
  8
APS_GEOMETRY
 10
0.02782
 20
-0.055443
 40
0.01
 50
79.380345
 51
90.0
  0
ARC
  8
APS_GEOMETRY
 10
0.02782
 20
-0.040697
 40
0.004746
 50
252.474432
 51
270.0
  0
ARC
  8
APS_GEOMETRY
 10
0.02722
 20
-0.042597
 40
0.002753
 50
229.398705
 51
252.474432
  0
ARC
  8
APS_GEOMETRY
 10
0.013961
 20
-0.058067
 40
0.017621
 50
49.398705
 51
53.130102
  0
ARC
  8
APS_GEOMETRY
 10
0.024421
 20
-0.044119
 40
0.000187
 50
53.130102
 51
90.0
  0
ARC
  8
APS_GEOMETRY
 10
0.024421
 20
-0.044538
 40
0.000606
 50
90.0
 51
111.801409
  0
ARC
  8
APS_GEOMETRY
 10
0.02426
 20
-0.044135
 40
0.000172
 50
111.801409
 51
153.434949
  0
ARC
  8
APS_GEOMETRY
 10
0.023888
 20
-0.043949
 40
0.000244
 50
303.690068
 51
333.434949
  0
ARC
  8
APS_GEOMETRY
 10
0.023917
 20
-0.043993
 40
0.000191
 50
270.0
 51
303.690068
  0
ARC
  8
APS_GEOMETRY
 10
0.023917
 20
-0.043972
 40
0.000212
 50
237.094757
 51
270.0
  0
ARC
  8
APS_GEOMETRY
 10
0.071054
 20
0.028875
 40
0.08698
 50
235.491477
 51
237.094757
  0
ARC
  8
APS_GEOMETRY
 10
0.029885
 20
-0.047165
 40
0.009208
 50
151.699244
 51
163.141601
  0
ARC
  8
APS_GEOMETRY
 10
0.037684
 20
-0.049528
 40
0.017357
 50
163.141601
 51
171.469234
  0
ARC
  8
APS_GEOMETRY
 10
0.0213
 20
-0.047149
 40
0.000806
 50
131.633539
 51
165.963757
  0
ARC
  8
APS_GEOMETRY
 10
0.023477
 20
-0.049598
 40
0.004083
 50
116.565051
 51
131.633539
  0
ARC
  8
APS_GEOMETRY
 10
0.025433
 20
-0.049728
 40
0.005348
 50
135.0
 51
146.309932
  0
ARC
  8
APS_GEOMETRY
 10
0.026994
 20
-0.050769
 40
0.007223
 50
146.309932
 51
156.037511
  0
ARC
  8
APS_GEOMETRY
 10
0.018634
 20
-0.047835
 40
0.001758
 50
0.0
 51
15.945396
  0
ARC
  8
APS_GEOMETRY
 10
0.018958
 20
-0.047742
 40
0.001422
 50
15.945396
 51
33.690068
  0
ARC
  8
APS_GEOMETRY
 10
0.030529
 20
-0.052147
 40
0.011614
 50
153.434949
 51
158.962489
  0
ARC
  8
APS_GEOMETRY
 10
0.023195
 20
-0.049327
 40
0.003756
 50
158.962489
 51
168.690068
  0
ARC
  8
APS_GEOMETRY
 10
0.023666
 20
-0.036126
 40
0.013138
 50
251.565051
 51
253.300756
  0
ARC
  8
APS_GEOMETRY
 10
0.039903
 20
0.017997
 40
0.069645
 50
253.300756
 51
254.054604
  0
ARC
  8
APS_GEOMETRY
 10
0.020486
 20
-0.048398
 40
0.000637
 50
296.565051
 51
321.340192
  0
ARC
  8
APS_GEOMETRY
 10
-0.009859
 20
-0.024122
 40
0.039497
 50
321.340192
 51
324.462322
  0
ARC
  8
APS_GEOMETRY
 10
0.036149
 20
-0.056325
 40
0.016668
 50
146.309932
 51
152.525568
  0
ARC
  8
APS_GEOMETRY
 10
0.035151
 20
-0.055806
 40
0.015543
 50
152.525568
 51
158.962489
  0
ARC
  8
APS_GEOMETRY
 10
0.020645
 20
-0.050538
 40
0.000312
 50
90.0
 51
165.068583
  0
ARC
  8
APS_GEOMETRY
 10
0.047638
 20
-0.057736
 40
0.028248
 50
165.068583
 51
172.405357
  0
ARC
  8
APS_GEOMETRY
 10
0.019418
 20
-0.054223
 40
0.00031
 50
14.036243
 51
45.0
  0
ARC
  8
APS_GEOMETRY
 10
0.018282
 20
-0.054507
 40
0.001482
 50
0.0
 51
14.036243
  0
ARC
  8
APS_GEOMETRY
 10
0.015963
 20
-0.054507
 40
0.0038
 50
343.300756
 51
0.0
  0
ARC
  8
APS_GEOMETRY
 10
0.012473
 20
-0.05346
 40
0.007444
 50
331.38954
 51
343.300756
  0
LINE
  8
APS_GEOMETRY
 10
0.019008
 11
0.019008
 20
-0.057024
 21
-0.062059
  0
ARC
  8
APS_GEOMETRY
 10
0.010951
 20
-0.066088
 40
0.009009
 50
24.775141
 51
26.565051
  0
ARC
  8
APS_GEOMETRY
 10
-0.020548
 20
-0.080626
 40
0.0437
 50
23.962489
 51
24.775141
  0
ARC
  8
APS_GEOMETRY
 10
0.021081
 20
-0.062124
 40
0.001855
 50
203.962489
 51
221.633539
  0
ARC
  8
APS_GEOMETRY
 10
0.019889
 20
-0.063183
 40
0.000261
 50
221.633539
 51
270.0
  0
ARC
  8
APS_GEOMETRY
 10
0.019889
 20
-0.063066
 40
0.000378
 50
270.0
 51
315.0
  0
ARC
  8
APS_GEOMETRY
 10
0.019889
 20
-0.063066
 40
0.000378
 50
315.0
 51
0.0
  0
ARC
  8
APS_GEOMETRY
 10
0.007913
 20
-0.068918
 40
0.013669
 50
14.420773
 51
25.346176
  0
ARC
  8
APS_GEOMETRY
 10
0.013536
 20
-0.067472
 40
0.007864
 50
0.0
 51
14.420773
  0
ARC
  8
APS_GEOMETRY
 10
0.022167
 20
-0.067472
 40
0.000767
 50
180.0
 51
198.434949
  0
ARC
  8
APS_GEOMETRY
 10
0.025153
 20
-0.066477
 40
0.003915
 50
198.434949
 51
206.565051
  0
ARC
  8
APS_GEOMETRY
 10
0.01815
 20
-0.069978
 40
0.003915
 50
18.434949
 51
26.565051
  0
ARC
  8
APS_GEOMETRY
 10
0.021137
 20
-0.068983
 40
0.000767
 50
0.0
 51
18.434949
  0
ARC
  8
APS_GEOMETRY
 10
0.034546
 20
-0.074401
 40
0.013755
 50
156.801409
 51
164.744881
  0
ARC
  8
APS_GEOMETRY
 10
0.042478
 20
-0.076564
 40
0.021977
 50
164.744881
 51
171.027373
  0
LINE
  8
APS_GEOMETRY
 10
0.02077
 11
0.019889
 20
-0.073137
 21
-0.074144
  0
ARC
  8
APS_GEOMETRY
 10
0.020293
 20
-0.074144
 40
0.000404
 50
180.0
 51
225.0
  0
ARC
  8
APS_GEOMETRY
 10
0.020594
 20
-0.073843
 40
0.000829
 50
225.0
 51
255.963757
  0
ARC
  8
APS_GEOMETRY
 10
0.023066
 20
-0.075984
 40
0.002989
 50
153.434949
 51
164.054604
  0
ARC
  8
APS_GEOMETRY
 10
0.021472
 20
-0.075529
 40
0.001331
 50
164.054604
 51
180.0
  0
LINE
  8
APS_GEOMETRY
 10
0.020141
 11
0.020393
 20
-0.075529
 21
-0.076032
  0
ARC
  8
APS_GEOMETRY
 10
0.035616
 20
-0.076032
 40
0.015223
 50
180.0
 51
187.549422
  0
ARC
  8
APS_GEOMETRY
 10
0.060749
 20
-0.072701
 40
0.040576
 50
187.549422
 51
192.171458
  0
ARC
  8
APS_GEOMETRY
 10
-0.026831
 20
-0.091591
 40
0.049018
 50
8.343892
 51
12.171458
  0
ARC
  8
APS_GEOMETRY
 10
0.011448
 20
-0.085977
 40
0.010329
 50
0.0
 51
8.343892
  0
ARC
  8
APS_GEOMETRY
 10
-0.043177
 20
-0.111959
 40
0.069958
 50
20.136303
 51
21.801409
  0
ARC
  8
APS_GEOMETRY
 10
-0.040408
 20
-0.110943
 40
0.067009
 50
18.434949
 51
20.136303
  0
ARC
  8
APS_GEOMETRY
 10
0.032103
 20
-0.086773
 40
0.009424
 50
198.434949
 51
210.379126
  0
ARC
  8
APS_GEOMETRY
 10
0.035062
 20
-0.085038
 40
0.012854
 50
210.379126
 51
220.601295
  0
ARC
  8
APS_GEOMETRY
 10
-0.240891
 20
-0.148208
 40
0.271776
 50
10.713123
 51
11.633634
  0
ARC
  8
APS_GEOMETRY
 10
0.024171
 20
-0.098061
 40
0.002012
 50
0.0
 51
10.713123
  0
ARC
  8
APS_GEOMETRY
 10
0.02981
 20
-0.098061
 40
0.003627
 50
180.0
 51
197.102729
  0
ARC
  8
APS_GEOMETRY
 10
0.027663
 20
-0.098722
 40
0.00138
 50
197.102729
 51
225.0
  0
LINE
  8
APS_GEOMETRY
 10
0.026687
 11
0.026687
 20
-0.099698
 21
-0.104607
  0
ARC
  8
APS_GEOMETRY
 10
0.278702
 20
-0.184794
 40
0.264465
 50
162.349876
 51
162.979474
  0
ARC
  8
APS_GEOMETRY
 10
0.402063
 20
-0.222557
 40
0.393476
 50
162.979474
 51
163.495639
  0
LINE
  8
APS_GEOMETRY
 10
0.024799
 11
0.024673
 20
-0.110775
 21
-0.110398
  0
ARC
  8
APS_GEOMETRY
 10
0.011058
 20
-0.103294
 40
0.015357
 50
320.599339
 51
332.447188
  0
ARC
  8
APS_GEOMETRY
 10
0.020455
 20
-0.111014
 40
0.003195
 50
294.443955
 51
320.599339
  0
LINE
  8
APS_GEOMETRY
 10
0.021777
 11
0.021777
 20
-0.113922
 21
-0.1143
  0
LINE
  8
APS_GEOMETRY
 10
0.021777
 11
0.022155
 20
-0.1143
 21
-0.114552
  0
ARC
  8
APS_GEOMETRY
 10
0.023549
 20
-0.115597
 40
0.001742
 50
123.690068
 51
143.130102
  0
ARC
  8
APS_GEOMETRY
 10
0.02291
 20
-0.11464
 40
0.000591
 50
90.0
 51
123.690068
  0
ARC
  8
APS_GEOMETRY
 10
0.02291
 20
-0.11468
 40
0.000632
 50
50.194429
 51
90.0
  0
ARC
  8
APS_GEOMETRY
 10
0.022536
 20
-0.11513
 40
0.001217
 50
21.801409
 51
50.194429
  0
LINE
  8
APS_GEOMETRY
 10
0.023666
 11
0.022533
 20
-0.114678
 21
-0.115559
  0
LINE
  8
APS_GEOMETRY
 10
0.022533
 11
0.0214
 20
-0.115559
 21
-0.11644
  0
ARC
  8
APS_GEOMETRY
 10
0.022809
 20
-0.117614
 40
0.001834
 50
140.194429
 51
169.508523
  0
ARC
  8
APS_GEOMETRY
 10
0.034821
 20
-0.119839
 40
0.014051
 50
169.508523
 51
180.0
  0
ARC
  8
APS_GEOMETRY
 10
0.019383
 20
-0.122613
 40
0.003102
 50
53.130102
 51
63.434949
  0
ARC
  8
APS_GEOMETRY
 10
0.018258
 20
-0.124114
 40
0.004978
 50
45.0
 51
53.130102
  0
ARC
  8
APS_GEOMETRY
 10
0.022011
 20
-0.120477
 40
0.000261
 50
206.565051
 51
261.253838
  0
ARC
  8
APS_GEOMETRY
 10
0.023414
 20
-0.11136
 40
0.009486
 50
261.253838
 51
270.0
  0
ARC
  8
APS_GEOMETRY
 10
0.023414
 20
-0.121534
 40
0.000688
 50
69.443955
 51
90.0
  0
ARC
  8
APS_GEOMETRY
 10
0.020858
 20
-0.12835
 40
0.007968
 50
63.434949
 51
69.443955
  0
ARC
  8
APS_GEOMETRY
 10
0.026581
 20
-0.116903
 40
0.00483
 50
243.434949
 51
253.300756
  0
ARC
  8
APS_GEOMETRY
 10
0.02568
 20
-0.119908
 40
0.001694
 50
253.300756
 51
270.0
  0
ARC
  8
APS_GEOMETRY
 10
0.02568
 20
-0.12054
 40
0.001061
 50
270.0
 51
289.983107
  0
ARC
  8
APS_GEOMETRY
 10
0.02273
 20
-0.11243
 40
0.009691
 50
289.983107
 51
296.565051
  0
ARC
  8
APS_GEOMETRY
 10
0.031398
 20
-0.129766
 40
0.009691
 50
109.983107
 51
116.565051
  0
ARC
  8
APS_GEOMETRY
 10
0.028449
 20
-0.121655
 40
0.001061
 50
90.0
 51
109.983107
  0
ARC
  8
APS_GEOMETRY
 10
0.028449
 20
-0.121199
 40
0.000605
 50
66.801409
 51
90.0
  0
ARC
  8
APS_GEOMETRY
 10
0.026587
 20
-0.125544
 40
0.005332
 50
59.036243
 51
66.801409
  0
ARC
  8
APS_GEOMETRY
 10
0.031369
 20
-0.117573
 40
0.003963
 50
239.036243
 51
249.443955
  0
ARC
  8
APS_GEOMETRY
 10
0.030337
 20
-0.120325
 40
0.001024
 50
249.443955
 51
270.0
  0
ARC
  8
APS_GEOMETRY
 10
0.030337
 20
-0.120671
 40
0.000678
 50
270.0
 51
315.0
  0
ARC
  8
APS_GEOMETRY
 10
0.029701
 20
-0.120035
 40
0.001579
 50
315.0
 51
344.054604
  0
ARC
  8
APS_GEOMETRY
 10
0.029814
 20
-0.115317
 40
0.005339
 50
285.255119
 51
312.273689
  0
ARC
  8
APS_GEOMETRY
 10
0.032208
 20
-0.117951
 40
0.00178
 50
312.273689
 51
0.0
  0
ARC
  8
APS_GEOMETRY
 10
0.032636
 20
-0.117951
 40
0.001352
 50
0.0
 51
20.556045
  0
ARC
  8
APS_GEOMETRY
 10
0.031899
 20
-0.118227
 40
0.002139
 50
20.556045
 51
36.869898
  0
LINE
  8
APS_GEOMETRY
 10
0.03361
 11
0.03361
 20
-0.116944
 21
-0.116062
  0
ARC
  8
APS_GEOMETRY
 10
0.023813
 20
-0.109939
 40
0.011554
 50
327.994617
 51
339.443955
  0
ARC
  8
APS_GEOMETRY
 10
0.03275
 20
-0.11329
 40
0.002009
 50
339.443955
 51
7.125016
  0
LINE
  8
APS_GEOMETRY
 10
0.034743
 11
0.034743
 20
-0.113041
 21
-0.11279
  0
ARC
  8
APS_GEOMETRY
 10
0.034119
 20
-0.113725
 40
0.001125
 50
56.309932
 51
78.690068
  0
ARC
  8
APS_GEOMETRY
 10
0.033484
 20
-0.1169
 40
0.004362
 50
78.690068
 51
90.0
  0
LINE
  8
APS_GEOMETRY
 10
0.033484
 11
0.033296
 20
-0.112538
 21
-0.112066
  0
LINE
  8
APS_GEOMETRY
 10
0.033296
 11
0.033233
 20
-0.112066
 21
-0.111908
  0
ARC
  8
APS_GEOMETRY
 10
0.033661
 20
-0.111908
 40
0.000428
 50
147.724356
 51
180.0
  0
ARC
  8
APS_GEOMETRY
 10
0.042316
 20
-0.117375
 40
0.010665
 50
141.340192
 51
147.724356
  0
ARC
  8
APS_GEOMETRY
 10
0.023173
 20
-0.102061
 40
0.013849
 50
321.340192
 51
326.309932
  0
ARC
  8
APS_GEOMETRY
 10
0.033467
 20
-0.108923
 40
0.001478
 50
326.309932
 51
341.565051
  0
ARC
  8
APS_GEOMETRY
 10
-0.020998
 20
-0.088808
 40
0.059538
 50
339.775141
 51
344.649864
  0
ARC
  8
APS_GEOMETRY
 10
0.030595
 20
-0.102971
 40
0.006037
 50
344.649864
 51
0.0
  0
ARC
  8
APS_GEOMETRY
 10
0.035023
 20
-0.102971
 40
0.001609
 50
0.0
 51
21.801409
  0
ARC
  8
APS_GEOMETRY
 10
0.028142
 20
-0.105723
 40
0.009019
 50
21.801409
 51
30.963757
  0
ARC
  8
APS_GEOMETRY
 10
0.011966
 20
-0.098909
 40
0.024009
 50
354.805571
 51
358.122123
  0
ARC
  8
APS_GEOMETRY
 10
-0.456352
 20
-0.083554
 40
0.492578
 50
358.122123
 51
358.854237
  0
ARC
  8
APS_GEOMETRY
 10
0.036609
 20
-0.092922
 40
0.000681
 50
210.113733
 51
225.0
  0
ARC
  8
APS_GEOMETRY
 10
0.263075
 20
0.038428
 40
0.262482
 50
209.357754
 51
210.113733
  0
ARC
  8
APS_GEOMETRY
 10
0.087847
 20
-0.060138
 40
0.061434
 50
206.146841
 51
209.357754
  0
ARC
  8
APS_GEOMETRY
 10
0.033546
 20
-0.086795
 40
0.000942
 50
180.0
 51
206.146841
  0
ARC
  8
APS_GEOMETRY
 10
0.031314
 20
-0.086795
 40
0.00129
 50
0.0
 51
19.179008
  0
ARC
  8
APS_GEOMETRY
 10
0.024384
 20
-0.089205
 40
0.008627
 50
19.179008
 51
26.565051
  0
ARC
  8
APS_GEOMETRY
 10
0.04028
 20
-0.086711
 40
0.008293
 50
165.256437
 51
170.537678
  0
ARC
  8
APS_GEOMETRY
 10
0.072429
 20
-0.095171
 40
0.041537
 50
162.897271
 51
165.256437
  0
ARC
  8
APS_GEOMETRY
 10
0.032729
 20
-0.083239
 40
0.000283
 50
45.0
 51
90.0
  0
ARC
  8
APS_GEOMETRY
 10
0.031785
 20
-0.084183
 40
0.001618
 50
26.565051
 51
45.0
  0
ARC
  8
APS_GEOMETRY
 10
0.034379
 20
-0.082886
 40
0.001281
 50
206.565051
 51
230.194429
  0
ARC
  8
APS_GEOMETRY
 10
0.03425
 20
-0.083041
 40
0.00108
 50
230.194429
 51
255.963757
  0
ARC
  8
APS_GEOMETRY
 10
0.033863
 20
-0.084589
 40
0.000515
 50
25.016893
 51
75.963757
  0
ARC
  8
APS_GEOMETRY
 10
0.027508
 20
-0.087554
 40
0.007528
 50
12.094757
 51
25.016893
  0
LINE
  8
APS_GEOMETRY
 10
0.034869
 11
0.035121
 20
-0.085977
 21
-0.087236
  0
LINE
  8
APS_GEOMETRY
 10
0.035121
 11
0.035373
 20
-0.087236
 21
-0.088494
  0
ARC
  8
APS_GEOMETRY
 10
0.033689
 20
-0.087933
 40
0.001775
 50
341.565051
 51
354.289407
  0
ARC
  8
APS_GEOMETRY
 10
0.026714
 20
-0.087236
 40
0.008785
 50
354.289407
 51
0.0
  0
LINE
  8
APS_GEOMETRY
 10
0.035498
 11
0.03575
 20
-0.087236
 21
-0.087236
  0
ARC
  8
APS_GEOMETRY
 10
0.03575
 20
-0.087841
 40
0.000605
 50
56.309932
 51
90.0
  0
ARC
  8
APS_GEOMETRY
 10
0.033184
 20
-0.09169
 40
0.005232
 50
45.0
 51
56.309932
  0
LINE
  8
APS_GEOMETRY
 10
0.036883
 11
0.036631
 20
-0.087991
 21
-0.088243
  0
LINE
  8
APS_GEOMETRY
 10
0.036631
 11
0.036883
 20
-0.088243
 21
-0.088494
  0
ARC
  8
APS_GEOMETRY
 10
0.043199
 20
-0.088494
 40
0.006316
 50
180.0
 51
189.090277
  0
ARC
  8
APS_GEOMETRY
 10
0.066832
 20
-0.084713
 40
0.030249
 50
189.090277
 51
193.24052
  0
ARC
  8
APS_GEOMETRY
 10
0.039463
 20
-0.092887
 40
0.002421
 50
149.036243
 51
165.963757
  0
ARC
  8
APS_GEOMETRY
 10
0.040522
 20
-0.093152
 40
0.003513
 50
165.963757
 51
180.0
  0
ARC
  8
APS_GEOMETRY
 10
0.038273
 20
-0.093152
 40
0.001263
 50
180.0
 51
191.309932
  0
ARC
  8
APS_GEOMETRY
 10
0.040149
 20
-0.092777
 40
0.003177
 50
191.309932
 51
198.434949
  0
LINE
  8
APS_GEOMETRY
 10
0.037135
 11
0.037135
 20
-0.093781
 21
-0.094222
  0
LINE
  8
APS_GEOMETRY
 10
0.037135
 11
0.037135
 20
-0.094222
 21
-0.094537
  0
LINE
  8
APS_GEOMETRY
 10
0.037135
 11
0.037513
 20
-0.094537
 21
-0.094789
  0
LINE
  8
APS_GEOMETRY
 10
0.037513
 11
0.038016
 20
-0.094789
 21
-0.094159
  0
ARC
  8
APS_GEOMETRY
 10
0.07729
 20
-0.015612
 40
0.087818
 50
243.434949
 51
244.536655
  0
ARC
  8
APS_GEOMETRY
 10
0.059878
 20
-0.052176
 40
0.047321
 50
244.536655
 51
246.037511
  0
LINE
  8
APS_GEOMETRY
 10
0.04066
 11
0.04066
 20
-0.095418
 21
-0.095921
  0
ARC
  8
APS_GEOMETRY
 10
0.014653
 20
-0.163539
 40
0.072446
 50
68.962489
 51
70.346176
  0
ARC
  8
APS_GEOMETRY
 10
0.038897
 20
-0.095655
 40
0.000363
 50
70.346176
 51
90.0
  0
ARC
  8
APS_GEOMETRY
 10
0.039773
 20
-0.097918
 40
0.002768
 50
108.434949
 51
116.565051
  0
ARC
  8
APS_GEOMETRY
 10
0.038777
 20
-0.095927
 40
0.000542
 50
116.565051
 51
135.0
  0
ARC
  8
APS_GEOMETRY
 10
0.04793
 20
-0.082194
 40
0.016406
 50
234.462322
 51
238.24052
  0
ARC
  8
APS_GEOMETRY
 10
0.069658
 20
-0.047093
 40
0.057688
 50
238.24052
 51
240.255119
  0
LINE
  8
APS_GEOMETRY
 10
0.041037
 11
0.041037
 20
-0.09718
 21
-0.097684
  0
LINE
  8
APS_GEOMETRY
 10
0.041037
 11
0.040534
 20
-0.097684
 21
-0.097684
  0
ARC
  8
APS_GEOMETRY
 10
0.058662
 20
-0.061428
 40
0.040535
 50
242.241459
 51
243.434949
  0
ARC
  8
APS_GEOMETRY
 10
0.13125
 20
0.076489
 40
0.196388
 50
241.699244
 51
242.241459
  0
ARC
  8
APS_GEOMETRY
 10
0.036118
 20
-0.09575
 40
0.002133
 50
330.945396
 51
341.565051
  0
ARC
  8
APS_GEOMETRY
 10
0.028217
 20
-0.091361
 40
0.011172
 50
326.309932
 51
330.945396
  0
LINE
  8
APS_GEOMETRY
 10
0.037513
 11
0.037513
 20
-0.097558
 21
-0.102593
  0
LINE
  8
APS_GEOMETRY
 10
0.037513
 11
0.038016
 20
-0.102593
 21
-0.103097
  0
ARC
  8
APS_GEOMETRY
 10
0.037799
 20
-0.102445
 40
0.000687
 50
288.434949
 51
320.194429
  0
ARC
  8
APS_GEOMETRY
 10
0.02867
 20
-0.094837
 40
0.012571
 50
320.194429
 51
327.528808
  0
ARC
  8
APS_GEOMETRY
 10
0.045416
 20
-0.095445
 40
0.008685
 50
216.869898
 51
225.0
  0
ARC
  8
APS_GEOMETRY
 10
0.040499
 20
-0.099133
 40
0.002539
 50
201.801409
 51
216.869898
  0
LINE
  8
APS_GEOMETRY
 10
0.038142
 11
0.038771
 20
-0.100076
 21
-0.100076
  0
ARC
  8
APS_GEOMETRY
 10
0.039559
 20
-0.099551
 40
0.000946
 50
213.690068
 51
239.036243
  0
ARC
  8
APS_GEOMETRY
 10
0.039401
 20
-0.099814
 40
0.000639
 50
239.036243
 51
270.0
  0
ARC
  8
APS_GEOMETRY
 10
0.039401
 20
-0.097469
 40
0.002984
 50
270.0
 51
288.434949
  0
ARC
  8
APS_GEOMETRY
 10
0.039886
 20
-0.098924
 40
0.00145
 50
288.434949
 51
315.0
  0
ARC
  8
APS_GEOMETRY
 10
0.047865
 20
-0.084883
 40
0.016594
 50
239.036243
 51
245.224859
  0
ARC
  8
APS_GEOMETRY
 10
0.042853
 20
-0.093237
 40
0.006852
 50
229.398705
 51
239.036243
  0
LINE
  8
APS_GEOMETRY
 10
0.038394
 11
0.038394
 20
-0.098439
 21
-0.097558
  0
ARC
  8
APS_GEOMETRY
 10
0.038848
 20
-0.097103
 40
0.000643
 50
225.0
 51
240.751174
  0
ARC
  8
APS_GEOMETRY
 10
0.15777
 20
0.115258
 40
0.244035
 50
240.751174
 51
241.557071
  0
LINE
  8
APS_GEOMETRY
 10
0.041541
 11
0.041037
 20
-0.09932
 21
-0.099824
  0
ARC
  8
APS_GEOMETRY
 10
0.042045
 20
-0.099152
 40
0.001211
 50
213.690068
 51
234.462322
  0
ARC
  8
APS_GEOMETRY
 10
0.04294
 20
-0.097898
 40
0.002752
 50
234.462322
 51
248.198591
  0
ARC
  8
APS_GEOMETRY
 10
0.003487
 20
-0.082984
 40
0.042216
 50
335.556045
 51
337.619865
  0
ARC
  8
APS_GEOMETRY
 10
-0.120612
 20
-0.031885
 40
0.176423
 50
337.619865
 51
338.629378
  0
LINE
  8
APS_GEOMETRY
 10
0.043681
 11
0.043429
 20
-0.096173
 21
-0.096677
  0
LINE
  8
APS_GEOMETRY
 10
0.043429
 11
0.041918
 20
-0.096677
 21
-0.096803
  0
LINE
  8
APS_GEOMETRY
 10
0.041918
 11
0.041163
 20
-0.096803
 21
-0.096677
  0
LINE
  8
APS_GEOMETRY
 10
0.041163
 11
0.041163
 20
-0.096677
 21
-0.096173
  0
LINE
  8
APS_GEOMETRY
 10
0.041163
 11
0.041289
 20
-0.096173
 21
-0.096173
  0
LINE
  8
APS_GEOMETRY
 10
0.041289
 11
0.041415
 20
-0.096173
 21
-0.096173
  0
ARC
  8
APS_GEOMETRY
 10
0.041415
 20
-0.095158
 40
0.001015
 50
270.0
 51
329.931417
  0
ARC
  8
APS_GEOMETRY
 10
0.039037
 20
-0.093781
 40
0.003763
 50
329.931417
 51
0.0
  0
ARC
  8
APS_GEOMETRY
 10
0.044502
 20
-0.093781
 40
0.001702
 50
159.443955
 51
180.0
  0
ARC
  8
APS_GEOMETRY
 10
0.047416
 20
-0.094874
 40
0.004815
 50
147.264774
 51
159.443955
  0
ARC
  8
APS_GEOMETRY
 10
0.030546
 20
-0.08403
 40
0.01524
 50
327.264774
 51
331.189206
  0
ARC
  8
APS_GEOMETRY
 10
0.041985
 20
-0.090321
 40
0.002185
 50
331.189206
 51
341.565051
  0
ARC
  8
APS_GEOMETRY
 10
0.062956
 20
-0.094162
 40
0.019158
 50
165.963757
 51
170.537678
  0
ARC
  8
APS_GEOMETRY
 10
0.122955
 20
-0.109161
 40
0.081004
 50
163.739795
 51
165.963757
  0
ARC
  8
APS_GEOMETRY
 10
0.044489
 20
-0.083905
 40
0.00267
 50
285.255119
 51
312.273689
  0
ARC
  8
APS_GEOMETRY
 10
0.045686
 20
-0.085222
 40
0.00089
 50
312.273689
 51
0.0
  0
ARC
  8
APS_GEOMETRY
 10
0.044808
 20
-0.085222
 40
0.001768
 50
0.0
 51
8.130102
  0
ARC
  8
APS_GEOMETRY
 10
0.035134
 20
-0.086604
 40
0.01154
 50
8.130102
 51
11.309932
  0
ARC
  8
APS_GEOMETRY
 10
0.057766
 20
-0.082077
 40
0.01154
 50
188.130102
 51
191.309932
  0
ARC
  8
APS_GEOMETRY
 10
0.048092
 20
-0.083459
 40
0.001768
 50
180.0
 51
188.130102
  0
ARC
  8
APS_GEOMETRY
 10
0.049152
 20
-0.083459
 40
0.002828
 50
167.471192
 51
180.0
  0
ARC
  8
APS_GEOMETRY
 10
0.048593
 20
-0.083335
 40
0.002256
 50
153.434949
 51
167.471192
  0
ARC
  8
APS_GEOMETRY
 10
0.051097
 20
-0.081504
 40
0.004596
 50
190.304846
 51
207.474432
  0
ARC
  8
APS_GEOMETRY
 10
0.057504
 20
-0.078173
 40
0.011817
 50
207.474432
 51
218.157227
  0
LINE
  8
APS_GEOMETRY
 10
0.048212
 11
0.048212
 20
-0.085473
 21
-0.086858
  0
ARC
  8
APS_GEOMETRY
 10
0.058094
 20
-0.095505
 40
0.013131
 50
138.814075
 51
161.161566
  0
ARC
  8
APS_GEOMETRY
 10
0.065257
 20
-0.097948
 40
0.020699
 50
161.161566
 51
178.919076
  0
ARC
  8
APS_GEOMETRY
 10
0.04686
 20
-0.099647
 40
0.003105
 50
137.726311
 51
170.753887
  0
ARC
  8
APS_GEOMETRY
 10
0.128658
 20
-0.112963
 40
0.08598
 50
170.753887
 51
176.947117
  0
ARC
  8
APS_GEOMETRY
 10
0.022331
 20
-0.097105
 40
0.02337
 50
315.0
 51
331.144339
  0
ARC
  8
APS_GEOMETRY
 10
0.036631
 20
-0.111405
 40
0.003147
 50
270.0
 51
315.0
  0
ARC
  8
APS_GEOMETRY
 10
0.036631
 20
-0.114743
 40
0.000191
 50
90.0
 51
123.690068
  0
ARC
  8
APS_GEOMETRY
 10
0.036661
 20
-0.114787
 40
0.000244
 50
123.690068
 51
153.434949
  0
ARC
  8
APS_GEOMETRY
 10
0.036225
 20
-0.114569
 40
0.000244
 50
303.690068
 51
333.434949
  0
ARC
  8
APS_GEOMETRY
 10
0.036254
 20
-0.114612
 40
0.000191
 50
270.0
 51
303.690068
  0
ARC
  8
APS_GEOMETRY
 10
0.037087
 20
-0.116888
 40
0.002245
 50
111.801409
 51
142.431408
  0
ARC
  8
APS_GEOMETRY
 10
0.036505
 20
-0.11644
 40
0.00151
 50
142.431408
 51
180.0
  0
ARC
  8
APS_GEOMETRY
 10
0.037648
 20
-0.11644
 40
0.002653
 50
180.0
 51
190.784298
  0
ARC
  8
APS_GEOMETRY
 10
0.04262
 20
-0.115493
 40
0.007715
 50
190.784298
 51
197.102729
  0
ARC
  8
APS_GEOMETRY
 10
0.027873
 20
-0.120031
 40
0.007715
 50
10.784298
 51
17.102729
  0
ARC
  8
APS_GEOMETRY
 10
0.032845
 20
-0.119084
 40
0.002653
 50
0.0
 51
10.784298
  0
LINE
  8
APS_GEOMETRY
 10
0.035498
 11
0.035436
 20
-0.119084
 21
-0.119272
  0
LINE
  8
APS_GEOMETRY
 10
0.035436
 11
0.035247
 20
-0.119272
 21
-0.119839
  0
ARC
  8
APS_GEOMETRY
 10
0.038792
 20
-0.11832
 40
0.003857
 50
203.198591
 51
228.814075
  0
ARC
  8
APS_GEOMETRY
 10
0.037261
 20
-0.120069
 40
0.001532
 50
228.814075
 51
270.0
  0
ARC
  8
APS_GEOMETRY
 10
0.037261
 20
-0.120972
 40
0.000629
 50
270.0
 51
315.0
  0
ARC
  8
APS_GEOMETRY
 10
0.037261
 20
-0.120972
 40
0.000629
 50
315.0
 51
0.0
  0
ARC
  8
APS_GEOMETRY
 10
0.036369
 20
-0.120972
 40
0.001521
 50
0.0
 51
14.036243
  0
ARC
  8
APS_GEOMETRY
 10
0.03304
 20
-0.121804
 40
0.004952
 50
14.036243
 51
21.801409
  0
ARC
  8
APS_GEOMETRY
 10
0.042237
 20
-0.118125
 40
0.004952
 50
194.036243
 51
201.801409
  0
ARC
  8
APS_GEOMETRY
 10
0.038908
 20
-0.118958
 40
0.001521
 50
180.0
 51
194.036243
  0
ARC
  8
APS_GEOMETRY
 10
0.04
 20
-0.118958
 40
0.002613
 50
146.309932
 51
180.0
  0
ARC
  8
APS_GEOMETRY
 10
0.038646
 20
-0.118055
 40
0.000985
 50
90.0
 51
146.309932
  0
LINE
  8
APS_GEOMETRY
 10
0.038646
 11
0.03852
 20
-0.117069
 21
-0.117447
  0
ARC
  8
APS_GEOMETRY
 10
0.128525
 20
-0.096677
 40
0.092371
 50
192.994617
 51
194.036243
  0
ARC
  8
APS_GEOMETRY
 10
0.130161
 20
-0.096268
 40
0.094057
 50
194.036243
 51
195.068488
  0
ARC
  8
APS_GEOMETRY
 10
0.041265
 20
-0.120201
 40
0.001995
 50
195.068488
 51
236.309932
  0
ARC
  8
APS_GEOMETRY
 10
0.041793
 20
-0.119409
 40
0.002947
 50
236.309932
 51
270.0
  0
ARC
  8
APS_GEOMETRY
 10
0.041793
 20
-0.119151
 40
0.003206
 50
270.0
 51
285.255119
  0
ARC
  8
APS_GEOMETRY
 10
0.042213
 20
-0.120694
 40
0.001606
 50
285.255119
 51
306.869898
  0
LINE
  8
APS_GEOMETRY
 10
0.043177
 11
0.043177
 20
-0.121979
 21
-0.121349
  0
ARC
  8
APS_GEOMETRY
 10
0.04358
 20
-0.120544
 40
0.000901
 50
195.945396
 51
243.434949
  0
ARC
  8
APS_GEOMETRY
 10
0.050013
 20
-0.118706
 40
0.007591
 50
180.0
 51
195.945396
  0
ARC
  8
APS_GEOMETRY
 10
0.045403
 20
-0.118706
 40
0.002981
 50
147.528808
 51
180.0
  0
ARC
  8
APS_GEOMETRY
 10
0.045647
 20
-0.118861
 40
0.00327
 50
116.565051
 51
147.528808
  0
LINE
  8
APS_GEOMETRY
 10
0.044184
 11
0.044468
 20
-0.115937
 21
-0.11622
  0
LINE
  8
APS_GEOMETRY
 10
0.044468
 11
0.044562
 20
-0.11622
 21
-0.116314
  0
ARC
  8
APS_GEOMETRY
 10
-0.00705
 20
-0.095669
 40
0.055588
 50
336.801409
 51
338.198591
  0
ARC
  8
APS_GEOMETRY
 10
-0.020266
 20
-0.090005
 40
0.069966
 50
335.556045
 51
336.801409
  0
ARC
  8
APS_GEOMETRY
 10
0.086481
 20
-0.090256
 40
0.051742
 50
213.690068
 51
214.695154
  0
ARC
  8
APS_GEOMETRY
 10
0.104481
 20
-0.077795
 40
0.073634
 50
214.695154
 51
215.537678
  0
ARC
  8
APS_GEOMETRY
 10
0.046497
 20
-0.119212
 40
0.002379
 50
215.537678
 51
239.743563
  0
ARC
  8
APS_GEOMETRY
 10
0.046073
 20
-0.11994
 40
0.001535
 50
239.743563
 51
270.0
  0
ARC
  8
APS_GEOMETRY
 10
0.046073
 20
-0.118608
 40
0.002867
 50
270.0
 51
296.565051
  0
ARC
  8
APS_GEOMETRY
 10
0.046937
 20
-0.120338
 40
0.000933
 50
296.565051
 51
344.054604
  0
LINE
  8
APS_GEOMETRY
 10
0.047835
 11
0.047835
 20
-0.120594
 21
-0.119587
  0
LINE
  8
APS_GEOMETRY
 10
0.047835
 11
0.047835
 20
-0.119587
 21
-0.11858
  0
ARC
  8
APS_GEOMETRY
 10
0.047068
 20
-0.117813
 40
0.001084
 50
315.0
 51
333.434949
  0
ARC
  8
APS_GEOMETRY
 10
0.043086
 20
-0.115822
 40
0.005537
 50
333.434949
 51
341.565051
  0
ARC
  8
APS_GEOMETRY
 10
0.045961
 20
-0.114331
 40
0.00402
 50
306.253838
 51
337.166346
  0
ARC
  8
APS_GEOMETRY
 10
0.041523
 20
-0.112463
 40
0.008835
 50
337.166346
 51
357.878904
  0
ARC
  8
APS_GEOMETRY
 10
0.134359
 20
-0.11759
 40
0.084143
 50
173.736509
 51
176.729512
  0
ARC
  8
APS_GEOMETRY
 10
0.053537
 20
-0.108719
 40
0.002836
 50
157.380135
 51
173.736509
  0
ARC
  8
APS_GEOMETRY
 10
0.053711
 20
-0.108792
 40
0.003025
 50
142.045769
 51
157.380135
  0
ARC
  8
APS_GEOMETRY
 10
0.088646
 20
-0.136041
 40
0.047331
 50
138.17983
 51
142.045769
  0
ARC
  8
APS_GEOMETRY
 10
0.044004
 20
-0.096283
 40
0.01245
 50
318.814075
 51
330.751174
  0
ARC
  8
APS_GEOMETRY
 10
0.053024
 20
-0.101334
 40
0.002112
 50
330.751174
 51
0.0
  0
LINE
  8
APS_GEOMETRY
 10
0.055136
 11
0.055262
 20
-0.101334
 21
-0.101712
  0
LINE
  8
APS_GEOMETRY
 10
0.055262
 11
0.056489
 20
-0.101712
 21
-0.096991
  0
LINE
  8
APS_GEOMETRY
 10
0.056489
 11
0.056898
 20
-0.096991
 21
-0.09567
  0
ARC
  8
APS_GEOMETRY
 10
0.05264
 20
-0.09567
 40
0.004258
 50
0.0
 51
8.426969
  0
ARC
  8
APS_GEOMETRY
 10
0.043957
 20
-0.096956
 40
0.013036
 50
8.426969
 51
13.24052
  0
ARC
  8
APS_GEOMETRY
 10
0.069336
 20
-0.090985
 40
0.013036
 50
188.426969
 51
193.24052
  0
ARC
  8
APS_GEOMETRY
 10
0.060653
 20
-0.092271
 40
0.004258
 50
180.0
 51
188.426969
  0
ARC
  8
APS_GEOMETRY
 10
0.056562
 20
-0.092439
 40
0.000237
 50
94.398705
 51
135.0
  0
ARC
  8
APS_GEOMETRY
 10
0.058031
 20
-0.111532
 40
0.019387
 50
90.0
 51
94.398705
  0
ARC
  8
APS_GEOMETRY
 10
0.058031
 20
-0.09168
 40
0.000465
 50
270.0
 51
338.962489
  0
ARC
  8
APS_GEOMETRY
 10
0.055597
 20
-0.090744
 40
0.003073
 50
338.962489
 51
4.398705
  0
ARC
  8
APS_GEOMETRY
 10
0.055799
 20
-0.088873
 40
0.003296
 50
330.255119
 51
347.471192
  0
ARC
  8
APS_GEOMETRY
 10
0.052962
 20
-0.088243
 40
0.006202
 50
347.471192
 51
0.0
  0
ARC
  8
APS_GEOMETRY
 10
0.052962
 20
-0.088243
 40
0.006202
 50
0.0
 51
12.528808
  0
ARC
  8
APS_GEOMETRY
 10
0.055799
 20
-0.087612
 40
0.003296
 50
12.528808
 51
29.744881
  0
ARC
  8
APS_GEOMETRY
 10
0.06605
 20
-0.089056
 40
0.008005
 50
146.309932
 51
157.380135
  0
ARC
  8
APS_GEOMETRY
 10
0.059668
 20
-0.084801
 40
0.000335
 50
90.0
 51
146.309932
  0
ARC
  8
APS_GEOMETRY
 10
0.059668
 20
-0.085383
 40
0.000916
 50
26.565051
 51
90.0
  0
ARC
  8
APS_GEOMETRY
 10
0.051659
 20
-0.089387
 40
0.00987
 50
8.130102
 51
26.565051
  0
ARC
  8
APS_GEOMETRY
 10
0.069994
 20
-0.096555
 40
0.012111
 50
128.290163
 51
135.0
  0
ARC
  8
APS_GEOMETRY
 10
0.072465
 20
-0.099685
 40
0.016099
 50
122.471192
 51
128.290163
  0
ARC
  8
APS_GEOMETRY
 10
0.061803
 20
-0.090813
 40
0.005125
 50
56.309932
 51
66.801409
  0
ARC
  8
APS_GEOMETRY
 10
0.064028
 20
-0.087476
 40
0.001114
 50
33.690068
 51
56.309932
  0
ARC
  8
APS_GEOMETRY
 10
0.069285
 20
-0.090647
 40
0.005754
 50
126.027373
 51
138.814075
  0
ARC
  8
APS_GEOMETRY
 10
0.066339
 20
-0.086597
 40
0.000746
 50
90.0
 51
126.027373
  0
ARC
  8
APS_GEOMETRY
 10
0.066339
 20
-0.086112
 40
0.000261
 50
26.565051
 51
90.0
  0
ARC
  8
APS_GEOMETRY
 10
0.065351
 20
-0.086606
 40
0.001366
 50
0.0
 51
26.565051
  0
ARC
  8
APS_GEOMETRY
 10
-0.048215
 20
0.038774
 40
0.170087
 50
311.82017
 51
312.510447
  0
ARC
  8
APS_GEOMETRY
 10
-0.450524
 20
0.488414
 40
0.773435
 50
311.496468
 51
311.82017
  0
ARC
  8
APS_GEOMETRY
 10
0.064324
 20
-0.090089
 40
0.00252
 50
189.462322
 51
198.434949
  0
ARC
  8
APS_GEOMETRY
 10
0.064074
 20
-0.090131
 40
0.002267
 50
180.0
 51
189.462322
  0
ARC
  8
APS_GEOMETRY
 10
0.063138
 20
-0.090131
 40
0.001331
 50
164.054604
 51
180.0
  0
ARC
  8
APS_GEOMETRY
 10
0.064733
 20
-0.090587
 40
0.002989
 50
153.434949
 51
164.054604
  0
LINE
  8
APS_GEOMETRY
 10
0.062059
 11
0.061808
 20
-0.08925
 21
-0.088998
  0
ARC
  8
APS_GEOMETRY
 10
0.065039
 20
-0.09223
 40
0.00457
 50
135.0
 51
148.24052
  0
ARC
  8
APS_GEOMETRY
 10
0.076088
 20
-0.09907
 40
0.017565
 50
148.24052
 51
154.983107
  0
LINE
  8
APS_GEOMETRY
 10
0.060171
 11
0.059038
 20
-0.091641
 21
-0.093907
  0
LINE
  8
APS_GEOMETRY
 10
0.059038
 11
0.058661
 20
-0.093907
 21
-0.094663
  0
ARC
  8
APS_GEOMETRY
 10
0.060134
 20
-0.096873
 40
0.002656
 50
113.962489
 51
123.690068
  0
ARC
  8
APS_GEOMETRY
 10
0.06239
 20
-0.10195
 40
0.008212
 50
108.434949
 51
113.962489
  0
ARC
  8
APS_GEOMETRY
 10
0.102343
 20
-0.12021
 40
0.049891
 50
148.523161
 51
156.425294
  0
ARC
  8
APS_GEOMETRY
 10
0.0573
 20
-0.100555
 40
0.000746
 50
156.425294
 51
225.0
  0
ARC
  8
APS_GEOMETRY
 10
0.083183
 20
-0.114983
 40
0.029845
 50
152.241459
 51
157.380135
  0
ARC
  8
APS_GEOMETRY
 10
0.057073
 20
-0.104104
 40
0.001559
 50
157.380135
 51
180.0
  0
ARC
  8
APS_GEOMETRY
 10
0.05768
 20
-0.104104
 40
0.002166
 50
180.0
 51
205.769328
  0
ARC
  8
APS_GEOMETRY
 10
0.076065
 20
-0.095228
 40
0.022582
 50
205.769328
 51
213.690068
  0
ARC
  8
APS_GEOMETRY
 10
0.057276
 20
-0.111274
 40
0.00352
 50
90.0
 51
98.130102
  0
ARC
  8
APS_GEOMETRY
 10
0.057088
 20
-0.109961
 40
0.002193
 50
98.130102
 51
108.434949
  0
ARC
  8
APS_GEOMETRY
 10
0.062675
 20
-0.101599
 40
0.008882
 50
225.0
 51
236.309932
  0
ARC
  8
APS_GEOMETRY
 10
0.061108
 20
-0.103951
 40
0.006057
 50
236.309932
 51
250.016893
  0
LINE
  8
APS_GEOMETRY
 10
0.059038
 11
0.059038
 20
-0.109642
 21
-0.110146
  0
ARC
  8
APS_GEOMETRY
 10
0.059038
 20
-0.108378
 40
0.001768
 50
261.869898
 51
270.0
  0
ARC
  8
APS_GEOMETRY
 10
0.06042
 20
-0.098704
 40
0.01154
 50
258.690068
 51
261.869898
  0
ARC
  8
APS_GEOMETRY
 10
0.062813
 20
-0.119331
 40
0.01041
 50
116.565051
 51
122.735226
  0
ARC
  8
APS_GEOMETRY
 10
0.061472
 20
-0.117246
 40
0.007931
 50
122.735226
 51
129.805571
  0
LINE
  8
APS_GEOMETRY
 10
0.056395
 11
0.056678
 20
-0.111153
 21
-0.110964
  0
LINE
  8
APS_GEOMETRY
 10
0.056678
 11
0.058283
 20
-0.110964
 21
-0.110901
  0
ARC
  8
APS_GEOMETRY
 10
0.058283
 20
-0.112517
 40
0.001616
 50
76.75948
 51
90.0
  0
ARC
  8
APS_GEOMETRY
 10
0.057231
 20
-0.116989
 40
0.00621
 50
70.016893
 51
76.75948
  0
ARC
  8
APS_GEOMETRY
 10
0.061475
 20
-0.105317
 40
0.00621
 50
250.016893
 51
256.75948
  0
ARC
  8
APS_GEOMETRY
 10
0.060423
 20
-0.109789
 40
0.001616
 50
256.75948
 51
270.0
  0
LINE
  8
APS_GEOMETRY
 10
0.060423
 11
0.060423
 20
-0.111405
 21
-0.111908
  0
ARC
  8
APS_GEOMETRY
 10
0.064442
 20
-0.114923
 40
0.005024
 50
143.130102
 51
150.255119
  0
ARC
  8
APS_GEOMETRY
 10
0.061815
 20
-0.113421
 40
0.001998
 50
150.255119
 51
161.565051
  0
LINE
  8
APS_GEOMETRY
 10
0.059919
 11
0.059542
 20
-0.11279
 21
-0.11279
  0
ARC
  8
APS_GEOMETRY
 10
0.061799
 20
-0.137617
 40
0.024929
 50
95.194429
 51
101.560131
  0
ARC
  8
APS_GEOMETRY
 10
0.062261
 20
-0.139876
 40
0.027235
 50
101.560131
 51
107.650124
  0
ARC
  8
APS_GEOMETRY
 10
0.043999
 20
-0.111064
 40
0.010404
 50
334.025606
 51
344.054604
  0
ARC
  8
APS_GEOMETRY
 10
0.015633
 20
-0.097245
 40
0.041958
 50
329.036243
 51
334.025606
  0
ARC
  8
APS_GEOMETRY
 10
0.05439
 20
-0.118038
 40
0.00289
 50
195.945396
 51
213.690068
  0
ARC
  8
APS_GEOMETRY
 10
0.057877
 20
-0.115714
 40
0.00708
 50
213.690068
 51
225.0
  0
ARC
  8
APS_GEOMETRY
 10
0.058044
 20
-0.132362
 40
0.01274
 50
108.434949
 51
113.962489
  0
ARC
  8
APS_GEOMETRY
 10
0.054381
 20
-0.121371
 40
0.001154
 50
90.0
 51
108.434949
  0
ARC
  8
APS_GEOMETRY
 10
0.054381
 20
-0.120354
 40
0.000137
 50
45.0
 51
90.0
  0
ARC
  8
APS_GEOMETRY
 10
0.054209
 20
-0.120526
 40
0.00038
 50
18.434949
 51
45.0
  0
ARC
  8
APS_GEOMETRY
 10
0.05493
 20
-0.120285
 40
0.00038
 50
198.434949
 51
225.0
  0
ARC
  8
APS_GEOMETRY
 10
0.054758
 20
-0.120457
 40
0.000137
 50
225.0
 51
270.0
  0
ARC
  8
APS_GEOMETRY
 10
0.054758
 20
-0.120235
 40
0.000359
 50
270.0
 51
337.380135
  0
ARC
  8
APS_GEOMETRY
 10
0.036896
 20
-0.112793
 40
0.01971
 50
337.380135
 51
345.963757
  0
LINE
  8
APS_GEOMETRY
 10
0.056017
 11
0.056521
 20
-0.117573
 21
-0.117573
  0
ARC
  8
APS_GEOMETRY
 10
0.181143
 20
-0.092649
 40
0.12709
 50
191.309932
 51
191.888658
  0
ARC
  8
APS_GEOMETRY
 10
0.158422
 20
-0.097432
 40
0.103871
 50
191.888658
 51
192.528808
  0
ARC
  8
APS_GEOMETRY
 10
0.058033
 20
-0.119741
 40
0.001033
 50
192.528808
 51
245.772255
  0
ARC
  8
APS_GEOMETRY
 10
0.059542
 20
-0.116387
 40
0.004711
 50
245.772255
 51
270.0
  0
ARC
  8
APS_GEOMETRY
 10
0.059361
 20
-0.120556
 40
0.000571
 50
288.434949
 51
323.130102
  0
ARC
  8
APS_GEOMETRY
 10
0.059412
 20
-0.120594
 40
0.000507
 50
323.130102
 51
0.0
  0
ARC
  8
APS_GEOMETRY
 10
0.059493
 20
-0.120594
 40
0.000427
 50
0.0
 51
16.699244
  0
ARC
  8
APS_GEOMETRY
 10
0.05229
 20
-0.122755
 40
0.007946
 50
16.699244
 51
20.556045
  0
ARC
  8
APS_GEOMETRY
 10
0.06412
 20
-0.118319
 40
0.004688
 50
194.036243
 51
200.556045
  0
ARC
  8
APS_GEOMETRY
 10
0.060557
 20
-0.119209
 40
0.001015
 50
180.0
 51
194.036243
  0
ARC
  8
APS_GEOMETRY
 10
0.062069
 20
-0.119209
 40
0.002528
 50
160.559965
 51
180.0
  0
ARC
  8
APS_GEOMETRY
 10
0.066427
 20
-0.120747
 40
0.007149
 50
149.036243
 51
160.559965
  0
ARC
  8
APS_GEOMETRY
 10
0.059556
 20
-0.117811
 40
0.001048
 50
25.820992
 51
45.0
  0
ARC
  8
APS_GEOMETRY
 10
0.034751
 20
-0.129813
 40
0.028604
 50
22.166346
 51
25.820992
  0
ARC
  8
APS_GEOMETRY
 10
0.068276
 20
-0.116154
 40
0.007597
 50
202.166346
 51
215.134193
  0
ARC
  8
APS_GEOMETRY
 10
0.062437
 20
-0.120264
 40
0.000456
 50
215.134193
 51
270.0
  0
ARC
  8
APS_GEOMETRY
 10
0.062437
 20
-0.120252
 40
0.000468
 50
270.0
 51
285.255119
  0
ARC
  8
APS_GEOMETRY
 10
0.059741
 20
-0.110365
 40
0.010716
 50
285.255119
 51
288.434949
  0
ARC
  8
APS_GEOMETRY
 10
0.064637
 20
-0.125053
 40
0.004766
 50
101.309932
 51
108.434949
  0
ARC
  8
APS_GEOMETRY
 10
0.064074
 20
-0.122238
 40
0.001895
 50
90.0
 51
101.309932
  0
ARC
  8
APS_GEOMETRY
 10
0.064074
 20
-0.119278
 40
0.001065
 50
270.0
 51
316.169139
  0
ARC
  8
APS_GEOMETRY
 10
0.062523
 20
-0.117789
 40
0.003214
 50
316.169139
 51
342.255328
  0
ARC
  8
APS_GEOMETRY
 10
0.079169
 20
-0.123116
 40
0.014263
 50
155.695451
 51
162.255328
  0
ARC
  8
APS_GEOMETRY
 10
0.067489
 20
-0.117841
 40
0.001447
 50
135.0
 51
155.695451
  0
ARC
  8
APS_GEOMETRY
 10
0.066153
 20
-0.117286
 40
0.000562
 50
15.945396
 51
56.309932
  0
ARC
  8
APS_GEOMETRY
 10
0.065535
 20
-0.117462
 40
0.001206
 50
348.690068
 51
15.945396
  0
ARC
  8
APS_GEOMETRY
 10
0.067659
 20
-0.116757
 40
0.001332
 50
225.0
 51
246.801409
  0
ARC
  8
APS_GEOMETRY
 10
0.067598
 20
-0.116898
 40
0.001178
 50
246.801409
 51
270.0
  0
ARC
  8
APS_GEOMETRY
 10
0.075298
 20
-0.115189
 40
0.008224
 50
200.556045
 51
214.508523
  0
ARC
  8
APS_GEOMETRY
 10
0.068983
 20
-0.119531
 40
0.00056
 50
214.508523
 51
270.0
  0
ARC
  8
APS_GEOMETRY
 10
0.06978
 20
-0.122482
 40
0.00252
 50
99.462322
 51
108.434949
  0
ARC
  8
APS_GEOMETRY
 10
0.069738
 20
-0.122231
 40
0.002267
 50
90.0
 51
99.462322
  0
ARC
  8
APS_GEOMETRY
 10
0.069738
 20
-0.120289
 40
0.000324
 50
68.198591
 51
90.0
  0
ARC
  8
APS_GEOMETRY
 10
0.067365
 20
-0.126221
 40
0.006713
 50
63.434949
 51
68.198591
  0
ARC
  8
APS_GEOMETRY
 10
0.07124
 20
-0.118471
 40
0.001951
 50
243.434949
 51
258.690068
  0
ARC
  8
APS_GEOMETRY
 10
0.070888
 20
-0.120233
 40
0.000154
 50
258.690068
 51
315.0
  0
LINE
  8
APS_GEOMETRY
 10
0.070997
 11
0.07364
 20
-0.120342
 21
-0.119587
  0
ARC
  8
APS_GEOMETRY
 10
0.077218
 20
-0.113326
 40
0.007211
 50
240.255119
 51
248.198591
  0
ARC
  8
APS_GEOMETRY
 10
0.074899
 20
-0.119123
 40
0.000967
 50
248.198591
 51
270.0
  0
ARC
  8
APS_GEOMETRY
 10
0.074899
 20
-0.111977
 40
0.008113
 50
270.0
 51
295.974394
  0
ARC
  8
APS_GEOMETRY
 10
0.077301
 20
-0.116907
 40
0.00263
 50
295.974394
 51
342.474432
  0
LINE
  8
APS_GEOMETRY
 10
0.079809
 11
0.080564
 20
-0.117699
 21
-0.117951
  0
ARC
  8
APS_GEOMETRY
 10
0.176429
 20
-0.228564
 40
0.146374
 50
129.936383
 51
130.914383
  0
ARC
  8
APS_GEOMETRY
 10
0.395612
 20
-0.490367
 40
0.487815
 50
129.400661
 51
129.936383
  0
ARC
  8
APS_GEOMETRY
 10
0.090074
 20
-0.110346
 40
0.005121
 50
203.198591
 51
216.869898
  0
ARC
  8
APS_GEOMETRY
 10
0.087016
 20
-0.111657
 40
0.001795
 50
180.0
 51
203.198591
  0
ARC
  8
APS_GEOMETRY
 10
0.085607
 20
-0.111657
 40
0.000385
 50
161.565051
 51
180.0
  0
ARC
  8
APS_GEOMETRY
 10
0.090671
 20
-0.113345
 40
0.005723
 50
156.801409
 51
161.565051
  0
ARC
  8
APS_GEOMETRY
 10
0.082267
 20
-0.109743
 40
0.00342
 50
336.801409
 51
344.744881
  0
ARC
  8
APS_GEOMETRY
 10
0.084668
 20
-0.110398
 40
0.000931
 50
344.744881
 51
0.0
  0
ARC
  8
APS_GEOMETRY
 10
0.084813
 20
-0.107254
 40
0.003241
 50
284.036243
 51
309.805571
  0
ARC
  8
APS_GEOMETRY
 10
0.084427
 20
-0.106791
 40
0.003844
 50
309.805571
 51
333.434949
  0
ARC
  8
APS_GEOMETRY
 10
0.09132
 20
-0.10419
 40
0.005531
 50
223.025066
 51
231.340192
  0
ARC
  8
APS_GEOMETRY
 10
0.107283
 20
-0.089292
 40
0.027366
 50
219.289407
 51
223.025066
  0
LINE
  8
APS_GEOMETRY
 10
0.086103
 11
0.087236
 20
-0.106621
 21
-0.105488
  0
ARC
  8
APS_GEOMETRY
 10
0.070213
 20
-0.093573
 40
0.020779
 50
325.00798
 51
329.23728
  0
ARC
  8
APS_GEOMETRY
 10
0.069943
 20
-0.093412
 40
0.021093
 50
329.23728
 51
333.434949
  0
ARC
  8
APS_GEOMETRY
 10
0.083485
 20
-0.100183
 40
0.005953
 50
333.434949
 51
348.055823
  0
ARC
  8
APS_GEOMETRY
 10
0.080598
 20
-0.099572
 40
0.008904
 50
348.055823
 51
0.0
  0
LINE
  8
APS_GEOMETRY
 10
0.089502
 11
0.090131
 20
-0.099572
 21
-0.099446
  0
LINE
  8
APS_GEOMETRY
 10
0.090131
 11
0.089753
 20
-0.099446
 21
-0.099446
  0
ARC
  8
APS_GEOMETRY
 10
0.072441
 20
-0.102909
 40
0.017655
 50
11.309932
 51
13.392498
  0
ARC
  8
APS_GEOMETRY
 10
-0.090118
 20
-0.141613
 40
0.184759
 50
13.392498
 51
14.036243
  0
ARC
  8
APS_GEOMETRY
 10
0.131344
 20
-0.086248
 40
0.04352
 50
191.309932
 51
194.036243
  0
ARC
  8
APS_GEOMETRY
 10
0.091157
 20
-0.094285
 40
0.002537
 50
180.0
 51
191.309932
  0
ARC
  8
APS_GEOMETRY
 10
0.088955
 20
-0.094285
 40
0.000335
 50
158.749494
 51
180.0
  0
ARC
  8
APS_GEOMETRY
 10
0.197839
 20
-0.136629
 40
0.117162
 50
157.619865
 51
158.749494
  0
LINE
  8
APS_GEOMETRY
 10
0.089502
 11
0.089502
 20
-0.092019
 21
-0.089627
  0
ARC
  8
APS_GEOMETRY
 10
0.096909
 20
-0.086664
 40
0.007978
 50
187.765166
 51
201.801409
  0
ARC
  8
APS_GEOMETRY
 10
0.09066
 20
-0.087516
 40
0.001672
 50
156.801409
 51
187.765166
  0
ARC
  8
APS_GEOMETRY
 10
0.059108
 20
-0.096863
 40
0.031639
 50
18.434949
 51
22.036227
  0
ARC
  8
APS_GEOMETRY
 10
-0.014049
 20
-0.126474
 40
0.110562
 50
22.036227
 51
23.962489
  0
ARC
  8
APS_GEOMETRY
 10
0.056812
 20
-0.103362
 40
0.037218
 50
35.837653
 51
40.135486
  0
ARC
  8
APS_GEOMETRY
 10
-0.029652
 20
-0.176263
 40
0.150313
 50
40.135486
 51
42.273689
  0
ARC
  8
APS_GEOMETRY
 10
0.043686
 20
-0.110931
 40
0.05211
 50
43.363423
 51
50.063617
  0
ARC
  8
APS_GEOMETRY
 10
0.076158
 20
-0.072145
 40
0.001526
 50
50.063617
 51
90.0
  0
ARC
  8
APS_GEOMETRY
 10
0.076158
 20
-0.070767
 40
0.000148
 50
90.0
 51
135.0
  0
ARC
  8
APS_GEOMETRY
 10
0.080024
 20
-0.074633
 40
0.005615
 50
135.0
 51
142.125016
  0
ARC
  8
APS_GEOMETRY
 10
0.07116
 20
-0.067739
 40
0.005615
 50
315.0
 51
322.125016
  0
ARC
  8
APS_GEOMETRY
 10
0.075025
 20
-0.071604
 40
0.000148
 50
270.0
 51
315.0
  0
ARC
  8
APS_GEOMETRY
 10
0.076776
 20
-0.0665
 40
0.005537
 50
243.434949
 51
251.565051
  0
ARC
  8
APS_GEOMETRY
 10
0.074785
 20
-0.070482
 40
0.001084
 50
225.0
 51
243.434949
  0
LINE
  8
APS_GEOMETRY
 10
0.074018
 11
0.074018
 20
-0.071249
 21
-0.071123
  0
ARC
  8
APS_GEOMETRY
 10
0.074826
 20
-0.070853
 40
0.000852
 50
172.874984
 51
198.434949
  0
ARC
  8
APS_GEOMETRY
 10
0.076516
 20
-0.071065
 40
0.002555
 50
158.198591
 51
172.874984
  0
ARC
  8
APS_GEOMETRY
 10
0.069546
 20
-0.068277
 40
0.004952
 50
338.198591
 51
345.963757
  0
ARC
  8
APS_GEOMETRY
 10
0.072875
 20
-0.069109
 40
0.001521
 50
345.963757
 51
0.0
  0
ARC
  8
APS_GEOMETRY
 10
0.072364
 20
-0.069109
 40
0.002031
 50
0.0
 51
26.565051
  0
ARC
  8
APS_GEOMETRY
 10
0.071734
 20
-0.069424
 40
0.002737
 50
26.565051
 51
49.398705
  0
ARC
  8
APS_GEOMETRY
 10
0.083843
 20
-0.062182
 40
0.011547
 50
202.380135
 51
206.565051
  0
ARC
  8
APS_GEOMETRY
 10
0.105701
 20
-0.053182
 40
0.035186
 50
199.983107
 51
202.380135
  0
ARC
  8
APS_GEOMETRY
 10
0.043229
 20
-0.065206
 40
0.029405
 50
0.0
 51
9.904183
  0
ARC
  8
APS_GEOMETRY
 10
0.061912
 20
-0.061944
 40
0.010439
 50
9.904183
 51
26.565051
  0
ARC
  8
APS_GEOMETRY
 10
0.08632
 20
-0.047685
 40
0.017864
 50
207.216112
 51
212.471192
  0
ARC
  8
APS_GEOMETRY
 10
0.13567
 20
-0.022305
 40
0.073358
 50
204.623565
 51
207.216112
  0
ARC
  8
APS_GEOMETRY
 10
0.078059
 20
-0.041524
 40
0.01453
 50
225.0
 51
231.340192
  0
ARC
  8
APS_GEOMETRY
 10
0.1042
 20
-0.015384
 40
0.051498
 50
221.633539
 51
225.0
  0
LINE
  8
APS_GEOMETRY
 10
0.06571
 11
0.065206
 20
-0.049597
 21
-0.049723
  0
ARC
  8
APS_GEOMETRY
 10
0.065426
 20
-0.049943
 40
0.00031
 50
135.0
 51
165.963757
  0
ARC
  8
APS_GEOMETRY
 10
0.066562
 20
-0.050227
 40
0.001482
 50
165.963757
 51
180.0
  0
ARC
  8
APS_GEOMETRY
 10
0.065727
 20
-0.050227
 40
0.000646
 50
180.0
 51
201.801409
  0
ARC
  8
APS_GEOMETRY
 10
0.071211
 20
-0.048033
 40
0.006552
 50
201.801409
 51
208.61046
  0
ARC
  8
APS_GEOMETRY
 10
0.061201
 20
-0.053493
 40
0.004849
 50
19.440035
 51
28.61046
  0
ARC
  8
APS_GEOMETRY
 10
0.064749
 20
-0.052241
 40
0.001087
 50
0.0
 51
19.440035
  0
LINE
  8
APS_GEOMETRY
 10
0.065836
 11
0.065332
 20
-0.052241
 21
-0.052241
  0
ARC
  8
APS_GEOMETRY
 10
0.078933
 20
-0.03864
 40
0.019234
 50
221.82017
 51
225.0
  0
ARC
  8
APS_GEOMETRY
 10
0.122366
 20
0.000221
 40
0.077515
 50
220.236358
 51
221.82017
  0
LINE
  8
APS_GEOMETRY
 10
0.063192
 11
0.063192
 20
-0.049849
 21
-0.049597
  0
ARC
  8
APS_GEOMETRY
 10
0.059002
 20
-0.049248
 40
0.004205
 50
355.236358
 51
15.255119
  0
ARC
  8
APS_GEOMETRY
 10
0.054168
 20
-0.050566
 40
0.009215
 50
15.255119
 51
28.739795
  0
ARC
  8
APS_GEOMETRY
 10
0.056803
 20
-0.049121
 40
0.00621
 50
28.739795
 51
48.094058
  0
ARC
  8
APS_GEOMETRY
 10
0.05937
 20
-0.046261
 40
0.002367
 50
48.094058
 51
79.695154
  0
ARC
  8
APS_GEOMETRY
 10
0.045183
 20
-0.051238
 40
0.016335
 50
22.619865
 51
26.565051
  0
ARC
  8
APS_GEOMETRY
 10
0.005178
 20
-0.067907
 40
0.059674
 50
20.556045
 51
22.619865
  0
LINE
  8
APS_GEOMETRY
 10
0.061052
 11
0.060423
 20
-0.046954
 21
-0.04708
  0
LINE
  8
APS_GEOMETRY
 10
0.060423
 11
0.060549
 20
-0.04708
 21
-0.046828
  0
ARC
  8
APS_GEOMETRY
 10
0.059733
 20
-0.046828
 40
0.000816
 50
0.0
 51
33.690068
  0
ARC
  8
APS_GEOMETRY
 10
0.044713
 20
-0.056841
 40
0.018868
 50
33.690068
 51
40.601295
  0
LINE
  8
APS_GEOMETRY
 10
0.059038
 11
0.059038
 20
-0.044562
 21
-0.043429
  0
LINE
  8
APS_GEOMETRY
 10
0.059038
 11
0.059668
 20
-0.043429
 21
-0.043555
  0
ARC
  8
APS_GEOMETRY
 10
0.059466
 20
-0.043353
 40
0.000285
 50
315.0
 51
348.690068
  0
ARC
  8
APS_GEOMETRY
 10
0.057327
 20
-0.042925
 40
0.002466
 50
348.690068
 51
0.0
  0
ARC
  8
APS_GEOMETRY
 10
0.059312
 20
-0.042925
 40
0.000482
 50
0.0
 51
41.987212
  0
ARC
  8
APS_GEOMETRY
 10
0.044831
 20
-0.055959
 40
0.019964
 50
41.987212
 51
48.366461
  0
ARC
  8
APS_GEOMETRY
 10
0.042914
 20
-0.058115
 40
0.022849
 50
48.366461
 51
53.972627
  0
ARC
  8
APS_GEOMETRY
 10
0.056017
 20
-0.040098
 40
0.000571
 50
53.972627
 51
90.0
  0
ARC
  8
APS_GEOMETRY
 10
0.056017
 20
-0.03987
 40
0.000343
 50
90.0
 51
128.659808
  0
ARC
  8
APS_GEOMETRY
 10
0.057283
 20
-0.041451
 40
0.002369
 50
128.659808
 51
143.130102
  0
ARC
  8
APS_GEOMETRY
 10
0.053493
 20
-0.041925
 40
0.00268
 50
45.0
 51
56.309932
  0
ARC
  8
APS_GEOMETRY
 10
0.051241
 20
-0.045303
 40
0.00674
 50
56.309932
 51
63.434949
  0
LINE
  8
APS_GEOMETRY
 10
0.054255
 11
0.053877
 20
-0.039275
 21
-0.039527
  0
LINE
  8
APS_GEOMETRY
 10
0.053877
 11
0.054381
 20
-0.039527
 21
-0.039936
  0
LINE
  8
APS_GEOMETRY
 10
0.054381
 11
0.055891
 20
-0.039936
 21
-0.041163
  0
ARC
  8
APS_GEOMETRY
 10
0.046664
 20
-0.062693
 40
0.023424
 50
66.801409
 51
69.145542
  0
ARC
  8
APS_GEOMETRY
 10
0.023219
 20
-0.124236
 40
0.089281
 50
69.145542
 51
70.346176
  0
ARC
  8
APS_GEOMETRY
 10
0.050431
 20
-0.041142
 40
0.002985
 50
19.290046
 51
64.932537
  0
ARC
  8
APS_GEOMETRY
 10
0.041592
 20
-0.060038
 40
0.023845
 50
64.932537
 51
80.706691
  0
ARC
  8
APS_GEOMETRY
 10
0.046564
 20
-0.036786
 40
0.001155
 50
143.130102
 51
165.963757
  0
ARC
  8
APS_GEOMETRY
 10
0.045821
 20
-0.036228
 40
0.000226
 50
90.0
 51
143.130102
  0
LINE
  8
APS_GEOMETRY
 10
0.045821
 11
0.046167
 20
-0.036002
 21
-0.036002
  0
LINE
  8
APS_GEOMETRY
 10
0.046167
 11
0.046702
 20
-0.036002
 21
-0.036002
  0
ARC
  8
APS_GEOMETRY
 10
0.048638
 20
-0.02632
 40
0.009874
 50
258.690068
 51
262.405357
  0
ARC
  8
APS_GEOMETRY
 10
0.047646
 20
-0.033762
 40
0.002366
 50
262.405357
 51
270.0
  0
ARC
  8
APS_GEOMETRY
 10
0.047646
 20
-0.037815
 40
0.001687
 50
79.380345
 51
90.0
  0
ARC
  8
APS_GEOMETRY
 10
0.046329
 20
-0.044837
 40
0.008832
 50
74.744881
 51
79.380345
  0
ARC
  8
APS_GEOMETRY
 10
0.051385
 20
-0.0263
 40
0.010383
 50
254.744881
 51
258.690068
  0
ARC
  8
APS_GEOMETRY
 10
0.049597
 20
-0.035239
 40
0.001267
 50
258.690068
 51
270.0
  0
ARC
  8
APS_GEOMETRY
 10
0.049597
 20
-0.034918
 40
0.001587
 50
270.0
 51
291.801409
  0
ARC
  8
APS_GEOMETRY
 10
0.049206
 20
-0.033939
 40
0.002642
 50
291.801409
 51
308.659808
  0
ARC
  8
APS_GEOMETRY
 10
0.050856
 20
-0.036351
 40
0.000349
 50
52.125016
 51
90.0
  0
ARC
  8
APS_GEOMETRY
 10
0.049987
 20
-0.037468
 40
0.001764
 50
35.537678
 51
52.125016
  0
ARC
  8
APS_GEOMETRY
 10
0.053993
 20
-0.034607
 40
0.003159
 50
215.537678
 51
225.0
  0
ARC
  8
APS_GEOMETRY
 10
0.051863
 20
-0.036736
 40
0.000147
 50
225.0
 51
270.0
  0
ARC
  8
APS_GEOMETRY
 10
0.051863
 20
-0.036796
 40
0.000087
 50
270.0
 51
333.434949
  0
ARC
  8
APS_GEOMETRY
 10
0.051533
 20
-0.036631
 40
0.000455
 50
333.434949
 51
0.0
  0
ARC
  8
APS_GEOMETRY
 10
0.051303
 20
-0.036631
 40
0.000686
 50
0.0
 51
38.659808
  0
ARC
  8
APS_GEOMETRY
 10
0.04814
 20
-0.039162
 40
0.004737
 50
38.659808
 51
53.130102
  0
LINE
  8
APS_GEOMETRY
 10
0.050982
 11
0.050982
 20
-0.035373
 21
-0.034743
  0
ARC
  8
APS_GEOMETRY
 10
0.051446
 20
-0.035671
 40
0.001037
 50
101.309932
 51
116.565051
  0
ARC
  8
APS_GEOMETRY
 10
0.051611
 20
-0.036499
 40
0.001882
 50
90.0
 51
101.309932
  0
ARC
  8
APS_GEOMETRY
 10
0.051611
 20
-0.035057
 40
0.000439
 50
45.0
 51
90.0
  0
ARC
  8
APS_GEOMETRY
 10
0.045942
 20
-0.040726
 40
0.008456
 50
34.99202
 51
45.0
  0
LINE
  8
APS_GEOMETRY
 10
0.05287
 11
0.053248
 20
-0.035876
 21
-0.035876
  0
ARC
  8
APS_GEOMETRY
 10
0.049746
 20
-0.034125
 40
0.003915
 50
333.434949
 51
341.565051
  0
ARC
  8
APS_GEOMETRY
 10
0.052733
 20
-0.035121
 40
0.000767
 50
341.565051
 51
0.0
  0
ARC
  8
APS_GEOMETRY
 10
0.052937
 20
-0.035121
 40
0.000562
 50
0.0
 51
46.84761
  0
ARC
  8
APS_GEOMETRY
 10
0.042624
 20
-0.046121
 40
0.015641
 50
46.84761
 51
55.491477
  0
ARC
  8
APS_GEOMETRY
 10
0.051891
 20
-0.033503
 40
0.000487
 50
98.746162
 51
146.309932
  0
ARC
  8
APS_GEOMETRY
 10
0.052635
 20
-0.038339
 40
0.00538
 50
84.805571
 51
98.746162
  0
LINE
  8
APS_GEOMETRY
 10
0.053122
 11
0.053122
 20
-0.032981
 21
-0.032729
  0
ARC
  8
APS_GEOMETRY
 10
0.052225
 20
-0.032729
 40
0.000897
 50
0.0
 51
23.198591
  0
ARC
  8
APS_GEOMETRY
 10
0.050696
 20
-0.033384
 40
0.002561
 50
23.198591
 51
36.869898
  0
ARC
  8
APS_GEOMETRY
 10
0.065866
 20
-0.101829
 40
0.071201
 50
98.972627
 51
100.619655
  0
ARC
  8
APS_GEOMETRY
 10
0.055136
 20
-0.033874
 40
0.002404
 50
90.0
 51
98.972627
  0
ARC
  8
APS_GEOMETRY
 10
0.055136
 20
-0.048022
 40
0.016552
 50
80.036196
 51
90.0
  0
ARC
  8
APS_GEOMETRY
 10
0.042911
 20
-0.11761
 40
0.087205
 50
75.699723
 51
80.036196
  0
LINE
  8
APS_GEOMETRY
 10
0.064451
 11
0.064451
 20
-0.033107
 21
-0.033862
  0
LINE
  8
APS_GEOMETRY
 10
0.064451
 11
0.063696
 20
-0.033862
 21
-0.033862
  0
ARC
  8
APS_GEOMETRY
 10
0.063696
 20
-0.031663
 40
0.002199
 50
257.005383
 51
270.0
  0
ARC
  8
APS_GEOMETRY
 10
0.066012
 20
-0.021626
 40
0.0125
 50
251.565051
 51
257.005383
  0
ARC
  8
APS_GEOMETRY
 10
0.058875
 20
-0.043038
 40
0.010071
 50
71.565051
 51
78.310631
  0
ARC
  8
APS_GEOMETRY
 10
0.060234
 20
-0.036468
 40
0.003361
 50
78.310631
 51
90.0
  0
ARC
  8
APS_GEOMETRY
 10
0.060234
 20
-0.029371
 40
0.003736
 50
259.426477
 51
270.0
  0
ARC
  8
APS_GEOMETRY
 10
0.084066
 20
0.0983
 40
0.133612
 50
257.660913
 51
259.426477
  0
LINE
  8
APS_GEOMETRY
 10
0.055514
 11
0.055136
 20
-0.032226
 21
-0.032729
  0
LINE
  8
APS_GEOMETRY
 10
0.055136
 11
0.055136
 20
-0.032729
 21
-0.033233
  0
ARC
  8
APS_GEOMETRY
 10
0.051193
 20
-0.033233
 40
0.003943
 50
350.909723
 51
0.0
  0
ARC
  8
APS_GEOMETRY
 10
0.045669
 20
-0.032349
 40
0.009537
 50
345.068583
 51
350.909723
  0
ARC
  8
APS_GEOMETRY
 10
0.067878
 20
-0.038271
 40
0.013447
 50
165.068583
 51
169.215702
  0
ARC
  8
APS_GEOMETRY
 10
0.056626
 20
-0.036128
 40
0.001994
 50
169.215702
 51
180.0
  0
ARC
  8
APS_GEOMETRY
 10
0.056464
 20
-0.036128
 40
0.001831
 50
180.0
 51
202.619865
  0
ARC
  8
APS_GEOMETRY
 10
0.057685
 20
-0.035619
 40
0.003155
 50
202.619865
 51
219.805571
  0
ARC
  8
APS_GEOMETRY
 10
0.038209
 20
-0.056823
 40
0.025668
 50
45.0
 51
48.366461
  0
ARC
  8
APS_GEOMETRY
 10
0.055749
 20
-0.039283
 40
0.000863
 50
26.565051
 51
45.0
  0
ARC
  8
APS_GEOMETRY
 10
0.049967
 20
-0.053316
 40
0.015839
 50
44.548861
 51
65.556045
  0
ARC
  8
APS_GEOMETRY
 10
0.050162
 20
-0.053124
 40
0.015565
 50
23.355565
 51
44.548861
  0
ARC
  8
APS_GEOMETRY
 10
0.064451
 20
-0.05137
 40
0.004416
 50
81.869898
 51
90.0
  0
ARC
  8
APS_GEOMETRY
 10
0.062945
 20
-0.061915
 40
0.015068
 50
77.471192
 51
81.869898
  0
ARC
  8
APS_GEOMETRY
 10
0.074394
 20
-0.042604
 40
0.009386
 50
209.357754
 51
223.264295
  0
ARC
  8
APS_GEOMETRY
 10
0.085017
 20
-0.032606
 40
0.023973
 50
223.264295
 51
231.952957
  0
ARC
  8
APS_GEOMETRY
 10
0.076497
 20
-0.04914
 40
0.00668
 50
200.556045
 51
209.744881
  0
ARC
  8
APS_GEOMETRY
 10
0.152067
 20
-0.005957
 40
0.093719
 50
209.744881
 51
212.195734
  0
ARC
  8
APS_GEOMETRY
 10
0.060879
 20
-0.063811
 40
0.014278
 50
21.250506
 51
33.690068
  0
ARC
  8
APS_GEOMETRY
 10
0.069592
 20
-0.060423
 40
0.00493
 50
0.0
 51
21.250506
  0
LINE
  8
APS_GEOMETRY
 10
0.074522
 11
0.074773
 20
-0.060423
 21
-0.059794
  0
ARC
  8
APS_GEOMETRY
 10
0.099467
 20
-0.059794
 40
0.024693
 50
180.0
 51
185.826342
  0
ARC
  8
APS_GEOMETRY
 10
0.12816
 20
-0.056866
 40
0.053536
 50
185.826342
 51
189.782407
  0
ARC
  8
APS_GEOMETRY
 10
0.065318
 20
-0.07513
 40
0.01363
 50
34.438989
 51
42.273689
  0
ARC
  8
APS_GEOMETRY
 10
0.03716
 20
-0.094438
 40
0.047772
 50
30.256437
 51
34.438989
  0
LINE
  8
APS_GEOMETRY
 10
0.078424
 11
0.078802
 20
-0.070368
 21
-0.070116
  0
ARC
  8
APS_GEOMETRY
 10
0.22709
 20
0.096708
 40
0.223203
 50
228.366461
 51
229.144624
  0
ARC
  8
APS_GEOMETRY
 10
0.236405
 20
0.107479
 40
0.237443
 50
229.144624
 51
229.899092
  0
ARC
  8
APS_GEOMETRY
 10
0.064932
 20
-0.095318
 40
0.028135
 50
40.732107
 51
48.814075
  0
ARC
  8
APS_GEOMETRY
 10
0.080587
 20
-0.081837
 40
0.007476
 50
25.016893
 51
40.732107
  0
ARC
  8
APS_GEOMETRY
 10
0.097631
 20
-0.075742
 40
0.01068
 50
195.945396
 51
200.854458
  0
ARC
  8
APS_GEOMETRY
 10
0.1314
 20
-0.062877
 40
0.046817
 50
200.854458
 51
203.198591
  0
ARC
  8
APS_GEOMETRY
 10
0.085191
 20
-0.085768
 40
0.005467
 50
22.833654
 51
54.462322
  0
ARC
  8
APS_GEOMETRY
 10
0.076125
 20
-0.089585
 40
0.015303
 50
4.085617
 51
22.833654
  0
LINE
  8
APS_GEOMETRY
 10
0.09139
 11
0.091641
 20
-0.088494
 21
-0.092523
  0
LINE
  8
APS_GEOMETRY
 10
0.091641
 11
0.091893
 20
-0.092523
 21
-0.096551
  0
ARC
  8
APS_GEOMETRY
 10
0.099826
 20
-0.10184
 40
0.009534
 50
146.309932
 51
149.036243
  0
ARC
  8
APS_GEOMETRY
 10
0.132547
 20
-0.121472
 40
0.047693
 50
149.036243
 51
150.255119
  0
ARC
  8
APS_GEOMETRY
 10
0.091405
 20
-0.097721
 40
0.000281
 50
198.434949
 51
243.434949
  0
ARC
  8
APS_GEOMETRY
 10
0.091316
 20
-0.097899
 40
0.000082
 50
243.434949
 51
333.434949
  0
ARC
  8
APS_GEOMETRY
 10
0.049562
 20
-0.107895
 40
0.042997
 50
9.782407
 51
13.392498
  0
ARC
  8
APS_GEOMETRY
 10
0.086151
 20
-0.101586
 40
0.005868
 50
0.0
 51
9.782407
  0
ARC
  8
APS_GEOMETRY
 10
0.091379
 20
-0.101586
 40
0.000641
 50
338.198591
 51
0.0
  0
ARC
  8
APS_GEOMETRY
 10
0.08999
 20
-0.101031
 40
0.002136
 50
326.309932
 51
338.198591
  0
ARC
  8
APS_GEOMETRY
 10
0.093544
 20
-0.1034
 40
0.002136
 50
146.309932
 51
158.198591
  0
ARC
  8
APS_GEOMETRY
 10
0.092156
 20
-0.102845
 40
0.000641
 50
158.198591
 51
180.0
  0
ARC
  8
APS_GEOMETRY
 10
0.092504
 20
-0.102845
 40
0.000988
 50
180.0
 51
220.601295
  0
ARC
  8
APS_GEOMETRY
 10
0.092271
 20
-0.103045
 40
0.000681
 50
220.601295
 51
270.0
  0
LINE
  8
APS_GEOMETRY
 10
0.092271
 11
0.092491
 20
-0.103726
 21
-0.103506
  0
LINE
  8
APS_GEOMETRY
 10
0.092491
 11
0.093152
 20
-0.103506
 21
-0.102845
  0
LINE
  8
APS_GEOMETRY
 10
0.093152
 11
0.093781
 20
-0.102845
 21
-0.103348
  0
ARC
  8
APS_GEOMETRY
 10
0.069541
 20
-0.084302
 40
0.030828
 50
321.842773
 51
326.003541
  0
ARC
  8
APS_GEOMETRY
 10
0.001078
 20
-0.03813
 40
0.113405
 50
326.003541
 51
328.172553
  0
ARC
  8
APS_GEOMETRY
 10
0.173572
 20
-0.131247
 40
0.083108
 50
154.855214
 51
156.370622
  0
ARC
  8
APS_GEOMETRY
 10
0.430147
 20
-0.25168
 40
0.366542
 50
154.133643
 51
154.855214
  0
ARC
  8
APS_GEOMETRY
 10
0.098051
 20
-0.091767
 40
0.002276
 50
0.0
 51
9.462322
  0
ARC
  8
APS_GEOMETRY
 10
0.078959
 20
-0.094949
 40
0.021631
 50
9.462322
 51
12.528808
  0
ARC
  8
APS_GEOMETRY
 10
0.108101
 20
-0.089254
 40
0.008088
 50
180.0
 51
187.125016
  0
ARC
  8
APS_GEOMETRY
 10
0.102105
 20
-0.089254
 40
0.002092
 50
165.963757
 51
180.0
  0
LINE
  8
APS_GEOMETRY
 10
0.100076
 11
0.100076
 20
-0.088746
 21
-0.087991
  0
ARC
  8
APS_GEOMETRY
 10
0.09938
 20
-0.087063
 40
0.00116
 50
306.869898
 51
336.250506
  0
ARC
  8
APS_GEOMETRY
 10
0.096313
 20
-0.085714
 40
0.00451
 50
336.250506
 51
351.027373
  0
ARC
  8
APS_GEOMETRY
 10
0.103332
 20
-0.086822
 40
0.002596
 50
145.885527
 51
171.027373
  0
ARC
  8
APS_GEOMETRY
 10
0.103931
 20
-0.087228
 40
0.003319
 50
123.690068
 51
145.885527
  0
ARC
  8
APS_GEOMETRY
 10
0.130927
 20
-0.087088
 40
0.028956
 50
172.056528
 51
174.805571
  0
ARC
  8
APS_GEOMETRY
 10
0.129104
 20
-0.086833
 40
0.027116
 50
169.215702
 51
172.056528
  0
ARC
  8
APS_GEOMETRY
 10
0.105731
 20
-0.082382
 40
0.003323
 50
147.030596
 51
169.215702
  0
ARC
  8
APS_GEOMETRY
 10
0.106993
 20
-0.0832
 40
0.004827
 50
128.659808
 51
147.030596
  0
LINE
  8
APS_GEOMETRY
 10
0.103978
 11
0.104104
 20
-0.079431
 21
-0.079053
  0
ARC
  8
APS_GEOMETRY
 10
0.102679
 20
-0.079053
 40
0.001425
 50
0.0
 51
23.962489
  0
ARC
  8
APS_GEOMETRY
 10
0.102298
 20
-0.079223
 40
0.001842
 50
23.962489
 51
45.0
  0
LINE
  8
APS_GEOMETRY
 10
0.1036
 11
0.1036
 20
-0.07792
 21
-0.076913
  0
ARC
  8
APS_GEOMETRY
 10
0.076306
 20
-0.064119
 40
0.030145
 50
334.885165
 51
343.17859
  0
ARC
  8
APS_GEOMETRY
 10
0.102417
 20
-0.072013
 40
0.002866
 50
343.17859
 51
10.304846
  0
LINE
  8
APS_GEOMETRY
 10
0.105237
 11
0.10574
 20
-0.071501
 21
-0.071501
  0
ARC
  8
APS_GEOMETRY
 10
0.10574
 20
-0.072004
 40
0.000504
 50
45.0
 51
90.0
  0
ARC
  8
APS_GEOMETRY
 10
0.10574
 20
-0.072004
 40
0.000504
 50
0.0
 51
45.0
  0
LINE
  8
APS_GEOMETRY
 10
0.106244
 11
0.106244
 20
-0.072004
 21
-0.071752
  0
ARC
  8
APS_GEOMETRY
 10
0.104255
 20
-0.070758
 40
0.002223
 50
333.434949
 51
347.735226
  0
ARC
  8
APS_GEOMETRY
 10
0.100228
 20
-0.069883
 40
0.006344
 50
347.735226
 51
356.185925
  0
ARC
  8
APS_GEOMETRY
 10
0.111346
 20
-0.070624
 40
0.004798
 50
164.981639
 51
176.185925
  0
ARC
  8
APS_GEOMETRY
 10
0.122733
 20
-0.073679
 40
0.016588
 50
158.962489
 51
164.981639
  0
ARC
  8
APS_GEOMETRY
 10
0.107251
 20
-0.067086
 40
0.000638
 50
270.0
 51
339.145542
  0
ARC
  8
APS_GEOMETRY
 10
0.101986
 20
-0.065081
 40
0.006272
 50
339.145542
 51
0.0
  0
ARC
  8
APS_GEOMETRY
 10
0.11176
 20
-0.065081
 40
0.003503
 50
157.9321
 51
180.0
  0
ARC
  8
APS_GEOMETRY
 10
0.133485
 20
-0.073888
 40
0.026945
 50
150.018361
 51
157.9321
  0
ARC
  8
APS_GEOMETRY
 10
0.144248
 20
-0.080574
 40
0.039611
 50
144.782407
 51
149.420773
  0
ARC
  8
APS_GEOMETRY
 10
0.124988
 20
-0.066979
 40
0.016036
 50
137.489553
 51
144.782407
  0
ARC
  8
APS_GEOMETRY
 10
0.090848
 20
-0.025708
 40
0.037742
 50
306.253838
 51
309.805571
  0
ARC
  8
APS_GEOMETRY
 10
0.023814
 20
0.054733
 40
0.142452
 50
309.805571
 51
311.633539
  0
ARC
  8
APS_GEOMETRY
 10
0.126126
 20
-0.08498
 40
0.034116
 50
100.175511
 51
102.994617
  0
ARC
  8
APS_GEOMETRY
 10
0.14354
 20
-0.182004
 40
0.132691
 50
98.746162
 51
100.175511
  0
LINE
  8
APS_GEOMETRY
 10
0.123364
 11
0.123364
 20
-0.050856
 21
-0.05136
  0
LINE
  8
APS_GEOMETRY
 10
0.123364
 11
0.122986
 20
-0.05136
 21
-0.051234
  0
ARC
  8
APS_GEOMETRY
 10
0.123749
 20
-0.050852
 40
0.000853
 50
206.565051
 51
225.0
  0
ARC
  8
APS_GEOMETRY
 10
0.12474
 20
-0.049861
 40
0.002255
 50
225.0
 51
236.309932
  0
ARC
  8
APS_GEOMETRY
 10
0.122981
 20
-0.051228
 40
0.00072
 50
315.0
 51
329.036243
  0
ARC
  8
APS_GEOMETRY
 10
0.117343
 20
-0.047846
 40
0.007295
 50
329.036243
 51
333.434949
  0
ARC
  8
APS_GEOMETRY
 10
0.125314
 20
-0.051831
 40
0.001618
 50
135.0
 51
153.434949
  0
ARC
  8
APS_GEOMETRY
 10
0.124371
 20
-0.050888
 40
0.000283
 50
90.0
 51
135.0
  0
ARC
  8
APS_GEOMETRY
 10
0.124371
 20
-0.056429
 40
0.005825
 50
56.309932
 51
90.0
  0
ARC
  8
APS_GEOMETRY
 10
0.121627
 20
-0.060544
 40
0.01077
 50
31.70143
 51
56.309932
  0
ARC
  8
APS_GEOMETRY
 10
0.130791
 20
-0.056022
 40
0.001138
 50
71.565051
 51
90.0
  0
ARC
  8
APS_GEOMETRY
 10
0.130626
 20
-0.056515
 40
0.001658
 50
56.309932
 51
71.565051
  0
LINE
  8
APS_GEOMETRY
 10
0.131546
 11
0.131546
 20
-0.055136
 21
-0.055765
  0
LINE
  8
APS_GEOMETRY
 10
0.029834
 11
0.029708
 20
-0.040282
 21
-0.040282
  0
LINE
  8
APS_GEOMETRY
 10
0.029708
 11
0.029456
 20
-0.040282
 21
-0.039904
  0
LINE
  8
APS_GEOMETRY
 10
0.029456
 11
0.029708
 20
-0.039904
 21
-0.039904
  0
LINE
  8
APS_GEOMETRY
 10
0.029708
 11
0.029834
 20
-0.039904
 21
-0.040282
  0
LINE
  8
APS_GEOMETRY
 10
0.026183
 11
0.024043
 20
-0.036631
 21
-0.036631
  0
LINE
  8
APS_GEOMETRY
 10
0.024043
 11
0.024043
 20
-0.036631
 21
-0.036002
  0
LINE
  8
APS_GEOMETRY
 10
0.024043
 11
0.024421
 20
-0.036002
 21
-0.035876
  0
LINE
  8
APS_GEOMETRY
 10
0.024421
 11
0.024799
 20
-0.035876
 21
-0.03575
  0
ARC
  8
APS_GEOMETRY
 10
0.025295
 20
-0.035419
 40
0.000597
 50
213.690068
 51
253.300756
  0
ARC
  8
APS_GEOMETRY
 10
0.026057
 20
-0.032878
 40
0.003249
 50
253.300756
 51
270.0
  0
LINE
  8
APS_GEOMETRY
 10
0.026057
 11
0.026183
 20
-0.036128
 21
-0.036631
  0
LINE
  8
APS_GEOMETRY
 10
0.052367
 11
0.052115
 20
-0.062563
 21
-0.064577
  0
ARC
  8
APS_GEOMETRY
 10
0.046393
 20
-0.066658
 40
0.006088
 50
19.983107
 51
33.690068
  0
ARC
  8
APS_GEOMETRY
 10
0.028387
 20
-0.078661
 40
0.027728
 50
33.690068
 51
40.100908
  0
ARC
  8
APS_GEOMETRY
 10
0.051922
 20
-0.061465
 40
0.002418
 50
144.462322
 51
164.054604
  0
ARC
  8
APS_GEOMETRY
 10
0.050227
 20
-0.060254
 40
0.000334
 50
90.0
 51
144.462322
  0
ARC
  8
APS_GEOMETRY
 10
0.050227
 20
-0.060184
 40
0.000264
 50
40.364537
 51
90.0
  0
ARC
  8
APS_GEOMETRY
 10
0.041776
 20
-0.067367
 40
0.011355
 50
33.023868
 51
40.364537
  0
ARC
  8
APS_GEOMETRY
 10
0.066587
 20
-0.051239
 40
0.018237
 50
213.023868
 51
217.69424
  0
ARC
  8
APS_GEOMETRY
 10
0.052639
 20
-0.062017
 40
0.00061
 50
217.69424
 51
243.434949
  0
LINE
  8
APS_GEOMETRY
 10
0.028575
 11
0.028449
 20
-0.039149
 21
-0.039527
  0
ARC
  8
APS_GEOMETRY
 10
0.021624
 20
-0.064551
 40
0.025938
 50
74.744881
 51
77.905243
  0
ARC
  8
APS_GEOMETRY
 10
0.026687
 20
-0.040926
 40
0.001777
 50
77.905243
 51
90.0
  0
LINE
  8
APS_GEOMETRY
 10
0.026687
 11
0.026687
 20
-0.039149
 21
-0.03852
  0
ARC
  8
APS_GEOMETRY
 10
0.027692
 20
-0.041534
 40
0.003177
 50
101.309932
 51
108.434949
  0
ARC
  8
APS_GEOMETRY
 10
0.027316
 20
-0.039657
 40
0.001263
 50
90.0
 51
101.309932
  0
LINE
  8
APS_GEOMETRY
 10
0.027316
 11
0.027568
 20
-0.038394
 21
-0.038394
  0
ARC
  8
APS_GEOMETRY
 10
0.027568
 20
-0.041914
 40
0.00352
 50
81.869898
 51
90.0
  0
ARC
  8
APS_GEOMETRY
 10
0.027756
 20
-0.0406
 40
0.002193
 50
71.565051
 51
81.869898
  0
LINE
  8
APS_GEOMETRY
 10
0.028449
 11
0.028575
 20
-0.03852
 21
-0.039149
  0
LINE
  8
APS_GEOMETRY
 10
0.028827
 11
0.028575
 20
-0.041541
 21
-0.041541
  0
LINE
  8
APS_GEOMETRY
 10
0.028575
 11
0.028575
 20
-0.041541
 21
-0.040911
  0
LINE
  8
APS_GEOMETRY
 10
0.028575
 11
0.028827
 20
-0.040911
 21
-0.040911
  0
LINE
  8
APS_GEOMETRY
 10
0.028827
 11
0.028827
 20
-0.040911
 21
-0.041541
  0
LINE
  8
APS_GEOMETRY
 10
0.050478
 11
0.050101
 20
-0.067346
 21
-0.068102
  0
LINE
  8
APS_GEOMETRY
 10
0.050101
 11
0.049471
 20
-0.068102
 21
-0.068228
  0
ARC
  8
APS_GEOMETRY
 10
0.047016
 20
-0.067877
 40
0.00248
 50
351.869898
 51
11.888658
  0
ARC
  8
APS_GEOMETRY
 10
0.041059
 20
-0.069131
 40
0.008567
 50
11.888658
 51
22.619865
  0
ARC
  8
APS_GEOMETRY
 10
0.062737
 20
-0.060099
 40
0.014917
 50
196.38954
 51
202.619865
  0
ARC
  8
APS_GEOMETRY
 10
0.050507
 20
-0.063696
 40
0.002168
 50
180.0
 51
196.38954
  0
ARC
  8
APS_GEOMETRY
 10
0.049705
 20
-0.063696
 40
0.001366
 50
153.434949
 51
180.0
  0
ARC
  8
APS_GEOMETRY
 10
0.048716
 20
-0.063202
 40
0.000261
 50
90.0
 51
153.434949
  0
LINE
  8
APS_GEOMETRY
 10
0.048716
 11
0.048968
 20
-0.062941
 21
-0.062941
  0
ARC
  8
APS_GEOMETRY
 10
0.048426
 20
-0.063482
 40
0.000766
 50
18.924644
 51
45.0
  0
ARC
  8
APS_GEOMETRY
 10
-0.064218
 20
-0.102103
 40
0.119847
 50
16.858399
 51
18.924644
  0
LINE
  8
APS_GEOMETRY
 10
0.049345
 11
0.049094
 20
-0.068228
 21
-0.068228
  0
LINE
  8
APS_GEOMETRY
 10
0.049094
 11
0.049094
 20
-0.068228
 21
-0.067598
  0
LINE
  8
APS_GEOMETRY
 10
0.049094
 11
0.049345
 20
-0.067598
 21
-0.067598
  0
LINE
  8
APS_GEOMETRY
 10
0.049345
 11
0.049345
 20
-0.067598
 21
-0.068228
  0
ARC
  8
APS_GEOMETRY
 10
0.046524
 20
-0.067506
 40
0.001329
 50
319.398705
 51
350.537678
  0
ARC
  8
APS_GEOMETRY
 10
0.042169
 20
-0.063773
 40
0.007065
 50
306.027373
 51
319.398705
  0
ARC
  8
APS_GEOMETRY
 10
0.045686
 20
-0.06938
 40
0.000647
 50
350.537678
 51
45.0
  0
ARC
  8
APS_GEOMETRY
 10
0.04454
 20
-0.070526
 40
0.002268
 50
45.0
 51
73.300756
  0
ARC
  8
APS_GEOMETRY
 10
0.047724
 20
-0.068715
 40
0.002558
 50
153.434949
 51
171.869898
  0
ARC
  8
APS_GEOMETRY
 10
0.045837
 20
-0.067772
 40
0.000448
 50
108.434949
 51
153.434949
  0
LINE
  8
APS_GEOMETRY
 10
0.045695
 11
0.04645
 20
-0.067346
 21
-0.067724
  0
ARC
  8
APS_GEOMETRY
 10
0.0463
 20
-0.067122
 40
0.000621
 50
284.036243
 51
325.304846
  0
ARC
  8
APS_GEOMETRY
 10
0.045832
 20
-0.066798
 40
0.001189
 50
325.304846
 51
354.805571
  0
ARC
  8
APS_GEOMETRY
 10
0.048835
 20
-0.067071
 40
0.001826
 50
155.556045
 51
174.805571
  0
ARC
  8
APS_GEOMETRY
 10
0.047331
 20
-0.066388
 40
0.000174
 50
90.0
 51
155.556045
  0
LINE
  8
APS_GEOMETRY
 10
0.047331
 11
0.047835
 20
-0.066213
 21
-0.066213
  0
LINE
  8
APS_GEOMETRY
 10
0.047835
 11
0.047835
 20
-0.066213
 21
-0.067724
  0
LINE
  8
APS_GEOMETRY
 10
0.022659
 11
0.022029
 20
-0.035624
 21
-0.036002
  0
LINE
  8
APS_GEOMETRY
 10
0.022029
 11
0.021903
 20
-0.036002
 21
-0.036128
  0
ARC
  8
APS_GEOMETRY
 10
0.021903
 20
-0.033096
 40
0.003032
 50
260.537678
 51
270.0
  0
ARC
  8
APS_GEOMETRY
 10
0.023534
 20
-0.02331
 40
0.012953
 50
255.963757
 51
260.537678
  0
ARC
  8
APS_GEOMETRY
 10
0.017251
 20
-0.048443
 40
0.012953
 50
75.963757
 51
80.537678
  0
ARC
  8
APS_GEOMETRY
 10
0.018882
 20
-0.038656
 40
0.003032
 50
80.537678
 51
90.0
  0
ARC
  8
APS_GEOMETRY
 10
0.018882
 20
-0.036264
 40
0.000639
 50
90.0
 51
120.963757
  0
ARC
  8
APS_GEOMETRY
 10
0.01904
 20
-0.036527
 40
0.000946
 50
120.963757
 51
146.309932
  0
LINE
  8
APS_GEOMETRY
 10
0.018253
 11
0.018505
 20
-0.036002
 21
-0.036254
  0
LINE
  8
APS_GEOMETRY
 10
0.018505
 11
0.018505
 20
-0.036254
 21
-0.036883
  0
LINE
  8
APS_GEOMETRY
 10
0.018505
 11
0.017623
 20
-0.036883
 21
-0.036883
  0
ARC
  8
APS_GEOMETRY
 10
0.017623
 20
-0.036324
 40
0.000559
 50
244.983107
 51
270.0
  0
ARC
  8
APS_GEOMETRY
 10
0.020012
 20
-0.031205
 40
0.006208
 50
237.528808
 51
244.983107
  0
ARC
  8
APS_GEOMETRY
 10
0.014228
 20
-0.040295
 40
0.004566
 50
57.528808
 51
67.619865
  0
ARC
  8
APS_GEOMETRY
 10
0.015609
 20
-0.03694
 40
0.000938
 50
67.619865
 51
90.0
  0
ARC
  8
APS_GEOMETRY
 10
0.015609
 20
-0.064561
 40
0.028559
 50
90.0
 51
100.512627
  0
ARC
  8
APS_GEOMETRY
 10
0.020331
 20
-0.090005
 40
0.054437
 50
100.512627
 51
108.12186
  0
ARC
  8
APS_GEOMETRY
 10
0.005225
 20
-0.039181
 40
0.002041
 50
116.565051
 51
153.434949
  0
ARC
  8
APS_GEOMETRY
 10
0.013714
 20
-0.05616
 40
0.021025
 50
105.255119
 51
116.565051
  0
ARC
  8
APS_GEOMETRY
 10
0.019405
 20
-0.076558
 40
0.042201
 50
100.304846
 51
105.422161
  0
ARC
  8
APS_GEOMETRY
 10
0.013721
 20
-0.045297
 40
0.010428
 50
90.0
 51
100.304846
  0
ARC
  8
APS_GEOMETRY
 10
0.013721
 20
-0.119347
 40
0.084478
 50
85.16958
 51
90.0
  0
ARC
  8
APS_GEOMETRY
 10
0.020339
 20
-0.041037
 40
0.005889
 50
66.801409
 51
85.16958
  0
ARC
  8
APS_GEOMETRY
 10
0.045132
 20
-0.068894
 40
0.000801
 50
123.690068
 51
153.434949
  0
ARC
  8
APS_GEOMETRY
 10
0.04531
 20
-0.068983
 40
0.001
 50
153.434949
 51
180.0
  0
ARC
  8
APS_GEOMETRY
 10
0.045826
 20
-0.068983
 40
0.001516
 50
180.0
 51
189.462322
  0
ARC
  8
APS_GEOMETRY
 10
0.050719
 20
-0.068167
 40
0.006477
 50
189.462322
 51
194.036243
  0
LINE
  8
APS_GEOMETRY
 10
0.044436
 11
0.044436
 20
-0.069738
 21
-0.070179
  0
LINE
  8
APS_GEOMETRY
 10
0.044436
 11
0.044436
 20
-0.070179
 21
-0.070493
  0
LINE
  8
APS_GEOMETRY
 10
0.044436
 11
0.044562
 20
-0.070493
 21
-0.070116
  0
LINE
  8
APS_GEOMETRY
 10
0.044562
 11
0.044562
 20
-0.070116
 21
-0.071123
  0
LINE
  8
APS_GEOMETRY
 10
0.044562
 11
0.044436
 20
-0.071123
 21
-0.070745
  0
ARC
  8
APS_GEOMETRY
 10
0.04784
 20
-0.074149
 40
0.004814
 50
135.0
 51
141.340192
  0
ARC
  8
APS_GEOMETRY
 10
0.059571
 20
-0.083534
 40
0.019837
 50
141.340192
 51
144.462322
  0
ARC
  8
APS_GEOMETRY
 10
0.053984
 20
-0.069365
 40
0.01088
 50
191.309932
 51
194.036243
  0
ARC
  8
APS_GEOMETRY
 10
0.043937
 20
-0.071375
 40
0.000634
 50
180.0
 51
191.309932
  0
ARC
  8
APS_GEOMETRY
 10
0.043555
 20
-0.071375
 40
0.000252
 50
135.0
 51
180.0
  0
ARC
  8
APS_GEOMETRY
 10
0.043555
 20
-0.071375
 40
0.000252
 50
90.0
 51
135.0
  0
LINE
  8
APS_GEOMETRY
 10
0.043555
 11
0.043807
 20
-0.071123
 21
-0.070745
  0
ARC
  8
APS_GEOMETRY
 10
0.053739
 20
-0.067766
 40
0.01037
 50
189.462322
 51
196.699244
  0
ARC
  8
APS_GEOMETRY
 10
0.081533
 20
-0.063133
 40
0.038547
 50
185.710593
 51
189.462322
  0
LINE
  8
APS_GEOMETRY
 10
0.043177
 11
0.044058
 20
-0.066969
 21
-0.066465
  0
ARC
  8
APS_GEOMETRY
 10
0.039896
 20
-0.068547
 40
0.004654
 50
19.653824
 51
26.565051
  0
ARC
  8
APS_GEOMETRY
 10
0.02032
 20
-0.075538
 40
0.025441
 50
16.699244
 51
19.653824
  0
ARC
  8
APS_GEOMETRY
 10
0.024329
 20
-0.037924
 40
0.000487
 50
275.440332
 51
315.0
  0
ARC
  8
APS_GEOMETRY
 10
0.022029
 20
-0.01378
 40
0.02474
 50
270.0
 51
275.440332
  0
ARC
  8
APS_GEOMETRY
 10
0.022029
 20
-0.040374
 40
0.001854
 50
90.0
 51
130.236358
  0
ARC
  8
APS_GEOMETRY
 10
0.021632
 20
-0.039904
 40
0.001239
 50
130.236358
 51
180.0
  0
LINE
  8
APS_GEOMETRY
 10
0.020393
 11
0.021274
 20
-0.039904
 21
-0.040156
  0
LINE
  8
APS_GEOMETRY
 10
0.021274
 11
0.021274
 20
-0.040156
 21
-0.041037
  0
LINE
  8
APS_GEOMETRY
 10
0.021274
 11
0.020393
 20
-0.041037
 21
-0.041793
  0
LINE
  8
APS_GEOMETRY
 10
0.020393
 11
0.019763
 20
-0.041793
 21
-0.041793
  0
ARC
  8
APS_GEOMETRY
 10
0.089963
 20
-0.011707
 40
0.076375
 50
202.479434
 51
203.198591
  0
ARC
  8
APS_GEOMETRY
 10
0.098785
 20
-0.008056
 40
0.085922
 50
201.801409
 51
202.479434
  0
ARC
  8
APS_GEOMETRY
 10
0.017482
 20
-0.040578
 40
0.001644
 50
21.801409
 51
53.130102
  0
ARC
  8
APS_GEOMETRY
 10
0.017749
 20
-0.040221
 40
0.001198
 50
53.130102
 51
90.0
  0
ARC
  8
APS_GEOMETRY
 10
0.017749
 20
-0.04681
 40
0.007787
 50
90.0
 51
116.787127
  0
ARC
  8
APS_GEOMETRY
 10
0.047149
 20
-0.105043
 40
0.07302
 50
116.787127
 51
125.463364
  0
ARC
  8
APS_GEOMETRY
 10
0.007982
 20
-0.046178
 40
0.003256
 50
126.384352
 51
169.215702
  0
ARC
  8
APS_GEOMETRY
 10
0.021638
 20
-0.064712
 40
0.026278
 50
111.614779
 51
126.384352
  0
ARC
  8
APS_GEOMETRY
 10
0.029786
 20
-0.08438
 40
0.047565
 50
104.400021
 51
112.011283
  0
ARC
  8
APS_GEOMETRY
 10
0.021274
 20
-0.051229
 40
0.013339
 50
90.0
 51
104.400021
  0
ARC
  8
APS_GEOMETRY
 10
0.021274
 20
-0.057112
 40
0.019222
 50
83.659808
 51
90.0
  0
ARC
  8
APS_GEOMETRY
 10
0.0226
 20
-0.045177
 40
0.007213
 50
73.300756
 51
83.659808
  0
ARC
  8
APS_GEOMETRY
 10
0.022346
 20
-0.050544
 40
0.00027
 50
135.0
 51
171.253838
  0
ARC
  8
APS_GEOMETRY
 10
0.11586
 20
-0.06493
 40
0.094884
 50
171.253838
 51
173.157227
  0
LINE
  8
APS_GEOMETRY
 10
0.021652
 11
0.0214
 20
-0.053625
 21
-0.053374
  0
ARC
  8
APS_GEOMETRY
 10
0.02837
 20
-0.051382
 40
0.007249
 50
188.746162
 51
195.945396
  0
ARC
  8
APS_GEOMETRY
 10
0.026063
 20
-0.051737
 40
0.004914
 50
180.0
 51
188.746162
  0
ARC
  8
APS_GEOMETRY
 10
0.024783
 20
-0.051737
 40
0.003635
 50
159.443955
 51
180.0
  0
ARC
  8
APS_GEOMETRY
 10
0.023036
 20
-0.051082
 40
0.001769
 50
129.805571
 51
159.443955
  0
LINE
  8
APS_GEOMETRY
 10
0.021903
 11
0.022155
 20
-0.049723
 21
-0.050352
  0
LINE
  8
APS_GEOMETRY
 10
0.02354
 11
0.02354
 20
-0.055136
 21
-0.055262
  0
ARC
  8
APS_GEOMETRY
 10
0.030426
 20
-0.046998
 40
0.010757
 50
225.0
 51
230.194429
  0
ARC
  8
APS_GEOMETRY
 10
0.023429
 20
-0.053996
 40
0.000861
 50
206.565051
 51
225.0
  0
ARC
  8
APS_GEOMETRY
 10
0.02332
 20
-0.05405
 40
0.00074
 50
185.194429
 51
206.565051
  0
ARC
  8
APS_GEOMETRY
 10
0.034914
 20
-0.052996
 40
0.012381
 50
180.0
 51
185.194429
  0
LINE
  8
APS_GEOMETRY
 10
0.022533
 11
0.022533
 20
-0.052996
 21
-0.052618
  0
LINE
  8
APS_GEOMETRY
 10
0.022533
 11
0.023036
 20
-0.052618
 21
-0.052744
  0
ARC
  8
APS_GEOMETRY
 10
0.024841
 20
-0.052744
 40
0.001805
 50
180.0
 51
191.888658
  0
ARC
  8
APS_GEOMETRY
 10
0.03223
 20
-0.051189
 40
0.009356
 50
191.888658
 51
197.102729
  0
ARC
  8
APS_GEOMETRY
 10
0.014346
 20
-0.056692
 40
0.009356
 50
11.888658
 51
17.102729
  0
ARC
  8
APS_GEOMETRY
 10
0.021735
 20
-0.055136
 40
0.001805
 50
0.0
 51
11.888658
  0
LINE
  8
APS_GEOMETRY
 10
0.041793
 11
0.041289
 20
-0.072633
 21
-0.073263
  0
ARC
  8
APS_GEOMETRY
 10
0.042552
 20
-0.071999
 40
0.001787
 50
213.690068
 51
225.0
  0
ARC
  8
APS_GEOMETRY
 10
0.044804
 20
-0.070498
 40
0.004493
 50
206.565051
 51
213.690068
  0
LINE
  8
APS_GEOMETRY
 10
0.040785
 11
0.041163
 20
-0.072508
 21
-0.071752
  0
ARC
  8
APS_GEOMETRY
 10
0.052871
 20
-0.063947
 40
0.014071
 50
213.690068
 51
215.537678
  0
ARC
  8
APS_GEOMETRY
 10
0.063443
 20
-0.056396
 40
0.027063
 50
215.537678
 51
216.869898
  0
ARC
  8
APS_GEOMETRY
 10
0.03752
 20
-0.071852
 40
0.00298
 50
311.185925
 51
323.130102
  0
ARC
  8
APS_GEOMETRY
 10
0.036806
 20
-0.071036
 40
0.004065
 50
300.963757
 51
311.185925
  0
LINE
  8
APS_GEOMETRY
 10
0.038897
 11
0.039023
 20
-0.074522
 21
-0.07364
  0
LINE
  8
APS_GEOMETRY
 10
0.039023
 11
0.039904
 20
-0.07364
 21
-0.07364
  0
ARC
  8
APS_GEOMETRY
 10
0.026979
 20
-0.065876
 40
0.000833
 50
291.801409
 51
315.0
  0
ARC
  8
APS_GEOMETRY
 10
0.026939
 20
-0.065775
 40
0.000942
 50
270.0
 51
291.801409
  0
ARC
  8
APS_GEOMETRY
 10
0.026939
 20
-0.065906
 40
0.000811
 50
223.66778
 51
270.0
  0
ARC
  8
APS_GEOMETRY
 10
0.028981
 20
-0.063956
 40
0.003635
 50
202.249024
 51
223.66778
  0
ARC
  8
APS_GEOMETRY
 10
0.023776
 20
-0.066085
 40
0.001989
 50
22.249024
 51
57.380757
  0
ARC
  8
APS_GEOMETRY
 10
0.024361
 20
-0.065172
 40
0.000904
 50
57.380757
 51
110.556045
  0
LINE
  8
APS_GEOMETRY
 10
0.024043
 11
0.023351
 20
-0.064325
 21
-0.062752
  0
LINE
  8
APS_GEOMETRY
 10
0.023351
 11
0.023036
 20
-0.062752
 21
-0.062311
  0
ARC
  8
APS_GEOMETRY
 10
0.016322
 20
-0.079098
 40
0.01808
 50
68.198591
 51
70.346176
  0
ARC
  8
APS_GEOMETRY
 10
0.003526
 20
-0.114925
 40
0.056123
 50
70.346176
 51
71.565051
  0
ARC
  8
APS_GEOMETRY
 10
0.019746
 20
-0.061682
 40
0.001528
 50
0.0
 51
22.380135
  0
ARC
  8
APS_GEOMETRY
 10
0.019775
 20
-0.06167
 40
0.001496
 50
22.380135
 51
45.0
  0
ARC
  8
APS_GEOMETRY
 10
0.02159
 20
-0.059855
 40
0.00107
 50
193.570434
 51
225.0
  0
ARC
  8
APS_GEOMETRY
 10
0.026017
 20
-0.058787
 40
0.005624
 50
180.0
 51
193.570434
  0
LINE
  8
APS_GEOMETRY
 10
0.020393
 11
0.020393
 20
-0.058787
 21
-0.057402
  0
ARC
  8
APS_GEOMETRY
 10
0.021635
 20
-0.057402
 40
0.001242
 50
152.102729
 51
180.0
  0
ARC
  8
APS_GEOMETRY
 10
0.030964
 20
-0.062341
 40
0.011798
 50
143.130102
 51
152.102729
  0
ARC
  8
APS_GEOMETRY
 10
0.022676
 20
-0.054878
 40
0.001212
 50
198.434949
 51
216.869898
  0
ARC
  8
APS_GEOMETRY
 10
0.026658
 20
-0.051892
 40
0.00619
 50
216.869898
 51
225.0
  0
LINE
  8
APS_GEOMETRY
 10
0.022281
 11
0.022281
 20
-0.056269
 21
-0.056772
  0
LINE
  8
APS_GEOMETRY
 10
0.022281
 11
0.0214
 20
-0.056772
 21
-0.05715
  0
LINE
  8
APS_GEOMETRY
 10
0.0214
 11
0.0214
 20
-0.05715
 21
-0.057905
  0
ARC
  8
APS_GEOMETRY
 10
0.025888
 20
-0.057905
 40
0.004488
 50
180.0
 51
199.983107
  0
ARC
  8
APS_GEOMETRY
 10
0.025269
 20
-0.05813
 40
0.00383
 50
199.983107
 51
221.633539
  0
ARC
  8
APS_GEOMETRY
 10
0.006292
 20
-0.052617
 40
0.018017
 50
333.434949
 51
335.224859
  0
ARC
  8
APS_GEOMETRY
 10
-0.056705
 20
-0.023542
 40
0.0874
 50
335.224859
 51
336.037511
  0
ARC
  8
APS_GEOMETRY
 10
0.034822
 20
-0.057095
 40
0.01182
 50
189.462322
 51
196.858399
  0
ARC
  8
APS_GEOMETRY
 10
0.062223
 20
-0.048792
 40
0.040452
 50
196.858399
 51
200.854458
  0
ARC
  8
APS_GEOMETRY
 10
0.02239
 20
-0.067254
 40
0.004541
 50
49.398705
 51
63.434949
  0
ARC
  8
APS_GEOMETRY
 10
0.011702
 20
-0.079723
 40
0.020964
 50
42.878904
 51
49.398705
  0
ARC
  8
APS_GEOMETRY
 10
0.029714
 20
-0.064575
 40
0.002793
 50
198.434949
 51
206.565051
  0
ARC
  8
APS_GEOMETRY
 10
0.03574
 20
-0.061562
 40
0.00953
 50
206.565051
 51
210.963757
  0
ARC
  8
APS_GEOMETRY
 10
-0.005963
 20
-0.027464
 40
0.014134
 50
299.357754
 51
306.869898
  0
ARC
  8
APS_GEOMETRY
 10
0.000504
 20
-0.03896
 40
0.000945
 50
270.0
 51
299.357754
  0
ARC
  8
APS_GEOMETRY
 10
0.000504
 20
-0.039167
 40
0.000737
 50
243.434949
 51
270.0
  0
ARC
  8
APS_GEOMETRY
 10
0.000348
 20
-0.039479
 40
0.000389
 50
206.565051
 51
243.434949
  0
LINE
  8
APS_GEOMETRY
 10
0.0
 11
0.0
 20
-0.039653
 21
-0.039149
  0
LINE
  8
APS_GEOMETRY
 10
0.0
 11
0.001385
 20
-0.039149
 21
-0.038268
  0
LINE
  8
APS_GEOMETRY
 10
0.001385
 11
0.002518
 20
-0.038268
 21
-0.038268
  0
LINE
  8
APS_GEOMETRY
 10
0.002518
 11
0.002518
 20
-0.038268
 21
-0.038771
  0
LINE
  8
APS_GEOMETRY
 10
0.032981
 11
0.032477
 20
-0.073011
 21
-0.073137
  0
ARC
  8
APS_GEOMETRY
 10
0.065976
 20
-0.041313
 40
0.046205
 50
215.134193
 51
223.531199
  0
ARC
  8
APS_GEOMETRY
 10
0.030413
 20
-0.066339
 40
0.002719
 50
180.0
 51
215.134193
  0
ARC
  8
APS_GEOMETRY
 10
0.028333
 20
-0.066339
 40
0.000639
 50
149.036243
 51
180.0
  0
ARC
  8
APS_GEOMETRY
 10
0.028596
 20
-0.066497
 40
0.000946
 50
123.690068
 51
149.036243
  0
ARC
  8
APS_GEOMETRY
 10
0.026821
 20
-0.067586
 40
0.002255
 50
45.0
 51
56.309932
  0
ARC
  8
APS_GEOMETRY
 10
0.027812
 20
-0.066595
 40
0.000853
 50
26.565051
 51
45.0
  0
ARC
  8
APS_GEOMETRY
 10
0.027635
 20
-0.064804
 40
0.001695
 50
303.690068
 51
318.814075
  0
ARC
  8
APS_GEOMETRY
 10
0.023741
 20
-0.061397
 40
0.006868
 50
318.814075
 51
326.309932
  0
ARC
  8
APS_GEOMETRY
 10
0.046759
 20
-0.065206
 40
0.017303
 50
180.0
 51
191.04094
  0
ARC
  8
APS_GEOMETRY
 10
0.035729
 20
-0.067359
 40
0.006064
 50
191.04094
 51
209.744881
  0
ARC
  8
APS_GEOMETRY
 10
0.030132
 20
-0.069871
 40
0.000597
 50
303.690068
 51
343.300756
  0
ARC
  8
APS_GEOMETRY
 10
0.027591
 20
-0.069109
 40
0.003249
 50
343.300756
 51
0.0
  0
ARC
  8
APS_GEOMETRY
 10
0.046618
 20
-0.069109
 40
0.015777
 50
173.290163
 51
180.0
  0
ARC
  8
APS_GEOMETRY
 10
0.031448
 20
-0.067324
 40
0.000502
 50
135.0
 51
173.290163
  0
ARC
  8
APS_GEOMETRY
 10
0.029672
 20
-0.068864
 40
0.002369
 50
38.659808
 51
53.130102
  0
ARC
  8
APS_GEOMETRY
 10
0.031253
 20
-0.067598
 40
0.000343
 50
0.0
 51
38.659808
  0
ARC
  8
APS_GEOMETRY
 10
0.049601
 20
-0.067598
 40
0.018005
 50
180.0
 51
189.090277
  0
ARC
  8
APS_GEOMETRY
 10
0.03219
 20
-0.070384
 40
0.000372
 50
189.090277
 51
255.963757
  0
ARC
  8
APS_GEOMETRY
 10
0.039278
 20
-0.06931
 40
0.00732
 50
191.309932
 51
201.250506
  0
ARC
  8
APS_GEOMETRY
 10
0.038286
 20
-0.069695
 40
0.006256
 50
201.250506
 51
212.005383
  0
ARC
  8
APS_GEOMETRY
 10
0.026791
 20
-0.116732
 40
0.000431
 50
104.036243
 51
161.565051
  0
ARC
  8
APS_GEOMETRY
 10
0.03007
 20
-0.117825
 40
0.003886
 50
161.565051
 51
180.0
  0
LINE
  8
APS_GEOMETRY
 10
0.026183
 11
0.026309
 20
-0.117825
 21
-0.117888
  0
LINE
  8
APS_GEOMETRY
 10
0.026309
 11
0.026687
 20
-0.117888
 21
-0.120091
  0
ARC
  8
APS_GEOMETRY
 10
0.027701
 20
-0.116844
 40
0.003402
 50
221.633539
 51
252.645975
  0
ARC
  8
APS_GEOMETRY
 10
0.026598
 20
-0.117825
 40
0.001925
 50
180.0
 51
221.633539
  0
ARC
  8
APS_GEOMETRY
 10
0.026143
 20
-0.117825
 40
0.001471
 50
160.820992
 51
180.0
  0
ARC
  8
APS_GEOMETRY
 10
0.031167
 20
-0.119572
 40
0.006789
 50
151.927513
 51
160.820992
  0
ARC
  8
APS_GEOMETRY
 10
0.028568
 20
-0.118186
 40
0.003844
 50
136.974934
 51
151.927513
  0
ARC
  8
APS_GEOMETRY
 10
0.026057
 20
-0.115843
 40
0.00041
 50
90.0
 51
136.974934
  0
ARC
  8
APS_GEOMETRY
 10
0.026057
 20
-0.115767
 40
0.000334
 50
35.537678
 51
90.0
  0
ARC
  8
APS_GEOMETRY
 10
0.024362
 20
-0.116978
 40
0.002418
 50
15.945396
 51
35.537678
  0
LINE
  8
APS_GEOMETRY
 10
0.127518
 11
0.127014
 20
-0.052744
 21
-0.052241
  0
LINE
  8
APS_GEOMETRY
 10
0.127014
 11
0.126888
 20
-0.052241
 21
-0.052492
  0
LINE
  8
APS_GEOMETRY
 10
0.126888
 11
0.127392
 20
-0.052492
 21
-0.05287
  0
LINE
  8
APS_GEOMETRY
 10
0.127392
 11
0.127518
 20
-0.05287
 21
-0.052744
  0
LINE
  8
APS_GEOMETRY
 10
0.051737
 11
0.051737
 20
-0.004783
 21
-0.004154
  0
LINE
  8
APS_GEOMETRY
 10
0.051737
 11
0.051234
 20
-0.004154
 21
-0.004154
  0
LINE
  8
APS_GEOMETRY
 10
0.051234
 11
0.050982
 20
-0.004154
 21
-0.004909
  0
LINE
  8
APS_GEOMETRY
 10
0.050982
 11
0.051737
 20
-0.004909
 21
-0.004783
  0
LINE
  8
APS_GEOMETRY
 10
0.04859
 11
0.04859
 20
-0.011707
 21
-0.010826
  0
LINE
  8
APS_GEOMETRY
 10
0.04859
 11
0.048338
 20
-0.010826
 21
-0.010826
  0
LINE
  8
APS_GEOMETRY
 10
0.048338
 11
0.048338
 20
-0.010826
 21
-0.011707
  0
LINE
  8
APS_GEOMETRY
 10
0.048338
 11
0.04859
 20
-0.011707
 21
-0.011707
  0
LINE
  8
APS_GEOMETRY
 10
0.12928
 11
0.12928
 20
-0.055514
 21
-0.054884
  0
ARC
  8
APS_GEOMETRY
 10
0.12146
 20
-0.065005
 40
0.01279
 50
52.30576
 51
67.479434
  0
ARC
  8
APS_GEOMETRY
 10
0.124119
 20
-0.058591
 40
0.005847
 50
67.479434
 51
90.0
  0
ARC
  8
APS_GEOMETRY
 10
0.124119
 20
-0.062059
 40
0.009315
 50
90.0
 51
105.945396
  0
ARC
  8
APS_GEOMETRY
 10
0.127308
 20
-0.073222
 40
0.020924
 50
105.945396
 51
116.565051
  0
ARC
  8
APS_GEOMETRY
 10
0.124117
 20
-0.06725
 40
0.014157
 50
115.820992
 51
132.510447
  0
ARC
  8
APS_GEOMETRY
 10
0.117208
 20
-0.059713
 40
0.003933
 50
132.510447
 51
164.475889
  0
ARC
  8
APS_GEOMETRY
 10
0.118598
 20
-0.06458
 40
0.007865
 50
131.185925
 51
149.995079
  0
ARC
  8
APS_GEOMETRY
 10
0.119071
 20
-0.064852
 40
0.008411
 50
149.995079
 51
168.178512
  0
ARC
  8
APS_GEOMETRY
 10
0.41396
 20
-0.126573
 40
0.30969
 50
168.178512
 51
168.690068
  0
ARC
  8
APS_GEOMETRY
 10
0.397911
 20
-0.123364
 40
0.293323
 50
168.690068
 51
169.215702
  0
ARC
  8
APS_GEOMETRY
 10
0.109768
 20
-0.07019
 40
0.00171
 50
90.0
 51
102.528808
  0
ARC
  8
APS_GEOMETRY
 10
0.111062
 20
-0.07601
 40
0.007673
 50
102.528808
 51
108.434949
  0
ARC
  8
APS_GEOMETRY
 10
0.111415
 20
-0.068731
 40
0.00278
 50
180.0
 51
190.304846
  0
ARC
  8
APS_GEOMETRY
 10
0.117791
 20
-0.067572
 40
0.00926
 50
190.304846
 51
195.945396
  0
ARC
  8
APS_GEOMETRY
 10
0.099983
 20
-0.07266
 40
0.00926
 50
10.304846
 51
15.945396
  0
ARC
  8
APS_GEOMETRY
 10
0.106359
 20
-0.071501
 40
0.00278
 50
0.0
 51
10.304846
  0
ARC
  8
APS_GEOMETRY
 10
0.108049
 20
-0.071501
 40
0.00109
 50
330.255119
 51
0.0
  0
ARC
  8
APS_GEOMETRY
 10
0.108253
 20
-0.071617
 40
0.000855
 50
296.565051
 51
330.255119
  0
LINE
  8
APS_GEOMETRY
 10
0.108635
 11
0.108132
 20
-0.072382
 21
-0.072382
  0
LINE
  8
APS_GEOMETRY
 10
0.108132
 11
0.108132
 20
-0.072382
 21
-0.07427
  0
LINE
  8
APS_GEOMETRY
 10
0.108132
 11
0.107251
 20
-0.07427
 21
-0.07427
  0
ARC
  8
APS_GEOMETRY
 10
0.103142
 20
-0.073243
 40
0.004236
 50
338.962489
 51
345.963757
  0
ARC
  8
APS_GEOMETRY
 10
0.084468
 20
-0.066061
 40
0.024242
 50
336.037511
 51
338.962489
  0
LINE
  8
APS_GEOMETRY
 10
0.106621
 11
0.106244
 20
-0.075906
 21
-0.075906
  0
LINE
  8
APS_GEOMETRY
 10
0.106244
 11
0.10574
 20
-0.075906
 21
-0.075655
  0
ARC
  8
APS_GEOMETRY
 10
0.108838
 20
-0.076894
 40
0.003337
 50
158.198591
 51
169.695154
  0
ARC
  8
APS_GEOMETRY
 10
0.109639
 20
-0.077039
 40
0.00415
 50
169.695154
 51
180.0
  0
ARC
  8
APS_GEOMETRY
 10
0.107888
 20
-0.077039
 40
0.0024
 50
180.0
 51
188.972627
  0
ARC
  8
APS_GEOMETRY
 10
0.117297
 20
-0.075554
 40
0.011925
 50
188.972627
 51
192.994617
  0
ARC
  8
APS_GEOMETRY
 10
0.094058
 20
-0.080917
 40
0.011925
 50
8.972627
 51
12.994617
  0
ARC
  8
APS_GEOMETRY
 10
0.103466
 20
-0.079431
 40
0.0024
 50
0.0
 51
8.972627
  0
ARC
  8
APS_GEOMETRY
 10
0.103739
 20
-0.079431
 40
0.002128
 50
346.607502
 51
0.0
  0
ARC
  8
APS_GEOMETRY
 10
0.099476
 20
-0.078416
 40
0.006509
 50
338.962489
 51
346.607502
  0
ARC
  8
APS_GEOMETRY
 10
0.11294
 20
-0.083594
 40
0.007916
 50
158.962489
 51
165.256437
  0
ARC
  8
APS_GEOMETRY
 10
0.106686
 20
-0.081949
 40
0.001449
 50
165.256437
 51
180.0
  0
LINE
  8
APS_GEOMETRY
 10
0.105237
 11
0.105237
 20
-0.081949
 21
-0.083239
  0
LINE
  8
APS_GEOMETRY
 10
0.105237
 11
0.105237
 20
-0.083239
 21
-0.083585
  0
ARC
  8
APS_GEOMETRY
 10
0.105481
 20
-0.084561
 40
0.001006
 50
104.036243
 51
153.434949
  0
ARC
  8
APS_GEOMETRY
 10
0.107557
 20
-0.085599
 40
0.003327
 50
153.434949
 51
180.0
  0
ARC
  8
APS_GEOMETRY
 10
0.102818
 20
-0.085599
 40
0.001411
 50
339.950677
 51
0.0
  0
ARC
  8
APS_GEOMETRY
 10
0.104068
 20
-0.086049
 40
0.000201
 50
243.434949
 51
338.198591
  0
LINE
  8
APS_GEOMETRY
 10
0.103978
 11
0.102719
 20
-0.086229
 21
-0.085725
  0
LINE
  8
APS_GEOMETRY
 10
0.102719
 11
0.102341
 20
-0.085725
 21
-0.087141
  0
LINE
  8
APS_GEOMETRY
 10
0.102341
 11
0.102216
 20
-0.087141
 21
-0.087613
  0
ARC
  8
APS_GEOMETRY
 10
0.102734
 20
-0.087613
 40
0.000519
 50
180.0
 51
206.565051
  0
ARC
  8
APS_GEOMETRY
 10
0.104113
 20
-0.086924
 40
0.00206
 50
206.565051
 51
219.805571
  0
ARC
  8
APS_GEOMETRY
 10
0.101171
 20
-0.089375
 40
0.001769
 50
24.443955
 51
39.805571
  0
ARC
  8
APS_GEOMETRY
 10
0.10214
 20
-0.088935
 40
0.000705
 50
0.0
 51
24.443955
  0
ARC
  8
APS_GEOMETRY
 10
0.107098
 20
-0.088935
 40
0.004253
 50
180.0
 51
184.236395
  0
ARC
  8
APS_GEOMETRY
 10
0.185756
 20
-0.083109
 40
0.083126
 50
184.236395
 51
185.194429
  0
ARC
  8
APS_GEOMETRY
 10
0.053965
 20
-0.09509
 40
0.049208
 50
3.576334
 51
5.194429
  0
ARC
  8
APS_GEOMETRY
 10
0.093021
 20
-0.092649
 40
0.010076
 50
0.0
 51
3.576334
  0
ARC
  8
APS_GEOMETRY
 10
0.102088
 20
-0.092649
 40
0.001009
 50
345.963757
 51
0.0
  0
ARC
  8
APS_GEOMETRY
 10
0.10184
 20
-0.092586
 40
0.001265
 50
333.434949
 51
345.963757
  0
LINE
  8
APS_GEOMETRY
 10
0.102971
 11
0.102341
 20
-0.093152
 21
-0.093278
  0
LINE
  8
APS_GEOMETRY
 10
0.102341
 11
0.102719
 20
-0.093278
 21
-0.093656
  0
ARC
  8
APS_GEOMETRY
 10
-0.005539
 20
0.036254
 40
0.169105
 50
309.47246
 51
309.805571
  0
ARC
  8
APS_GEOMETRY
 10
-0.254027
 20
0.33799
 40
0.559989
 50
309.289407
 51
309.47246
  0
ARC
  8
APS_GEOMETRY
 10
0.091398
 20
-0.09427
 40
0.009252
 50
346.607502
 51
352.874984
  0
ARC
  8
APS_GEOMETRY
 10
0.074732
 20
-0.090302
 40
0.026384
 50
342.897271
 51
346.607502
  0
ARC
  8
APS_GEOMETRY
 10
0.102242
 20
-0.095311
 40
0.003581
 50
214.99202
 51
230.194429
  0
ARC
  8
APS_GEOMETRY
 10
0.100528
 20
-0.096511
 40
0.001488
 50
191.309932
 51
214.99202
  0
ARC
  8
APS_GEOMETRY
 10
0.201387
 20
-0.142278
 40
0.111969
 50
156.037511
 51
157.306205
  0
ARC
  8
APS_GEOMETRY
 10
0.52251
 20
-0.276565
 40
0.46004
 50
157.306205
 51
157.9321
  0
ARC
  8
APS_GEOMETRY
 10
0.095789
 20
-0.104495
 40
0.000859
 50
45.0
 51
63.434949
  0
ARC
  8
APS_GEOMETRY
 10
0.091297
 20
-0.108986
 40
0.007211
 50
38.659808
 51
45.0
  0
ARC
  8
APS_GEOMETRY
 10
0.096928
 20
-0.102723
 40
0.001758
 50
254.054604
 51
270.0
  0
ARC
  8
APS_GEOMETRY
 10
0.096836
 20
-0.103046
 40
0.001422
 50
236.309932
 51
254.054604
  0
ARC
  8
APS_GEOMETRY
 10
0.094055
 20
-0.107218
 40
0.003592
 50
56.309932
 51
63.434949
  0
ARC
  8
APS_GEOMETRY
 10
0.095544
 20
-0.104241
 40
0.000263
 50
63.434949
 51
90.0
  0
LINE
  8
APS_GEOMETRY
 10
0.095544
 11
0.095544
 20
-0.103978
 21
-0.106495
  0
LINE
  8
APS_GEOMETRY
 10
0.095544
 11
0.094789
 20
-0.106495
 21
-0.106495
  0
ARC
  8
APS_GEOMETRY
 10
0.091287
 20
-0.109297
 40
0.004484
 50
38.659808
 51
48.814075
  0
ARC
  8
APS_GEOMETRY
 10
0.092811
 20
-0.107554
 40
0.002169
 50
48.814075
 51
63.434949
  0
ARC
  8
APS_GEOMETRY
 10
0.108462
 20
-0.110508
 40
0.015474
 50
161.565051
 51
165.963757
  0
ARC
  8
APS_GEOMETRY
 10
0.09493
 20
-0.107125
 40
0.001527
 50
165.963757
 51
180.0
  0
LINE
  8
APS_GEOMETRY
 10
0.093404
 11
0.093467
 20
-0.107125
 21
-0.108163
  0
LINE
  8
APS_GEOMETRY
 10
0.093467
 11
0.093656
 20
-0.108163
 21
-0.108258
  0
ARC
  8
APS_GEOMETRY
 10
0.10201
 20
-0.10176
 40
0.010584
 50
210.256437
 51
217.874984
  0
ARC
  8
APS_GEOMETRY
 10
0.09346
 20
-0.106747
 40
0.000686
 50
180.0
 51
210.256437
  0
LINE
  8
APS_GEOMETRY
 10
0.092774
 11
0.092774
 20
-0.106747
 21
-0.106495
  0
LINE
  8
APS_GEOMETRY
 10
0.092774
 11
0.09268
 20
-0.106495
 21
-0.107125
  0
LINE
  8
APS_GEOMETRY
 10
0.09268
 11
0.092397
 20
-0.107125
 21
-0.109013
  0
LINE
  8
APS_GEOMETRY
 10
0.092397
 11
0.091893
 20
-0.109013
 21
-0.108887
  0
LINE
  8
APS_GEOMETRY
 10
0.091893
 11
0.091893
 20
-0.108887
 21
-0.108132
  0
LINE
  8
APS_GEOMETRY
 10
0.091893
 11
0.091893
 20
-0.108132
 21
-0.106873
  0
LINE
  8
APS_GEOMETRY
 10
0.091893
 11
0.091012
 20
-0.106873
 21
-0.106873
  0
LINE
  8
APS_GEOMETRY
 10
0.091012
 11
0.090886
 20
-0.106873
 21
-0.10788
  0
ARC
  8
APS_GEOMETRY
 10
0.090886
 20
-0.109162
 40
0.001282
 50
90.0
 51
135.0
  0
ARC
  8
APS_GEOMETRY
 10
0.095887
 20
-0.114163
 40
0.008354
 50
135.0
 51
152.241459
  0
ARC
  8
APS_GEOMETRY
 10
0.086232
 20
-0.111403
 40
0.00253
 50
14.036243
 51
26.565051
  0
ARC
  8
APS_GEOMETRY
 10
0.086729
 20
-0.111279
 40
0.002017
 50
0.0
 51
14.036243
  0
LINE
  8
APS_GEOMETRY
 10
0.088746
 11
0.089596
 20
-0.111279
 21
-0.110996
  0
LINE
  8
APS_GEOMETRY
 10
0.089596
 11
0.089879
 20
-0.110996
 21
-0.110901
  0
ARC
  8
APS_GEOMETRY
 10
0.089879
 20
-0.111666
 40
0.000765
 50
56.309932
 51
90.0
  0
ARC
  8
APS_GEOMETRY
 10
0.089763
 20
-0.111841
 40
0.000975
 50
26.565051
 51
56.309932
  0
ARC
  8
APS_GEOMETRY
 10
0.080061
 20
-0.079684
 40
0.033436
 50
286.38954
 51
288.434949
  0
ARC
  8
APS_GEOMETRY
 10
0.082368
 20
-0.087528
 40
0.02526
 50
284.036243
 51
286.38954
  0
ARC
  8
APS_GEOMETRY
 10
0.087668
 20
-0.112448
 40
0.000924
 50
9.462322
 51
26.565051
  0
ARC
  8
APS_GEOMETRY
 10
0.085616
 20
-0.11279
 40
0.003004
 50
0.0
 51
9.462322
  0
ARC
  8
APS_GEOMETRY
 10
0.083081
 20
-0.123868
 40
0.012386
 50
63.434949
 51
66.037511
  0
ARC
  8
APS_GEOMETRY
 10
0.080816
 20
-0.128964
 40
0.017963
 50
66.037511
 51
68.198591
  0
LINE
  8
APS_GEOMETRY
 10
0.087487
 11
0.087487
 20
-0.112286
 21
-0.113293
  0
ARC
  8
APS_GEOMETRY
 10
0.088275
 20
-0.112768
 40
0.000946
 50
213.690068
 51
239.036243
  0
ARC
  8
APS_GEOMETRY
 10
0.088117
 20
-0.113031
 40
0.000639
 50
239.036243
 51
270.0
  0
ARC
  8
APS_GEOMETRY
 10
0.088117
 20
-0.122585
 40
0.008915
 50
83.659808
 51
90.0
  0
ARC
  8
APS_GEOMETRY
 10
0.089074
 20
-0.113973
 40
0.000249
 50
45.0
 51
83.659808
  0
LINE
  8
APS_GEOMETRY
 10
0.08925
 11
0.088746
 20
-0.113797
 21
-0.114678
  0
ARC
  8
APS_GEOMETRY
 10
0.089922
 20
-0.108801
 40
0.005993
 50
258.690068
 51
264.805571
  0
ARC
  8
APS_GEOMETRY
 10
0.090131
 20
-0.106499
 40
0.008305
 50
264.805571
 51
270.0
  0
LINE
  8
APS_GEOMETRY
 10
0.090131
 11
0.090383
 20
-0.114804
 21
-0.114426
  0
LINE
  8
APS_GEOMETRY
 10
0.090383
 11
0.090634
 20
-0.114426
 21
-0.114048
  0
ARC
  8
APS_GEOMETRY
 10
0.09011
 20
-0.114836
 40
0.000946
 50
30.963757
 51
56.309932
  0
ARC
  8
APS_GEOMETRY
 10
0.090373
 20
-0.114678
 40
0.000639
 50
0.0
 51
30.963757
  0
ARC
  8
APS_GEOMETRY
 10
0.090167
 20
-0.110875
 40
0.003895
 50
282.528808
 51
299.357754
  0
ARC
  8
APS_GEOMETRY
 10
0.074096
 20
-0.082304
 40
0.036676
 50
299.357754
 51
304.824489
  0
ARC
  8
APS_GEOMETRY
 10
0.0962
 20
-0.112799
 40
0.001223
 50
127.234834
 51
161.565051
  0
ARC
  8
APS_GEOMETRY
 10
0.097876
 20
-0.115004
 40
0.003993
 50
108.434949
 51
127.234834
  0
ARC
  8
APS_GEOMETRY
 10
0.07812
 20
-0.055734
 40
0.058484
 50
288.434949
 51
289.798876
  0
ARC
  8
APS_GEOMETRY
 10
0.097123
 20
-0.108522
 40
0.002379
 50
289.798876
 51
296.565051
  0
ARC
  8
APS_GEOMETRY
 10
0.114705
 20
-0.117379
 40
0.017836
 50
146.309932
 51
157.833654
  0
ARC
  8
APS_GEOMETRY
 10
0.104119
 20
-0.110322
 40
0.005113
 50
124.695154
 51
146.309932
  0
LINE
  8
APS_GEOMETRY
 10
0.101208
 11
0.101712
 20
-0.106118
 21
-0.106118
  0
ARC
  8
APS_GEOMETRY
 10
0.068831
 20
-0.081208
 40
0.041251
 50
322.853313
 51
329.981633
  0
ARC
  8
APS_GEOMETRY
 10
0.101661
 20
-0.100176
 40
0.003336
 50
329.981633
 51
355.236358
  0
ARC
  8
APS_GEOMETRY
 10
0.086725
 20
-0.087411
 40
0.022439
 50
324.462322
 51
329.981633
  0
ARC
  8
APS_GEOMETRY
 10
0.02613
 20
-0.0524
 40
0.092422
 50
329.981633
 51
332.700428
  0
ARC
  8
APS_GEOMETRY
 10
0.060493
 20
-0.069579
 40
0.054009
 50
332.175904
 51
337.557247
  0
ARC
  8
APS_GEOMETRY
 10
0.107507
 20
-0.088998
 40
0.003143
 50
337.557247
 51
0.0
  0
LINE
  8
APS_GEOMETRY
 10
0.11065
 11
0.11065
 20
-0.088998
 21
-0.088369
  0
ARC
  8
APS_GEOMETRY
 10
0.110906
 20
-0.088112
 40
0.000363
 50
198.434949
 51
225.0
  0
ARC
  8
APS_GEOMETRY
 10
0.11127
 20
-0.087991
 40
0.000746
 50
180.0
 51
198.434949
  0
ARC
  8
APS_GEOMETRY
 10
0.112936
 20
-0.087991
 40
0.002413
 50
162.349876
 51
180.0
  0
ARC
  8
APS_GEOMETRY
 10
0.130531
 20
-0.093589
 40
0.020876
 50
156.370622
 51
162.349876
  0
ARC
  8
APS_GEOMETRY
 10
0.019232
 20
-0.044896
 40
0.100608
 50
336.370622
 51
337.619865
  0
ARC
  8
APS_GEOMETRY
 10
0.111969
 20
-0.083082
 40
0.000317
 50
337.619865
 51
0.0
  0
ARC
  8
APS_GEOMETRY
 10
0.110397
 20
-0.080114
 40
0.003518
 50
302.471192
 51
327.094757
  0
ARC
  8
APS_GEOMETRY
 10
0.111677
 20
-0.080942
 40
0.001994
 50
327.094757
 51
0.0
  0
LINE
  8
APS_GEOMETRY
 10
0.113671
 11
0.113545
 20
-0.080942
 21
-0.08069
  0
ARC
  8
APS_GEOMETRY
 10
0.112707
 20
-0.079852
 40
0.001184
 50
315.0
 51
339.443955
  0
ARC
  8
APS_GEOMETRY
 10
0.112255
 20
-0.079683
 40
0.001667
 50
339.443955
 51
0.0
  0
ARC
  8
APS_GEOMETRY
 10
0.110896
 20
-0.079683
 40
0.003026
 50
0.0
 51
7.125016
  0
ARC
  8
APS_GEOMETRY
 10
0.105203
 20
-0.080394
 40
0.008764
 50
7.125016
 51
11.309932
  0
ARC
  8
APS_GEOMETRY
 10
0.125112
 20
-0.076413
 40
0.01154
 50
188.130102
 51
191.309932
  0
ARC
  8
APS_GEOMETRY
 10
0.115438
 20
-0.077795
 40
0.001768
 50
180.0
 51
188.130102
  0
ARC
  8
APS_GEOMETRY
 10
0.11529
 20
-0.077795
 40
0.001619
 50
151.38954
 51
180.0
  0
ARC
  8
APS_GEOMETRY
 10
0.115383
 20
-0.077845
 40
0.001725
 50
123.690068
 51
151.38954
  0
LINE
  8
APS_GEOMETRY
 10
0.114426
 11
0.114426
 20
-0.07641
 21
-0.072256
  0
ARC
  8
APS_GEOMETRY
 10
0.105784
 20
-0.063134
 40
0.012566
 50
313.451842
 51
328.201087
  0
ARC
  8
APS_GEOMETRY
 10
0.098126
 20
-0.058386
 40
0.021576
 50
328.201087
 51
339.443955
  0
ARC
  8
APS_GEOMETRY
 10
0.173401
 20
-0.085312
 40
0.058373
 50
155.820893
 51
160.641006
  0
ARC
  8
APS_GEOMETRY
 10
0.127858
 20
-0.064864
 40
0.00845
 50
143.130102
 51
155.820893
  0
ARC
  8
APS_GEOMETRY
 10
0.128464
 20
-0.065932
 40
0.009588
 50
117.613028
 51
140.194429
  0
ARC
  8
APS_GEOMETRY
 10
0.133908
 20
-0.07634
 40
0.021335
 50
102.528808
 51
117.613028
  0
LINE
  8
APS_GEOMETRY
 10
0.032351
 11
0.032194
 20
-0.008434
 21
-0.008119
  0
LINE
  8
APS_GEOMETRY
 10
0.032194
 11
0.031974
 20
-0.008119
 21
-0.007679
  0
LINE
  8
APS_GEOMETRY
 10
0.031974
 11
0.031596
 20
-0.007679
 21
-0.007931
  0
LINE
  8
APS_GEOMETRY
 10
0.031596
 11
0.031596
 20
-0.007931
 21
-0.008812
  0
LINE
  8
APS_GEOMETRY
 10
0.031596
 11
0.032351
 20
-0.008812
 21
-0.008434
  0
LINE
  8
APS_GEOMETRY
 10
0.071501
 11
0.071501
 20
-0.054758
 21
-0.054507
  0
LINE
  8
APS_GEOMETRY
 10
0.071501
 11
0.070745
 20
-0.054507
 21
-0.054507
  0
LINE
  8
APS_GEOMETRY
 10
0.070745
 11
0.070745
 20
-0.054507
 21
-0.054758
  0
LINE
  8
APS_GEOMETRY
 10
0.070745
 11
0.071501
 20
-0.054758
 21
-0.054758
  0
LINE
  8
APS_GEOMETRY
 10
0.054129
 11
0.053877
 20
-0.038646
 21
-0.03789
  0
LINE
  8
APS_GEOMETRY
 10
0.053877
 11
0.053374
 20
-0.03789
 21
-0.03852
  0
ARC
  8
APS_GEOMETRY
 10
0.053787
 20
-0.037693
 40
0.000924
 50
243.434949
 51
260.537678
  0
ARC
  8
APS_GEOMETRY
 10
0.054129
 20
-0.035641
 40
0.003004
 50
260.537678
 51
270.0
  0
LINE
  8
APS_GEOMETRY
 10
0.041289
 11
0.041163
 20
-0.02719
 21
-0.026939
  0
LINE
  8
APS_GEOMETRY
 10
0.041163
 11
0.04066
 20
-0.026939
 21
-0.027064
  0
LINE
  8
APS_GEOMETRY
 10
0.04066
 11
0.04066
 20
-0.027064
 21
-0.027316
  0
LINE
  8
APS_GEOMETRY
 10
0.04066
 11
0.041289
 20
-0.027316
 21
-0.02719
  0
LINE
  8
APS_GEOMETRY
 10
0.101083
 11
0.100957
 20
-0.089879
 21
-0.08862
  0
LINE
  8
APS_GEOMETRY
 10
0.100957
 11
0.100705
 20
-0.08862
 21
-0.08862
  0
LINE
  8
APS_GEOMETRY
 10
0.100705
 11
0.100831
 20
-0.08862
 21
-0.089879
  0
LINE
  8
APS_GEOMETRY
 10
0.100831
 11
0.101083
 20
-0.089879
 21
-0.089879
  0
LINE
  8
APS_GEOMETRY
 10
0.101334
 11
0.101083
 20
-0.093026
 21
-0.0929
  0
LINE
  8
APS_GEOMETRY
 10
0.101083
 11
0.100705
 20
-0.0929
 21
-0.093656
  0
LINE
  8
APS_GEOMETRY
 10
0.100705
 11
0.100957
 20
-0.093656
 21
-0.093656
  0
LINE
  8
APS_GEOMETRY
 10
0.100957
 11
0.101334
 20
-0.093656
 21
-0.093026
  0
LINE
  8
APS_GEOMETRY
 10
0.090634
 11
0.090131
 20
-0.098187
 21
-0.098565
  0
LINE
  8
APS_GEOMETRY
 10
0.090131
 11
0.090509
 20
-0.098565
 21
-0.098943
  0
LINE
  8
APS_GEOMETRY
 10
0.090509
 11
0.090634
 20
-0.098943
 21
-0.098187
  0
LINE
  8
APS_GEOMETRY
 10
0.092271
 11
0.092271
 20
-0.10788
 21
-0.107377
  0
LINE
  8
APS_GEOMETRY
 10
0.092271
 11
0.092019
 20
-0.107377
 21
-0.107377
  0
LINE
  8
APS_GEOMETRY
 10
0.092019
 11
0.092019
 20
-0.107377
 21
-0.10788
  0
LINE
  8
APS_GEOMETRY
 10
0.092019
 11
0.092271
 20
-0.10788
 21
-0.10788
  0
LINE
  8
APS_GEOMETRY
 10
0.015106
 11
0.014602
 20
-0.031093
 21
-0.031344
  0
LINE
  8
APS_GEOMETRY
 10
0.014602
 11
0.015106
 20
-0.031344
 21
-0.031848
  0
ARC
  8
APS_GEOMETRY
 10
0.015623
 20
-0.031589
 40
0.000579
 50
180.0
 51
206.565051
  0
ARC
  8
APS_GEOMETRY
 10
0.017091
 20
-0.031589
 40
0.002047
 50
165.963757
 51
180.0
  0
LINE
  8
APS_GEOMETRY
 10
0.087362
 11
0.086984
 20
-0.1143
 21
-0.113797
  0
LINE
  8
APS_GEOMETRY
 10
0.086984
 11
0.08648
 20
-0.113797
 21
-0.114174
  0
ARC
  8
APS_GEOMETRY
 10
0.088743
 20
-0.102859
 40
0.01154
 50
258.690068
 51
261.869898
  0
ARC
  8
APS_GEOMETRY
 10
0.087362
 20
-0.112532
 40
0.001768
 50
261.869898
 51
270.0
  0
ARC
  8
APS_GEOMETRY
 10
0.094789
 20
-0.103725
 40
0.014071
 50
234.462322
 51
236.309932
  0
ARC
  8
APS_GEOMETRY
 10
0.102341
 20
-0.093153
 40
0.027063
 50
233.130102
 51
234.462322
  0
LINE
  8
APS_GEOMETRY
 10
0.086103
 11
0.086103
 20
-0.114804
 21
-0.115559
  0
ARC
  8
APS_GEOMETRY
 10
0.086103
 20
-0.112039
 40
0.00352
 50
270.0
 51
278.130102
  0
ARC
  8
APS_GEOMETRY
 10
0.08629
 20
-0.113352
 40
0.002193
 50
278.130102
 51
288.434949
  0
ARC
  8
APS_GEOMETRY
 10
0.083484
 20
-0.120649
 40
0.005377
 50
49.398705
 51
61.38954
  0
ARC
  8
APS_GEOMETRY
 10
0.085599
 20
-0.116772
 40
0.000961
 50
61.38954
 51
90.0
  0
ARC
  8
APS_GEOMETRY
 10
0.085599
 20
-0.116393
 40
0.000582
 50
90.0
 51
124.99202
  0
ARC
  8
APS_GEOMETRY
 10
0.089233
 20
-0.121585
 40
0.00692
 50
124.99202
 51
135.0
  0
ARC
  8
APS_GEOMETRY
 10
0.086174
 20
-0.110273
 40
0.006676
 50
254.054604
 51
261.869898
  0
ARC
  8
APS_GEOMETRY
 10
0.086103
 20
-0.110774
 40
0.006169
 50
261.869898
 51
270.0
  0
ARC
  8
APS_GEOMETRY
 10
0.086103
 20
-0.116046
 40
0.000897
 50
270.0
 51
293.198591
  0
ARC
  8
APS_GEOMETRY
 10
0.085447
 20
-0.114517
 40
0.002561
 50
293.198591
 51
306.869898
  0
LINE
  8
APS_GEOMETRY
 10
0.020015
 11
0.019386
 20
-0.06999
 21
-0.069486
  0
LINE
  8
APS_GEOMETRY
 10
0.019386
 11
0.01926
 20
-0.069486
 21
-0.069738
  0
LINE
  8
APS_GEOMETRY
 10
0.01926
 11
0.019763
 20
-0.069738
 21
-0.070242
  0
LINE
  8
APS_GEOMETRY
 10
0.019763
 11
0.020015
 20
-0.070242
 21
-0.06999
  0
LINE
  8
APS_GEOMETRY
 10
0.020393
 11
0.020267
 20
-0.070745
 21
-0.070242
  0
LINE
  8
APS_GEOMETRY
 10
0.020267
 11
0.020015
 20
-0.070242
 21
-0.070368
  0
LINE
  8
APS_GEOMETRY
 10
0.020015
 11
0.020267
 20
-0.070368
 21
-0.070745
  0
LINE
  8
APS_GEOMETRY
 10
0.020267
 11
0.020393
 20
-0.070745
 21
-0.070745
  0
ARC
  8
APS_GEOMETRY
 10
0.051485
 20
-0.114174
 40
0.007254
 50
38.659808
 51
45.0
  0
ARC
  8
APS_GEOMETRY
 10
0.051485
 20
-0.114174
 40
0.007254
 50
45.0
 51
51.340192
  0
ARC
  8
APS_GEOMETRY
 10
0.058593
 20
-0.111729
 40
0.004123
 50
128.659808
 51
139.763642
  0
ARC
  8
APS_GEOMETRY
 10
0.064482
 20
-0.116713
 40
0.011838
 50
139.763642
 51
146.309932
  0
ARC
  8
APS_GEOMETRY
 10
0.054461
 20
-0.110659
 40
0.000541
 50
33.690068
 51
71.565051
  0
ARC
  8
APS_GEOMETRY
 10
0.053653
 20
-0.111198
 40
0.001512
 50
11.309932
 51
33.690068
  0
LINE
  8
APS_GEOMETRY
 10
0.055136
 11
0.055765
 20
-0.110901
 21
-0.110901
  0
ARC
  8
APS_GEOMETRY
 10
0.063699
 20
-0.118835
 40
0.011219
 50
132.273689
 51
135.0
  0
ARC
  8
APS_GEOMETRY
 10
0.103552
 20
-0.162673
 40
0.070466
 50
131.185925
 51
132.273689
  0
ARC
  8
APS_GEOMETRY
 10
0.054003
 20
-0.1104
 40
0.003149
 50
90.0
 51
101.309932
  0
ARC
  8
APS_GEOMETRY
 10
0.054103
 20
-0.110899
 40
0.003658
 50
101.309932
 51
111.801409
  0
LINE
  8
APS_GEOMETRY
 10
0.052744
 11
0.052744
 20
-0.107503
 21
-0.108258
  0
LINE
  8
APS_GEOMETRY
 10
0.052744
 11
0.053374
 20
-0.108258
 21
-0.108258
  0
ARC
  8
APS_GEOMETRY
 10
0.040533
 20
-0.099697
 40
0.015433
 50
326.309932
 51
327.994617
  0
ARC
  8
APS_GEOMETRY
 10
0.019387
 20
-0.086481
 40
0.040368
 50
327.994617
 51
329.036243
  0
LINE
  8
APS_GEOMETRY
 10
0.056395
 11
0.056269
 20
-0.111405
 21
-0.111153
  0
LINE
  8
APS_GEOMETRY
 10
0.056269
 11
0.055639
 20
-0.111153
 21
-0.111531
  0
LINE
  8
APS_GEOMETRY
 10
0.055639
 11
0.055639
 20
-0.111531
 21
-0.111782
  0
LINE
  8
APS_GEOMETRY
 10
0.055639
 11
0.056395
 20
-0.111782
 21
-0.111405
  0
LINE
  8
APS_GEOMETRY
 10
0.05501
 11
0.054632
 20
-0.108258
 21
-0.108006
  0
ARC
  8
APS_GEOMETRY
 10
0.055788
 20
-0.110703
 40
0.002935
 50
113.198591
 51
146.309932
  0
ARC
  8
APS_GEOMETRY
 10
0.055708
 20
-0.11065
 40
0.002838
 50
146.309932
 51
180.0
  0
ARC
  8
APS_GEOMETRY
 10
0.053616
 20
-0.11065
 40
0.000746
 50
180.0
 51
198.434949
  0
ARC
  8
APS_GEOMETRY
 10
0.053252
 20
-0.110771
 40
0.000363
 50
198.434949
 51
225.0
  0
ARC
  8
APS_GEOMETRY
 10
0.0474
 20
-0.105431
 40
0.007914
 50
315.0
 51
323.972627
  0
ARC
  8
APS_GEOMETRY
 10
0.033733
 20
-0.095491
 40
0.024814
 50
323.972627
 51
329.036243
  0
LINE
  8
APS_GEOMETRY
 10
0.053122
 11
0.053122
 20
-0.112034
 21
-0.111531
  0
LINE
  8
APS_GEOMETRY
 10
0.053122
 11
0.052996
 20
-0.111531
 21
-0.111657
  0
LINE
  8
APS_GEOMETRY
 10
0.052996
 11
0.053122
 20
-0.111657
 21
-0.112034
  0
LINE
  8
APS_GEOMETRY
 10
0.041541
 11
0.041415
 20
-0.103097
 21
-0.102467
  0
LINE
  8
APS_GEOMETRY
 10
0.041415
 11
0.040785
 20
-0.102467
 21
-0.102593
  0
ARC
  8
APS_GEOMETRY
 10
0.041697
 20
-0.101986
 40
0.001095
 50
213.690068
 51
236.309932
  0
ARC
  8
APS_GEOMETRY
 10
0.041892
 20
-0.101694
 40
0.001446
 50
236.309932
 51
255.963757
  0
ARC
  8
APS_GEOMETRY
 10
0.052399
 20
-0.114268
 40
0.00031
 50
45.0
 51
75.963757
  0
ARC
  8
APS_GEOMETRY
 10
0.052115
 20
-0.115404
 40
0.001482
 50
75.963757
 51
90.0
  0
LINE
  8
APS_GEOMETRY
 10
0.052115
 11
0.051863
 20
-0.113922
 21
-0.113922
  0
LINE
  8
APS_GEOMETRY
 10
0.051863
 11
0.051863
 20
-0.113922
 21
-0.115937
  0
ARC
  8
APS_GEOMETRY
 10
0.064707
 20
-0.120218
 40
0.013539
 50
158.198591
 51
161.565051
  0
ARC
  8
APS_GEOMETRY
 10
0.082635
 20
-0.127389
 40
0.032848
 50
156.037511
 51
158.198591
  0
LINE
  8
APS_GEOMETRY
 10
0.041793
 11
0.041793
 20
-0.105488
 21
-0.104985
  0
LINE
  8
APS_GEOMETRY
 10
0.041793
 11
0.041163
 20
-0.104985
 21
-0.104985
  0
LINE
  8
APS_GEOMETRY
 10
0.041163
 11
0.04066
 20
-0.104985
 21
-0.105488
  0
LINE
  8
APS_GEOMETRY
 10
0.04066
 11
0.04066
 20
-0.105488
 21
-0.105992
  0
ARC
  8
APS_GEOMETRY
 10
0.033988
 20
-0.089314
 40
0.017963
 50
291.801409
 51
293.962489
  0
ARC
  8
APS_GEOMETRY
 10
0.036253
 20
-0.09441
 40
0.012386
 50
293.962489
 51
296.565051
  0
LINE
  8
APS_GEOMETRY
 10
0.038394
 11
0.038142
 20
-0.104607
 21
-0.103978
  0
ARC
  8
APS_GEOMETRY
 10
0.038995
 20
-0.105258
 40
0.001538
 50
123.690068
 51
140.194429
  0
ARC
  8
APS_GEOMETRY
 10
0.039645
 20
-0.105799
 40
0.002384
 50
140.194429
 51
153.434949
  0
LINE
  8
APS_GEOMETRY
 10
0.037513
 11
0.038394
 20
-0.104733
 21
-0.104607
  0
ARC
  8
APS_GEOMETRY
 10
0.040534
 20
-0.107422
 40
0.002689
 50
90.0
 51
108.434949
  0
ARC
  8
APS_GEOMETRY
 10
0.045949
 20
-0.123667
 40
0.019812
 50
108.434949
 51
115.201124
  0
LINE
  8
APS_GEOMETRY
 10
0.037513
 11
0.037513
 20
-0.10574
 21
-0.106495
  0
ARC
  8
APS_GEOMETRY
 10
0.034291
 20
-0.10918
 40
0.004193
 50
26.565051
 51
39.805571
  0
ARC
  8
APS_GEOMETRY
 10
0.0313
 20
-0.110675
 40
0.007537
 50
16.699244
 51
26.565051
  0
LINE
  8
APS_GEOMETRY
 10
0.03852
 11
0.038992
 20
-0.10851
 21
-0.108195
  0
LINE
  8
APS_GEOMETRY
 10
0.038992
 11
0.039653
 20
-0.108195
 21
-0.107754
  0
LINE
  8
APS_GEOMETRY
 10
0.039653
 11
0.039653
 20
-0.107754
 21
-0.107125
  0
ARC
  8
APS_GEOMETRY
 10
0.039653
 20
-0.103605
 40
0.00352
 50
261.869898
 51
270.0
  0
ARC
  8
APS_GEOMETRY
 10
0.039465
 20
-0.104918
 40
0.002193
 50
251.565051
 51
261.869898
  0
LINE
  8
APS_GEOMETRY
 10
0.038771
 11
0.038771
 20
-0.106999
 21
-0.106118
  0
ARC
  8
APS_GEOMETRY
 10
0.096174
 20
-0.177871
 40
0.091889
 50
128.157227
 51
128.659808
  0
ARC
  8
APS_GEOMETRY
 10
0.21941
 20
-0.334717
 40
0.291358
 50
127.874984
 51
128.157227
  0
ARC
  8
APS_GEOMETRY
 10
0.040785
 20
-0.107897
 40
0.000268
 50
90.0
 51
139.398705
  0
ARC
  8
APS_GEOMETRY
 10
0.058798
 20
-0.123336
 40
0.023992
 50
139.398705
 51
144.462322
  0
LINE
  8
APS_GEOMETRY
 10
0.039275
 11
0.04003
 20
-0.109391
 21
-0.109894
  0
LINE
  8
APS_GEOMETRY
 10
0.04003
 11
0.040785
 20
-0.109894
 21
-0.107628
  0
LINE
  8
APS_GEOMETRY
 10
0.038394
 11
0.038016
 20
-0.111027
 21
-0.11065
  0
LINE
  8
APS_GEOMETRY
 10
0.038016
 11
0.03789
 20
-0.11065
 21
-0.110775
  0
LINE
  8
APS_GEOMETRY
 10
0.03789
 11
0.038268
 20
-0.110775
 21
-0.111153
  0
LINE
  8
APS_GEOMETRY
 10
0.038268
 11
0.038394
 20
-0.111153
 21
-0.111027
  0
LINE
  8
APS_GEOMETRY
 10
0.036128
 11
0.03575
 20
-0.110272
 21
-0.109894
  0
LINE
  8
APS_GEOMETRY
 10
0.03575
 11
0.035624
 20
-0.109894
 21
-0.11002
  0
LINE
  8
APS_GEOMETRY
 10
0.035624
 11
0.036002
 20
-0.11002
 21
-0.110398
  0
LINE
  8
APS_GEOMETRY
 10
0.036002
 11
0.036128
 20
-0.110398
 21
-0.110272
  0
ARC
  8
APS_GEOMETRY
 10
0.037638
 20
-0.114626
 40
0.002466
 50
90.0
 51
101.309932
  0
ARC
  8
APS_GEOMETRY
 10
0.037211
 20
-0.112488
 40
0.000285
 50
101.309932
 51
135.0
  0
ARC
  8
APS_GEOMETRY
 10
0.03609
 20
-0.113665
 40
0.001658
 50
56.309932
 51
71.565051
  0
ARC
  8
APS_GEOMETRY
 10
0.036254
 20
-0.113173
 40
0.001138
 50
71.565051
 51
90.0
  0
ARC
  8
APS_GEOMETRY
 10
0.036254
 20
-0.112323
 40
0.000288
 50
90.0
 51
135.0
  0
ARC
  8
APS_GEOMETRY
 10
0.03805
 20
-0.114119
 40
0.002829
 50
135.0
 51
149.036243
  0
ARC
  8
APS_GEOMETRY
 10
0.044106
 20
-0.107817
 40
0.009768
 50
209.744881
 51
215.537678
  0
ARC
  8
APS_GEOMETRY
 10
0.036254
 20
-0.113426
 40
0.000119
 50
215.537678
 51
270.0
  0
ARC
  8
APS_GEOMETRY
 10
0.029248
 20
-0.104538
 40
0.01141
 50
307.874984
 51
315.0
  0
ARC
  8
APS_GEOMETRY
 10
0.036103
 20
-0.111392
 40
0.001717
 50
315.0
 51
333.434949
  0
LINE
  8
APS_GEOMETRY
 10
0.034114
 11
0.034114
 20
-0.121224
 21
-0.120972
  0
LINE
  8
APS_GEOMETRY
 10
0.034114
 11
0.033484
 20
-0.120972
 21
-0.121098
  0
LINE
  8
APS_GEOMETRY
 10
0.033484
 11
0.033484
 20
-0.121098
 21
-0.121349
  0
LINE
  8
APS_GEOMETRY
 10
0.033484
 11
0.034114
 20
-0.121349
 21
-0.121224
  0
LINE
  8
APS_GEOMETRY
 10
0.021274
 11
0.021274
 20
-0.115181
 21
-0.114552
  0
LINE
  8
APS_GEOMETRY
 10
0.021274
 11
0.020896
 20
-0.114552
 21
-0.114552
  0
ARC
  8
APS_GEOMETRY
 10
0.020805
 20
-0.116108
 40
0.001559
 50
86.633539
 51
145.784298
  0
ARC
  8
APS_GEOMETRY
 10
0.023144
 20
-0.117699
 40
0.004388
 50
145.784298
 51
180.0
  0
LINE
  8
APS_GEOMETRY
 10
0.018756
 11
0.018756
 20
-0.117699
 21
-0.118454
  0
LINE
  8
APS_GEOMETRY
 10
0.018756
 11
0.019512
 20
-0.118454
 21
-0.11858
  0
ARC
  8
APS_GEOMETRY
 10
0.092523
 20
-0.136833
 40
0.075259
 50
165.17352
 51
165.963757
  0
ARC
  8
APS_GEOMETRY
 10
0.11312
 20
-0.142285
 40
0.096564
 50
164.475889
 51
165.17352
  0
ARC
  8
APS_GEOMETRY
 10
0.022152
 20
-0.117016
 40
0.002153
 50
136.468801
 51
164.475889
  0
ARC
  8
APS_GEOMETRY
 10
0.021439
 20
-0.116339
 40
0.001169
 50
98.130102
 51
136.468801
  0
LINE
  8
APS_GEOMETRY
 10
0.019889
 11
0.019889
 20
-0.119713
 21
-0.119461
  0
LINE
  8
APS_GEOMETRY
 10
0.019889
 11
0.019512
 20
-0.119461
 21
-0.119587
  0
LINE
  8
APS_GEOMETRY
 10
0.019512
 11
0.019512
 20
-0.119587
 21
-0.119839
  0
LINE
  8
APS_GEOMETRY
 10
0.019512
 11
0.019889
 20
-0.119839
 21
-0.119713
  0
ARC
  8
APS_GEOMETRY
 10
0.098313
 20
-0.107765
 40
0.001018
 50
90.0
 51
104.036243
  0
ARC
  8
APS_GEOMETRY
 10
0.100568
 20
-0.116786
 40
0.010316
 50
104.036243
 51
108.434949
  0
ARC
  8
APS_GEOMETRY
 10
0.102559
 20
-0.104373
 40
0.005873
 50
198.434949
 51
206.565051
  0
ARC
  8
APS_GEOMETRY
 10
0.098079
 20
-0.105866
 40
0.00115
 50
180.0
 51
198.434949
  0
ARC
  8
APS_GEOMETRY
 10
0.098443
 20
-0.105866
 40
0.001514
 50
180.0
 51
329.036243
  0
ARC
  8
APS_GEOMETRY
 10
0.095315
 20
-0.104241
 40
0.002226
 50
331.492653
 51
333.434949
  0
ARC
  8
APS_GEOMETRY
 10
0.098866
 20
-0.104925
 40
0.001591
 50
191.309932
 51
213.690068
  0
ARC
  8
APS_GEOMETRY
 10
0.102676
 20
-0.102385
 40
0.006169
 50
213.690068
 51
225.0
  0
LINE
  8
APS_GEOMETRY
 10
0.091012
 11
0.091012
 20
-0.110398
 21
-0.109517
  0
LINE
  8
APS_GEOMETRY
 10
0.091012
 11
0.09076
 20
-0.109517
 21
-0.11002
  0
ARC
  8
APS_GEOMETRY
 10
0.087728
 20
-0.11002
 40
0.003032
 50
0.0
 51
9.462322
  0
ARC
  8
APS_GEOMETRY
 10
0.077942
 20
-0.111651
 40
0.012953
 50
9.462322
 51
14.036243
  0
ARC
  8
APS_GEOMETRY
 10
0.100458
 20
-0.10652
 40
0.010147
 50
191.309932
 51
194.931417
  0
ARC
  8
APS_GEOMETRY
 10
0.131787
 20
-0.098165
 40
0.042571
 50
194.931417
 51
196.699244
  0
ENDSEC
  0
EOF
