0
SECTION
2
HEADER
9
$ACADVER
1
AC1003
9
$INSBASE
10
0.0
20
0.0
30
0.0
9
$EXTMIN
10
0.000
20
0.000
30
0.0
9
$EXTMAX
10
635.000
20
794.000
30
0.0
9
$LIMMIN
10
0.000
20
0.000
9
$LIMMAX
10
635.000
20
794.000
9
$LTSCALE
40
1.0
9
$LUNITS
70
2
9
$LUPREC
70
3
9
$LIMCHECK
70
0
9
$UCSNAME
2

9
$UCSORG
10
0.0
20
0.0
30
0.0
9
$UCSXDIR
10
1.0
20
0.0
30
0.0
9
$UCSYDIR
10
0.0
20
1.0
30
0.0
9
$WORLDVIEW
70
1
9
$UNITMODE
70
0
0
ENDSEC
0
SECTION
2
TABLES
0
TABLE
2
VPORT
70
1
0
VPORT
2
*ACTIVE
70
0
10
0.0
20
0.0
11
1.0
21
1.0
12
317.500
22
397.000
13
0.0
23
0.0
14
1.0
24
1.0
15
0.0
25
0.0
16
0.0
26
0.0
36
1.0
17
0.0
27
0.0
37
0.0
40
500.0
41
1.250
42
50.0
43
0.0
44
0.0
50
0.0
51
0.0
71
0
72
100
73
1
74
1
75
0
76
0
77
0
78
0
0
ENDTAB
0
TABLE
2
LTYPE
70
1
0
LTYPE
2
CONTINUOUS
70
64
3
Solid line
72
65
73
0
40
0.000
0
ENDTAB
0
TABLE
2
LAYER
70
1
0
LAYER
2
0
70
64
62
7
6
CONTINUOUS
0
ENDTAB
0
ENDSEC
0
SECTION
2
BLOCKS
0
ENDSEC
0
SECTION
2
ENTITIES
0
POLYLINE
8
0
6
CONTINUOUS
66
1
62
7
10
0.0
20
0.0
30
0.000000
0
VERTEX
8
0
10
237.000000
20
713.000000
0
VERTEX
8
0
10
236.000000
20
714.000000
0
SEQEND
0
POLYLINE
8
0
6
CONTINUOUS
66
1
62
7
10
0.0
20
0.0
30
0.000000
0
VERTEX
8
0
10
237.000000
20
713.000000
0
VERTEX
8
0
10
238.000000
20
714.000000
0
VERTEX
8
0
10
237.000000
20
715.000000
0
VERTEX
8
0
10
236.000000
20
714.000000
0
SEQEND
0
POLYLINE
8
0
6
CONTINUOUS
66
1
62
7
10
0.0
20
0.0
30
0.000000
0
VERTEX
8
0
10
417.000000
20
706.000000
0
VERTEX
8
0
10
416.000000
20
706.000000
0
SEQEND
0
POLYLINE
8
0
6
CONTINUOUS
66
1
62
7
10
0.0
20
0.0
30
0.000000
0
VERTEX
8
0
10
236.000000
20
714.000000
0
VERTEX
8
0
10
232.100000
20
712.800000
0
VERTEX
8
0
10
220.911765
20
709.352941
0
VERTEX
8
0
10
218.000000
20
709.000000
0
VERTEX
8
0
10
216.000000
20
707.000000
0
VERTEX
8
0
10
216.000000
20
706.000000
0
VERTEX
8
0
10
221.200000
20
702.400000
0
VERTEX
8
0
10
222.900000
20
701.700000
0
VERTEX
8
0
10
231.000000
20
700.000000
0
VERTEX
8
0
10
235.000000
20
703.000000
0
VERTEX
8
0
10
237.000000
20
713.000000
0
SEQEND
0
POLYLINE
8
0
6
CONTINUOUS
66
1
62
7
10
0.0
20
0.0
30
0.000000
0
VERTEX
8
0
10
416.000000
20
706.000000
0
VERTEX
8
0
10
396.900000
20
714.800000
0
VERTEX
8
0
10
396.000000
20
715.000000
0
VERTEX
8
0
10
395.000000
20
714.000000
0
VERTEX
8
0
10
398.000000
20
703.000000
0
VERTEX
8
0
10
403.000000
20
700.000000
0
VERTEX
8
0
10
405.000000
20
700.000000
0
VERTEX
8
0
10
412.820000
20
703.240000
0
VERTEX
8
0
10
416.000000
20
706.000000
0
SEQEND
0
POLYLINE
8
0
6
CONTINUOUS
66
1
62
7
10
0.0
20
0.0
30
0.000000
0
VERTEX
8
0
10
110.000000
20
661.000000
0
VERTEX
8
0
10
109.000000
20
662.000000
0
SEQEND
0
POLYLINE
8
0
6
CONTINUOUS
66
1
62
7
10
0.0
20
0.0
30
0.000000
0
VERTEX
8
0
10
288.000000
20
661.000000
0
VERTEX
8
0
10
289.088235
20
661.647059
0
VERTEX
8
0
10
294.000000
20
663.000000
0
VERTEX
8
0
10
302.000000
20
671.000000
0
VERTEX
8
0
10
303.800000
20
675.100000
0
VERTEX
8
0
10
306.300000
20
680.900000
0
VERTEX
8
0
10
308.000000
20
685.000000
0
VERTEX
8
0
10
308.000000
20
689.000000
0
VERTEX
8
0
10
305.000000
20
701.000000
0
VERTEX
8
0
10
294.100000
20
711.200000
0
VERTEX
8
0
10
289.000000
20
714.000000
0
VERTEX
8
0
10
285.000000
20
714.000000
0
VERTEX
8
0
10
281.088235
20
712.647059
0
VERTEX
8
0
10
274.100000
20
709.700000
0
VERTEX
8
0
10
270.000000
20
708.000000
0
VERTEX
8
0
10
267.000000
20
708.000000
0
VERTEX
8
0
10
264.000000
20
712.000000
0
VERTEX
8
0
10
264.000000
20
720.000000
0
VERTEX
8
0
10
265.000000
20
721.000000
0
VERTEX
8
0
10
263.000000
20
722.000000
0
VERTEX
8
0
10
255.000000
20
717.000000
0
VERTEX
8
0
10
252.800000
20
713.100000
0
VERTEX
8
0
10
252.200000
20
711.900000
0
VERTEX
8
0
10
251.000000
20
708.000000
0
VERTEX
8
0
10
251.700000
20
706.900000
0
VERTEX
8
0
10
257.200000
20
693.900000
0
VERTEX
8
0
10
256.000000
20
692.000000
0
VERTEX
8
0
10
246.000000
20
692.000000
0
VERTEX
8
0
10
245.000000
20
693.000000
0
VERTEX
8
0
10
238.000000
20
693.000000
0
VERTEX
8
0
10
233.153846
20
689.769231
0
VERTEX
8
0
10
230.000000
20
688.000000
0
VERTEX
8
0
10
228.000000
20
686.000000
0
VERTEX
8
0
10
230.820000
20
683.760000
0
VERTEX
8
0
10
236.088235
20
680.352941
0
VERTEX
8
0
10
238.911765
20
679.647059
0
VERTEX
8
0
10
246.000000
20
678.000000
0
VERTEX
8
0
10
255.000000
20
678.000000
0
VERTEX
8
0
10
258.900000
20
680.200000
0
VERTEX
8
0
10
260.100000
20
680.800000
0
VERTEX
8
0
10
264.000000
20
682.000000
0
VERTEX
8
0
10
265.000000
20
681.000000
0
VERTEX
8
0
10
263.200000
20
673.900000
0
VERTEX
8
0
10
263.000000
20
673.000000
0
VERTEX
8
0
10
256.000000
20
667.000000
0
VERTEX
8
0
10
257.000000
20
666.000000
0
VERTEX
8
0
10
267.000000
20
665.000000
0
VERTEX
8
0
10
272.100000
20
667.800000
0
VERTEX
8
0
10
284.100000
20
676.200000
0
VERTEX
8
0
10
287.000000
20
674.000000
0
VERTEX
8
0
10
287.700000
20
671.900000
0
VERTEX
8
0
10
289.000000
20
669.000000
0
VERTEX
8
0
10
287.230769
20
665.846154
0
VERTEX
8
0
10
285.000000
20
663.000000
0
VERTEX
8
0
10
286.000000
20
661.000000
0
VERTEX
8
0
10
288.000000
20
661.000000
0
SEQEND
0
POLYLINE
8
0
6
CONTINUOUS
66
1
62
7
10
0.0
20
0.0
30
0.000000
0
VERTEX
8
0
10
348.000000
20
661.000000
0
VERTEX
8
0
10
348.000000
20
662.000000
0
VERTEX
8
0
10
344.000000
20
668.000000
0
VERTEX
8
0
10
346.230769
20
672.846154
0
VERTEX
8
0
10
348.000000
20
676.000000
0
VERTEX
8
0
10
350.000000
20
678.000000
0
VERTEX
8
0
10
359.000000
20
668.000000
0
VERTEX
8
0
10
365.100000
20
666.300000
0
VERTEX
8
0
10
368.000000
20
665.000000
0
VERTEX
8
0
10
373.088235
20
665.647059
0
VERTEX
8
0
10
376.000000
20
666.000000
0
VERTEX
8
0
10
377.000000
20
667.000000
0
VERTEX
8
0
10
369.800000
20
673.900000
0
VERTEX
8
0
10
368.800000
20
675.900000
0
VERTEX
8
0
10
368.000000
20
677.000000
0
VERTEX
8
0
10
368.000000
20
680.000000
0
VERTEX
8
0
10
370.000000
20
682.000000
0
VERTEX
8
0
10
374.100000
20
680.200000
0
VERTEX
8
0
10
374.900000
20
679.800000
0
VERTEX
8
0
10
378.000000
20
678.000000
0
VERTEX
8
0
10
387.000000
20
678.000000
0
VERTEX
8
0
10
399.846154
20
682.230769
0
VERTEX
8
0
10
404.000000
20
685.000000
0
VERTEX
8
0
10
404.000000
20
686.000000
0
VERTEX
8
0
10
400.180000
20
689.240000
0
VERTEX
8
0
10
396.100000
20
692.200000
0
VERTEX
8
0
10
395.000000
20
693.000000
0
VERTEX
8
0
10
377.000000
20
692.000000
0
VERTEX
8
0
10
375.600000
20
694.700000
0
VERTEX
8
0
10
377.760000
20
698.180000
0
VERTEX
8
0
10
382.000000
20
708.000000
0
VERTEX
8
0
10
380.800000
20
711.900000
0
VERTEX
8
0
10
380.200000
20
713.100000
0
VERTEX
8
0
10
379.000000
20
716.000000
0
VERTEX
8
0
10
376.000000
20
719.000000
0
VERTEX
8
0
10
370.900000
20
721.800000
0
VERTEX
8
0
10
369.250000
20
721.750000
0
VERTEX
8
0
10
369.405405
20
716.067568
0
VERTEX
8
0
10
370.000000
20
715.000000
0
VERTEX
8
0
10
368.000000
20
709.000000
0
VERTEX
8
0
10
367.000000
20
708.000000
0
VERTEX
8
0
10
346.000000
20
714.000000
0
VERTEX
8
0
10
344.900000
20
713.300000
0
VERTEX
8
0
10
338.180000
20
709.760000
0
VERTEX
8
0
10
329.000000
20
703.000000
0
VERTEX
8
0
10
327.352941
20
698.911765
0
VERTEX
8
0
10
325.000000
20
688.000000
0
VERTEX
8
0
10
328.800000
20
675.900000
0
VERTEX
8
0
10
331.243902
20
671.195122
0
VERTEX
8
0
10
338.000000
20
663.000000
0
VERTEX
8
0
10
348.000000
20
661.000000
0
SEQEND
0
POLYLINE
8
0
6
CONTINUOUS
66
1
62
7
10
0.0
20
0.0
30
0.000000
0
VERTEX
8
0
10
523.000000
20
661.000000
0
VERTEX
8
0
10
524.000000
20
662.000000
0
SEQEND
0
POLYLINE
8
0
6
CONTINUOUS
66
1
62
7
10
0.0
20
0.0
30
0.000000
0
VERTEX
8
0
10
109.000000
20
662.000000
0
VERTEX
8
0
10
108.000000
20
661.000000
0
VERTEX
8
0
10
109.000000
20
660.000000
0
VERTEX
8
0
10
110.000000
20
661.000000
0
SEQEND
0
POLYLINE
8
0
6
CONTINUOUS
66
1
62
7
10
0.0
20
0.0
30
0.000000
0
VERTEX
8
0
10
392.000000
20
660.000000
0
VERTEX
8
0
10
391.000000
20
661.000000
0
VERTEX
8
0
10
389.000000
20
660.000000
0
SEQEND
0
POLYLINE
8
0
6
CONTINUOUS
66
1
62
7
10
0.0
20
0.0
30
0.000000
0
VERTEX
8
0
10
392.000000
20
660.000000
0
VERTEX
8
0
10
394.000000
20
662.000000
0
VERTEX
8
0
10
395.000000
20
662.000000
0
SEQEND
0
POLYLINE
8
0
6
CONTINUOUS
66
1
62
7
10
0.0
20
0.0
30
0.000000
0
VERTEX
8
0
10
523.000000
20
661.000000
0
VERTEX
8
0
10
524.000000
20
660.000000
0
VERTEX
8
0
10
525.000000
20
661.000000
0
VERTEX
8
0
10
524.000000
20
662.000000
0
SEQEND
0
POLYLINE
8
0
6
CONTINUOUS
66
1
62
7
10
0.0
20
0.0
30
0.000000
0
VERTEX
8
0
10
390.000000
20
659.000000
0
VERTEX
8
0
10
389.000000
20
660.000000
0
SEQEND
0
POLYLINE
8
0
6
CONTINUOUS
66
1
62
7
10
0.0
20
0.0
30
0.000000
0
VERTEX
8
0
10
390.000000
20
659.000000
0
VERTEX
8
0
10
392.000000
20
660.000000
0
SEQEND
0
POLYLINE
8
0
6
CONTINUOUS
66
1
62
7
10
0.0
20
0.0
30
0.000000
0
VERTEX
8
0
10
524.000000
20
612.000000
0
VERTEX
8
0
10
525.000000
20
612.000000
0
VERTEX
8
0
10
529.000000
20
616.000000
0
VERTEX
8
0
10
538.647059
20
630.088235
0
VERTEX
8
0
10
539.352941
20
632.911765
0
VERTEX
8
0
10
544.000000
20
649.000000
0
VERTEX
8
0
10
550.000000
20
646.000000
0
VERTEX
8
0
10
552.230769
20
643.153846
0
VERTEX
8
0
10
553.189189
20
640.864865
0
VERTEX
8
0
10
554.000000
20
631.000000
0
VERTEX
8
0
10
555.000000
20
630.000000
0
VERTEX
8
0
10
557.200000
20
632.900000
0
VERTEX
8
0
10
561.000000
20
646.000000
0
VERTEX
8
0
10
561.000000
20
652.000000
0
VERTEX
8
0
10
559.594595
20
657.932432
0
VERTEX
8
0
10
559.352941
20
659.088235
0
VERTEX
8
0
10
555.200000
20
670.100000
0
VERTEX
8
0
10
552.000000
20
675.000000
0
VERTEX
8
0
10
545.153846
20
680.230769
0
VERTEX
8
0
10
538.000000
20
685.000000
0
VERTEX
8
0
10
538.000000
20
687.000000
0
VERTEX
8
0
10
541.900000
20
690.200000
0
VERTEX
8
0
10
543.100000
20
690.700000
0
VERTEX
8
0
10
550.000000
20
692.000000
0
VERTEX
8
0
10
552.000000
20
694.000000
0
VERTEX
8
0
10
550.000000
20
696.000000
0
VERTEX
8
0
10
541.900000
20
700.800000
0
VERTEX
8
0
10
541.100000
20
701.200000
0
VERTEX
8
0
10
532.000000
20
704.000000
0
VERTEX
8
0
10
526.000000
20
704.000000
0
VERTEX
8
0
10
522.088235
20
702.647059
0
VERTEX
8
0
10
514.250000
20
701.250000
0
VERTEX
8
0
10
514.000000
20
702.000000
0
VERTEX
8
0
10
513.000000
20
709.000000
0
VERTEX
8
0
10
514.000000
20
712.000000
0
VERTEX
8
0
10
518.000000
20
714.000000
0
VERTEX
8
0
10
521.000000
20
717.000000
0
VERTEX
8
0
10
520.000000
20
718.000000
0
VERTEX
8
0
10
516.000000
20
719.000000
0
VERTEX
8
0
10
499.923077
20
717.384615
0
VERTEX
8
0
10
496.076923
20
716.615385
0
VERTEX
8
0
10
490.100000
20
713.800000
0
VERTEX
8
0
10
488.000000
20
713.000000
0
VERTEX
8
0
10
484.800000
20
709.100000
0
VERTEX
8
0
10
484.000000
20
700.000000
0
VERTEX
8
0
10
483.000000
20
699.000000
0
VERTEX
8
0
10
481.000000
20
698.000000
0
VERTEX
8
0
10
477.900000
20
698.800000
0
VERTEX
8
0
10
474.000000
20
702.000000
0
VERTEX
8
0
10
472.300000
20
707.100000
0
VERTEX
8
0
10
471.700000
20
708.900000
0
VERTEX
8
0
10
470.000000
20
713.000000
0
VERTEX
8
0
10
469.000000
20
713.000000
0
VERTEX
8
0
10
462.760000
20
705.180000
0
VERTEX
8
0
10
460.240000
20
701.820000
0
VERTEX
8
0
10
457.000000
20
695.000000
0
VERTEX
8
0
10
458.000000
20
680.000000
0
VERTEX
8
0
10
455.000000
20
678.000000
0
VERTEX
8
0
10
452.000000
20
678.000000
0
VERTEX
8
0
10
446.100000
20
680.200000
0
VERTEX
8
0
10
445.000000
20
681.000000
0
VERTEX
8
0
10
443.000000
20
681.000000
0
VERTEX
8
0
10
442.000000
20
680.000000
0
VERTEX
8
0
10
442.000000
20
673.000000
0
VERTEX
8
0
10
446.200000
20
664.100000
0
VERTEX
8
0
10
447.200000
20
662.100000
0
VERTEX
8
0
10
454.247059
20
651.211765
0
VERTEX
8
0
10
460.000000
20
645.000000
0
VERTEX
8
0
10
457.000000
20
642.000000
0
VERTEX
8
0
10
450.000000
20
641.000000
0
VERTEX
8
0
10
449.000000
20
640.000000
0
VERTEX
8
0
10
451.000000
20
635.000000
0
VERTEX
8
0
10
454.000000
20
632.000000
0
VERTEX
8
0
10
461.000000
20
628.000000
0
VERTEX
8
0
10
462.000000
20
629.000000
0
VERTEX
8
0
10
463.647059
20
635.088235
0
VERTEX
8
0
10
466.000000
20
648.000000
0
VERTEX
8
0
10
464.000000
20
651.000000
0
VERTEX
8
0
10
463.100000
20
651.200000
0
VERTEX
8
0
10
456.000000
20
656.000000
0
VERTEX
8
0
10
454.000000
20
661.000000
0
VERTEX
8
0
10
477.900000
20
668.300000
0
VERTEX
8
0
10
492.900000
20
674.200000
0
VERTEX
8
0
10
505.911765
20
678.352941
0
VERTEX
8
0
10
516.000000
20
680.000000
0
VERTEX
8
0
10
523.735294
20
677.558824
0
VERTEX
8
0
10
527.180000
20
675.240000
0
VERTEX
8
0
10
532.000000
20
671.000000
0
VERTEX
8
0
10
534.800000
20
664.900000
0
VERTEX
8
0
10
535.200000
20
664.100000
0
VERTEX
8
0
10
536.569231
20
660.946154
0
VERTEX
8
0
10
537.430769
20
654.053846
0
VERTEX
8
0
10
538.000000
20
645.000000
0
VERTEX
8
0
10
535.647059
20
634.088235
0
VERTEX
8
0
10
531.800000
20
626.100000
0
VERTEX
8
0
10
524.000000
20
612.000000
0
SEQEND
0
POLYLINE
8
0
6
CONTINUOUS
66
1
62
7
10
0.0
20
0.0
30
0.000000
0
VERTEX
8
0
10
111.000000
20
610.000000
0
VERTEX
8
0
10
102.800000
20
623.900000
0
VERTEX
8
0
10
97.352941
20
635.088235
0
VERTEX
8
0
10
95.000000
20
647.000000
0
VERTEX
8
0
10
95.580000
20
654.060000
0
VERTEX
8
0
10
97.800000
20
665.100000
0
VERTEX
8
0
10
105.000000
20
676.000000
0
VERTEX
8
0
10
107.900000
20
677.200000
0
VERTEX
8
0
10
116.000000
20
680.000000
0
VERTEX
8
0
10
122.000000
20
680.000000
0
VERTEX
8
0
10
127.932432
20
678.594595
0
VERTEX
8
0
10
138.900000
20
674.800000
0
VERTEX
8
0
10
153.100000
20
669.200000
0
VERTEX
8
0
10
164.911765
20
664.647059
0
VERTEX
8
0
10
179.000000
20
662.000000
0
VERTEX
8
0
10
177.000000
20
657.000000
0
VERTEX
8
0
10
172.000000
20
652.000000
0
VERTEX
8
0
10
168.000000
20
650.000000
0
VERTEX
8
0
10
168.000000
20
640.000000
0
VERTEX
8
0
10
169.420000
20
633.060000
0
VERTEX
8
0
10
172.000000
20
628.000000
0
VERTEX
8
0
10
174.000000
20
628.000000
0
VERTEX
8
0
10
180.000000
20
633.000000
0
VERTEX
8
0
10
184.000000
20
640.000000
0
VERTEX
8
0
10
183.000000
20
641.000000
0
VERTEX
8
0
10
176.000000
20
642.000000
0
VERTEX
8
0
10
173.000000
20
645.000000
0
VERTEX
8
0
10
181.240000
20
653.820000
0
VERTEX
8
0
10
183.760000
20
657.180000
0
VERTEX
8
0
10
187.700000
20
665.100000
0
VERTEX
8
0
10
189.300000
20
669.900000
0
VERTEX
8
0
10
191.000000
20
673.000000
0
VERTEX
8
0
10
191.000000
20
680.000000
0
VERTEX
8
0
10
190.000000
20
681.000000
0
VERTEX
8
0
10
186.911765
20
680.352941
0
VERTEX
8
0
10
184.088235
20
679.647059
0
VERTEX
8
0
10
175.250000
20
678.250000
0
VERTEX
8
0
10
175.000000
20
679.000000
0
VERTEX
8
0
10
176.384615
20
687.923077
0
VERTEX
8
0
10
177.000000
20
689.000000
0
VERTEX
8
0
10
175.300000
20
697.100000
0
VERTEX
8
0
10
171.769231
20
703.846154
0
VERTEX
8
0
10
170.230769
20
706.153846
0
VERTEX
8
0
10
164.000000
20
713.000000
0
VERTEX
8
0
10
163.000000
20
713.000000
0
VERTEX
8
0
10
160.700000
20
707.100000
0
VERTEX
8
0
10
160.352941
20
705.911765
0
VERTEX
8
0
10
159.000000
20
701.000000
0
VERTEX
8
0
10
157.000000
20
699.000000
0
VERTEX
8
0
10
153.000000
20
698.000000
0
VERTEX
8
0
10
151.000000
20
699.000000
0
VERTEX
8
0
10
150.000000
20
700.000000
0
VERTEX
8
0
10
148.000000
20
710.000000
0
VERTEX
8
0
10
145.000000
20
713.000000
0
VERTEX
8
0
10
136.923077
20
716.615385
0
VERTEX
8
0
10
131.946154
20
717.569231
0
VERTEX
8
0
10
113.000000
20
719.000000
0
VERTEX
8
0
10
112.000000
20
718.000000
0
VERTEX
8
0
10
112.000000
20
717.000000
0
VERTEX
8
0
10
120.000000
20
710.000000
0
VERTEX
8
0
10
120.000000
20
705.000000
0
VERTEX
8
0
10
118.750000
20
701.250000
0
VERTEX
8
0
10
117.100000
20
701.200000
0
VERTEX
8
0
10
108.000000
20
704.000000
0
VERTEX
8
0
10
101.000000
20
704.000000
0
VERTEX
8
0
10
95.067568
20
702.594595
0
VERTEX
8
0
10
89.100000
20
699.800000
0
VERTEX
8
0
10
81.000000
20
694.000000
0
VERTEX
8
0
10
91.100000
20
690.200000
0
VERTEX
8
0
10
95.000000
20
687.000000
0
VERTEX
8
0
10
94.000000
20
685.000000
0
VERTEX
8
0
10
90.195122
20
681.756098
0
VERTEX
8
0
10
85.153846
20
677.769231
0
VERTEX
8
0
10
80.000000
20
674.000000
0
VERTEX
8
0
10
79.800000
20
673.100000
0
VERTEX
8
0
10
73.000000
20
656.000000
0
VERTEX
8
0
10
73.000000
20
640.000000
0
VERTEX
8
0
10
73.647059
20
638.911765
0
VERTEX
8
0
10
75.000000
20
633.000000
0
VERTEX
8
0
10
78.000000
20
630.000000
0
VERTEX
8
0
10
79.200000
20
631.900000
0
VERTEX
8
0
10
79.549180
20
633.040984
0
VERTEX
8
0
10
80.000000
20
643.000000
0
VERTEX
8
0
10
85.000000
20
648.000000
0
VERTEX
8
0
10
87.100000
20
648.800000
0
VERTEX
8
0
10
88.000000
20
649.000000
0
VERTEX
8
0
10
95.800000
20
625.900000
0
VERTEX
8
0
10
99.240000
20
621.180000
0
VERTEX
8
0
10
106.000000
20
613.000000
0
VERTEX
8
0
10
111.000000
20
610.000000
0
SEQEND
0
POLYLINE
8
0
6
CONTINUOUS
66
1
62
7
10
0.0
20
0.0
30
0.000000
0
VERTEX
8
0
10
521.000000
20
609.000000
0
VERTEX
8
0
10
524.000000
20
612.000000
0
SEQEND
0
POLYLINE
8
0
6
CONTINUOUS
66
1
62
7
10
0.0
20
0.0
30
0.000000
0
VERTEX
8
0
10
114.000000
20
607.000000
0
VERTEX
8
0
10
111.000000
20
610.000000
0
SEQEND
0
POLYLINE
8
0
6
CONTINUOUS
66
1
62
7
10
0.0
20
0.0
30
0.000000
0
VERTEX
8
0
10
110.000000
20
661.000000
0
VERTEX
8
0
10
118.955446
20
660.554455
0
VERTEX
8
0
10
122.000000
20
659.000000
0
VERTEX
8
0
10
122.200000
20
658.100000
0
VERTEX
8
0
10
120.769231
20
654.153846
0
VERTEX
8
0
10
117.000000
20
648.000000
0
VERTEX
8
0
10
117.000000
20
637.000000
0
VERTEX
8
0
10
120.300000
20
628.100000
0
VERTEX
8
0
10
123.000000
20
621.000000
0
VERTEX
8
0
10
125.000000
20
620.000000
0
VERTEX
8
0
10
128.000000
20
623.000000
0
VERTEX
8
0
10
128.000000
20
624.000000
0
VERTEX
8
0
10
131.900000
20
627.200000
0
VERTEX
8
0
10
134.000000
20
628.000000
0
VERTEX
8
0
10
135.000000
20
627.000000
0
VERTEX
8
0
10
140.800000
20
609.900000
0
VERTEX
8
0
10
147.240000
20
599.180000
0
VERTEX
8
0
10
149.760000
20
595.820000
0
VERTEX
8
0
10
163.000000
20
578.000000
0
VERTEX
8
0
10
166.000000
20
575.000000
0
VERTEX
8
0
10
167.000000
20
576.000000
0
VERTEX
8
0
10
171.750000
20
606.750000
0
VERTEX
8
0
10
162.911765
20
608.647059
0
VERTEX
8
0
10
157.000000
20
611.000000
0
VERTEX
8
0
10
155.000000
20
613.000000
0
VERTEX
8
0
10
154.000000
20
616.000000
0
VERTEX
8
0
10
157.900000
20
619.200000
0
VERTEX
8
0
10
166.000000
20
622.000000
0
VERTEX
8
0
10
166.000000
20
623.000000
0
VERTEX
8
0
10
161.245902
20
628.204918
0
VERTEX
8
0
10
154.200000
20
640.100000
0
VERTEX
8
0
10
153.000000
20
642.000000
0
VERTEX
8
0
10
151.000000
20
642.000000
0
VERTEX
8
0
10
143.100000
20
636.800000
0
VERTEX
8
0
10
140.250000
20
636.250000
0
VERTEX
8
0
10
142.000000
20
653.000000
0
VERTEX
8
0
10
138.769231
20
657.846154
0
VERTEX
8
0
10
135.000000
20
663.000000
0
VERTEX
8
0
10
134.100000
20
663.200000
0
VERTEX
8
0
10
127.000000
20
667.000000
0
VERTEX
8
0
10
116.000000
20
667.000000
0
VERTEX
8
0
10
113.307692
20
665.538462
0
VERTEX
8
0
10
109.000000
20
662.000000
0
SEQEND
0
POLYLINE
8
0
6
CONTINUOUS
66
1
62
7
10
0.0
20
0.0
30
0.000000
0
VERTEX
8
0
10
524.000000
20
662.000000
0
VERTEX
8
0
10
516.100000
20
666.200000
0
VERTEX
8
0
10
515.000000
20
667.000000
0
VERTEX
8
0
10
506.000000
20
667.000000
0
VERTEX
8
0
10
498.000000
20
663.000000
0
VERTEX
8
0
10
495.769231
20
660.153846
0
VERTEX
8
0
10
493.769231
20
657.153846
0
VERTEX
8
0
10
491.000000
20
653.000000
0
VERTEX
8
0
10
491.580000
20
644.940000
0
VERTEX
8
0
10
493.000000
20
637.000000
0
VERTEX
8
0
10
492.000000
20
636.000000
0
VERTEX
8
0
10
487.153846
20
638.230769
0
VERTEX
8
0
10
484.153846
20
640.230769
0
VERTEX
8
0
10
482.000000
20
642.000000
0
VERTEX
8
0
10
480.000000
20
642.000000
0
VERTEX
8
0
10
468.000000
20
622.000000
0
VERTEX
8
0
10
472.900000
20
619.800000
0
VERTEX
8
0
10
474.846154
20
618.769231
0
VERTEX
8
0
10
479.000000
20
616.000000
0
VERTEX
8
0
10
477.800000
20
614.100000
0
VERTEX
8
0
10
476.000000
20
611.000000
0
VERTEX
8
0
10
462.000000
20
607.000000
0
VERTEX
8
0
10
461.000000
20
606.000000
0
VERTEX
8
0
10
467.000000
20
574.000000
0
VERTEX
8
0
10
489.200000
20
601.900000
0
VERTEX
8
0
10
490.200000
20
603.900000
0
VERTEX
8
0
10
493.647059
20
612.088235
0
VERTEX
8
0
10
494.700000
20
616.100000
0
VERTEX
8
0
10
497.000000
20
626.000000
0
VERTEX
8
0
10
499.000000
20
628.000000
0
VERTEX
8
0
10
501.000000
20
628.000000
0
VERTEX
8
0
10
507.000000
20
622.000000
0
VERTEX
8
0
10
508.000000
20
620.000000
0
VERTEX
8
0
10
511.200000
20
624.900000
0
VERTEX
8
0
10
513.647059
20
630.088235
0
VERTEX
8
0
10
517.000000
20
645.000000
0
VERTEX
8
0
10
512.769231
20
653.846154
0
VERTEX
8
0
10
510.000000
20
658.000000
0
VERTEX
8
0
10
511.000000
20
659.000000
0
VERTEX
8
0
10
518.067568
20
660.594595
0
VERTEX
8
0
10
523.000000
20
661.000000
0
SEQEND
0
POLYLINE
8
0
6
CONTINUOUS
66
1
62
7
10
0.0
20
0.0
30
0.000000
0
VERTEX
8
0
10
215.000000
20
546.000000
0
VERTEX
8
0
10
216.100000
20
546.800000
0
VERTEX
8
0
10
226.000000
20
552.000000
0
VERTEX
8
0
10
229.200000
20
555.900000
0
VERTEX
8
0
10
233.000000
20
562.000000
0
VERTEX
8
0
10
232.384615
20
565.076923
0
VERTEX
8
0
10
229.000000
20
576.000000
0
VERTEX
8
0
10
227.100000
20
577.200000
0
VERTEX
8
0
10
226.000000
20
578.000000
0
VERTEX
8
0
10
219.000000
20
578.000000
0
VERTEX
8
0
10
210.000000
20
564.000000
0
VERTEX
8
0
10
206.000000
20
568.000000
0
VERTEX
8
0
10
205.200000
20
570.100000
0
VERTEX
8
0
10
203.000000
20
574.000000
0
VERTEX
8
0
10
204.700000
20
582.100000
0
VERTEX
8
0
10
207.000000
20
587.000000
0
VERTEX
8
0
10
204.100000
20
589.200000
0
VERTEX
8
0
10
202.900000
20
589.800000
0
VERTEX
8
0
10
193.204918
20
595.245902
0
VERTEX
8
0
10
188.000000
20
600.000000
0
VERTEX
8
0
10
186.000000
20
598.000000
0
VERTEX
8
0
10
186.647059
20
592.911765
0
VERTEX
8
0
10
187.647059
20
588.911765
0
VERTEX
8
0
10
191.000000
20
576.000000
0
VERTEX
8
0
10
186.000000
20
572.000000
0
VERTEX
8
0
10
182.923077
20
572.615385
0
VERTEX
8
0
10
177.000000
20
574.000000
0
VERTEX
8
0
10
176.000000
20
573.000000
0
VERTEX
8
0
10
178.230769
20
568.153846
0
VERTEX
8
0
10
184.754098
20
559.795082
0
VERTEX
8
0
10
188.820000
20
555.760000
0
VERTEX
8
0
10
196.180000
20
550.240000
0
VERTEX
8
0
10
203.100000
20
547.200000
0
VERTEX
8
0
10
203.900000
20
546.800000
0
VERTEX
8
0
10
215.000000
20
546.000000
0
SEQEND
0
POLYLINE
8
0
6
CONTINUOUS
66
1
62
7
10
0.0
20
0.0
30
0.000000
0
VERTEX
8
0
10
428.000000
20
546.000000
0
VERTEX
8
0
10
437.100000
20
550.800000
0
VERTEX
8
0
10
446.000000
20
557.000000
0
VERTEX
8
0
10
451.000000
20
562.000000
0
VERTEX
8
0
10
453.760000
20
566.180000
0
VERTEX
8
0
10
456.800000
20
572.100000
0
VERTEX
8
0
10
457.000000
20
573.000000
0
VERTEX
8
0
10
456.000000
20
574.000000
0
VERTEX
8
0
10
445.000000
20
572.000000
0
VERTEX
8
0
10
442.000000
20
574.000000
0
VERTEX
8
0
10
444.647059
20
587.088235
0
VERTEX
8
0
10
446.300000
20
592.900000
0
VERTEX
8
0
10
447.000000
20
597.000000
0
VERTEX
8
0
10
445.000000
20
600.000000
0
VERTEX
8
0
10
439.795082
20
595.245902
0
VERTEX
8
0
10
434.846154
20
592.230769
0
VERTEX
8
0
10
432.100000
20
590.800000
0
VERTEX
8
0
10
426.000000
20
587.000000
0
VERTEX
8
0
10
427.647059
20
583.911765
0
VERTEX
8
0
10
430.000000
20
574.000000
0
VERTEX
8
0
10
428.000000
20
568.000000
0
VERTEX
8
0
10
426.153846
20
566.769231
0
VERTEX
8
0
10
424.000000
20
565.000000
0
VERTEX
8
0
10
419.769231
20
569.846154
0
VERTEX
8
0
10
416.000000
20
576.000000
0
VERTEX
8
0
10
411.000000
20
578.000000
0
VERTEX
8
0
10
405.000000
20
577.000000
0
VERTEX
8
0
10
400.000000
20
567.000000
0
VERTEX
8
0
10
400.000000
20
563.000000
0
VERTEX
8
0
10
405.000000
20
554.000000
0
VERTEX
8
0
10
408.000000
20
551.000000
0
VERTEX
8
0
10
419.044554
20
546.445545
0
VERTEX
8
0
10
428.000000
20
546.000000
0
SEQEND
0
POLYLINE
8
0
6
CONTINUOUS
66
1
62
7
10
0.0
20
0.0
30
0.000000
0
VERTEX
8
0
10
161.000000
20
499.000000
0
VERTEX
8
0
10
161.000000
20
501.000000
0
SEQEND
0
POLYLINE
8
0
6
CONTINUOUS
66
1
62
7
10
0.0
20
0.0
30
0.000000
0
VERTEX
8
0
10
472.000000
20
499.000000
0
VERTEX
8
0
10
472.000000
20
501.000000
0
SEQEND
0
POLYLINE
8
0
6
CONTINUOUS
66
1
62
7
10
0.0
20
0.0
30
0.000000
0
VERTEX
8
0
10
146.000000
20
470.000000
0
VERTEX
8
0
10
145.000000
20
471.000000
0
SEQEND
0
POLYLINE
8
0
6
CONTINUOUS
66
1
62
7
10
0.0
20
0.0
30
0.000000
0
VERTEX
8
0
10
146.000000
20
470.000000
0
VERTEX
8
0
10
147.000000
20
471.000000
0
VERTEX
8
0
10
146.000000
20
472.000000
0
VERTEX
8
0
10
145.000000
20
471.000000
0
SEQEND
0
POLYLINE
8
0
6
CONTINUOUS
66
1
62
7
10
0.0
20
0.0
30
0.000000
0
VERTEX
8
0
10
64.000000
20
463.000000
0
VERTEX
8
0
10
63.000000
20
464.000000
0
SEQEND
0
POLYLINE
8
0
6
CONTINUOUS
66
1
62
7
10
0.0
20
0.0
30
0.000000
0
VERTEX
8
0
10
161.000000
20
501.000000
0
VERTEX
8
0
10
163.300000
20
504.900000
0
VERTEX
8
0
10
167.000000
20
523.000000
0
VERTEX
8
0
10
167.000000
20
529.000000
0
VERTEX
8
0
10
165.647059
20
532.911765
0
VERTEX
8
0
10
160.756098
20
542.804878
0
VERTEX
8
0
10
154.000000
20
551.000000
0
VERTEX
8
0
10
153.100000
20
551.200000
0
VERTEX
8
0
10
150.000000
20
553.000000
0
VERTEX
8
0
10
140.000000
20
551.000000
0
VERTEX
8
0
10
138.800000
20
552.900000
0
VERTEX
8
0
10
138.000000
20
556.000000
0
VERTEX
8
0
10
144.000000
20
563.000000
0
VERTEX
8
0
10
145.000000
20
563.000000
0
VERTEX
8
0
10
148.000000
20
566.000000
0
VERTEX
8
0
10
148.000000
20
568.000000
0
VERTEX
8
0
10
141.000000
20
572.000000
0
VERTEX
8
0
10
133.940000
20
571.420000
0
VERTEX
8
0
10
122.911765
20
569.352941
0
VERTEX
8
0
10
116.180000
20
566.760000
0
VERTEX
8
0
10
112.820000
20
564.240000
0
VERTEX
8
0
10
108.000000
20
559.000000
0
VERTEX
8
0
10
105.000000
20
559.000000
0
VERTEX
8
0
10
102.000000
20
564.000000
0
VERTEX
8
0
10
102.000000
20
570.000000
0
VERTEX
8
0
10
103.200000
20
571.900000
0
VERTEX
8
0
10
104.200000
20
573.900000
0
VERTEX
8
0
10
105.000000
20
575.000000
0
VERTEX
8
0
10
104.000000
20
576.000000
0
VERTEX
8
0
10
101.000000
20
576.000000
0
VERTEX
8
0
10
95.000000
20
573.000000
0
VERTEX
8
0
10
86.000000
20
564.000000
0
VERTEX
8
0
10
81.000000
20
551.000000
0
VERTEX
8
0
10
81.000000
20
547.000000
0
VERTEX
8
0
10
83.300000
20
540.100000
0
VERTEX
8
0
10
86.760000
20
534.820000
0
VERTEX
8
0
10
90.000000
20
528.000000
0
VERTEX
8
0
10
88.000000
20
525.000000
0
VERTEX
8
0
10
87.100000
20
524.800000
0
VERTEX
8
0
10
84.000000
20
523.000000
0
VERTEX
8
0
10
81.000000
20
523.000000
0
VERTEX
8
0
10
75.100000
20
525.200000
0
VERTEX
8
0
10
72.000000
20
527.000000
0
VERTEX
8
0
10
69.300000
20
534.100000
0
VERTEX
8
0
10
68.000000
20
539.000000
0
VERTEX
8
0
10
66.000000
20
541.000000
0
VERTEX
8
0
10
65.000000
20
540.000000
0
VERTEX
8
0
10
65.000000
20
535.000000
0
VERTEX
8
0
10
66.384615
20
530.076923
0
VERTEX
8
0
10
67.800000
20
525.900000
0
VERTEX
8
0
10
75.000000
20
509.000000
0
VERTEX
8
0
10
79.000000
20
505.000000
0
VERTEX
8
0
10
89.000000
20
500.000000
0
VERTEX
8
0
10
100.000000
20
500.000000
0
VERTEX
8
0
10
104.923077
20
501.384615
0
VERTEX
8
0
10
113.000000
20
506.000000
0
VERTEX
8
0
10
114.000000
20
505.000000
0
VERTEX
8
0
10
113.300000
20
502.900000
0
VERTEX
8
0
10
109.000000
20
495.000000
0
VERTEX
8
0
10
106.000000
20
492.000000
0
VERTEX
8
0
10
105.000000
20
492.000000
0
VERTEX
8
0
10
103.000000
20
490.000000
0
VERTEX
8
0
10
103.000000
20
487.000000
0
VERTEX
8
0
10
102.000000
20
486.000000
0
VERTEX
8
0
10
93.911765
20
487.647059
0
VERTEX
8
0
10
91.088235
20
488.352941
0
VERTEX
8
0
10
90.000000
20
489.000000
0
VERTEX
8
0
10
89.000000
20
488.000000
0
VERTEX
8
0
10
89.000000
20
486.000000
0
VERTEX
8
0
10
93.250000
20
463.250000
0
VERTEX
8
0
10
94.000000
20
463.000000
0
VERTEX
8
0
10
106.000000
20
471.000000
0
VERTEX
8
0
10
110.240000
20
475.820000
0
VERTEX
8
0
10
119.000000
20
488.000000
0
VERTEX
8
0
10
122.000000
20
485.000000
0
VERTEX
8
0
10
122.000000
20
476.000000
0
VERTEX
8
0
10
121.000000
20
474.000000
0
VERTEX
8
0
10
122.000000
20
473.000000
0
VERTEX
8
0
10
124.100000
20
473.800000
0
VERTEX
8
0
10
128.100000
20
475.800000
0
VERTEX
8
0
10
142.000000
20
487.000000
0
VERTEX
8
0
10
142.240000
20
487.820000
0
VERTEX
8
0
10
152.000000
20
502.000000
0
VERTEX
8
0
10
151.384615
20
506.076923
0
VERTEX
8
0
10
150.000000
20
512.000000
0
VERTEX
8
0
10
152.000000
20
514.000000
0
VERTEX
8
0
10
155.100000
20
513.200000
0
VERTEX
8
0
10
156.000000
20
513.000000
0
VERTEX
8
0
10
159.200000
20
507.100000
0
VERTEX
8
0
10
161.000000
20
501.000000
0
SEQEND
0
POLYLINE
8
0
6
CONTINUOUS
66
1
62
7
10
0.0
20
0.0
30
0.000000
0
VERTEX
8
0
10
472.000000
20
501.000000
0
VERTEX
8
0
10
474.200000
20
506.900000
0
VERTEX
8
0
10
477.000000
20
512.000000
0
VERTEX
8
0
10
482.000000
20
514.000000
0
VERTEX
8
0
10
483.000000
20
513.000000
0
VERTEX
8
0
10
481.000000
20
502.000000
0
VERTEX
8
0
10
483.200000
20
498.100000
0
VERTEX
8
0
10
489.760000
20
488.820000
0
VERTEX
8
0
10
494.795082
20
483.754098
0
VERTEX
8
0
10
504.900000
20
475.800000
0
VERTEX
8
0
10
510.000000
20
473.000000
0
VERTEX
8
0
10
511.000000
20
474.000000
0
VERTEX
8
0
10
511.000000
20
486.000000
0
VERTEX
8
0
10
513.000000
20
488.000000
0
VERTEX
8
0
10
514.000000
20
488.000000
0
VERTEX
8
0
10
520.230769
20
480.153846
0
VERTEX
8
0
10
524.000000
20
474.000000
0
VERTEX
8
0
10
536.900000
20
463.800000
0
VERTEX
8
0
10
538.000000
20
463.000000
0
VERTEX
8
0
10
540.000000
20
464.000000
0
VERTEX
8
0
10
544.000000
20
487.000000
0
VERTEX
8
0
10
543.000000
20
489.000000
0
VERTEX
8
0
10
540.100000
20
487.700000
0
VERTEX
8
0
10
538.923077
20
487.384615
0
VERTEX
8
0
10
531.000000
20
486.000000
0
VERTEX
8
0
10
530.000000
20
487.000000
0
VERTEX
8
0
10
528.751724
20
490.779310
0
VERTEX
8
0
10
521.248276
20
499.220690
0
VERTEX
8
0
10
519.000000
20
504.000000
0
VERTEX
8
0
10
520.000000
20
506.000000
0
VERTEX
8
0
10
528.076923
20
501.384615
0
VERTEX
8
0
10
531.923077
20
500.615385
0
VERTEX
8
0
10
533.000000
20
500.000000
0
VERTEX
8
0
10
544.000000
20
500.000000
0
VERTEX
8
0
10
549.900000
20
502.200000
0
VERTEX
8
0
10
557.000000
20
507.000000
0
VERTEX
8
0
10
566.615385
20
531.076923
0
VERTEX
8
0
10
568.000000
20
540.000000
0
VERTEX
8
0
10
566.000000
20
542.000000
0
VERTEX
8
0
10
563.700000
20
536.100000
0
VERTEX
8
0
10
561.000000
20
528.000000
0
VERTEX
8
0
10
558.000000
20
525.000000
0
VERTEX
8
0
10
555.000000
20
524.000000
0
VERTEX
8
0
10
547.000000
20
524.000000
0
VERTEX
8
0
10
543.000000
20
527.000000
0
VERTEX
8
0
10
544.200000
20
530.900000
0
VERTEX
8
0
10
546.230769
20
534.846154
0
VERTEX
8
0
10
549.647059
20
541.088235
0
VERTEX
8
0
10
552.000000
20
548.000000
0
VERTEX
8
0
10
549.200000
20
559.100000
0
VERTEX
8
0
10
547.769231
20
561.846154
0
VERTEX
8
0
10
542.000000
20
570.000000
0
VERTEX
8
0
10
539.153846
20
571.230769
0
VERTEX
8
0
10
530.000000
20
577.000000
0
VERTEX
8
0
10
529.000000
20
576.000000
0
VERTEX
8
0
10
531.000000
20
569.000000
0
VERTEX
8
0
10
531.000000
20
565.000000
0
VERTEX
8
0
10
527.000000
20
559.000000
0
VERTEX
8
0
10
519.820000
20
563.760000
0
VERTEX
8
0
10
512.800000
20
568.600000
0
VERTEX
8
0
10
501.000000
20
572.000000
0
VERTEX
8
0
10
491.911765
20
570.352941
0
VERTEX
8
0
10
486.000000
20
569.000000
0
VERTEX
8
0
10
484.000000
20
567.000000
0
VERTEX
8
0
10
487.000000
20
564.000000
0
VERTEX
8
0
10
489.100000
20
563.200000
0
VERTEX
8
0
10
490.000000
20
563.000000
0
VERTEX
8
0
10
493.600000
20
557.800000
0
VERTEX
8
0
10
495.000000
20
555.000000
0
VERTEX
8
0
10
494.200000
20
552.900000
0
VERTEX
8
0
10
493.000000
20
551.000000
0
VERTEX
8
0
10
489.911765
20
551.647059
0
VERTEX
8
0
10
483.000000
20
553.000000
0
VERTEX
8
0
10
476.000000
20
548.000000
0
VERTEX
8
0
10
471.769231
20
542.153846
0
VERTEX
8
0
10
466.000000
20
529.000000
0
VERTEX
8
0
10
466.560976
20
520.951220
0
VERTEX
8
0
10
470.000000
20
502.000000
0
VERTEX
8
0
10
472.000000
20
501.000000
0
SEQEND
0
POLYLINE
8
0
6
CONTINUOUS
66
1
62
7
10
0.0
20
0.0
30
0.000000
0
VERTEX
8
0
10
63.000000
20
464.000000
0
VERTEX
8
0
10
62.000000
20
463.000000
0
VERTEX
8
0
10
63.000000
20
462.000000
0
VERTEX
8
0
10
64.000000
20
463.000000
0
SEQEND
0
POLYLINE
8
0
6
CONTINUOUS
66
1
62
7
10
0.0
20
0.0
30
0.000000
0
VERTEX
8
0
10
115.000000
20
456.000000
0
VERTEX
8
0
10
145.000000
20
471.000000
0
SEQEND
0
POLYLINE
8
0
6
CONTINUOUS
66
1
62
7
10
0.0
20
0.0
30
0.000000
0
VERTEX
8
0
10
116.000000
20
455.000000
0
VERTEX
8
0
10
115.000000
20
456.000000
0
SEQEND
0
POLYLINE
8
0
6
CONTINUOUS
66
1
62
7
10
0.0
20
0.0
30
0.000000
0
VERTEX
8
0
10
116.000000
20
455.000000
0
VERTEX
8
0
10
120.932432
20
455.405405
0
VERTEX
8
0
10
127.900000
20
457.300000
0
VERTEX
8
0
10
129.088235
20
457.647059
0
VERTEX
8
0
10
136.820000
20
460.240000
0
VERTEX
8
0
10
141.000000
20
463.000000
0
VERTEX
8
0
10
145.200000
20
467.900000
0
VERTEX
8
0
10
146.000000
20
470.000000
0
SEQEND
0
POLYLINE
8
0
6
CONTINUOUS
66
1
62
7
10
0.0
20
0.0
30
0.000000
0
VERTEX
8
0
10
518.000000
20
455.000000
0
VERTEX
8
0
10
519.000000
20
456.000000
0
VERTEX
8
0
10
493.100000
20
468.200000
0
VERTEX
8
0
10
491.900000
20
468.800000
0
VERTEX
8
0
10
487.000000
20
471.000000
0
VERTEX
8
0
10
486.000000
20
470.000000
0
VERTEX
8
0
10
488.000000
20
466.000000
0
VERTEX
8
0
10
489.000000
20
465.000000
0
VERTEX
8
0
10
507.100000
20
457.300000
0
VERTEX
8
0
10
518.000000
20
455.000000
0
SEQEND
0
POLYLINE
8
0
6
CONTINUOUS
66
1
62
7
10
0.0
20
0.0
30
0.000000
0
VERTEX
8
0
10
113.000000
20
454.000000
0
VERTEX
8
0
10
111.000000
20
454.000000
0
SEQEND
0
POLYLINE
8
0
6
CONTINUOUS
66
1
62
7
10
0.0
20
0.0
30
0.000000
0
VERTEX
8
0
10
113.000000
20
454.000000
0
VERTEX
8
0
10
113.000000
20
455.000000
0
VERTEX
8
0
10
115.000000
20
456.000000
0
SEQEND
0
POLYLINE
8
0
6
CONTINUOUS
66
1
62
7
10
0.0
20
0.0
30
0.000000
0
VERTEX
8
0
10
113.000000
20
454.000000
0
VERTEX
8
0
10
116.000000
20
455.000000
0
SEQEND
0
POLYLINE
8
0
6
CONTINUOUS
66
1
62
7
10
0.0
20
0.0
30
0.000000
0
VERTEX
8
0
10
153.000000
20
397.000000
0
VERTEX
8
0
10
152.000000
20
398.000000
0
SEQEND
0
POLYLINE
8
0
6
CONTINUOUS
66
1
62
7
10
0.0
20
0.0
30
0.000000
0
VERTEX
8
0
10
153.000000
20
397.000000
0
VERTEX
8
0
10
154.000000
20
398.000000
0
VERTEX
8
0
10
153.000000
20
399.000000
0
VERTEX
8
0
10
152.000000
20
398.000000
0
SEQEND
0
POLYLINE
8
0
6
CONTINUOUS
66
1
62
7
10
0.0
20
0.0
30
0.000000
0
VERTEX
8
0
10
67.000000
20
359.000000
0
VERTEX
8
0
10
64.240000
20
363.180000
0
VERTEX
8
0
10
59.300000
20
372.100000
0
VERTEX
8
0
10
58.700000
20
373.900000
0
VERTEX
8
0
10
55.000000
20
387.000000
0
VERTEX
8
0
10
55.000000
20
404.000000
0
VERTEX
8
0
10
60.300000
20
423.900000
0
VERTEX
8
0
10
66.240000
20
436.820000
0
VERTEX
8
0
10
68.760000
20
440.180000
0
VERTEX
8
0
10
83.230769
20
458.846154
0
VERTEX
8
0
10
84.400000
20
461.200000
0
VERTEX
8
0
10
79.000000
20
470.000000
0
VERTEX
8
0
10
77.000000
20
472.000000
0
VERTEX
8
0
10
75.000000
20
470.000000
0
VERTEX
8
0
10
75.000000
20
469.000000
0
VERTEX
8
0
10
72.000000
20
466.000000
0
VERTEX
8
0
10
67.900000
20
464.200000
0
VERTEX
8
0
10
64.000000
20
463.000000
0
SEQEND
0
POLYLINE
8
0
6
CONTINUOUS
66
1
62
7
10
0.0
20
0.0
30
0.000000
0
VERTEX
8
0
10
567.000000
20
359.000000
0
VERTEX
8
0
10
573.200000
20
370.900000
0
VERTEX
8
0
10
576.594595
20
380.067568
0
VERTEX
8
0
10
579.000000
20
395.000000
0
VERTEX
8
0
10
577.405405
20
408.067568
0
VERTEX
8
0
10
575.647059
20
416.911765
0
VERTEX
8
0
10
568.769231
20
432.846154
0
VERTEX
8
0
10
567.230769
20
435.153846
0
VERTEX
8
0
10
557.751131
20
447.773756
0
VERTEX
8
0
10
548.000000
20
458.000000
0
VERTEX
8
0
10
548.000000
20
461.000000
0
VERTEX
8
0
10
556.000000
20
472.000000
0
VERTEX
8
0
10
561.000000
20
466.000000
0
VERTEX
8
0
10
567.100000
20
463.300000
0
VERTEX
8
0
10
570.000000
20
462.000000
0
VERTEX
8
0
10
571.000000
20
464.000000
0
VERTEX
8
0
10
567.000000
20
474.000000
0
VERTEX
8
0
10
567.000000
20
483.000000
0
VERTEX
8
0
10
573.352941
20
506.911765
0
VERTEX
8
0
10
577.000000
20
525.000000
0
VERTEX
8
0
10
577.000000
20
546.000000
0
VERTEX
8
0
10
568.800000
20
561.900000
0
VERTEX
8
0
10
567.000000
20
566.000000
0
VERTEX
8
0
10
568.000000
20
567.000000
0
VERTEX
8
0
10
569.000000
20
567.000000
0
VERTEX
8
0
10
570.000000
20
568.000000
0
VERTEX
8
0
10
569.800000
20
568.900000
0
VERTEX
8
0
10
566.600000
20
576.700000
0
VERTEX
8
0
10
567.500000
20
580.000000
0
VERTEX
8
0
10
566.000000
20
584.000000
0
VERTEX
8
0
10
559.153846
20
589.230769
0
VERTEX
8
0
10
554.000000
20
593.000000
0
VERTEX
8
0
10
559.230769
20
600.846154
0
VERTEX
8
0
10
560.400000
20
603.200000
0
VERTEX
8
0
10
559.000000
20
608.000000
0
VERTEX
8
0
10
561.230769
20
611.846154
0
VERTEX
8
0
10
564.800000
20
618.100000
0
VERTEX
8
0
10
566.000000
20
621.000000
0
VERTEX
8
0
10
565.000000
20
622.000000
0
VERTEX
8
0
10
572.800000
20
636.100000
0
VERTEX
8
0
10
573.200000
20
636.900000
0
VERTEX
8
0
10
576.580000
20
644.060000
0
VERTEX
8
0
10
579.000000
20
661.000000
0
VERTEX
8
0
10
578.430769
20
671.053846
0
VERTEX
8
0
10
576.647059
20
681.911765
0
VERTEX
8
0
10
569.800000
20
696.900000
0
VERTEX
8
0
10
560.000000
20
711.000000
0
VERTEX
8
0
10
547.153846
20
721.230769
0
VERTEX
8
0
10
538.900000
20
725.800000
0
VERTEX
8
0
10
524.900000
20
731.700000
0
VERTEX
8
0
10
515.053846
20
733.430769
0
VERTEX
8
0
10
514.000000
20
734.000000
0
VERTEX
8
0
10
496.000000
20
734.000000
0
VERTEX
8
0
10
484.037931
20
732.544828
0
VERTEX
8
0
10
457.100000
20
724.700000
0
VERTEX
8
0
10
441.100000
20
718.800000
0
VERTEX
8
0
10
440.000000
20
718.000000
0
VERTEX
8
0
10
438.000000
20
720.000000
0
VERTEX
8
0
10
438.000000
20
726.000000
0
VERTEX
8
0
10
437.000000
20
727.000000
0
VERTEX
8
0
10
427.100000
20
722.800000
0
VERTEX
8
0
10
426.000000
20
722.000000
0
VERTEX
8
0
10
417.000000
20
722.000000
0
VERTEX
8
0
10
402.088235
20
726.352941
0
VERTEX
8
0
10
386.100000
20
731.300000
0
VERTEX
8
0
10
373.000000
20
735.000000
0
VERTEX
8
0
10
362.000000
20
735.000000
0
VERTEX
8
0
10
342.900000
20
731.300000
0
VERTEX
8
0
10
339.900000
20
730.200000
0
VERTEX
8
0
10
330.000000
20
725.000000
0
VERTEX
8
0
10
316.000000
20
710.000000
0
VERTEX
8
0
10
315.000000
20
711.000000
0
VERTEX
8
0
10
314.000000
20
714.000000
0
VERTEX
8
0
10
304.000000
20
724.000000
0
VERTEX
8
0
10
299.820000
20
726.760000
0
VERTEX
8
0
10
299.153846
20
727.230769
0
VERTEX
8
0
10
292.900000
20
730.700000
0
VERTEX
8
0
10
288.100000
20
732.300000
0
VERTEX
8
0
10
276.000000
20
735.000000
0
VERTEX
8
0
10
266.000000
20
735.000000
0
VERTEX
8
0
10
258.053846
20
733.569231
0
VERTEX
8
0
10
239.900000
20
728.300000
0
VERTEX
8
0
10
238.100000
20
727.700000
0
VERTEX
8
0
10
218.000000
20
722.000000
0
VERTEX
8
0
10
208.000000
20
722.000000
0
VERTEX
8
0
10
204.088235
20
723.352941
0
VERTEX
8
0
10
200.100000
20
725.200000
0
VERTEX
8
0
10
197.000000
20
727.000000
0
VERTEX
8
0
10
194.000000
20
718.000000
0
VERTEX
8
0
10
180.100000
20
723.300000
0
VERTEX
8
0
10
164.088235
20
728.352941
0
VERTEX
8
0
10
150.946154
20
731.569231
0
VERTEX
8
0
10
131.000000
20
734.000000
0
VERTEX
8
0
10
117.946154
20
733.430769
0
VERTEX
8
0
10
105.900000
20
731.300000
0
VERTEX
8
0
10
90.180000
20
723.760000
0
VERTEX
8
0
10
78.820000
20
715.240000
0
VERTEX
8
0
10
73.000000
20
710.000000
0
VERTEX
8
0
10
65.240000
20
699.820000
0
VERTEX
8
0
10
60.200000
20
689.900000
0
VERTEX
8
0
10
59.200000
20
687.900000
0
VERTEX
8
0
10
55.000000
20
670.000000
0
VERTEX
8
0
10
55.000000
20
653.000000
0
VERTEX
8
0
10
58.300000
20
641.100000
0
VERTEX
8
0
10
59.300000
20
638.100000
0
VERTEX
8
0
10
74.000000
20
607.000000
0
VERTEX
8
0
10
74.000000
20
605.000000
0
VERTEX
8
0
10
72.600000
20
602.800000
0
VERTEX
8
0
10
73.230769
20
601.153846
0
VERTEX
8
0
10
79.000000
20
593.000000
0
VERTEX
8
0
10
76.180000
20
590.760000
0
VERTEX
8
0
10
72.820000
20
588.240000
0
VERTEX
8
0
10
64.000000
20
580.000000
0
VERTEX
8
0
10
66.400000
20
576.700000
0
VERTEX
8
0
10
63.600000
20
569.300000
0
VERTEX
8
0
10
66.000000
20
566.000000
0
VERTEX
8
0
10
66.000000
20
564.000000
0
VERTEX
8
0
10
61.800000
20
556.100000
0
VERTEX
8
0
10
60.800000
20
554.100000
0
VERTEX
8
0
10
56.000000
20
546.000000
0
VERTEX
8
0
10
56.000000
20
524.000000
0
VERTEX
8
0
10
60.352941
20
504.088235
0
VERTEX
8
0
10
67.000000
20
488.000000
0
VERTEX
8
0
10
67.000000
20
478.000000
0
VERTEX
8
0
10
63.000000
20
464.000000
0
SEQEND
0
POLYLINE
8
0
6
CONTINUOUS
66
1
62
7
10
0.0
20
0.0
30
0.000000
0
VERTEX
8
0
10
66.000000
20
358.000000
0
VERTEX
8
0
10
67.000000
20
359.000000
0
SEQEND
0
POLYLINE
8
0
6
CONTINUOUS
66
1
62
7
10
0.0
20
0.0
30
0.000000
0
VERTEX
8
0
10
68.000000
20
358.000000
0
VERTEX
8
0
10
67.000000
20
359.000000
0
SEQEND
0
POLYLINE
8
0
6
CONTINUOUS
66
1
62
7
10
0.0
20
0.0
30
0.000000
0
VERTEX
8
0
10
67.000000
20
357.000000
0
VERTEX
8
0
10
66.000000
20
358.000000
0
SEQEND
0
POLYLINE
8
0
6
CONTINUOUS
66
1
62
7
10
0.0
20
0.0
30
0.000000
0
VERTEX
8
0
10
67.000000
20
357.000000
0
VERTEX
8
0
10
68.000000
20
358.000000
0
SEQEND
0
POLYLINE
8
0
6
CONTINUOUS
66
1
62
7
10
0.0
20
0.0
30
0.000000
0
VERTEX
8
0
10
69.000000
20
357.000000
0
VERTEX
8
0
10
68.000000
20
358.000000
0
SEQEND
0
POLYLINE
8
0
6
CONTINUOUS
66
1
62
7
10
0.0
20
0.0
30
0.000000
0
VERTEX
8
0
10
68.000000
20
356.000000
0
VERTEX
8
0
10
67.000000
20
357.000000
0
SEQEND
0
POLYLINE
8
0
6
CONTINUOUS
66
1
62
7
10
0.0
20
0.0
30
0.000000
0
VERTEX
8
0
10
68.000000
20
356.000000
0
VERTEX
8
0
10
69.000000
20
357.000000
0
SEQEND
0
POLYLINE
8
0
6
CONTINUOUS
66
1
62
7
10
0.0
20
0.0
30
0.000000
0
VERTEX
8
0
10
70.000000
20
356.000000
0
VERTEX
8
0
10
69.000000
20
357.000000
0
SEQEND
0
POLYLINE
8
0
6
CONTINUOUS
66
1
62
7
10
0.0
20
0.0
30
0.000000
0
VERTEX
8
0
10
70.000000
20
355.000000
0
VERTEX
8
0
10
68.000000
20
356.000000
0
SEQEND
0
POLYLINE
8
0
6
CONTINUOUS
66
1
62
7
10
0.0
20
0.0
30
0.000000
0
VERTEX
8
0
10
70.000000
20
355.000000
0
VERTEX
8
0
10
70.000000
20
356.000000
0
SEQEND
0
POLYLINE
8
0
6
CONTINUOUS
66
1
62
7
10
0.0
20
0.0
30
0.000000
0
VERTEX
8
0
10
72.000000
20
353.000000
0
VERTEX
8
0
10
70.000000
20
355.000000
0
SEQEND
0
POLYLINE
8
0
6
CONTINUOUS
66
1
62
7
10
0.0
20
0.0
30
0.000000
0
VERTEX
8
0
10
561.000000
20
352.000000
0
VERTEX
8
0
10
567.000000
20
358.000000
0
VERTEX
8
0
10
567.000000
20
359.000000
0
SEQEND
0
POLYLINE
8
0
6
CONTINUOUS
66
1
62
7
10
0.0
20
0.0
30
0.000000
0
VERTEX
8
0
10
152.000000
20
398.000000
0
VERTEX
8
0
10
151.100000
20
397.800000
0
VERTEX
8
0
10
142.000000
20
394.000000
0
VERTEX
8
0
10
137.000000
20
394.000000
0
VERTEX
8
0
10
134.000000
20
398.000000
0
VERTEX
8
0
10
141.200000
20
406.900000
0
VERTEX
8
0
10
143.000000
20
410.000000
0
VERTEX
8
0
10
141.300000
20
417.100000
0
VERTEX
8
0
10
138.000000
20
424.000000
0
VERTEX
8
0
10
134.000000
20
428.000000
0
VERTEX
8
0
10
122.100000
20
436.200000
0
VERTEX
8
0
10
120.900000
20
436.700000
0
VERTEX
8
0
10
116.000000
20
438.000000
0
VERTEX
8
0
10
115.250000
20
437.750000
0
VERTEX
8
0
10
115.384615
20
433.076923
0
VERTEX
8
0
10
116.000000
20
432.000000
0
VERTEX
8
0
10
115.352941
20
426.911765
0
VERTEX
8
0
10
115.000000
20
424.000000
0
VERTEX
8
0
10
112.000000
20
421.000000
0
VERTEX
8
0
10
104.100000
20
428.200000
0
VERTEX
8
0
10
96.000000
20
430.000000
0
VERTEX
8
0
10
90.000000
20
430.000000
0
VERTEX
8
0
10
79.000000
20
425.000000
0
VERTEX
8
0
10
78.000000
20
424.000000
0
VERTEX
8
0
10
84.000000
20
420.000000
0
VERTEX
8
0
10
86.200000
20
416.100000
0
VERTEX
8
0
10
88.000000
20
411.000000
0
VERTEX
8
0
10
87.000000
20
410.000000
0
VERTEX
8
0
10
86.100000
20
410.200000
0
VERTEX
8
0
10
85.000000
20
411.000000
0
VERTEX
8
0
10
75.000000
20
411.000000
0
VERTEX
8
0
10
73.100000
20
409.800000
0
VERTEX
8
0
10
69.000000
20
407.000000
0
VERTEX
8
0
10
65.000000
20
394.000000
0
VERTEX
8
0
10
65.000000
20
384.000000
0
VERTEX
8
0
10
68.000000
20
378.000000
0
VERTEX
8
0
10
69.000000
20
377.000000
0
VERTEX
8
0
10
73.769231
20
383.153846
0
VERTEX
8
0
10
74.000000
20
384.000000
0
VERTEX
8
0
10
76.846154
20
386.230769
0
VERTEX
8
0
10
81.000000
20
389.000000
0
VERTEX
8
0
10
83.000000
20
387.000000
0
VERTEX
8
0
10
84.615385
20
375.923077
0
VERTEX
8
0
10
86.384615
20
367.076923
0
VERTEX
8
0
10
88.240000
20
362.180000
0
VERTEX
8
0
10
91.240000
20
358.180000
0
VERTEX
8
0
10
96.000000
20
352.000000
0
VERTEX
8
0
10
96.846154
20
351.769231
0
VERTEX
8
0
10
101.000000
20
349.000000
0
VERTEX
8
0
10
103.000000
20
351.000000
0
VERTEX
8
0
10
103.615385
20
355.076923
0
VERTEX
8
0
10
105.000000
20
361.000000
0
VERTEX
8
0
10
106.000000
20
362.000000
0
VERTEX
8
0
10
111.240000
20
356.180000
0
VERTEX
8
0
10
115.230769
20
350.153846
0
VERTEX
8
0
10
120.000000
20
344.000000
0
VERTEX
8
0
10
120.900000
20
343.800000
0
VERTEX
8
0
10
122.000000
20
343.000000
0
VERTEX
8
0
10
123.000000
20
344.000000
0
VERTEX
8
0
10
123.458824
20
355.964706
0
VERTEX
8
0
10
124.200000
20
357.900000
0
VERTEX
8
0
10
128.000000
20
365.000000
0
VERTEX
8
0
10
121.900000
20
368.800000
0
VERTEX
8
0
10
121.000000
20
369.000000
0
VERTEX
8
0
10
118.000000
20
374.000000
0
VERTEX
8
0
10
118.000000
20
378.000000
0
VERTEX
8
0
10
119.000000
20
379.000000
0
VERTEX
8
0
10
131.000000
20
373.000000
0
VERTEX
8
0
10
142.000000
20
380.000000
0
VERTEX
8
0
10
147.240000
20
386.820000
0
VERTEX
8
0
10
152.800000
20
396.100000
0
VERTEX
8
0
10
153.000000
20
397.000000
0
SEQEND
0
POLYLINE
8
0
6
CONTINUOUS
66
1
62
7
10
0.0
20
0.0
30
0.000000
0
VERTEX
8
0
10
512.000000
20
343.000000
0
VERTEX
8
0
10
525.000000
20
360.000000
0
VERTEX
8
0
10
525.900000
20
360.200000
0
VERTEX
8
0
10
527.000000
20
361.000000
0
VERTEX
8
0
10
529.000000
20
359.000000
0
VERTEX
8
0
10
529.647059
20
354.911765
0
VERTEX
8
0
10
531.000000
20
350.000000
0
VERTEX
8
0
10
532.000000
20
349.000000
0
VERTEX
8
0
10
536.000000
20
352.000000
0
VERTEX
8
0
10
540.000000
20
356.000000
0
VERTEX
8
0
10
545.769231
20
365.153846
0
VERTEX
8
0
10
546.200000
20
365.900000
0
VERTEX
8
0
10
548.560976
20
378.048780
0
VERTEX
8
0
10
549.000000
20
386.000000
0
VERTEX
8
0
10
551.000000
20
388.000000
0
VERTEX
8
0
10
557.000000
20
387.000000
0
VERTEX
8
0
10
559.800000
20
382.900000
0
VERTEX
8
0
10
561.000000
20
380.000000
0
VERTEX
8
0
10
564.000000
20
377.000000
0
VERTEX
8
0
10
565.230769
20
378.846154
0
VERTEX
8
0
10
568.000000
20
387.000000
0
VERTEX
8
0
10
568.000000
20
393.000000
0
VERTEX
8
0
10
567.352941
20
394.088235
0
VERTEX
8
0
10
564.558824
20
403.735294
0
VERTEX
8
0
10
560.000000
20
410.000000
0
VERTEX
8
0
10
550.000000
20
411.000000
0
VERTEX
8
0
10
549.000000
20
410.000000
0
VERTEX
8
0
10
547.000000
20
410.000000
0
VERTEX
8
0
10
545.000000
20
412.000000
0
VERTEX
8
0
10
547.000000
20
417.000000
0
VERTEX
8
0
10
555.000000
20
424.000000
0
VERTEX
8
0
10
552.100000
20
426.200000
0
VERTEX
8
0
10
550.100000
20
427.200000
0
VERTEX
8
0
10
543.000000
20
430.000000
0
VERTEX
8
0
10
535.923077
20
429.384615
0
VERTEX
8
0
10
530.153846
20
427.769231
0
VERTEX
8
0
10
522.000000
20
421.000000
0
VERTEX
8
0
10
517.000000
20
427.000000
0
VERTEX
8
0
10
518.000000
20
437.000000
0
VERTEX
8
0
10
517.000000
20
438.000000
0
VERTEX
8
0
10
512.100000
20
435.800000
0
VERTEX
8
0
10
502.000000
20
430.000000
0
VERTEX
8
0
10
494.769231
20
421.153846
0
VERTEX
8
0
10
493.400000
20
418.800000
0
VERTEX
8
0
10
491.000000
20
410.000000
0
VERTEX
8
0
10
491.800000
20
408.900000
0
VERTEX
8
0
10
494.245902
20
404.204918
0
VERTEX
8
0
10
499.000000
20
399.000000
0
VERTEX
8
0
10
499.000000
20
396.000000
0
VERTEX
8
0
10
495.100000
20
393.800000
0
VERTEX
8
0
10
494.000000
20
393.000000
0
VERTEX
8
0
10
484.900000
20
395.800000
0
VERTEX
8
0
10
482.100000
20
397.200000
0
VERTEX
8
0
10
481.000000
20
398.000000
0
VERTEX
8
0
10
480.000000
20
397.000000
0
VERTEX
8
0
10
480.800000
20
394.900000
0
VERTEX
8
0
10
488.000000
20
383.000000
0
VERTEX
8
0
10
491.000000
20
380.000000
0
VERTEX
8
0
10
502.000000
20
373.000000
0
VERTEX
8
0
10
507.153846
20
375.769231
0
VERTEX
8
0
10
507.900000
20
376.200000
0
VERTEX
8
0
10
514.000000
20
379.000000
0
VERTEX
8
0
10
515.000000
20
378.000000
0
VERTEX
8
0
10
515.000000
20
374.000000
0
VERTEX
8
0
10
513.800000
20
372.100000
0
VERTEX
8
0
10
513.000000
20
370.000000
0
VERTEX
8
0
10
507.000000
20
367.000000
0
VERTEX
8
0
10
506.000000
20
366.000000
0
VERTEX
8
0
10
507.200000
20
362.100000
0
VERTEX
8
0
10
508.200000
20
360.100000
0
VERTEX
8
0
10
511.200000
20
344.100000
0
VERTEX
8
0
10
512.000000
20
343.000000
0
SEQEND
0
POLYLINE
8
0
6
CONTINUOUS
66
1
62
7
10
0.0
20
0.0
30
0.000000
0
VERTEX
8
0
10
84.000000
20
327.000000
0
VERTEX
8
0
10
79.900000
20
329.800000
0
VERTEX
8
0
10
69.000000
20
337.000000
0
VERTEX
8
0
10
65.000000
20
341.000000
0
VERTEX
8
0
10
66.000000
20
342.000000
0
VERTEX
8
0
10
68.000000
20
342.000000
0
VERTEX
8
0
10
69.000000
20
343.000000
0
VERTEX
8
0
10
65.800000
20
348.900000
0
VERTEX
8
0
10
64.200000
20
353.100000
0
VERTEX
8
0
10
61.000000
20
360.000000
0
VERTEX
8
0
10
62.000000
20
361.000000
0
VERTEX
8
0
10
64.900000
20
358.800000
0
VERTEX
8
0
10
66.000000
20
358.000000
0
SEQEND
0
POLYLINE
8
0
6
CONTINUOUS
66
1
62
7
10
0.0
20
0.0
30
0.000000
0
VERTEX
8
0
10
85.000000
20
327.000000
0
VERTEX
8
0
10
84.000000
20
327.000000
0
SEQEND
0
POLYLINE
8
0
6
CONTINUOUS
66
1
62
7
10
0.0
20
0.0
30
0.000000
0
VERTEX
8
0
10
564.000000
20
303.000000
0
VERTEX
8
0
10
562.000000
20
306.000000
0
SEQEND
0
POLYLINE
8
0
6
CONTINUOUS
66
1
62
7
10
0.0
20
0.0
30
0.000000
0
VERTEX
8
0
10
67.000000
20
302.000000
0
VERTEX
8
0
10
69.000000
20
303.000000
0
SEQEND
0
POLYLINE
8
0
6
CONTINUOUS
66
1
62
7
10
0.0
20
0.0
30
0.000000
0
VERTEX
8
0
10
564.000000
20
302.000000
0
VERTEX
8
0
10
564.000000
20
303.000000
0
SEQEND
0
POLYLINE
8
0
6
CONTINUOUS
66
1
62
7
10
0.0
20
0.0
30
0.000000
0
VERTEX
8
0
10
566.000000
20
302.000000
0
VERTEX
8
0
10
564.000000
20
303.000000
0
SEQEND
0
POLYLINE
8
0
6
CONTINUOUS
66
1
62
7
10
0.0
20
0.0
30
0.000000
0
VERTEX
8
0
10
65.000000
20
301.000000
0
VERTEX
8
0
10
67.000000
20
302.000000
0
SEQEND
0
POLYLINE
8
0
6
CONTINUOUS
66
1
62
7
10
0.0
20
0.0
30
0.000000
0
VERTEX
8
0
10
565.000000
20
301.000000
0
VERTEX
8
0
10
564.000000
20
302.000000
0
SEQEND
0
POLYLINE
8
0
6
CONTINUOUS
66
1
62
7
10
0.0
20
0.0
30
0.000000
0
VERTEX
8
0
10
565.000000
20
301.000000
0
VERTEX
8
0
10
566.000000
20
302.000000
0
SEQEND
0
POLYLINE
8
0
6
CONTINUOUS
66
1
62
7
10
0.0
20
0.0
30
0.000000
0
VERTEX
8
0
10
84.000000
20
327.000000
0
VERTEX
8
0
10
82.900000
20
326.200000
0
VERTEX
8
0
10
68.000000
20
320.000000
0
VERTEX
8
0
10
66.000000
20
318.000000
0
VERTEX
8
0
10
68.000000
20
317.000000
0
VERTEX
8
0
10
70.000000
20
315.000000
0
VERTEX
8
0
10
67.769231
20
312.153846
0
VERTEX
8
0
10
61.000000
20
301.000000
0
VERTEX
8
0
10
62.000000
20
300.000000
0
VERTEX
8
0
10
64.100000
20
300.800000
0
VERTEX
8
0
10
65.000000
20
301.000000
0
SEQEND
0
POLYLINE
8
0
6
CONTINUOUS
66
1
62
7
10
0.0
20
0.0
30
0.000000
0
VERTEX
8
0
10
66.000000
20
300.000000
0
VERTEX
8
0
10
65.000000
20
301.000000
0
SEQEND
0
POLYLINE
8
0
6
CONTINUOUS
66
1
62
7
10
0.0
20
0.0
30
0.000000
0
VERTEX
8
0
10
66.000000
20
300.000000
0
VERTEX
8
0
10
67.000000
20
302.000000
0
SEQEND
0
POLYLINE
8
0
6
CONTINUOUS
66
1
62
7
10
0.0
20
0.0
30
0.000000
0
VERTEX
8
0
10
566.000000
20
302.000000
0
VERTEX
8
0
10
571.000000
20
300.000000
0
VERTEX
8
0
10
572.000000
20
301.000000
0
VERTEX
8
0
10
569.760000
20
305.820000
0
VERTEX
8
0
10
563.000000
20
315.000000
0
VERTEX
8
0
10
567.000000
20
318.000000
0
VERTEX
8
0
10
566.000000
20
320.000000
0
VERTEX
8
0
10
552.000000
20
325.000000
0
VERTEX
8
0
10
550.000000
20
327.000000
0
VERTEX
8
0
10
550.000000
20
328.000000
0
VERTEX
8
0
10
562.900000
20
335.200000
0
VERTEX
8
0
10
566.000000
20
337.000000
0
VERTEX
8
0
10
566.200000
20
337.900000
0
VERTEX
8
0
10
568.000000
20
341.000000
0
VERTEX
8
0
10
564.000000
20
343.000000
0
VERTEX
8
0
10
568.800000
20
353.100000
0
VERTEX
8
0
10
570.800000
20
357.100000
0
VERTEX
8
0
10
572.000000
20
360.000000
0
VERTEX
8
0
10
571.000000
20
361.000000
0
VERTEX
8
0
10
568.000000
20
359.000000
0
VERTEX
8
0
10
567.000000
20
359.000000
0
SEQEND
0
POLYLINE
8
0
6
CONTINUOUS
66
1
62
7
10
0.0
20
0.0
30
0.000000
0
VERTEX
8
0
10
471.000000
20
226.000000
0
VERTEX
8
0
10
468.800000
20
229.900000
0
VERTEX
8
0
10
462.384615
20
245.076923
0
VERTEX
8
0
10
460.615385
20
253.923077
0
VERTEX
8
0
10
460.000000
20
255.000000
0
VERTEX
8
0
10
460.000000
20
271.000000
0
VERTEX
8
0
10
462.300000
20
280.900000
0
VERTEX
8
0
10
462.700000
20
282.100000
0
VERTEX
8
0
10
466.230769
20
290.846154
0
VERTEX
8
0
10
472.800000
20
301.100000
0
VERTEX
8
0
10
479.248869
20
309.773756
0
VERTEX
8
0
10
494.752941
20
327.211765
0
VERTEX
8
0
10
498.700000
20
334.100000
0
VERTEX
8
0
10
499.300000
20
335.900000
0
VERTEX
8
0
10
500.000000
20
337.000000
0
VERTEX
8
0
10
500.000000
20
345.000000
0
VERTEX
8
0
10
479.800000
20
372.900000
0
VERTEX
8
0
10
477.230769
20
377.153846
0
VERTEX
8
0
10
474.300000
20
385.100000
0
VERTEX
8
0
10
472.800000
20
388.900000
0
VERTEX
8
0
10
471.000000
20
396.000000
0
VERTEX
8
0
10
471.000000
20
412.000000
0
VERTEX
8
0
10
473.300000
20
418.900000
0
VERTEX
8
0
10
473.800000
20
420.100000
0
VERTEX
8
0
10
482.000000
20
433.000000
0
VERTEX
8
0
10
487.000000
20
438.000000
0
VERTEX
8
0
10
494.180000
20
442.760000
0
VERTEX
8
0
10
494.846154
20
443.230769
0
VERTEX
8
0
10
499.000000
20
446.000000
0
VERTEX
8
0
10
499.000000
20
447.000000
0
VERTEX
8
0
10
494.100000
20
449.300000
0
VERTEX
8
0
10
492.900000
20
449.800000
0
VERTEX
8
0
10
484.000000
20
455.000000
0
VERTEX
8
0
10
478.000000
20
464.000000
0
VERTEX
8
0
10
478.000000
20
468.000000
0
VERTEX
8
0
10
480.300000
20
473.900000
0
VERTEX
8
0
10
481.000000
20
476.000000
0
VERTEX
8
0
10
478.000000
20
479.000000
0
VERTEX
8
0
10
477.000000
20
479.000000
0
VERTEX
8
0
10
473.000000
20
483.000000
0
VERTEX
8
0
10
465.200000
20
493.100000
0
VERTEX
8
0
10
460.400000
20
500.200000
0
VERTEX
8
0
10
453.405405
20
517.067568
0
VERTEX
8
0
10
452.594595
20
521.932432
0
VERTEX
8
0
10
451.464602
20
529.030973
0
VERTEX
8
0
10
451.000000
20
543.000000
0
VERTEX
8
0
10
450.000000
20
544.000000
0
VERTEX
8
0
10
447.900000
20
543.300000
0
VERTEX
8
0
10
442.100000
20
540.800000
0
VERTEX
8
0
10
430.000000
20
536.000000
0
VERTEX
8
0
10
415.000000
20
536.000000
0
VERTEX
8
0
10
389.088235
20
544.352941
0
VERTEX
8
0
10
381.976309
20
546.526185
0
VERTEX
8
0
10
363.000000
20
547.000000
0
VERTEX
8
0
10
362.000000
20
548.000000
0
VERTEX
8
0
10
363.000000
20
554.000000
0
VERTEX
8
0
10
370.000000
20
560.000000
0
VERTEX
8
0
10
382.000000
20
560.000000
0
VERTEX
8
0
10
388.000000
20
558.000000
0
VERTEX
8
0
10
389.000000
20
559.000000
0
VERTEX
8
0
10
388.647059
20
561.911765
0
VERTEX
8
0
10
388.000000
20
563.000000
0
VERTEX
8
0
10
388.000000
20
574.000000
0
VERTEX
8
0
10
389.647059
20
577.088235
0
VERTEX
8
0
10
390.352941
20
579.911765
0
VERTEX
8
0
10
407.300000
20
606.900000
0
VERTEX
8
0
10
409.000000
20
610.000000
0
VERTEX
8
0
10
409.000000
20
624.000000
0
VERTEX
8
0
10
407.647059
20
627.911765
0
VERTEX
8
0
10
407.000000
20
629.000000
0
VERTEX
8
0
10
409.000000
20
631.000000
0
VERTEX
8
0
10
411.000000
20
630.000000
0
VERTEX
8
0
10
416.000000
20
625.000000
0
VERTEX
8
0
10
420.000000
20
618.000000
0
VERTEX
8
0
10
420.000000
20
607.000000
0
VERTEX
8
0
10
418.700000
20
604.100000
0
VERTEX
8
0
10
418.000000
20
600.000000
0
VERTEX
8
0
10
419.000000
20
599.000000
0
VERTEX
8
0
10
421.000000
20
599.000000
0
VERTEX
8
0
10
431.900000
20
602.200000
0
VERTEX
8
0
10
433.100000
20
602.700000
0
VERTEX
8
0
10
442.000000
20
606.000000
0
VERTEX
8
0
10
444.000000
20
608.000000
0
VERTEX
8
0
10
444.000000
20
609.000000
0
VERTEX
8
0
10
433.000000
20
649.000000
0
VERTEX
8
0
10
431.000000
20
651.000000
0
VERTEX
8
0
10
430.000000
20
650.000000
0
VERTEX
8
0
10
431.750000
20
636.250000
0
VERTEX
8
0
10
431.000000
20
636.000000
0
VERTEX
8
0
10
430.000000
20
636.000000
0
VERTEX
8
0
10
420.000000
20
649.000000
0
VERTEX
8
0
10
417.000000
20
644.000000
0
VERTEX
8
0
10
413.000000
20
658.000000
0
VERTEX
8
0
10
404.000000
20
648.000000
0
VERTEX
8
0
10
402.800000
20
649.900000
0
VERTEX
8
0
10
401.750000
20
654.750000
0
VERTEX
8
0
10
396.067568
20
654.594595
0
VERTEX
8
0
10
387.088235
20
651.647059
0
VERTEX
8
0
10
383.000000
20
651.000000
0
VERTEX
8
0
10
382.000000
20
652.000000
0
VERTEX
8
0
10
390.000000
20
659.000000
0
SEQEND
0
POLYLINE
8
0
6
CONTINUOUS
66
1
62
7
10
0.0
20
0.0
30
0.000000
0
VERTEX
8
0
10
162.000000
20
225.000000
0
VERTEX
8
0
10
164.200000
20
229.900000
0
VERTEX
8
0
10
170.700000
20
244.100000
0
VERTEX
8
0
10
174.000000
20
262.000000
0
VERTEX
8
0
10
171.594595
20
277.932432
0
VERTEX
8
0
10
168.200000
20
287.100000
0
VERTEX
8
0
10
161.769231
20
299.846154
0
VERTEX
8
0
10
160.230769
20
302.153846
0
VERTEX
8
0
10
142.248276
20
323.220690
0
VERTEX
8
0
10
134.800000
20
333.900000
0
VERTEX
8
0
10
133.000000
20
337.000000
0
VERTEX
8
0
10
133.000000
20
345.000000
0
VERTEX
8
0
10
153.200000
20
372.900000
0
VERTEX
8
0
10
155.769231
20
377.153846
0
VERTEX
8
0
10
159.700000
20
388.100000
0
VERTEX
8
0
10
161.300000
20
392.900000
0
VERTEX
8
0
10
162.000000
20
394.000000
0
VERTEX
8
0
10
162.000000
20
411.000000
0
VERTEX
8
0
10
160.615385
20
415.923077
0
VERTEX
8
0
10
160.300000
20
417.100000
0
VERTEX
8
0
10
156.760000
20
425.820000
0
VERTEX
8
0
10
154.240000
20
429.180000
0
VERTEX
8
0
10
145.000000
20
439.000000
0
VERTEX
8
0
10
139.804878
20
442.756098
0
VERTEX
8
0
10
136.000000
20
445.000000
0
VERTEX
8
0
10
134.000000
20
447.000000
0
VERTEX
8
0
10
136.900000
20
448.300000
0
VERTEX
8
0
10
148.000000
20
454.000000
0
VERTEX
8
0
10
152.000000
20
458.000000
0
VERTEX
8
0
10
152.800000
20
460.100000
0
VERTEX
8
0
10
155.000000
20
464.000000
0
VERTEX
8
0
10
154.384615
20
469.076923
0
VERTEX
8
0
10
153.000000
20
476.000000
0
VERTEX
8
0
10
162.751131
20
486.226244
0
VERTEX
8
0
10
170.800000
20
498.100000
0
VERTEX
8
0
10
174.800000
20
505.100000
0
VERTEX
8
0
10
179.352941
20
516.911765
0
VERTEX
8
0
10
180.352941
20
520.911765
0
VERTEX
8
0
10
181.526185
20
525.023691
0
VERTEX
8
0
10
182.000000
20
544.000000
0
VERTEX
8
0
10
183.000000
20
545.000000
0
VERTEX
8
0
10
192.900000
20
539.800000
0
VERTEX
8
0
10
203.000000
20
536.000000
0
VERTEX
8
0
10
220.000000
20
536.000000
0
VERTEX
8
0
10
229.900000
20
540.200000
0
VERTEX
8
0
10
241.900000
20
544.200000
0
VERTEX
8
0
10
250.932432
20
546.405405
0
VERTEX
8
0
10
270.750000
20
548.250000
0
VERTEX
8
0
10
270.700000
20
550.900000
0
VERTEX
8
0
10
269.000000
20
556.000000
0
VERTEX
8
0
10
267.180000
20
557.240000
0
VERTEX
8
0
10
264.000000
20
560.000000
0
VERTEX
8
0
10
244.250000
20
559.250000
0
VERTEX
8
0
10
244.200000
20
560.900000
0
VERTEX
8
0
10
246.000000
20
570.000000
0
VERTEX
8
0
10
242.800000
20
579.900000
0
VERTEX
8
0
10
239.800000
20
584.900000
0
VERTEX
8
0
10
225.352941
20
608.088235
0
VERTEX
8
0
10
224.647059
20
610.911765
0
VERTEX
8
0
10
224.000000
20
612.000000
0
VERTEX
8
0
10
224.000000
20
625.000000
0
VERTEX
8
0
10
224.800000
20
626.100000
0
VERTEX
8
0
10
226.000000
20
630.000000
0
VERTEX
8
0
10
225.000000
20
631.000000
0
VERTEX
8
0
10
221.000000
20
629.000000
0
VERTEX
8
0
10
215.800000
20
623.100000
0
VERTEX
8
0
10
213.000000
20
617.000000
0
VERTEX
8
0
10
213.000000
20
609.000000
0
VERTEX
8
0
10
213.615385
20
607.923077
0
VERTEX
8
0
10
215.000000
20
600.000000
0
VERTEX
8
0
10
214.000000
20
599.000000
0
VERTEX
8
0
10
210.923077
20
599.615385
0
VERTEX
8
0
10
201.100000
20
602.300000
0
VERTEX
8
0
10
190.000000
20
607.000000
0
VERTEX
8
0
10
190.000000
20
615.000000
0
VERTEX
8
0
10
202.000000
20
650.000000
0
VERTEX
8
0
10
203.000000
20
649.000000
0
VERTEX
8
0
10
201.615385
20
641.076923
0
VERTEX
8
0
10
201.000000
20
640.000000
0
VERTEX
8
0
10
201.000000
20
637.000000
0
VERTEX
8
0
10
203.000000
20
636.000000
0
VERTEX
8
0
10
211.200000
20
645.900000
0
VERTEX
8
0
10
213.000000
20
649.000000
0
VERTEX
8
0
10
216.000000
20
645.000000
0
VERTEX
8
0
10
217.000000
20
645.000000
0
VERTEX
8
0
10
218.615385
20
651.076923
0
VERTEX
8
0
10
219.000000
20
655.000000
0
VERTEX
8
0
10
221.000000
20
657.000000
0
VERTEX
8
0
10
225.000000
20
653.000000
0
VERTEX
8
0
10
225.000000
20
652.000000
0
VERTEX
8
0
10
229.000000
20
648.000000
0
VERTEX
8
0
10
231.000000
20
650.000000
0
VERTEX
8
0
10
231.000000
20
654.000000
0
VERTEX
8
0
10
232.000000
20
655.000000
0
VERTEX
8
0
10
237.940000
20
654.580000
0
VERTEX
8
0
10
247.000000
20
651.000000
0
VERTEX
8
0
10
250.000000
20
651.000000
0
VERTEX
8
0
10
251.000000
20
653.000000
0
VERTEX
8
0
10
241.000000
20
660.000000
0
VERTEX
8
0
10
242.000000
20
661.000000
0
VERTEX
8
0
10
261.060000
20
653.420000
0
VERTEX
8
0
10
268.048780
20
652.439024
0
VERTEX
8
0
10
278.000000
20
651.000000
0
VERTEX
8
0
10
285.946154
20
652.430769
0
VERTEX
8
0
10
290.900000
20
654.200000
0
VERTEX
8
0
10
292.100000
20
654.700000
0
VERTEX
8
0
10
298.846154
20
658.230769
0
VERTEX
8
0
10
301.153846
20
659.769231
0
VERTEX
8
0
10
312.230769
20
670.846154
0
VERTEX
8
0
10
314.200000
20
673.900000
0
VERTEX
8
0
10
316.000000
20
677.000000
0
VERTEX
8
0
10
317.000000
20
677.000000
0
VERTEX
8
0
10
318.200000
20
675.100000
0
VERTEX
8
0
10
321.000000
20
670.000000
0
VERTEX
8
0
10
322.000000
20
670.000000
0
VERTEX
8
0
10
329.000000
20
662.000000
0
VERTEX
8
0
10
331.000000
20
660.000000
0
VERTEX
8
0
10
345.900000
20
652.700000
0
VERTEX
8
0
10
347.060000
20
652.420000
0
VERTEX
8
0
10
358.000000
20
651.000000
0
VERTEX
8
0
10
366.951220
20
652.439024
0
VERTEX
8
0
10
382.911765
20
657.352941
0
VERTEX
8
0
10
389.000000
20
660.000000
0
SEQEND
0
POLYLINE
8
0
6
CONTINUOUS
66
1
62
7
10
0.0
20
0.0
30
0.000000
0
VERTEX
8
0
10
470.000000
20
225.000000
0
VERTEX
8
0
10
471.000000
20
226.000000
0
SEQEND
0
POLYLINE
8
0
6
CONTINUOUS
66
1
62
7
10
0.0
20
0.0
30
0.000000
0
VERTEX
8
0
10
163.000000
20
224.000000
0
VERTEX
8
0
10
162.000000
20
225.000000
0
SEQEND
0
POLYLINE
8
0
6
CONTINUOUS
66
1
62
7
10
0.0
20
0.0
30
0.000000
0
VERTEX
8
0
10
162.000000
20
225.000000
0
VERTEX
8
0
10
161.000000
20
224.000000
0
VERTEX
8
0
10
162.000000
20
223.000000
0
VERTEX
8
0
10
163.000000
20
224.000000
0
SEQEND
0
POLYLINE
8
0
6
CONTINUOUS
66
1
62
7
10
0.0
20
0.0
30
0.000000
0
VERTEX
8
0
10
470.000000
20
225.000000
0
VERTEX
8
0
10
471.000000
20
223.000000
0
VERTEX
8
0
10
472.000000
20
225.000000
0
VERTEX
8
0
10
471.000000
20
226.000000
0
SEQEND
0
POLYLINE
8
0
6
CONTINUOUS
66
1
62
7
10
0.0
20
0.0
30
0.000000
0
VERTEX
8
0
10
170.000000
20
214.000000
0
VERTEX
8
0
10
167.000000
20
216.000000
0
VERTEX
8
0
10
170.000000
20
228.000000
0
VERTEX
8
0
10
169.000000
20
229.000000
0
VERTEX
8
0
10
167.195122
20
227.756098
0
VERTEX
8
0
10
163.000000
20
224.000000
0
SEQEND
0
POLYLINE
8
0
6
CONTINUOUS
66
1
62
7
10
0.0
20
0.0
30
0.000000
0
VERTEX
8
0
10
171.000000
20
214.000000
0
VERTEX
8
0
10
170.000000
20
214.000000
0
SEQEND
0
POLYLINE
8
0
6
CONTINUOUS
66
1
62
7
10
0.0
20
0.0
30
0.000000
0
VERTEX
8
0
10
482.000000
20
199.000000
0
VERTEX
8
0
10
475.900000
20
203.800000
0
VERTEX
8
0
10
469.000000
20
208.000000
0
VERTEX
8
0
10
463.000000
20
214.000000
0
VERTEX
8
0
10
465.000000
20
215.000000
0
VERTEX
8
0
10
466.000000
20
216.000000
0
VERTEX
8
0
10
463.647059
20
223.911765
0
VERTEX
8
0
10
463.000000
20
229.000000
0
VERTEX
8
0
10
464.000000
20
230.000000
0
VERTEX
8
0
10
467.846154
20
226.769231
0
VERTEX
8
0
10
470.000000
20
225.000000
0
SEQEND
0
POLYLINE
8
0
6
CONTINUOUS
66
1
62
7
10
0.0
20
0.0
30
0.000000
0
VERTEX
8
0
10
483.000000
20
199.000000
0
VERTEX
8
0
10
482.000000
20
199.000000
0
SEQEND
0
POLYLINE
8
0
6
CONTINUOUS
66
1
62
7
10
0.0
20
0.0
30
0.000000
0
VERTEX
8
0
10
98.000000
20
195.000000
0
VERTEX
8
0
10
111.000000
20
205.000000
0
VERTEX
8
0
10
120.769231
20
221.153846
0
VERTEX
8
0
10
121.230769
20
221.846154
0
VERTEX
8
0
10
124.000000
20
226.000000
0
VERTEX
8
0
10
125.900000
20
224.800000
0
VERTEX
8
0
10
130.000000
20
222.000000
0
VERTEX
8
0
10
135.000000
20
212.000000
0
VERTEX
8
0
10
141.200000
20
220.900000
0
VERTEX
8
0
10
146.200000
20
230.900000
0
VERTEX
8
0
10
148.531034
20
236.027586
0
VERTEX
8
0
10
150.000000
20
257.000000
0
VERTEX
8
0
10
152.000000
20
259.000000
0
VERTEX
8
0
10
157.100000
20
257.300000
0
VERTEX
8
0
10
158.900000
20
256.700000
0
VERTEX
8
0
10
160.000000
20
256.000000
0
VERTEX
8
0
10
162.000000
20
258.000000
0
VERTEX
8
0
10
162.000000
20
265.000000
0
VERTEX
8
0
10
160.200000
20
268.100000
0
VERTEX
8
0
10
158.000000
20
273.000000
0
VERTEX
8
0
10
149.820000
20
279.760000
0
VERTEX
8
0
10
136.900000
20
283.800000
0
VERTEX
8
0
10
136.000000
20
284.000000
0
VERTEX
8
0
10
134.000000
20
286.000000
0
VERTEX
8
0
10
134.000000
20
287.000000
0
VERTEX
8
0
10
139.000000
20
294.000000
0
VERTEX
8
0
10
143.000000
20
296.000000
0
VERTEX
8
0
10
144.000000
20
297.000000
0
VERTEX
8
0
10
143.000000
20
299.000000
0
VERTEX
8
0
10
135.932432
20
302.594595
0
VERTEX
8
0
10
130.000000
20
304.000000
0
VERTEX
8
0
10
120.932432
20
303.405405
0
VERTEX
8
0
10
114.911765
20
302.352941
0
VERTEX
8
0
10
106.000000
20
299.000000
0
VERTEX
8
0
10
103.200000
20
294.900000
0
VERTEX
8
0
10
99.000000
20
290.000000
0
VERTEX
8
0
10
95.000000
20
293.000000
0
VERTEX
8
0
10
93.000000
20
304.000000
0
VERTEX
8
0
10
92.000000
20
305.000000
0
VERTEX
8
0
10
91.000000
20
305.000000
0
VERTEX
8
0
10
86.000000
20
300.000000
0
VERTEX
8
0
10
83.240000
20
295.820000
0
VERTEX
8
0
10
80.647059
20
287.088235
0
VERTEX
8
0
10
80.000000
20
286.000000
0
VERTEX
8
0
10
80.000000
20
275.000000
0
VERTEX
8
0
10
82.200000
20
269.100000
0
VERTEX
8
0
10
84.000000
20
266.000000
0
VERTEX
8
0
10
81.000000
20
264.000000
0
VERTEX
8
0
10
78.000000
20
264.000000
0
VERTEX
8
0
10
71.100000
20
266.300000
0
VERTEX
8
0
10
70.000000
20
267.000000
0
VERTEX
8
0
10
68.000000
20
267.000000
0
VERTEX
8
0
10
67.000000
20
266.000000
0
VERTEX
8
0
10
71.200000
20
252.100000
0
VERTEX
8
0
10
79.000000
20
239.000000
0
VERTEX
8
0
10
83.900000
20
235.800000
0
VERTEX
8
0
10
85.100000
20
235.200000
0
VERTEX
8
0
10
97.000000
20
231.000000
0
VERTEX
8
0
10
103.000000
20
231.000000
0
VERTEX
8
0
10
111.750000
20
231.750000
0
VERTEX
8
0
10
112.000000
20
231.000000
0
VERTEX
8
0
10
110.000000
20
226.000000
0
VERTEX
8
0
10
103.000000
20
219.000000
0
VERTEX
8
0
10
100.900000
20
218.200000
0
VERTEX
8
0
10
100.000000
20
218.000000
0
VERTEX
8
0
10
98.300000
20
214.900000
0
VERTEX
8
0
10
98.000000
20
213.000000
0
VERTEX
8
0
10
96.000000
20
211.000000
0
VERTEX
8
0
10
92.000000
20
211.000000
0
VERTEX
8
0
10
91.000000
20
210.000000
0
VERTEX
8
0
10
94.647059
20
198.911765
0
VERTEX
8
0
10
95.000000
20
196.000000
0
VERTEX
8
0
10
96.000000
20
195.000000
0
VERTEX
8
0
10
98.000000
20
195.000000
0
SEQEND
0
POLYLINE
8
0
6
CONTINUOUS
66
1
62
7
10
0.0
20
0.0
30
0.000000
0
VERTEX
8
0
10
536.000000
20
194.000000
0
VERTEX
8
0
10
538.352941
20
198.911765
0
VERTEX
8
0
10
542.000000
20
210.000000
0
VERTEX
8
0
10
541.000000
20
211.000000
0
VERTEX
8
0
10
537.000000
20
211.000000
0
VERTEX
8
0
10
535.000000
20
213.000000
0
VERTEX
8
0
10
534.200000
20
216.100000
0
VERTEX
8
0
10
523.000000
20
227.000000
0
VERTEX
8
0
10
521.000000
20
231.000000
0
VERTEX
8
0
10
522.000000
20
232.000000
0
VERTEX
8
0
10
532.000000
20
232.000000
0
VERTEX
8
0
10
533.000000
20
231.000000
0
VERTEX
8
0
10
539.000000
20
231.000000
0
VERTEX
8
0
10
542.100000
20
232.700000
0
VERTEX
8
0
10
547.804878
20
235.243902
0
VERTEX
8
0
10
557.000000
20
243.000000
0
VERTEX
8
0
10
558.800000
20
247.100000
0
VERTEX
8
0
10
563.647059
20
257.088235
0
VERTEX
8
0
10
566.000000
20
265.000000
0
VERTEX
8
0
10
564.000000
20
267.000000
0
VERTEX
8
0
10
557.000000
20
264.000000
0
VERTEX
8
0
10
550.000000
20
264.000000
0
VERTEX
8
0
10
549.000000
20
265.000000
0
VERTEX
8
0
10
552.647059
20
274.088235
0
VERTEX
8
0
10
553.352941
20
276.911765
0
VERTEX
8
0
10
554.000000
20
278.000000
0
VERTEX
8
0
10
554.000000
20
286.000000
0
VERTEX
8
0
10
552.700000
20
288.900000
0
VERTEX
8
0
10
551.300000
20
292.100000
0
VERTEX
8
0
10
547.760000
20
298.820000
0
VERTEX
8
0
10
543.000000
20
305.000000
0
VERTEX
8
0
10
542.100000
20
305.200000
0
VERTEX
8
0
10
541.000000
20
306.000000
0
VERTEX
8
0
10
540.000000
20
305.000000
0
VERTEX
8
0
10
538.352941
20
295.911765
0
VERTEX
8
0
10
537.000000
20
291.000000
0
VERTEX
8
0
10
536.000000
20
290.000000
0
VERTEX
8
0
10
533.000000
20
290.000000
0
VERTEX
8
0
10
528.000000
20
298.000000
0
VERTEX
8
0
10
525.100000
20
300.200000
0
VERTEX
8
0
10
512.000000
20
304.000000
0
VERTEX
8
0
10
503.000000
20
304.000000
0
VERTEX
8
0
10
496.060000
20
302.580000
0
VERTEX
8
0
10
491.100000
20
299.800000
0
VERTEX
8
0
10
488.000000
20
298.000000
0
VERTEX
8
0
10
490.846154
20
295.769231
0
VERTEX
8
0
10
494.000000
20
294.000000
0
VERTEX
8
0
10
499.000000
20
287.000000
0
VERTEX
8
0
10
499.000000
20
286.000000
0
VERTEX
8
0
10
496.100000
20
283.800000
0
VERTEX
8
0
10
483.900000
20
280.200000
0
VERTEX
8
0
10
481.100000
20
278.800000
0
VERTEX
8
0
10
477.000000
20
276.000000
0
VERTEX
8
0
10
473.800000
20
271.100000
0
VERTEX
8
0
10
471.420000
20
263.940000
0
VERTEX
8
0
10
471.250000
20
257.250000
0
VERTEX
8
0
10
481.000000
20
259.000000
0
VERTEX
8
0
10
483.000000
20
257.000000
0
VERTEX
8
0
10
484.594595
20
240.932432
0
VERTEX
8
0
10
487.300000
20
229.100000
0
VERTEX
8
0
10
487.800000
20
227.900000
0
VERTEX
8
0
10
495.000000
20
215.000000
0
VERTEX
8
0
10
497.000000
20
213.000000
0
VERTEX
8
0
10
498.000000
20
213.000000
0
VERTEX
8
0
10
499.230769
20
214.846154
0
VERTEX
8
0
10
501.200000
20
217.900000
0
VERTEX
8
0
10
505.000000
20
224.000000
0
VERTEX
8
0
10
505.900000
20
224.200000
0
VERTEX
8
0
10
509.000000
20
226.000000
0
VERTEX
8
0
10
510.000000
20
225.000000
0
VERTEX
8
0
10
518.000000
20
210.000000
0
VERTEX
8
0
10
536.000000
20
194.000000
0
SEQEND
0
POLYLINE
8
0
6
CONTINUOUS
66
1
62
7
10
0.0
20
0.0
30
0.000000
0
VERTEX
8
0
10
209.000000
20
168.000000
0
VERTEX
8
0
10
210.000000
20
169.000000
0
SEQEND
0
POLYLINE
8
0
6
CONTINUOUS
66
1
62
7
10
0.0
20
0.0
30
0.000000
0
VERTEX
8
0
10
209.000000
20
168.000000
0
VERTEX
8
0
10
210.000000
20
167.000000
0
VERTEX
8
0
10
211.000000
20
168.000000
0
VERTEX
8
0
10
210.000000
20
169.000000
0
SEQEND
0
POLYLINE
8
0
6
CONTINUOUS
66
1
62
7
10
0.0
20
0.0
30
0.000000
0
VERTEX
8
0
10
558.000000
20
153.000000
0
VERTEX
8
0
10
558.000000
20
154.000000
0
SEQEND
0
POLYLINE
8
0
6
CONTINUOUS
66
1
62
7
10
0.0
20
0.0
30
0.000000
0
VERTEX
8
0
10
72.000000
20
151.000000
0
VERTEX
8
0
10
73.000000
20
152.000000
0
SEQEND
0
POLYLINE
8
0
6
CONTINUOUS
66
1
62
7
10
0.0
20
0.0
30
0.000000
0
VERTEX
8
0
10
74.000000
20
151.000000
0
VERTEX
8
0
10
73.000000
20
152.000000
0
SEQEND
0
POLYLINE
8
0
6
CONTINUOUS
66
1
62
7
10
0.0
20
0.0
30
0.000000
0
VERTEX
8
0
10
71.000000
20
150.000000
0
VERTEX
8
0
10
72.000000
20
151.000000
0
SEQEND
0
POLYLINE
8
0
6
CONTINUOUS
66
1
62
7
10
0.0
20
0.0
30
0.000000
0
VERTEX
8
0
10
73.000000
20
150.000000
0
VERTEX
8
0
10
72.000000
20
151.000000
0
SEQEND
0
POLYLINE
8
0
6
CONTINUOUS
66
1
62
7
10
0.0
20
0.0
30
0.000000
0
VERTEX
8
0
10
73.000000
20
150.000000
0
VERTEX
8
0
10
74.000000
20
151.000000
0
SEQEND
0
POLYLINE
8
0
6
CONTINUOUS
66
1
62
7
10
0.0
20
0.0
30
0.000000
0
VERTEX
8
0
10
72.000000
20
149.000000
0
VERTEX
8
0
10
71.000000
20
150.000000
0
SEQEND
0
POLYLINE
8
0
6
CONTINUOUS
66
1
62
7
10
0.0
20
0.0
30
0.000000
0
VERTEX
8
0
10
72.000000
20
149.000000
0
VERTEX
8
0
10
73.000000
20
150.000000
0
SEQEND
0
POLYLINE
8
0
6
CONTINUOUS
66
1
62
7
10
0.0
20
0.0
30
0.000000
0
VERTEX
8
0
10
70.000000
20
148.000000
0
VERTEX
8
0
10
71.000000
20
150.000000
0
SEQEND
0
POLYLINE
8
0
6
CONTINUOUS
66
1
62
7
10
0.0
20
0.0
30
0.000000
0
VERTEX
8
0
10
70.000000
20
148.000000
0
VERTEX
8
0
10
72.000000
20
149.000000
0
SEQEND
0
POLYLINE
8
0
6
CONTINUOUS
66
1
62
7
10
0.0
20
0.0
30
0.000000
0
VERTEX
8
0
10
68.000000
20
146.000000
0
VERTEX
8
0
10
70.000000
20
148.000000
0
SEQEND
0
POLYLINE
8
0
6
CONTINUOUS
66
1
62
7
10
0.0
20
0.0
30
0.000000
0
VERTEX
8
0
10
564.000000
20
146.000000
0
VERTEX
8
0
10
558.000000
20
152.000000
0
VERTEX
8
0
10
558.000000
20
153.000000
0
SEQEND
0
POLYLINE
8
0
6
CONTINUOUS
66
1
62
7
10
0.0
20
0.0
30
0.000000
0
VERTEX
8
0
10
209.000000
20
168.000000
0
VERTEX
8
0
10
205.900000
20
168.800000
0
VERTEX
8
0
10
193.900000
20
177.200000
0
VERTEX
8
0
10
189.180000
20
173.760000
0
VERTEX
8
0
10
184.000000
20
170.000000
0
VERTEX
8
0
10
201.900000
20
156.800000
0
VERTEX
8
0
10
215.053846
20
152.430769
0
VERTEX
8
0
10
222.000000
20
152.000000
0
VERTEX
8
0
10
223.000000
20
151.000000
0
VERTEX
8
0
10
216.800000
20
141.100000
0
VERTEX
8
0
10
216.000000
20
140.000000
0
VERTEX
8
0
10
218.900000
20
138.700000
0
VERTEX
8
0
10
220.000000
20
138.000000
0
VERTEX
8
0
10
228.067568
20
138.594595
0
VERTEX
8
0
10
232.932432
20
139.405405
0
VERTEX
8
0
10
237.900000
20
142.200000
0
VERTEX
8
0
10
239.100000
20
142.800000
0
VERTEX
8
0
10
244.000000
20
147.000000
0
VERTEX
8
0
10
248.647059
20
155.088235
0
VERTEX
8
0
10
250.000000
20
162.000000
0
VERTEX
8
0
10
249.352941
20
163.088235
0
VERTEX
8
0
10
248.000000
20
169.000000
0
VERTEX
8
0
10
245.000000
20
172.000000
0
VERTEX
8
0
10
244.000000
20
172.000000
0
VERTEX
8
0
10
237.000000
20
179.000000
0
VERTEX
8
0
10
237.000000
20
180.000000
0
VERTEX
8
0
10
240.000000
20
183.000000
0
VERTEX
8
0
10
254.750000
20
183.250000
0
VERTEX
8
0
10
255.000000
20
184.000000
0
VERTEX
8
0
10
250.000000
20
194.000000
0
VERTEX
8
0
10
248.000000
20
196.000000
0
VERTEX
8
0
10
240.923077
20
199.615385
0
VERTEX
8
0
10
237.076923
20
200.384615
0
VERTEX
8
0
10
229.000000
20
201.000000
0
VERTEX
8
0
10
220.100000
20
197.800000
0
VERTEX
8
0
10
218.153846
20
196.769231
0
VERTEX
8
0
10
212.000000
20
192.000000
0
VERTEX
8
0
10
208.700000
20
185.100000
0
VERTEX
8
0
10
208.000000
20
184.000000
0
VERTEX
8
0
10
208.000000
20
175.000000
0
VERTEX
8
0
10
210.000000
20
169.000000
0
SEQEND
0
POLYLINE
8
0
6
CONTINUOUS
66
1
62
7
10
0.0
20
0.0
30
0.000000
0
VERTEX
8
0
10
416.000000
20
138.000000
0
VERTEX
8
0
10
418.000000
20
139.000000
0
VERTEX
8
0
10
419.000000
20
140.000000
0
VERTEX
8
0
10
417.000000
20
142.000000
0
VERTEX
8
0
10
416.000000
20
142.000000
0
VERTEX
8
0
10
411.800000
20
146.900000
0
VERTEX
8
0
10
411.000000
20
148.000000
0
VERTEX
8
0
10
411.000000
20
151.000000
0
VERTEX
8
0
10
412.000000
20
152.000000
0
VERTEX
8
0
10
417.940000
20
152.420000
0
VERTEX
8
0
10
429.900000
20
156.200000
0
VERTEX
8
0
10
431.100000
20
156.800000
0
VERTEX
8
0
10
443.000000
20
164.000000
0
VERTEX
8
0
10
449.000000
20
170.000000
0
VERTEX
8
0
10
443.180000
20
174.240000
0
VERTEX
8
0
10
439.100000
20
177.200000
0
VERTEX
8
0
10
424.000000
20
167.000000
0
VERTEX
8
0
10
423.000000
20
168.000000
0
VERTEX
8
0
10
426.000000
20
179.000000
0
VERTEX
8
0
10
424.615385
20
183.923077
0
VERTEX
8
0
10
421.000000
20
193.000000
0
VERTEX
8
0
10
419.000000
20
195.000000
0
VERTEX
8
0
10
412.900000
20
197.800000
0
VERTEX
8
0
10
404.000000
20
201.000000
0
VERTEX
8
0
10
395.923077
20
200.384615
0
VERTEX
8
0
10
392.076923
20
199.615385
0
VERTEX
8
0
10
386.000000
20
196.000000
0
VERTEX
8
0
10
380.800000
20
189.100000
0
VERTEX
8
0
10
378.000000
20
184.000000
0
VERTEX
8
0
10
379.000000
20
183.000000
0
VERTEX
8
0
10
393.100000
20
182.200000
0
VERTEX
8
0
10
394.000000
20
182.000000
0
VERTEX
8
0
10
396.000000
20
179.000000
0
VERTEX
8
0
10
396.000000
20
178.000000
0
VERTEX
8
0
10
394.180000
20
176.760000
0
VERTEX
8
0
10
386.000000
20
170.000000
0
VERTEX
8
0
10
384.352941
20
164.911765
0
VERTEX
8
0
10
383.000000
20
158.000000
0
VERTEX
8
0
10
389.000000
20
147.000000
0
VERTEX
8
0
10
397.200000
20
141.400000
0
VERTEX
8
0
10
404.088235
20
139.352941
0
VERTEX
8
0
10
406.911765
20
138.647059
0
VERTEX
8
0
10
416.000000
20
138.000000
0
SEQEND
0
POLYLINE
8
0
6
CONTINUOUS
66
1
62
7
10
0.0
20
0.0
30
0.000000
0
VERTEX
8
0
10
170.000000
20
214.000000
0
VERTEX
8
0
10
151.000000
20
199.000000
0
VERTEX
8
0
10
156.088235
20
196.352941
0
VERTEX
8
0
10
158.911765
20
195.647059
0
VERTEX
8
0
10
169.000000
20
191.000000
0
VERTEX
8
0
10
169.000000
20
190.000000
0
VERTEX
8
0
10
166.000000
20
187.000000
0
VERTEX
8
0
10
166.000000
20
182.000000
0
VERTEX
8
0
10
169.000000
20
179.000000
0
VERTEX
8
0
10
177.000000
20
174.000000
0
VERTEX
8
0
10
178.000000
20
174.000000
0
VERTEX
8
0
10
181.200000
20
182.900000
0
VERTEX
8
0
10
183.000000
20
186.000000
0
VERTEX
8
0
10
183.000000
20
188.000000
0
VERTEX
8
0
10
176.000000
20
193.000000
0
VERTEX
8
0
10
171.000000
20
199.000000
0
VERTEX
8
0
10
171.000000
20
201.000000
0
VERTEX
8
0
10
216.911765
20
211.352941
0
VERTEX
8
0
10
224.750000
20
213.250000
0
VERTEX
8
0
10
225.000000
20
214.000000
0
VERTEX
8
0
10
220.230769
20
223.153846
0
VERTEX
8
0
10
218.352941
20
228.088235
0
VERTEX
8
0
10
216.000000
20
238.000000
0
VERTEX
8
0
10
216.000000
20
241.000000
0
VERTEX
8
0
10
217.000000
20
242.000000
0
VERTEX
8
0
10
228.820000
20
230.760000
0
VERTEX
8
0
10
232.180000
20
228.240000
0
VERTEX
8
0
10
236.000000
20
226.000000
0
VERTEX
8
0
10
236.750000
20
226.250000
0
VERTEX
8
0
10
236.544828
20
237.962069
0
VERTEX
8
0
10
236.000000
20
239.000000
0
VERTEX
8
0
10
236.647059
20
243.088235
0
VERTEX
8
0
10
238.441176
20
248.735294
0
VERTEX
8
0
10
243.000000
20
255.000000
0
VERTEX
8
0
10
248.000000
20
257.000000
0
VERTEX
8
0
10
257.000000
20
257.000000
0
VERTEX
8
0
10
258.000000
20
256.000000
0
VERTEX
8
0
10
256.000000
20
255.000000
0
VERTEX
8
0
10
252.000000
20
251.000000
0
VERTEX
8
0
10
249.441176
20
246.735294
0
VERTEX
8
0
10
248.700000
20
245.100000
0
VERTEX
8
0
10
248.000000
20
244.000000
0
VERTEX
8
0
10
248.000000
20
235.000000
0
VERTEX
8
0
10
255.230769
20
218.153846
0
VERTEX
8
0
10
259.760000
20
211.820000
0
VERTEX
8
0
10
266.700000
20
198.900000
0
VERTEX
8
0
10
268.352941
20
193.088235
0
VERTEX
8
0
10
269.531034
20
183.972414
0
VERTEX
8
0
10
270.000000
20
168.000000
0
VERTEX
8
0
10
271.000000
20
167.000000
0
VERTEX
8
0
10
278.216814
20
173.752212
0
VERTEX
8
0
10
283.000000
20
177.000000
0
VERTEX
8
0
10
290.000000
20
177.000000
0
VERTEX
8
0
10
292.000000
20
176.000000
0
VERTEX
8
0
10
298.200000
20
169.100000
0
VERTEX
8
0
10
300.000000
20
166.000000
0
VERTEX
8
0
10
299.000000
20
165.000000
0
VERTEX
8
0
10
287.035294
20
164.541176
0
VERTEX
8
0
10
277.000000
20
160.000000
0
VERTEX
8
0
10
266.000000
20
149.000000
0
VERTEX
8
0
10
263.441176
20
144.735294
0
VERTEX
8
0
10
263.000000
20
143.000000
0
VERTEX
8
0
10
264.000000
20
142.000000
0
VERTEX
8
0
10
284.978351
20
141.523711
0
VERTEX
8
0
10
289.923077
20
140.615385
0
VERTEX
8
0
10
296.100000
20
139.200000
0
VERTEX
8
0
10
306.820000
20
133.760000
0
VERTEX
8
0
10
310.820000
20
130.760000
0
VERTEX
8
0
10
316.400000
20
127.200000
0
VERTEX
8
0
10
328.180000
20
134.760000
0
VERTEX
8
0
10
338.088235
20
139.647059
0
VERTEX
8
0
10
345.923077
20
141.384615
0
VERTEX
8
0
10
370.000000
20
142.000000
0
VERTEX
8
0
10
371.000000
20
143.000000
0
VERTEX
8
0
10
370.200000
20
144.100000
0
VERTEX
8
0
10
367.000000
20
149.000000
0
VERTEX
8
0
10
353.788235
20
160.752941
0
VERTEX
8
0
10
347.088235
20
164.352941
0
VERTEX
8
0
10
345.964706
20
164.541176
0
VERTEX
8
0
10
334.000000
20
165.000000
0
VERTEX
8
0
10
333.000000
20
166.000000
0
VERTEX
8
0
10
337.000000
20
173.000000
0
VERTEX
8
0
10
343.000000
20
177.000000
0
VERTEX
8
0
10
350.000000
20
177.000000
0
VERTEX
8
0
10
354.779310
20
173.751724
0
VERTEX
8
0
10
363.000000
20
166.000000
0
VERTEX
8
0
10
364.000000
20
167.000000
0
VERTEX
8
0
10
364.700000
20
194.100000
0
VERTEX
8
0
10
371.230769
20
207.846154
0
VERTEX
8
0
10
375.760000
20
214.180000
0
VERTEX
8
0
10
381.800000
20
226.100000
0
VERTEX
8
0
10
382.200000
20
226.900000
0
VERTEX
8
0
10
385.000000
20
234.000000
0
VERTEX
8
0
10
385.000000
20
245.000000
0
VERTEX
8
0
10
377.769231
20
253.846154
0
VERTEX
8
0
10
376.000000
20
256.000000
0
VERTEX
8
0
10
377.000000
20
257.000000
0
VERTEX
8
0
10
384.000000
20
257.000000
0
VERTEX
8
0
10
387.911765
20
255.647059
0
VERTEX
8
0
10
390.000000
20
255.000000
0
VERTEX
8
0
10
394.200000
20
250.100000
0
VERTEX
8
0
10
395.594595
20
246.932432
0
VERTEX
8
0
10
396.405405
20
242.067568
0
VERTEX
8
0
10
397.000000
20
236.000000
0
VERTEX
8
0
10
396.250000
20
226.250000
0
VERTEX
8
0
10
398.800000
20
226.400000
0
VERTEX
8
0
10
401.795082
20
228.245902
0
VERTEX
8
0
10
414.000000
20
239.000000
0
VERTEX
8
0
10
414.000000
20
240.000000
0
VERTEX
8
0
10
416.000000
20
242.000000
0
VERTEX
8
0
10
417.000000
20
241.000000
0
VERTEX
8
0
10
414.200000
20
227.900000
0
VERTEX
8
0
10
408.441176
20
215.735294
0
VERTEX
8
0
10
408.250000
20
213.250000
0
VERTEX
8
0
10
421.911765
20
209.647059
0
VERTEX
8
0
10
448.940000
20
203.580000
0
VERTEX
8
0
10
450.053846
20
203.430769
0
VERTEX
8
0
10
461.000000
20
202.000000
0
VERTEX
8
0
10
463.000000
20
200.000000
0
VERTEX
8
0
10
462.200000
20
198.900000
0
VERTEX
8
0
10
450.000000
20
186.000000
0
VERTEX
8
0
10
451.769231
20
183.846154
0
VERTEX
8
0
10
455.000000
20
174.000000
0
VERTEX
8
0
10
464.000000
20
179.000000
0
VERTEX
8
0
10
467.000000
20
182.000000
0
VERTEX
8
0
10
467.000000
20
187.000000
0
VERTEX
8
0
10
465.000000
20
189.000000
0
VERTEX
8
0
10
464.000000
20
189.000000
0
VERTEX
8
0
10
463.000000
20
190.000000
0
VERTEX
8
0
10
465.000000
20
192.000000
0
VERTEX
8
0
10
472.100000
20
194.700000
0
VERTEX
8
0
10
482.000000
20
199.000000
0
SEQEND
0
POLYLINE
8
0
6
CONTINUOUS
66
1
62
7
10
0.0
20
0.0
30
0.000000
0
VERTEX
8
0
10
198.000000
20
89.000000
0
VERTEX
8
0
10
199.000000
20
90.000000
0
SEQEND
0
POLYLINE
8
0
6
CONTINUOUS
66
1
62
7
10
0.0
20
0.0
30
0.000000
0
VERTEX
8
0
10
435.000000
20
89.000000
0
VERTEX
8
0
10
434.000000
20
90.000000
0
SEQEND
0
POLYLINE
8
0
6
CONTINUOUS
66
1
62
7
10
0.0
20
0.0
30
0.000000
0
VERTEX
8
0
10
74.000000
20
151.000000
0
VERTEX
8
0
10
82.180000
20
156.760000
0
VERTEX
8
0
10
93.000000
20
161.000000
0
VERTEX
8
0
10
100.000000
20
161.000000
0
VERTEX
8
0
10
106.940000
20
159.580000
0
VERTEX
8
0
10
122.900000
20
152.800000
0
VERTEX
8
0
10
140.900000
20
141.800000
0
VERTEX
8
0
10
148.076923
20
138.384615
0
VERTEX
8
0
10
158.940000
20
136.580000
0
VERTEX
8
0
10
163.000000
20
135.000000
0
VERTEX
8
0
10
164.000000
20
132.000000
0
VERTEX
8
0
10
161.000000
20
128.000000
0
VERTEX
8
0
10
147.000000
20
124.000000
0
VERTEX
8
0
10
145.000000
20
122.000000
0
VERTEX
8
0
10
150.000000
20
104.000000
0
VERTEX
8
0
10
150.000000
20
97.000000
0
VERTEX
8
0
10
147.000000
20
94.000000
0
VERTEX
8
0
10
132.000000
20
113.000000
0
VERTEX
8
0
10
128.820000
20
110.240000
0
VERTEX
8
0
10
117.100000
20
101.800000
0
VERTEX
8
0
10
113.000000
20
100.000000
0
VERTEX
8
0
10
109.900000
20
100.700000
0
VERTEX
8
0
10
108.000000
20
101.000000
0
VERTEX
8
0
10
104.000000
20
105.000000
0
VERTEX
8
0
10
114.000000
20
113.000000
0
VERTEX
8
0
10
114.230769
20
113.846154
0
VERTEX
8
0
10
118.000000
20
126.000000
0
VERTEX
8
0
10
118.000000
20
129.000000
0
VERTEX
8
0
10
114.700000
20
136.900000
0
VERTEX
8
0
10
112.000000
20
142.000000
0
VERTEX
8
0
10
107.153846
20
146.230769
0
VERTEX
8
0
10
101.000000
20
149.000000
0
VERTEX
8
0
10
95.000000
20
149.000000
0
VERTEX
8
0
10
91.088235
20
147.647059
0
VERTEX
8
0
10
80.000000
20
140.000000
0
VERTEX
8
0
10
76.000000
20
136.000000
0
VERTEX
8
0
10
73.352941
20
129.911765
0
VERTEX
8
0
10
72.250000
20
123.250000
0
VERTEX
8
0
10
73.900000
20
123.200000
0
VERTEX
8
0
10
75.000000
20
124.000000
0
VERTEX
8
0
10
85.000000
20
124.000000
0
VERTEX
8
0
10
87.000000
20
122.000000
0
VERTEX
8
0
10
87.000000
20
119.000000
0
VERTEX
8
0
10
82.000000
20
109.000000
0
VERTEX
8
0
10
82.000000
20
104.000000
0
VERTEX
8
0
10
84.300000
20
96.100000
0
VERTEX
8
0
10
84.700000
20
94.900000
0
VERTEX
8
0
10
89.000000
20
87.000000
0
VERTEX
8
0
10
95.000000
20
81.000000
0
VERTEX
8
0
10
96.000000
20
81.000000
0
VERTEX
8
0
10
98.300000
20
85.900000
0
VERTEX
8
0
10
99.200000
20
87.900000
0
VERTEX
8
0
10
101.000000
20
91.000000
0
VERTEX
8
0
10
106.000000
20
92.000000
0
VERTEX
8
0
10
108.240000
20
89.180000
0
VERTEX
8
0
10
114.000000
20
81.000000
0
VERTEX
8
0
10
116.900000
20
78.800000
0
VERTEX
8
0
10
121.153846
20
76.230769
0
VERTEX
8
0
10
126.088235
20
74.352941
0
VERTEX
8
0
10
132.911765
20
72.647059
0
VERTEX
8
0
10
138.000000
20
72.000000
0
VERTEX
8
0
10
142.000000
20
74.000000
0
VERTEX
8
0
10
140.647059
20
77.911765
0
VERTEX
8
0
10
139.000000
20
82.000000
0
VERTEX
8
0
10
139.800000
20
85.100000
0
VERTEX
8
0
10
142.000000
20
88.000000
0
VERTEX
8
0
10
157.000000
20
85.000000
0
VERTEX
8
0
10
169.088235
20
88.647059
0
VERTEX
8
0
10
174.000000
20
90.000000
0
VERTEX
8
0
10
178.000000
20
94.000000
0
VERTEX
8
0
10
176.300000
20
98.100000
0
VERTEX
8
0
10
175.700000
20
99.900000
0
VERTEX
8
0
10
174.000000
20
105.000000
0
VERTEX
8
0
10
175.000000
20
106.000000
0
VERTEX
8
0
10
185.060000
20
107.580000
0
VERTEX
8
0
10
190.940000
20
108.420000
0
VERTEX
8
0
10
207.846154
20
116.230769
0
VERTEX
8
0
10
212.900000
20
119.200000
0
VERTEX
8
0
10
220.000000
20
124.000000
0
VERTEX
8
0
10
220.000000
20
125.000000
0
VERTEX
8
0
10
214.100000
20
127.200000
0
VERTEX
8
0
10
199.204918
20
136.245902
0
VERTEX
8
0
10
190.000000
20
144.000000
0
VERTEX
8
0
10
188.000000
20
143.000000
0
VERTEX
8
0
10
187.200000
20
140.900000
0
VERTEX
8
0
10
183.000000
20
134.000000
0
VERTEX
8
0
10
178.000000
20
130.000000
0
VERTEX
8
0
10
176.000000
20
132.000000
0
VERTEX
8
0
10
177.000000
20
145.000000
0
VERTEX
8
0
10
173.800000
20
153.900000
0
VERTEX
8
0
10
173.200000
20
155.100000
0
VERTEX
8
0
10
169.000000
20
161.000000
0
VERTEX
8
0
10
162.000000
20
168.000000
0
VERTEX
8
0
10
157.000000
20
155.000000
0
VERTEX
8
0
10
156.000000
20
154.000000
0
VERTEX
8
0
10
153.760000
20
157.820000
0
VERTEX
8
0
10
145.000000
20
169.000000
0
VERTEX
8
0
10
134.100000
20
176.200000
0
VERTEX
8
0
10
129.000000
20
179.000000
0
VERTEX
8
0
10
128.000000
20
178.000000
0
VERTEX
8
0
10
126.000000
20
164.000000
0
VERTEX
8
0
10
123.000000
20
161.000000
0
VERTEX
8
0
10
122.000000
20
161.000000
0
VERTEX
8
0
10
119.000000
20
166.000000
0
VERTEX
8
0
10
112.000000
20
172.000000
0
VERTEX
8
0
10
101.000000
20
172.000000
0
VERTEX
8
0
10
87.204918
20
164.754098
0
VERTEX
8
0
10
73.000000
20
152.000000
0
SEQEND
0
POLYLINE
8
0
6
CONTINUOUS
66
1
62
7
10
0.0
20
0.0
30
0.000000
0
VERTEX
8
0
10
558.000000
20
154.000000
0
VERTEX
8
0
10
551.788235
20
159.752941
0
VERTEX
8
0
10
539.820000
20
168.760000
0
VERTEX
8
0
10
527.000000
20
173.000000
0
VERTEX
8
0
10
523.000000
20
173.000000
0
VERTEX
8
0
10
519.000000
20
171.000000
0
VERTEX
8
0
10
514.000000
20
166.000000
0
VERTEX
8
0
10
512.230769
20
162.846154
0
VERTEX
8
0
10
512.000000
20
162.000000
0
VERTEX
8
0
10
510.000000
20
161.000000
0
VERTEX
8
0
10
507.000000
20
163.000000
0
VERTEX
8
0
10
506.000000
20
178.000000
0
VERTEX
8
0
10
505.000000
20
179.000000
0
VERTEX
8
0
10
502.100000
20
177.700000
0
VERTEX
8
0
10
500.900000
20
177.200000
0
VERTEX
8
0
10
490.000000
20
170.000000
0
VERTEX
8
0
10
484.000000
20
164.000000
0
VERTEX
8
0
10
477.000000
20
154.000000
0
VERTEX
8
0
10
474.800000
20
156.900000
0
VERTEX
8
0
10
472.000000
20
168.000000
0
VERTEX
8
0
10
469.000000
20
166.000000
0
VERTEX
8
0
10
462.760000
20
159.180000
0
VERTEX
8
0
10
460.240000
20
155.820000
0
VERTEX
8
0
10
456.000000
20
146.000000
0
VERTEX
8
0
10
457.000000
20
132.000000
0
VERTEX
8
0
10
455.000000
20
130.000000
0
VERTEX
8
0
10
453.000000
20
131.000000
0
VERTEX
8
0
10
449.800000
20
134.900000
0
VERTEX
8
0
10
448.800000
20
136.900000
0
VERTEX
8
0
10
445.000000
20
144.000000
0
VERTEX
8
0
10
444.000000
20
144.000000
0
VERTEX
8
0
10
433.180000
20
135.760000
0
VERTEX
8
0
10
422.900000
20
129.200000
0
VERTEX
8
0
10
415.000000
20
126.000000
0
VERTEX
8
0
10
414.000000
20
124.000000
0
VERTEX
8
0
10
423.900000
20
116.800000
0
VERTEX
8
0
10
443.067568
20
108.405405
0
VERTEX
8
0
10
459.000000
20
106.000000
0
VERTEX
8
0
10
460.000000
20
105.000000
0
VERTEX
8
0
10
457.800000
20
101.100000
0
VERTEX
8
0
10
455.000000
20
94.000000
0
VERTEX
8
0
10
456.000000
20
92.000000
0
VERTEX
8
0
10
463.900000
20
88.700000
0
VERTEX
8
0
10
476.000000
20
85.000000
0
VERTEX
8
0
10
482.067568
20
85.594595
0
VERTEX
8
0
10
491.000000
20
87.000000
0
VERTEX
8
0
10
494.000000
20
83.000000
0
VERTEX
8
0
10
493.300000
20
80.900000
0
VERTEX
8
0
10
492.300000
20
77.900000
0
VERTEX
8
0
10
491.000000
20
74.000000
0
VERTEX
8
0
10
493.000000
20
72.000000
0
VERTEX
8
0
10
501.000000
20
72.000000
0
VERTEX
8
0
10
511.900000
20
76.300000
0
VERTEX
8
0
10
513.820000
20
77.240000
0
VERTEX
8
0
10
521.000000
20
83.000000
0
VERTEX
8
0
10
523.760000
20
87.180000
0
VERTEX
8
0
10
529.000000
20
93.000000
0
VERTEX
8
0
10
534.000000
20
89.000000
0
VERTEX
8
0
10
534.800000
20
86.900000
0
VERTEX
8
0
10
536.200000
20
84.100000
0
VERTEX
8
0
10
538.000000
20
81.000000
0
VERTEX
8
0
10
544.000000
20
87.000000
0
VERTEX
8
0
10
548.647059
20
96.088235
0
VERTEX
8
0
10
551.000000
20
106.000000
0
VERTEX
8
0
10
546.000000
20
121.000000
0
VERTEX
8
0
10
546.000000
20
122.000000
0
VERTEX
8
0
10
548.000000
20
124.000000
0
VERTEX
8
0
10
558.000000
20
124.000000
0
VERTEX
8
0
10
560.000000
20
123.000000
0
VERTEX
8
0
10
561.000000
20
124.000000
0
VERTEX
8
0
10
559.200000
20
130.100000
0
VERTEX
8
0
10
556.000000
20
137.000000
0
VERTEX
8
0
10
547.000000
20
146.000000
0
VERTEX
8
0
10
537.000000
20
149.000000
0
VERTEX
8
0
10
530.000000
20
149.000000
0
VERTEX
8
0
10
528.153846
20
147.769231
0
VERTEX
8
0
10
525.000000
20
146.000000
0
VERTEX
8
0
10
521.769231
20
141.153846
0
VERTEX
8
0
10
519.800000
20
138.100000
0
VERTEX
8
0
10
515.000000
20
126.000000
0
VERTEX
8
0
10
515.000000
20
124.000000
0
VERTEX
8
0
10
518.200000
20
115.100000
0
VERTEX
8
0
10
518.800000
20
113.900000
0
VERTEX
8
0
10
522.000000
20
110.000000
0
VERTEX
8
0
10
527.000000
20
107.000000
0
VERTEX
8
0
10
529.000000
20
105.000000
0
VERTEX
8
0
10
525.000000
20
101.000000
0
VERTEX
8
0
10
522.000000
20
100.000000
0
VERTEX
8
0
10
519.000000
20
100.000000
0
VERTEX
8
0
10
516.200000
20
101.400000
0
VERTEX
8
0
10
501.000000
20
113.000000
0
VERTEX
8
0
10
495.000000
20
107.000000
0
VERTEX
8
0
10
492.240000
20
102.820000
0
VERTEX
8
0
10
491.769231
20
102.153846
0
VERTEX
8
0
10
486.000000
20
94.000000
0
VERTEX
8
0
10
483.000000
20
97.000000
0
VERTEX
8
0
10
483.000000
20
105.000000
0
VERTEX
8
0
10
487.352941
20
120.911765
0
VERTEX
8
0
10
488.000000
20
122.000000
0
VERTEX
8
0
10
486.000000
20
124.000000
0
VERTEX
8
0
10
478.911765
20
125.647059
0
VERTEX
8
0
10
474.900000
20
126.700000
0
VERTEX
8
0
10
473.000000
20
127.000000
0
VERTEX
8
0
10
470.000000
20
131.000000
0
VERTEX
8
0
10
470.000000
20
134.000000
0
VERTEX
8
0
10
472.000000
20
136.000000
0
VERTEX
8
0
10
482.088235
20
137.647059
0
VERTEX
8
0
10
492.100000
20
141.800000
0
VERTEX
8
0
10
513.100000
20
153.800000
0
VERTEX
8
0
10
523.100000
20
157.700000
0
VERTEX
8
0
10
524.900000
20
158.300000
0
VERTEX
8
0
10
533.000000
20
161.000000
0
VERTEX
8
0
10
543.000000
20
161.000000
0
VERTEX
8
0
10
547.900000
20
158.800000
0
VERTEX
8
0
10
558.000000
20
153.000000
0
SEQEND
0
POLYLINE
8
0
6
CONTINUOUS
66
1
62
7
10
0.0
20
0.0
30
0.000000
0
VERTEX
8
0
10
285.000000
20
69.000000
0
VERTEX
8
0
10
288.820000
20
71.240000
0
VERTEX
8
0
10
298.000000
20
78.000000
0
VERTEX
8
0
10
299.800000
20
82.100000
0
VERTEX
8
0
10
304.000000
20
93.000000
0
VERTEX
8
0
10
303.000000
20
106.000000
0
VERTEX
8
0
10
311.000000
20
109.000000
0
VERTEX
8
0
10
309.200000
20
112.100000
0
VERTEX
8
0
10
300.000000
20
122.000000
0
VERTEX
8
0
10
295.100000
20
125.200000
0
VERTEX
8
0
10
291.000000
20
127.000000
0
VERTEX
8
0
10
282.076923
20
125.615385
0
VERTEX
8
0
10
266.100000
20
118.800000
0
VERTEX
8
0
10
263.000000
20
117.500000
0
VERTEX
8
0
10
260.000000
20
119.000000
0
VERTEX
8
0
10
259.000000
20
127.000000
0
VERTEX
8
0
10
258.000000
20
128.000000
0
VERTEX
8
0
10
256.000000
20
127.000000
0
VERTEX
8
0
10
252.769231
20
123.153846
0
VERTEX
8
0
10
250.800000
20
120.100000
0
VERTEX
8
0
10
249.000000
20
117.000000
0
VERTEX
8
0
10
249.000000
20
112.000000
0
VERTEX
8
0
10
251.000000
20
109.000000
0
VERTEX
8
0
10
251.000000
20
107.000000
0
VERTEX
8
0
10
250.000000
20
106.000000
0
VERTEX
8
0
10
246.900000
20
106.800000
0
VERTEX
8
0
10
241.180000
20
110.240000
0
VERTEX
8
0
10
238.000000
20
113.000000
0
VERTEX
8
0
10
236.000000
20
111.000000
0
VERTEX
8
0
10
236.000000
20
100.000000
0
VERTEX
8
0
10
240.000000
20
93.000000
0
VERTEX
8
0
10
246.000000
20
89.000000
0
VERTEX
8
0
10
256.750000
20
89.750000
0
VERTEX
8
0
10
255.250000
20
77.250000
0
VERTEX
8
0
10
259.000000
20
76.000000
0
VERTEX
8
0
10
265.000000
20
76.000000
0
VERTEX
8
0
10
269.689655
20
77.724138
0
VERTEX
8
0
10
273.180000
20
79.760000
0
VERTEX
8
0
10
279.000000
20
84.000000
0
VERTEX
8
0
10
281.000000
20
83.000000
0
VERTEX
8
0
10
282.200000
20
81.100000
0
VERTEX
8
0
10
283.000000
20
80.000000
0
VERTEX
8
0
10
282.000000
20
71.000000
0
VERTEX
8
0
10
284.000000
20
69.000000
0
VERTEX
8
0
10
285.000000
20
69.000000
0
SEQEND
0
POLYLINE
8
0
6
CONTINUOUS
66
1
62
7
10
0.0
20
0.0
30
0.000000
0
VERTEX
8
0
10
351.000000
20
69.000000
0
VERTEX
8
0
10
351.000000
20
81.000000
0
VERTEX
8
0
10
354.000000
20
84.000000
0
VERTEX
8
0
10
355.000000
20
84.000000
0
VERTEX
8
0
10
359.195122
20
80.243902
0
VERTEX
8
0
10
368.000000
20
76.000000
0
VERTEX
8
0
10
377.000000
20
77.000000
0
VERTEX
8
0
10
377.750000
20
77.250000
0
VERTEX
8
0
10
377.615385
20
81.923077
0
VERTEX
8
0
10
377.352941
20
83.088235
0
VERTEX
8
0
10
376.000000
20
89.000000
0
VERTEX
8
0
10
377.000000
20
90.000000
0
VERTEX
8
0
10
387.000000
20
89.000000
0
VERTEX
8
0
10
392.000000
20
92.000000
0
VERTEX
8
0
10
398.000000
20
103.000000
0
VERTEX
8
0
10
397.000000
20
111.000000
0
VERTEX
8
0
10
396.000000
20
112.000000
0
VERTEX
8
0
10
387.900000
20
107.300000
0
VERTEX
8
0
10
383.000000
20
106.000000
0
VERTEX
8
0
10
382.000000
20
108.000000
0
VERTEX
8
0
10
384.000000
20
112.000000
0
VERTEX
8
0
10
384.000000
20
118.000000
0
VERTEX
8
0
10
382.000000
20
122.000000
0
VERTEX
8
0
10
375.000000
20
128.000000
0
VERTEX
8
0
10
374.000000
20
127.000000
0
VERTEX
8
0
10
373.000000
20
120.000000
0
VERTEX
8
0
10
371.000000
20
118.000000
0
VERTEX
8
0
10
357.100000
20
123.200000
0
VERTEX
8
0
10
350.000000
20
127.000000
0
VERTEX
8
0
10
344.000000
20
127.000000
0
VERTEX
8
0
10
341.100000
20
125.700000
0
VERTEX
8
0
10
339.900000
20
125.300000
0
VERTEX
8
0
10
336.180000
20
123.760000
0
VERTEX
8
0
10
332.000000
20
121.000000
0
VERTEX
8
0
10
326.760000
20
115.180000
0
VERTEX
8
0
10
324.240000
20
111.820000
0
VERTEX
8
0
10
323.000000
20
109.000000
0
VERTEX
8
0
10
323.250000
20
108.250000
0
VERTEX
8
0
10
330.000000
20
108.000000
0
VERTEX
8
0
10
330.750000
20
107.750000
0
VERTEX
8
0
10
329.580000
20
95.060000
0
VERTEX
8
0
10
329.000000
20
94.000000
0
VERTEX
8
0
10
329.000000
20
90.000000
0
VERTEX
8
0
10
329.800000
20
88.900000
0
VERTEX
8
0
10
337.000000
20
77.000000
0
VERTEX
8
0
10
341.000000
20
73.000000
0
VERTEX
8
0
10
351.000000
20
69.000000
0
SEQEND
0
POLYLINE
8
0
6
CONTINUOUS
66
1
62
7
10
0.0
20
0.0
30
0.000000
0
VERTEX
8
0
10
198.000000
20
89.000000
0
VERTEX
8
0
10
197.000000
20
80.000000
0
VERTEX
8
0
10
198.000000
20
79.000000
0
VERTEX
8
0
10
205.000000
20
81.000000
0
VERTEX
8
0
10
209.230769
20
72.153846
0
VERTEX
8
0
10
212.000000
20
67.000000
0
VERTEX
8
0
10
214.846154
20
64.769231
0
VERTEX
8
0
10
221.000000
20
62.000000
0
VERTEX
8
0
10
226.088235
20
62.647059
0
VERTEX
8
0
10
230.100000
20
63.700000
0
VERTEX
8
0
10
235.000000
20
66.000000
0
VERTEX
8
0
10
236.000000
20
68.000000
0
VERTEX
8
0
10
223.000000
20
77.000000
0
VERTEX
8
0
10
221.000000
20
85.000000
0
VERTEX
8
0
10
221.000000
20
96.000000
0
VERTEX
8
0
10
223.000000
20
103.000000
0
VERTEX
8
0
10
226.000000
20
106.000000
0
VERTEX
8
0
10
227.000000
20
105.000000
0
VERTEX
8
0
10
230.700000
20
92.900000
0
VERTEX
8
0
10
233.230769
20
85.153846
0
VERTEX
8
0
10
240.000000
20
76.000000
0
VERTEX
8
0
10
250.900000
20
65.800000
0
VERTEX
8
0
10
254.900000
20
63.800000
0
VERTEX
8
0
10
269.000000
20
60.000000
0
VERTEX
8
0
10
276.000000
20
60.000000
0
VERTEX
8
0
10
287.900000
20
63.300000
0
VERTEX
8
0
10
289.100000
20
63.800000
0
VERTEX
8
0
10
303.000000
20
73.000000
0
VERTEX
8
0
10
309.247788
20
79.783186
0
VERTEX
8
0
10
317.000000
20
89.000000
0
VERTEX
8
0
10
318.800000
20
85.900000
0
VERTEX
8
0
10
331.000000
20
72.000000
0
VERTEX
8
0
10
341.900000
20
64.800000
0
VERTEX
8
0
10
350.060000
20
61.420000
0
VERTEX
8
0
10
355.940000
20
60.580000
0
VERTEX
8
0
10
365.000000
20
60.000000
0
VERTEX
8
0
10
370.932432
20
61.405405
0
VERTEX
8
0
10
374.100000
20
62.700000
0
VERTEX
8
0
10
387.000000
20
69.000000
0
VERTEX
8
0
10
396.200000
20
78.900000
0
VERTEX
8
0
10
404.594595
20
97.067568
0
VERTEX
8
0
10
406.000000
20
106.000000
0
VERTEX
8
0
10
407.000000
20
107.000000
0
VERTEX
8
0
10
410.200000
20
102.100000
0
VERTEX
8
0
10
413.000000
20
92.000000
0
VERTEX
8
0
10
411.300000
20
80.900000
0
VERTEX
8
0
10
411.000000
20
79.000000
0
VERTEX
8
0
10
398.000000
20
68.000000
0
VERTEX
8
0
10
398.000000
20
66.000000
0
VERTEX
8
0
10
399.900000
20
64.800000
0
VERTEX
8
0
10
408.000000
20
62.000000
0
VERTEX
8
0
10
413.088235
20
62.647059
0
VERTEX
8
0
10
419.000000
20
65.000000
0
VERTEX
8
0
10
422.230769
20
69.846154
0
VERTEX
8
0
10
424.200000
20
72.900000
0
VERTEX
8
0
10
428.000000
20
81.000000
0
VERTEX
8
0
10
431.900000
20
79.800000
0
VERTEX
8
0
10
433.000000
20
79.000000
0
VERTEX
8
0
10
434.000000
20
79.000000
0
VERTEX
8
0
10
436.000000
20
81.000000
0
VERTEX
8
0
10
435.000000
20
89.000000
0
SEQEND
0
POLYLINE
8
0
6
CONTINUOUS
66
1
62
7
10
0.0
20
0.0
30
0.000000
0
VERTEX
8
0
10
66.000000
20
300.000000
0
VERTEX
8
0
10
58.800000
20
289.100000
0
VERTEX
8
0
10
54.352941
20
279.911765
0
VERTEX
8
0
10
53.647059
20
277.088235
0
VERTEX
8
0
10
51.000000
20
264.000000
0
VERTEX
8
0
10
51.000000
20
253.000000
0
VERTEX
8
0
10
52.420000
20
246.060000
0
VERTEX
8
0
10
53.300000
20
243.100000
0
VERTEX
8
0
10
62.000000
20
218.000000
0
VERTEX
8
0
10
62.000000
20
207.000000
0
VERTEX
8
0
10
60.594595
20
201.067568
0
VERTEX
8
0
10
56.000000
20
189.000000
0
VERTEX
8
0
10
59.000000
20
187.500000
0
VERTEX
8
0
10
62.900000
20
189.200000
0
VERTEX
8
0
10
66.100000
20
190.800000
0
VERTEX
8
0
10
75.000000
20
199.000000
0
VERTEX
8
0
10
77.000000
20
203.000000
0
VERTEX
8
0
10
79.240000
20
200.180000
0
VERTEX
8
0
10
85.200000
20
192.100000
0
VERTEX
8
0
10
84.769231
20
189.153846
0
VERTEX
8
0
10
74.243902
20
174.804878
0
VERTEX
8
0
10
64.769231
20
162.153846
0
VERTEX
8
0
10
59.800000
20
153.100000
0
VERTEX
8
0
10
55.615385
20
139.076923
0
VERTEX
8
0
10
54.594595
20
133.067568
0
VERTEX
8
0
10
54.000000
20
125.000000
0
VERTEX
8
0
10
55.430769
20
117.053846
0
VERTEX
8
0
10
57.800000
20
108.900000
0
VERTEX
8
0
10
60.800000
20
101.900000
0
VERTEX
8
0
10
69.247059
20
87.211765
0
VERTEX
8
0
10
82.000000
20
73.000000
0
VERTEX
8
0
10
96.100000
20
65.300000
0
VERTEX
8
0
10
99.900000
20
63.800000
0
VERTEX
8
0
10
109.040984
20
60.450820
0
VERTEX
8
0
10
118.959016
20
59.549180
0
VERTEX
8
0
10
132.000000
20
59.000000
0
VERTEX
8
0
10
152.100000
20
63.800000
0
VERTEX
8
0
10
157.100000
20
65.800000
0
VERTEX
8
0
10
174.846154
20
74.230769
0
VERTEX
8
0
10
198.000000
20
89.000000
0
SEQEND
0
POLYLINE
8
0
6
CONTINUOUS
66
1
62
7
10
0.0
20
0.0
30
0.000000
0
VERTEX
8
0
10
435.000000
20
89.000000
0
VERTEX
8
0
10
462.153846
20
71.230769
0
VERTEX
8
0
10
474.100000
20
66.200000
0
VERTEX
8
0
10
477.900000
20
64.700000
0
VERTEX
8
0
10
496.000000
20
59.000000
0
VERTEX
8
0
10
513.000000
20
59.000000
0
VERTEX
8
0
10
520.946154
20
60.430769
0
VERTEX
8
0
10
531.900000
20
63.200000
0
VERTEX
8
0
10
536.100000
20
64.800000
0
VERTEX
8
0
10
546.795082
20
70.245902
0
VERTEX
8
0
10
558.000000
20
80.000000
0
VERTEX
8
0
10
571.800000
20
99.100000
0
VERTEX
8
0
10
574.200000
20
104.900000
0
VERTEX
8
0
10
577.580000
20
117.060000
0
VERTEX
8
0
10
579.000000
20
124.000000
0
VERTEX
8
0
10
578.430769
20
136.053846
0
VERTEX
8
0
10
577.569231
20
142.946154
0
VERTEX
8
0
10
574.700000
20
151.900000
0
VERTEX
8
0
10
569.200000
20
162.100000
0
VERTEX
8
0
10
567.752212
20
164.783186
0
VERTEX
8
0
10
550.756098
20
183.804878
0
VERTEX
8
0
10
547.000000
20
188.000000
0
VERTEX
8
0
10
547.000000
20
191.000000
0
VERTEX
8
0
10
551.000000
20
197.000000
0
VERTEX
8
0
10
557.000000
20
203.000000
0
VERTEX
8
0
10
558.000000
20
202.000000
0
VERTEX
8
0
10
559.000000
20
199.000000
0
VERTEX
8
0
10
569.000000
20
189.000000
0
VERTEX
8
0
10
571.100000
20
188.200000
0
VERTEX
8
0
10
575.000000
20
187.000000
0
VERTEX
8
0
10
577.000000
20
189.000000
0
VERTEX
8
0
10
575.700000
20
191.900000
0
VERTEX
8
0
10
571.000000
20
204.000000
0
VERTEX
8
0
10
571.000000
20
213.000000
0
VERTEX
8
0
10
572.352941
20
216.911765
0
VERTEX
8
0
10
573.300000
20
219.900000
0
VERTEX
8
0
10
580.569231
20
245.053846
0
VERTEX
8
0
10
581.430769
20
251.946154
0
VERTEX
8
0
10
582.000000
20
264.000000
0
VERTEX
8
0
10
578.700000
20
277.900000
0
VERTEX
8
0
10
576.200000
20
283.100000
0
VERTEX
8
0
10
571.760000
20
291.820000
0
VERTEX
8
0
10
565.000000
20
301.000000
0
SEQEND
0
POLYLINE
8
0
6
CONTINUOUS
66
1
62
7
10
0.0
20
0.0
30
0.000000
0
VERTEX
8
0
10
608.000000
20
28.000000
0
VERTEX
8
0
10
608.000000
20
765.000000
0
VERTEX
8
0
10
607.000000
20
766.000000
0
VERTEX
8
0
10
26.000000
20
766.000000
0
VERTEX
8
0
10
25.000000
20
765.000000
0
VERTEX
8
0
10
25.250000
20
28.250000
0
VERTEX
8
0
10
607.000000
20
28.000000
0
VERTEX
8
0
10
608.000000
20
28.000000
0
SEQEND
0
POLYLINE
8
0
6
CONTINUOUS
66
1
62
7
10
0.0
20
0.0
30
0.000000
0
VERTEX
8
0
10
613.000000
20
6.000000
0
VERTEX
8
0
10
622.153846
20
10.769231
0
VERTEX
8
0
10
628.000000
20
16.000000
0
VERTEX
8
0
10
631.000000
20
24.000000
0
VERTEX
8
0
10
631.000000
20
770.000000
0
VERTEX
8
0
10
630.300000
20
771.100000
0
VERTEX
8
0
10
628.000000
20
778.000000
0
VERTEX
8
0
10
623.000000
20
783.000000
0
VERTEX
8
0
10
619.846154
20
784.769231
0
VERTEX
8
0
10
619.100000
20
785.200000
0
VERTEX
8
0
10
613.000000
20
788.000000
0
VERTEX
8
0
10
20.000000
20
788.000000
0
VERTEX
8
0
10
17.100000
20
786.700000
0
VERTEX
8
0
10
10.000000
20
783.000000
0
VERTEX
8
0
10
4.800000
20
777.100000
0
VERTEX
8
0
10
2.000000
20
770.000000
0
VERTEX
8
0
10
2.000000
20
24.000000
0
VERTEX
8
0
10
4.200000
20
19.100000
0
VERTEX
8
0
10
11.000000
20
10.000000
0
VERTEX
8
0
10
15.100000
20
8.300000
0
VERTEX
8
0
10
16.900000
20
7.700000
0
VERTEX
8
0
10
21.000842
20
6.499155
0
VERTEX
8
0
10
613.000000
20
6.000000
0
SEQEND
0
ENDSEC
0
EOF
