  0
SECTION
  2
HEADER
999
BEZARC 1.0.1
  9
$FASTZOOM
 70
0
  9
$FILLMODE
 70
1
  9
$SPLINETYPE
 70
5
  0
ENDSEC
  0
SECTION
  2
ENTITIES
  0
POLYLINE
  8
0
 66
1
 70
1
  0
VERTEX
  8
0
 10
6.133085
 20
6.508024
 42
0.389087
  0
VERTEX
  8
0
 10
6.166269
 20
6.543072
 42
0.202737
  0
VERTEX
  8
0
 10
6.152957
 20
6.601722
 42
0.174149
  0
VERTEX
  8
0
 10
6.036548
 20
6.641473
 42
0.204066
  0
VERTEX
  8
0
 10
5.920136
 20
6.596044
 42
0.285694
  0
VERTEX
  8
0
 10
5.924748
 20
6.537882
 42
0.135289
  0
VERTEX
  8
0
 10
5.943693
 20
6.52023
 42
0.319363
  0
VERTEX
  8
0
 10
5.962726
 20
6.522219
 42
-0.243399
  0
VERTEX
  8
0
 10
6.01116
 20
6.543402
 42
-0.090145
  0
VERTEX
  8
0
 10
6.059066
 20
6.526362
 42
0.161624
  0
SEQEND
  8
0
  0
POLYLINE
  8
0
 66
1
 70
1
  0
VERTEX
  8
0
 10
6.411338
 20
6.385933
 42
0.237807
  0
VERTEX
  8
0
 10
6.435292
 20
6.365741
 42
0.068787
  0
VERTEX
  8
0
 10
6.467577
 20
6.363172
 42
-0.002716
  0
VERTEX
  8
0
 10
6.473803
 20
6.363218
 42
0.417042
  0
VERTEX
  8
0
 10
6.541946
 20
6.479631
 42
-0.014426
  0
VERTEX
  8
0
 10
6.515495
 20
6.501664
 42
0.074725
  0
VERTEX
  8
0
 10
6.442899
 20
6.553002
 42
0.305522
  0
VERTEX
  8
0
 10
6.363069
 20
6.542096
 42
0.243703
  0
VERTEX
  8
0
 10
6.361349
 20
6.494695
 42
0.093433
  0
VERTEX
  8
0
 10
6.390117
 20
6.462135
 42
-0.102113
  0
VERTEX
  8
0
 10
6.417704
 20
6.430447
 42
-0.266513
  0
SEQEND
  8
0
  0
POLYLINE
  8
0
 66
1
 70
1
  0
VERTEX
  8
0
 10
6.090496
 20
6.454079
 42
-0.091276
  0
VERTEX
  8
0
 10
6.075083
 20
6.474652
 42
0.130637
  0
VERTEX
  8
0
 10
6.056494
 20
6.497517
 42
0.342156
  0
VERTEX
  8
0
 10
6.046737
 20
6.494506
 42
0.098626
  0
VERTEX
  8
0
 10
6.036549
 20
6.473954
 42
-0.275796
  0
VERTEX
  8
0
 10
6.059554
 20
6.406477
 42
-0.101056
  0
VERTEX
  8
0
 10
6.024049
 20
6.347996
 42
0.041023
  0
VERTEX
  8
0
 10
5.995048
 20
6.307132
 42
0.138092
  0
VERTEX
  8
0
 10
5.982599
 20
6.261006
 42
0.229064
  0
VERTEX
  8
0
 10
5.99015
 20
6.234506
 42
0.112904
  0
VERTEX
  8
0
 10
6.01273
 20
6.224264
 42
-0.008398
  0
VERTEX
  8
0
 10
6.022353
 20
6.221253
 42
0.162487
  0
VERTEX
  8
0
 10
6.062302
 20
6.25773
 42
0.042572
  0
VERTEX
  8
0
 10
6.086988
 20
6.309274
 42
-0.001492
  0
VERTEX
  8
0
 10
6.090496
 20
6.317792
 42
-0.060312
  0
VERTEX
  8
0
 10
6.094814
 20
6.380415
 42
0.156534
  0
SEQEND
  8
0
  0
POLYLINE
  8
0
 66
1
 70
1
  0
VERTEX
  8
0
 10
6.35739
 20
6.323468
 42
0.214252
  0
VERTEX
  8
0
 10
6.372474
 20
6.371959
 42
0.261831
  0
VERTEX
  8
0
 10
6.360385
 20
6.389833
 42
0.209068
  0
VERTEX
  8
0
 10
6.328997
 20
6.385933
 42
0.00726
  0
VERTEX
  8
0
 10
6.303851
 20
6.348274
 42
-0.033764
  0
VERTEX
  8
0
 10
6.25079
 20
6.274481
 42
-0.092974
  0
VERTEX
  8
0
 10
6.178514
 20
6.215575
 42
0.111904
  0
VERTEX
  8
0
 10
6.218326
 20
6.195086
 42
0.181282
  0
VERTEX
  8
0
 10
6.248257
 20
6.199215
 42
0.117382
  0
VERTEX
  8
0
 10
6.294096
 20
6.252279
 42
-0.11475
  0
SEQEND
  8
0
  0
POLYLINE
  8
0
 66
1
 70
1
  0
VERTEX
  8
0
 10
6.581696
 20
6.11904
 42
0.37996
  0
VERTEX
  8
0
 10
6.591989
 20
6.074009
 42
0.257479
  0
VERTEX
  8
0
 10
6.63564
 20
6.070772
 42
0.184011
  0
VERTEX
  8
0
 10
6.688251
 20
6.131172
 42
0.141471
  0
VERTEX
  8
0
 10
6.698108
 20
6.207056
 42
0.102856
  0
VERTEX
  8
0
 10
6.644161
 20
6.303596
 42
0.095844
  0
VERTEX
  8
0
 10
6.599584
 20
6.308685
 42
0.270137
  0
VERTEX
  8
0
 10
6.580268
 20
6.29585
 42
0.138822
  0
VERTEX
  8
0
 10
6.585183
 20
6.234076
 42
-0.04533
  0
VERTEX
  8
0
 10
6.595195
 20
6.174557
 42
-0.166424
  0
SEQEND
  8
0
  0
POLYLINE
  8
0
 66
1
 70
1
  0
VERTEX
  8
0
 10
2.297172
 20
6.210962
 42
0.163724
  0
VERTEX
  8
0
 10
2.245
 20
6.154531
 42
0.092811
  0
VERTEX
  8
0
 10
2.229029
 20
6.083193
 42
-0.022772
  0
VERTEX
  8
0
 10
2.234531
 20
6.039846
 42
0.062154
  0
VERTEX
  8
0
 10
2.246824
 20
5.971084
 42
0.191514
  0
VERTEX
  8
0
 10
2.291493
 20
5.918514
 42
0.359821
  0
VERTEX
  8
0
 10
2.333126
 20
5.939514
 42
0.424858
  0
VERTEX
  8
0
 10
2.325565
 20
5.972458
 42
-0.162526
  0
VERTEX
  8
0
 10
2.322055
 20
6.055963
 42
-0.053388
  0
VERTEX
  8
0
 10
2.352878
 20
6.130095
 42
0.036797
  0
VERTEX
  8
0
 10
2.373835
 20
6.17689
 42
0.248683
  0
VERTEX
  8
0
 10
2.342956
 20
6.204574
 42
0.079067
  0
SEQEND
  8
0
  0
POLYLINE
  8
0
 66
1
 70
1
  0
VERTEX
  8
0
 10
2.132137
 20
6.115489
 42
0.375777
  0
VERTEX
  8
0
 10
2.114953
 20
6.148095
 42
0.266746
  0
VERTEX
  8
0
 10
2.061853
 20
6.144637
 42
0.105836
  0
VERTEX
  8
0
 10
1.99889
 20
6.106165
 42
0.025786
  0
VERTEX
  8
0
 10
1.940475
 20
6.047434
 42
-0.007673
  0
VERTEX
  8
0
 10
1.91351
 20
6.018953
 42
0.271161
  0
VERTEX
  8
0
 10
1.902645
 20
5.990202
 42
0.167329
  0
VERTEX
  8
0
 10
1.919825
 20
5.964366
 42
0.230317
  0
VERTEX
  8
0
 10
1.980837
 20
5.946385
 42
0.156636
  0
VERTEX
  8
0
 10
2.007188
 20
5.975464
 42
-0.02108
  0
VERTEX
  8
0
 10
2.017892
 20
5.992149
 42
-0.240043
  0
VERTEX
  8
0
 10
2.048386
 20
6.014602
 42
-0.243351
  0
VERTEX
  8
0
 10
2.068449
 20
5.993715
 42
0.018289
  0
VERTEX
  8
0
 10
2.150984
 20
5.871959
 42
0.045816
  0
VERTEX
  8
0
 10
2.288299
 20
5.706629
 42
0.190678
  0
VERTEX
  8
0
 10
2.333786
 20
5.711734
 42
0.363537
  0
VERTEX
  8
0
 10
2.347924
 20
5.746379
 42
-0.049787
  0
VERTEX
  8
0
 10
2.225835
 20
5.911058
 42
0.185233
  0
VERTEX
  8
0
 10
2.2032
 20
5.951266
 42
0.039586
  0
VERTEX
  8
0
 10
2.157695
 20
5.98608
 42
-0.119669
  0
VERTEX
  8
0
 10
2.096788
 20
6.041946
 42
-0.225036
  0
VERTEX
  8
0
 10
2.096546
 20
6.075313
 42
-0.123718
  0
SEQEND
  8
0
  0
POLYLINE
  8
0
 66
1
 70
1
  0
VERTEX
  8
0
 10
6.382944
 20
6.099165
 42
-0.230927
  0
VERTEX
  8
0
 10
6.40691
 20
6.106621
 42
-0.061721
  0
VERTEX
  8
0
 10
6.433827
 20
6.098828
 42
0.063895
  0
VERTEX
  8
0
 10
6.46108
 20
6.091014
 42
0.238154
  0
VERTEX
  8
0
 10
6.48516
 20
6.099165
 42
0.145826
  0
VERTEX
  8
0
 10
6.497796
 20
6.131668
 42
0.240682
  0
VERTEX
  8
0
 10
6.487875
 20
6.151183
 42
0.111087
  0
VERTEX
  8
0
 10
6.436263
 20
6.167562
 42
-0.037423
  0
VERTEX
  8
0
 10
6.411338
 20
6.172985
 42
0.123129
  0
VERTEX
  8
0
 10
6.335529
 20
6.148657
 42
0.047626
  0
VERTEX
  8
0
 10
6.277072
 20
6.102004
 42
-0.017153
  0
VERTEX
  8
0
 10
6.240979
 20
6.070772
 42
-0.122655
  0
VERTEX
  8
0
 10
6.190731
 20
6.065103
 42
0.064095
  0
VERTEX
  8
0
 10
6.155605
 20
6.063651
 42
0.364481
  0
VERTEX
  8
0
 10
6.138761
 20
6.045215
 42
0.175503
  0
VERTEX
  8
0
 10
6.210639
 20
6.013136
 42
-0.003461
  0
VERTEX
  8
0
 10
6.221104
 20
6.011144
 42
0.139269
  0
VERTEX
  8
0
 10
6.307348
 20
6.037984
 42
0.078813
  0
SEQEND
  8
0
  0
POLYLINE
  8
0
 66
1
 70
1
  0
VERTEX
  8
0
 10
4.672611
 20
2.451711
 42
0.114872
  0
VERTEX
  8
0
 10
4.621191
 20
2.45557
 42
0.203074
  0
VERTEX
  8
0
 10
4.593745
 20
2.437341
 42
0.122868
  0
VERTEX
  8
0
 10
4.578642
 20
2.360875
 42
-0.073775
  0
VERTEX
  8
0
 10
4.567396
 20
2.284786
 42
-0.261245
  0
VERTEX
  8
0
 10
4.513611
 20
2.235924
 42
-0.048346
  0
VERTEX
  8
0
 10
4.483103
 20
2.219102
 42
0.115698
  0
VERTEX
  8
0
 10
4.441744
 20
2.191782
 42
0.32095
  0
VERTEX
  8
0
 10
4.445468
 20
2.139387
 42
0.079906
  0
VERTEX
  8
0
 10
4.465288
 20
2.11632
 42
0.272802
  0
VERTEX
  8
0
 10
4.493735
 20
2.110993
 42
-0.000034
  0
VERTEX
  8
0
 10
4.497149
 20
2.112931
 42
0.072588
  0
VERTEX
  8
0
 10
4.643532
 20
2.215439
 42
0.235834
  0
VERTEX
  8
0
 10
4.699153
 20
2.383156
 42
0.057622
  0
VERTEX
  8
0
 10
4.69142
 20
2.42679
 42
0.179101
  0
SEQEND
  8
0
  0
POLYLINE
  8
0
 66
1
 70
1
  0
VERTEX
  8
0
 10
6.678233
 20
5.758444
 42
0.091328
  0
VERTEX
  8
0
 10
6.565827
 20
5.852079
 42
0.050522
  0
VERTEX
  8
0
 10
6.424624
 20
5.91481
 42
0.038261
  0
VERTEX
  8
0
 10
6.161112
 20
5.977031
 42
-0.003673
  0
VERTEX
  8
0
 10
6.122183
 20
5.98404
 42
-0.269051
  0
VERTEX
  8
0
 10
5.94001
 20
6.104843
 42
-0.022481
  0
VERTEX
  8
0
 10
5.915069
 20
6.239271
 42
0.026462
  0
VERTEX
  8
0
 10
5.887512
 20
6.383686
 42
0.09251
  0
VERTEX
  8
0
 10
5.832118
 20
6.508024
 42
0.046247
  0
VERTEX
  8
0
 10
5.739224
 20
6.601411
 42
0.078738
  0
VERTEX
  8
0
 10
5.637636
 20
6.66011
 42
0.020498
  0
VERTEX
  8
0
 10
5.684257
 20
6.786394
  0
VERTEX
  8
0
 10
6.359754
 20
6.786394
  0
VERTEX
  8
0
 10
6.359754
 20
7.546265
  0
VERTEX
  8
0
 10
5.741022
 20
7.546265
 42
0.153472
  0
VERTEX
  8
0
 10
5.28151
 20
8.445642
 42
0.139097
  0
VERTEX
  8
0
 10
4.372236
 20
8.965578
  0
VERTEX
  8
0
 10
4.372236
 20
9.512136
  0
VERTEX
  8
0
 10
3.364281
 20
9.512136
  0
VERTEX
  8
0
 10
3.364281
 20
8.962787
 42
0.138404
  0
VERTEX
  8
0
 10
2.462082
 20
8.441898
 42
0.152756
  0
VERTEX
  8
0
 10
2.006139
 20
7.546265
  0
VERTEX
  8
0
 10
1.463364
 20
7.546265
  0
VERTEX
  8
0
 10
1.463364
 20
6.786394
  0
VERTEX
  8
0
 10
2.062908
 20
6.786394
 42
0.072644
  0
VERTEX
  8
0
 10
2.276786
 20
6.352156
 42
0.028358
  0
VERTEX
  8
0
 10
2.22512
 20
6.368637
 42
-0.00223
  0
VERTEX
  8
0
 10
2.214464
 20
6.371532
 42
0.358189
  0
VERTEX
  8
0
 10
2.195952
 20
6.345655
 42
0.194107
  0
VERTEX
  8
0
 10
2.205378
 20
6.31584
 42
0.149498
  0
VERTEX
  8
0
 10
2.284354
 20
6.260396
 42
-0.102228
  0
VERTEX
  8
0
 10
2.337565
 20
6.230844
 42
0.178735
  0
VERTEX
  8
0
 10
2.353193
 20
6.248743
 42
0.015013
  0
VERTEX
  8
0
 10
2.422572
 20
6.167219
 42
0.238512
  0
VERTEX
  8
0
 10
2.406204
 20
6.124517
 42
0.201139
  0
VERTEX
  8
0
 10
2.439283
 20
6.093661
 42
0.238615
  0
VERTEX
  8
0
 10
2.492524
 20
6.094121
 42
0.009226
  0
VERTEX
  8
0
 10
2.541389
 20
6.047403
 42
0.260163
  0
VERTEX
  8
0
 10
2.439137
 20
5.988429
 42
0.065877
  0
VERTEX
  8
0
 10
2.42253
 20
5.884728
 42
0.172432
  0
VERTEX
  8
0
 10
2.459013
 20
5.778322
 42
0.505823
  0
VERTEX
  8
0
 10
2.509462
 20
5.810472
 42
0.071924
  0
VERTEX
  8
0
 10
2.507883
 20
5.894911
 42
-0.000305
  0
VERTEX
  8
0
 10
2.507281
 20
5.900411
 42
-0.020542
  0
VERTEX
  8
0
 10
2.542115
 20
5.986439
 42
0.006479
  0
VERTEX
  8
0
 10
2.560765
 20
6.029917
 42
0.024231
  0
VERTEX
  8
0
 10
2.701383
 20
5.916282
 42
-0.01144
  0
VERTEX
  8
0
 10
2.519818
 20
5.693678
 42
-0.115082
  0
VERTEX
  8
0
 10
2.475125
 20
5.664872
 42
-0.052688
  0
VERTEX
  8
0
 10
2.412869
 20
5.647882
 42
-0.112672
  0
VERTEX
  8
0
 10
2.30691
 20
5.648656
 42
-0.051876
  0
VERTEX
  8
0
 10
2.238569
 20
5.688592
 42
0.05673
  0
VERTEX
  8
0
 10
2.166564
 20
5.730051
 42
0.098058
  0
VERTEX
  8
0
 10
2.000109
 20
5.767672
 42
0.154774
  0
VERTEX
  8
0
 10
1.831525
 20
5.724374
 42
0.063131
  0
VERTEX
  8
0
 10
1.626211
 20
5.550532
 42
0.108108
  0
VERTEX
  8
0
 10
1.486947
 20
5.317108
 42
0.042946
  0
VERTEX
  8
0
 10
1.468118
 20
5.203147
 42
-0.020812
  0
VERTEX
  8
0
 10
1.451264
 20
5.085593
 42
-0.077785
  0
VERTEX
  8
0
 10
1.415692
 20
4.980429
 42
0.148825
  0
VERTEX
  8
0
 10
1.403424
 20
4.914077
 42
0.244321
  0
VERTEX
  8
0
 10
1.421447
 20
4.895351
 42
0.117171
  0
VERTEX
  8
0
 10
1.465254
 20
4.892456
 42
0.123734
  0
VERTEX
  8
0
 10
1.524878
 20
4.931141
 42
0.063141
  0
VERTEX
  8
0
 10
1.567467
 20
4.988992
 42
-0.179903
  0
VERTEX
  8
0
 10
1.683937
 20
5.126345
 42
-0.055324
  0
VERTEX
  8
0
 10
1.858438
 20
5.197623
 42
0.049764
  0
VERTEX
  8
0
 10
2.031035
 20
5.266874
 42
0.156821
  0
VERTEX
  8
0
 10
2.158046
 20
5.397853
 42
0.000018
  0
VERTEX
  8
0
 10
2.158783
 20
5.398681
 42
-0.098894
  0
VERTEX
  8
0
 10
2.219418
 20
5.451744
 42
-0.220132
  0
VERTEX
  8
0
 10
2.25192
 20
5.452492
 42
-0.165721
  0
VERTEX
  8
0
 10
2.282976
 20
5.417728
 42
-0.107936
  0
VERTEX
  8
0
 10
2.261874
 20
5.321161
 42
-0.041631
  0
VERTEX
  8
0
 10
2.21565
 20
5.242135
 42
0.080059
  0
VERTEX
  8
0
 10
2.158046
 20
5.130957
 42
0.161404
  0
VERTEX
  8
0
 10
2.181254
 20
4.978973
 42
0.053669
  0
VERTEX
  8
0
 10
2.265977
 20
4.853225
 42
-0.018727
  0
VERTEX
  8
0
 10
2.317047
 20
4.784561
 42
-0.149269
  0
VERTEX
  8
0
 10
2.325053
 20
4.723216
 42
-0.041006
  0
VERTEX
  8
0
 10
2.309666
 20
4.659012
 42
0.004
  0
VERTEX
  8
0
 10
2.30425
 20
4.640493
 42
0.204681
  0
VERTEX
  8
0
 10
2.298145
 20
4.561978
 42
0.237615
  0
VERTEX
  8
0
 10
2.321025
 20
4.54529
 42
0.13919
  0
VERTEX
  8
0
 10
2.362476
 20
4.551737
 42
-0.006628
  0
VERTEX
  8
0
 10
2.391158
 20
4.568989
 42
0.069016
  0
VERTEX
  8
0
 10
2.496581
 20
4.644979
 42
0.318155
  0
VERTEX
  8
0
 10
2.521478
 20
4.756168
 42
-0.238049
  0
VERTEX
  8
0
 10
2.468185
 20
4.955368
 42
-0.062999
  0
VERTEX
  8
0
 10
2.501736
 20
5.04908
 42
-0.018935
  0
VERTEX
  8
0
 10
2.552212
 20
5.140642
 42
0.063379
  0
VERTEX
  8
0
 10
2.629372
 20
5.301317
 42
-0.23546
  0
VERTEX
  8
0
 10
2.636621
 20
5.310817
 42
-0.264114
  0
VERTEX
  8
0
 10
2.649247
 20
5.301317
 42
-0.000713
  0
VERTEX
  8
0
 10
2.663439
 20
5.284525
 42
0.042274
  0
VERTEX
  8
0
 10
2.790141
 20
5.150657
 42
0.136476
  0
VERTEX
  8
0
 10
2.955893
 20
5.068492
 42
-0.33736
  0
VERTEX
  8
0
 10
3.052429
 20
4.852704
 42
-0.122425
  0
VERTEX
  8
0
 10
3.079951
 20
4.80539
 42
0.036168
  0
VERTEX
  8
0
 10
3.091881
 20
4.778368
 42
0.326635
  0
VERTEX
  8
0
 10
3.166258
 20
4.750186
 42
0.436329
  0
VERTEX
  8
0
 10
3.208592
 20
4.810114
 42
-0.209846
  0
VERTEX
  8
0
 10
3.162219
 20
4.928338
 42
-0.071469
  0
VERTEX
  8
0
 10
3.190756
 20
5.051456
 42
0.048265
  0
VERTEX
  8
0
 10
3.218777
 20
5.158492
 42
0.148778
  0
VERTEX
  8
0
 10
3.202913
 20
5.267244
 42
0.186607
  0
VERTEX
  8
0
 10
3.084415
 20
5.452332
 42
0.081588
  0
VERTEX
  8
0
 10
2.905826
 20
5.526794
 42
-0.020784
  0
VERTEX
  8
0
 10
2.805408
 20
5.559693
 42
-0.39307
  0
VERTEX
  8
0
 10
2.817799
 20
5.604394
 42
-0.170583
  0
VERTEX
  8
0
 10
2.886679
 20
5.607389
 42
0.104109
  0
VERTEX
  8
0
 10
3.000471
 20
5.619061
 42
0.148636
  0
VERTEX
  8
0
 10
3.116071
 20
5.685636
 42
0.033112
  0
VERTEX
  8
0
 10
3.364281
 20
5.603557
  0
VERTEX
  8
0
 10
3.364281
 20
4.163168
 42
-0.022363
  0
VERTEX
  8
0
 10
2.955893
 20
3.836231
 42
0.018805
  0
VERTEX
  8
0
 10
2.939012
 20
3.823719
 42
-0.126855
  0
VERTEX
  8
0
 10
2.905086
 20
3.804471
 42
-0.203044
  0
VERTEX
  8
0
 10
2.889193
 20
3.809263
 42
-0.109793
  0
VERTEX
  8
0
 10
2.873551
 20
3.830551
 42
-0.087597
  0
VERTEX
  8
0
 10
2.875259
 20
3.94267
 42
-0.027504
  0
VERTEX
  8
0
 10
2.903163
 20
4.054787
 42
0.025471
  0
VERTEX
  8
0
 10
2.930339
 20
4.162751
 42
-0.09258
  0
VERTEX
  8
0
 10
2.937892
 20
4.322915
 42
-0.037917
  0
VERTEX
  8
0
 10
2.984334
 20
4.460844
 42
0.023231
  0
VERTEX
  8
0
 10
3.024036
 20
4.571612
 42
0.170862
  0
VERTEX
  8
0
 10
2.995678
 20
4.746576
 42
0.058837
  0
VERTEX
  8
0
 10
2.892284
 20
4.885375
 42
-0.0268
  0
VERTEX
  8
0
 10
2.819606
 20
4.974794
 42
-0.066109
  0
VERTEX
  8
0
 10
2.798598
 20
5.014196
 42
0.090363
  0
VERTEX
  8
0
 10
2.768779
 20
5.065741
 42
0.303875
  0
VERTEX
  8
0
 10
2.711712
 20
5.07701
 42
-0.203853
  0
VERTEX
  8
0
 10
2.666992
 20
5.102564
 42
-0.091038
  0
VERTEX
  8
0
 10
2.643568
 20
5.145153
 42
0.183776
  0
VERTEX
  8
0
 10
2.589322
 20
5.09005
 42
0.076131
  0
VERTEX
  8
0
 10
2.575587
 20
5.019723
 42
-0.06074
  0
VERTEX
  8
0
 10
2.561228
 20
4.940724
 42
0.133616
  0
VERTEX
  8
0
 10
2.566409
 20
4.874291
 42
0.055016
  0
VERTEX
  8
0
 10
2.59425
 20
4.821341
 42
-0.158915
  0
VERTEX
  8
0
 10
2.629372
 20
4.722096
 42
0.097612
  0
VERTEX
  8
0
 10
2.584736
 20
4.633353
 42
0.117596
  0
VERTEX
  8
0
 10
2.583354
 20
4.556592
 42
0.096642
  0
VERTEX
  8
0
 10
2.65434
 20
4.420641
 42
-0.040382
  0
VERTEX
  8
0
 10
2.712357
 20
4.326147
 42
-0.120667
  0
VERTEX
  8
0
 10
2.737265
 20
4.2167
 42
-0.042483
  0
VERTEX
  8
0
 10
2.726816
 20
3.781013
 42
-0.058502
  0
VERTEX
  8
0
 10
2.63505
 20
3.353547
 42
0.076073
  0
VERTEX
  8
0
 10
2.563712
 20
2.768294
 42
0.066593
  0
VERTEX
  8
0
 10
2.61309
 20
2.482721
 42
0.099259
  0
VERTEX
  8
0
 10
2.745783
 20
2.240535
 42
0.022046
  0
VERTEX
  8
0
 10
2.77723
 20
2.215547
 42
-0.031804
  0
VERTEX
  8
0
 10
2.821684
 20
2.179155
 42
-0.143469
  0
VERTEX
  8
0
 10
2.847999
 20
2.138322
 42
0.082212
  0
VERTEX
  8
0
 10
2.644944
 20
2.179341
 42
0.027985
  0
VERTEX
  8
0
 10
2.435223
 20
2.173848
 42
-0.0117
  0
VERTEX
  8
0
 10
2.282976
 20
2.166715
 42
-0.142238
  0
VERTEX
  8
0
 10
1.849271
 20
2.376113
 42
-0.07787
  0
VERTEX
  8
0
 10
1.539074
 20
2.760129
 42
0.050707
  0
VERTEX
  8
0
 10
1.437302
 20
2.958411
 42
-0.068592
  0
VERTEX
  8
0
 10
1.27776
 20
3.299334
 42
-0.046777
  0
VERTEX
  8
0
 10
1.228134
 20
3.560521
 42
-0.037771
  0
VERTEX
  8
0
 10
1.221697
 20
3.918892
 42
0.176172
  0
VERTEX
  8
0
 10
1.220066
 20
3.934183
 42
0.357561
  0
VERTEX
  8
0
 10
1.210126
 20
3.936394
 42
0.127816
  0
VERTEX
  8
0
 10
1.171622
 20
3.901523
 42
0.086394
  0
VERTEX
  8
0
 10
1.064287
 20
3.674235
 42
0.072513
  0
VERTEX
  8
0
 10
1.063036
 20
3.173003
 42
0.044384
  0
VERTEX
  8
0
 10
1.170804
 20
2.705789
 42
0.042017
  0
VERTEX
  8
0
 10
1.422403
 20
2.109935
 42
-0.001032
  0
VERTEX
  8
0
 10
1.431182
 20
2.092892
 42
0.243394
  0
VERTEX
  8
0
 10
2.168631
 20
1.594609
 42
0.116098
  0
VERTEX
  8
0
 10
2.602804
 20
1.639765
 42
0.134334
  0
VERTEX
  8
0
 10
2.964411
 20
1.888464
 42
-0.140377
  0
VERTEX
  8
0
 10
3.048647
 20
1.953814
 42
-0.08807
  0
VERTEX
  8
0
 10
3.102874
 20
1.960087
 42
-0.042986
  0
VERTEX
  8
0
 10
3.178779
 20
1.94915
 42
0.099594
  0
VERTEX
  8
0
 10
3.188006
 20
2.139387
 42
-0.21865
  0
VERTEX
  8
0
 10
3.027218
 20
2.18715
 42
-0.162893
  0
VERTEX
  8
0
 10
2.943391
 20
2.334309
 42
-0.370345
  0
VERTEX
  8
0
 10
3.110732
 20
2.651074
 42
-0.071937
  0
VERTEX
  8
0
 10
3.364281
 20
2.732186
  0
VERTEX
  8
0
 10
3.364281
 20
0.923212
  0
VERTEX
  8
0
 10
4.372236
 20
0.923212
  0
VERTEX
  8
0
 10
4.372236
 20
2.789065
 42
0.013061
  0
VERTEX
  8
0
 10
4.497639
 20
2.8084
 42
0.028275
  0
VERTEX
  8
0
 10
4.903971
 20
2.906667
 42
0.040733
  0
VERTEX
  8
0
 10
5.288742
 20
3.057905
 42
0.054833
  0
VERTEX
  8
0
 10
5.633586
 20
3.276754
 42
0.066546
  0
VERTEX
  8
0
 10
5.920136
 20
3.577854
 42
0.212452
  0
VERTEX
  8
0
 10
5.918629
 20
3.614607
 42
0.315203
  0
VERTEX
  8
0
 10
5.892094
 20
3.614439
 42
0.047677
  0
VERTEX
  8
0
 10
5.78212
 20
3.541337
 42
-0.015668
  0
VERTEX
  8
0
 10
5.661889
 20
3.456439
 42
-0.053048
  0
VERTEX
  8
0
 10
5.531151
 20
3.387619
 42
-0.101005
  0
VERTEX
  8
0
 10
5.111856
 20
3.304159
 42
-0.032684
  0
VERTEX
  8
0
 10
4.678181
 20
3.335582
 42
0.015694
  0
VERTEX
  8
0
 10
4.372236
 20
3.364604
  0
VERTEX
  8
0
 10
4.372236
 20
4.217556
 42
-0.028219
  0
VERTEX
  8
0
 10
4.747652
 20
4.184381
 42
-0.010155
  0
VERTEX
  8
0
 10
5.11661
 20
4.123001
 42
0.135819
  0
VERTEX
  8
0
 10
5.284927
 20
4.026154
 42
0.08696
  0
VERTEX
  8
0
 10
5.48146
 20
4.012623
 42
0.043617
  0
VERTEX
  8
0
 10
5.684383
 20
4.050732
 42
0.014965
  0
VERTEX
  8
0
 10
5.871868
 20
4.108804
 42
0.078727
  0
VERTEX
  8
0
 10
6.066183
 20
4.248389
 42
0.035109
  0
VERTEX
  8
0
 10
6.154356
 20
4.343031
 42
0.071585
  0
VERTEX
  8
0
 10
6.208326
 20
4.429764
 42
-0.07042
  0
VERTEX
  8
0
 10
5.825551
 20
4.36835
 42
-0.041967
  0
VERTEX
  8
0
 10
5.417579
 20
4.387057
 42
0.102651
  0
VERTEX
  8
0
 10
5.267954
 20
4.375247
 42
0.040735
  0
VERTEX
  8
0
 10
5.141407
 20
4.324599
 42
-0.081307
  0
VERTEX
  8
0
 10
4.968821
 20
4.265908
 42
-0.100416
  0
VERTEX
  8
0
 10
4.795767
 20
4.279164
 42
0.029655
  0
VERTEX
  8
0
 10
4.372236
 20
4.316944
  0
VERTEX
  8
0
 10
4.372236
 20
4.753925
 42
-0.00382
  0
VERTEX
  8
0
 10
4.516329
 20
4.841979
 42
0.005952
  0
VERTEX
  8
0
 10
4.69639
 20
4.952671
 42
-0.036293
  0
VERTEX
  8
0
 10
4.86262
 20
4.992527
 42
0.040794
  0
VERTEX
  8
0
 10
5.111205
 20
5.055327
 42
0.133981
  0
VERTEX
  8
0
 10
5.326721
 20
5.1991
 42
-0.098226
  0
VERTEX
  8
0
 10
5.491397
 20
5.505747
 42
-0.00437
  0
VERTEX
  8
0
 10
5.498402
 20
5.509469
 42
0.066517
  0
VERTEX
  8
0
 10
5.534142
 20
5.532554
 42
0.349525
  0
VERTEX
  8
0
 10
5.543451
 20
5.567856
 42
0.107763
  0
VERTEX
  8
0
 10
5.480498
 20
5.546443
 42
-0.015625
  0
VERTEX
  8
0
 10
5.460639
 20
5.537097
 42
-0.127214
  0
VERTEX
  8
0
 10
5.096736
 20
5.485871
 42
-0.020236
  0
VERTEX
  8
0
 10
4.965908
 20
5.398092
 42
0.053734
  0
VERTEX
  8
0
 10
4.763692
 20
5.249332
 42
0.175031
  0
VERTEX
  8
0
 10
4.653801
 20
5.034421
 42
0.053144
  0
VERTEX
  8
0
 10
4.531678
 20
4.991268
 42
0.017548
  0
VERTEX
  8
0
 10
4.416247
 20
4.930996
 42
-0.00257
  0
VERTEX
  8
0
 10
4.372236
 20
4.906889
  0
VERTEX
  8
0
 10
4.372236
 20
5.600764
 42
0.056065
  0
VERTEX
  8
0
 10
4.784246
 20
5.75535
 42
0.016017
  0
VERTEX
  8
0
 10
4.77467
 20
5.725728
 42
-0.017285
  0
VERTEX
  8
0
 10
4.731181
 20
5.596801
 42
-0.056158
  0
VERTEX
  8
0
 10
4.659479
 20
5.451801
 42
0.314647
  0
VERTEX
  8
0
 10
4.775892
 20
5.423408
 42
0.020152
  0
VERTEX
  8
0
 10
4.831685
 20
5.468188
 42
-0.074053
  0
VERTEX
  8
0
 10
4.951929
 20
5.551293
 42
-0.094794
  0
VERTEX
  8
0
 10
5.052223
 20
5.55221
 42
0.023571
  0
VERTEX
  8
0
 10
5.145949
 20
5.546561
 42
0.086662
  0
VERTEX
  8
0
 10
5.432958
 20
5.650374
 42
0.040138
  0
VERTEX
  8
0
 10
5.681635
 20
5.826587
 42
-0.106225
  0
VERTEX
  8
0
 10
5.734871
 20
5.84043
 42
-0.265549
  0
VERTEX
  8
0
 10
5.783847
 20
5.818071
 42
0.006435
  0
VERTEX
  8
0
 10
5.791547
 20
5.805939
 42
-0.097054
  0
VERTEX
  8
0
 10
5.810664
 20
5.767056
 42
-0.301811
  0
VERTEX
  8
0
 10
5.792368
 20
5.730051
 42
0.130762
  0
VERTEX
  8
0
 10
5.642949
 20
5.551531
 42
0.120022
  0
VERTEX
  8
0
 10
5.593617
 20
5.315512
 42
0.059412
  0
VERTEX
  8
0
 10
5.626967
 20
5.145752
 42
-0.036903
  0
VERTEX
  8
0
 10
5.656751
 20
5.015269
 42
-0.104697
  0
VERTEX
  8
0
 10
5.64756
 20
4.878258
 42
-0.192542
  0
VERTEX
  8
0
 10
5.636419
 20
4.846798
 42
-0.059735
  0
VERTEX
  8
0
 10
5.609424
 20
4.822792
 42
0.164362
  0
VERTEX
  8
0
 10
5.569909
 20
4.768522
 42
0.36081
  0
VERTEX
  8
0
 10
5.583105
 20
4.744748
 42
0.127803
  0
VERTEX
  8
0
 10
5.643567
 20
4.739575
 42
0.123367
  0
VERTEX
  8
0
 10
5.780048
 20
4.798553
 42
0.081406
  0
VERTEX
  8
0
 10
5.882312
 20
4.909182
 42
0.041324
  0
VERTEX
  8
0
 10
5.959448
 20
5.048466
 42
0.013225
  0
VERTEX
  8
0
 10
6.020547
 20
5.193405
 42
-0.001221
  0
VERTEX
  8
0
 10
6.036549
 20
5.233172
 42
0.127515
  0
VERTEX
  8
0
 10
6.064006
 20
5.38141
 42
0.054846
  0
VERTEX
  8
0
 10
6.036121
 20
5.510773
 42
-0.031461
  0
VERTEX
  8
0
 10
6.012125
 20
5.607201
 42
-0.148147
  0
VERTEX
  8
0
 10
6.023847
 20
5.672832
 42
-0.171815
  0
VERTEX
  8
0
 10
6.060645
 20
5.706041
 42
-0.338256
  0
VERTEX
  8
0
 10
6.140824
 20
5.687214
 42
-0.019601
  0
VERTEX
  8
0
 10
6.163169
 20
5.660112
 42
0.135489
  0
VERTEX
  8
0
 10
6.226783
 20
5.602283
 42
0.087904
  0
VERTEX
  8
0
 10
6.314647
 20
5.55508
 42
0.02746
  0
VERTEX
  8
0
 10
6.413879
 20
5.528225
 42
-0.035541
  0
VERTEX
  8
0
 10
6.524045
 20
5.497193
 42
-0.116133
  0
VERTEX
  8
0
 10
6.615768
 20
5.437603
 42
-0.231916
  0
VERTEX
  8
0
 10
6.634133
 20
5.338582
 42
0.296214
  0
VERTEX
  8
0
 10
6.639795
 20
5.285499
 42
0.262211
  0
VERTEX
  8
0
 10
6.668815
 20
5.274627
 42
0.147285
  0
VERTEX
  8
0
 10
6.717983
 20
5.301317
 42
0.139238
  0
VERTEX
  8
0
 10
6.778315
 20
5.416708
 42
0.099914
  0
VERTEX
  8
0
 10
6.777599
 20
5.542777
 42
0.112454
  0
SEQEND
  8
0
  0
POLYLINE
  8
0
 66
1
 70
1
  0
VERTEX
  8
0
 10
3.364281
 20
3.207156
 42
0.129226
  0
VERTEX
  8
0
 10
2.88775
 20
2.882222
 42
0.001232
  0
VERTEX
  8
0
 10
2.879735
 20
2.870922
 42
-0.029512
  0
VERTEX
  8
0
 10
2.838644
 20
2.817286
 42
-0.142781
  0
VERTEX
  8
0
 10
2.794051
 20
2.785686
 42
-0.127999
  0
VERTEX
  8
0
 10
2.742944
 20
3.059324
 42
-0.045714
  0
VERTEX
  8
0
 10
2.785535
 20
3.339351
 42
-0.097425
  0
VERTEX
  8
0
 10
3.016756
 20
3.710484
 42
-0.077882
  0
VERTEX
  8
0
 10
3.364281
 20
3.981417
  0
SEQEND
  8
0
  0
POLYLINE
  8
0
 66
1
 70
1
  0
VERTEX
  8
0
 10
4.372236
 20
8.856793
 42
-0.135926
  0
VERTEX
  8
0
 10
5.20145
 20
8.371141
 42
-0.149707
  0
VERTEX
  8
0
 10
5.626062
 20
7.546265
  0
VERTEX
  8
0
 10
4.372236
 20
7.546265
  0
SEQEND
  8
0
  0
POLYLINE
  8
0
 66
1
 70
1
  0
VERTEX
  8
0
 10
3.364281
 20
8.854
  0
VERTEX
  8
0
 10
3.364281
 20
7.546265
  0
VERTEX
  8
0
 10
2.121103
 20
7.546265
 42
-0.148907
  0
VERTEX
  8
0
 10
2.542121
 20
8.367469
 42
-0.135227
  0
SEQEND
  8
0
  0
POLYLINE
  8
0
 66
1
 70
1
  0
VERTEX
  8
0
 10
2.645543
 20
6.100029
 42
0.169662
  0
VERTEX
  8
0
 10
2.683319
 20
6.138912
 42
0.444057
  0
VERTEX
  8
0
 10
2.657765
 20
6.172985
 42
-0.130374
  0
VERTEX
  8
0
 10
2.576236
 20
6.165025
 42
-0.115532
  0
VERTEX
  8
0
 10
2.181254
 20
6.786394
  0
VERTEX
  8
0
 10
3.364281
 20
6.786394
  0
VERTEX
  8
0
 10
3.364281
 20
6.058154
 42
-0.062788
  0
VERTEX
  8
0
 10
3.285697
 20
6.106244
 42
0.032167
  0
VERTEX
  8
0
 10
3.236985
 20
6.138912
 42
0.188337
  0
VERTEX
  8
0
 10
2.971889
 20
6.147029
 42
0.118452
  0
VERTEX
  8
0
 10
2.771258
 20
5.999512
 42
-0.022828
  0
SEQEND
  8
0
  0
POLYLINE
  8
0
 66
1
 70
1
  0
VERTEX
  8
0
 10
3.364281
 20
5.712342
 42
-0.024137
  0
VERTEX
  8
0
 10
3.195078
 20
5.768615
 42
0.000099
  0
VERTEX
  8
0
 10
3.198913
 20
5.773177
 42
-0.035181
  0
VERTEX
  8
0
 10
3.272976
 20
5.853442
 42
-0.112287
  0
VERTEX
  8
0
 10
3.364281
 20
5.907067
  0
SEQEND
  8
0
  0
POLYLINE
  8
0
 66
1
 70
1
  0
VERTEX
  8
0
 10
3.364707
 20
5.947144
 42
0.113277
  0
VERTEX
  8
0
 10
3.251884
 20
5.888103
 42
0.033661
  0
VERTEX
  8
0
 10
3.155078
 20
5.793959
 42
-0.000017
  0
VERTEX
  8
0
 10
3.152928
 20
5.791675
  0
VERTEX
  8
0
 10
3.071499
 20
5.710944
 42
-0.102442
  0
VERTEX
  8
0
 10
2.959011
 20
5.643588
 42
-0.147421
  0
VERTEX
  8
0
 10
2.814354
 20
5.642817
 42
0.242549
  0
VERTEX
  8
0
 10
2.765706
 20
5.617836
 42
0.220943
  0
VERTEX
  8
0
 10
2.766086
 20
5.560474
 42
0.138588
  0
VERTEX
  8
0
 10
2.832901
 20
5.511619
 42
0.045832
  0
VERTEX
  8
0
 10
2.912496
 20
5.490784
 42
-0.123643
  0
VERTEX
  8
0
 10
3.024465
 20
5.44974
 42
0.013908
  0
VERTEX
  8
0
 10
3.060569
 20
5.423319
 42
-0.046165
  0
VERTEX
  8
0
 10
3.119913
 20
5.375941
 42
-0.122928
  0
VERTEX
  8
0
 10
3.160753
 20
5.307775
 42
-0.124396
  0
VERTEX
  8
0
 10
3.183413
 20
5.178506
 42
-0.046425
  0
VERTEX
  8
0
 10
3.160875
 20
5.057355
 42
0.058673
  0
VERTEX
  8
0
 10
3.138541
 20
4.926243
 42
0.153918
  0
VERTEX
  8
0
 10
3.178487
 20
4.790406
 42
-0.33372
  0
VERTEX
  8
0
 10
3.117632
 20
4.793173
 42
-0.187126
  0
VERTEX
  8
0
 10
3.086928
 20
4.844967
 42
0.126814
  0
VERTEX
  8
0
 10
3.06244
 20
5.007517
 42
0.163808
  0
VERTEX
  8
0
 10
2.950642
 20
5.123219
 42
-0.11569
  0
VERTEX
  8
0
 10
2.819812
 20
5.180232
 42
-0.049543
  0
VERTEX
  8
0
 10
2.727419
 20
5.270047
 42
0.04102
  0
VERTEX
  8
0
 10
2.630242
 20
5.366083
 42
0.077827
  0
VERTEX
  8
0
 10
2.620984
 20
5.378111
 42
0.342902
  0
VERTEX
  8
0
 10
2.61418
 20
5.379461
 42
0.140122
  0
VERTEX
  8
0
 10
2.603246
 20
5.356276
 42
0.001382
  0
VERTEX
  8
0
 10
2.598783
 20
5.33825
 42
-0.030857
  0
VERTEX
  8
0
 10
2.574054
 20
5.252965
 42
-0.083309
  0
VERTEX
  8
0
 10
2.527583
 20
5.171487
 42
0.127436
  0
VERTEX
  8
0
 10
2.440276
 20
4.999709
 42
0.176168
  0
VERTEX
  8
0
 10
2.45944
 20
4.810896
 42
0.020854
  0
VERTEX
  8
0
 10
2.470127
 20
4.789193
 42
-0.07546
  0
VERTEX
  8
0
 10
2.492244
 20
4.734272
 42
-0.282416
  0
VERTEX
  8
0
 10
2.473637
 20
4.680286
 42
-0.142723
  0
VERTEX
  8
0
 10
2.328832
 20
4.597947
 42
0.146143
  0
VERTEX
  8
0
 10
2.343031
 20
4.796699
 42
0.052311
  0
VERTEX
  8
0
 10
2.278697
 20
4.889239
 42
-0.056319
  0
VERTEX
  8
0
 10
2.208306
 20
4.992005
 42
-0.151728
  0
VERTEX
  8
0
 10
2.186867
 20
5.123219
 42
-0.026018
  0
VERTEX
  8
0
 10
2.233449
 20
5.210485
 42
0.039912
  0
VERTEX
  8
0
 10
2.291917
 20
5.325198
 42
0.128317
  0
VERTEX
  8
0
 10
2.308957
 20
5.44974
 42
0.546877
  0
VERTEX
  8
0
 10
2.181188
 20
5.463936
 42
-0.142738
  0
VERTEX
  8
0
 10
2.039886
 20
5.318816
 42
-0.048614
  0
VERTEX
  8
0
 10
1.856635
 20
5.240305
 42
0.037123
  0
VERTEX
  8
0
 10
1.698977
 20
5.175642
 42
0.118007
  0
VERTEX
  8
0
 10
1.572922
 20
5.069382
 42
0.010353
  0
VERTEX
  8
0
 10
1.561934
 20
5.048764
 42
-0.061119
  0
VERTEX
  8
0
 10
1.517274
 20
4.977986
 42
-0.187054
  0
VERTEX
  8
0
 10
1.437288
 20
4.932985
 42
0.037107
  0
VERTEX
  8
0
 10
1.476695
 20
5.051022
 42
0.076851
  0
VERTEX
  8
0
 10
1.492343
 20
5.178811
 42
-0.079724
  0
VERTEX
  8
0
 10
1.578351
 20
5.435504
 42
-0.11649
  0
VERTEX
  8
0
 10
1.76381
 20
5.642817
 42
-0.304414
  0
VERTEX
  8
0
 10
2.166992
 20
5.702439
 42
0.117534
  0
VERTEX
  8
0
 10
2.281628
 20
5.630746
 42
0.096077
  0
VERTEX
  8
0
 10
2.419689
 20
5.614424
 42
0.131832
  0
VERTEX
  8
0
 10
2.57971
 20
5.713358
 42
0.041331
  0
VERTEX
  8
0
 10
2.700115
 20
5.865616
 42
-0.002306
  0
VERTEX
  8
0
 10
2.727553
 20
5.904217
  0
VERTEX
  8
0
 10
2.794069
 20
5.989356
 42
-0.066066
  0
VERTEX
  8
0
 10
2.907887
 20
6.084592
 42
-0.123555
  0
VERTEX
  8
0
 10
3.058535
 20
6.131175
 42
-0.13221
  0
VERTEX
  8
0
 10
3.191259
 20
6.120827
 42
-0.06962
  0
VERTEX
  8
0
 10
3.282771
 20
6.066454
 42
0.051609
  0
VERTEX
  8
0
 10
3.364707
 20
6.015172
  0
SEQEND
  8
0
  0
POLYLINE
  8
0
 66
1
 70
1
  0
VERTEX
  8
0
 10
4.239735
 20
0.998928
  0
VERTEX
  8
0
 10
3.482586
 20
0.998928
  0
VERTEX
  8
0
 10
3.482586
 20
2.741456
 42
-0.009083
  0
VERTEX
  8
0
 10
3.820945
 20
2.755114
 42
0.014346
  0
VERTEX
  8
0
 10
4.239735
 20
2.774925
  0
SEQEND
  8
0
  0
POLYLINE
  8
0
 66
1
 70
1
  0
VERTEX
  8
0
 10
4.239735
 20
3.357864
 42
0.018297
  0
VERTEX
  8
0
 10
3.852291
 20
3.322665
 42
0.038428
  0
VERTEX
  8
0
 10
3.482586
 20
3.246769
  0
VERTEX
  8
0
 10
3.482586
 20
4.042189
 42
-0.071862
  0
VERTEX
  8
0
 10
4.006439
 20
4.196824
 42
-0.029668
  0
VERTEX
  8
0
 10
4.239735
 20
4.217226
  0
SEQEND
  8
0
  0
POLYLINE
  8
0
 66
1
 70
1
  0
VERTEX
  8
0
 10
4.239735
 20
4.319628
 42
0.017129
  0
VERTEX
  8
0
 10
3.836079
 20
4.307557
  0
VERTEX
  8
0
 10
3.836079
 20
4.318914
 42
-0.043986
  0
VERTEX
  8
0
 10
4.026031
 20
4.508511
 42
-0.027258
  0
VERTEX
  8
0
 10
4.239735
 20
4.668124
  0
SEQEND
  8
0
  0
POLYLINE
  8
0
 66
1
 70
1
  0
VERTEX
  8
0
 10
4.239735
 20
6.866843
  0
VERTEX
  8
0
 10
4.239735
 20
4.845443
 42
0.042394
  0
VERTEX
  8
0
 10
3.92998
 20
4.63564
 42
0.013668
  0
VERTEX
  8
0
 10
3.482586
 20
4.265319
  0
VERTEX
  8
0
 10
3.482586
 20
5.89951
 42
-0.000015
  0
VERTEX
  8
0
 10
3.482901
 20
5.899269
 42
0.112273
  0
VERTEX
  8
0
 10
3.506609
 20
5.885715
 42
0.337854
  0
VERTEX
  8
0
 10
3.529435
 20
5.900411
 42
0.307041
  0
VERTEX
  8
0
 10
3.532784
 20
5.958396
 42
0.094507
  0
VERTEX
  8
0
 10
3.490604
 20
5.997778
 42
-0.002726
  0
VERTEX
  8
0
 10
3.482586
 20
6.003667
  0
VERTEX
  8
0
 10
3.482586
 20
6.866843
  0
VERTEX
  8
0
 10
1.621393
 20
6.866843
  0
VERTEX
  8
0
 10
1.621393
 20
7.434706
  0
VERTEX
  8
0
 10
3.482586
 20
7.434706
  0
VERTEX
  8
0
 10
3.482586
 20
9.422224
  0
VERTEX
  8
0
 10
4.239735
 20
9.422224
  0
VERTEX
  8
0
 10
4.239735
 20
7.434706
  0
VERTEX
  8
0
 10
6.240007
 20
7.434706
  0
VERTEX
  8
0
 10
6.240007
 20
6.866843
  0
SEQEND
  8
0
  0
POLYLINE
  8
0
 66
1
 70
1
  0
VERTEX
  8
0
 10
4.372236
 20
5.70955
  0
VERTEX
  8
0
 10
4.372236
 20
6.786394
  0
VERTEX
  8
0
 10
5.565912
 20
6.786394
 42
-0.015663
  0
VERTEX
  8
0
 10
5.531364
 20
6.695837
 42
0.116583
  0
VERTEX
  8
0
 10
5.360456
 20
6.6996
 42
0.079956
  0
VERTEX
  8
0
 10
5.253599
 20
6.650026
 42
-0.07734
  0
VERTEX
  8
0
 10
5.150681
 20
6.601722
 42
0.054225
  0
VERTEX
  8
0
 10
5.062347
 20
6.570232
 42
0.134748
  0
VERTEX
  8
0
 10
5.012158
 20
6.529669
 42
0.279044
  0
VERTEX
  8
0
 10
5.009894
 20
6.492496
 42
0.170365
  0
VERTEX
  8
0
 10
5.043517
 20
6.465418
 42
0.098734
  0
VERTEX
  8
0
 10
5.100993
 20
6.45514
 42
-0.076593
  0
VERTEX
  8
0
 10
5.180267
 20
6.459865
 42
-0.155583
  0
VERTEX
  8
0
 10
5.224525
 20
6.44145
 42
-0.132235
  0
VERTEX
  8
0
 10
5.245648
 20
6.40638
 42
-0.036032
  0
VERTEX
  8
0
 10
5.255517
 20
6.36114
 42
0.08491
  0
VERTEX
  8
0
 10
5.278544
 20
6.281968
 42
-0.15343
  0
SEQEND
  8
0
  0
POLYLINE
  8
0
 66
1
 70
1
  0
VERTEX
  8
0
 10
5.366814
 20
6.215821
 42
0.054289
  0
VERTEX
  8
0
 10
5.500985
 20
6.16816
 42
0.021304
  0
VERTEX
  8
0
 10
5.656078
 20
6.138912
 42
-0.16976
  0
VERTEX
  8
0
 10
5.690506
 20
6.104844
 42
-0.230968
  0
VERTEX
  8
0
 10
5.692415
 20
6.083017
 42
-0.257851
  0
VERTEX
  8
0
 10
5.667437
 20
6.070772
 42
0.088789
  0
VERTEX
  8
0
 10
5.241794
 20
6.081346
 42
0.025526
  0
SEQEND
  8
0
  0
POLYLINE
  8
0
 66
1
 70
1
  0
VERTEX
  8
0
 10
6.664812
 20
5.319104
 42
0.193417
  0
VERTEX
  8
0
 10
6.650615
 20
5.438711
 42
0.143327
  0
VERTEX
  8
0
 10
6.568275
 20
5.517856
 42
0.004762
  0
VERTEX
  8
0
 10
6.502039
 20
5.53439
 42
-0.050125
  0
VERTEX
  8
0
 10
6.300496
 20
5.597598
 42
-0.146668
  0
VERTEX
  8
0
 10
6.139539
 20
5.736485
 42
0.341866
  0
VERTEX
  8
0
 10
5.997574
 20
5.688214
 42
0.105129
  0
VERTEX
  8
0
 10
5.991878
 20
5.587553
 42
0.033564
  0
VERTEX
  8
0
 10
6.014437
 20
5.487231
 42
-0.060702
  0
VERTEX
  8
0
 10
6.0393
 20
5.35533
 42
-0.175732
  0
VERTEX
  8
0
 10
5.997574
 20
5.225408
 42
0.004202
  0
VERTEX
  8
0
 10
5.969758
 20
5.162913
 42
-0.056733
  0
VERTEX
  8
0
 10
5.838294
 20
4.915842
 42
-0.083824
  0
VERTEX
  8
0
 10
5.742275
 20
4.822074
 42
-0.118184
  0
VERTEX
  8
0
 10
5.614267
 20
4.773956
 42
0.200714
  0
VERTEX
  8
0
 10
5.690407
 20
4.950585
 42
0.067531
  0
VERTEX
  8
0
 10
5.659222
 20
5.14125
 42
-0.03576
  0
VERTEX
  8
0
 10
5.62872
 20
5.290568
 42
-0.110613
  0
VERTEX
  8
0
 10
5.64266
 20
5.441194
 42
-0.1679
  0
VERTEX
  8
0
 10
5.675125
 20
5.549213
 42
-0.046742
  0
VERTEX
  8
0
 10
5.753407
 20
5.640477
 42
0.024306
  0
VERTEX
  8
0
 10
5.805682
 20
5.697753
 42
0.103218
  0
VERTEX
  8
0
 10
5.83664
 20
5.753762
 42
0.201716
  0
VERTEX
  8
0
 10
5.828818
 20
5.811202
 42
0.117923
  0
VERTEX
  8
0
 10
5.764749
 20
5.872772
 42
0.154155
  0
VERTEX
  8
0
 10
5.659519
 20
5.847146
 42
0.046309
  0
VERTEX
  8
0
 10
5.567789
 20
5.778836
 42
-0.025333
  0
VERTEX
  8
0
 10
5.499154
 20
5.724801
 42
-0.083361
  0
VERTEX
  8
0
 10
5.424032
 20
5.688214
 42
-0.061516
  0
VERTEX
  8
0
 10
5.197239
 20
5.587656
 42
-0.142898
  0
VERTEX
  8
0
 10
4.9669
 20
5.591678
 42
0.118829
  0
VERTEX
  8
0
 10
4.857563
 20
5.521992
 42
-0.070004
  0
VERTEX
  8
0
 10
4.784784
 20
5.46832
 42
-0.203735
  0
VERTEX
  8
0
 10
4.694326
 20
5.463908
 42
0.085443
  0
VERTEX
  8
0
 10
4.756383
 20
5.561923
 42
0.026375
  0
VERTEX
  8
0
 10
4.797063
 20
5.6758
 42
-0.020356
  0
VERTEX
  8
0
 10
4.832844
 20
5.778443
 42
0.012748
  0
VERTEX
  8
0
 10
4.859457
 20
5.818937
 42
-0.083241
  0
VERTEX
  8
0
 10
4.971661
 20
5.956325
 42
-0.160727
  0
VERTEX
  8
0
 10
5.199279
 20
6.038547
 42
-0.138412
  0
VERTEX
  8
0
 10
5.66821
 20
6.034612
 42
0.455662
  0
VERTEX
  8
0
 10
5.728205
 20
6.105367
 42
0.35303
  0
VERTEX
  8
0
 10
5.64266
 20
6.179415
 42
-0.030356
  0
VERTEX
  8
0
 10
5.508801
 20
6.196671
 42
-0.07626
  0
VERTEX
  8
0
 10
5.388336
 20
6.238672
  0
VERTEX
  8
0
 10
5.305622
 20
6.312114
 42
-0.035517
  0
VERTEX
  8
0
 10
5.287744
 20
6.341258
 42
-0.085036
  0
VERTEX
  8
0
 10
5.273511
 20
6.397484
 42
0.081328
  0
VERTEX
  8
0
 10
5.259981
 20
6.452093
 42
0.236688
  0
VERTEX
  8
0
 10
5.213921
 20
6.486061
 42
0.051502
  0
VERTEX
  8
0
 10
5.149535
 20
6.485729
 42
-0.0528
  0
VERTEX
  8
0
 10
5.086792
 20
6.485446
 42
-0.294003
  0
VERTEX
  8
0
 10
5.04924
 20
6.511618
 42
-0.230449
  0
VERTEX
  8
0
 10
5.070354
 20
6.535245
 42
-0.060948
  0
VERTEX
  8
0
 10
5.105076
 20
6.544496
 42
0.108063
  0
VERTEX
  8
0
 10
5.151456
 20
6.559886
 42
-0.085108
  0
VERTEX
  8
0
 10
5.315384
 20
6.645559
 42
-0.127373
  0
VERTEX
  8
0
 10
5.51775
 20
6.661531
  0
VERTEX
  8
0
 10
5.626268
 20
6.62905
 42
-0.079407
  0
VERTEX
  8
0
 10
5.804497
 20
6.49174
 42
-0.102659
  0
VERTEX
  8
0
 10
5.85636
 20
6.383074
 42
-0.03034
  0
VERTEX
  8
0
 10
5.879809
 20
6.257671
 42
0.070468
  0
VERTEX
  8
0
 10
5.922645
 20
6.079019
 42
0.221501
  0
VERTEX
  8
0
 10
6.057199
 20
5.960789
 42
0.013274
  0
VERTEX
  8
0
 10
6.194802
 20
5.931025
 42
-0.039858
  0
VERTEX
  8
0
 10
6.460301
 20
5.86355
 42
-0.059208
  0
VERTEX
  8
0
 10
6.575689
 20
5.805596
 42
-0.094478
  0
VERTEX
  8
0
 10
6.663532
 20
5.719913
 42
-0.214558
  0
VERTEX
  8
0
 10
6.746535
 20
5.430113
 42
-0.117351
  0
VERTEX
  8
0
 10
6.710917
 20
5.339798
 42
-0.118674
  0
VERTEX
  8
0
 10
6.687257
 20
5.319191
 42
-0.246085
  0
SEQEND
  8
0
  0
ENDSEC
  0
EOF
