  0
SECTION
  2
HEADER
  9
$ACADVER
  1
AC1015
  9
$ACADMAINTVER
 70
     6
  9
$DWGCODEPAGE
  3
ANSI_1252
  9
$INSBASE
 10
0.0
 20
0.0
 30
0.0
  9
$EXTMIN
 10
1.000000000000000E+20
 20
1.000000000000000E+20
 30
1.000000000000000E+20
  9
$EXTMAX
 10
-1.000000000000000E+20
 20
-1.000000000000000E+20
 30
-1.000000000000000E+20
  9
$LIMMIN
 10
0.0
 20
0.0
  9
$LIMMAX
 10
12.0
 20
9.0
  9
$ORTHOMODE
 70
     0
  9
$REGENMODE
 70
     1
  9
$FILLMODE
 70
     1
  9
$QTEXTMODE
 70
     0
  9
$MIRRTEXT
 70
     1
  9
$LTSCALE
 40
1.0
  9
$ATTMODE
 70
     1
  9
$TEXTSIZE
 40
0.2
  9
$TRACEWID
 40
0.05
  9
$TEXTSTYLE
  7
Standard
  9
$CLAYER
  8
0
  9
$CELTYPE
  6
ByLayer
  9
$CECOLOR
 62
   256
  9
$CELTSCALE
 40
1.0
  9
$DISPSILH
 70
     0
  9
$DIMSCALE
 40
1.0
  9
$DIMASZ
 40
0.18
  9
$DIMEXO
 40
0.0625
  9
$DIMDLI
 40
0.38
  9
$DIMRND
 40
0.0
  9
$DIMDLE
 40
0.0
  9
$DIMEXE
 40
0.18
  9
$DIMTP
 40
0.0
  9
$DIMTM
 40
0.0
  9
$DIMTXT
 40
0.18
  9
$DIMCEN
 40
0.09
  9
$DIMTSZ
 40
0.0
  9
$DIMTOL
 70
     0
  9
$DIMLIM
 70
     0
  9
$DIMTIH
 70
     1
  9
$DIMTOH
 70
     1
  9
$DIMSE1
 70
     0
  9
$DIMSE2
 70
     0
  9
$DIMTAD
 70
     0
  9
$DIMZIN
 70
     0
  9
$DIMBLK
  1

  9
$DIMASO
 70
     1
  9
$DIMSHO
 70
     1
  9
$DIMPOST
  1

  9
$DIMAPOST
  1

  9
$DIMALT
 70
     0
  9
$DIMALTD
 70
     2
  9
$DIMALTF
 40
25.4
  9
$DIMLFAC
 40
1.0
  9
$DIMTOFL
 70
     0
  9
$DIMTVP
 40
0.0
  9
$DIMTIX
 70
     0
  9
$DIMSOXD
 70
     0
  9
$DIMSAH
 70
     0
  9
$DIMBLK1
  1

  9
$DIMBLK2
  1

  9
$DIMSTYLE
  2
Standard
  9
$DIMCLRD
 70
     0
  9
$DIMCLRE
 70
     0
  9
$DIMCLRT
 70
     0
  9
$DIMTFAC
 40
1.0
  9
$DIMGAP
 40
0.09
  9
$DIMJUST
 70
     0
  9
$DIMSD1
 70
     0
  9
$DIMSD2
 70
     0
  9
$DIMTOLJ
 70
     1
  9
$DIMTZIN
 70
     0
  9
$DIMALTZ
 70
     0
  9
$DIMALTTZ
 70
     0
  9
$DIMUPT
 70
     0
  9
$DIMDEC
 70
     4
  9
$DIMTDEC
 70
     4
  9
$DIMALTU
 70
     2
  9
$DIMALTTD
 70
     2
  9
$DIMTXSTY
  7
Standard
  9
$DIMAUNIT
 70
     0
  9
$DIMADEC
 70
     0
  9
$DIMALTRND
 40
0.0
  9
$DIMAZIN
 70
     0
  9
$DIMDSEP
 70
    46
  9
$DIMATFIT
 70
     3
  9
$DIMFRAC
 70
     0
  9
$DIMLDRBLK
  1

  9
$DIMLUNIT
 70
     2
  9
$DIMLWD
 70
    -2
  9
$DIMLWE
 70
    -2
  9
$DIMTMOVE
 70
     0
  9
$LUNITS
 70
     2
  9
$LUPREC
 70
     4
  9
$SKETCHINC
 40
0.1
  9
$FILLETRAD
 40
0.5
  9
$AUNITS
 70
     0
  9
$AUPREC
 70
     0
  9
$MENU
  1
.
  9
$ELEVATION
 40
0.0
  9
$PELEVATION
 40
0.0
  9
$THICKNESS
 40
0.0
  9
$LIMCHECK
 70
     0
  9
$CHAMFERA
 40
0.5
  9
$CHAMFERB
 40
0.5
  9
$CHAMFERC
 40
1.0
  9
$CHAMFERD
 40
0.0
  9
$SKPOLY
 70
     0
  9
$TDCREATE
 40
2458449.495985521
  9
$TDUCREATE
 40
2458449.704318854
  9
$TDUPDATE
 40
2458449.495985532
  9
$TDUUPDATE
 40
2458449.704318866
  9
$TDINDWG
 40
0.0000000116
  9
$TDUSRTIMER
 40
0.0000000116
  9
$USRTIMER
 70
     1
  9
$ANGBASE
 50
0.0
  9
$ANGDIR
 70
     0
  9
$PDMODE
 70
     0
  9
$PDSIZE
 40
0.0
  9
$PLINEWID
 40
0.0
  9
$SPLFRAME
 70
     0
  9
$SPLINETYPE
 70
     6
  9
$SPLINESEGS
 70
     8
  9
$HANDSEED
  5
64
  9
$SURFTAB1
 70
     6
  9
$SURFTAB2
 70
     6
  9
$SURFTYPE
 70
     6
  9
$SURFU
 70
     6
  9
$SURFV
 70
     6
  9
$UCSBASE
  2

  9
$UCSNAME
  2

  9
$UCSORG
 10
0.0
 20
0.0
 30
0.0
  9
$UCSXDIR
 10
1.0
 20
0.0
 30
0.0
  9
$UCSYDIR
 10
0.0
 20
1.0
 30
0.0
  9
$UCSORTHOREF
  2

  9
$UCSORTHOVIEW
 70
     0
  9
$UCSORGTOP
 10
0.0
 20
0.0
 30
0.0
  9
$UCSORGBOTTOM
 10
0.0
 20
0.0
 30
0.0
  9
$UCSORGLEFT
 10
0.0
 20
0.0
 30
0.0
  9
$UCSORGRIGHT
 10
0.0
 20
0.0
 30
0.0
  9
$UCSORGFRONT
 10
0.0
 20
0.0
 30
0.0
  9
$UCSORGBACK
 10
0.0
 20
0.0
 30
0.0
  9
$PUCSBASE
  2

  9
$PUCSNAME
  2

  9
$PUCSORG
 10
0.0
 20
0.0
 30
0.0
  9
$PUCSXDIR
 10
1.0
 20
0.0
 30
0.0
  9
$PUCSYDIR
 10
0.0
 20
1.0
 30
0.0
  9
$PUCSORTHOREF
  2

  9
$PUCSORTHOVIEW
 70
     0
  9
$PUCSORGTOP
 10
0.0
 20
0.0
 30
0.0
  9
$PUCSORGBOTTOM
 10
0.0
 20
0.0
 30
0.0
  9
$PUCSORGLEFT
 10
0.0
 20
0.0
 30
0.0
  9
$PUCSORGRIGHT
 10
0.0
 20
0.0
 30
0.0
  9
$PUCSORGFRONT
 10
0.0
 20
0.0
 30
0.0
  9
$PUCSORGBACK
 10
0.0
 20
0.0
 30
0.0
  9
$USERI1
 70
     0
  9
$USERI2
 70
     0
  9
$USERI3
 70
     0
  9
$USERI4
 70
     0
  9
$USERI5
 70
     0
  9
$USERR1
 40
0.0
  9
$USERR2
 40
0.0
  9
$USERR3
 40
0.0
  9
$USERR4
 40
0.0
  9
$USERR5
 40
0.0
  9
$WORLDVIEW
 70
     1
  9
$SHADEDGE
 70
     3
  9
$SHADEDIF
 70
    70
  9
$TILEMODE
 70
     1
  9
$MAXACTVP
 70
    64
  9
$PINSBASE
 10
0.0
 20
0.0
 30
0.0
  9
$PLIMCHECK
 70
     0
  9
$PEXTMIN
 10
1.000000000000000E+20
 20
1.000000000000000E+20
 30
1.000000000000000E+20
  9
$PEXTMAX
 10
-1.000000000000000E+20
 20
-1.000000000000000E+20
 30
-1.000000000000000E+20
  9
$PLIMMIN
 10
0.0
 20
0.0
  9
$PLIMMAX
 10
12.0
 20
9.0
  9
$UNITMODE
 70
     0
  9
$VISRETAIN
 70
     1
  9
$PLINEGEN
 70
     0
  9
$PSLTSCALE
 70
     1
  9
$TREEDEPTH
 70
  3020
  9
$CMLSTYLE
  2
Standard
  9
$CMLJUST
 70
     0
  9
$CMLSCALE
 40
1.0
  9
$PROXYGRAPHICS
 70
     1
  9
$MEASUREMENT
 70
     0
  9
$CELWEIGHT
370
    -1
  9
$ENDCAPS
280
     0
  9
$JOINSTYLE
280
     0
  9
$LWDISPLAY
290
     1
  9
$INSUNITS
 70
     1
  9
$HYPERLINKBASE
  1

  9
$STYLESHEET
  1

  9
$XEDIT
290
     1
  9
$CEPSNTYPE
380
     0
  9
$PSTYLEMODE
290
     1
  9
$FINGERPRINTGUID
  2
{3D5FB8C7-8518-4D3B-A373-0ADCB058D373}
  9
$VERSIONGUID
  2
{FAEB1C32-E019-11D5-929B-00C0DF256EC4}
  9
$EXTNAMES
290
     1
  9
$PSVPSCALE
 40
0.0
  9
$OLESTARTUP
290
     0
  0
ENDSEC
  0
SECTION
  2
CLASSES
  0
CLASS
  1
ACDBDICTIONARYWDFLT
  2
AcDbDictionaryWithDefault
  3
ObjectDBX Classes
 90
        0
280
     0
281
     0
  0
CLASS
  1
VISUALSTYLE
  2
AcDbVisualStyle
  3
ObjectDBX Classes
 90
     4095
280
     0
281
     0
  0
CLASS
  1
ACDBPLACEHOLDER
  2
AcDbPlaceHolder
  3
ObjectDBX Classes
 90
        0
280
     0
281
     0
  0
CLASS
  1
LAYOUT
  2
AcDbLayout
  3
ObjectDBX Classes
 90
        0
280
     0
281
     0
  0
ENDSEC
  0
SECTION
  2
TABLES
  0
TABLE
  2
VPORT
  5
8
330
0
100
AcDbSymbolTable
 70
     1
  0
VPORT
  5
29
330
8
100
AcDbSymbolTableRecord
100
AcDbViewportTableRecord
  2
*Active
 70
     0
 10
0.0
 20
0.0
 11
1.0
 21
1.0
 12
0.0
 22
0.0
 13
0.0
 23
0.0
 14
0.5
 24
0.5
 15
0.5
 25
0.5
 16
0.0
 26
0.0
 36
1.0
 17
500.0
 27
-500.0
 37
0.0
 40
1000.0
 41
1.0
 42
50.0
 43
0.0
 44
0.0
 50
0.0
 51
0.0
 71
     0
 72
   100
 73
     1
 74
     3
 75
     0
 76
     0
 77
     0
 78
     0
281
     0
 65
     1
110
0.0
120
0.0
130
0.0
111
1.0
121
0.0
131
0.0
112
0.0
122
1.0
132
0.0
 79
     0
146
0.0
  0
ENDTAB
  0
TABLE
  2
LTYPE
  5
5
330
0
100
AcDbSymbolTable
 70
     1
  0
LTYPE
  5
14
330
5
100
AcDbSymbolTableRecord
100
AcDbLinetypeTableRecord
  2
ByBlock
 70
     0
  3

 72
    65
 73
     0
 40
0.0
  0
LTYPE
  5
15
330
5
100
AcDbSymbolTableRecord
100
AcDbLinetypeTableRecord
  2
ByLayer
 70
     0
  3

 72
    65
 73
     0
 40
0.0
  0
LTYPE
  5
16
330
5
100
AcDbSymbolTableRecord
100
AcDbLinetypeTableRecord
  2
Continuous
 70
     0
  3
Solid line
 72
    65
 73
     0
 40
0.0
  0
ENDTAB
  0
TABLE
  2
LAYER
  5
2
330
0
100
AcDbSymbolTable
 70
     2
  0
LAYER
  5
10
330
2
100
AcDbSymbolTableRecord
100
AcDbLayerTableRecord
  2
0
 70
     0
 62
     7
  6
Continuous
370
    -3
390
F
  0
LAYER
  5
3B
330
2
100
AcDbSymbolTableRecord
100
AcDbLayerTableRecord
  2
Layer 1
 70
     0
 62
     7
  6
Continuous
370
    -3
390
F
  0
ENDTAB
  0
TABLE
  2
STYLE
  5
3
330
0
100
AcDbSymbolTable
 70
     1
  0
STYLE
  5
11
330
3
100
AcDbSymbolTableRecord
100
AcDbTextStyleTableRecord
  2
Standard
 70
     0
 40
0.0
 41
1.0
 50
0.0
 71
     0
 42
0.2
  3
txt
  4

  0
ENDTAB
  0
TABLE
  2
VIEW
  5
6
330
0
100
AcDbSymbolTable
 70
     0
  0
ENDTAB
  0
TABLE
  2
UCS
  5
7
330
0
100
AcDbSymbolTable
 70
     0
  0
ENDTAB
  0
TABLE
  2
APPID
  5
9
330
0
100
AcDbSymbolTable
 70
     1
  0
APPID
  5
12
330
9
100
AcDbSymbolTableRecord
100
AcDbRegAppTableRecord
  2
ACAD
 70
     0
  0
ENDTAB
  0
TABLE
  2
DIMSTYLE
  5
A
330
0
100
AcDbSymbolTable
 70
     1
100
AcDbDimStyleTable
  0
DIMSTYLE
105
27
330
A
100
AcDbSymbolTableRecord
100
AcDbDimStyleTableRecord
  2
Standard
 70
     0
340
11
  0
ENDTAB
  0
TABLE
  2
BLOCK_RECORD
  5
1
330
0
100
AcDbSymbolTable
 70
     2
  0
BLOCK_RECORD
  5
1F
330
1
100
AcDbSymbolTableRecord
100
AcDbBlockTableRecord
  2
*Model_Space
340
22
  0
BLOCK_RECORD
  5
1B
330
1
100
AcDbSymbolTableRecord
100
AcDbBlockTableRecord
  2
*Paper_Space
340
1E
  0
BLOCK_RECORD
  5
23
330
1
100
AcDbSymbolTableRecord
100
AcDbBlockTableRecord
  2
*Paper_Space0
340
26
  0
BLOCK_RECORD
  5
3C
330
1
100
AcDbSymbolTableRecord
100
AcDbBlockTableRecord
  2
block 2
340
0
102
{BLKREFS
331
3D
102
}
  0
ENDTAB
  0
ENDSEC
  0
SECTION
  2
BLOCKS
  0
BLOCK
  5
20
330
1F
100
AcDbEntity
  8
0
100
AcDbBlockBegin
  2
*Model_Space
 70
     0
 71
     0
 10
0.0
 20
0.0
 30
0.0
  3
*Model_Space
  1

  0
ENDBLK
  5
21
330
1F
100
AcDbEntity
  8
0
100
AcDbBlockEnd
  0
BLOCK
  5
1C
330
1B
100
AcDbEntity
 67
     1
  8
0
100
AcDbBlockBegin
  2
*Paper_Space
 70
     0
 71
     0
 10
0.0
 20
0.0
 30
0.0
  3
*Paper_Space
  1

  0
ENDBLK
  5
1D
330
1B
100
AcDbEntity
 67
     1
  8
0
100
AcDbBlockEnd
  0
BLOCK
  5
24
330
23
100
AcDbEntity
  8
0
100
AcDbBlockBegin
  2
*Paper_Space0
 70
     0
 71
     0
 10
0.0
 20
0.0
 30
0.0
  3
*Paper_Space0
  1

  0
ENDBLK
  5
25
330
23
100
AcDbEntity
  8
0
100
AcDbBlockEnd
  0
BLOCK
  5
3E
330
3C
100
AcDbEntity
  8
0
100
AcDbBlockBegin
  2
block 2
 70
     0
 71
     0
 10
0.0
 20
0.0
 30
0.0
  3
block 2
  1

  0
SPLINE
  5
40
330
3C
100
AcDbEntity
  8
Layer 1
370
     0
100
AcDbSpline
210
0.0
220
0.0
230
1.0
 70
    11
 71
     3
 72
    35
 73
    31
 74
     0
 42
0.0000000001
 43
0.0000000001
 40
0.0
 40
0.0
 40
0.0
 40
0.0
 40
1.0
 40
1.0
 40
1.0
 40
2.0
 40
2.0
 40
2.0
 40
3.0
 40
3.0
 40
3.0
 40
4.0
 40
4.0
 40
4.0
 40
5.0
 40
5.0
 40
5.0
 40
6.0
 40
6.0
 40
6.0
 40
7.0
 40
7.0
 40
7.0
 40
8.0
 40
8.0
 40
8.0
 40
9.0
 40
9.0
 40
9.0
 40
10.0
 40
10.0
 40
10.0
 40
10.0
 10
663.3671875
 20
-437.07275390625
 30
0.0
 10
653.259765625
 20
-435.498046875
 30
0.0
 10
643.0439453125
 20
-434.15625
 30
0.0
 10
633.166015625
 20
-432.85888671875
 30
0.0
 10
603.3017578125
 20
-428.935546875
 30
0.0
 10
572.4189453125
 20
-424.88134765625
 30
0.0
 10
542.427734375
 20
-413.92333984375
 30
0.0
 10
539.1357421875
 20
-412.7216796875
 30
0.0
 10
535.8818359375
 20
-411.43017578125
 30
0.0
 10
532.740234375
 20
-410.0771484375
 30
0.0
 10
527.7353515625
 20
-412.66357421875
 30
0.0
 10
523.1435546875
 20
-415.5390625
 30
0.0
 10
519.0380859375
 20
-418.65234375
 30
0.0
 10
527.953125
 20
-420.896484375
 30
0.0
 10
536.2197265625
 20
-424.6171875
 30
0.0
 10
543.7021484375
 20
-429.7568359375
 30
0.0
 10
561.037109375
 20
-441.6591796875
 30
0.0
 10
573.041015625
 20
-467.005859375
 30
0.0
 10
563.13671875
 20
-488.81689453125
 30
0.0
 10
562.150390625
 20
-490.9833984375
 30
0.0
 10
560.9736328125
 20
-493.0322265625
 30
0.0
 10
559.6123046875
 20
-494.9521484375
 30
0.0
 10
559.6123046875
 20
-494.9521484375
 30
0.0
 10
695.28515625
 20
-494.9521484375
 30
0.0
 10
695.28515625
 20
-494.9521484375
 30
0.0
 10
695.64453125
 20
-478.125
 30
0.0
 10
686.33984375
 20
-457.6787109375
 30
0.0
 10
669.30859375
 20
-438.0849609375
 30
0.0
 10
667.3330078125
 20
-437.7177734375
 30
0.0
 10
665.353515625
 20
-437.3837890625
 30
0.0
 10
663.3671875
 20
-437.07275390625
 30
0.0
  0
SPLINE
  5
41
330
3C
100
AcDbEntity
  8
Layer 1
370
     0
100
AcDbSpline
210
0.0
220
0.0
230
1.0
 70
    11
 71
     3
 72
   236
 73
   232
 74
     0
 42
0.0000000001
 43
0.0000000001
 40
0.0
 40
0.0
 40
0.0
 40
0.0
 40
1.0
 40
1.0
 40
1.0
 40
2.0
 40
2.0
 40
2.0
 40
3.0
 40
3.0
 40
3.0
 40
4.0
 40
4.0
 40
4.0
 40
5.0
 40
5.0
 40
5.0
 40
6.0
 40
6.0
 40
6.0
 40
7.0
 40
7.0
 40
7.0
 40
8.0
 40
8.0
 40
8.0
 40
9.0
 40
9.0
 40
9.0
 40
10.0
 40
10.0
 40
10.0
 40
11.0
 40
11.0
 40
11.0
 40
12.0
 40
12.0
 40
12.0
 40
13.0
 40
13.0
 40
13.0
 40
14.0
 40
14.0
 40
14.0
 40
15.0
 40
15.0
 40
15.0
 40
16.0
 40
16.0
 40
16.0
 40
17.0
 40
17.0
 40
17.0
 40
18.0
 40
18.0
 40
18.0
 40
19.0
 40
19.0
 40
19.0
 40
20.0
 40
20.0
 40
20.0
 40
21.0
 40
21.0
 40
21.0
 40
22.0
 40
22.0
 40
22.0
 40
23.0
 40
23.0
 40
23.0
 40
24.0
 40
24.0
 40
24.0
 40
25.0
 40
25.0
 40
25.0
 40
26.0
 40
26.0
 40
26.0
 40
27.0
 40
27.0
 40
27.0
 40
28.0
 40
28.0
 40
28.0
 40
29.0
 40
29.0
 40
29.0
 40
30.0
 40
30.0
 40
30.0
 40
31.0
 40
31.0
 40
31.0
 40
32.0
 40
32.0
 40
32.0
 40
33.0
 40
33.0
 40
33.0
 40
34.0
 40
34.0
 40
34.0
 40
35.0
 40
35.0
 40
35.0
 40
36.0
 40
36.0
 40
36.0
 40
37.0
 40
37.0
 40
37.0
 40
38.0
 40
38.0
 40
38.0
 40
39.0
 40
39.0
 40
39.0
 40
40.0
 40
40.0
 40
40.0
 40
41.0
 40
41.0
 40
41.0
 40
42.0
 40
42.0
 40
42.0
 40
43.0
 40
43.0
 40
43.0
 40
44.0
 40
44.0
 40
44.0
 40
45.0
 40
45.0
 40
45.0
 40
46.0
 40
46.0
 40
46.0
 40
47.0
 40
47.0
 40
47.0
 40
48.0
 40
48.0
 40
48.0
 40
49.0
 40
49.0
 40
49.0
 40
50.0
 40
50.0
 40
50.0
 40
51.0
 40
51.0
 40
51.0
 40
52.0
 40
52.0
 40
52.0
 40
53.0
 40
53.0
 40
53.0
 40
54.0
 40
54.0
 40
54.0
 40
55.0
 40
55.0
 40
55.0
 40
56.0
 40
56.0
 40
56.0
 40
57.0
 40
57.0
 40
57.0
 40
58.0
 40
58.0
 40
58.0
 40
59.0
 40
59.0
 40
59.0
 40
60.0
 40
60.0
 40
60.0
 40
61.0
 40
61.0
 40
61.0
 40
62.0
 40
62.0
 40
62.0
 40
63.0
 40
63.0
 40
63.0
 40
64.0
 40
64.0
 40
64.0
 40
65.0
 40
65.0
 40
65.0
 40
66.0
 40
66.0
 40
66.0
 40
67.0
 40
67.0
 40
67.0
 40
68.0
 40
68.0
 40
68.0
 40
69.0
 40
69.0
 40
69.0
 40
70.0
 40
70.0
 40
70.0
 40
71.0
 40
71.0
 40
71.0
 40
72.0
 40
72.0
 40
72.0
 40
73.0
 40
73.0
 40
73.0
 40
74.0
 40
74.0
 40
74.0
 40
75.0
 40
75.0
 40
75.0
 40
76.0
 40
76.0
 40
76.0
 40
77.0
 40
77.0
 40
77.0
 40
77.0
 10
298.89208984375
 20
-359.701171875
 30
0.0
 10
323.5595703125
 20
-359.701171875
 30
0.0
 10
347.8447265625
 20
-367.9052734375
 30
0.0
 10
367.271484375
 20
-382.8017578125
 30
0.0
 10
384.08544921875
 20
-395.6865234375
 30
0.0
 10
401.01953125
 20
-417.10791015625
 30
0.0
 10
413.060546875
 20
-440.60400390625
 30
0.0
 10
438.3359375
 20
-428.5361328125
 30
0.0
 10
467.4345703125
 20
-416.69921875
 30
0.0
 10
495.4091796875
 20
-416.11083984375
 30
0.0
 10
500.634765625
 20
-410.505859375
 30
0.0
 10
507.11328125
 20
-405.42626953125
 30
0.0
 10
514.7421875
 20
-400.9482421875
 30
0.0
 10
503.5517578125
 20
-394.275390625
 30
0.0
 10
494.3408203125
 20
-386.58642578125
 30
0.0
 10
487.29638671875
 20
-378.02392578125
 30
0.0
 10
486.0703125
 20
-377.3583984375
 30
0.0
 10
484.86328125
 20
-376.64599609375
 30
0.0
 10
483.65625
 20
-375.93212890625
 30
0.0
 10
481.92431640625
 20
-374.90673828125
 30
0.0
 10
480.2861328125
 20
-373.9375
 30
0.0
 10
478.61767578125
 20
-373.13330078125
 30
0.0
 10
474.19384765625
 20
-371.00390625
 30
0.0
 10
469.58642578125
 20
-370.30859375
 30
0.0
 10
464.4580078125
 20
-369.6787109375
 30
0.0
 10
459.599609375
 20
-369.0791015625
 30
0.0
 10
456.42431640625
 20
-365.1015625
 30
0.0
 10
456.7353515625
 20
-360.0048828125
 30
0.0
 10
457.1103515625
 20
-353.89208984375
 30
0.0
 10
462.4150390625
 20
-349.69140625
 30
0.0
 10
467.921875
 20
-351.375
 30
0.0
 10
469.84912109375
 20
-351.96533203125
 30
0.0
 10
471.791015625
 20
-352.6474609375
 30
0.0
 10
473.703125
 20
-353.4013671875
 30
0.0
 10
473.0283203125
 20
-351.29052734375
 30
0.0
 10
472.45068359375
 20
-349.15185546875
 30
0.0
 10
471.978515625
 20
-346.990234375
 30
0.0
 10
471.5361328125
 20
-344.98486328125
 30
0.0
 10
471.19140625
 20
-342.93408203125
 30
0.0
 10
470.951171875
 20
-340.8701171875
 30
0.0
 10
469.71044921875
 20
-339.96484375
 30
0.0
 10
468.49951171875
 20
-339.00537109375
 30
0.0
 10
467.28466796875
 20
-338.0439453125
 30
0.0
 10
464.51806640625
 20
-335.8525390625
 30
0.0
 10
461.90869140625
 20
-333.78515625
 30
0.0
 10
459.02978515625
 20
-332.427734375
 30
0.0
 10
455.416015625
 20
-330.72607421875
 30
0.0
 10
451.5693359375
 20
-329.83203125
 30
0.0
 10
447.49072265625
 20
-328.88525390625
 30
0.0
 10
443.734375
 20
-328.01171875
 30
0.0
 10
439.85400390625
 20
-327.1103515625
 30
0.0
 10
436.048828125
 20
-325.5166015625
 30
0.0
 10
431.6328125
 20
-323.6611328125
 30
0.0
 10
429.1845703125
 20
-318.5830078125
 30
0.0
 10
430.22314453125
 20
-313.44140625
 30
0.0
 10
431.1826171875
 20
-308.6767578125
 30
0.0
 10
434.89794921875
 20
-305.47705078125
 30
0.0
 10
439.4677734375
 20
-305.47705078125
 30
0.0
 10
450.62451171875
 20
-305.86328125
 30
0.0
 10
460.49560546875
 20
-312.380859375
 30
0.0
 10
467.88818359375
 20
-318.01708984375
 30
0.0
 10
467.88818359375
 20
-318.01708984375
 30
0.0
 10
468.8818359375
 20
-318.7744140625
 30
0.0
 10
468.8818359375
 20
-318.7744140625
 30
0.0
 10
469.82275390625
 20
-319.48681640625
 30
0.0
 10
470.80859375
 20
-320.234375
 30
0.0
 10
471.8056640625
 20
-321.01806640625
 30
0.0
 10
476.0986328125
 20
-300.29052734375
 30
0.0
 10
490.7490234375
 20
-283.755859375
 30
0.0
 10
510.603515625
 20
-277.90380859375
 30
0.0
 10
511.912109375
 20
-277.517578125
 30
0.0
 10
513.2236328125
 20
-277.32275390625
 30
0.0
 10
514.505859375
 20
-277.32275390625
 30
0.0
 10
521.669921875
 20
-277.32275390625
 30
0.0
 10
526.2626953125
 20
-283.16357421875
 30
0.0
 10
527.0947265625
 20
-288.93505859375
 30
0.0
 10
528.04296875
 20
-295.5029296875
 30
0.0
 10
524.42578125
 20
-301.17138671875
 30
0.0
 10
518.09765625
 20
-303.03662109375
 30
0.0
 10
503.56640625
 20
-307.31591796875
 30
0.0
 10
494.583984375
 20
-322.150390625
 30
0.0
 10
496.74365234375
 20
-338.3115234375
 30
0.0
 10
498.81298828125
 20
-353.8642578125
 30
0.0
 10
509.8388671875
 20
-369.6806640625
 30
0.0
 10
526.9892578125
 20
-381.70703125
 30
0.0
 10
530.9033203125
 20
-384.455078125
 30
0.0
 10
535.072265625
 20
-387.09228515625
 30
0.0
 10
539.69140625
 20
-389.74462890625
 30
0.0
 10
539.69140625
 20
-389.74462890625
 30
0.0
 10
539.9833984375
 20
-389.6416015625
 30
0.0
 10
539.9833984375
 20
-389.6416015625
 30
0.0
 10
554.94140625
 20
-384.5205078125
 30
0.0
 10
570.0458984375
 20
-381.9228515625
 30
0.0
 10
584.8798828125
 20
-381.9228515625
 30
0.0
 10
621.3642578125
 20
-381.9228515625
 30
0.0
 10
656.2177734375
 20
-398.09375
 30
0.0
 10
680.716796875
 20
-426.337890625
 30
0.0
 10
697.15234375
 20
-430.2119140625
 30
0.0
 10
709.763671875
 20
-435.95361328125
 30
0.0
 10
720.31640625
 20
-444.35693359375
 30
0.0
 10
730.171875
 20
-452.203125
 30
0.0
 10
741.103515625
 20
-465.22705078125
 30
0.0
 10
744.830078125
 20
-479.888671875
 30
0.0
 10
748.658203125
 20
-476.962890625
 30
0.0
 10
751.8671875
 20
-473.935546875
 30
0.0
 10
754.55859375
 20
-470.71875
 30
0.0
 10
768.3212890625
 20
-454.26513671875
 30
0.0
 10
763.916015625
 20
-440.46923828125
 30
0.0
 10
757.82421875
 20
-421.3740234375
 30
0.0
 10
756.69921875
 20
-417.8388671875
 30
0.0
 10
757.2021484375
 20
-414.36376953125
 30
0.0
 10
759.2333984375
 20
-411.583984375
 30
0.0
 10
761.453125
 20
-408.552734375
 30
0.0
 10
765.1875
 20
-406.744140625
 30
0.0
 10
769.236328125
 20
-406.744140625
 30
0.0
 10
772.1748046875
 20
-406.744140625
 30
0.0
 10
774.994140625
 20
-407.7509765625
 30
0.0
 10
777.171875
 20
-409.576171875
 30
0.0
 10
794.29296875
 20
-423.9609375
 30
0.0
 10
790.892578125
 20
-450.42822265625
 30
0.0
 10
779.001953125
 20
-468.029296875
 30
0.0
 10
778.8251953125
 20
-468.28955078125
 30
0.0
 10
778.6494140625
 20
-468.54638671875
 30
0.0
 10
778.47265625
 20
-468.80322265625
 30
0.0
 10
806.94921875
 20
-449.0166015625
 30
0.0
 10
825.375
 20
-421.400390625
 30
0.0
 10
830.2978515625
 20
-390.0654296875
 30
0.0
 10
833.4169921875
 20
-370.1865234375
 30
0.0
 10
829.6005859375
 20
-349.2470703125
 30
0.0
 10
819.8232421875
 20
-332.5009765625
 30
0.0
 10
814.20703125
 20
-327.83349609375
 30
0.0
 10
809.0341796875
 20
-326.150390625
 30
0.0
 10
803.6875
 20
-327.263671875
 30
0.0
 10
795.42578125
 20
-328.9658203125
 30
0.0
 10
789.3408203125
 20
-335.37841796875
 30
0.0
 10
782.802734375
 20
-342.95849609375
 30
0.0
 10
780.609375
 20
-345.505859375
 30
0.0
 10
777.689453125
 20
-346.91162109375
 30
0.0
 10
774.5888671875
 20
-346.91162109375
 30
0.0
 10
770.5927734375
 20
-346.91162109375
 30
0.0
 10
766.6787109375
 20
-344.6064453125
 30
0.0
 10
764.373046875
 20
-340.89453125
 30
0.0
 10
762.0791015625
 20
-337.2021484375
 30
0.0
 10
761.8359375
 20
-332.9208984375
 30
0.0
 10
763.7021484375
 20
-329.1494140625
 30
0.0
 10
769.8056640625
 20
-316.8193359375
 30
0.0
 10
783.421875
 20
-309.580078125
 30
0.0
 10
799.5908203125
 20
-310.11083984375
 30
0.0
 10
793.1572265625
 20
-305.52587890625
 30
0.0
 10
786.0009765625
 20
-302.1611328125
 30
0.0
 10
778.203125
 20
-300.0634765625
 30
0.0
 10
773.7197265625
 20
-298.8564453125
 30
0.0
 10
769.037109375
 20
-298.24560546875
 30
0.0
 10
764.294921875
 20
-298.24560546875
 30
0.0
 10
750.1162109375
 20
-298.24560546875
 30
0.0
 10
736.328125
 20
-303.7021484375
 30
0.0
 10
726.46875
 20
-313.21484375
 30
0.0
 10
721.103515625
 20
-318.39013671875
 30
0.0
 10
714.375
 20
-326.8291015625
 30
0.0
 10
712.77734375
 20
-337.640625
 30
0.0
 10
711.8623046875
 20
-343.86376953125
 30
0.0
 10
713.13671875
 20
-353.087890625
 30
0.0
 10
717.3134765625
 20
-357.92578125
 30
0.0
 10
720.169921875
 20
-361.236328125
 30
0.0
 10
723.859375
 20
-361.703125
 30
0.0
 10
728.6875
 20
-359.59619140625
 30
0.0
 10
730.869140625
 20
-358.64208984375
 30
0.0
 10
733.0810546875
 20
-358.15673828125
 30
0.0
 10
735.263671875
 20
-358.15673828125
 30
0.0
 10
741.2421875
 20
-358.15673828125
 30
0.0
 10
746.5439453125
 20
-361.98974609375
 30
0.0
 10
748.4521484375
 20
-367.69384765625
 30
0.0
 10
750.4609375
 20
-373.701171875
 30
0.0
 10
748.3095703125
 20
-379.990234375
 30
0.0
 10
742.84375
 20
-384.1044921875
 30
0.0
 10
737.2421875
 20
-388.322265625
 30
0.0
 10
730.64453125
 20
-390.552734375
 30
0.0
 10
723.76953125
 20
-390.552734375
 30
0.0
 10
707.38671875
 20
-390.552734375
 30
0.0
 10
691.423828125
 20
-378.08740234375
 30
0.0
 10
686.6474609375
 20
-361.556640625
 30
0.0
 10
680.19921875
 20
-339.2548828125
 30
0.0
 10
690.05859375
 20
-316.36376953125
 30
0.0
 10
703.9375
 20
-301.3271484375
 30
0.0
 10
703.9375
 20
-301.3271484375
 30
0.0
 10
703.1279296875
 20
-301.2724609375
 30
0.0
 10
703.1279296875
 20
-301.2724609375
 30
0.0
 10
691.8359375
 20
-300.5380859375
 30
0.0
 10
668.337890625
 20
-299.01025390625
 30
0.0
 10
668.802734375
 20
-281.5966796875
 30
0.0
 10
668.908203125
 20
-277.27587890625
 30
0.0
 10
671.83984375
 20
-273.46875
 30
0.0
 10
675.92578125
 20
-272.34619140625
 30
0.0
 10
677.267578125
 20
-271.97705078125
 30
0.0
 10
678.63671875
 20
-271.78955078125
 30
0.0
 10
679.9931640625
 20
-271.78955078125
 30
0.0
 10
686.4599609375
 20
-271.78955078125
 30
0.0
 10
691.513671875
 20
-275.806640625
 30
0.0
 10
696.40234375
 20
-279.6923828125
 30
0.0
 10
699.6708984375
 20
-282.2939453125
 30
0.0
 10
702.767578125
 20
-284.7529296875
 30
0.0
 10
705.8720703125
 20
-285.65478515625
 30
0.0
 10
710.73828125
 20
-287.07373046875
 30
0.0
 10
716.1142578125
 20
-287.5458984375
 30
0.0
 10
721.71875
 20
-287.15234375
 30
0.0
 10
732.9951171875
 20
-280.6591796875
 30
0.0
 10
745.9248046875
 20
-277.23095703125
 30
0.0
 10
759.181640625
 20
-277.23095703125
 30
0.0
 10
774.4951171875
 20
-277.23095703125
 30
0.0
 10
789.9560546875
 20
-281.7353515625
 30
0.0
 10
803.4970703125
 20
-290.037109375
 30
0.0
 10
803.23828125
 20
-283.00244140625
 30
0.0
 10
803.9052734375
 20
-276.09521484375
 30
0.0
 10
804.392578125
 20
-271.0341796875
 30
0.0
 10
804.52734375
 20
-269.6376953125
 30
0.0
 10
804.693359375
 20
-267.9453125
 30
0.0
 10
804.91015625
 20
-266.0576171875
 30
0.0
 10
785.7685546875
 20
-219.93115234375
 30
0.0
 10
760.5458984375
 20
-184.6689453125
 30
0.0
 10
729.15625
 20
-160.41552734375
 30
0.0
 10
674.845703125
 20
-118.46533203125
 30
0.0
 10
613.5888671875
 20
-97.486328125
 30
0.0
 10
545.3701171875
 20
-97.486328125
 30
0.0
 10
461.8564453125
 20
-97.486328125
 30
0.0
 10
395.48974609375
 20
-131.40478515625
 30
0.0
 10
346.2890625
 20
-199.2294921875
 30
0.0
 10
315.490234375
 20
-241.6875
 30
0.0
 10
294.3349609375
 20
-295.58935546875
 30
0.0
 10
282.81494140625
 20
-360.9267578125
 30
0.0
 10
288.1328125
 20
-360.1435546875
 30
0.0
 10
293.5068359375
 20
-359.701171875
 30
0.0
 10
298.89208984375
 20
-359.701171875
 30
0.0
  0
SPLINE
  5
42
330
3C
100
AcDbEntity
  8
Layer 1
370
     0
100
AcDbSpline
210
0.0
220
0.0
230
1.0
 70
    11
 71
     3
 72
    62
 73
    58
 74
     0
 42
0.0000000001
 43
0.0000000001
 40
0.0
 40
0.0
 40
0.0
 40
0.0
 40
1.0
 40
1.0
 40
1.0
 40
2.0
 40
2.0
 40
2.0
 40
3.0
 40
3.0
 40
3.0
 40
4.0
 40
4.0
 40
4.0
 40
5.0
 40
5.0
 40
5.0
 40
6.0
 40
6.0
 40
6.0
 40
7.0
 40
7.0
 40
7.0
 40
8.0
 40
8.0
 40
8.0
 40
9.0
 40
9.0
 40
9.0
 40
10.0
 40
10.0
 40
10.0
 40
11.0
 40
11.0
 40
11.0
 40
12.0
 40
12.0
 40
12.0
 40
13.0
 40
13.0
 40
13.0
 40
14.0
 40
14.0
 40
14.0
 40
15.0
 40
15.0
 40
15.0
 40
16.0
 40
16.0
 40
16.0
 40
17.0
 40
17.0
 40
17.0
 40
18.0
 40
18.0
 40
18.0
 40
19.0
 40
19.0
 40
19.0
 40
19.0
 10
264.89697265625
 20
-804.4287109375
 30
0.0
 10
258.91357421875
 20
-804.4287109375
 30
0.0
 10
253.61669921875
 20
-800.59375
 30
0.0
 10
251.70849609375
 20
-794.8955078125
 30
0.0
 10
250.990234375
 20
-792.7431640625
 30
0.0
 10
250.8251953125
 20
-790.5615234375
 30
0.0
 10
251.130859375
 20
-788.455078125
 30
0.0
 10
249.927734375
 20
-787.28125
 30
0.0
 10
248.68115234375
 20
-786.1826171875
 30
0.0
 10
247.4873046875
 20
-784.994140625
 30
0.0
 10
227.04052734375
 20
-764.6044921875
 30
0.0
 10
209.5595703125
 20
-742.3056640625
 30
0.0
 10
194.83203125
 20
-718.23828125
 30
0.0
 10
181.62841796875
 20
-734.1181640625
 30
0.0
 10
172.9912109375
 20
-752.5625
 30
0.0
 10
169.85888671875
 20
-772.521484375
 30
0.0
 10
166.73974609375
 20
-792.390625
 30
0.0
 10
170.55615234375
 20
-813.33203125
 30
0.0
 10
180.3330078125
 20
-830.0859375
 30
0.0
 10
185.94921875
 20
-834.75390625
 30
0.0
 10
191.115234375
 20
-836.42578125
 30
0.0
 10
196.47216796875
 20
-835.3232421875
 30
0.0
 10
204.73828125
 20
-833.6171875
 30
0.0
 10
210.8193359375
 20
-827.203125
 30
0.0
 10
217.349609375
 20
-819.626953125
 30
0.0
 10
219.54638671875
 20
-817.0771484375
 30
0.0
 10
222.46337890625
 20
-815.671875
 30
0.0
 10
225.5634765625
 20
-815.671875
 30
0.0
 10
229.5634765625
 20
-815.671875
 30
0.0
 10
233.48486328125
 20
-817.98046875
 30
0.0
 10
235.78662109375
 20
-821.6923828125
 30
0.0
 10
238.0810546875
 20
-825.388671875
 30
0.0
 10
238.3212890625
 20
-829.666015625
 30
0.0
 10
236.4541015625
 20
-833.4375
 30
0.0
 10
230.3505859375
 20
-845.767578125
 30
0.0
 10
216.66748046875
 20
-853.017578125
 30
0.0
 10
200.56591796875
 20
-852.478515625
 30
0.0
 10
206.9990234375
 20
-857.0595703125
 30
0.0
 10
214.15576171875
 20
-860.42578125
 30
0.0
 10
221.953125
 20
-862.525390625
 30
0.0
 10
226.44091796875
 20
-863.732421875
 30
0.0
 10
231.11572265625
 20
-864.33984375
 30
0.0
 10
235.86181640625
 20
-864.33984375
 30
0.0
 10
250.0400390625
 20
-864.33984375
 30
0.0
 10
263.83203125
 20
-858.880859375
 30
0.0
 10
273.6953125
 20
-849.3671875
 30
0.0
 10
279.056640625
 20
-844.193359375
 30
0.0
 10
285.78564453125
 20
-835.75390625
 30
0.0
 10
287.37890625
 20
-824.9462890625
 30
0.0
 10
287.61328125
 20
-823.349609375
 30
0.0
 10
287.69970703125
 20
-821.5576171875
 30
0.0
 10
287.6357421875
 20
-819.6943359375
 30
0.0
 10
281.01513671875
 20
-814.7421875
 30
0.0
 10
274.5576171875
 20
-809.5009765625
 30
0.0
 10
268.22216796875
 20
-804.0537109375
 30
0.0
 10
267.11083984375
 20
-804.2978515625
 30
0.0
 10
265.9990234375
 20
-804.4287109375
 30
0.0
 10
264.89697265625
 20
-804.4287109375
 30
0.0
  0
SPLINE
  5
43
330
3C
100
AcDbEntity
  8
Layer 1
370
     0
100
AcDbSpline
210
0.0
220
0.0
230
1.0
 70
    11
 71
     3
 72
    86
 73
    82
 74
     0
 42
0.0000000001
 43
0.0000000001
 40
0.0
 40
0.0
 40
0.0
 40
0.0
 40
1.0
 40
1.0
 40
1.0
 40
2.0
 40
2.0
 40
2.0
 40
3.0
 40
3.0
 40
3.0
 40
4.0
 40
4.0
 40
4.0
 40
5.0
 40
5.0
 40
5.0
 40
6.0
 40
6.0
 40
6.0
 40
7.0
 40
7.0
 40
7.0
 40
8.0
 40
8.0
 40
8.0
 40
9.0
 40
9.0
 40
9.0
 40
10.0
 40
10.0
 40
10.0
 40
11.0
 40
11.0
 40
11.0
 40
12.0
 40
12.0
 40
12.0
 40
13.0
 40
13.0
 40
13.0
 40
14.0
 40
14.0
 40
14.0
 40
15.0
 40
15.0
 40
15.0
 40
16.0
 40
16.0
 40
16.0
 40
17.0
 40
17.0
 40
17.0
 40
18.0
 40
18.0
 40
18.0
 40
19.0
 40
19.0
 40
19.0
 40
20.0
 40
20.0
 40
20.0
 40
21.0
 40
21.0
 40
21.0
 40
22.0
 40
22.0
 40
22.0
 40
23.0
 40
23.0
 40
23.0
 40
24.0
 40
24.0
 40
24.0
 40
25.0
 40
25.0
 40
25.0
 40
26.0
 40
26.0
 40
26.0
 40
27.0
 40
27.0
 40
27.0
 40
27.0
 10
701.2646484375
 20
-802.884765625
 30
0.0
 10
676.5966796875
 20
-802.884765625
 30
0.0
 10
652.3115234375
 20
-794.677734375
 30
0.0
 10
632.884765625
 20
-779.783203125
 30
0.0
 10
616.0673828125
 20
-766.890625
 30
0.0
 10
599.13671875
 20
-745.4736328125
 30
0.0
 10
587.095703125
 20
-721.9794921875
 30
0.0
 10
561.828125
 20
-734.046875
 30
0.0
 10
532.7294921875
 20
-745.8828125
 30
0.0
 10
504.7470703125
 20
-746.474609375
 30
0.0
 10
499.525390625
 20
-752.0791015625
 30
0.0
 10
493.04345703125
 20
-757.1591796875
 30
0.0
 10
485.41455078125
 20
-761.634765625
 30
0.0
 10
496.60498046875
 20
-768.30859375
 30
0.0
 10
505.8193359375
 20
-775.9970703125
 30
0.0
 10
512.8671875
 20
-784.5634765625
 30
0.0
 10
514.08203125
 20
-785.22265625
 30
0.0
 10
515.2822265625
 20
-785.931640625
 30
0.0
 10
516.4814453125
 20
-786.640625
 30
0.0
 10
518.220703125
 20
-787.6708984375
 30
0.0
 10
519.86328125
 20
-788.646484375
 30
0.0
 10
521.53515625
 20
-789.4521484375
 30
0.0
 10
525.9697265625
 20
-791.5849609375
 30
0.0
 10
530.5732421875
 20
-792.2783203125
 30
0.0
 10
535.6982421875
 20
-792.908203125
 30
0.0
 10
540.556640625
 20
-793.50390625
 30
0.0
 10
543.736328125
 20
-797.482421875
 30
0.0
 10
543.4208984375
 20
-802.576171875
 30
0.0
 10
543.0458984375
 20
-808.69140625
 30
0.0
 10
537.7451171875
 20
-812.8974609375
 30
0.0
 10
532.234375
 20
-811.2109375
 30
0.0
 10
530.3115234375
 20
-810.6220703125
 30
0.0
 10
528.365234375
 20
-809.939453125
 30
0.0
 10
526.453125
 20
-809.185546875
 30
0.0
 10
527.12890625
 20
-811.29296875
 30
0.0
 10
527.7060546875
 20
-813.4296875
 30
0.0
 10
528.185546875
 20
-815.5927734375
 30
0.0
 10
528.6201171875
 20
-817.583984375
 30
0.0
 10
528.96484375
 20
-819.634765625
 30
0.0
 10
529.208984375
 20
-821.71484375
 30
0.0
 10
530.4384765625
 20
-822.6142578125
 30
0.0
 10
531.642578125
 20
-823.56640625
 30
0.0
 10
532.849609375
 20
-824.5263671875
 30
0.0
 10
535.623046875
 20
-826.7197265625
 30
0.0
 10
538.240234375
 20
-828.79296875
 30
0.0
 10
541.134765625
 20
-830.1572265625
 30
0.0
 10
544.740234375
 20
-831.859375
 30
0.0
 10
548.5869140625
 20
-832.751953125
 30
0.0
 10
552.658203125
 20
-833.6962890625
 30
0.0
 10
556.4150390625
 20
-834.5703125
 30
0.0
 10
560.298828125
 20
-835.4736328125
 30
0.0
 10
564.107421875
 20
-837.0703125
 30
0.0
 10
568.5166015625
 20
-838.921875
 30
0.0
 10
570.9716796875
 20
-843.994140625
 30
0.0
 10
569.9375
 20
-849.1376953125
 30
0.0
 10
568.9775390625
 20
-853.90625
 30
0.0
 10
565.2587890625
 20
-857.1123046875
 30
0.0
 10
560.6806640625
 20
-857.1123046875
 30
0.0
 10
549.53125
 20
-856.72265625
 30
0.0
 10
539.6650390625
 20
-850.203125
 30
0.0
 10
532.271484375
 20
-844.568359375
 30
0.0
 10
532.271484375
 20
-844.568359375
 30
0.0
 10
531.2744140625
 20
-843.810546875
 30
0.0
 10
531.2744140625
 20
-843.810546875
 30
0.0
 10
530.337890625
 20
-843.0986328125
 30
0.0
 10
529.35546875
 20
-842.3486328125
 30
0.0
 10
528.3544921875
 20
-841.5693359375
 30
0.0
 10
527.056640625
 20
-847.8408203125
 30
0.0
 10
524.79296875
 20
-853.71875
 30
0.0
 10
521.7412109375
 20
-859.04296875
 30
0.0
 10
532.1259765625
 20
-860.2197265625
 30
0.0
 10
542.7353515625
 20
-860.861328125
 30
0.0
 10
553.603515625
 20
-860.861328125
 30
0.0
 10
596.3330078125
 20
-860.861328125
 30
0.0
 10
640.052734375
 20
-850.4765625
 30
0.0
 10
684.75390625
 20
-829.6923828125
 30
0.0
 10
702.54296875
 20
-821.421875
 30
0.0
 10
718.828125
 20
-810.828125
 30
0.0
 10
733.666015625
 20
-797.99609375
 30
0.0
 10
723.2216796875
 20
-801.197265625
 30
0.0
 10
712.259765625
 20
-802.884765625
 30
0.0
 10
701.2646484375
 20
-802.884765625
 30
0.0
  0
SPLINE
  5
44
330
3C
100
AcDbEntity
  8
Layer 1
370
     0
100
AcDbSpline
210
0.0
220
0.0
230
1.0
 70
    11
 71
     3
 72
    29
 73
    25
 74
     0
 42
0.0000000001
 43
0.0000000001
 40
0.0
 40
0.0
 40
0.0
 40
0.0
 40
1.0
 40
1.0
 40
1.0
 40
2.0
 40
2.0
 40
2.0
 40
3.0
 40
3.0
 40
3.0
 40
4.0
 40
4.0
 40
4.0
 40
5.0
 40
5.0
 40
5.0
 40
6.0
 40
6.0
 40
6.0
 40
7.0
 40
7.0
 40
7.0
 40
8.0
 40
8.0
 40
8.0
 40
8.0
 10
503.419921875
 20
-824.275390625
 30
0.0
 10
501.34375
 20
-808.720703125
 30
0.0
 10
490.31787109375
 20
-792.904296875
 30
0.0
 10
473.1669921875
 20
-780.8818359375
 30
0.0
 10
469.2529296875
 20
-778.1298828125
 30
0.0
 10
465.083984375
 20
-775.4912109375
 30
0.0
 10
460.4658203125
 20
-772.8408203125
 30
0.0
 10
460.4658203125
 20
-772.8408203125
 30
0.0
 10
460.16552734375
 20
-772.9453125
 30
0.0
 10
460.16552734375
 20
-772.9453125
 30
0.0
 10
445.21484375
 20
-778.06640625
 30
0.0
 10
430.10693359375
 20
-780.6640625
 30
0.0
 10
415.2724609375
 20
-780.6640625
 30
0.0
 10
392.53759765625
 20
-780.6640625
 30
0.0
 10
370.435546875
 20
-774.3779296875
 30
0.0
 10
351.078125
 20
-762.80859375
 30
0.0
 10
351.74755859375
 20
-763.6220703125
 30
0.0
 10
352.3720703125
 20
-764.484375
 30
0.0
 10
353.05224609375
 20
-765.2939453125
 30
0.0
 10
392.43798828125
 20
-812.0126953125
 30
0.0
 10
438.9150390625
 20
-841.52734375
 30
0.0
 10
492.4267578125
 20
-853.9853515625
 30
0.0
 10
500.58984375
 20
-847.2001953125
 30
0.0
 10
504.9951171875
 20
-836.103515625
 30
0.0
 10
503.419921875
 20
-824.275390625
 30
0.0
  0
SPLINE
  5
45
330
3C
100
AcDbEntity
  8
Layer 1
370
     0
100
AcDbSpline
210
0.0
220
0.0
230
1.0
 70
    11
 71
     3
 72
    20
 73
    16
 74
     0
 42
0.0000000001
 43
0.0000000001
 40
0.0
 40
0.0
 40
0.0
 40
0.0
 40
1.0
 40
1.0
 40
1.0
 40
2.0
 40
2.0
 40
2.0
 40
3.0
 40
3.0
 40
3.0
 40
4.0
 40
4.0
 40
4.0
 40
5.0
 40
5.0
 40
5.0
 40
5.0
 10
355.18896484375
 20
-741.87109375
 30
0.0
 10
352.60986328125
 20
-741.5673828125
 30
0.0
 10
349.9931640625
 20
-741.255859375
 30
0.0
 10
347.369140625
 20
-740.92578125
 30
0.0
 10
359.8076171875
 20
-751.625
 30
0.0
 10
372.8798828125
 20
-759.4794921875
 30
0.0
 10
383.70703125
 20
-762.5908203125
 30
0.0
 10
399.90576171875
 20
-767.236328125
 30
0.0
 10
420.50244140625
 20
-767.19140625
 30
0.0
 10
439.9140625
 20
-762.576171875
 30
0.0
 10
418.31298828125
 20
-753.2822265625
 30
0.0
 10
393.55517578125
 20
-746.7822265625
 30
0.0
 10
366.15087890625
 20
-743.220703125
 30
0.0
 10
362.529296875
 20
-742.748046875
 30
0.0
 10
358.87060546875
 20
-742.3134765625
 30
0.0
 10
355.18896484375
 20
-741.87109375
 30
0.0
  0
SPLINE
  5
46
330
3C
100
AcDbEntity
  8
Layer 1
370
     0
100
AcDbSpline
210
0.0
220
0.0
230
1.0
 70
    11
 71
     3
 72
    53
 73
    49
 74
     0
 42
0.0000000001
 43
0.0000000001
 40
0.0
 40
0.0
 40
0.0
 40
0.0
 40
1.0
 40
1.0
 40
1.0
 40
2.0
 40
2.0
 40
2.0
 40
3.0
 40
3.0
 40
3.0
 40
4.0
 40
4.0
 40
4.0
 40
5.0
 40
5.0
 40
5.0
 40
6.0
 40
6.0
 40
6.0
 40
7.0
 40
7.0
 40
7.0
 40
8.0
 40
8.0
 40
8.0
 40
9.0
 40
9.0
 40
9.0
 40
10.0
 40
10.0
 40
10.0
 40
11.0
 40
11.0
 40
11.0
 40
12.0
 40
12.0
 40
12.0
 40
13.0
 40
13.0
 40
13.0
 40
14.0
 40
14.0
 40
14.0
 40
15.0
 40
15.0
 40
15.0
 40
16.0
 40
16.0
 40
16.0
 40
16.0
 10
388.5205078125
 20
-452.7841796875
 30
0.0
 10
390.912109375
 20
-451.5712890625
 30
0.0
 10
393.337890625
 20
-450.341796875
 30
0.0
 10
395.79345703125
 20
-449.1064453125
 30
0.0
 10
389.802734375
 20
-434.34716796875
 30
0.0
 10
383.10693359375
 20
-422.7802734375
 30
0.0
 10
375.376953125
 20
-413.8203125
 30
0.0
 10
355.140625
 20
-390.35205078125
 30
0.0
 10
327.92333984375
 20
-377.4296875
 30
0.0
 10
298.7529296875
 20
-377.4296875
 30
0.0
 10
292.28271484375
 20
-377.4521484375
 30
0.0
 10
285.986328125
 20
-378.1552734375
 30
0.0
 10
279.8642578125
 20
-379.44482421875
 30
0.0
 10
279.27392578125
 20
-383.53271484375
 30
0.0
 10
278.77734375
 20
-387.7314453125
 30
0.0
 10
278.2578125
 20
-391.90234375
 30
0.0
 10
289.46533203125
 20
-394.5732421875
 30
0.0
 10
298.455078125
 20
-402.0146484375
 30
0.0
 10
302.9892578125
 20
-412.5400390625
 30
0.0
 10
307.6982421875
 20
-423.4716796875
 30
0.0
 10
306.734375
 20
-436.11669921875
 30
0.0
 10
300.41015625
 20
-446.3662109375
 30
0.0
 10
297.81982421875
 20
-450.56298828125
 30
0.0
 10
293.8984375
 20
-452.8740234375
 30
0.0
 10
289.36962890625
 20
-452.8740234375
 30
0.0
 10
283.57421875
 20
-452.8740234375
 30
0.0
 10
277.89453125
 20
-448.998046875
 30
0.0
 10
275.5625
 20
-443.44970703125
 30
0.0
 10
273.3359375
 20
-438.154296875
 30
0.0
 10
274.5654296875
 20
-432.56103515625
 30
0.0
 10
278.92919921875
 20
-428.1015625
 30
0.0
 10
280.03857421875
 20
-426.9658203125
 30
0.0
 10
280.43603515625
 20
-425.7548828125
 30
0.0
 10
280.18115234375
 20
-424.287109375
 30
0.0
 10
279.75390625
 20
-421.818359375
 30
0.0
 10
277.62060546875
 20
-419.2578125
 30
0.0
 10
275.513671875
 20
-417.7978515625
 30
0.0
 10
273.6806640625
 20
-439.02392578125
 30
0.0
 10
272.6962890625
 20
-461.2587890625
 30
0.0
 10
272.55419921875
 20
-484.4921875
 30
0.0
 10
277.7724609375
 20
-485.78759765625
 30
0.0
 10
283.3583984375
 20
-486.455078125
 30
0.0
 10
289.287109375
 20
-486.455078125
 30
0.0
 10
312.9501953125
 20
-486.453125
 30
0.0
 10
338.052734375
 20
-476.591796875
 30
0.0
 10
361.65966796875
 20
-465.935546875
 30
0.0
 10
369.89599609375
 20
-462.22021484375
 30
0.0
 10
378.9384765625
 20
-457.63720703125
 30
0.0
 10
388.5205078125
 20
-452.7841796875
 30
0.0
  0
SPLINE
  5
47
330
3C
100
AcDbEntity
  8
Layer 1
370
     0
100
AcDbSpline
210
0.0
220
0.0
230
1.0
 70
    11
 71
     3
 72
    35
 73
    31
 74
     0
 42
0.0000000001
 43
0.0000000001
 40
0.0
 40
0.0
 40
0.0
 40
0.0
 40
1.0
 40
1.0
 40
1.0
 40
2.0
 40
2.0
 40
2.0
 40
3.0
 40
3.0
 40
3.0
 40
4.0
 40
4.0
 40
4.0
 40
5.0
 40
5.0
 40
5.0
 40
6.0
 40
6.0
 40
6.0
 40
7.0
 40
7.0
 40
7.0
 40
8.0
 40
8.0
 40
8.0
 40
9.0
 40
9.0
 40
9.0
 40
10.0
 40
10.0
 40
10.0
 40
10.0
 10
336.78955078125
 20
-725.5107421875
 30
0.0
 10
346.904296875
 20
-727.0888671875
 30
0.0
 10
357.12353515625
 20
-728.431640625
 30
0.0
 10
367.005859375
 20
-729.732421875
 30
0.0
 10
396.869140625
 20
-733.6533203125
 30
0.0
 10
427.7451171875
 20
-737.7060546875
 30
0.0
 10
457.732421875
 20
-748.6640625
 30
0.0
 10
461.0244140625
 20
-749.86328125
 30
0.0
 10
464.2744140625
 20
-751.1533203125
 30
0.0
 10
467.419921875
 20
-752.5068359375
 30
0.0
 10
472.4169921875
 20
-749.923828125
 30
0.0
 10
477.005859375
 20
-747.0517578125
 30
0.0
 10
481.1142578125
 20
-743.9326171875
 30
0.0
 10
472.20703125
 20
-741.69140625
 30
0.0
 10
463.93701171875
 20
-737.97265625
 30
0.0
 10
456.4541015625
 20
-732.828125
 30
0.0
 10
439.123046875
 20
-720.9296875
 30
0.0
 10
427.115234375
 20
-695.580078125
 30
0.0
 10
437.02001953125
 20
-673.7685546875
 30
0.0
 10
438.001953125
 20
-671.6015625
 30
0.0
 10
439.17919921875
 20
-669.5546875
 30
0.0
 10
440.5439453125
 20
-667.634765625
 30
0.0
 10
440.5439453125
 20
-667.634765625
 30
0.0
 10
304.87158203125
 20
-667.634765625
 30
0.0
 10
304.87158203125
 20
-667.634765625
 30
0.0
 10
304.51171875
 20
-684.4609375
 30
0.0
 10
313.81640625
 20
-704.90625
 30
0.0
 10
330.84375
 20
-724.498046875
 30
0.0
 10
332.8232421875
 20
-724.8662109375
 30
0.0
 10
334.802734375
 20
-725.203125
 30
0.0
 10
336.78955078125
 20
-725.5107421875
 30
0.0
  0
SPLINE
  5
48
330
3C
100
AcDbEntity
  8
Layer 1
370
     0
100
AcDbSpline
210
0.0
220
0.0
230
1.0
 70
    11
 71
     3
 72
    20
 73
    16
 74
     0
 42
0.0000000001
 43
0.0000000001
 40
0.0
 40
0.0
 40
0.0
 40
0.0
 40
1.0
 40
1.0
 40
1.0
 40
2.0
 40
2.0
 40
2.0
 40
3.0
 40
3.0
 40
3.0
 40
4.0
 40
4.0
 40
4.0
 40
5.0
 40
5.0
 40
5.0
 40
5.0
 10
402.3125
 20
-467.11083984375
 30
0.0
 10
399.48974609375
 20
-468.6103515625
 30
0.0
 10
396.6669921875
 20
-470.119140625
 30
0.0
 10
393.84375
 20
-471.6279296875
 30
0.0
 10
378.52587890625
 20
-479.8193359375
 30
0.0
 10
362.8408203125
 20
-488.20947265625
 30
0.0
 10
346.54052734375
 20
-494.9521484375
 30
0.0
 10
346.54052734375
 20
-494.9521484375
 30
0.0
 10
410.61279296875
 20
-494.9521484375
 30
0.0
 10
410.61279296875
 20
-494.9521484375
 30
0.0
 10
410.61279296875
 20
-494.9521484375
 30
0.0
 10
410.12158203125
 20
-493.2421875
 30
0.0
 10
410.12158203125
 20
-493.2421875
 30
0.0
 10
407.669921875
 20
-484.65185546875
 30
0.0
 10
405.14306640625
 20
-475.81005859375
 30
0.0
 10
402.3125
 20
-467.11083984375
 30
0.0
  0
SPLINE
  5
49
330
3C
100
AcDbEntity
  8
Layer 1
370
     0
100
AcDbSpline
210
0.0
220
0.0
230
1.0
 70
    11
 71
     3
 72
    20
 73
    16
 74
     0
 42
0.0000000001
 43
0.0000000001
 40
0.0
 40
0.0
 40
0.0
 40
0.0
 40
1.0
 40
1.0
 40
1.0
 40
2.0
 40
2.0
 40
2.0
 40
3.0
 40
3.0
 40
3.0
 40
4.0
 40
4.0
 40
4.0
 40
5.0
 40
5.0
 40
5.0
 40
5.0
 10
479.28125
 20
-445.02587890625
 30
0.0
 10
480.01220703125
 20
-442.1845703125
 30
0.0
 10
480.953125
 20
-439.37451171875
 30
0.0
 10
482.0927734375
 20
-436.62109375
 30
0.0
 10
459.11962890625
 20
-440.0625
 30
0.0
 10
438.41064453125
 20
-448.908203125
 30
0.0
 10
420.75341796875
 20
-457.61669921875
 30
0.0
 10
425.87451171875
 20
-470.7490234375
 30
0.0
 10
428.888671875
 20
-483.27587890625
 30
0.0
 10
429.73583984375
 20
-494.9521484375
 30
0.0
 10
429.73583984375
 20
-494.9521484375
 30
0.0
 10
489.2421875
 20
-494.9521484375
 30
0.0
 10
489.2421875
 20
-494.9521484375
 30
0.0
 10
478.6923828125
 20
-481.83056640625
 30
0.0
 10
474.6962890625
 20
-462.8818359375
 30
0.0
 10
479.28125
 20
-445.02587890625
 30
0.0
  0
SPLINE
  5
4A
330
3C
100
AcDbEntity
  8
Layer 1
370
     0
100
AcDbSpline
210
0.0
220
0.0
230
1.0
 70
    11
 71
     3
 72
    23
 73
    19
 74
     0
 42
0.0000000001
 43
0.0000000001
 40
0.0
 40
0.0
 40
0.0
 40
0.0
 40
1.0
 40
1.0
 40
1.0
 40
2.0
 40
2.0
 40
2.0
 40
3.0
 40
3.0
 40
3.0
 40
4.0
 40
4.0
 40
4.0
 40
5.0
 40
5.0
 40
5.0
 40
6.0
 40
6.0
 40
6.0
 40
6.0
 10
496.822265625
 20
-727.25390625
 30
0.0
 10
501.8232421875
 20
-719.453125
 30
0.0
 10
506.5654296875
 20
-707.7861328125
 30
0.0
 10
503.5927734375
 20
-693.9150390625
 30
0.0
 10
500.5859375
 20
-679.8642578125
 30
0.0
 10
487.8623046875
 20
-668.857421875
 30
0.0
 10
474.62109375
 20
-668.857421875
 30
0.0
 10
470.24267578125
 20
-668.857421875
 30
0.0
 10
466.017578125
 20
-670.0537109375
 30
0.0
 10
462.0703125
 20
-672.404296875
 30
0.0
 10
456.296875
 20
-675.845703125
 30
0.0
 10
452.95654296875
 20
-680.8955078125
 30
0.0
 10
452.1357421875
 20
-687.421875
 30
0.0
 10
451.0146484375
 20
-696.3369140625
 30
0.0
 10
455.07470703125
 20
-707.16015625
 30
0.0
 10
462.23486328125
 20
-714.3505859375
 30
0.0
 10
470.107421875
 20
-722.263671875
 30
0.0
 10
481.73681640625
 20
-726.59765625
 30
0.0
 10
496.822265625
 20
-727.25390625
 30
0.0
  0
SPLINE
  5
4B
330
3C
100
AcDbEntity
  8
Layer 1
370
     0
100
AcDbSpline
210
0.0
220
0.0
230
1.0
 70
    11
 71
     3
 72
    20
 73
    16
 74
     0
 42
0.0000000001
 43
0.0000000001
 40
0.0
 40
0.0
 40
0.0
 40
0.0
 40
1.0
 40
1.0
 40
1.0
 40
2.0
 40
2.0
 40
2.0
 40
3.0
 40
3.0
 40
3.0
 40
4.0
 40
4.0
 40
4.0
 40
5.0
 40
5.0
 40
5.0
 40
5.0
 10
520.875
 20
-717.5595703125
 30
0.0
 10
520.140625
 20
-720.408203125
 30
0.0
 10
519.19921875
 20
-723.216796875
 30
0.0
 10
518.0634765625
 20
-725.96484375
 30
0.0
 10
541.0517578125
 20
-722.51953125
 30
0.0
 10
561.7529296875
 20
-713.67578125
 30
0.0
 10
579.4033203125
 20
-704.966796875
 30
0.0
 10
574.2822265625
 20
-691.830078125
 30
0.0
 10
571.267578125
 20
-679.3017578125
 30
0.0
 10
570.4169921875
 20
-667.634765625
 30
0.0
 10
570.4169921875
 20
-667.634765625
 30
0.0
 10
510.9140625
 20
-667.634765625
 30
0.0
 10
510.9140625
 20
-667.634765625
 30
0.0
 10
521.4677734375
 20
-680.755859375
 30
0.0
 10
525.4638671875
 20
-699.70703125
 30
0.0
 10
520.875
 20
-717.5595703125
 30
0.0
  0
SPLINE
  5
4C
330
3C
100
AcDbEntity
  8
Layer 1
370
     0
100
AcDbSpline
210
0.0
220
0.0
230
1.0
 70
    11
 71
     3
 72
    23
 73
    19
 74
     0
 42
0.0000000001
 43
0.0000000001
 40
0.0
 40
0.0
 40
0.0
 40
0.0
 40
1.0
 40
1.0
 40
1.0
 40
2.0
 40
2.0
 40
2.0
 40
3.0
 40
3.0
 40
3.0
 40
4.0
 40
4.0
 40
4.0
 40
5.0
 40
5.0
 40
5.0
 40
6.0
 40
6.0
 40
6.0
 40
6.0
 10
503.333984375
 20
-435.3310546875
 30
0.0
 10
498.3369140625
 20
-443.134765625
 30
0.0
 10
493.5947265625
 20
-454.80126953125
 30
0.0
 10
496.5634765625
 20
-468.673828125
 30
0.0
 10
499.56640625
 20
-482.72119140625
 30
0.0
 10
512.2939453125
 20
-493.72412109375
 30
0.0
 10
525.53515625
 20
-493.72412109375
 30
0.0
 10
529.91796875
 20
-493.72412109375
 30
0.0
 10
534.142578125
 20
-492.5322265625
 30
0.0
 10
538.09375
 20
-490.1796875
 30
0.0
 10
543.859375
 20
-486.74169921875
 30
0.0
 10
547.2041015625
 20
-481.6904296875
 30
0.0
 10
548.021484375
 20
-475.1630859375
 30
0.0
 10
549.1416015625
 20
-466.24658203125
 30
0.0
 10
545.08203125
 20
-455.42529296875
 30
0.0
 10
537.9248046875
 20
-448.23486328125
 30
0.0
 10
530.044921875
 20
-440.3212890625
 30
0.0
 10
518.416015625
 20
-435.9853515625
 30
0.0
 10
503.333984375
 20
-435.3310546875
 30
0.0
  0
SPLINE
  5
4D
330
3C
100
AcDbEntity
  8
Layer 1
370
     0
100
AcDbSpline
210
0.0
220
0.0
230
1.0
 70
    11
 71
     3
 72
   221
 73
   217
 74
     0
 42
0.0000000001
 43
0.0000000001
 40
0.0
 40
0.0
 40
0.0
 40
0.0
 40
1.0
 40
1.0
 40
1.0
 40
2.0
 40
2.0
 40
2.0
 40
3.0
 40
3.0
 40
3.0
 40
4.0
 40
4.0
 40
4.0
 40
5.0
 40
5.0
 40
5.0
 40
6.0
 40
6.0
 40
6.0
 40
7.0
 40
7.0
 40
7.0
 40
8.0
 40
8.0
 40
8.0
 40
9.0
 40
9.0
 40
9.0
 40
10.0
 40
10.0
 40
10.0
 40
11.0
 40
11.0
 40
11.0
 40
12.0
 40
12.0
 40
12.0
 40
13.0
 40
13.0
 40
13.0
 40
14.0
 40
14.0
 40
14.0
 40
15.0
 40
15.0
 40
15.0
 40
16.0
 40
16.0
 40
16.0
 40
17.0
 40
17.0
 40
17.0
 40
18.0
 40
18.0
 40
18.0
 40
19.0
 40
19.0
 40
19.0
 40
20.0
 40
20.0
 40
20.0
 40
21.0
 40
21.0
 40
21.0
 40
22.0
 40
22.0
 40
22.0
 40
23.0
 40
23.0
 40
23.0
 40
24.0
 40
24.0
 40
24.0
 40
25.0
 40
25.0
 40
25.0
 40
26.0
 40
26.0
 40
26.0
 40
27.0
 40
27.0
 40
27.0
 40
28.0
 40
28.0
 40
28.0
 40
29.0
 40
29.0
 40
29.0
 40
30.0
 40
30.0
 40
30.0
 40
31.0
 40
31.0
 40
31.0
 40
32.0
 40
32.0
 40
32.0
 40
33.0
 40
33.0
 40
33.0
 40
34.0
 40
34.0
 40
34.0
 40
35.0
 40
35.0
 40
35.0
 40
36.0
 40
36.0
 40
36.0
 40
37.0
 40
37.0
 40
37.0
 40
38.0
 40
38.0
 40
38.0
 40
39.0
 40
39.0
 40
39.0
 40
40.0
 40
40.0
 40
40.0
 40
41.0
 40
41.0
 40
41.0
 40
42.0
 40
42.0
 40
42.0
 40
43.0
 40
43.0
 40
43.0
 40
44.0
 40
44.0
 40
44.0
 40
45.0
 40
45.0
 40
45.0
 40
46.0
 40
46.0
 40
46.0
 40
47.0
 40
47.0
 40
47.0
 40
48.0
 40
48.0
 40
48.0
 40
49.0
 40
49.0
 40
49.0
 40
50.0
 40
50.0
 40
50.0
 40
51.0
 40
51.0
 40
51.0
 40
52.0
 40
52.0
 40
52.0
 40
53.0
 40
53.0
 40
53.0
 40
54.0
 40
54.0
 40
54.0
 40
55.0
 40
55.0
 40
55.0
 40
56.0
 40
56.0
 40
56.0
 40
57.0
 40
57.0
 40
57.0
 40
58.0
 40
58.0
 40
58.0
 40
59.0
 40
59.0
 40
59.0
 40
60.0
 40
60.0
 40
60.0
 40
61.0
 40
61.0
 40
61.0
 40
62.0
 40
62.0
 40
62.0
 40
63.0
 40
63.0
 40
63.0
 40
64.0
 40
64.0
 40
64.0
 40
65.0
 40
65.0
 40
65.0
 40
66.0
 40
66.0
 40
66.0
 40
67.0
 40
67.0
 40
67.0
 40
68.0
 40
68.0
 40
68.0
 40
69.0
 40
69.0
 40
69.0
 40
70.0
 40
70.0
 40
70.0
 40
71.0
 40
71.0
 40
71.0
 40
72.0
 40
72.0
 40
72.0
 40
72.0
 10
96.7705078125
 20
-650.48046875
 30
0.0
 10
96.7705078125
 20
-650.48046875
 30
0.0
 10
96.7705078125
 20
-667.634765625
 30
0.0
 10
96.7705078125
 20
-667.634765625
 30
0.0
 10
96.7705078125
 20
-667.634765625
 30
0.0
 10
169.17822265625
 20
-667.634765625
 30
0.0
 10
169.17822265625
 20
-667.634765625
 30
0.0
 10
172.5244140625
 20
-675.7626953125
 30
0.0
 10
176.06689453125
 20
-683.7705078125
 30
0.0
 10
179.95068359375
 20
-691.552734375
 30
0.0
 10
178.71533203125
 20
-691.23828125
 30
0.0
 10
177.4765625
 20
-690.875
 30
0.0
 10
176.224609375
 20
-690.3984375
 30
0.0
 10
171.7783203125
 20
-688.6962890625
 30
0.0
 10
166.0009765625
 20
-686.349609375
 30
0.0
 10
160.77880859375
 20
-683.271484375
 30
0.0
 10
160.77880859375
 20
-683.271484375
 30
0.0
 10
158.85205078125
 20
-682.11328125
 30
0.0
 10
158.85205078125
 20
-682.11328125
 30
0.0
 10
155.0283203125
 20
-679.7783203125
 30
0.0
 10
151.4140625
 20
-677.57421875
 30
0.0
 10
145.40087890625
 20
-677.408203125
 30
0.0
 10
142.5966796875
 20
-677.408203125
 30
0.0
 10
139.96484375
 20
-678.7021484375
 30
0.0
 10
138.1806640625
 20
-680.951171875
 30
0.0
 10
136.298828125
 20
-683.33203125
 30
0.0
 10
135.58984375
 20
-686.4921875
 30
0.0
 10
136.28369140625
 20
-689.4091796875
 30
0.0
 10
140.6845703125
 20
-707.837890625
 30
0.0
 10
165.611328125
 20
-709.2705078125
 30
0.0
 10
173.146484375
 20
-709.2705078125
 30
0.0
 10
175.62451171875
 20
-709.2705078125
 30
0.0
 10
178.03125
 20
-709.142578125
 30
0.0
 10
180.30322265625
 20
-708.8916015625
 30
0.0
 10
182.1552734375
 20
-708.685546875
 30
0.0
 10
184.3896484375
 20
-708.37109375
 30
0.0
 10
186.87109375
 20
-707.8837890625
 30
0.0
 10
185.81787109375
 20
-709.11328125
 30
0.0
 10
184.779296875
 20
-710.365234375
 30
0.0
 10
183.76708984375
 20
-711.6396484375
 30
0.0
 10
182.9462890625
 20
-711.939453125
 30
0.0
 10
182.2265625
 20
-712.46875
 30
0.0
 10
181.6826171875
 20
-713.1845703125
 30
0.0
 10
178.8935546875
 20
-716.880859375
 30
0.0
 10
176.029296875
 20
-720.884765625
 30
0.0
 10
173.060546875
 20
-725.0234375
 30
0.0
 10
154.48828125
 20
-750.955078125
 30
0.0
 10
133.4345703125
 20
-780.5
 30
0.0
 10
101.63623046875
 20
-778.1298828125
 30
0.0
 10
94.6181640625
 20
-777.5751953125
 30
0.0
 10
89.6025390625
 20
-782.2763671875
 30
0.0
 10
89.28759765625
 20
-789.13671875
 30
0.0
 10
89.00244140625
 20
-795.326171875
 30
0.0
 10
93.0439453125
 20
-802.302734375
 30
0.0
 10
101.0966796875
 20
-803.052734375
 30
0.0
 10
121.92529296875
 20
-804.9833984375
 30
0.0
 10
136.5537109375
 20
-791.93359375
 30
0.0
 10
147.9052734375
 20
-779.2177734375
 30
0.0
 10
150.4619140625
 20
-776.349609375
 30
0.0
 10
153.08251953125
 20
-773.40234375
 30
0.0
 10
155.71044921875
 20
-770.376953125
 30
0.0
 10
150.619140625
 20
-795.599609375
 30
0.0
 10
154.10595703125
 20
-820.166015625
 30
0.0
 10
165.982421875
 20
-840.984375
 30
0.0
 10
169.13134765625
 20
-846.505859375
 30
0.0
 10
172.962890625
 20
-851.76171875
 30
0.0
 10
177.3974609375
 20
-856.62109375
 30
0.0
 10
177.52880859375
 20
-859.263671875
 30
0.0
 10
177.85888671875
 20
-861.869140625
 30
0.0
 10
178.177734375
 20
-864.400390625
 30
0.0
 10
178.5712890625
 20
-867.5341796875
 30
0.0
 10
178.9462890625
 20
-870.49609375
 30
0.0
 10
178.95361328125
 20
-873.423828125
 30
0.0
 10
178.9833984375
 20
-882.5966796875
 30
0.0
 10
176.83154296875
 20
-890.5634765625
 30
0.0
 10
171.97314453125
 20
-899.24609375
 30
0.0
 10
171.6806640625
 20
-899.7744140625
 30
0.0
 10
171.24609375
 20
-900.494140625
 30
0.0
 10
170.728515625
 20
-901.3525390625
 30
0.0
 10
165.01513671875
 20
-910.833984375
 30
0.0
 10
159.24169921875
 20
-921.5107421875
 30
0.0
 10
163.0654296875
 20
-928.28125
 30
0.0
 10
164.2802734375
 20
-930.42578125
 30
0.0
 10
166.94970703125
 20
-932.982421875
 30
0.0
 10
172.7939453125
 20
-932.982421875
 30
0.0
 10
173.150390625
 20
-932.982421875
 30
0.0
 10
173.517578125
 20
-932.974609375
 30
0.0
 10
173.896484375
 20
-932.9560546875
 30
0.0
 10
191.88720703125
 20
-932.0673828125
 30
0.0
 10
194.70263671875
 20
-902.630859375
 30
0.0
 10
195.763671875
 20
-891.548828125
 30
0.0
 10
196.2509765625
 20
-886.48828125
 30
0.0
 10
196.91796875
 20
-879.5830078125
 30
0.0
 10
196.65966796875
 20
-872.54296875
 30
0.0
 10
210.20068359375
 20
-880.849609375
 30
0.0
 10
225.6650390625
 20
-885.3525390625
 30
0.0
 10
240.97509765625
 20
-885.3525390625
 30
0.0
 10
254.2275390625
 20
-885.3525390625
 30
0.0
 10
267.1572265625
 20
-881.921875
 30
0.0
 10
278.43408203125
 20
-875.4287109375
 30
0.0
 10
284.0498046875
 20
-875.04296875
 30
0.0
 10
289.42578125
 20
-875.51171875
 30
0.0
 10
294.28466796875
 20
-876.9287109375
 30
0.0
 10
297.392578125
 20
-877.83203125
 30
0.0
 10
300.4853515625
 20
-880.291015625
 30
0.0
 10
303.76171875
 20
-882.896484375
 30
0.0
 10
308.646484375
 20
-886.78125
 30
0.0
 10
313.6962890625
 20
-890.7958984375
 30
0.0
 10
320.1669921875
 20
-890.7958984375
 30
0.0
 10
321.52392578125
 20
-890.7958984375
 30
0.0
 10
322.888671875
 20
-890.6123046875
 30
0.0
 10
324.23046875
 20
-890.2412109375
 30
0.0
 10
328.376953125
 20
-889.09765625
 30
0.0
 10
331.2451171875
 20
-885.37890625
 30
0.0
 10
331.357421875
 20
-880.98828125
 30
0.0
 10
331.818359375
 20
-863.5751953125
 30
0.0
 10
308.32421875
 20
-862.044921875
 30
0.0
 10
297.0361328125
 20
-861.310546875
 30
0.0
 10
297.0361328125
 20
-861.310546875
 30
0.0
 10
296.2265625
 20
-861.2578125
 30
0.0
 10
296.2265625
 20
-861.2578125
 30
0.0
 10
302.642578125
 20
-854.30078125
 30
0.0
 10
308.17431640625
 20
-845.6513671875
 30
0.0
 10
311.65673828125
 20
-836.1708984375
 30
0.0
 10
373.283203125
 20
-874.912109375
 30
0.0
 10
446.052734375
 20
-894.3837890625
 30
0.0
 10
530.0751953125
 20
-894.3837890625
 30
0.0
 10
625.7734375
 20
-894.3837890625
 30
0.0
 10
706.505859375
 20
-863.8486328125
 30
0.0
 10
772.287109375
 20
-802.791015625
 30
0.0
 10
772.89453125
 20
-805.0322265625
 30
0.0
 10
773.64453125
 20
-807.232421875
 30
0.0
 10
774.671875
 20
-809.3359375
 30
0.0
 10
776.490234375
 20
-813.0400390625
 30
0.0
 10
779.912109375
 20
-815.169921875
 30
0.0
 10
784.0625
 20
-815.169921875
 30
0.0
 10
787.638671875
 20
-815.169921875
 30
0.0
 10
791.2421875
 20
-813.5576171875
 30
0.0
 10
793.701171875
 20
-810.8505859375
 30
0.0
 10
795.87890625
 20
-808.458984375
 30
0.0
 10
796.921875
 20
-805.4599609375
 30
0.0
 10
796.6328125
 20
-802.396484375
 30
0.0
 10
796.171875
 20
-797.51171875
 30
0.0
 10
794.9345703125
 20
-792.908203125
 30
0.0
 10
793.734375
 20
-788.455078125
 30
0.0
 10
793.220703125
 20
-786.53515625
 30
0.0
 10
792.734375
 20
-784.6611328125
 30
0.0
 10
792.298828125
 20
-782.7978515625
 30
0.0
 10
794.5
 20
-780.431640625
 30
0.0
 10
796.685546875
 20
-778.025390625
 30
0.0
 10
798.84765625
 20
-775.5849609375
 30
0.0
 10
817.2705078125
 20
-799.896484375
 30
0.0
 10
830.0166015625
 20
-827.9267578125
 30
0.0
 10
837.072265625
 20
-859.68359375
 30
0.0
 10
837.072265625
 20
-859.68359375
 30
0.0
 10
862.3623046875
 20
-859.68359375
 30
0.0
 10
862.3623046875
 20
-859.68359375
 30
0.0
 10
862.3623046875
 20
-859.68359375
 30
0.0
 10
862.3623046875
 20
-678.826171875
 30
0.0
 10
862.3623046875
 20
-678.826171875
 30
0.0
 10
870.99609375
 20
-674.76953125
 30
0.0
 10
880.6455078125
 20
-672.474609375
 30
0.0
 10
889.68359375
 20
-672.474609375
 30
0.0
 10
900.8330078125
 20
-672.474609375
 30
0.0
 10
920.58203125
 20
-675.9013671875
 30
0.0
 10
927.5400390625
 20
-698.8564453125
 30
0.0
 10
931.701171875
 20
-712.591796875
 30
0.0
 10
926.701171875
 20
-727.9697265625
 30
0.0
 10
915.65625
 20
-735.4150390625
 30
0.0
 10
908.8935546875
 20
-739.970703125
 30
0.0
 10
901.365234375
 20
-740.3935546875
 30
0.0
 10
895.26953125
 20
-736.5400390625
 30
0.0
 10
892.076171875
 20
-734.478515625
 30
0.0
 10
889.638671875
 20
-731.755859375
 30
0.0
 10
887.7646484375
 20
-728.126953125
 30
0.0
 10
887.5771484375
 20
-727.7861328125
 30
0.0
 10
887.408203125
 20
-727.44921875
 30
0.0
 10
887.2548828125
 20
-727.111328125
 30
0.0
 10
887.2880859375
 20
-727.111328125
 30
0.0
 10
887.322265625
 20
-727.111328125
 30
0.0
 10
887.359375
 20
-727.111328125
 30
0.0
 10
892.900390625
 20
-727.111328125
 30
0.0
 10
898.1337890625
 20
-724.595703125
 30
0.0
 10
901.3505859375
 20
-720.3828125
 30
0.0
 10
904.634765625
 20
-716.08984375
 30
0.0
 10
905.5234375
 20
-710.365234375
 30
0.0
 10
903.8623046875
 20
-704.26171875
 30
0.0
 10
901.77734375
 20
-696.6064453125
 30
0.0
 10
895.322265625
 20
-691.666015625
 30
0.0
 10
887.412109375
 20
-691.666015625
 30
0.0
 10
884.6005859375
 20
-691.666015625
 30
0.0
 10
881.7216796875
 20
-692.306640625
 30
0.0
 10
879.07421875
 20
-693.525390625
 30
0.0
 10
867.1943359375
 20
-699.005859375
 30
0.0
 10
863.775390625
 20
-713.1318359375
 30
0.0
 10
864.4541015625
 20
-723.5615234375
 30
0.0
 10
865.818359375
 20
-744.5546875
 30
0.0
 10
883.45703125
 20
-761.6279296875
 30
0.0
 10
903.7724609375
 20
-761.6279296875
 30
0.0
 10
906.107421875
 20
-761.6279296875
 30
0.0
 10
908.451171875
 20
-761.3984375
 30
0.0
 10
910.7412109375
 20
-760.94140625
 30
0.0
 10
932.2109375
 20
-756.65625
 30
0.0
 10
949.486328125
 20
-734.34375
 30
0.0
 10
950.0634765625
 20
-710.14453125
 30
0.0
 10
950.6484375
 20
-685.9599609375
 30
0.0
 10
935.5029296875
 20
-663.1591796875
 30
0.0
 10
913.2265625
 20
-654.701171875
 30
0.0
 10
909.2529296875
 20
-653.1943359375
 30
0.0
 10
905.099609375
 20
-652.099609375
 30
0.0
 10
900.8330078125
 20
-651.4365234375
 30
0.0
 10
900.8330078125
 20
-651.4365234375
 30
0.0
 10
900.8330078125
 20
-650.48046875
 30
0.0
 10
900.8330078125
 20
-650.48046875
 30
0.0
 10
900.8330078125
 20
-650.48046875
 30
0.0
 10
96.7705078125
 20
-650.48046875
 30
0.0
 10
96.7705078125
 20
-650.48046875
 30
0.0
  0
SPLINE
  5
4E
330
3C
100
AcDbEntity
  8
Layer 1
370
     0
100
AcDbSpline
210
0.0
220
0.0
230
1.0
 70
    11
 71
     3
 72
    80
 73
    76
 74
     0
 42
0.0000000001
 43
0.0000000001
 40
0.0
 40
0.0
 40
0.0
 40
0.0
 40
1.0
 40
1.0
 40
1.0
 40
2.0
 40
2.0
 40
2.0
 40
3.0
 40
3.0
 40
3.0
 40
4.0
 40
4.0
 40
4.0
 40
5.0
 40
5.0
 40
5.0
 40
6.0
 40
6.0
 40
6.0
 40
7.0
 40
7.0
 40
7.0
 40
8.0
 40
8.0
 40
8.0
 40
9.0
 40
9.0
 40
9.0
 40
10.0
 40
10.0
 40
10.0
 40
11.0
 40
11.0
 40
11.0
 40
12.0
 40
12.0
 40
12.0
 40
13.0
 40
13.0
 40
13.0
 40
14.0
 40
14.0
 40
14.0
 40
15.0
 40
15.0
 40
15.0
 40
16.0
 40
16.0
 40
16.0
 40
17.0
 40
17.0
 40
17.0
 40
18.0
 40
18.0
 40
18.0
 40
19.0
 40
19.0
 40
19.0
 40
20.0
 40
20.0
 40
20.0
 40
21.0
 40
21.0
 40
21.0
 40
22.0
 40
22.0
 40
22.0
 40
23.0
 40
23.0
 40
23.0
 40
24.0
 40
24.0
 40
24.0
 40
25.0
 40
25.0
 40
25.0
 40
25.0
 10
741.1484375
 20
-683.34375
 30
0.0
 10
756.5078125
 20
-691.833984375
 30
0.0
 10
762.986328125
 20
-709.4658203125
 30
0.0
 10
756.9052734375
 20
-726.21875
 30
0.0
 10
753.63671875
 20
-735.216796875
 30
0.0
 10
747.435546875
 20
-741.78125
 30
0.0
 10
739.439453125
 20
-744.697265625
 30
0.0
 10
733.52734375
 20
-746.857421875
 30
0.0
 10
729.1484375
 20
-747.119140625
 30
0.0
 10
725.841796875
 20
-745.5107421875
 30
0.0
 10
723.4169921875
 20
-744.333984375
 30
0.0
 10
720.4853515625
 20
-741.2412109375
 30
0.0
 10
719.9755859375
 20
-738.298828125
 30
0.0
 10
719.720703125
 20
-736.83203125
 30
0.0
 10
720.12109375
 20
-735.62109375
 30
0.0
 10
721.2314453125
 20
-734.4853515625
 30
0.0
 10
725.5947265625
 20
-730.0244140625
 30
0.0
 10
726.81640625
 20
-724.431640625
 30
0.0
 10
724.58984375
 20
-719.1376953125
 30
0.0
 10
722.2578125
 20
-713.58984375
 30
0.0
 10
716.58203125
 20
-709.712890625
 30
0.0
 10
710.787109375
 20
-709.712890625
 30
0.0
 10
706.2578125
 20
-709.712890625
 30
0.0
 10
702.3369140625
 20
-712.0224609375
 30
0.0
 10
699.75
 20
-716.220703125
 30
0.0
 10
693.42578125
 20
-726.470703125
 30
0.0
 10
692.4619140625
 20
-739.115234375
 30
0.0
 10
697.1708984375
 20
-750.04296875
 30
0.0
 10
701.853515625
 20
-760.9150390625
 30
0.0
 10
711.2666015625
 20
-768.544921875
 30
0.0
 10
722.9931640625
 20
-770.9775390625
 30
0.0
 10
725.8798828125
 20
-771.5771484375
 30
0.0
 10
728.833984375
 20
-771.876953125
 30
0.0
 10
731.765625
 20
-771.876953125
 30
0.0
 10
752.466796875
 20
-771.876953125
 30
0.0
 10
773.025390625
 20
-756.1689453125
 30
0.0
 10
780.6435546875
 20
-734.5302734375
 30
0.0
 10
788.873046875
 20
-711.1787109375
 30
0.0
 10
782.30078125
 20
-685.1953125
 30
0.0
 10
764.294921875
 20
-669.869140625
 30
0.0
 10
763.390625
 20
-669.09765625
 30
0.0
 10
762.4609375
 20
-668.35546875
 30
0.0
 10
761.505859375
 20
-667.634765625
 30
0.0
 10
761.505859375
 20
-667.634765625
 30
0.0
 10
816.2353515625
 20
-667.634765625
 30
0.0
 10
816.2353515625
 20
-667.634765625
 30
0.0
 10
809.3671875
 20
-686.21875
 30
0.0
 10
800.9365234375
 20
-705.048828125
 30
0.0
 10
790.908203125
 20
-724.1240234375
 30
0.0
 10
787.69921875
 20
-730.2265625
 30
0.0
 10
784.34375
 20
-736.10546875
 30
0.0
 10
780.857421875
 20
-741.7734375
 30
0.0
 10
779.9990234375
 20
-742.9052734375
 30
0.0
 10
779.1552734375
 20
-744.048828125
 30
0.0
 10
778.28125
 20
-745.158203125
 30
0.0
 10
757.8125
 20
-771.220703125
 30
0.0
 10
731.345703125
 20
-785.05078125
 30
0.0
 10
701.3994140625
 20
-785.15625
 30
0.0
 10
672.2255859375
 20
-785.15625
 30
0.0
 10
645.01953125
 20
-772.2294921875
 30
0.0
 10
624.783203125
 20
-748.76171875
 30
0.0
 10
617.0419921875
 20
-739.7939453125
 30
0.0
 10
610.3466796875
 20
-728.224609375
 30
0.0
 10
604.36328125
 20
-713.48046875
 30
0.0
 10
606.8115234375
 20
-712.2470703125
 30
0.0
 10
609.232421875
 20
-711.017578125
 30
0.0
 10
611.62109375
 20
-709.810546875
 30
0.0
 10
621.20703125
 20
-704.9521484375
 30
0.0
 10
630.2607421875
 20
-700.3671875
 30
0.0
 10
638.5
 20
-696.6484375
 30
0.0
 10
662.103515625
 20
-685.990234375
 30
0.0
 10
687.2138671875
 20
-676.130859375
 30
0.0
 10
710.869140625
 20
-676.130859375
 30
0.0
 10
722.302734375
 20
-676.130859375
 30
0.0
 10
732.4931640625
 20
-678.5595703125
 30
0.0
 10
741.1484375
 20
-683.34375
 30
0.0
  0
SPLINE
  5
4F
330
3C
100
AcDbEntity
  8
Layer 1
370
     0
100
AcDbSpline
210
0.0
220
0.0
230
1.0
 70
    11
 71
     3
 72
    20
 73
    16
 74
     0
 42
0.0000000001
 43
0.0000000001
 40
0.0
 40
0.0
 40
0.0
 40
0.0
 40
1.0
 40
1.0
 40
1.0
 40
2.0
 40
2.0
 40
2.0
 40
3.0
 40
3.0
 40
3.0
 40
4.0
 40
4.0
 40
4.0
 40
5.0
 40
5.0
 40
5.0
 40
5.0
 10
653.6162109375
 20
-667.634765625
 30
0.0
 10
637.31640625
 20
-674.3759765625
 30
0.0
 10
621.630859375
 20
-682.765625
 30
0.0
 10
606.31640625
 20
-690.953125
 30
0.0
 10
603.4931640625
 20
-692.46484375
 30
0.0
 10
600.669921875
 20
-693.974609375
 30
0.0
 10
597.84375
 20
-695.474609375
 30
0.0
 10
594.998046875
 20
-686.724609375
 30
0.0
 10
592.4599609375
 20
-677.8359375
 30
0.0
 10
589.994140625
 20
-669.1953125
 30
0.0
 10
589.994140625
 20
-669.1953125
 30
0.0
 10
589.5478515625
 20
-667.634765625
 30
0.0
 10
589.5478515625
 20
-667.634765625
 30
0.0
 10
589.5478515625
 20
-667.634765625
 30
0.0
 10
653.6162109375
 20
-667.634765625
 30
0.0
 10
653.6162109375
 20
-667.634765625
 30
0.0
  0
SPLINE
  5
50
330
3C
100
AcDbEntity
  8
Layer 1
370
     0
100
AcDbSpline
210
0.0
220
0.0
230
1.0
 70
    11
 71
     3
 72
    20
 73
    16
 74
     0
 42
0.0000000001
 43
0.0000000001
 40
0.0
 40
0.0
 40
0.0
 40
0.0
 40
1.0
 40
1.0
 40
1.0
 40
2.0
 40
2.0
 40
2.0
 40
3.0
 40
3.0
 40
3.0
 40
4.0
 40
4.0
 40
4.0
 40
5.0
 40
5.0
 40
5.0
 40
5.0
 10
570.4169921875
 20
-667.634765625
 30
0.0
 10
571.267578125
 20
-679.3017578125
 30
0.0
 10
574.2822265625
 20
-691.830078125
 30
0.0
 10
579.4033203125
 20
-704.966796875
 30
0.0
 10
561.7529296875
 20
-713.67578125
 30
0.0
 10
541.0517578125
 20
-722.51953125
 30
0.0
 10
518.0634765625
 20
-725.96484375
 30
0.0
 10
519.19921875
 20
-723.216796875
 30
0.0
 10
520.140625
 20
-720.408203125
 30
0.0
 10
520.875
 20
-717.5595703125
 30
0.0
 10
525.4638671875
 20
-699.70703125
 30
0.0
 10
521.4677734375
 20
-680.755859375
 30
0.0
 10
510.9140625
 20
-667.634765625
 30
0.0
 10
510.9140625
 20
-667.634765625
 30
0.0
 10
570.4169921875
 20
-667.634765625
 30
0.0
 10
570.4169921875
 20
-667.634765625
 30
0.0
  0
SPLINE
  5
51
330
3C
100
AcDbEntity
  8
Layer 1
370
     0
100
AcDbSpline
210
0.0
220
0.0
230
1.0
 70
    11
 71
     3
 72
    23
 73
    19
 74
     0
 42
0.0000000001
 43
0.0000000001
 40
0.0
 40
0.0
 40
0.0
 40
0.0
 40
1.0
 40
1.0
 40
1.0
 40
2.0
 40
2.0
 40
2.0
 40
3.0
 40
3.0
 40
3.0
 40
4.0
 40
4.0
 40
4.0
 40
5.0
 40
5.0
 40
5.0
 40
6.0
 40
6.0
 40
6.0
 40
6.0
 10
452.1357421875
 20
-687.421875
 30
0.0
 10
452.95654296875
 20
-680.8955078125
 30
0.0
 10
456.296875
 20
-675.845703125
 30
0.0
 10
462.0703125
 20
-672.404296875
 30
0.0
 10
466.017578125
 20
-670.0537109375
 30
0.0
 10
470.24267578125
 20
-668.857421875
 30
0.0
 10
474.62109375
 20
-668.857421875
 30
0.0
 10
487.8623046875
 20
-668.857421875
 30
0.0
 10
500.5859375
 20
-679.8642578125
 30
0.0
 10
503.5927734375
 20
-693.9150390625
 30
0.0
 10
506.5654296875
 20
-707.7861328125
 30
0.0
 10
501.8232421875
 20
-719.453125
 30
0.0
 10
496.822265625
 20
-727.25390625
 30
0.0
 10
481.73681640625
 20
-726.59765625
 30
0.0
 10
470.107421875
 20
-722.263671875
 30
0.0
 10
462.23486328125
 20
-714.3505859375
 30
0.0
 10
455.07470703125
 20
-707.16015625
 30
0.0
 10
451.0146484375
 20
-696.3369140625
 30
0.0
 10
452.1357421875
 20
-687.421875
 30
0.0
  0
SPLINE
  5
52
330
3C
100
AcDbEntity
  8
Layer 1
370
     0
100
AcDbSpline
210
0.0
220
0.0
230
1.0
 70
    11
 71
     3
 72
    35
 73
    31
 74
     0
 42
0.0000000001
 43
0.0000000001
 40
0.0
 40
0.0
 40
0.0
 40
0.0
 40
1.0
 40
1.0
 40
1.0
 40
2.0
 40
2.0
 40
2.0
 40
3.0
 40
3.0
 40
3.0
 40
4.0
 40
4.0
 40
4.0
 40
5.0
 40
5.0
 40
5.0
 40
6.0
 40
6.0
 40
6.0
 40
7.0
 40
7.0
 40
7.0
 40
8.0
 40
8.0
 40
8.0
 40
9.0
 40
9.0
 40
9.0
 40
10.0
 40
10.0
 40
10.0
 40
10.0
 10
440.5439453125
 20
-667.634765625
 30
0.0
 10
439.17919921875
 20
-669.5546875
 30
0.0
 10
438.001953125
 20
-671.6015625
 30
0.0
 10
437.02001953125
 20
-673.7685546875
 30
0.0
 10
427.115234375
 20
-695.580078125
 30
0.0
 10
439.123046875
 20
-720.9296875
 30
0.0
 10
456.4541015625
 20
-732.828125
 30
0.0
 10
463.93701171875
 20
-737.97265625
 30
0.0
 10
472.20703125
 20
-741.69140625
 30
0.0
 10
481.1142578125
 20
-743.9326171875
 30
0.0
 10
477.005859375
 20
-747.0517578125
 30
0.0
 10
472.4169921875
 20
-749.923828125
 30
0.0
 10
467.419921875
 20
-752.5068359375
 30
0.0
 10
464.2744140625
 20
-751.1533203125
 30
0.0
 10
461.0244140625
 20
-749.86328125
 30
0.0
 10
457.732421875
 20
-748.6640625
 30
0.0
 10
427.7451171875
 20
-737.7060546875
 30
0.0
 10
396.869140625
 20
-733.6533203125
 30
0.0
 10
367.005859375
 20
-729.732421875
 30
0.0
 10
357.12353515625
 20
-728.431640625
 30
0.0
 10
346.904296875
 20
-727.0888671875
 30
0.0
 10
336.78955078125
 20
-725.5107421875
 30
0.0
 10
334.802734375
 20
-725.203125
 30
0.0
 10
332.8232421875
 20
-724.8662109375
 30
0.0
 10
330.84375
 20
-724.498046875
 30
0.0
 10
313.81640625
 20
-704.90625
 30
0.0
 10
304.51171875
 20
-684.4609375
 30
0.0
 10
304.87158203125
 20
-667.634765625
 30
0.0
 10
304.87158203125
 20
-667.634765625
 30
0.0
 10
440.5439453125
 20
-667.634765625
 30
0.0
 10
440.5439453125
 20
-667.634765625
 30
0.0
  0
SPLINE
  5
53
330
3C
100
AcDbEntity
  8
Layer 1
370
     0
100
AcDbSpline
210
0.0
220
0.0
230
1.0
 70
    11
 71
     3
 72
    20
 73
    16
 74
     0
 42
0.0000000001
 43
0.0000000001
 40
0.0
 40
0.0
 40
0.0
 40
0.0
 40
1.0
 40
1.0
 40
1.0
 40
2.0
 40
2.0
 40
2.0
 40
3.0
 40
3.0
 40
3.0
 40
4.0
 40
4.0
 40
4.0
 40
5.0
 40
5.0
 40
5.0
 40
5.0
 10
439.9140625
 20
-762.576171875
 30
0.0
 10
420.50244140625
 20
-767.19140625
 30
0.0
 10
399.90576171875
 20
-767.236328125
 30
0.0
 10
383.70703125
 20
-762.5908203125
 30
0.0
 10
372.8798828125
 20
-759.4794921875
 30
0.0
 10
359.8076171875
 20
-751.625
 30
0.0
 10
347.369140625
 20
-740.92578125
 30
0.0
 10
349.9931640625
 20
-741.255859375
 30
0.0
 10
352.60986328125
 20
-741.5673828125
 30
0.0
 10
355.18896484375
 20
-741.87109375
 30
0.0
 10
358.87060546875
 20
-742.3134765625
 30
0.0
 10
362.529296875
 20
-742.748046875
 30
0.0
 10
366.15087890625
 20
-743.220703125
 30
0.0
 10
393.55517578125
 20
-746.7822265625
 30
0.0
 10
418.31298828125
 20
-753.2822265625
 30
0.0
 10
439.9140625
 20
-762.576171875
 30
0.0
  0
SPLINE
  5
54
330
3C
100
AcDbEntity
  8
Layer 1
370
     0
100
AcDbSpline
210
0.0
220
0.0
230
1.0
 70
    11
 71
     3
 72
    62
 73
    58
 74
     0
 42
0.0000000001
 43
0.0000000001
 40
0.0
 40
0.0
 40
0.0
 40
0.0
 40
1.0
 40
1.0
 40
1.0
 40
2.0
 40
2.0
 40
2.0
 40
3.0
 40
3.0
 40
3.0
 40
4.0
 40
4.0
 40
4.0
 40
5.0
 40
5.0
 40
5.0
 40
6.0
 40
6.0
 40
6.0
 40
7.0
 40
7.0
 40
7.0
 40
8.0
 40
8.0
 40
8.0
 40
9.0
 40
9.0
 40
9.0
 40
10.0
 40
10.0
 40
10.0
 40
11.0
 40
11.0
 40
11.0
 40
12.0
 40
12.0
 40
12.0
 40
13.0
 40
13.0
 40
13.0
 40
14.0
 40
14.0
 40
14.0
 40
15.0
 40
15.0
 40
15.0
 40
16.0
 40
16.0
 40
16.0
 40
17.0
 40
17.0
 40
17.0
 40
18.0
 40
18.0
 40
18.0
 40
19.0
 40
19.0
 40
19.0
 40
19.0
 10
287.37890625
 20
-824.9462890625
 30
0.0
 10
285.78564453125
 20
-835.75390625
 30
0.0
 10
279.056640625
 20
-844.193359375
 30
0.0
 10
273.6953125
 20
-849.3671875
 30
0.0
 10
263.83203125
 20
-858.880859375
 30
0.0
 10
250.0400390625
 20
-864.33984375
 30
0.0
 10
235.86181640625
 20
-864.33984375
 30
0.0
 10
231.11572265625
 20
-864.33984375
 30
0.0
 10
226.44091796875
 20
-863.732421875
 30
0.0
 10
221.953125
 20
-862.525390625
 30
0.0
 10
214.15576171875
 20
-860.42578125
 30
0.0
 10
206.9990234375
 20
-857.0595703125
 30
0.0
 10
200.56591796875
 20
-852.478515625
 30
0.0
 10
216.66748046875
 20
-853.017578125
 30
0.0
 10
230.3505859375
 20
-845.767578125
 30
0.0
 10
236.4541015625
 20
-833.4375
 30
0.0
 10
238.3212890625
 20
-829.666015625
 30
0.0
 10
238.0810546875
 20
-825.388671875
 30
0.0
 10
235.78662109375
 20
-821.6923828125
 30
0.0
 10
233.48486328125
 20
-817.98046875
 30
0.0
 10
229.5634765625
 20
-815.671875
 30
0.0
 10
225.5634765625
 20
-815.671875
 30
0.0
 10
222.46337890625
 20
-815.671875
 30
0.0
 10
219.54638671875
 20
-817.0771484375
 30
0.0
 10
217.349609375
 20
-819.626953125
 30
0.0
 10
210.8193359375
 20
-827.203125
 30
0.0
 10
204.73828125
 20
-833.6171875
 30
0.0
 10
196.47216796875
 20
-835.3232421875
 30
0.0
 10
191.115234375
 20
-836.42578125
 30
0.0
 10
185.94921875
 20
-834.75390625
 30
0.0
 10
180.3330078125
 20
-830.0859375
 30
0.0
 10
170.55615234375
 20
-813.33203125
 30
0.0
 10
166.73974609375
 20
-792.390625
 30
0.0
 10
169.85888671875
 20
-772.521484375
 30
0.0
 10
172.9912109375
 20
-752.5625
 30
0.0
 10
181.62841796875
 20
-734.1181640625
 30
0.0
 10
194.83203125
 20
-718.23828125
 30
0.0
 10
209.5595703125
 20
-742.3056640625
 30
0.0
 10
227.04052734375
 20
-764.6044921875
 30
0.0
 10
247.4873046875
 20
-784.994140625
 30
0.0
 10
248.68115234375
 20
-786.1826171875
 30
0.0
 10
249.927734375
 20
-787.28125
 30
0.0
 10
251.130859375
 20
-788.455078125
 30
0.0
 10
250.8251953125
 20
-790.5615234375
 30
0.0
 10
250.990234375
 20
-792.7431640625
 30
0.0
 10
251.70849609375
 20
-794.8955078125
 30
0.0
 10
253.61669921875
 20
-800.59375
 30
0.0
 10
258.91357421875
 20
-804.4287109375
 30
0.0
 10
264.89697265625
 20
-804.4287109375
 30
0.0
 10
265.9990234375
 20
-804.4287109375
 30
0.0
 10
267.11083984375
 20
-804.2978515625
 30
0.0
 10
268.22216796875
 20
-804.0537109375
 30
0.0
 10
274.5576171875
 20
-809.5009765625
 30
0.0
 10
281.01513671875
 20
-814.7421875
 30
0.0
 10
287.6357421875
 20
-819.6943359375
 30
0.0
 10
287.69970703125
 20
-821.5576171875
 30
0.0
 10
287.61328125
 20
-823.349609375
 30
0.0
 10
287.37890625
 20
-824.9462890625
 30
0.0
  0
SPLINE
  5
55
330
3C
100
AcDbEntity
  8
Layer 1
370
     0
100
AcDbSpline
210
0.0
220
0.0
230
1.0
 70
    11
 71
     3
 72
    29
 73
    25
 74
     0
 42
0.0000000001
 43
0.0000000001
 40
0.0
 40
0.0
 40
0.0
 40
0.0
 40
1.0
 40
1.0
 40
1.0
 40
2.0
 40
2.0
 40
2.0
 40
3.0
 40
3.0
 40
3.0
 40
4.0
 40
4.0
 40
4.0
 40
5.0
 40
5.0
 40
5.0
 40
6.0
 40
6.0
 40
6.0
 40
7.0
 40
7.0
 40
7.0
 40
8.0
 40
8.0
 40
8.0
 40
8.0
 10
353.05224609375
 20
-765.2939453125
 30
0.0
 10
352.3720703125
 20
-764.484375
 30
0.0
 10
351.74755859375
 20
-763.6220703125
 30
0.0
 10
351.078125
 20
-762.80859375
 30
0.0
 10
370.435546875
 20
-774.3779296875
 30
0.0
 10
392.53759765625
 20
-780.6640625
 30
0.0
 10
415.2724609375
 20
-780.6640625
 30
0.0
 10
430.10693359375
 20
-780.6640625
 30
0.0
 10
445.21484375
 20
-778.06640625
 30
0.0
 10
460.16552734375
 20
-772.9453125
 30
0.0
 10
460.16552734375
 20
-772.9453125
 30
0.0
 10
460.4658203125
 20
-772.8408203125
 30
0.0
 10
460.4658203125
 20
-772.8408203125
 30
0.0
 10
465.083984375
 20
-775.4912109375
 30
0.0
 10
469.2529296875
 20
-778.1298828125
 30
0.0
 10
473.1669921875
 20
-780.8818359375
 30
0.0
 10
490.31787109375
 20
-792.904296875
 30
0.0
 10
501.34375
 20
-808.720703125
 30
0.0
 10
503.419921875
 20
-824.275390625
 30
0.0
 10
504.9951171875
 20
-836.103515625
 30
0.0
 10
500.58984375
 20
-847.2001953125
 30
0.0
 10
492.4267578125
 20
-853.9853515625
 30
0.0
 10
438.9150390625
 20
-841.52734375
 30
0.0
 10
392.43798828125
 20
-812.0126953125
 30
0.0
 10
353.05224609375
 20
-765.2939453125
 30
0.0
  0
SPLINE
  5
56
330
3C
100
AcDbEntity
  8
Layer 1
370
     0
100
AcDbSpline
210
0.0
220
0.0
230
1.0
 70
    11
 71
     3
 72
    86
 73
    82
 74
     0
 42
0.0000000001
 43
0.0000000001
 40
0.0
 40
0.0
 40
0.0
 40
0.0
 40
1.0
 40
1.0
 40
1.0
 40
2.0
 40
2.0
 40
2.0
 40
3.0
 40
3.0
 40
3.0
 40
4.0
 40
4.0
 40
4.0
 40
5.0
 40
5.0
 40
5.0
 40
6.0
 40
6.0
 40
6.0
 40
7.0
 40
7.0
 40
7.0
 40
8.0
 40
8.0
 40
8.0
 40
9.0
 40
9.0
 40
9.0
 40
10.0
 40
10.0
 40
10.0
 40
11.0
 40
11.0
 40
11.0
 40
12.0
 40
12.0
 40
12.0
 40
13.0
 40
13.0
 40
13.0
 40
14.0
 40
14.0
 40
14.0
 40
15.0
 40
15.0
 40
15.0
 40
16.0
 40
16.0
 40
16.0
 40
17.0
 40
17.0
 40
17.0
 40
18.0
 40
18.0
 40
18.0
 40
19.0
 40
19.0
 40
19.0
 40
20.0
 40
20.0
 40
20.0
 40
21.0
 40
21.0
 40
21.0
 40
22.0
 40
22.0
 40
22.0
 40
23.0
 40
23.0
 40
23.0
 40
24.0
 40
24.0
 40
24.0
 40
25.0
 40
25.0
 40
25.0
 40
26.0
 40
26.0
 40
26.0
 40
27.0
 40
27.0
 40
27.0
 40
27.0
 10
553.603515625
 20
-860.861328125
 30
0.0
 10
542.7353515625
 20
-860.861328125
 30
0.0
 10
532.1259765625
 20
-860.2197265625
 30
0.0
 10
521.7412109375
 20
-859.04296875
 30
0.0
 10
524.79296875
 20
-853.71875
 30
0.0
 10
527.056640625
 20
-847.8408203125
 30
0.0
 10
528.3544921875
 20
-841.5693359375
 30
0.0
 10
529.35546875
 20
-842.3486328125
 30
0.0
 10
530.337890625
 20
-843.0986328125
 30
0.0
 10
531.2744140625
 20
-843.810546875
 30
0.0
 10
531.2744140625
 20
-843.810546875
 30
0.0
 10
532.271484375
 20
-844.568359375
 30
0.0
 10
532.271484375
 20
-844.568359375
 30
0.0
 10
539.6650390625
 20
-850.203125
 30
0.0
 10
549.53125
 20
-856.72265625
 30
0.0
 10
560.6806640625
 20
-857.1123046875
 30
0.0
 10
565.2587890625
 20
-857.1123046875
 30
0.0
 10
568.9775390625
 20
-853.90625
 30
0.0
 10
569.9375
 20
-849.1376953125
 30
0.0
 10
570.9716796875
 20
-843.994140625
 30
0.0
 10
568.5166015625
 20
-838.921875
 30
0.0
 10
564.107421875
 20
-837.0703125
 30
0.0
 10
560.298828125
 20
-835.4736328125
 30
0.0
 10
556.4150390625
 20
-834.5703125
 30
0.0
 10
552.658203125
 20
-833.6962890625
 30
0.0
 10
548.5869140625
 20
-832.751953125
 30
0.0
 10
544.740234375
 20
-831.859375
 30
0.0
 10
541.134765625
 20
-830.1572265625
 30
0.0
 10
538.240234375
 20
-828.79296875
 30
0.0
 10
535.623046875
 20
-826.7197265625
 30
0.0
 10
532.849609375
 20
-824.5263671875
 30
0.0
 10
531.642578125
 20
-823.56640625
 30
0.0
 10
530.4384765625
 20
-822.6142578125
 30
0.0
 10
529.208984375
 20
-821.71484375
 30
0.0
 10
528.96484375
 20
-819.634765625
 30
0.0
 10
528.6201171875
 20
-817.583984375
 30
0.0
 10
528.185546875
 20
-815.5927734375
 30
0.0
 10
527.7060546875
 20
-813.4296875
 30
0.0
 10
527.12890625
 20
-811.29296875
 30
0.0
 10
526.453125
 20
-809.185546875
 30
0.0
 10
528.365234375
 20
-809.939453125
 30
0.0
 10
530.3115234375
 20
-810.6220703125
 30
0.0
 10
532.234375
 20
-811.2109375
 30
0.0
 10
537.7451171875
 20
-812.8974609375
 30
0.0
 10
543.0458984375
 20
-808.69140625
 30
0.0
 10
543.4208984375
 20
-802.576171875
 30
0.0
 10
543.736328125
 20
-797.482421875
 30
0.0
 10
540.556640625
 20
-793.50390625
 30
0.0
 10
535.6982421875
 20
-792.908203125
 30
0.0
 10
530.5732421875
 20
-792.2783203125
 30
0.0
 10
525.9697265625
 20
-791.5849609375
 30
0.0
 10
521.53515625
 20
-789.4521484375
 30
0.0
 10
519.86328125
 20
-788.646484375
 30
0.0
 10
518.220703125
 20
-787.6708984375
 30
0.0
 10
516.4814453125
 20
-786.640625
 30
0.0
 10
515.2822265625
 20
-785.931640625
 30
0.0
 10
514.08203125
 20
-785.22265625
 30
0.0
 10
512.8671875
 20
-784.5634765625
 30
0.0
 10
505.8193359375
 20
-775.9970703125
 30
0.0
 10
496.60498046875
 20
-768.30859375
 30
0.0
 10
485.41455078125
 20
-761.634765625
 30
0.0
 10
493.04345703125
 20
-757.1591796875
 30
0.0
 10
499.525390625
 20
-752.0791015625
 30
0.0
 10
504.7470703125
 20
-746.474609375
 30
0.0
 10
532.7294921875
 20
-745.8828125
 30
0.0
 10
561.828125
 20
-734.046875
 30
0.0
 10
587.095703125
 20
-721.9794921875
 30
0.0
 10
599.13671875
 20
-745.4736328125
 30
0.0
 10
616.0673828125
 20
-766.890625
 30
0.0
 10
632.884765625
 20
-779.783203125
 30
0.0
 10
652.3115234375
 20
-794.677734375
 30
0.0
 10
676.5966796875
 20
-802.884765625
 30
0.0
 10
701.2646484375
 20
-802.884765625
 30
0.0
 10
712.259765625
 20
-802.884765625
 30
0.0
 10
723.2216796875
 20
-801.197265625
 30
0.0
 10
733.666015625
 20
-797.99609375
 30
0.0
 10
718.828125
 20
-810.828125
 30
0.0
 10
702.54296875
 20
-821.421875
 30
0.0
 10
684.75390625
 20
-829.6923828125
 30
0.0
 10
640.052734375
 20
-850.4765625
 30
0.0
 10
596.3330078125
 20
-860.861328125
 30
0.0
 10
553.603515625
 20
-860.861328125
 30
0.0
  0
HATCH
  5
57
330
3C
100
AcDbEntity
  8
Layer 1
 62
     7
100
AcDbHatch
 10
0.0
 20
0.0
 30
0.0
210
0.0
220
0.0
230
1.0
  2
SOLID
 70
     1
 71
     0
 91
       10
 92
        1
 93
        1
 72
     4
 94
        3
 73
     0
 74
     1
 95
      221
 96
      217
 40
0.0
 40
0.0
 40
0.0
 40
0.0
 40
1.0
 40
1.0
 40
1.0
 40
2.0
 40
2.0
 40
2.0
 40
3.0
 40
3.0
 40
3.0
 40
4.0
 40
4.0
 40
4.0
 40
5.0
 40
5.0
 40
5.0
 40
6.0
 40
6.0
 40
6.0
 40
7.0
 40
7.0
 40
7.0
 40
8.0
 40
8.0
 40
8.0
 40
9.0
 40
9.0
 40
9.0
 40
10.0
 40
10.0
 40
10.0
 40
11.0
 40
11.0
 40
11.0
 40
12.0
 40
12.0
 40
12.0
 40
13.0
 40
13.0
 40
13.0
 40
14.0
 40
14.0
 40
14.0
 40
15.0
 40
15.0
 40
15.0
 40
16.0
 40
16.0
 40
16.0
 40
17.0
 40
17.0
 40
17.0
 40
18.0
 40
18.0
 40
18.0
 40
19.0
 40
19.0
 40
19.0
 40
20.0
 40
20.0
 40
20.0
 40
21.0
 40
21.0
 40
21.0
 40
22.0
 40
22.0
 40
22.0
 40
23.0
 40
23.0
 40
23.0
 40
24.0
 40
24.0
 40
24.0
 40
25.0
 40
25.0
 40
25.0
 40
26.0
 40
26.0
 40
26.0
 40
27.0
 40
27.0
 40
27.0
 40
28.0
 40
28.0
 40
28.0
 40
29.0
 40
29.0
 40
29.0
 40
30.0
 40
30.0
 40
30.0
 40
31.0
 40
31.0
 40
31.0
 40
32.0
 40
32.0
 40
32.0
 40
33.0
 40
33.0
 40
33.0
 40
34.0
 40
34.0
 40
34.0
 40
35.0
 40
35.0
 40
35.0
 40
36.0
 40
36.0
 40
36.0
 40
37.0
 40
37.0
 40
37.0
 40
38.0
 40
38.0
 40
38.0
 40
39.0
 40
39.0
 40
39.0
 40
40.0
 40
40.0
 40
40.0
 40
41.0
 40
41.0
 40
41.0
 40
42.0
 40
42.0
 40
42.0
 40
43.0
 40
43.0
 40
43.0
 40
44.0
 40
44.0
 40
44.0
 40
45.0
 40
45.0
 40
45.0
 40
46.0
 40
46.0
 40
46.0
 40
47.0
 40
47.0
 40
47.0
 40
48.0
 40
48.0
 40
48.0
 40
49.0
 40
49.0
 40
49.0
 40
50.0
 40
50.0
 40
50.0
 40
51.0
 40
51.0
 40
51.0
 40
52.0
 40
52.0
 40
52.0
 40
53.0
 40
53.0
 40
53.0
 40
54.0
 40
54.0
 40
54.0
 40
55.0
 40
55.0
 40
55.0
 40
56.0
 40
56.0
 40
56.0
 40
57.0
 40
57.0
 40
57.0
 40
58.0
 40
58.0
 40
58.0
 40
59.0
 40
59.0
 40
59.0
 40
60.0
 40
60.0
 40
60.0
 40
61.0
 40
61.0
 40
61.0
 40
62.0
 40
62.0
 40
62.0
 40
63.0
 40
63.0
 40
63.0
 40
64.0
 40
64.0
 40
64.0
 40
65.0
 40
65.0
 40
65.0
 40
66.0
 40
66.0
 40
66.0
 40
67.0
 40
67.0
 40
67.0
 40
68.0
 40
68.0
 40
68.0
 40
69.0
 40
69.0
 40
69.0
 40
70.0
 40
70.0
 40
70.0
 40
71.0
 40
71.0
 40
71.0
 40
72.0
 40
72.0
 40
72.0
 40
72.0
 10
96.7705078125
 20
-650.48046875
 10
96.7705078125
 20
-650.48046875
 10
96.7705078125
 20
-667.634765625
 10
96.7705078125
 20
-667.634765625
 10
96.7705078125
 20
-667.634765625
 10
169.17822265625
 20
-667.634765625
 10
169.17822265625
 20
-667.634765625
 10
172.5244140625
 20
-675.7626953125
 10
176.06689453125
 20
-683.7705078125
 10
179.95068359375
 20
-691.552734375
 10
178.71533203125
 20
-691.23828125
 10
177.4765625
 20
-690.875
 10
176.224609375
 20
-690.3984375
 10
171.7783203125
 20
-688.6962890625
 10
166.0009765625
 20
-686.349609375
 10
160.77880859375
 20
-683.271484375
 10
160.77880859375
 20
-683.271484375
 10
158.85205078125
 20
-682.11328125
 10
158.85205078125
 20
-682.11328125
 10
155.0283203125
 20
-679.7783203125
 10
151.4140625
 20
-677.57421875
 10
145.40087890625
 20
-677.408203125
 10
142.5966796875
 20
-677.408203125
 10
139.96484375
 20
-678.7021484375
 10
138.1806640625
 20
-680.951171875
 10
136.298828125
 20
-683.33203125
 10
135.58984375
 20
-686.4921875
 10
136.28369140625
 20
-689.4091796875
 10
140.6845703125
 20
-707.837890625
 10
165.611328125
 20
-709.2705078125
 10
173.146484375
 20
-709.2705078125
 10
175.62451171875
 20
-709.2705078125
 10
178.03125
 20
-709.142578125
 10
180.30322265625
 20
-708.8916015625
 10
182.1552734375
 20
-708.685546875
 10
184.3896484375
 20
-708.37109375
 10
186.87109375
 20
-707.8837890625
 10
185.81787109375
 20
-709.11328125
 10
184.779296875
 20
-710.365234375
 10
183.76708984375
 20
-711.6396484375
 10
182.9462890625
 20
-711.939453125
 10
182.2265625
 20
-712.46875
 10
181.6826171875
 20
-713.1845703125
 10
178.8935546875
 20
-716.880859375
 10
176.029296875
 20
-720.884765625
 10
173.060546875
 20
-725.0234375
 10
154.48828125
 20
-750.955078125
 10
133.4345703125
 20
-780.5
 10
101.63623046875
 20
-778.1298828125
 10
94.6181640625
 20
-777.5751953125
 10
89.6025390625
 20
-782.2763671875
 10
89.28759765625
 20
-789.13671875
 10
89.00244140625
 20
-795.326171875
 10
93.0439453125
 20
-802.302734375
 10
101.0966796875
 20
-803.052734375
 10
121.92529296875
 20
-804.9833984375
 10
136.5537109375
 20
-791.93359375
 10
147.9052734375
 20
-779.2177734375
 10
150.4619140625
 20
-776.349609375
 10
153.08251953125
 20
-773.40234375
 10
155.71044921875
 20
-770.376953125
 10
150.619140625
 20
-795.599609375
 10
154.10595703125
 20
-820.166015625
 10
165.982421875
 20
-840.984375
 10
169.13134765625
 20
-846.505859375
 10
172.962890625
 20
-851.76171875
 10
177.3974609375
 20
-856.62109375
 10
177.52880859375
 20
-859.263671875
 10
177.85888671875
 20
-861.869140625
 10
178.177734375
 20
-864.400390625
 10
178.5712890625
 20
-867.5341796875
 10
178.9462890625
 20
-870.49609375
 10
178.95361328125
 20
-873.423828125
 10
178.9833984375
 20
-882.5966796875
 10
176.83154296875
 20
-890.5634765625
 10
171.97314453125
 20
-899.24609375
 10
171.6806640625
 20
-899.7744140625
 10
171.24609375
 20
-900.494140625
 10
170.728515625
 20
-901.3525390625
 10
165.01513671875
 20
-910.833984375
 10
159.24169921875
 20
-921.5107421875
 10
163.0654296875
 20
-928.28125
 10
164.2802734375
 20
-930.42578125
 10
166.94970703125
 20
-932.982421875
 10
172.7939453125
 20
-932.982421875
 10
173.150390625
 20
-932.982421875
 10
173.517578125
 20
-932.974609375
 10
173.896484375
 20
-932.9560546875
 10
191.88720703125
 20
-932.0673828125
 10
194.70263671875
 20
-902.630859375
 10
195.763671875
 20
-891.548828125
 10
196.2509765625
 20
-886.48828125
 10
196.91796875
 20
-879.5830078125
 10
196.65966796875
 20
-872.54296875
 10
210.20068359375
 20
-880.849609375
 10
225.6650390625
 20
-885.3525390625
 10
240.97509765625
 20
-885.3525390625
 10
254.2275390625
 20
-885.3525390625
 10
267.1572265625
 20
-881.921875
 10
278.43408203125
 20
-875.4287109375
 10
284.0498046875
 20
-875.04296875
 10
289.42578125
 20
-875.51171875
 10
294.28466796875
 20
-876.9287109375
 10
297.392578125
 20
-877.83203125
 10
300.4853515625
 20
-880.291015625
 10
303.76171875
 20
-882.896484375
 10
308.646484375
 20
-886.78125
 10
313.6962890625
 20
-890.7958984375
 10
320.1669921875
 20
-890.7958984375
 10
321.52392578125
 20
-890.7958984375
 10
322.888671875
 20
-890.6123046875
 10
324.23046875
 20
-890.2412109375
 10
328.376953125
 20
-889.09765625
 10
331.2451171875
 20
-885.37890625
 10
331.357421875
 20
-880.98828125
 10
331.818359375
 20
-863.5751953125
 10
308.32421875
 20
-862.044921875
 10
297.0361328125
 20
-861.310546875
 10
297.0361328125
 20
-861.310546875
 10
296.2265625
 20
-861.2578125
 10
296.2265625
 20
-861.2578125
 10
302.642578125
 20
-854.30078125
 10
308.17431640625
 20
-845.6513671875
 10
311.65673828125
 20
-836.1708984375
 10
373.283203125
 20
-874.912109375
 10
446.052734375
 20
-894.3837890625
 10
530.0751953125
 20
-894.3837890625
 10
625.7734375
 20
-894.3837890625
 10
706.505859375
 20
-863.8486328125
 10
772.287109375
 20
-802.791015625
 10
772.89453125
 20
-805.0322265625
 10
773.64453125
 20
-807.232421875
 10
774.671875
 20
-809.3359375
 10
776.490234375
 20
-813.0400390625
 10
779.912109375
 20
-815.169921875
 10
784.0625
 20
-815.169921875
 10
787.638671875
 20
-815.169921875
 10
791.2421875
 20
-813.5576171875
 10
793.701171875
 20
-810.8505859375
 10
795.87890625
 20
-808.458984375
 10
796.921875
 20
-805.4599609375
 10
796.6328125
 20
-802.396484375
 10
796.171875
 20
-797.51171875
 10
794.9345703125
 20
-792.908203125
 10
793.734375
 20
-788.455078125
 10
793.220703125
 20
-786.53515625
 10
792.734375
 20
-784.6611328125
 10
792.298828125
 20
-782.7978515625
 10
794.5
 20
-780.431640625
 10
796.685546875
 20
-778.025390625
 10
798.84765625
 20
-775.5849609375
 10
817.2705078125
 20
-799.896484375
 10
830.0166015625
 20
-827.9267578125
 10
837.072265625
 20
-859.68359375
 10
837.072265625
 20
-859.68359375
 10
862.3623046875
 20
-859.68359375
 10
862.3623046875
 20
-859.68359375
 10
862.3623046875
 20
-859.68359375
 10
862.3623046875
 20
-678.826171875
 10
862.3623046875
 20
-678.826171875
 10
870.99609375
 20
-674.76953125
 10
880.6455078125
 20
-672.474609375
 10
889.68359375
 20
-672.474609375
 10
900.8330078125
 20
-672.474609375
 10
920.58203125
 20
-675.9013671875
 10
927.5400390625
 20
-698.8564453125
 10
931.701171875
 20
-712.591796875
 10
926.701171875
 20
-727.9697265625
 10
915.65625
 20
-735.4150390625
 10
908.8935546875
 20
-739.970703125
 10
901.365234375
 20
-740.3935546875
 10
895.26953125
 20
-736.5400390625
 10
892.076171875
 20
-734.478515625
 10
889.638671875
 20
-731.755859375
 10
887.7646484375
 20
-728.126953125
 10
887.5771484375
 20
-727.7861328125
 10
887.408203125
 20
-727.44921875
 10
887.2548828125
 20
-727.111328125
 10
887.2880859375
 20
-727.111328125
 10
887.322265625
 20
-727.111328125
 10
887.359375
 20
-727.111328125
 10
892.900390625
 20
-727.111328125
 10
898.1337890625
 20
-724.595703125
 10
901.3505859375
 20
-720.3828125
 10
904.634765625
 20
-716.08984375
 10
905.5234375
 20
-710.365234375
 10
903.8623046875
 20
-704.26171875
 10
901.77734375
 20
-696.6064453125
 10
895.322265625
 20
-691.666015625
 10
887.412109375
 20
-691.666015625
 10
884.6005859375
 20
-691.666015625
 10
881.7216796875
 20
-692.306640625
 10
879.07421875
 20
-693.525390625
 10
867.1943359375
 20
-699.005859375
 10
863.775390625
 20
-713.1318359375
 10
864.4541015625
 20
-723.5615234375
 10
865.818359375
 20
-744.5546875
 10
883.45703125
 20
-761.6279296875
 10
903.7724609375
 20
-761.6279296875
 10
906.107421875
 20
-761.6279296875
 10
908.451171875
 20
-761.3984375
 10
910.7412109375
 20
-760.94140625
 10
932.2109375
 20
-756.65625
 10
949.486328125
 20
-734.34375
 10
950.0634765625
 20
-710.14453125
 10
950.6484375
 20
-685.9599609375
 10
935.5029296875
 20
-663.1591796875
 10
913.2265625
 20
-654.701171875
 10
909.2529296875
 20
-653.1943359375
 10
905.099609375
 20
-652.099609375
 10
900.8330078125
 20
-651.4365234375
 10
900.8330078125
 20
-651.4365234375
 10
900.8330078125
 20
-650.48046875
 10
900.8330078125
 20
-650.48046875
 10
900.8330078125
 20
-650.48046875
 10
96.7705078125
 20
-650.48046875
 10
96.7705078125
 20
-650.48046875
 97
        0
 92
        1
 93
        1
 72
     4
 94
        3
 73
     0
 74
     1
 95
       80
 96
       76
 40
0.0
 40
0.0
 40
0.0
 40
0.0
 40
1.0
 40
1.0
 40
1.0
 40
2.0
 40
2.0
 40
2.0
 40
3.0
 40
3.0
 40
3.0
 40
4.0
 40
4.0
 40
4.0
 40
5.0
 40
5.0
 40
5.0
 40
6.0
 40
6.0
 40
6.0
 40
7.0
 40
7.0
 40
7.0
 40
8.0
 40
8.0
 40
8.0
 40
9.0
 40
9.0
 40
9.0
 40
10.0
 40
10.0
 40
10.0
 40
11.0
 40
11.0
 40
11.0
 40
12.0
 40
12.0
 40
12.0
 40
13.0
 40
13.0
 40
13.0
 40
14.0
 40
14.0
 40
14.0
 40
15.0
 40
15.0
 40
15.0
 40
16.0
 40
16.0
 40
16.0
 40
17.0
 40
17.0
 40
17.0
 40
18.0
 40
18.0
 40
18.0
 40
19.0
 40
19.0
 40
19.0
 40
20.0
 40
20.0
 40
20.0
 40
21.0
 40
21.0
 40
21.0
 40
22.0
 40
22.0
 40
22.0
 40
23.0
 40
23.0
 40
23.0
 40
24.0
 40
24.0
 40
24.0
 40
25.0
 40
25.0
 40
25.0
 40
25.0
 10
741.1484375
 20
-683.34375
 10
756.5078125
 20
-691.833984375
 10
762.986328125
 20
-709.4658203125
 10
756.9052734375
 20
-726.21875
 10
753.63671875
 20
-735.216796875
 10
747.435546875
 20
-741.78125
 10
739.439453125
 20
-744.697265625
 10
733.52734375
 20
-746.857421875
 10
729.1484375
 20
-747.119140625
 10
725.841796875
 20
-745.5107421875
 10
723.4169921875
 20
-744.333984375
 10
720.4853515625
 20
-741.2412109375
 10
719.9755859375
 20
-738.298828125
 10
719.720703125
 20
-736.83203125
 10
720.12109375
 20
-735.62109375
 10
721.2314453125
 20
-734.4853515625
 10
725.5947265625
 20
-730.0244140625
 10
726.81640625
 20
-724.431640625
 10
724.58984375
 20
-719.1376953125
 10
722.2578125
 20
-713.58984375
 10
716.58203125
 20
-709.712890625
 10
710.787109375
 20
-709.712890625
 10
706.2578125
 20
-709.712890625
 10
702.3369140625
 20
-712.0224609375
 10
699.75
 20
-716.220703125
 10
693.42578125
 20
-726.470703125
 10
692.4619140625
 20
-739.115234375
 10
697.1708984375
 20
-750.04296875
 10
701.853515625
 20
-760.9150390625
 10
711.2666015625
 20
-768.544921875
 10
722.9931640625
 20
-770.9775390625
 10
725.8798828125
 20
-771.5771484375
 10
728.833984375
 20
-771.876953125
 10
731.765625
 20
-771.876953125
 10
752.466796875
 20
-771.876953125
 10
773.025390625
 20
-756.1689453125
 10
780.6435546875
 20
-734.5302734375
 10
788.873046875
 20
-711.1787109375
 10
782.30078125
 20
-685.1953125
 10
764.294921875
 20
-669.869140625
 10
763.390625
 20
-669.09765625
 10
762.4609375
 20
-668.35546875
 10
761.505859375
 20
-667.634765625
 10
761.505859375
 20
-667.634765625
 10
816.2353515625
 20
-667.634765625
 10
816.2353515625
 20
-667.634765625
 10
809.3671875
 20
-686.21875
 10
800.9365234375
 20
-705.048828125
 10
790.908203125
 20
-724.1240234375
 10
787.69921875
 20
-730.2265625
 10
784.34375
 20
-736.10546875
 10
780.857421875
 20
-741.7734375
 10
779.9990234375
 20
-742.9052734375
 10
779.1552734375
 20
-744.048828125
 10
778.28125
 20
-745.158203125
 10
757.8125
 20
-771.220703125
 10
731.345703125
 20
-785.05078125
 10
701.3994140625
 20
-785.15625
 10
672.2255859375
 20
-785.15625
 10
645.01953125
 20
-772.2294921875
 10
624.783203125
 20
-748.76171875
 10
617.0419921875
 20
-739.7939453125
 10
610.3466796875
 20
-728.224609375
 10
604.36328125
 20
-713.48046875
 10
606.8115234375
 20
-712.2470703125
 10
609.232421875
 20
-711.017578125
 10
611.62109375
 20
-709.810546875
 10
621.20703125
 20
-704.9521484375
 10
630.2607421875
 20
-700.3671875
 10
638.5
 20
-696.6484375
 10
662.103515625
 20
-685.990234375
 10
687.2138671875
 20
-676.130859375
 10
710.869140625
 20
-676.130859375
 10
722.302734375
 20
-676.130859375
 10
732.4931640625
 20
-678.5595703125
 10
741.1484375
 20
-683.34375
 97
        0
 92
        1
 93
        1
 72
     4
 94
        3
 73
     0
 74
     1
 95
       20
 96
       16
 40
0.0
 40
0.0
 40
0.0
 40
0.0
 40
1.0
 40
1.0
 40
1.0
 40
2.0
 40
2.0
 40
2.0
 40
3.0
 40
3.0
 40
3.0
 40
4.0
 40
4.0
 40
4.0
 40
5.0
 40
5.0
 40
5.0
 40
5.0
 10
653.6162109375
 20
-667.634765625
 10
637.31640625
 20
-674.3759765625
 10
621.630859375
 20
-682.765625
 10
606.31640625
 20
-690.953125
 10
603.4931640625
 20
-692.46484375
 10
600.669921875
 20
-693.974609375
 10
597.84375
 20
-695.474609375
 10
594.998046875
 20
-686.724609375
 10
592.4599609375
 20
-677.8359375
 10
589.994140625
 20
-669.1953125
 10
589.994140625
 20
-669.1953125
 10
589.5478515625
 20
-667.634765625
 10
589.5478515625
 20
-667.634765625
 10
589.5478515625
 20
-667.634765625
 10
653.6162109375
 20
-667.634765625
 10
653.6162109375
 20
-667.634765625
 97
        0
 92
        1
 93
        1
 72
     4
 94
        3
 73
     0
 74
     1
 95
       20
 96
       16
 40
0.0
 40
0.0
 40
0.0
 40
0.0
 40
1.0
 40
1.0
 40
1.0
 40
2.0
 40
2.0
 40
2.0
 40
3.0
 40
3.0
 40
3.0
 40
4.0
 40
4.0
 40
4.0
 40
5.0
 40
5.0
 40
5.0
 40
5.0
 10
570.4169921875
 20
-667.634765625
 10
571.267578125
 20
-679.3017578125
 10
574.2822265625
 20
-691.830078125
 10
579.4033203125
 20
-704.966796875
 10
561.7529296875
 20
-713.67578125
 10
541.0517578125
 20
-722.51953125
 10
518.0634765625
 20
-725.96484375
 10
519.19921875
 20
-723.216796875
 10
520.140625
 20
-720.408203125
 10
520.875
 20
-717.5595703125
 10
525.4638671875
 20
-699.70703125
 10
521.4677734375
 20
-680.755859375
 10
510.9140625
 20
-667.634765625
 10
510.9140625
 20
-667.634765625
 10
570.4169921875
 20
-667.634765625
 10
570.4169921875
 20
-667.634765625
 97
        0
 92
        1
 93
        1
 72
     4
 94
        3
 73
     0
 74
     1
 95
       23
 96
       19
 40
0.0
 40
0.0
 40
0.0
 40
0.0
 40
1.0
 40
1.0
 40
1.0
 40
2.0
 40
2.0
 40
2.0
 40
3.0
 40
3.0
 40
3.0
 40
4.0
 40
4.0
 40
4.0
 40
5.0
 40
5.0
 40
5.0
 40
6.0
 40
6.0
 40
6.0
 40
6.0
 10
452.1357421875
 20
-687.421875
 10
452.95654296875
 20
-680.8955078125
 10
456.296875
 20
-675.845703125
 10
462.0703125
 20
-672.404296875
 10
466.017578125
 20
-670.0537109375
 10
470.24267578125
 20
-668.857421875
 10
474.62109375
 20
-668.857421875
 10
487.8623046875
 20
-668.857421875
 10
500.5859375
 20
-679.8642578125
 10
503.5927734375
 20
-693.9150390625
 10
506.5654296875
 20
-707.7861328125
 10
501.8232421875
 20
-719.453125
 10
496.822265625
 20
-727.25390625
 10
481.73681640625
 20
-726.59765625
 10
470.107421875
 20
-722.263671875
 10
462.23486328125
 20
-714.3505859375
 10
455.07470703125
 20
-707.16015625
 10
451.0146484375
 20
-696.3369140625
 10
452.1357421875
 20
-687.421875
 97
        0
 92
        1
 93
        1
 72
     4
 94
        3
 73
     0
 74
     1
 95
       35
 96
       31
 40
0.0
 40
0.0
 40
0.0
 40
0.0
 40
1.0
 40
1.0
 40
1.0
 40
2.0
 40
2.0
 40
2.0
 40
3.0
 40
3.0
 40
3.0
 40
4.0
 40
4.0
 40
4.0
 40
5.0
 40
5.0
 40
5.0
 40
6.0
 40
6.0
 40
6.0
 40
7.0
 40
7.0
 40
7.0
 40
8.0
 40
8.0
 40
8.0
 40
9.0
 40
9.0
 40
9.0
 40
10.0
 40
10.0
 40
10.0
 40
10.0
 10
440.5439453125
 20
-667.634765625
 10
439.17919921875
 20
-669.5546875
 10
438.001953125
 20
-671.6015625
 10
437.02001953125
 20
-673.7685546875
 10
427.115234375
 20
-695.580078125
 10
439.123046875
 20
-720.9296875
 10
456.4541015625
 20
-732.828125
 10
463.93701171875
 20
-737.97265625
 10
472.20703125
 20
-741.69140625
 10
481.1142578125
 20
-743.9326171875
 10
477.005859375
 20
-747.0517578125
 10
472.4169921875
 20
-749.923828125
 10
467.419921875
 20
-752.5068359375
 10
464.2744140625
 20
-751.1533203125
 10
461.0244140625
 20
-749.86328125
 10
457.732421875
 20
-748.6640625
 10
427.7451171875
 20
-737.7060546875
 10
396.869140625
 20
-733.6533203125
 10
367.005859375
 20
-729.732421875
 10
357.12353515625
 20
-728.431640625
 10
346.904296875
 20
-727.0888671875
 10
336.78955078125
 20
-725.5107421875
 10
334.802734375
 20
-725.203125
 10
332.8232421875
 20
-724.8662109375
 10
330.84375
 20
-724.498046875
 10
313.81640625
 20
-704.90625
 10
304.51171875
 20
-684.4609375
 10
304.87158203125
 20
-667.634765625
 10
304.87158203125
 20
-667.634765625
 10
440.5439453125
 20
-667.634765625
 10
440.5439453125
 20
-667.634765625
 97
        0
 92
        1
 93
        1
 72
     4
 94
        3
 73
     0
 74
     1
 95
       20
 96
       16
 40
0.0
 40
0.0
 40
0.0
 40
0.0
 40
1.0
 40
1.0
 40
1.0
 40
2.0
 40
2.0
 40
2.0
 40
3.0
 40
3.0
 40
3.0
 40
4.0
 40
4.0
 40
4.0
 40
5.0
 40
5.0
 40
5.0
 40
5.0
 10
439.9140625
 20
-762.576171875
 10
420.50244140625
 20
-767.19140625
 10
399.90576171875
 20
-767.236328125
 10
383.70703125
 20
-762.5908203125
 10
372.8798828125
 20
-759.4794921875
 10
359.8076171875
 20
-751.625
 10
347.369140625
 20
-740.92578125
 10
349.9931640625
 20
-741.255859375
 10
352.60986328125
 20
-741.5673828125
 10
355.18896484375
 20
-741.87109375
 10
358.87060546875
 20
-742.3134765625
 10
362.529296875
 20
-742.748046875
 10
366.15087890625
 20
-743.220703125
 10
393.55517578125
 20
-746.7822265625
 10
418.31298828125
 20
-753.2822265625
 10
439.9140625
 20
-762.576171875
 97
        0
 92
        1
 93
        1
 72
     4
 94
        3
 73
     0
 74
     1
 95
       62
 96
       58
 40
0.0
 40
0.0
 40
0.0
 40
0.0
 40
1.0
 40
1.0
 40
1.0
 40
2.0
 40
2.0
 40
2.0
 40
3.0
 40
3.0
 40
3.0
 40
4.0
 40
4.0
 40
4.0
 40
5.0
 40
5.0
 40
5.0
 40
6.0
 40
6.0
 40
6.0
 40
7.0
 40
7.0
 40
7.0
 40
8.0
 40
8.0
 40
8.0
 40
9.0
 40
9.0
 40
9.0
 40
10.0
 40
10.0
 40
10.0
 40
11.0
 40
11.0
 40
11.0
 40
12.0
 40
12.0
 40
12.0
 40
13.0
 40
13.0
 40
13.0
 40
14.0
 40
14.0
 40
14.0
 40
15.0
 40
15.0
 40
15.0
 40
16.0
 40
16.0
 40
16.0
 40
17.0
 40
17.0
 40
17.0
 40
18.0
 40
18.0
 40
18.0
 40
19.0
 40
19.0
 40
19.0
 40
19.0
 10
287.37890625
 20
-824.9462890625
 10
285.78564453125
 20
-835.75390625
 10
279.056640625
 20
-844.193359375
 10
273.6953125
 20
-849.3671875
 10
263.83203125
 20
-858.880859375
 10
250.0400390625
 20
-864.33984375
 10
235.86181640625
 20
-864.33984375
 10
231.11572265625
 20
-864.33984375
 10
226.44091796875
 20
-863.732421875
 10
221.953125
 20
-862.525390625
 10
214.15576171875
 20
-860.42578125
 10
206.9990234375
 20
-857.0595703125
 10
200.56591796875
 20
-852.478515625
 10
216.66748046875
 20
-853.017578125
 10
230.3505859375
 20
-845.767578125
 10
236.4541015625
 20
-833.4375
 10
238.3212890625
 20
-829.666015625
 10
238.0810546875
 20
-825.388671875
 10
235.78662109375
 20
-821.6923828125
 10
233.48486328125
 20
-817.98046875
 10
229.5634765625
 20
-815.671875
 10
225.5634765625
 20
-815.671875
 10
222.46337890625
 20
-815.671875
 10
219.54638671875
 20
-817.0771484375
 10
217.349609375
 20
-819.626953125
 10
210.8193359375
 20
-827.203125
 10
204.73828125
 20
-833.6171875
 10
196.47216796875
 20
-835.3232421875
 10
191.115234375
 20
-836.42578125
 10
185.94921875
 20
-834.75390625
 10
180.3330078125
 20
-830.0859375
 10
170.55615234375
 20
-813.33203125
 10
166.73974609375
 20
-792.390625
 10
169.85888671875
 20
-772.521484375
 10
172.9912109375
 20
-752.5625
 10
181.62841796875
 20
-734.1181640625
 10
194.83203125
 20
-718.23828125
 10
209.5595703125
 20
-742.3056640625
 10
227.04052734375
 20
-764.6044921875
 10
247.4873046875
 20
-784.994140625
 10
248.68115234375
 20
-786.1826171875
 10
249.927734375
 20
-787.28125
 10
251.130859375
 20
-788.455078125
 10
250.8251953125
 20
-790.5615234375
 10
250.990234375
 20
-792.7431640625
 10
251.70849609375
 20
-794.8955078125
 10
253.61669921875
 20
-800.59375
 10
258.91357421875
 20
-804.4287109375
 10
264.89697265625
 20
-804.4287109375
 10
265.9990234375
 20
-804.4287109375
 10
267.11083984375
 20
-804.2978515625
 10
268.22216796875
 20
-804.0537109375
 10
274.5576171875
 20
-809.5009765625
 10
281.01513671875
 20
-814.7421875
 10
287.6357421875
 20
-819.6943359375
 10
287.69970703125
 20
-821.5576171875
 10
287.61328125
 20
-823.349609375
 10
287.37890625
 20
-824.9462890625
 97
        0
 92
        1
 93
        1
 72
     4
 94
        3
 73
     0
 74
     1
 95
       29
 96
       25
 40
0.0
 40
0.0
 40
0.0
 40
0.0
 40
1.0
 40
1.0
 40
1.0
 40
2.0
 40
2.0
 40
2.0
 40
3.0
 40
3.0
 40
3.0
 40
4.0
 40
4.0
 40
4.0
 40
5.0
 40
5.0
 40
5.0
 40
6.0
 40
6.0
 40
6.0
 40
7.0
 40
7.0
 40
7.0
 40
8.0
 40
8.0
 40
8.0
 40
8.0
 10
353.05224609375
 20
-765.2939453125
 10
352.3720703125
 20
-764.484375
 10
351.74755859375
 20
-763.6220703125
 10
351.078125
 20
-762.80859375
 10
370.435546875
 20
-774.3779296875
 10
392.53759765625
 20
-780.6640625
 10
415.2724609375
 20
-780.6640625
 10
430.10693359375
 20
-780.6640625
 10
445.21484375
 20
-778.06640625
 10
460.16552734375
 20
-772.9453125
 10
460.16552734375
 20
-772.9453125
 10
460.4658203125
 20
-772.8408203125
 10
460.4658203125
 20
-772.8408203125
 10
465.083984375
 20
-775.4912109375
 10
469.2529296875
 20
-778.1298828125
 10
473.1669921875
 20
-780.8818359375
 10
490.31787109375
 20
-792.904296875
 10
501.34375
 20
-808.720703125
 10
503.419921875
 20
-824.275390625
 10
504.9951171875
 20
-836.103515625
 10
500.58984375
 20
-847.2001953125
 10
492.4267578125
 20
-853.9853515625
 10
438.9150390625
 20
-841.52734375
 10
392.43798828125
 20
-812.0126953125
 10
353.05224609375
 20
-765.2939453125
 97
        0
 92
        1
 93
        1
 72
     4
 94
        3
 73
     0
 74
     1
 95
       86
 96
       82
 40
0.0
 40
0.0
 40
0.0
 40
0.0
 40
1.0
 40
1.0
 40
1.0
 40
2.0
 40
2.0
 40
2.0
 40
3.0
 40
3.0
 40
3.0
 40
4.0
 40
4.0
 40
4.0
 40
5.0
 40
5.0
 40
5.0
 40
6.0
 40
6.0
 40
6.0
 40
7.0
 40
7.0
 40
7.0
 40
8.0
 40
8.0
 40
8.0
 40
9.0
 40
9.0
 40
9.0
 40
10.0
 40
10.0
 40
10.0
 40
11.0
 40
11.0
 40
11.0
 40
12.0
 40
12.0
 40
12.0
 40
13.0
 40
13.0
 40
13.0
 40
14.0
 40
14.0
 40
14.0
 40
15.0
 40
15.0
 40
15.0
 40
16.0
 40
16.0
 40
16.0
 40
17.0
 40
17.0
 40
17.0
 40
18.0
 40
18.0
 40
18.0
 40
19.0
 40
19.0
 40
19.0
 40
20.0
 40
20.0
 40
20.0
 40
21.0
 40
21.0
 40
21.0
 40
22.0
 40
22.0
 40
22.0
 40
23.0
 40
23.0
 40
23.0
 40
24.0
 40
24.0
 40
24.0
 40
25.0
 40
25.0
 40
25.0
 40
26.0
 40
26.0
 40
26.0
 40
27.0
 40
27.0
 40
27.0
 40
27.0
 10
553.603515625
 20
-860.861328125
 10
542.7353515625
 20
-860.861328125
 10
532.1259765625
 20
-860.2197265625
 10
521.7412109375
 20
-859.04296875
 10
524.79296875
 20
-853.71875
 10
527.056640625
 20
-847.8408203125
 10
528.3544921875
 20
-841.5693359375
 10
529.35546875
 20
-842.3486328125
 10
530.337890625
 20
-843.0986328125
 10
531.2744140625
 20
-843.810546875
 10
531.2744140625
 20
-843.810546875
 10
532.271484375
 20
-844.568359375
 10
532.271484375
 20
-844.568359375
 10
539.6650390625
 20
-850.203125
 10
549.53125
 20
-856.72265625
 10
560.6806640625
 20
-857.1123046875
 10
565.2587890625
 20
-857.1123046875
 10
568.9775390625
 20
-853.90625
 10
569.9375
 20
-849.1376953125
 10
570.9716796875
 20
-843.994140625
 10
568.5166015625
 20
-838.921875
 10
564.107421875
 20
-837.0703125
 10
560.298828125
 20
-835.4736328125
 10
556.4150390625
 20
-834.5703125
 10
552.658203125
 20
-833.6962890625
 10
548.5869140625
 20
-832.751953125
 10
544.740234375
 20
-831.859375
 10
541.134765625
 20
-830.1572265625
 10
538.240234375
 20
-828.79296875
 10
535.623046875
 20
-826.7197265625
 10
532.849609375
 20
-824.5263671875
 10
531.642578125
 20
-823.56640625
 10
530.4384765625
 20
-822.6142578125
 10
529.208984375
 20
-821.71484375
 10
528.96484375
 20
-819.634765625
 10
528.6201171875
 20
-817.583984375
 10
528.185546875
 20
-815.5927734375
 10
527.7060546875
 20
-813.4296875
 10
527.12890625
 20
-811.29296875
 10
526.453125
 20
-809.185546875
 10
528.365234375
 20
-809.939453125
 10
530.3115234375
 20
-810.6220703125
 10
532.234375
 20
-811.2109375
 10
537.7451171875
 20
-812.8974609375
 10
543.0458984375
 20
-808.69140625
 10
543.4208984375
 20
-802.576171875
 10
543.736328125
 20
-797.482421875
 10
540.556640625
 20
-793.50390625
 10
535.6982421875
 20
-792.908203125
 10
530.5732421875
 20
-792.2783203125
 10
525.9697265625
 20
-791.5849609375
 10
521.53515625
 20
-789.4521484375
 10
519.86328125
 20
-788.646484375
 10
518.220703125
 20
-787.6708984375
 10
516.4814453125
 20
-786.640625
 10
515.2822265625
 20
-785.931640625
 10
514.08203125
 20
-785.22265625
 10
512.8671875
 20
-784.5634765625
 10
505.8193359375
 20
-775.9970703125
 10
496.60498046875
 20
-768.30859375
 10
485.41455078125
 20
-761.634765625
 10
493.04345703125
 20
-757.1591796875
 10
499.525390625
 20
-752.0791015625
 10
504.7470703125
 20
-746.474609375
 10
532.7294921875
 20
-745.8828125
 10
561.828125
 20
-734.046875
 10
587.095703125
 20
-721.9794921875
 10
599.13671875
 20
-745.4736328125
 10
616.0673828125
 20
-766.890625
 10
632.884765625
 20
-779.783203125
 10
652.3115234375
 20
-794.677734375
 10
676.5966796875
 20
-802.884765625
 10
701.2646484375
 20
-802.884765625
 10
712.259765625
 20
-802.884765625
 10
723.2216796875
 20
-801.197265625
 10
733.666015625
 20
-797.99609375
 10
718.828125
 20
-810.828125
 10
702.54296875
 20
-821.421875
 10
684.75390625
 20
-829.6923828125
 10
640.052734375
 20
-850.4765625
 10
596.3330078125
 20
-860.861328125
 10
553.603515625
 20
-860.861328125
 97
        0
 75
     2
 76
     1
 98
        0
  0
SPLINE
  5
58
330
3C
100
AcDbEntity
  8
Layer 1
370
     0
100
AcDbSpline
210
0.0
220
0.0
230
1.0
 70
    11
 71
     3
 72
   149
 73
   145
 74
     0
 42
0.0000000001
 43
0.0000000001
 40
0.0
 40
0.0
 40
0.0
 40
0.0
 40
1.0
 40
1.0
 40
1.0
 40
2.0
 40
2.0
 40
2.0
 40
3.0
 40
3.0
 40
3.0
 40
4.0
 40
4.0
 40
4.0
 40
5.0
 40
5.0
 40
5.0
 40
6.0
 40
6.0
 40
6.0
 40
7.0
 40
7.0
 40
7.0
 40
8.0
 40
8.0
 40
8.0
 40
9.0
 40
9.0
 40
9.0
 40
10.0
 40
10.0
 40
10.0
 40
11.0
 40
11.0
 40
11.0
 40
12.0
 40
12.0
 40
12.0
 40
13.0
 40
13.0
 40
13.0
 40
14.0
 40
14.0
 40
14.0
 40
15.0
 40
15.0
 40
15.0
 40
16.0
 40
16.0
 40
16.0
 40
17.0
 40
17.0
 40
17.0
 40
18.0
 40
18.0
 40
18.0
 40
19.0
 40
19.0
 40
19.0
 40
20.0
 40
20.0
 40
20.0
 40
21.0
 40
21.0
 40
21.0
 40
22.0
 40
22.0
 40
22.0
 40
23.0
 40
23.0
 40
23.0
 40
24.0
 40
24.0
 40
24.0
 40
25.0
 40
25.0
 40
25.0
 40
26.0
 40
26.0
 40
26.0
 40
27.0
 40
27.0
 40
27.0
 40
28.0
 40
28.0
 40
28.0
 40
29.0
 40
29.0
 40
29.0
 40
30.0
 40
30.0
 40
30.0
 40
31.0
 40
31.0
 40
31.0
 40
32.0
 40
32.0
 40
32.0
 40
33.0
 40
33.0
 40
33.0
 40
34.0
 40
34.0
 40
34.0
 40
35.0
 40
35.0
 40
35.0
 40
36.0
 40
36.0
 40
36.0
 40
37.0
 40
37.0
 40
37.0
 40
38.0
 40
38.0
 40
38.0
 40
39.0
 40
39.0
 40
39.0
 40
40.0
 40
40.0
 40
40.0
 40
41.0
 40
41.0
 40
41.0
 40
42.0
 40
42.0
 40
42.0
 40
43.0
 40
43.0
 40
43.0
 40
44.0
 40
44.0
 40
44.0
 40
45.0
 40
45.0
 40
45.0
 40
46.0
 40
46.0
 40
46.0
 40
47.0
 40
47.0
 40
47.0
 40
48.0
 40
48.0
 40
48.0
 40
48.0
 10
86.93310546875
 20
-507.8876953125
 30
0.0
 10
90.8994140625
 20
-509.39453125
 30
0.0
 10
95.05322265625
 20
-510.4853515625
 30
0.0
 10
99.3193359375
 20
-511.1484375
 30
0.0
 10
99.3193359375
 20
-511.1484375
 30
0.0
 10
99.3193359375
 20
-512.1083984375
 30
0.0
 10
99.3193359375
 20
-512.1083984375
 30
0.0
 10
99.3193359375
 20
-512.1083984375
 30
0.0
 10
903.38671875
 20
-512.1083984375
 30
0.0
 10
903.38671875
 20
-512.1083984375
 30
0.0
 10
903.38671875
 20
-512.1083984375
 30
0.0
 10
903.38671875
 20
-494.9521484375
 30
0.0
 10
903.38671875
 20
-494.9521484375
 30
0.0
 10
903.38671875
 20
-494.9521484375
 30
0.0
 10
760.7333984375
 20
-494.9521484375
 30
0.0
 10
760.7333984375
 20
-494.9521484375
 30
0.0
 10
770.7724609375
 20
-489.98095703125
 30
0.0
 10
780.35546875
 20
-484.0107421875
 30
0.0
 10
789.3828125
 20
-477.09765625
 30
0.0
 10
797.986328125
 20
-473.1142578125
 30
0.0
 10
805.2216796875
 20
-470.0927734375
 30
0.0
 10
812.970703125
 20
-470.0927734375
 30
0.0
 10
816.6591796875
 20
-470.0927734375
 30
0.0
 10
820.2431640625
 20
-470.77880859375
 30
0.0
 10
823.935546875
 20
-472.1904296875
 30
0.0
 10
828.3857421875
 20
-473.890625
 30
0.0
 10
834.1630859375
 20
-476.2373046875
 30
0.0
 10
839.3779296875
 20
-479.3134765625
 30
0.0
 10
839.3779296875
 20
-479.3134765625
 30
0.0
 10
841.296875
 20
-480.4716796875
 30
0.0
 10
841.296875
 20
-480.4716796875
 30
0.0
 10
845.12890625
 20
-482.80712890625
 30
0.0
 10
848.7421875
 20
-485.013671875
 30
0.0
 10
854.755859375
 20
-485.1767578125
 30
0.0
 10
857.5634765625
 20
-485.1767578125
 30
0.0
 10
860.19921875
 20
-483.88330078125
 30
0.0
 10
861.9833984375
 20
-481.62646484375
 30
0.0
 10
863.857421875
 20
-479.24755859375
 30
0.0
 10
864.5703125
 20
-476.08935546875
 30
0.0
 10
863.873046875
 20
-473.17626953125
 30
0.0
 10
859.4716796875
 20
-454.74853515625
 30
0.0
 10
834.541015625
 20
-453.31640625
 30
0.0
 10
827.005859375
 20
-453.31640625
 30
0.0
 10
824.5322265625
 20
-453.31640625
 30
0.0
 10
822.125
 20
-453.4443359375
 30
0.0
 10
819.853515625
 20
-453.693359375
 30
0.0
 10
817.998046875
 20
-453.8974609375
 30
0.0
 10
815.7705078125
 20
-454.21435546875
 30
0.0
 10
813.28515625
 20
-454.7021484375
 30
0.0
 10
814.3388671875
 20
-453.47021484375
 30
0.0
 10
815.376953125
 20
-452.21826171875
 30
0.0
 10
816.3896484375
 20
-450.947265625
 30
0.0
 10
817.2109375
 20
-450.6474609375
 30
0.0
 10
817.9296875
 20
-450.1171875
 30
0.0
 10
818.4736328125
 20
-449.39892578125
 30
0.0
 10
821.2626953125
 20
-445.70263671875
 30
0.0
 10
824.126953125
 20
-441.70263671875
 30
0.0
 10
827.095703125
 20
-437.56005859375
 30
0.0
 10
845.66796875
 20
-411.62890625
 30
0.0
 10
866.796875
 20
-382.130859375
 30
0.0
 10
898.51953125
 20
-384.455078125
 30
0.0
 10
898.8837890625
 20
-384.4833984375
 30
0.0
 10
899.240234375
 20
-384.49609375
 30
0.0
 10
899.5849609375
 20
-384.49609375
 30
0.0
 10
899.5849609375
 20
-384.49609375
 30
0.0
 10
899.5849609375
 20
-384.49609375
 30
0.0
 10
899.5888671875
 20
-384.49609375
 30
0.0
 10
905.927734375
 20
-384.49609375
 30
0.0
 10
910.5693359375
 20
-379.95458984375
 30
0.0
 10
910.869140625
 20
-373.4521484375
 30
0.0
 10
911.158203125
 20
-367.2607421875
 30
0.0
 10
907.1162109375
 20
-360.2783203125
 30
0.0
 10
899.060546875
 20
-359.5322265625
 30
0.0
 10
883.771484375
 20
-358.11328125
 30
0.0
 10
871.8544921875
 20
-364.75830078125
 30
0.0
 10
862.103515625
 20
-373.41455078125
 30
0.0
 10
862.103515625
 20
-373.41455078125
 30
0.0
 10
855.306640625
 20
-82.19482421875
 30
0.0
 10
855.306640625
 20
-82.19482421875
 30
0.0
 10
855.306640625
 20
-82.19482421875
 30
0.0
 10
829.427734375
 20
-82.19482421875
 30
0.0
 10
829.427734375
 20
-82.19482421875
 30
0.0
 10
825.900390625
 20
-117.876953125
 30
0.0
 10
815.69921875
 20
-152.38330078125
 30
0.0
 10
798.84765625
 20
-185.70361328125
 30
0.0
 10
774.9267578125
 20
-155.9130859375
 30
0.0
 10
738.7578125
 20
-128.7578125
 30
0.0
 10
690.33984375
 20
-104.24951171875
 30
0.0
 10
641.912109375
 20
-79.75048828125
 30
0.0
 10
587.9052734375
 20
-67.49365234375
 30
0.0
 10
528.3125
 20
-67.49365234375
 30
0.0
 10
456.16943359375
 20
-67.49365234375
 30
0.0
 10
389.90380859375
 20
-84.35400390625
 30
0.0
 10
329.53173828125
 20
-118.06982421875
 30
0.0
 10
269.14453125
 20
-151.794921875
 30
0.0
 10
222.095703125
 20
-203.44921875
 30
0.0
 10
188.3818359375
 20
-273.0400390625
 30
0.0
 10
156.3681640625
 20
-339.1044921875
 30
0.0
 10
139.58984375
 20
-409.3193359375
 30
0.0
 10
137.966796875
 20
-483.6826171875
 30
0.0
 10
129.2939453125
 20
-487.78759765625
 30
0.0
 10
119.57666015625
 20
-490.1123046875
 30
0.0
 10
110.47607421875
 20
-490.1123046875
 30
0.0
 10
99.3271484375
 20
-490.1123046875
 30
0.0
 10
79.578125
 20
-486.68359375
 30
0.0
 10
72.6201171875
 20
-463.7255859375
 30
0.0
 10
68.451171875
 20
-449.9912109375
 30
0.0
 10
73.4521484375
 20
-434.619140625
 30
0.0
 10
84.50390625
 20
-427.169921875
 30
0.0
 10
91.26318359375
 20
-422.61328125
 30
0.0
 10
98.794921875
 20
-422.189453125
 30
0.0
 10
104.8828125
 20
-426.04345703125
 30
0.0
 10
108.08447265625
 20
-428.10888671875
 30
0.0
 10
110.52490234375
 20
-430.8310546875
 30
0.0
 10
112.39208984375
 20
-434.4599609375
 30
0.0
 10
112.57568359375
 20
-434.798828125
 30
0.0
 10
112.748046875
 20
-435.13623046875
 30
0.0
 10
112.90185546875
 20
-435.4736328125
 30
0.0
 10
107.4248046875
 20
-435.458984375
 30
0.0
 10
102.044921875
 20
-437.962890625
 30
0.0
 10
98.80224609375
 20
-442.203125
 30
0.0
 10
95.525390625
 20
-446.49560546875
 30
0.0
 10
94.63330078125
 20
-452.22021484375
 30
0.0
 10
96.2978515625
 20
-458.3232421875
 30
0.0
 10
98.38232421875
 20
-465.9765625
 30
0.0
 10
104.837890625
 20
-470.92138671875
 30
0.0
 10
112.744140625
 20
-470.92138671875
 30
0.0
 10
115.55224609375
 20
-470.92138671875
 30
0.0
 10
118.43896484375
 20
-470.2783203125
 30
0.0
 10
121.08203125
 20
-469.05810546875
 30
0.0
 10
132.9697265625
 20
-463.5791015625
 30
0.0
 10
136.384765625
 20
-449.453125
 30
0.0
 10
135.69873046875
 20
-439.02392578125
 30
0.0
 10
134.333984375
 20
-418.0322265625
 30
0.0
 10
116.69921875
 20
-400.9541015625
 30
0.0
 10
96.3876953125
 20
-400.9541015625
 30
0.0
 10
94.048828125
 20
-400.9541015625
 30
0.0
 10
91.70556640625
 20
-401.1865234375
 30
0.0
 10
89.4189453125
 20
-401.6435546875
 30
0.0
 10
67.94873046875
 20
-405.9287109375
 30
0.0
 10
50.673828125
 20
-428.2421875
 30
0.0
 10
50.0966796875
 20
-452.439453125
 30
0.0
 10
49.51171875
 20
-476.62890625
 30
0.0
 10
64.6572265625
 20
-499.427734375
 30
0.0
 10
86.93310546875
 20
-507.8876953125
 30
0.0
  0
SPLINE
  5
59
330
3C
100
AcDbEntity
  8
Layer 1
370
     0
100
AcDbSpline
210
0.0
220
0.0
230
1.0
 70
    11
 71
     3
 72
    53
 73
    49
 74
     0
 42
0.0000000001
 43
0.0000000001
 40
0.0
 40
0.0
 40
0.0
 40
0.0
 40
1.0
 40
1.0
 40
1.0
 40
2.0
 40
2.0
 40
2.0
 40
3.0
 40
3.0
 40
3.0
 40
4.0
 40
4.0
 40
4.0
 40
5.0
 40
5.0
 40
5.0
 40
6.0
 40
6.0
 40
6.0
 40
7.0
 40
7.0
 40
7.0
 40
8.0
 40
8.0
 40
8.0
 40
9.0
 40
9.0
 40
9.0
 40
10.0
 40
10.0
 40
10.0
 40
11.0
 40
11.0
 40
11.0
 40
12.0
 40
12.0
 40
12.0
 40
13.0
 40
13.0
 40
13.0
 40
14.0
 40
14.0
 40
14.0
 40
15.0
 40
15.0
 40
15.0
 40
16.0
 40
16.0
 40
16.0
 40
16.0
 10
272.55419921875
 20
-484.4921875
 30
0.0
 10
272.6962890625
 20
-461.2587890625
 30
0.0
 10
273.6806640625
 20
-439.02392578125
 30
0.0
 10
275.513671875
 20
-417.7978515625
 30
0.0
 10
277.62060546875
 20
-419.2578125
 30
0.0
 10
279.75390625
 20
-421.818359375
 30
0.0
 10
280.18115234375
 20
-424.287109375
 30
0.0
 10
280.43603515625
 20
-425.7548828125
 30
0.0
 10
280.03857421875
 20
-426.9658203125
 30
0.0
 10
278.92919921875
 20
-428.1015625
 30
0.0
 10
274.5654296875
 20
-432.56103515625
 30
0.0
 10
273.3359375
 20
-438.154296875
 30
0.0
 10
275.5625
 20
-443.44970703125
 30
0.0
 10
277.89453125
 20
-448.998046875
 30
0.0
 10
283.57421875
 20
-452.8740234375
 30
0.0
 10
289.36962890625
 20
-452.8740234375
 30
0.0
 10
293.8984375
 20
-452.8740234375
 30
0.0
 10
297.81982421875
 20
-450.56298828125
 30
0.0
 10
300.41015625
 20
-446.3662109375
 30
0.0
 10
306.734375
 20
-436.11669921875
 30
0.0
 10
307.6982421875
 20
-423.4716796875
 30
0.0
 10
302.9892578125
 20
-412.5400390625
 30
0.0
 10
298.455078125
 20
-402.0146484375
 30
0.0
 10
289.46533203125
 20
-394.5732421875
 30
0.0
 10
278.2578125
 20
-391.90234375
 30
0.0
 10
278.77734375
 20
-387.7314453125
 30
0.0
 10
279.27392578125
 20
-383.53271484375
 30
0.0
 10
279.8642578125
 20
-379.44482421875
 30
0.0
 10
285.986328125
 20
-378.1552734375
 30
0.0
 10
292.28271484375
 20
-377.4521484375
 30
0.0
 10
298.7529296875
 20
-377.4296875
 30
0.0
 10
327.92333984375
 20
-377.4296875
 30
0.0
 10
355.140625
 20
-390.35205078125
 30
0.0
 10
375.376953125
 20
-413.8203125
 30
0.0
 10
383.10693359375
 20
-422.7802734375
 30
0.0
 10
389.802734375
 20
-434.34716796875
 30
0.0
 10
395.79345703125
 20
-449.1064453125
 30
0.0
 10
393.337890625
 20
-450.341796875
 30
0.0
 10
390.912109375
 20
-451.5712890625
 30
0.0
 10
388.5205078125
 20
-452.7841796875
 30
0.0
 10
378.9384765625
 20
-457.63720703125
 30
0.0
 10
369.89599609375
 20
-462.22021484375
 30
0.0
 10
361.65966796875
 20
-465.935546875
 30
0.0
 10
338.052734375
 20
-476.591796875
 30
0.0
 10
312.9501953125
 20
-486.453125
 30
0.0
 10
289.287109375
 20
-486.455078125
 30
0.0
 10
283.3583984375
 20
-486.455078125
 30
0.0
 10
277.7724609375
 20
-485.78759765625
 30
0.0
 10
272.55419921875
 20
-484.4921875
 30
0.0
  0
SPLINE
  5
5A
330
3C
100
AcDbEntity
  8
Layer 1
370
     0
100
AcDbSpline
210
0.0
220
0.0
230
1.0
 70
    11
 71
     3
 72
    20
 73
    16
 74
     0
 42
0.0000000001
 43
0.0000000001
 40
0.0
 40
0.0
 40
0.0
 40
0.0
 40
1.0
 40
1.0
 40
1.0
 40
2.0
 40
2.0
 40
2.0
 40
3.0
 40
3.0
 40
3.0
 40
4.0
 40
4.0
 40
4.0
 40
5.0
 40
5.0
 40
5.0
 40
5.0
 10
346.54052734375
 20
-494.9521484375
 30
0.0
 10
362.8408203125
 20
-488.20947265625
 30
0.0
 10
378.52587890625
 20
-479.8193359375
 30
0.0
 10
393.84375
 20
-471.6279296875
 30
0.0
 10
396.6669921875
 20
-470.119140625
 30
0.0
 10
399.48974609375
 20
-468.6103515625
 30
0.0
 10
402.3125
 20
-467.11083984375
 30
0.0
 10
405.14306640625
 20
-475.81005859375
 30
0.0
 10
407.669921875
 20
-484.65185546875
 30
0.0
 10
410.12158203125
 20
-493.2421875
 30
0.0
 10
410.12158203125
 20
-493.2421875
 30
0.0
 10
410.61279296875
 20
-494.9521484375
 30
0.0
 10
410.61279296875
 20
-494.9521484375
 30
0.0
 10
410.61279296875
 20
-494.9521484375
 30
0.0
 10
346.54052734375
 20
-494.9521484375
 30
0.0
 10
346.54052734375
 20
-494.9521484375
 30
0.0
  0
SPLINE
  5
5B
330
3C
100
AcDbEntity
  8
Layer 1
370
     0
100
AcDbSpline
210
0.0
220
0.0
230
1.0
 70
    11
 71
     3
 72
    20
 73
    16
 74
     0
 42
0.0000000001
 43
0.0000000001
 40
0.0
 40
0.0
 40
0.0
 40
0.0
 40
1.0
 40
1.0
 40
1.0
 40
2.0
 40
2.0
 40
2.0
 40
3.0
 40
3.0
 40
3.0
 40
4.0
 40
4.0
 40
4.0
 40
5.0
 40
5.0
 40
5.0
 40
5.0
 10
429.73583984375
 20
-494.9521484375
 30
0.0
 10
428.888671875
 20
-483.27587890625
 30
0.0
 10
425.87451171875
 20
-470.7490234375
 30
0.0
 10
420.75341796875
 20
-457.61669921875
 30
0.0
 10
438.41064453125
 20
-448.908203125
 30
0.0
 10
459.11962890625
 20
-440.0625
 30
0.0
 10
482.0927734375
 20
-436.62109375
 30
0.0
 10
480.953125
 20
-439.37451171875
 30
0.0
 10
480.01220703125
 20
-442.1845703125
 30
0.0
 10
479.28125
 20
-445.02587890625
 30
0.0
 10
474.6962890625
 20
-462.8818359375
 30
0.0
 10
478.6923828125
 20
-481.83056640625
 30
0.0
 10
489.2421875
 20
-494.9521484375
 30
0.0
 10
489.2421875
 20
-494.9521484375
 30
0.0
 10
429.73583984375
 20
-494.9521484375
 30
0.0
 10
429.73583984375
 20
-494.9521484375
 30
0.0
  0
SPLINE
  5
5C
330
3C
100
AcDbEntity
  8
Layer 1
370
     0
100
AcDbSpline
210
0.0
220
0.0
230
1.0
 70
    11
 71
     3
 72
    23
 73
    19
 74
     0
 42
0.0000000001
 43
0.0000000001
 40
0.0
 40
0.0
 40
0.0
 40
0.0
 40
1.0
 40
1.0
 40
1.0
 40
2.0
 40
2.0
 40
2.0
 40
3.0
 40
3.0
 40
3.0
 40
4.0
 40
4.0
 40
4.0
 40
5.0
 40
5.0
 40
5.0
 40
6.0
 40
6.0
 40
6.0
 40
6.0
 10
548.021484375
 20
-475.1630859375
 30
0.0
 10
547.2041015625
 20
-481.6904296875
 30
0.0
 10
543.859375
 20
-486.74169921875
 30
0.0
 10
538.09375
 20
-490.1796875
 30
0.0
 10
534.142578125
 20
-492.5322265625
 30
0.0
 10
529.91796875
 20
-493.72412109375
 30
0.0
 10
525.53515625
 20
-493.72412109375
 30
0.0
 10
512.2939453125
 20
-493.72412109375
 30
0.0
 10
499.56640625
 20
-482.72119140625
 30
0.0
 10
496.5634765625
 20
-468.673828125
 30
0.0
 10
493.5947265625
 20
-454.80126953125
 30
0.0
 10
498.3369140625
 20
-443.134765625
 30
0.0
 10
503.333984375
 20
-435.3310546875
 30
0.0
 10
518.416015625
 20
-435.9853515625
 30
0.0
 10
530.044921875
 20
-440.3212890625
 30
0.0
 10
537.9248046875
 20
-448.23486328125
 30
0.0
 10
545.08203125
 20
-455.42529296875
 30
0.0
 10
549.1416015625
 20
-466.24658203125
 30
0.0
 10
548.021484375
 20
-475.1630859375
 30
0.0
  0
SPLINE
  5
5D
330
3C
100
AcDbEntity
  8
Layer 1
370
     0
100
AcDbSpline
210
0.0
220
0.0
230
1.0
 70
    11
 71
     3
 72
    35
 73
    31
 74
     0
 42
0.0000000001
 43
0.0000000001
 40
0.0
 40
0.0
 40
0.0
 40
0.0
 40
1.0
 40
1.0
 40
1.0
 40
2.0
 40
2.0
 40
2.0
 40
3.0
 40
3.0
 40
3.0
 40
4.0
 40
4.0
 40
4.0
 40
5.0
 40
5.0
 40
5.0
 40
6.0
 40
6.0
 40
6.0
 40
7.0
 40
7.0
 40
7.0
 40
8.0
 40
8.0
 40
8.0
 40
9.0
 40
9.0
 40
9.0
 40
10.0
 40
10.0
 40
10.0
 40
10.0
 10
559.6123046875
 20
-494.9521484375
 30
0.0
 10
560.9736328125
 20
-493.0322265625
 30
0.0
 10
562.150390625
 20
-490.9833984375
 30
0.0
 10
563.13671875
 20
-488.81689453125
 30
0.0
 10
573.041015625
 20
-467.005859375
 30
0.0
 10
561.037109375
 20
-441.6591796875
 30
0.0
 10
543.7021484375
 20
-429.7568359375
 30
0.0
 10
536.2197265625
 20
-424.6171875
 30
0.0
 10
527.953125
 20
-420.896484375
 30
0.0
 10
519.0380859375
 20
-418.65234375
 30
0.0
 10
523.1435546875
 20
-415.5390625
 30
0.0
 10
527.7353515625
 20
-412.66357421875
 30
0.0
 10
532.740234375
 20
-410.0771484375
 30
0.0
 10
535.8818359375
 20
-411.43017578125
 30
0.0
 10
539.1357421875
 20
-412.7216796875
 30
0.0
 10
542.427734375
 20
-413.92333984375
 30
0.0
 10
572.4189453125
 20
-424.88134765625
 30
0.0
 10
603.3017578125
 20
-428.935546875
 30
0.0
 10
633.166015625
 20
-432.85888671875
 30
0.0
 10
643.0439453125
 20
-434.15625
 30
0.0
 10
653.259765625
 20
-435.498046875
 30
0.0
 10
663.3671875
 20
-437.07275390625
 30
0.0
 10
665.353515625
 20
-437.3837890625
 30
0.0
 10
667.3330078125
 20
-437.7177734375
 30
0.0
 10
669.30859375
 20
-438.0849609375
 30
0.0
 10
686.33984375
 20
-457.6787109375
 30
0.0
 10
695.64453125
 20
-478.125
 30
0.0
 10
695.28515625
 20
-494.9521484375
 30
0.0
 10
695.28515625
 20
-494.9521484375
 30
0.0
 10
559.6123046875
 20
-494.9521484375
 30
0.0
 10
559.6123046875
 20
-494.9521484375
 30
0.0
  0
SPLINE
  5
5E
330
3C
100
AcDbEntity
  8
Layer 1
370
     0
100
AcDbSpline
210
0.0
220
0.0
230
1.0
 70
    11
 71
     3
 72
    20
 73
    16
 74
     0
 42
0.0000000001
 43
0.0000000001
 40
0.0
 40
0.0
 40
0.0
 40
0.0
 40
1.0
 40
1.0
 40
1.0
 40
2.0
 40
2.0
 40
2.0
 40
3.0
 40
3.0
 40
3.0
 40
4.0
 40
4.0
 40
4.0
 40
5.0
 40
5.0
 40
5.0
 40
5.0
 10
560.23828125
 20
-400.00927734375
 30
0.0
 10
579.654296875
 20
-395.392578125
 30
0.0
 10
600.2470703125
 20
-395.345703125
 30
0.0
 10
616.4453125
 20
-399.99609375
 30
0.0
 10
627.2724609375
 20
-403.10595703125
 30
0.0
 10
640.3486328125
 20
-410.9599609375
 30
0.0
 10
652.791015625
 20
-421.6572265625
 30
0.0
 10
650.15625
 20
-421.3291015625
 30
0.0
 10
647.5390625
 20
-421.01806640625
 30
0.0
 10
644.9599609375
 20
-420.71044921875
 30
0.0
 10
641.2783203125
 20
-420.27392578125
 30
0.0
 10
637.623046875
 20
-419.8388671875
 30
0.0
 10
634.005859375
 20
-419.36865234375
 30
0.0
 10
606.59765625
 20
-415.80126953125
 30
0.0
 10
581.8359375
 20
-409.298828125
 30
0.0
 10
560.23828125
 20
-400.00927734375
 30
0.0
  0
SPLINE
  5
5F
330
3C
100
AcDbEntity
  8
Layer 1
370
     0
100
AcDbSpline
210
0.0
220
0.0
230
1.0
 70
    11
 71
     3
 72
    23
 73
    19
 74
     0
 42
0.0000000001
 43
0.0000000001
 40
0.0
 40
0.0
 40
0.0
 40
0.0
 40
1.0
 40
1.0
 40
1.0
 40
2.0
 40
2.0
 40
2.0
 40
3.0
 40
3.0
 40
3.0
 40
4.0
 40
4.0
 40
4.0
 40
5.0
 40
5.0
 40
5.0
 40
6.0
 40
6.0
 40
6.0
 40
6.0
 10
720.0126953125
 20
-494.2265625
 30
0.0
 10
718.9033203125
 20
-494.4794921875
 30
0.0
 10
717.80078125
 20
-494.7197265625
 30
0.0
 10
716.69140625
 20
-494.9521484375
 30
0.0
 10
716.69140625
 20
-494.9521484375
 30
0.0
 10
712.20703125
 20
-494.9521484375
 30
0.0
 10
712.20703125
 20
-494.9521484375
 30
0.0
 10
709.71875
 20
-477.48388671875
 30
0.0
 10
703.6376953125
 20
-460.52734375
 30
0.0
 10
694.4189453125
 20
-445.21337890625
 30
0.0
 10
702.8056640625
 20
-448.6884765625
 30
0.0
 10
709.890625
 20
-453.07861328125
 30
0.0
 10
715.896484375
 20
-458.49951171875
 30
0.0
 10
724.744140625
 20
-466.4736328125
 30
0.0
 10
730.029296875
 20
-475.54931640625
 30
0.0
 10
732.833984375
 20
-487.658203125
 30
0.0
 10
728.40234375
 20
-490.14013671875
 30
0.0
 10
723.94140625
 20
-492.3427734375
 30
0.0
 10
720.0126953125
 20
-494.2265625
 30
0.0
  0
SPLINE
  5
60
330
3C
100
AcDbEntity
  8
Layer 1
370
     0
100
AcDbSpline
210
0.0
220
0.0
230
1.0
 70
    11
 71
     3
 72
    14
 73
    10
 74
     0
 42
0.0000000001
 43
0.0000000001
 40
0.0
 40
0.0
 40
0.0
 40
0.0
 40
1.0
 40
1.0
 40
1.0
 40
2.0
 40
2.0
 40
2.0
 40
3.0
 40
3.0
 40
3.0
 40
3.0
 10
845.68359375
 20
-384.48681640625
 30
0.0
 10
845.68359375
 20
-384.48681640625
 30
0.0
 10
851.265625
 20
-384.48681640625
 30
0.0
 10
851.265625
 20
-384.48681640625
 30
0.0
 10
849.01953125
 20
-387.00634765625
 30
0.0
 10
846.748046875
 20
-389.56103515625
 30
0.0
 10
844.44921875
 20
-392.2041015625
 30
0.0
 10
844.970703125
 20
-389.62109375
 30
0.0
 10
845.345703125
 20
-387.05322265625
 30
0.0
 10
845.68359375
 20
-384.48681640625
 30
0.0
  0
SPLINE
  5
61
330
3C
100
AcDbEntity
  8
Layer 1
370
     0
100
AcDbSpline
210
0.0
220
0.0
230
1.0
 70
    11
 71
     3
 72
   236
 73
   232
 74
     0
 42
0.0000000001
 43
0.0000000001
 40
0.0
 40
0.0
 40
0.0
 40
0.0
 40
1.0
 40
1.0
 40
1.0
 40
2.0
 40
2.0
 40
2.0
 40
3.0
 40
3.0
 40
3.0
 40
4.0
 40
4.0
 40
4.0
 40
5.0
 40
5.0
 40
5.0
 40
6.0
 40
6.0
 40
6.0
 40
7.0
 40
7.0
 40
7.0
 40
8.0
 40
8.0
 40
8.0
 40
9.0
 40
9.0
 40
9.0
 40
10.0
 40
10.0
 40
10.0
 40
11.0
 40
11.0
 40
11.0
 40
12.0
 40
12.0
 40
12.0
 40
13.0
 40
13.0
 40
13.0
 40
14.0
 40
14.0
 40
14.0
 40
15.0
 40
15.0
 40
15.0
 40
16.0
 40
16.0
 40
16.0
 40
17.0
 40
17.0
 40
17.0
 40
18.0
 40
18.0
 40
18.0
 40
19.0
 40
19.0
 40
19.0
 40
20.0
 40
20.0
 40
20.0
 40
21.0
 40
21.0
 40
21.0
 40
22.0
 40
22.0
 40
22.0
 40
23.0
 40
23.0
 40
23.0
 40
24.0
 40
24.0
 40
24.0
 40
25.0
 40
25.0
 40
25.0
 40
26.0
 40
26.0
 40
26.0
 40
27.0
 40
27.0
 40
27.0
 40
28.0
 40
28.0
 40
28.0
 40
29.0
 40
29.0
 40
29.0
 40
30.0
 40
30.0
 40
30.0
 40
31.0
 40
31.0
 40
31.0
 40
32.0
 40
32.0
 40
32.0
 40
33.0
 40
33.0
 40
33.0
 40
34.0
 40
34.0
 40
34.0
 40
35.0
 40
35.0
 40
35.0
 40
36.0
 40
36.0
 40
36.0
 40
37.0
 40
37.0
 40
37.0
 40
38.0
 40
38.0
 40
38.0
 40
39.0
 40
39.0
 40
39.0
 40
40.0
 40
40.0
 40
40.0
 40
41.0
 40
41.0
 40
41.0
 40
42.0
 40
42.0
 40
42.0
 40
43.0
 40
43.0
 40
43.0
 40
44.0
 40
44.0
 40
44.0
 40
45.0
 40
45.0
 40
45.0
 40
46.0
 40
46.0
 40
46.0
 40
47.0
 40
47.0
 40
47.0
 40
48.0
 40
48.0
 40
48.0
 40
49.0
 40
49.0
 40
49.0
 40
50.0
 40
50.0
 40
50.0
 40
51.0
 40
51.0
 40
51.0
 40
52.0
 40
52.0
 40
52.0
 40
53.0
 40
53.0
 40
53.0
 40
54.0
 40
54.0
 40
54.0
 40
55.0
 40
55.0
 40
55.0
 40
56.0
 40
56.0
 40
56.0
 40
57.0
 40
57.0
 40
57.0
 40
58.0
 40
58.0
 40
58.0
 40
59.0
 40
59.0
 40
59.0
 40
60.0
 40
60.0
 40
60.0
 40
61.0
 40
61.0
 40
61.0
 40
62.0
 40
62.0
 40
62.0
 40
63.0
 40
63.0
 40
63.0
 40
64.0
 40
64.0
 40
64.0
 40
65.0
 40
65.0
 40
65.0
 40
66.0
 40
66.0
 40
66.0
 40
67.0
 40
67.0
 40
67.0
 40
68.0
 40
68.0
 40
68.0
 40
69.0
 40
69.0
 40
69.0
 40
70.0
 40
70.0
 40
70.0
 40
71.0
 40
71.0
 40
71.0
 40
72.0
 40
72.0
 40
72.0
 40
73.0
 40
73.0
 40
73.0
 40
74.0
 40
74.0
 40
74.0
 40
75.0
 40
75.0
 40
75.0
 40
76.0
 40
76.0
 40
76.0
 40
77.0
 40
77.0
 40
77.0
 40
77.0
 10
346.2890625
 20
-199.2294921875
 30
0.0
 10
395.48974609375
 20
-131.40478515625
 30
0.0
 10
461.8564453125
 20
-97.486328125
 30
0.0
 10
545.3701171875
 20
-97.486328125
 30
0.0
 10
613.5888671875
 20
-97.486328125
 30
0.0
 10
674.845703125
 20
-118.46533203125
 30
0.0
 10
729.15625
 20
-160.41552734375
 30
0.0
 10
760.5458984375
 20
-184.6689453125
 30
0.0
 10
785.7685546875
 20
-219.93115234375
 30
0.0
 10
804.91015625
 20
-266.0576171875
 30
0.0
 10
804.693359375
 20
-267.9453125
 30
0.0
 10
804.52734375
 20
-269.6376953125
 30
0.0
 10
804.392578125
 20
-271.0341796875
 30
0.0
 10
803.9052734375
 20
-276.09521484375
 30
0.0
 10
803.23828125
 20
-283.00244140625
 30
0.0
 10
803.4970703125
 20
-290.037109375
 30
0.0
 10
789.9560546875
 20
-281.7353515625
 30
0.0
 10
774.4951171875
 20
-277.23095703125
 30
0.0
 10
759.181640625
 20
-277.23095703125
 30
0.0
 10
745.9248046875
 20
-277.23095703125
 30
0.0
 10
732.9951171875
 20
-280.6591796875
 30
0.0
 10
721.71875
 20
-287.15234375
 30
0.0
 10
716.1142578125
 20
-287.5458984375
 30
0.0
 10
710.73828125
 20
-287.07373046875
 30
0.0
 10
705.8720703125
 20
-285.65478515625
 30
0.0
 10
702.767578125
 20
-284.7529296875
 30
0.0
 10
699.6708984375
 20
-282.2939453125
 30
0.0
 10
696.40234375
 20
-279.6923828125
 30
0.0
 10
691.513671875
 20
-275.806640625
 30
0.0
 10
686.4599609375
 20
-271.78955078125
 30
0.0
 10
679.9931640625
 20
-271.78955078125
 30
0.0
 10
678.63671875
 20
-271.78955078125
 30
0.0
 10
677.267578125
 20
-271.97705078125
 30
0.0
 10
675.92578125
 20
-272.34619140625
 30
0.0
 10
671.83984375
 20
-273.46875
 30
0.0
 10
668.908203125
 20
-277.27587890625
 30
0.0
 10
668.802734375
 20
-281.5966796875
 30
0.0
 10
668.337890625
 20
-299.01025390625
 30
0.0
 10
691.8359375
 20
-300.5380859375
 30
0.0
 10
703.1279296875
 20
-301.2724609375
 30
0.0
 10
703.1279296875
 20
-301.2724609375
 30
0.0
 10
703.9375
 20
-301.3271484375
 30
0.0
 10
703.9375
 20
-301.3271484375
 30
0.0
 10
690.05859375
 20
-316.36376953125
 30
0.0
 10
680.19921875
 20
-339.2548828125
 30
0.0
 10
686.6474609375
 20
-361.556640625
 30
0.0
 10
691.423828125
 20
-378.08740234375
 30
0.0
 10
707.38671875
 20
-390.552734375
 30
0.0
 10
723.76953125
 20
-390.552734375
 30
0.0
 10
730.64453125
 20
-390.552734375
 30
0.0
 10
737.2421875
 20
-388.322265625
 30
0.0
 10
742.84375
 20
-384.1044921875
 30
0.0
 10
748.3095703125
 20
-379.990234375
 30
0.0
 10
750.4609375
 20
-373.701171875
 30
0.0
 10
748.4521484375
 20
-367.69384765625
 30
0.0
 10
746.5439453125
 20
-361.98974609375
 30
0.0
 10
741.2421875
 20
-358.15673828125
 30
0.0
 10
735.263671875
 20
-358.15673828125
 30
0.0
 10
733.0810546875
 20
-358.15673828125
 30
0.0
 10
730.869140625
 20
-358.64208984375
 30
0.0
 10
728.6875
 20
-359.59619140625
 30
0.0
 10
723.859375
 20
-361.703125
 30
0.0
 10
720.169921875
 20
-361.236328125
 30
0.0
 10
717.3134765625
 20
-357.92578125
 30
0.0
 10
713.13671875
 20
-353.087890625
 30
0.0
 10
711.8623046875
 20
-343.86376953125
 30
0.0
 10
712.77734375
 20
-337.640625
 30
0.0
 10
714.375
 20
-326.8291015625
 30
0.0
 10
721.103515625
 20
-318.39013671875
 30
0.0
 10
726.46875
 20
-313.21484375
 30
0.0
 10
736.328125
 20
-303.7021484375
 30
0.0
 10
750.1162109375
 20
-298.24560546875
 30
0.0
 10
764.294921875
 20
-298.24560546875
 30
0.0
 10
769.037109375
 20
-298.24560546875
 30
0.0
 10
773.7197265625
 20
-298.8564453125
 30
0.0
 10
778.203125
 20
-300.0634765625
 30
0.0
 10
786.0009765625
 20
-302.1611328125
 30
0.0
 10
793.1572265625
 20
-305.52587890625
 30
0.0
 10
799.5908203125
 20
-310.11083984375
 30
0.0
 10
783.421875
 20
-309.580078125
 30
0.0
 10
769.8056640625
 20
-316.8193359375
 30
0.0
 10
763.7021484375
 20
-329.1494140625
 30
0.0
 10
761.8359375
 20
-332.9208984375
 30
0.0
 10
762.0791015625
 20
-337.2021484375
 30
0.0
 10
764.373046875
 20
-340.89453125
 30
0.0
 10
766.6787109375
 20
-344.6064453125
 30
0.0
 10
770.5927734375
 20
-346.91162109375
 30
0.0
 10
774.5888671875
 20
-346.91162109375
 30
0.0
 10
777.689453125
 20
-346.91162109375
 30
0.0
 10
780.609375
 20
-345.505859375
 30
0.0
 10
782.802734375
 20
-342.95849609375
 30
0.0
 10
789.3408203125
 20
-335.37841796875
 30
0.0
 10
795.42578125
 20
-328.9658203125
 30
0.0
 10
803.6875
 20
-327.263671875
 30
0.0
 10
809.0341796875
 20
-326.150390625
 30
0.0
 10
814.20703125
 20
-327.83349609375
 30
0.0
 10
819.8232421875
 20
-332.5009765625
 30
0.0
 10
829.6005859375
 20
-349.2470703125
 30
0.0
 10
833.4169921875
 20
-370.1865234375
 30
0.0
 10
830.2978515625
 20
-390.0654296875
 30
0.0
 10
825.375
 20
-421.400390625
 30
0.0
 10
806.94921875
 20
-449.0166015625
 30
0.0
 10
778.47265625
 20
-468.80322265625
 30
0.0
 10
778.6494140625
 20
-468.54638671875
 30
0.0
 10
778.8251953125
 20
-468.28955078125
 30
0.0
 10
779.001953125
 20
-468.029296875
 30
0.0
 10
790.892578125
 20
-450.42822265625
 30
0.0
 10
794.29296875
 20
-423.9609375
 30
0.0
 10
777.171875
 20
-409.576171875
 30
0.0
 10
774.994140625
 20
-407.7509765625
 30
0.0
 10
772.1748046875
 20
-406.744140625
 30
0.0
 10
769.236328125
 20
-406.744140625
 30
0.0
 10
765.1875
 20
-406.744140625
 30
0.0
 10
761.453125
 20
-408.552734375
 30
0.0
 10
759.2333984375
 20
-411.583984375
 30
0.0
 10
757.2021484375
 20
-414.36376953125
 30
0.0
 10
756.69921875
 20
-417.8388671875
 30
0.0
 10
757.82421875
 20
-421.3740234375
 30
0.0
 10
763.916015625
 20
-440.46923828125
 30
0.0
 10
768.3212890625
 20
-454.26513671875
 30
0.0
 10
754.55859375
 20
-470.71875
 30
0.0
 10
751.8671875
 20
-473.935546875
 30
0.0
 10
748.658203125
 20
-476.962890625
 30
0.0
 10
744.830078125
 20
-479.888671875
 30
0.0
 10
741.103515625
 20
-465.22705078125
 30
0.0
 10
730.171875
 20
-452.203125
 30
0.0
 10
720.31640625
 20
-444.35693359375
 30
0.0
 10
709.763671875
 20
-435.95361328125
 30
0.0
 10
697.15234375
 20
-430.2119140625
 30
0.0
 10
680.716796875
 20
-426.337890625
 30
0.0
 10
656.2177734375
 20
-398.09375
 30
0.0
 10
621.3642578125
 20
-381.9228515625
 30
0.0
 10
584.8798828125
 20
-381.9228515625
 30
0.0
 10
570.0458984375
 20
-381.9228515625
 30
0.0
 10
554.94140625
 20
-384.5205078125
 30
0.0
 10
539.9833984375
 20
-389.6416015625
 30
0.0
 10
539.9833984375
 20
-389.6416015625
 30
0.0
 10
539.69140625
 20
-389.74462890625
 30
0.0
 10
539.69140625
 20
-389.74462890625
 30
0.0
 10
535.072265625
 20
-387.09228515625
 30
0.0
 10
530.9033203125
 20
-384.455078125
 30
0.0
 10
526.9892578125
 20
-381.70703125
 30
0.0
 10
509.8388671875
 20
-369.6806640625
 30
0.0
 10
498.81298828125
 20
-353.8642578125
 30
0.0
 10
496.74365234375
 20
-338.3115234375
 30
0.0
 10
494.583984375
 20
-322.150390625
 30
0.0
 10
503.56640625
 20
-307.31591796875
 30
0.0
 10
518.09765625
 20
-303.03662109375
 30
0.0
 10
524.42578125
 20
-301.17138671875
 30
0.0
 10
528.04296875
 20
-295.5029296875
 30
0.0
 10
527.0947265625
 20
-288.93505859375
 30
0.0
 10
526.2626953125
 20
-283.16357421875
 30
0.0
 10
521.669921875
 20
-277.32275390625
 30
0.0
 10
514.505859375
 20
-277.32275390625
 30
0.0
 10
513.2236328125
 20
-277.32275390625
 30
0.0
 10
511.912109375
 20
-277.517578125
 30
0.0
 10
510.603515625
 20
-277.90380859375
 30
0.0
 10
490.7490234375
 20
-283.755859375
 30
0.0
 10
476.0986328125
 20
-300.29052734375
 30
0.0
 10
471.8056640625
 20
-321.01806640625
 30
0.0
 10
470.80859375
 20
-320.234375
 30
0.0
 10
469.82275390625
 20
-319.48681640625
 30
0.0
 10
468.8818359375
 20
-318.7744140625
 30
0.0
 10
468.8818359375
 20
-318.7744140625
 30
0.0
 10
467.88818359375
 20
-318.01708984375
 30
0.0
 10
467.88818359375
 20
-318.01708984375
 30
0.0
 10
460.49560546875
 20
-312.380859375
 30
0.0
 10
450.62451171875
 20
-305.86328125
 30
0.0
 10
439.4677734375
 20
-305.47705078125
 30
0.0
 10
434.89794921875
 20
-305.47705078125
 30
0.0
 10
431.1826171875
 20
-308.6767578125
 30
0.0
 10
430.22314453125
 20
-313.44140625
 30
0.0
 10
429.1845703125
 20
-318.5830078125
 30
0.0
 10
431.6328125
 20
-323.6611328125
 30
0.0
 10
436.048828125
 20
-325.5166015625
 30
0.0
 10
439.85400390625
 20
-327.1103515625
 30
0.0
 10
443.734375
 20
-328.01171875
 30
0.0
 10
447.49072265625
 20
-328.88525390625
 30
0.0
 10
451.5693359375
 20
-329.83203125
 30
0.0
 10
455.416015625
 20
-330.72607421875
 30
0.0
 10
459.02978515625
 20
-332.427734375
 30
0.0
 10
461.90869140625
 20
-333.78515625
 30
0.0
 10
464.51806640625
 20
-335.8525390625
 30
0.0
 10
467.28466796875
 20
-338.0439453125
 30
0.0
 10
468.49951171875
 20
-339.00537109375
 30
0.0
 10
469.71044921875
 20
-339.96484375
 30
0.0
 10
470.951171875
 20
-340.8701171875
 30
0.0
 10
471.19140625
 20
-342.93408203125
 30
0.0
 10
471.5361328125
 20
-344.98486328125
 30
0.0
 10
471.978515625
 20
-346.990234375
 30
0.0
 10
472.45068359375
 20
-349.15185546875
 30
0.0
 10
473.0283203125
 20
-351.29052734375
 30
0.0
 10
473.703125
 20
-353.4013671875
 30
0.0
 10
471.791015625
 20
-352.6474609375
 30
0.0
 10
469.84912109375
 20
-351.96533203125
 30
0.0
 10
467.921875
 20
-351.375
 30
0.0
 10
462.4150390625
 20
-349.69140625
 30
0.0
 10
457.1103515625
 20
-353.89208984375
 30
0.0
 10
456.7353515625
 20
-360.0048828125
 30
0.0
 10
456.42431640625
 20
-365.1015625
 30
0.0
 10
459.599609375
 20
-369.0791015625
 30
0.0
 10
464.4580078125
 20
-369.6787109375
 30
0.0
 10
469.58642578125
 20
-370.30859375
 30
0.0
 10
474.19384765625
 20
-371.00390625
 30
0.0
 10
478.61767578125
 20
-373.13330078125
 30
0.0
 10
480.2861328125
 20
-373.9375
 30
0.0
 10
481.92431640625
 20
-374.90673828125
 30
0.0
 10
483.65625
 20
-375.93212890625
 30
0.0
 10
484.86328125
 20
-376.64599609375
 30
0.0
 10
486.0703125
 20
-377.3583984375
 30
0.0
 10
487.29638671875
 20
-378.02392578125
 30
0.0
 10
494.3408203125
 20
-386.58642578125
 30
0.0
 10
503.5517578125
 20
-394.275390625
 30
0.0
 10
514.7421875
 20
-400.9482421875
 30
0.0
 10
507.11328125
 20
-405.42626953125
 30
0.0
 10
500.634765625
 20
-410.505859375
 30
0.0
 10
495.4091796875
 20
-416.11083984375
 30
0.0
 10
467.4345703125
 20
-416.69921875
 30
0.0
 10
438.3359375
 20
-428.5361328125
 30
0.0
 10
413.060546875
 20
-440.60400390625
 30
0.0
 10
401.01953125
 20
-417.10791015625
 30
0.0
 10
384.08544921875
 20
-395.6865234375
 30
0.0
 10
367.271484375
 20
-382.8017578125
 30
0.0
 10
347.8447265625
 20
-367.9052734375
 30
0.0
 10
323.5595703125
 20
-359.701171875
 30
0.0
 10
298.89208984375
 20
-359.701171875
 30
0.0
 10
293.5068359375
 20
-359.701171875
 30
0.0
 10
288.1328125
 20
-360.1435546875
 30
0.0
 10
282.81494140625
 20
-360.9267578125
 30
0.0
 10
294.3349609375
 20
-295.58935546875
 30
0.0
 10
315.490234375
 20
-241.6875
 30
0.0
 10
346.2890625
 20
-199.2294921875
 30
0.0
  0
HATCH
  5
62
330
3C
100
AcDbEntity
  8
Layer 1
 62
     7
100
AcDbHatch
 10
0.0
 20
0.0
 30
0.0
210
0.0
220
0.0
230
1.0
  2
SOLID
 70
     1
 71
     0
 91
       10
 92
        1
 93
        1
 72
     4
 94
        3
 73
     0
 74
     1
 95
      149
 96
      145
 40
0.0
 40
0.0
 40
0.0
 40
0.0
 40
1.0
 40
1.0
 40
1.0
 40
2.0
 40
2.0
 40
2.0
 40
3.0
 40
3.0
 40
3.0
 40
4.0
 40
4.0
 40
4.0
 40
5.0
 40
5.0
 40
5.0
 40
6.0
 40
6.0
 40
6.0
 40
7.0
 40
7.0
 40
7.0
 40
8.0
 40
8.0
 40
8.0
 40
9.0
 40
9.0
 40
9.0
 40
10.0
 40
10.0
 40
10.0
 40
11.0
 40
11.0
 40
11.0
 40
12.0
 40
12.0
 40
12.0
 40
13.0
 40
13.0
 40
13.0
 40
14.0
 40
14.0
 40
14.0
 40
15.0
 40
15.0
 40
15.0
 40
16.0
 40
16.0
 40
16.0
 40
17.0
 40
17.0
 40
17.0
 40
18.0
 40
18.0
 40
18.0
 40
19.0
 40
19.0
 40
19.0
 40
20.0
 40
20.0
 40
20.0
 40
21.0
 40
21.0
 40
21.0
 40
22.0
 40
22.0
 40
22.0
 40
23.0
 40
23.0
 40
23.0
 40
24.0
 40
24.0
 40
24.0
 40
25.0
 40
25.0
 40
25.0
 40
26.0
 40
26.0
 40
26.0
 40
27.0
 40
27.0
 40
27.0
 40
28.0
 40
28.0
 40
28.0
 40
29.0
 40
29.0
 40
29.0
 40
30.0
 40
30.0
 40
30.0
 40
31.0
 40
31.0
 40
31.0
 40
32.0
 40
32.0
 40
32.0
 40
33.0
 40
33.0
 40
33.0
 40
34.0
 40
34.0
 40
34.0
 40
35.0
 40
35.0
 40
35.0
 40
36.0
 40
36.0
 40
36.0
 40
37.0
 40
37.0
 40
37.0
 40
38.0
 40
38.0
 40
38.0
 40
39.0
 40
39.0
 40
39.0
 40
40.0
 40
40.0
 40
40.0
 40
41.0
 40
41.0
 40
41.0
 40
42.0
 40
42.0
 40
42.0
 40
43.0
 40
43.0
 40
43.0
 40
44.0
 40
44.0
 40
44.0
 40
45.0
 40
45.0
 40
45.0
 40
46.0
 40
46.0
 40
46.0
 40
47.0
 40
47.0
 40
47.0
 40
48.0
 40
48.0
 40
48.0
 40
48.0
 10
86.93310546875
 20
-507.8876953125
 10
90.8994140625
 20
-509.39453125
 10
95.05322265625
 20
-510.4853515625
 10
99.3193359375
 20
-511.1484375
 10
99.3193359375
 20
-511.1484375
 10
99.3193359375
 20
-512.1083984375
 10
99.3193359375
 20
-512.1083984375
 10
99.3193359375
 20
-512.1083984375
 10
903.38671875
 20
-512.1083984375
 10
903.38671875
 20
-512.1083984375
 10
903.38671875
 20
-512.1083984375
 10
903.38671875
 20
-494.9521484375
 10
903.38671875
 20
-494.9521484375
 10
903.38671875
 20
-494.9521484375
 10
760.7333984375
 20
-494.9521484375
 10
760.7333984375
 20
-494.9521484375
 10
770.7724609375
 20
-489.98095703125
 10
780.35546875
 20
-484.0107421875
 10
789.3828125
 20
-477.09765625
 10
797.986328125
 20
-473.1142578125
 10
805.2216796875
 20
-470.0927734375
 10
812.970703125
 20
-470.0927734375
 10
816.6591796875
 20
-470.0927734375
 10
820.2431640625
 20
-470.77880859375
 10
823.935546875
 20
-472.1904296875
 10
828.3857421875
 20
-473.890625
 10
834.1630859375
 20
-476.2373046875
 10
839.3779296875
 20
-479.3134765625
 10
839.3779296875
 20
-479.3134765625
 10
841.296875
 20
-480.4716796875
 10
841.296875
 20
-480.4716796875
 10
845.12890625
 20
-482.80712890625
 10
848.7421875
 20
-485.013671875
 10
854.755859375
 20
-485.1767578125
 10
857.5634765625
 20
-485.1767578125
 10
860.19921875
 20
-483.88330078125
 10
861.9833984375
 20
-481.62646484375
 10
863.857421875
 20
-479.24755859375
 10
864.5703125
 20
-476.08935546875
 10
863.873046875
 20
-473.17626953125
 10
859.4716796875
 20
-454.74853515625
 10
834.541015625
 20
-453.31640625
 10
827.005859375
 20
-453.31640625
 10
824.5322265625
 20
-453.31640625
 10
822.125
 20
-453.4443359375
 10
819.853515625
 20
-453.693359375
 10
817.998046875
 20
-453.8974609375
 10
815.7705078125
 20
-454.21435546875
 10
813.28515625
 20
-454.7021484375
 10
814.3388671875
 20
-453.47021484375
 10
815.376953125
 20
-452.21826171875
 10
816.3896484375
 20
-450.947265625
 10
817.2109375
 20
-450.6474609375
 10
817.9296875
 20
-450.1171875
 10
818.4736328125
 20
-449.39892578125
 10
821.2626953125
 20
-445.70263671875
 10
824.126953125
 20
-441.70263671875
 10
827.095703125
 20
-437.56005859375
 10
845.66796875
 20
-411.62890625
 10
866.796875
 20
-382.130859375
 10
898.51953125
 20
-384.455078125
 10
898.8837890625
 20
-384.4833984375
 10
899.240234375
 20
-384.49609375
 10
899.5849609375
 20
-384.49609375
 10
899.5849609375
 20
-384.49609375
 10
899.5849609375
 20
-384.49609375
 10
899.5888671875
 20
-384.49609375
 10
905.927734375
 20
-384.49609375
 10
910.5693359375
 20
-379.95458984375
 10
910.869140625
 20
-373.4521484375
 10
911.158203125
 20
-367.2607421875
 10
907.1162109375
 20
-360.2783203125
 10
899.060546875
 20
-359.5322265625
 10
883.771484375
 20
-358.11328125
 10
871.8544921875
 20
-364.75830078125
 10
862.103515625
 20
-373.41455078125
 10
862.103515625
 20
-373.41455078125
 10
855.306640625
 20
-82.19482421875
 10
855.306640625
 20
-82.19482421875
 10
855.306640625
 20
-82.19482421875
 10
829.427734375
 20
-82.19482421875
 10
829.427734375
 20
-82.19482421875
 10
825.900390625
 20
-117.876953125
 10
815.69921875
 20
-152.38330078125
 10
798.84765625
 20
-185.70361328125
 10
774.9267578125
 20
-155.9130859375
 10
738.7578125
 20
-128.7578125
 10
690.33984375
 20
-104.24951171875
 10
641.912109375
 20
-79.75048828125
 10
587.9052734375
 20
-67.49365234375
 10
528.3125
 20
-67.49365234375
 10
456.16943359375
 20
-67.49365234375
 10
389.90380859375
 20
-84.35400390625
 10
329.53173828125
 20
-118.06982421875
 10
269.14453125
 20
-151.794921875
 10
222.095703125
 20
-203.44921875
 10
188.3818359375
 20
-273.0400390625
 10
156.3681640625
 20
-339.1044921875
 10
139.58984375
 20
-409.3193359375
 10
137.966796875
 20
-483.6826171875
 10
129.2939453125
 20
-487.78759765625
 10
119.57666015625
 20
-490.1123046875
 10
110.47607421875
 20
-490.1123046875
 10
99.3271484375
 20
-490.1123046875
 10
79.578125
 20
-486.68359375
 10
72.6201171875
 20
-463.7255859375
 10
68.451171875
 20
-449.9912109375
 10
73.4521484375
 20
-434.619140625
 10
84.50390625
 20
-427.169921875
 10
91.26318359375
 20
-422.61328125
 10
98.794921875
 20
-422.189453125
 10
104.8828125
 20
-426.04345703125
 10
108.08447265625
 20
-428.10888671875
 10
110.52490234375
 20
-430.8310546875
 10
112.39208984375
 20
-434.4599609375
 10
112.57568359375
 20
-434.798828125
 10
112.748046875
 20
-435.13623046875
 10
112.90185546875
 20
-435.4736328125
 10
107.4248046875
 20
-435.458984375
 10
102.044921875
 20
-437.962890625
 10
98.80224609375
 20
-442.203125
 10
95.525390625
 20
-446.49560546875
 10
94.63330078125
 20
-452.22021484375
 10
96.2978515625
 20
-458.3232421875
 10
98.38232421875
 20
-465.9765625
 10
104.837890625
 20
-470.92138671875
 10
112.744140625
 20
-470.92138671875
 10
115.55224609375
 20
-470.92138671875
 10
118.43896484375
 20
-470.2783203125
 10
121.08203125
 20
-469.05810546875
 10
132.9697265625
 20
-463.5791015625
 10
136.384765625
 20
-449.453125
 10
135.69873046875
 20
-439.02392578125
 10
134.333984375
 20
-418.0322265625
 10
116.69921875
 20
-400.9541015625
 10
96.3876953125
 20
-400.9541015625
 10
94.048828125
 20
-400.9541015625
 10
91.70556640625
 20
-401.1865234375
 10
89.4189453125
 20
-401.6435546875
 10
67.94873046875
 20
-405.9287109375
 10
50.673828125
 20
-428.2421875
 10
50.0966796875
 20
-452.439453125
 10
49.51171875
 20
-476.62890625
 10
64.6572265625
 20
-499.427734375
 10
86.93310546875
 20
-507.8876953125
 97
        0
 92
        1
 93
        1
 72
     4
 94
        3
 73
     0
 74
     1
 95
       53
 96
       49
 40
0.0
 40
0.0
 40
0.0
 40
0.0
 40
1.0
 40
1.0
 40
1.0
 40
2.0
 40
2.0
 40
2.0
 40
3.0
 40
3.0
 40
3.0
 40
4.0
 40
4.0
 40
4.0
 40
5.0
 40
5.0
 40
5.0
 40
6.0
 40
6.0
 40
6.0
 40
7.0
 40
7.0
 40
7.0
 40
8.0
 40
8.0
 40
8.0
 40
9.0
 40
9.0
 40
9.0
 40
10.0
 40
10.0
 40
10.0
 40
11.0
 40
11.0
 40
11.0
 40
12.0
 40
12.0
 40
12.0
 40
13.0
 40
13.0
 40
13.0
 40
14.0
 40
14.0
 40
14.0
 40
15.0
 40
15.0
 40
15.0
 40
16.0
 40
16.0
 40
16.0
 40
16.0
 10
272.55419921875
 20
-484.4921875
 10
272.6962890625
 20
-461.2587890625
 10
273.6806640625
 20
-439.02392578125
 10
275.513671875
 20
-417.7978515625
 10
277.62060546875
 20
-419.2578125
 10
279.75390625
 20
-421.818359375
 10
280.18115234375
 20
-424.287109375
 10
280.43603515625
 20
-425.7548828125
 10
280.03857421875
 20
-426.9658203125
 10
278.92919921875
 20
-428.1015625
 10
274.5654296875
 20
-432.56103515625
 10
273.3359375
 20
-438.154296875
 10
275.5625
 20
-443.44970703125
 10
277.89453125
 20
-448.998046875
 10
283.57421875
 20
-452.8740234375
 10
289.36962890625
 20
-452.8740234375
 10
293.8984375
 20
-452.8740234375
 10
297.81982421875
 20
-450.56298828125
 10
300.41015625
 20
-446.3662109375
 10
306.734375
 20
-436.11669921875
 10
307.6982421875
 20
-423.4716796875
 10
302.9892578125
 20
-412.5400390625
 10
298.455078125
 20
-402.0146484375
 10
289.46533203125
 20
-394.5732421875
 10
278.2578125
 20
-391.90234375
 10
278.77734375
 20
-387.7314453125
 10
279.27392578125
 20
-383.53271484375
 10
279.8642578125
 20
-379.44482421875
 10
285.986328125
 20
-378.1552734375
 10
292.28271484375
 20
-377.4521484375
 10
298.7529296875
 20
-377.4296875
 10
327.92333984375
 20
-377.4296875
 10
355.140625
 20
-390.35205078125
 10
375.376953125
 20
-413.8203125
 10
383.10693359375
 20
-422.7802734375
 10
389.802734375
 20
-434.34716796875
 10
395.79345703125
 20
-449.1064453125
 10
393.337890625
 20
-450.341796875
 10
390.912109375
 20
-451.5712890625
 10
388.5205078125
 20
-452.7841796875
 10
378.9384765625
 20
-457.63720703125
 10
369.89599609375
 20
-462.22021484375
 10
361.65966796875
 20
-465.935546875
 10
338.052734375
 20
-476.591796875
 10
312.9501953125
 20
-486.453125
 10
289.287109375
 20
-486.455078125
 10
283.3583984375
 20
-486.455078125
 10
277.7724609375
 20
-485.78759765625
 10
272.55419921875
 20
-484.4921875
 97
        0
 92
        1
 93
        1
 72
     4
 94
        3
 73
     0
 74
     1
 95
       20
 96
       16
 40
0.0
 40
0.0
 40
0.0
 40
0.0
 40
1.0
 40
1.0
 40
1.0
 40
2.0
 40
2.0
 40
2.0
 40
3.0
 40
3.0
 40
3.0
 40
4.0
 40
4.0
 40
4.0
 40
5.0
 40
5.0
 40
5.0
 40
5.0
 10
346.54052734375
 20
-494.9521484375
 10
362.8408203125
 20
-488.20947265625
 10
378.52587890625
 20
-479.8193359375
 10
393.84375
 20
-471.6279296875
 10
396.6669921875
 20
-470.119140625
 10
399.48974609375
 20
-468.6103515625
 10
402.3125
 20
-467.11083984375
 10
405.14306640625
 20
-475.81005859375
 10
407.669921875
 20
-484.65185546875
 10
410.12158203125
 20
-493.2421875
 10
410.12158203125
 20
-493.2421875
 10
410.61279296875
 20
-494.9521484375
 10
410.61279296875
 20
-494.9521484375
 10
410.61279296875
 20
-494.9521484375
 10
346.54052734375
 20
-494.9521484375
 10
346.54052734375
 20
-494.9521484375
 97
        0
 92
        1
 93
        1
 72
     4
 94
        3
 73
     0
 74
     1
 95
       20
 96
       16
 40
0.0
 40
0.0
 40
0.0
 40
0.0
 40
1.0
 40
1.0
 40
1.0
 40
2.0
 40
2.0
 40
2.0
 40
3.0
 40
3.0
 40
3.0
 40
4.0
 40
4.0
 40
4.0
 40
5.0
 40
5.0
 40
5.0
 40
5.0
 10
429.73583984375
 20
-494.9521484375
 10
428.888671875
 20
-483.27587890625
 10
425.87451171875
 20
-470.7490234375
 10
420.75341796875
 20
-457.61669921875
 10
438.41064453125
 20
-448.908203125
 10
459.11962890625
 20
-440.0625
 10
482.0927734375
 20
-436.62109375
 10
480.953125
 20
-439.37451171875
 10
480.01220703125
 20
-442.1845703125
 10
479.28125
 20
-445.02587890625
 10
474.6962890625
 20
-462.8818359375
 10
478.6923828125
 20
-481.83056640625
 10
489.2421875
 20
-494.9521484375
 10
489.2421875
 20
-494.9521484375
 10
429.73583984375
 20
-494.9521484375
 10
429.73583984375
 20
-494.9521484375
 97
        0
 92
        1
 93
        1
 72
     4
 94
        3
 73
     0
 74
     1
 95
       23
 96
       19
 40
0.0
 40
0.0
 40
0.0
 40
0.0
 40
1.0
 40
1.0
 40
1.0
 40
2.0
 40
2.0
 40
2.0
 40
3.0
 40
3.0
 40
3.0
 40
4.0
 40
4.0
 40
4.0
 40
5.0
 40
5.0
 40
5.0
 40
6.0
 40
6.0
 40
6.0
 40
6.0
 10
548.021484375
 20
-475.1630859375
 10
547.2041015625
 20
-481.6904296875
 10
543.859375
 20
-486.74169921875
 10
538.09375
 20
-490.1796875
 10
534.142578125
 20
-492.5322265625
 10
529.91796875
 20
-493.72412109375
 10
525.53515625
 20
-493.72412109375
 10
512.2939453125
 20
-493.72412109375
 10
499.56640625
 20
-482.72119140625
 10
496.5634765625
 20
-468.673828125
 10
493.5947265625
 20
-454.80126953125
 10
498.3369140625
 20
-443.134765625
 10
503.333984375
 20
-435.3310546875
 10
518.416015625
 20
-435.9853515625
 10
530.044921875
 20
-440.3212890625
 10
537.9248046875
 20
-448.23486328125
 10
545.08203125
 20
-455.42529296875
 10
549.1416015625
 20
-466.24658203125
 10
548.021484375
 20
-475.1630859375
 97
        0
 92
        1
 93
        1
 72
     4
 94
        3
 73
     0
 74
     1
 95
       35
 96
       31
 40
0.0
 40
0.0
 40
0.0
 40
0.0
 40
1.0
 40
1.0
 40
1.0
 40
2.0
 40
2.0
 40
2.0
 40
3.0
 40
3.0
 40
3.0
 40
4.0
 40
4.0
 40
4.0
 40
5.0
 40
5.0
 40
5.0
 40
6.0
 40
6.0
 40
6.0
 40
7.0
 40
7.0
 40
7.0
 40
8.0
 40
8.0
 40
8.0
 40
9.0
 40
9.0
 40
9.0
 40
10.0
 40
10.0
 40
10.0
 40
10.0
 10
559.6123046875
 20
-494.9521484375
 10
560.9736328125
 20
-493.0322265625
 10
562.150390625
 20
-490.9833984375
 10
563.13671875
 20
-488.81689453125
 10
573.041015625
 20
-467.005859375
 10
561.037109375
 20
-441.6591796875
 10
543.7021484375
 20
-429.7568359375
 10
536.2197265625
 20
-424.6171875
 10
527.953125
 20
-420.896484375
 10
519.0380859375
 20
-418.65234375
 10
523.1435546875
 20
-415.5390625
 10
527.7353515625
 20
-412.66357421875
 10
532.740234375
 20
-410.0771484375
 10
535.8818359375
 20
-411.43017578125
 10
539.1357421875
 20
-412.7216796875
 10
542.427734375
 20
-413.92333984375
 10
572.4189453125
 20
-424.88134765625
 10
603.3017578125
 20
-428.935546875
 10
633.166015625
 20
-432.85888671875
 10
643.0439453125
 20
-434.15625
 10
653.259765625
 20
-435.498046875
 10
663.3671875
 20
-437.07275390625
 10
665.353515625
 20
-437.3837890625
 10
667.3330078125
 20
-437.7177734375
 10
669.30859375
 20
-438.0849609375
 10
686.33984375
 20
-457.6787109375
 10
695.64453125
 20
-478.125
 10
695.28515625
 20
-494.9521484375
 10
695.28515625
 20
-494.9521484375
 10
559.6123046875
 20
-494.9521484375
 10
559.6123046875
 20
-494.9521484375
 97
        0
 92
        1
 93
        1
 72
     4
 94
        3
 73
     0
 74
     1
 95
       20
 96
       16
 40
0.0
 40
0.0
 40
0.0
 40
0.0
 40
1.0
 40
1.0
 40
1.0
 40
2.0
 40
2.0
 40
2.0
 40
3.0
 40
3.0
 40
3.0
 40
4.0
 40
4.0
 40
4.0
 40
5.0
 40
5.0
 40
5.0
 40
5.0
 10
560.23828125
 20
-400.00927734375
 10
579.654296875
 20
-395.392578125
 10
600.2470703125
 20
-395.345703125
 10
616.4453125
 20
-399.99609375
 10
627.2724609375
 20
-403.10595703125
 10
640.3486328125
 20
-410.9599609375
 10
652.791015625
 20
-421.6572265625
 10
650.15625
 20
-421.3291015625
 10
647.5390625
 20
-421.01806640625
 10
644.9599609375
 20
-420.71044921875
 10
641.2783203125
 20
-420.27392578125
 10
637.623046875
 20
-419.8388671875
 10
634.005859375
 20
-419.36865234375
 10
606.59765625
 20
-415.80126953125
 10
581.8359375
 20
-409.298828125
 10
560.23828125
 20
-400.00927734375
 97
        0
 92
        1
 93
        1
 72
     4
 94
        3
 73
     0
 74
     1
 95
       23
 96
       19
 40
0.0
 40
0.0
 40
0.0
 40
0.0
 40
1.0
 40
1.0
 40
1.0
 40
2.0
 40
2.0
 40
2.0
 40
3.0
 40
3.0
 40
3.0
 40
4.0
 40
4.0
 40
4.0
 40
5.0
 40
5.0
 40
5.0
 40
6.0
 40
6.0
 40
6.0
 40
6.0
 10
720.0126953125
 20
-494.2265625
 10
718.9033203125
 20
-494.4794921875
 10
717.80078125
 20
-494.7197265625
 10
716.69140625
 20
-494.9521484375
 10
716.69140625
 20
-494.9521484375
 10
712.20703125
 20
-494.9521484375
 10
712.20703125
 20
-494.9521484375
 10
709.71875
 20
-477.48388671875
 10
703.6376953125
 20
-460.52734375
 10
694.4189453125
 20
-445.21337890625
 10
702.8056640625
 20
-448.6884765625
 10
709.890625
 20
-453.07861328125
 10
715.896484375
 20
-458.49951171875
 10
724.744140625
 20
-466.4736328125
 10
730.029296875
 20
-475.54931640625
 10
732.833984375
 20
-487.658203125
 10
728.40234375
 20
-490.14013671875
 10
723.94140625
 20
-492.3427734375
 10
720.0126953125
 20
-494.2265625
 97
        0
 92
        1
 93
        1
 72
     4
 94
        3
 73
     0
 74
     1
 95
       14
 96
       10
 40
0.0
 40
0.0
 40
0.0
 40
0.0
 40
1.0
 40
1.0
 40
1.0
 40
2.0
 40
2.0
 40
2.0
 40
3.0
 40
3.0
 40
3.0
 40
3.0
 10
845.68359375
 20
-384.48681640625
 10
845.68359375
 20
-384.48681640625
 10
851.265625
 20
-384.48681640625
 10
851.265625
 20
-384.48681640625
 10
849.01953125
 20
-387.00634765625
 10
846.748046875
 20
-389.56103515625
 10
844.44921875
 20
-392.2041015625
 10
844.970703125
 20
-389.62109375
 10
845.345703125
 20
-387.05322265625
 10
845.68359375
 20
-384.48681640625
 97
        0
 92
        1
 93
        1
 72
     4
 94
        3
 73
     0
 74
     1
 95
      236
 96
      232
 40
0.0
 40
0.0
 40
0.0
 40
0.0
 40
1.0
 40
1.0
 40
1.0
 40
2.0
 40
2.0
 40
2.0
 40
3.0
 40
3.0
 40
3.0
 40
4.0
 40
4.0
 40
4.0
 40
5.0
 40
5.0
 40
5.0
 40
6.0
 40
6.0
 40
6.0
 40
7.0
 40
7.0
 40
7.0
 40
8.0
 40
8.0
 40
8.0
 40
9.0
 40
9.0
 40
9.0
 40
10.0
 40
10.0
 40
10.0
 40
11.0
 40
11.0
 40
11.0
 40
12.0
 40
12.0
 40
12.0
 40
13.0
 40
13.0
 40
13.0
 40
14.0
 40
14.0
 40
14.0
 40
15.0
 40
15.0
 40
15.0
 40
16.0
 40
16.0
 40
16.0
 40
17.0
 40
17.0
 40
17.0
 40
18.0
 40
18.0
 40
18.0
 40
19.0
 40
19.0
 40
19.0
 40
20.0
 40
20.0
 40
20.0
 40
21.0
 40
21.0
 40
21.0
 40
22.0
 40
22.0
 40
22.0
 40
23.0
 40
23.0
 40
23.0
 40
24.0
 40
24.0
 40
24.0
 40
25.0
 40
25.0
 40
25.0
 40
26.0
 40
26.0
 40
26.0
 40
27.0
 40
27.0
 40
27.0
 40
28.0
 40
28.0
 40
28.0
 40
29.0
 40
29.0
 40
29.0
 40
30.0
 40
30.0
 40
30.0
 40
31.0
 40
31.0
 40
31.0
 40
32.0
 40
32.0
 40
32.0
 40
33.0
 40
33.0
 40
33.0
 40
34.0
 40
34.0
 40
34.0
 40
35.0
 40
35.0
 40
35.0
 40
36.0
 40
36.0
 40
36.0
 40
37.0
 40
37.0
 40
37.0
 40
38.0
 40
38.0
 40
38.0
 40
39.0
 40
39.0
 40
39.0
 40
40.0
 40
40.0
 40
40.0
 40
41.0
 40
41.0
 40
41.0
 40
42.0
 40
42.0
 40
42.0
 40
43.0
 40
43.0
 40
43.0
 40
44.0
 40
44.0
 40
44.0
 40
45.0
 40
45.0
 40
45.0
 40
46.0
 40
46.0
 40
46.0
 40
47.0
 40
47.0
 40
47.0
 40
48.0
 40
48.0
 40
48.0
 40
49.0
 40
49.0
 40
49.0
 40
50.0
 40
50.0
 40
50.0
 40
51.0
 40
51.0
 40
51.0
 40
52.0
 40
52.0
 40
52.0
 40
53.0
 40
53.0
 40
53.0
 40
54.0
 40
54.0
 40
54.0
 40
55.0
 40
55.0
 40
55.0
 40
56.0
 40
56.0
 40
56.0
 40
57.0
 40
57.0
 40
57.0
 40
58.0
 40
58.0
 40
58.0
 40
59.0
 40
59.0
 40
59.0
 40
60.0
 40
60.0
 40
60.0
 40
61.0
 40
61.0
 40
61.0
 40
62.0
 40
62.0
 40
62.0
 40
63.0
 40
63.0
 40
63.0
 40
64.0
 40
64.0
 40
64.0
 40
65.0
 40
65.0
 40
65.0
 40
66.0
 40
66.0
 40
66.0
 40
67.0
 40
67.0
 40
67.0
 40
68.0
 40
68.0
 40
68.0
 40
69.0
 40
69.0
 40
69.0
 40
70.0
 40
70.0
 40
70.0
 40
71.0
 40
71.0
 40
71.0
 40
72.0
 40
72.0
 40
72.0
 40
73.0
 40
73.0
 40
73.0
 40
74.0
 40
74.0
 40
74.0
 40
75.0
 40
75.0
 40
75.0
 40
76.0
 40
76.0
 40
76.0
 40
77.0
 40
77.0
 40
77.0
 40
77.0
 10
346.2890625
 20
-199.2294921875
 10
395.48974609375
 20
-131.40478515625
 10
461.8564453125
 20
-97.486328125
 10
545.3701171875
 20
-97.486328125
 10
613.5888671875
 20
-97.486328125
 10
674.845703125
 20
-118.46533203125
 10
729.15625
 20
-160.41552734375
 10
760.5458984375
 20
-184.6689453125
 10
785.7685546875
 20
-219.93115234375
 10
804.91015625
 20
-266.0576171875
 10
804.693359375
 20
-267.9453125
 10
804.52734375
 20
-269.6376953125
 10
804.392578125
 20
-271.0341796875
 10
803.9052734375
 20
-276.09521484375
 10
803.23828125
 20
-283.00244140625
 10
803.4970703125
 20
-290.037109375
 10
789.9560546875
 20
-281.7353515625
 10
774.4951171875
 20
-277.23095703125
 10
759.181640625
 20
-277.23095703125
 10
745.9248046875
 20
-277.23095703125
 10
732.9951171875
 20
-280.6591796875
 10
721.71875
 20
-287.15234375
 10
716.1142578125
 20
-287.5458984375
 10
710.73828125
 20
-287.07373046875
 10
705.8720703125
 20
-285.65478515625
 10
702.767578125
 20
-284.7529296875
 10
699.6708984375
 20
-282.2939453125
 10
696.40234375
 20
-279.6923828125
 10
691.513671875
 20
-275.806640625
 10
686.4599609375
 20
-271.78955078125
 10
679.9931640625
 20
-271.78955078125
 10
678.63671875
 20
-271.78955078125
 10
677.267578125
 20
-271.97705078125
 10
675.92578125
 20
-272.34619140625
 10
671.83984375
 20
-273.46875
 10
668.908203125
 20
-277.27587890625
 10
668.802734375
 20
-281.5966796875
 10
668.337890625
 20
-299.01025390625
 10
691.8359375
 20
-300.5380859375
 10
703.1279296875
 20
-301.2724609375
 10
703.1279296875
 20
-301.2724609375
 10
703.9375
 20
-301.3271484375
 10
703.9375
 20
-301.3271484375
 10
690.05859375
 20
-316.36376953125
 10
680.19921875
 20
-339.2548828125
 10
686.6474609375
 20
-361.556640625
 10
691.423828125
 20
-378.08740234375
 10
707.38671875
 20
-390.552734375
 10
723.76953125
 20
-390.552734375
 10
730.64453125
 20
-390.552734375
 10
737.2421875
 20
-388.322265625
 10
742.84375
 20
-384.1044921875
 10
748.3095703125
 20
-379.990234375
 10
750.4609375
 20
-373.701171875
 10
748.4521484375
 20
-367.69384765625
 10
746.5439453125
 20
-361.98974609375
 10
741.2421875
 20
-358.15673828125
 10
735.263671875
 20
-358.15673828125
 10
733.0810546875
 20
-358.15673828125
 10
730.869140625
 20
-358.64208984375
 10
728.6875
 20
-359.59619140625
 10
723.859375
 20
-361.703125
 10
720.169921875
 20
-361.236328125
 10
717.3134765625
 20
-357.92578125
 10
713.13671875
 20
-353.087890625
 10
711.8623046875
 20
-343.86376953125
 10
712.77734375
 20
-337.640625
 10
714.375
 20
-326.8291015625
 10
721.103515625
 20
-318.39013671875
 10
726.46875
 20
-313.21484375
 10
736.328125
 20
-303.7021484375
 10
750.1162109375
 20
-298.24560546875
 10
764.294921875
 20
-298.24560546875
 10
769.037109375
 20
-298.24560546875
 10
773.7197265625
 20
-298.8564453125
 10
778.203125
 20
-300.0634765625
 10
786.0009765625
 20
-302.1611328125
 10
793.1572265625
 20
-305.52587890625
 10
799.5908203125
 20
-310.11083984375
 10
783.421875
 20
-309.580078125
 10
769.8056640625
 20
-316.8193359375
 10
763.7021484375
 20
-329.1494140625
 10
761.8359375
 20
-332.9208984375
 10
762.0791015625
 20
-337.2021484375
 10
764.373046875
 20
-340.89453125
 10
766.6787109375
 20
-344.6064453125
 10
770.5927734375
 20
-346.91162109375
 10
774.5888671875
 20
-346.91162109375
 10
777.689453125
 20
-346.91162109375
 10
780.609375
 20
-345.505859375
 10
782.802734375
 20
-342.95849609375
 10
789.3408203125
 20
-335.37841796875
 10
795.42578125
 20
-328.9658203125
 10
803.6875
 20
-327.263671875
 10
809.0341796875
 20
-326.150390625
 10
814.20703125
 20
-327.83349609375
 10
819.8232421875
 20
-332.5009765625
 10
829.6005859375
 20
-349.2470703125
 10
833.4169921875
 20
-370.1865234375
 10
830.2978515625
 20
-390.0654296875
 10
825.375
 20
-421.400390625
 10
806.94921875
 20
-449.0166015625
 10
778.47265625
 20
-468.80322265625
 10
778.6494140625
 20
-468.54638671875
 10
778.8251953125
 20
-468.28955078125
 10
779.001953125
 20
-468.029296875
 10
790.892578125
 20
-450.42822265625
 10
794.29296875
 20
-423.9609375
 10
777.171875
 20
-409.576171875
 10
774.994140625
 20
-407.7509765625
 10
772.1748046875
 20
-406.744140625
 10
769.236328125
 20
-406.744140625
 10
765.1875
 20
-406.744140625
 10
761.453125
 20
-408.552734375
 10
759.2333984375
 20
-411.583984375
 10
757.2021484375
 20
-414.36376953125
 10
756.69921875
 20
-417.8388671875
 10
757.82421875
 20
-421.3740234375
 10
763.916015625
 20
-440.46923828125
 10
768.3212890625
 20
-454.26513671875
 10
754.55859375
 20
-470.71875
 10
751.8671875
 20
-473.935546875
 10
748.658203125
 20
-476.962890625
 10
744.830078125
 20
-479.888671875
 10
741.103515625
 20
-465.22705078125
 10
730.171875
 20
-452.203125
 10
720.31640625
 20
-444.35693359375
 10
709.763671875
 20
-435.95361328125
 10
697.15234375
 20
-430.2119140625
 10
680.716796875
 20
-426.337890625
 10
656.2177734375
 20
-398.09375
 10
621.3642578125
 20
-381.9228515625
 10
584.8798828125
 20
-381.9228515625
 10
570.0458984375
 20
-381.9228515625
 10
554.94140625
 20
-384.5205078125
 10
539.9833984375
 20
-389.6416015625
 10
539.9833984375
 20
-389.6416015625
 10
539.69140625
 20
-389.74462890625
 10
539.69140625
 20
-389.74462890625
 10
535.072265625
 20
-387.09228515625
 10
530.9033203125
 20
-384.455078125
 10
526.9892578125
 20
-381.70703125
 10
509.8388671875
 20
-369.6806640625
 10
498.81298828125
 20
-353.8642578125
 10
496.74365234375
 20
-338.3115234375
 10
494.583984375
 20
-322.150390625
 10
503.56640625
 20
-307.31591796875
 10
518.09765625
 20
-303.03662109375
 10
524.42578125
 20
-301.17138671875
 10
528.04296875
 20
-295.5029296875
 10
527.0947265625
 20
-288.93505859375
 10
526.2626953125
 20
-283.16357421875
 10
521.669921875
 20
-277.32275390625
 10
514.505859375
 20
-277.32275390625
 10
513.2236328125
 20
-277.32275390625
 10
511.912109375
 20
-277.517578125
 10
510.603515625
 20
-277.90380859375
 10
490.7490234375
 20
-283.755859375
 10
476.0986328125
 20
-300.29052734375
 10
471.8056640625
 20
-321.01806640625
 10
470.80859375
 20
-320.234375
 10
469.82275390625
 20
-319.48681640625
 10
468.8818359375
 20
-318.7744140625
 10
468.8818359375
 20
-318.7744140625
 10
467.88818359375
 20
-318.01708984375
 10
467.88818359375
 20
-318.01708984375
 10
460.49560546875
 20
-312.380859375
 10
450.62451171875
 20
-305.86328125
 10
439.4677734375
 20
-305.47705078125
 10
434.89794921875
 20
-305.47705078125
 10
431.1826171875
 20
-308.6767578125
 10
430.22314453125
 20
-313.44140625
 10
429.1845703125
 20
-318.5830078125
 10
431.6328125
 20
-323.6611328125
 10
436.048828125
 20
-325.5166015625
 10
439.85400390625
 20
-327.1103515625
 10
443.734375
 20
-328.01171875
 10
447.49072265625
 20
-328.88525390625
 10
451.5693359375
 20
-329.83203125
 10
455.416015625
 20
-330.72607421875
 10
459.02978515625
 20
-332.427734375
 10
461.90869140625
 20
-333.78515625
 10
464.51806640625
 20
-335.8525390625
 10
467.28466796875
 20
-338.0439453125
 10
468.49951171875
 20
-339.00537109375
 10
469.71044921875
 20
-339.96484375
 10
470.951171875
 20
-340.8701171875
 10
471.19140625
 20
-342.93408203125
 10
471.5361328125
 20
-344.98486328125
 10
471.978515625
 20
-346.990234375
 10
472.45068359375
 20
-349.15185546875
 10
473.0283203125
 20
-351.29052734375
 10
473.703125
 20
-353.4013671875
 10
471.791015625
 20
-352.6474609375
 10
469.84912109375
 20
-351.96533203125
 10
467.921875
 20
-351.375
 10
462.4150390625
 20
-349.69140625
 10
457.1103515625
 20
-353.89208984375
 10
456.7353515625
 20
-360.0048828125
 10
456.42431640625
 20
-365.1015625
 10
459.599609375
 20
-369.0791015625
 10
464.4580078125
 20
-369.6787109375
 10
469.58642578125
 20
-370.30859375
 10
474.19384765625
 20
-371.00390625
 10
478.61767578125
 20
-373.13330078125
 10
480.2861328125
 20
-373.9375
 10
481.92431640625
 20
-374.90673828125
 10
483.65625
 20
-375.93212890625
 10
484.86328125
 20
-376.64599609375
 10
486.0703125
 20
-377.3583984375
 10
487.29638671875
 20
-378.02392578125
 10
494.3408203125
 20
-386.58642578125
 10
503.5517578125
 20
-394.275390625
 10
514.7421875
 20
-400.9482421875
 10
507.11328125
 20
-405.42626953125
 10
500.634765625
 20
-410.505859375
 10
495.4091796875
 20
-416.11083984375
 10
467.4345703125
 20
-416.69921875
 10
438.3359375
 20
-428.5361328125
 10
413.060546875
 20
-440.60400390625
 10
401.01953125
 20
-417.10791015625
 10
384.08544921875
 20
-395.6865234375
 10
367.271484375
 20
-382.8017578125
 10
347.8447265625
 20
-367.9052734375
 10
323.5595703125
 20
-359.701171875
 10
298.89208984375
 20
-359.701171875
 10
293.5068359375
 20
-359.701171875
 10
288.1328125
 20
-360.1435546875
 10
282.81494140625
 20
-360.9267578125
 10
294.3349609375
 20
-295.58935546875
 10
315.490234375
 20
-241.6875
 10
346.2890625
 20
-199.2294921875
 97
        0
 75
     2
 76
     1
 98
        0
  0
ENDBLK
  5
3F
330
3C
100
AcDbEntity
  8
0
100
AcDbBlockEnd
  0
ENDSEC
  0
SECTION
  2
ENTITIES
  0
INSERT
  5
3D
330
1F
100
AcDbEntity
  8
Layer 1
100
AcDbBlockReference
  2
block 2
 10
0.0
 20
0.0
 30
0.0
  0
ENDSEC
  0
SECTION
  2
OBJECTS
  0
DICTIONARY
  5
C
330
0
100
AcDbDictionary
281
     1
  3
ACAD_GROUP
350
D
  3
ACAD_LAYOUT
350
1A
  3
ACAD_MLINESTYLE
350
17
  3
ACAD_PLOTSETTINGS
350
19
  3
ACAD_PLOTSTYLENAME
350
E
  3
ACAD_TABLESTYLE
350
63
  3
ACAD_VISUALSTYLE
350
2A
  0
DICTIONARY
  5
D
102
{ACAD_REACTORS
330
C
102
}
330
C
100
AcDbDictionary
281
     1
  0
DICTIONARY
  5
1A
102
{ACAD_REACTORS
330
C
102
}
330
C
100
AcDbDictionary
281
     1
  3
Layout1
350
1E
  3
Layout2
350
26
  3
Model
350
22
  0
DICTIONARY
  5
17
102
{ACAD_REACTORS
330
C
102
}
330
C
100
AcDbDictionary
281
     1
  3
Standard
350
18
  0
DICTIONARY
  5
19
102
{ACAD_REACTORS
330
C
102
}
330
C
100
AcDbDictionary
281
     1
  0
ACDBDICTIONARYWDFLT
  5
E
102
{ACAD_REACTORS
330
C
102
}
330
C
100
AcDbDictionary
281
     1
  3
Normal
350
F
100
AcDbDictionaryWithDefault
340
F
  0
DICTIONARY
  5
63
102
{ACAD_REACTORS
330
C
102
}
330
C
100
AcDbDictionary
281
     1
  0
DICTIONARY
  5
2A
102
{ACAD_REACTORS
330
C
102
}
330
C
100
AcDbDictionary
281
     1
  3
2dWireframe
350
2F
  3
3D Hidden
350
31
  3
3dWireframe
350
30
  3
Basic
350
32
  3
Brighten
350
36
  3
ColorChange
350
3A
  3
Conceptual
350
34
  3
Dim
350
35
  3
Facepattern
350
39
  3
Flat
350
2B
  3
FlatWithEdges
350
2C
  3
Gouraud
350
2D
  3
GouraudWithEdges
350
2E
  3
Linepattern
350
38
  3
Realistic
350
33
  3
Thicken
350
37
  0
LAYOUT
  5
1E
102
{ACAD_REACTORS
330
1A
102
}
330
1A
100
AcDbPlotSettings
  1

  2
none_device
  4

  6

 40
0.0
 41
0.0
 42
0.0
 43
0.0
 44
0.0
 45
0.0
 46
0.0
 47
0.0
 48
0.0
 49
0.0
140
0.0
141
0.0
142
1.0
143
1.0
 70
   688
 72
     0
 73
     0
 74
     5
  7

 75
    16
147
1.0
148
0.0
149
0.0
100
AcDbLayout
  1
Layout1
 70
     1
 71
     1
 10
0.0
 20
0.0
 11
12.0
 21
9.0
 12
0.0
 22
0.0
 32
0.0
 14
1.000000000000000E+20
 24
1.000000000000000E+20
 34
1.000000000000000E+20
 15
-1.000000000000000E+20
 25
-1.000000000000000E+20
 35
-1.000000000000000E+20
146
0.0
 13
0.0
 23
0.0
 33
0.0
 16
1.0
 26
0.0
 36
0.0
 17
0.0
 27
1.0
 37
0.0
 76
     0
330
1B
  0
LAYOUT
  5
26
102
{ACAD_REACTORS
330
1A
102
}
330
1A
100
AcDbPlotSettings
  1

  2
none_device
  4

  6

 40
0.0
 41
0.0
 42
0.0
 43
0.0
 44
0.0
 45
0.0
 46
0.0
 47
0.0
 48
0.0
 49
0.0
140
0.0
141
0.0
142
1.0
143
1.0
 70
   688
 72
     0
 73
     0
 74
     5
  7

 75
    16
147
1.0
148
0.0
149
0.0
100
AcDbLayout
  1
Layout2
 70
     1
 71
     2
 10
0.0
 20
0.0
 11
0.0
 21
0.0
 12
0.0
 22
0.0
 32
0.0
 14
0.0
 24
0.0
 34
0.0
 15
0.0
 25
0.0
 35
0.0
146
0.0
 13
0.0
 23
0.0
 33
0.0
 16
1.0
 26
0.0
 36
0.0
 17
0.0
 27
1.0
 37
0.0
 76
     0
330
23
  0
LAYOUT
  5
22
102
{ACAD_REACTORS
330
1A
102
}
330
1A
100
AcDbPlotSettings
  1

  2
none_device
  4

  6

 40
0.0
 41
0.0
 42
0.0
 43
0.0
 44
0.0
 45
0.0
 46
0.0
 47
0.0
 48
0.0
 49
0.0
140
0.0
141
0.0
142
1.0
143
1.0
 70
  1712
 72
     0
 73
     0
 74
     0
  7

 75
     0
147
1.0
148
0.0
149
0.0
100
AcDbLayout
  1
Model
 70
     1
 71
     0
 10
0.0
 20
0.0
 11
12.0
 21
9.0
 12
0.0
 22
0.0
 32
0.0
 14
1.000000000000000E+20
 24
1.000000000000000E+20
 34
1.000000000000000E+20
 15
-1.000000000000000E+20
 25
-1.000000000000000E+20
 35
-1.000000000000000E+20
146
0.0
 13
0.0
 23
0.0
 33
0.0
 16
1.0
 26
0.0
 36
0.0
 17
0.0
 27
1.0
 37
0.0
 76
     0
330
1F
331
29
  0
MLINESTYLE
  5
18
102
{ACAD_REACTORS
330
17
102
}
330
17
100
AcDbMlineStyle
  2
Standard
 70
     0
  3

 62
   256
 51
90.0
 52
90.0
 71
     2
 49
0.5
 62
   256
  6
BYLAYER
 49
-0.5
 62
   256
  6
BYLAYER
  0
ACDBPLACEHOLDER
  5
F
102
{ACAD_REACTORS
330
E
102
}
330
E
  0
VISUALSTYLE
  5
2F
102
{ACAD_REACTORS
330
2A
102
}
330
2A
100
AcDbVisualStyle
  2
2dWireframe
 70
     4
 71
     0
 72
     2
 73
     0
 90
        0
 40
-0.6
 41
-30.0
 62
     5
 63
     7
 74
     1
 91
        4
 64
     7
 65
   257
 75
     1
175
     1
 42
1.0
 92
        0
 66
   257
 43
1.0
 76
     1
 77
     6
 78
     2
 67
     7
 79
     5
170
     0
171
     0
290
     0
174
     0
 93
        1
 44
0.0
173
     0
291
     0
 45
0.0
1001
ACAD
1000
AcDbSavedByObjectVersion
1070
     0
  0
VISUALSTYLE
  5
31
102
{ACAD_REACTORS
330
2A
102
}
330
2A
100
AcDbVisualStyle
  2
3D Hidden
 70
     6
 71
     1
 72
     2
 73
     2
 90
        0
 40
-0.6
 41
-30.0
 62
     5
 63
     7
 74
     2
 91
        2
 64
     7
 65
   257
 75
     2
175
     1
 42
40.0
 92
        0
 66
   257
 43
1.0
 76
     1
 77
     6
 78
     2
 67
     7
 79
     3
170
     0
171
     0
290
     0
174
     0
 93
        1
 44
0.0
173
     0
291
     0
 45
0.0
1001
ACAD
1000
AcDbSavedByObjectVersion
1070
     0
  0
VISUALSTYLE
  5
30
102
{ACAD_REACTORS
330
2A
102
}
330
2A
100
AcDbVisualStyle
  2
3dWireframe
 70
     5
 71
     0
 72
     2
 73
     0
 90
        0
 40
-0.6
 41
-30.0
 62
     5
 63
     7
 74
     1
 91
        4
 64
     7
 65
   257
 75
     1
175
     1
 42
1.0
 92
        0
 66
   257
 43
1.0
 76
     1
 77
     6
 78
     2
 67
     7
 79
     5
170
     0
171
     0
290
     0
174
     0
 93
        1
 44
0.0
173
     0
291
     0
 45
0.0
1001
ACAD
1000
AcDbSavedByObjectVersion
1070
     0
  0
VISUALSTYLE
  5
32
102
{ACAD_REACTORS
330
2A
102
}
330
2A
100
AcDbVisualStyle
  2
Basic
 70
     7
 71
     1
 72
     0
 73
     1
 90
        0
 40
-0.6
 41
-30.0
 62
     5
 63
     7
 74
     0
 91
        4
 64
     7
 65
   257
 75
     1
175
     1
 42
1.0
 92
        8
 66
     7
 43
1.0
 76
     1
 77
     6
 78
     2
 67
     7
 79
     5
170
     0
171
     0
290
     0
174
     0
 93
        1
 44
0.0
173
     0
291
     1
 45
0.0
1001
ACAD
1000
AcDbSavedByObjectVersion
1070
     0
  0
VISUALSTYLE
  5
36
102
{ACAD_REACTORS
330
2A
102
}
330
2A
100
AcDbVisualStyle
  2
Brighten
 70
    12
 71
     2
 72
     2
 73
     0
 90
        0
 40
-0.6
 41
-30.0
 62
     5
 63
     7
 74
     1
 91
        4
 64
     7
 65
   257
 75
     1
175
     1
 42
1.0
 92
        8
 66
     7
 43
1.0
 76
     1
 77
     6
 78
     2
 67
     7
 79
     5
170
     0
171
     0
290
     0
174
     0
 93
        1
 44
50.0
173
     0
291
     1
 45
0.0
1001
ACAD
1000
AcDbSavedByObjectVersion
1070
     0
  0
VISUALSTYLE
  5
3A
102
{ACAD_REACTORS
330
2A
102
}
330
2A
100
AcDbVisualStyle
  2
ColorChange
 70
    16
 71
     2
 72
     2
 73
     3
 90
        0
 40
-0.6
 41
-30.0
 62
     5
 63
     8
 74
     1
 91
        4
 64
     7
 65
   257
 75
     1
175
     1
 42
1.0
 92
        8
 66
     8
 43
1.0
 76
     1
 77
     6
 78
     2
 67
     7
 79
     5
170
     0
171
     0
290
     0
174
     0
 93
        1
 44
0.0
173
     0
291
     1
 45
0.0
1001
ACAD
1000
AcDbSavedByObjectVersion
1070
     0
  0
VISUALSTYLE
  5
34
102
{ACAD_REACTORS
330
2A
102
}
330
2A
100
AcDbVisualStyle
  2
Conceptual
 70
     9
 71
     3
 72
     2
 73
     0
 90
        0
 40
-0.6
 41
-30.0
 62
     5
 63
     7
 74
     2
 91
        2
 64
     7
 65
   257
 75
     1
175
     1
 42
40.0
 92
        8
 66
     7
 43
1.0
 76
     1
 77
     6
 78
     2
 67
     7
 79
     3
170
     0
171
     0
290
     0
174
     0
 93
        1
 44
0.0
173
     0
291
     0
 45
0.0
1001
ACAD
1000
AcDbSavedByObjectVersion
1070
     0
  0
VISUALSTYLE
  5
35
102
{ACAD_REACTORS
330
2A
102
}
330
2A
100
AcDbVisualStyle
  2
Dim
 70
    11
 71
     2
 72
     2
 73
     0
 90
        0
 40
-0.6
 41
-30.0
 62
     5
 63
     7
 74
     1
 91
        4
 64
     7
 65
   257
 75
     1
175
     1
 42
1.0
 92
        8
 66
     7
 43
1.0
 76
     1
 77
     6
 78
     2
 67
     7
 79
     5
170
     0
171
     0
290
     0
174
     0
 93
        1
 44
-50.0
173
     0
291
     1
 45
0.0
1001
ACAD
1000
AcDbSavedByObjectVersion
1070
     0
  0
VISUALSTYLE
  5
39
102
{ACAD_REACTORS
330
2A
102
}
330
2A
100
AcDbVisualStyle
  2
Facepattern
 70
    15
 71
     2
 72
     2
 73
     0
 90
        0
 40
-0.6
 41
-30.0
 62
     5
 63
     7
 74
     1
 91
        4
 64
     7
 65
   257
 75
     1
175
     1
 42
1.0
 92
        8
 66
     7
 43
1.0
 76
     1
 77
     6
 78
     2
 67
     7
 79
     5
170
     0
171
     0
290
     0
174
     0
 93
        1
 44
0.0
173
     0
291
     1
 45
0.0
1001
ACAD
1000
AcDbSavedByObjectVersion
1070
     0
  0
VISUALSTYLE
  5
2B
102
{ACAD_REACTORS
330
2A
102
}
330
2A
100
AcDbVisualStyle
  2
Flat
 70
     0
 71
     2
 72
     1
 73
     1
 90
        2
 40
-0.6
 41
30.0
 62
     5
 63
     7
 74
     0
 91
        4
 64
     7
 65
   257
 75
     1
175
     1
 42
1.0
 92
        8
 66
     7
 43
1.0
 76
     1
 77
     6
 78
     2
 67
     7
 79
     5
170
     0
171
     0
290
     0
174
     0
 93
       13
 44
0.0
173
     0
291
     1
 45
0.0
1001
ACAD
1000
AcDbSavedByObjectVersion
1070
     0
  0
VISUALSTYLE
  5
2C
102
{ACAD_REACTORS
330
2A
102
}
330
2A
100
AcDbVisualStyle
  2
FlatWithEdges
 70
     1
 71
     2
 72
     1
 73
     1
 90
        2
 40
-0.6
 41
30.0
 62
     5
 63
     7
 74
     1
 91
        4
 64
     7
 65
   257
 75
     1
175
     1
 42
1.0
 92
        0
 66
   257
 43
1.0
 76
     1
 77
     6
 78
     2
 67
     7
 79
     5
170
     0
171
     0
290
     0
174
     0
 93
       13
 44
0.0
173
     0
291
     1
 45
0.0
1001
ACAD
1000
AcDbSavedByObjectVersion
1070
     0
  0
VISUALSTYLE
  5
2D
102
{ACAD_REACTORS
330
2A
102
}
330
2A
100
AcDbVisualStyle
  2
Gouraud
 70
     2
 71
     2
 72
     2
 73
     1
 90
        2
 40
-0.6
 41
30.0
 62
     5
 63
     7
 74
     0
 91
        4
 64
     7
 65
   257
 75
     1
175
     1
 42
1.0
 92
        0
 66
     7
 43
1.0
 76
     1
 77
     6
 78
     2
 67
     7
 79
     5
170
     0
171
     0
290
     0
174
     0
 93
       13
 44
0.0
173
     0
291
     1
 45
0.0
1001
ACAD
1000
AcDbSavedByObjectVersion
1070
     0
  0
VISUALSTYLE
  5
2E
102
{ACAD_REACTORS
330
2A
102
}
330
2A
100
AcDbVisualStyle
  2
GouraudWithEdges
 70
     3
 71
     2
 72
     2
 73
     1
 90
        2
 40
-0.6
 41
30.0
 62
     5
 63
     7
 74
     1
 91
        4
 64
     7
 65
   257
 75
     1
175
     1
 42
1.0
 92
        0
 66
   257
 43
1.0
 76
     1
 77
     6
 78
     2
 67
     7
 79
     5
170
     0
171
     0
290
     0
174
     0
 93
       13
 44
0.0
173
     0
291
     1
 45
0.0
1001
ACAD
1000
AcDbSavedByObjectVersion
1070
     0
  0
VISUALSTYLE
  5
38
102
{ACAD_REACTORS
330
2A
102
}
330
2A
100
AcDbVisualStyle
  2
Linepattern
 70
    14
 71
     2
 72
     2
 73
     0
 90
        0
 40
-0.6
 41
-30.0
 62
     5
 63
     7
 74
     1
 91
        4
 64
     7
 65
   257
 75
     7
175
     7
 42
1.0
 92
        8
 66
     7
 43
1.0
 76
     1
 77
     6
 78
     2
 67
     7
 79
     5
170
     0
171
     0
290
     0
174
     0
 93
        1
 44
0.0
173
     0
291
     1
 45
0.0
1001
ACAD
1000
AcDbSavedByObjectVersion
1070
     0
  0
VISUALSTYLE
  5
33
102
{ACAD_REACTORS
330
2A
102
}
330
2A
100
AcDbVisualStyle
  2
Realistic
 70
     8
 71
     2
 72
     2
 73
     0
 90
        0
 40
-0.6
 41
-30.0
 62
     5
 63
     7
 74
     1
 91
        0
 64
     7
 65
   257
 75
     1
175
     1
 42
1.0
 92
        8
 66
     8
 43
1.0
 76
     1
 77
     6
 78
     2
 67
     7
 79
     5
170
     0
171
     0
290
     0
174
     0
 93
       13
 44
0.0
173
     0
291
     0
 45
0.0
1001
ACAD
1000
AcDbSavedByObjectVersion
1070
     0
  0
VISUALSTYLE
  5
37
102
{ACAD_REACTORS
330
2A
102
}
330
2A
100
AcDbVisualStyle
  2
Thicken
 70
    13
 71
     2
 72
     2
 73
     0
 90
        0
 40
-0.6
 41
-30.0
 62
     5
 63
     7
 74
     1
 91
        4
 64
     7
 65
   257
 75
     1
175
     1
 42
1.0
 92
       12
 66
     7
 43
1.0
 76
     1
 77
     6
 78
     2
 67
     7
 79
     5
170
     0
171
     0
290
     0
174
     0
 93
        1
 44
0.0
173
     0
291
     1
 45
0.0
1001
ACAD
1000
AcDbSavedByObjectVersion
1070
     0
  0
ENDSEC
  0
EOF
