  0
SECTION
  2
HEADER
  9
$ACADVER
  1
AC1021
  9
$ACADMAINTVER
 70
    25
  9
$DWGCODEPAGE
  3
ANSI_1251
  9
$INSBASE
 10
0.0
 20
0.0
 30
0.0
  9
$EXTMIN
 10
1.000000000000000E+20
 20
1.000000000000000E+20
 30
1.000000000000000E+20
  9
$EXTMAX
 10
-1.000000000000000E+20
 20
-1.000000000000000E+20
 30
-1.000000000000000E+20
  9
$LIMMIN
 10
0.0
 20
0.0
  9
$LIMMAX
 10
12.0
 20
9.0
  9
$ORTHOMODE
 70
     0
  9
$REGENMODE
 70
     1
  9
$FILLMODE
 70
     1
  9
$QTEXTMODE
 70
     0
  9
$MIRRTEXT
 70
     1
  9
$LTSCALE
 40
1.0
  9
$ATTMODE
 70
     1
  9
$TEXTSIZE
 40
0.2
  9
$TRACEWID
 40
0.05
  9
$TEXTSTYLE
  7
Standard
  9
$CLAYER
  8
0
  9
$CELTYPE
  6
ByLayer
  9
$CECOLOR
 62
   256
  9
$CELTSCALE
 40
1.0
  9
$DISPSILH
 70
     0
  9
$DIMSCALE
 40
1.0
  9
$DIMASZ
 40
0.18
  9
$DIMEXO
 40
0.0625
  9
$DIMDLI
 40
0.38
  9
$DIMRND
 40
0.0
  9
$DIMDLE
 40
0.0
  9
$DIMEXE
 40
0.18
  9
$DIMTP
 40
0.0
  9
$DIMTM
 40
0.0
  9
$DIMTXT
 40
0.18
  9
$DIMCEN
 40
0.09
  9
$DIMTSZ
 40
0.0
  9
$DIMTOL
 70
     0
  9
$DIMLIM
 70
     0
  9
$DIMTIH
 70
     1
  9
$DIMTOH
 70
     1
  9
$DIMSE1
 70
     0
  9
$DIMSE2
 70
     0
  9
$DIMTAD
 70
     0
  9
$DIMZIN
 70
     0
  9
$DIMBLK
  1

  9
$DIMASO
 70
     1
  9
$DIMSHO
 70
     1
  9
$DIMPOST
  1

  9
$DIMAPOST
  1

  9
$DIMALT
 70
     0
  9
$DIMALTD
 70
     2
  9
$DIMALTF
 40
25.4
  9
$DIMLFAC
 40
1.0
  9
$DIMTOFL
 70
     0
  9
$DIMTVP
 40
0.0
  9
$DIMTIX
 70
     0
  9
$DIMSOXD
 70
     0
  9
$DIMSAH
 70
     0
  9
$DIMBLK1
  1

  9
$DIMBLK2
  1

  9
$DIMSTYLE
  2
Standard
  9
$DIMCLRD
 70
     0
  9
$DIMCLRE
 70
     0
  9
$DIMCLRT
 70
     0
  9
$DIMTFAC
 40
1.0
  9
$DIMGAP
 40
0.09
  9
$DIMJUST
 70
     0
  9
$DIMSD1
 70
     0
  9
$DIMSD2
 70
     0
  9
$DIMTOLJ
 70
     1
  9
$DIMTZIN
 70
     0
  9
$DIMALTZ
 70
     0
  9
$DIMALTTZ
 70
     0
  9
$DIMUPT
 70
     0
  9
$DIMDEC
 70
     4
  9
$DIMTDEC
 70
     4
  9
$DIMALTU
 70
     2
  9
$DIMALTTD
 70
     2
  9
$DIMTXSTY
  7
Standard
  9
$DIMAUNIT
 70
     0
  9
$DIMADEC
 70
     0
  9
$DIMALTRND
 40
0.0
  9
$DIMAZIN
 70
     0
  9
$DIMDSEP
 70
    46
  9
$DIMATFIT
 70
     3
  9
$DIMFRAC
 70
     0
  9
$DIMLDRBLK
  1

  9
$DIMLUNIT
 70
     2
  9
$DIMLWD
 70
    -2
  9
$DIMLWE
 70
    -2
  9
$DIMTMOVE
 70
     0
  9
$DIMFXL
 40
1.0
  9
$DIMFXLON
 70
     0
  9
$DIMJOGANG
 40
0.7853981633974483
  9
$DIMTFILL
 70
     0
  9
$DIMTFILLCLR
 70
     0
  9
$DIMARCSYM
 70
     0
  9
$DIMLTYPE
  6

  9
$DIMLTEX1
  6

  9
$DIMLTEX2
  6

  9
$LUNITS
 70
     2
  9
$LUPREC
 70
     4
  9
$SKETCHINC
 40
0.1
  9
$FILLETRAD
 40
0.5
  9
$AUNITS
 70
     0
  9
$AUPREC
 70
     0
  9
$MENU
  1
.
  9
$ELEVATION
 40
0.0
  9
$PELEVATION
 40
0.0
  9
$THICKNESS
 40
0.0
  9
$LIMCHECK
 70
     0
  9
$CHAMFERA
 40
0.5
  9
$CHAMFERB
 40
0.5
  9
$CHAMFERC
 40
1.0
  9
$CHAMFERD
 40
0.0
  9
$SKPOLY
 70
     0
  9
$TDCREATE
 40
2458562.747413935
  9
$TDUCREATE
 40
2458562.622413935
  9
$TDUPDATE
 40
2458562.747414016
  9
$TDUUPDATE
 40
2458562.622414016
  9
$TDINDWG
 40
0.0000000116
  9
$TDUSRTIMER
 40
0.0000000116
  9
$USRTIMER
 70
     1
  9
$ANGBASE
 50
0.0
  9
$ANGDIR
 70
     0
  9
$PDMODE
 70
     0
  9
$PDSIZE
 40
0.0
  9
$PLINEWID
 40
0.0
  9
$SPLFRAME
 70
     0
  9
$SPLINETYPE
 70
     6
  9
$SPLINESEGS
 70
     8
  9
$HANDSEED
  5
8E
  9
$SURFTAB1
 70
     6
  9
$SURFTAB2
 70
     6
  9
$SURFTYPE
 70
     6
  9
$SURFU
 70
     6
  9
$SURFV
 70
     6
  9
$UCSBASE
  2

  9
$UCSNAME
  2

  9
$UCSORG
 10
0.0
 20
0.0
 30
0.0
  9
$UCSXDIR
 10
1.0
 20
0.0
 30
0.0
  9
$UCSYDIR
 10
0.0
 20
1.0
 30
0.0
  9
$UCSORTHOREF
  2

  9
$UCSORTHOVIEW
 70
     0
  9
$UCSORGTOP
 10
0.0
 20
0.0
 30
0.0
  9
$UCSORGBOTTOM
 10
0.0
 20
0.0
 30
0.0
  9
$UCSORGLEFT
 10
0.0
 20
0.0
 30
0.0
  9
$UCSORGRIGHT
 10
0.0
 20
0.0
 30
0.0
  9
$UCSORGFRONT
 10
0.0
 20
0.0
 30
0.0
  9
$UCSORGBACK
 10
0.0
 20
0.0
 30
0.0
  9
$PUCSBASE
  2

  9
$PUCSNAME
  2

  9
$PUCSORG
 10
0.0
 20
0.0
 30
0.0
  9
$PUCSXDIR
 10
1.0
 20
0.0
 30
0.0
  9
$PUCSYDIR
 10
0.0
 20
1.0
 30
0.0
  9
$PUCSORTHOREF
  2

  9
$PUCSORTHOVIEW
 70
     0
  9
$PUCSORGTOP
 10
0.0
 20
0.0
 30
0.0
  9
$PUCSORGBOTTOM
 10
0.0
 20
0.0
 30
0.0
  9
$PUCSORGLEFT
 10
0.0
 20
0.0
 30
0.0
  9
$PUCSORGRIGHT
 10
0.0
 20
0.0
 30
0.0
  9
$PUCSORGFRONT
 10
0.0
 20
0.0
 30
0.0
  9
$PUCSORGBACK
 10
0.0
 20
0.0
 30
0.0
  9
$USERI1
 70
     0
  9
$USERI2
 70
     0
  9
$USERI3
 70
     0
  9
$USERI4
 70
     0
  9
$USERI5
 70
     0
  9
$USERR1
 40
0.0
  9
$USERR2
 40
0.0
  9
$USERR3
 40
0.0
  9
$USERR4
 40
0.0
  9
$USERR5
 40
0.0
  9
$WORLDVIEW
 70
     1
  9
$SHADEDGE
 70
     3
  9
$SHADEDIF
 70
    70
  9
$TILEMODE
 70
     1
  9
$MAXACTVP
 70
    64
  9
$PINSBASE
 10
0.0
 20
0.0
 30
0.0
  9
$PLIMCHECK
 70
     0
  9
$PEXTMIN
 10
1.000000000000000E+20
 20
1.000000000000000E+20
 30
1.000000000000000E+20
  9
$PEXTMAX
 10
-1.000000000000000E+20
 20
-1.000000000000000E+20
 30
-1.000000000000000E+20
  9
$PLIMMIN
 10
0.0
 20
0.0
  9
$PLIMMAX
 10
12.0
 20
9.0
  9
$UNITMODE
 70
     0
  9
$VISRETAIN
 70
     1
  9
$PLINEGEN
 70
     0
  9
$PSLTSCALE
 70
     1
  9
$TREEDEPTH
 70
  3020
  9
$CMLSTYLE
  2
Standard
  9
$CMLJUST
 70
     0
  9
$CMLSCALE
 40
1.0
  9
$PROXYGRAPHICS
 70
     1
  9
$MEASUREMENT
 70
     0
  9
$CELWEIGHT
370
    -1
  9
$ENDCAPS
280
     0
  9
$JOINSTYLE
280
     0
  9
$LWDISPLAY
290
     1
  9
$INSUNITS
 70
     1
  9
$HYPERLINKBASE
  1

  9
$STYLESHEET
  1

  9
$XEDIT
290
     1
  9
$CEPSNTYPE
380
     0
  9
$PSTYLEMODE
290
     1
  9
$FINGERPRINTGUID
  2
{6B966C7C-3B13-4FBB-9B8B-9CEBF28A55B6}
  9
$VERSIONGUID
  2
{FAEB1C32-E019-11D5-929B-00C0DF256EC4}
  9
$EXTNAMES
290
     1
  9
$PSVPSCALE
 40
0.0
  9
$OLESTARTUP
290
     0
  9
$SORTENTS
280
   127
  9
$INDEXCTL
280
     0
  9
$HIDETEXT
280
     1
  9
$XCLIPFRAME
290
     0
  9
$HALOGAP
280
     0
  9
$OBSCOLOR
 70
   257
  9
$OBSLTYPE
280
     0
  9
$INTERSECTIONDISPLAY
280
     0
  9
$INTERSECTIONCOLOR
 70
   257
  9
$DIMASSOC
280
     2
  9
$PROJECTNAME
  1

  9
$CAMERADISPLAY
290
     0
  9
$LENSLENGTH
 40
50.0
  9
$CAMERAHEIGHT
 40
0.0
  9
$STEPSPERSEC
 40
2.0
  9
$STEPSIZE
 40
6.0
  9
$3DDWFPREC
 40
2.0
  9
$PSOLWIDTH
 40
0.25
  9
$PSOLHEIGHT
 40
4.0
  9
$LOFTANG1
 40
1.570796326794897
  9
$LOFTANG2
 40
1.570796326794897
  9
$LOFTMAG1
 40
0.0
  9
$LOFTMAG2
 40
0.0
  9
$LOFTPARAM
 70
     7
  9
$LOFTNORMALS
280
     1
  9
$LATITUDE
 40
37.795
  9
$LONGITUDE
 40
-122.394
  9
$NORTHDIRECTION
 40
0.0
  9
$TIMEZONE
 70
 -8000
  9
$LIGHTGLYPHDISPLAY
280
     1
  9
$TILEMODELIGHTSYNCH
280
     1
  9
$CMATERIAL
347
3C
  9
$SOLIDHIST
280
     1
  9
$SHOWHIST
280
     1
  9
$DWFFRAME
280
     2
  9
$DGNFRAME
280
     2
  9
$REALWORLDSCALE
290
     1
  9
$INTERFERECOLOR
 62
   256
  9
$CSHADOW
280
     0
  9
$SHADOWPLANELOCATION
 40
0.0
  0
ENDSEC
  0
SECTION
  2
CLASSES
  0
CLASS
  1
ACDBDICTIONARYWDFLT
  2
AcDbDictionaryWithDefault
  3
ObjectDBX Classes
 90
        0
 91
        4
280
     0
281
     0
  0
CLASS
  1
VISUALSTYLE
  2
AcDbVisualStyle
  3
ObjectDBX Classes
 90
     4095
 91
        4
280
     0
281
     0
  0
CLASS
  1
MATERIAL
  2
AcDbMaterial
  3
ObjectDBX Classes
 90
     1153
 91
        4
280
     0
281
     0
  0
CLASS
  1
SUN
  2
AcDbSun
  3
SCENEOE
 90
     1024
 91
        4
280
     0
281
     0
  0
ENDSEC
  0
SECTION
  2
TABLES
  0
TABLE
  2
VPORT
  5
8
330
0
100
AcDbSymbolTable
 70
     1
  0
VPORT
  5
29
330
8
100
AcDbSymbolTableRecord
100
AcDbViewportTableRecord
  2
*Active
 70
     0
 10
0.0
 20
0.0
 11
1.0
 21
1.0
 12
0.0
 22
0.0
 13
0.0
 23
0.0
 14
0.5
 24
0.5
 15
0.5
 25
0.5
 16
0.0
 26
0.0
 36
1.0
 17
299.9999999249995
 27
299.9999999249995
 37
0.0
 40
599.999999849999
 41
1.0
 42
50.0
 43
0.0
 44
0.0
 50
0.0
 51
0.0
 71
     0
 72
   100
 73
     1
 74
     3
 75
     0
 76
     0
 77
     0
 78
     0
281
     0
 65
     1
110
0.0
120
0.0
130
0.0
111
1.0
121
0.0
131
0.0
112
0.0
122
1.0
132
0.0
 79
     0
146
0.0
 60
     3
 61
     5
292
     1
282
     1
141
0.0
142
0.0
 63
   250
361
3F
  0
ENDTAB
  0
TABLE
  2
LTYPE
  5
5
330
0
100
AcDbSymbolTable
 70
     1
  0
LTYPE
  5
14
330
5
100
AcDbSymbolTableRecord
100
AcDbLinetypeTableRecord
  2
ByBlock
 70
     0
  3

 72
    65
 73
     0
 40
0.0
  0
LTYPE
  5
15
330
5
100
AcDbSymbolTableRecord
100
AcDbLinetypeTableRecord
  2
ByLayer
 70
     0
  3

 72
    65
 73
     0
 40
0.0
  0
LTYPE
  5
16
330
5
100
AcDbSymbolTableRecord
100
AcDbLinetypeTableRecord
  2
Continuous
 70
     0
  3
Solid line
 72
    65
 73
     0
 40
0.0
  0
ENDTAB
  0
TABLE
  2
LAYER
  5
2
330
0
100
AcDbSymbolTable
 70
     2
  0
LAYER
  5
10
330
2
100
AcDbSymbolTableRecord
100
AcDbLayerTableRecord
  2
0
 70
     0
 62
     7
  6
Continuous
370
    -3
390
F
347
3E
  0
LAYER
  5
40
330
2
100
AcDbSymbolTableRecord
100
AcDbLayerTableRecord
  2
_U+0421_U+043B_U+043E_U+0439 1
 70
     0
 62
     7
  6
Continuous
370
    -3
390
F
347
3E
  0
ENDTAB
  0
TABLE
  2
STYLE
  5
3
330
0
100
AcDbSymbolTable
 70
     1
  0
STYLE
  5
11
330
3
100
AcDbSymbolTableRecord
100
AcDbTextStyleTableRecord
  2
Standard
 70
     0
 40
0.0
 41
1.0
 50
0.0
 71
     0
 42
0.2
  3
txt
  4

  0
ENDTAB
  0
TABLE
  2
VIEW
  5
6
330
0
100
AcDbSymbolTable
 70
     0
  0
ENDTAB
  0
TABLE
  2
UCS
  5
7
330
0
100
AcDbSymbolTable
 70
     0
  0
ENDTAB
  0
TABLE
  2
APPID
  5
9
330
0
100
AcDbSymbolTable
 70
     1
  0
APPID
  5
12
330
9
100
AcDbSymbolTableRecord
100
AcDbRegAppTableRecord
  2
ACAD
 70
     0
  0
ENDTAB
  0
TABLE
  2
DIMSTYLE
  5
A
330
0
100
AcDbSymbolTable
 70
     1
100
AcDbDimStyleTable
  0
DIMSTYLE
105
27
330
A
100
AcDbSymbolTableRecord
100
AcDbDimStyleTableRecord
  2
Standard
 70
     0
178
     0
340
11
  0
ENDTAB
  0
TABLE
  2
BLOCK_RECORD
  5
1
330
0
100
AcDbSymbolTable
 70
     1
  0
BLOCK_RECORD
  5
1F
330
1
100
AcDbSymbolTableRecord
100
AcDbBlockTableRecord
  2
*Model_Space
340
22
 70
     0
280
     1
281
     0
  0
BLOCK_RECORD
  5
1B
330
1
100
AcDbSymbolTableRecord
100
AcDbBlockTableRecord
  2
*Paper_Space
340
1E
 70
     0
280
     1
281
     0
  0
BLOCK_RECORD
  5
23
330
1
100
AcDbSymbolTableRecord
100
AcDbBlockTableRecord
  2
*Paper_Space0
340
26
 70
     0
280
     1
281
     0
  0
ENDTAB
  0
ENDSEC
  0
SECTION
  2
BLOCKS
  0
BLOCK
  5
20
330
1F
100
AcDbEntity
  8
0
100
AcDbBlockBegin
  2
*Model_Space
 70
     0
 10
0.0
 20
0.0
 30
0.0
  3
*Model_Space
  1

  0
ENDBLK
  5
21
330
1F
100
AcDbEntity
  8
0
100
AcDbBlockEnd
  0
BLOCK
  5
1C
330
1B
100
AcDbEntity
 67
     1
  8
0
100
AcDbBlockBegin
  2
*Paper_Space
 70
     0
 10
0.0
 20
0.0
 30
0.0
  3
*Paper_Space
  1

  0
ENDBLK
  5
1D
330
1B
100
AcDbEntity
 67
     1
  8
0
100
AcDbBlockEnd
  0
BLOCK
  5
24
330
23
100
AcDbEntity
  8
0
100
AcDbBlockBegin
  2
*Paper_Space0
 70
     0
 10
0.0
 20
0.0
 30
0.0
  3
*Paper_Space0
  1

  0
ENDBLK
  5
25
330
23
100
AcDbEntity
  8
0
100
AcDbBlockEnd
  0
ENDSEC
  0
SECTION
  2
ENTITIES
  0
SPLINE
  5
41
330
1F
100
AcDbEntity
  8
_U+0421_U+043B_U+043E_U+0439 1
 62
     7
370
    35
100
AcDbSpline
210
0.0
220
0.0
230
1.0
 70
    11
 71
     3
 72
   254
 73
   250
 74
     0
 42
0.0000000001
 43
0.0000000001
 12
1.0
 22
0.0
 32
0.0
 13
1.0
 23
0.0
 33
0.0
 40
0.0
 40
0.0
 40
0.0
 40
0.0
 40
1.0
 40
1.0
 40
1.0
 40
2.0
 40
2.0
 40
2.0
 40
3.0
 40
3.0
 40
3.0
 40
4.0
 40
4.0
 40
4.0
 40
5.0
 40
5.0
 40
5.0
 40
6.0
 40
6.0
 40
6.0
 40
7.0
 40
7.0
 40
7.0
 40
8.0
 40
8.0
 40
8.0
 40
9.0
 40
9.0
 40
9.0
 40
10.0
 40
10.0
 40
10.0
 40
11.0
 40
11.0
 40
11.0
 40
12.0
 40
12.0
 40
12.0
 40
13.0
 40
13.0
 40
13.0
 40
14.0
 40
14.0
 40
14.0
 40
15.0
 40
15.0
 40
15.0
 40
16.0
 40
16.0
 40
16.0
 40
17.0
 40
17.0
 40
17.0
 40
18.0
 40
18.0
 40
18.0
 40
19.0
 40
19.0
 40
19.0
 40
20.0
 40
20.0
 40
20.0
 40
21.0
 40
21.0
 40
21.0
 40
22.0
 40
22.0
 40
22.0
 40
23.0
 40
23.0
 40
23.0
 40
24.0
 40
24.0
 40
24.0
 40
25.0
 40
25.0
 40
25.0
 40
26.0
 40
26.0
 40
26.0
 40
27.0
 40
27.0
 40
27.0
 40
28.0
 40
28.0
 40
28.0
 40
29.0
 40
29.0
 40
29.0
 40
30.0
 40
30.0
 40
30.0
 40
31.0
 40
31.0
 40
31.0
 40
32.0
 40
32.0
 40
32.0
 40
33.0
 40
33.0
 40
33.0
 40
34.0
 40
34.0
 40
34.0
 40
35.0
 40
35.0
 40
35.0
 40
36.0
 40
36.0
 40
36.0
 40
37.0
 40
37.0
 40
37.0
 40
38.0
 40
38.0
 40
38.0
 40
39.0
 40
39.0
 40
39.0
 40
40.0
 40
40.0
 40
40.0
 40
41.0
 40
41.0
 40
41.0
 40
42.0
 40
42.0
 40
42.0
 40
43.0
 40
43.0
 40
43.0
 40
44.0
 40
44.0
 40
44.0
 40
45.0
 40
45.0
 40
45.0
 40
46.0
 40
46.0
 40
46.0
 40
47.0
 40
47.0
 40
47.0
 40
48.0
 40
48.0
 40
48.0
 40
49.0
 40
49.0
 40
49.0
 40
50.0
 40
50.0
 40
50.0
 40
51.0
 40
51.0
 40
51.0
 40
52.0
 40
52.0
 40
52.0
 40
53.0
 40
53.0
 40
53.0
 40
54.0
 40
54.0
 40
54.0
 40
55.0
 40
55.0
 40
55.0
 40
56.0
 40
56.0
 40
56.0
 40
57.0
 40
57.0
 40
57.0
 40
58.0
 40
58.0
 40
58.0
 40
59.0
 40
59.0
 40
59.0
 40
60.0
 40
60.0
 40
60.0
 40
61.0
 40
61.0
 40
61.0
 40
62.0
 40
62.0
 40
62.0
 40
63.0
 40
63.0
 40
63.0
 40
64.0
 40
64.0
 40
64.0
 40
65.0
 40
65.0
 40
65.0
 40
66.0
 40
66.0
 40
66.0
 40
67.0
 40
67.0
 40
67.0
 40
68.0
 40
68.0
 40
68.0
 40
69.0
 40
69.0
 40
69.0
 40
70.0
 40
70.0
 40
70.0
 40
71.0
 40
71.0
 40
71.0
 40
72.0
 40
72.0
 40
72.0
 40
73.0
 40
73.0
 40
73.0
 40
74.0
 40
74.0
 40
74.0
 40
75.0
 40
75.0
 40
75.0
 40
76.0
 40
76.0
 40
76.0
 40
77.0
 40
77.0
 40
77.0
 40
78.0
 40
78.0
 40
78.0
 40
79.0
 40
79.0
 40
79.0
 40
80.0
 40
80.0
 40
80.0
 40
81.0
 40
81.0
 40
81.0
 40
82.0
 40
82.0
 40
82.0
 40
83.0
 40
83.0
 40
83.0
 40
83.0
 10
349.9999999124994
 20
334.0418506505451
 30
0.0
 10
344.8118295107562
 20
334.0418506505451
 30
0.0
 10
339.6713880373969
 20
334.0418506505451
 30
0.0
 10
334.4193398217265
 20
334.0418506505451
 30
0.0
 10
334.6223133698011
 20
334.2480539757289
 30
0.0
 10
334.7335612479891
 20
334.3821973849763
 30
0.0
 10
334.8660538822699
 20
334.4922968979703
 30
0.0
 10
336.3660341443682
 20
335.7386319977993
 30
0.0
 10
338.1158556090293
 20
336.5949535685489
 30
0.0
 10
339.868404441027
 20
337.4353415722288
 30
0.0
 10
340.3263868350385
 20
337.6549664156193
 30
0.0
 10
340.47560253746
 20
337.8925344651694
 30
0.0
 10
340.4736646711944
 20
338.3744889826103
 30
0.0
 10
340.4551472824382
 20
342.9251731559235
 30
0.0
 10
340.4626116562005
 20
347.4759291020613
 30
0.0
 10
340.4626116562005
 20
352.0266132753745
 30
0.0
 10
340.4626116562005
 20
352.2424341590598
 30
0.0
 10
340.4626116562005
 20
352.4582550427445
 30
0.0
 10
340.4626116562005
 20
352.6908707673946
 30
0.0
 10
339.54607268558
 20
352.6015853735456
 30
0.0
 10
338.7010194482986
 20
352.5217022197239
 30
0.0
 10
337.8564686207898
 20
352.4362925584055
 30
0.0
 10
336.1586106811663
 20
352.2646837346972
 30
0.0
 10
334.4635518817035
 20
351.9816117143272
 30
0.0
 10
332.7627512562692
 20
351.9458688476578
 30
0.0
 10
330.8895523060562
 20
351.9064655669318
 30
0.0
 10
329.0116881222417
 20
352.1530769923861
 30
0.0
 10
327.1350440764465
 20
352.1657807823466
 30
0.0
 10
325.0249948049297
 20
352.179991801625
 30
0.0
 10
322.993716208453
 20
352.6476635269628
 30
0.0
 10
320.9727370123109
 20
353.0998323221787
 30
0.0
 10
318.2857418899463
 20
353.7009297285172
 30
0.0
 10
315.6698018639729
 20
354.5327767660654
 30
0.0
 10
313.111638961832
 20
355.5815212796683
 30
0.0
 10
309.1407356659403
 20
357.2095442609194
 30
0.0
 10
305.5413643967843
 20
359.3276320887952
 30
0.0
 10
302.4572502357004
 20
362.2561068796529
 30
0.0
 10
301.4715940349538
 20
363.1921680585747
 30
0.0
 10
300.4428023666008
 20
364.0858114981357
 30
0.0
 10
299.4033165473761
 20
365.0263225921849
 30
0.0
 10
298.7388796232947
 20
364.3724721597379
 30
0.0
 10
298.0755910644078
 20
363.7029752515195
 30
0.0
 10
297.3935697982901
 20
363.0518521864086
 30
0.0
 10
295.8048783249401
 20
361.5352206289942
 30
0.0
 10
294.0878929275507
 20
360.1738336912713
 30
0.0
 10
292.232421865023
 20
358.9673325091154
 30
0.0
 10
289.8080793944189
 20
357.3907706431293
 30
0.0
 10
287.1561452968896
 20
356.2542479649952
 30
0.0
 10
284.4999048298819
 20
355.123467112832
 30
0.0
 10
283.7687909517126
 20
354.8122601452037
 30
0.0
 10
283.0161452261517
 20
354.5323461291176
 30
0.0
 10
282.2492884813129
 20
354.3192526127688
 30
0.0
 10
280.623131593502
 20
353.8672273632025
 30
0.0
 10
278.9938525878194
 20
353.4121158821764
 30
0.0
 10
277.3421445744376
 20
353.0636588185614
 30
0.0
 10
275.6410568577052
 20
352.7047229225493
 30
0.0
 10
273.9215594114534
 20
352.3753574302885
 30
0.0
 10
272.1920855425767
 20
352.2094186597263
 30
0.0
 10
270.456475097194
 20
352.0428339337427
 30
0.0
 10
268.6966772099079
 20
352.0229528613181
 30
0.0
 10
266.9510185690758
 20
352.0678826495413
 30
0.0
 10
264.9453269845821
 20
352.1195590832806
 30
0.0
 10
262.9437623375049
 20
352.3160013043133
 30
0.0
 10
260.9399727328641
 20
352.4431109767457
 30
0.0
 10
260.2106890617228
 20
352.4893326758124
 30
0.0
 10
259.4800417069135
 20
352.5170369861223
 30
0.0
 10
258.751834628142
 20
352.5531387169149
 30
0.0
 10
258.733711989921
 20
352.4177751696487
 30
0.0
 10
258.7174913315529
 20
352.3533231731247
 30
0.0
 10
258.7174554451405
 20
352.2889429494249
 30
0.0
 10
258.7156611245247
 20
347.4951642190644
 30
0.0
 10
258.7085556148855
 20
342.7013854887039
 30
0.0
 10
258.7346809230535
 20
337.9078220768176
 30
0.0
 10
258.7359010610723
 20
337.678077265153
 30
0.0
 10
258.9771295246791
 20
337.356535010777
 30
0.0
 10
259.198476915861
 20
337.2366026208079
 30
0.0
 10
260.3202143921197
 20
336.6288303417782
 30
0.0
 10
261.489752569587
 20
336.1033097197824
 30
0.0
 10
262.6073272220167
 20
335.488934340886
 30
0.0
 10
263.2998632069437
 20
335.1082512790085
 30
0.0
 10
263.9296697431375
 20
334.6206267084221
 30
0.0
 10
264.587611226589
 20
334.1810181575173
 30
0.0
 10
264.5527655202276
 20
334.1255377640727
 30
0.0
 10
264.5179198138658
 20
334.0700573706276
 30
0.0
 10
264.4830741075044
 20
334.0145769771831
 30
0.0
 10
259.6717469215202
 20
334.0145769771831
 30
0.0
 10
254.8603838491236
 20
334.0145769771831
 30
0.0
 10
249.9999999374996
 20
334.0145769771831
 30
0.0
 10
249.9999999374996
 20
326.7746009511166
 30
0.0
 10
249.9999999374996
 20
319.6100581637438
 30
0.0
 10
249.9999999374996
 20
312.3875588204766
 30
0.0
 10
255.9655776893035
 20
312.3875588204766
 30
0.0
 10
261.8822063747047
 20
312.3875588204766
 30
0.0
 10
267.9653121268524
 20
312.3875588204766
 30
0.0
 10
264.259968282119
 20
308.7796106987765
 30
0.0
 10
259.9074488776297
 20
306.5817473763155
 30
0.0
 10
254.9008278358068
 20
305.1814236812269
 30
0.0
 10
256.1480600959442
 20
303.5994070805676
 30
0.0
 10
257.8833116772042
 20
301.5902704004917
 30
0.0
 10
260.1608787214244
 20
299.4595505554794
 30
0.0
 10
260.6192199795594
 20
299.030815587508
 30
0.0
 10
262.2880099252047
 20
297.4852236953526
 30
0.0
 10
264.7122088501597
 20
295.6629834506321
 30
0.0
 10
265.4606917518914
 20
295.1003562782991
 30
0.0
 10
268.1172551966098
 20
293.1311611751335
 30
0.0
 10
272.0173187145846
 20
290.9602844347367
 30
0.0
 10
276.5275230148026
 20
288.4498145745674
 30
0.0
 10
280.2240388021054
 20
287.0481630822229
 30
0.0
 10
282.5825297061046
 20
286.1645678381112
 30
0.0
 10
283.8019141102827
 20
285.7077338092937
 30
0.0
 10
284.9414512470517
 20
285.3119425678304
 30
0.0
 10
285.9698840512816
 20
284.9736772453143
 30
0.0
 10
285.9698840512816
 20
284.9736772453143
 30
0.0
 10
262.0289459146759
 20
284.9736772453143
 30
0.0
 10
262.0289459146759
 20
284.9736772453143
 30
0.0
 10
259.9879062140481
 20
284.9736772453143
 30
0.0
 10
258.3332914012685
 20
283.3190624325343
 30
0.0
 10
258.3332914012685
 20
281.2780227319066
 30
0.0
 10
258.3332914012685
 20
281.2780227319066
 30
0.0
 10
258.3332914012685
 20
272.4736862200419
 30
0.0
 10
258.3332914012685
 20
272.4736862200419
 30
0.0
 10
258.9109549803631
 20
261.4811757170431
 30
0.0
 10
259.4886185594577
 20
250.4886652140443
 30
0.0
 10
260.0662821385524
 20
239.4961547110448
 30
0.0
 10
259.761678270791
 20
239.0354449496973
 30
0.0
 10
259.5833228015669
 20
238.4839784515954
 30
0.0
 10
259.5833228015669
 20
237.8903454190186
 30
0.0
 10
259.5833228015669
 20
236.2795120292678
 30
0.0
 10
260.8891575730209
 20
234.9736772578141
 30
0.0
 10
262.4999550763591
 20
234.9736772578141
 30
0.0
 10
264.1107884661099
 20
234.9736772578141
 30
0.0
 10
265.4166232375639
 20
236.2795120292678
 30
0.0
 10
265.4166232375639
 20
237.8903454190186
 30
0.0
 10
265.4166232375639
 20
238.4839784515954
 30
0.0
 10
265.2382318819274
 20
239.0354449496973
 30
0.0
 10
264.9336280141661
 20
239.4961547110448
 30
0.0
 10
264.9337715598152
 20
239.4961547110448
 30
0.0
 10
264.9339151054647
 20
239.4961547110448
 30
0.0
 10
264.9340586511139
 20
239.4961547110448
 30
0.0
 10
265.5116145709717
 20
250.4886652140443
 30
0.0
 10
266.0890987180045
 20
261.4811757170431
 30
0.0
 10
266.6666546378621
 20
272.4736862200419
 30
0.0
 10
266.6666546378621
 20
272.4736862200419
 30
0.0
 10
283.3333093382248
 20
272.4736862200419
 30
0.0
 10
283.3333093382248
 20
272.4736862200419
 30
0.0
 10
283.9109729173194
 20
261.4811757170431
 30
0.0
 10
284.4886364964137
 20
250.4886652140443
 30
0.0
 10
285.0663000755083
 20
239.4961547110448
 30
0.0
 10
284.7616962077469
 20
239.0354449496973
 30
0.0
 10
284.5833048521105
 20
238.4839784515954
 30
0.0
 10
284.5833048521105
 20
237.8903454190186
 30
0.0
 10
284.5833048521105
 20
236.2795120292678
 30
0.0
 10
285.8891396235645
 20
234.9736772578141
 30
0.0
 10
287.5000088997277
 20
234.9736772578141
 30
0.0
 10
289.1108064030662
 20
234.9736772578141
 30
0.0
 10
290.4166411745198
 20
236.2795120292678
 30
0.0
 10
290.4166411745198
 20
237.8903454190186
 30
0.0
 10
290.4166411745198
 20
238.4839784515954
 30
0.0
 10
290.2382857052958
 20
239.0354449496973
 30
0.0
 10
289.9336818375347
 20
239.4961547110448
 30
0.0
 10
289.9338253831839
 20
239.4961547110448
 30
0.0
 10
289.9339689288331
 20
239.4961547110448
 30
0.0
 10
289.9341124744822
 20
239.4961547110448
 30
0.0
 10
290.5115966215153
 20
250.4886652140443
 30
0.0
 10
291.0891525413729
 20
261.4811757170431
 30
0.0
 10
291.666636688406
 20
272.4736862200419
 30
0.0
 10
291.666636688406
 20
272.4736862200419
 30
0.0
 10
308.3332913887687
 20
272.4736862200419
 30
0.0
 10
308.3332913887687
 20
272.4736862200419
 30
0.0
 10
308.9109908542757
 20
261.4811757170431
 30
0.0
 10
309.4886185469579
 20
250.4886652140443
 30
0.0
 10
310.0663180124649
 20
239.4961547110448
 30
0.0
 10
309.7617141447032
 20
239.0354449496973
 30
0.0
 10
309.5833227890671
 20
238.4839784515954
 30
0.0
 10
309.5833227890671
 20
237.8903454190186
 30
0.0
 10
309.5833227890671
 20
236.2795120292678
 30
0.0
 10
310.8891575605207
 20
234.9736772578141
 30
0.0
 10
312.4999909502716
 20
234.9736772578141
 30
0.0
 10
314.1107884536101
 20
234.9736772578141
 30
0.0
 10
315.4166232250637
 20
236.2795120292678
 30
0.0
 10
315.4166232250637
 20
237.8903454190186
 30
0.0
 10
315.4166232250637
 20
238.4839784515954
 30
0.0
 10
315.23826775584
 20
239.0354449496973
 30
0.0
 10
314.9336638880783
 20
239.4961547110448
 30
0.0
 10
314.9338074337278
 20
239.4961547110448
 30
0.0
 10
314.9339509793773
 20
239.4961547110448
 30
0.0
 10
314.9340945250261
 20
239.4961547110448
 30
0.0
 10
315.5116145584719
 20
250.4886652140443
 30
0.0
 10
316.0891345919171
 20
261.4811757170431
 30
0.0
 10
316.6666546253622
 20
272.4736862200419
 30
0.0
 10
316.6666546253622
 20
272.4736862200419
 30
0.0
 10
333.333345212137
 20
272.4736862200419
 30
0.0
 10
333.333345212137
 20
272.4736862200419
 30
0.0
 10
333.9109729048192
 20
261.4811757170431
 30
0.0
 10
334.4886723703262
 20
250.4886652140443
 30
0.0
 10
335.0663000630085
 20
239.4961547110448
 30
0.0
 10
334.7616961952475
 20
239.0354449496973
 30
0.0
 10
334.583340726023
 20
238.4839784515954
 30
0.0
 10
334.583340726023
 20
237.8903454190186
 30
0.0
 10
334.583340726023
 20
236.2795120292678
 30
0.0
 10
335.8891754974767
 20
234.9736772578141
 30
0.0
 10
337.50004477364
 20
234.9736772578141
 30
0.0
 10
339.1108422769784
 20
234.9736772578141
 30
0.0
 10
340.4166770484327
 20
236.2795120292678
 30
0.0
 10
340.4166770484327
 20
237.8903454190186
 30
0.0
 10
340.4166770484327
 20
238.4839784515954
 30
0.0
 10
340.2383215792083
 20
239.0354449496973
 30
0.0
 10
339.9337177114473
 20
239.4961547110448
 30
0.0
 10
339.9338612570961
 20
239.4961547110448
 30
0.0
 10
339.9340048027456
 20
239.4961547110448
 30
0.0
 10
339.9341483483951
 20
239.4961547110448
 30
0.0
 10
340.5116324954279
 20
250.4886652140443
 30
0.0
 10
341.0891884152854
 20
261.4811757170431
 30
0.0
 10
341.6666725623182
 20
272.4736862200419
 30
0.0
 10
341.6666725623182
 20
272.4736862200419
 30
0.0
 10
341.6666725623182
 20
281.2780227319066
 30
0.0
 10
341.6666725623182
 20
281.2780227319066
 30
0.0
 10
341.6666725623182
 20
283.3190624325343
 30
0.0
 10
340.0120218631264
 20
284.9736772453143
 30
0.0
 10
337.971018048911
 20
284.9736772453143
 30
0.0
 10
337.971018048911
 20
284.9736772453143
 30
0.0
 10
312.8971099889908
 20
284.9736772453143
 30
0.0
 10
312.8971099889908
 20
284.9736772453143
 30
0.0
 10
313.3227587255033
 20
285.1217086961287
 30
0.0
 10
313.7327609862444
 20
285.266833347546
 30
0.0
 10
314.1328944835986
 20
285.4088717675035
 30
0.0
 10
317.5087292904211
 20
286.6074779389487
 30
0.0
 10
320.4353379878385
 20
287.5975840548226
 30
0.0
 10
324.0550568527793
 20
289.4553159613261
 30
0.0
 10
327.0324089372148
 20
290.9833952842698
 30
0.0
 10
330.0095457031769
 20
292.5350519801074
 30
0.0
 10
332.6646378049902
 20
294.5827306670141
 30
0.0
 10
334.6112603548071
 20
296.0839310671305
 30
0.0
 10
336.6404216529571
 20
297.4934057973611
 30
0.0
 10
338.5012039045078
 20
299.0878390966826
 30
0.0
 10
340.2749257197735
 20
300.6076286583801
 30
0.0
 10
341.8846466307421
 20
302.3077474419799
 30
0.0
 10
343.5497761623316
 20
303.9445625942492
 30
0.0
 10
343.8184936177737
 20
304.2086865889152
 30
0.0
 10
344.0000070912819
 20
304.555995287336
 30
0.0
 10
344.2443935591728
 20
304.8963061353542
 30
0.0
 10
340.1903773323502
 20
305.7794348561063
 30
0.0
 10
332.9745528617743
 20
310.2703322664964
 30
0.0
 10
332.1450743274395
 20
312.4288999674681
 30
0.0
 10
338.1106879656558
 20
312.4288999674681
 30
0.0
 10
344.0531907543383
 20
312.4288999674681
 30
0.0
 10
349.9999999124994
 20
312.4288999674681
 30
0.0
 10
349.9999999124994
 20
319.6545573150191
 30
0.0
 10
349.9999999124994
 20
326.819207761629
 30
0.0
 10
349.9999999124994
 20
334.0418506505451
 30
0.0
  0
SPLINE
  5
42
330
1F
100
AcDbEntity
  8
_U+0421_U+043B_U+043E_U+0439 1
 62
     7
370
    35
100
AcDbSpline
210
0.0
220
0.0
230
1.0
 70
    11
 71
     3
 72
    17
 73
    13
 74
     0
 42
0.0000000001
 43
0.0000000001
 12
1.0
 22
0.0
 32
0.0
 13
1.0
 23
0.0
 33
0.0
 40
0.0
 40
0.0
 40
0.0
 40
0.0
 40
1.0
 40
1.0
 40
1.0
 40
2.0
 40
2.0
 40
2.0
 40
3.0
 40
3.0
 40
3.0
 40
4.0
 40
4.0
 40
4.0
 40
4.0
 10
274.5407076831884
 20
276.4143731567619
 30
0.0
 10
273.3901175314252
 20
276.4143731567619
 30
0.0
 10
272.457357902437
 20
277.3470968993375
 30
0.0
 10
272.457357902437
 20
278.4976870511011
 30
0.0
 10
272.457357902437
 20
279.6483130892764
 30
0.0
 10
273.3901175314252
 20
280.5810009454402
 30
0.0
 10
274.5407076831884
 20
280.5810009454402
 30
0.0
 10
275.6912978349514
 20
280.5810009454402
 30
0.0
 10
276.6240574639399
 20
279.6483130892764
 30
0.0
 10
276.6240574639399
 20
278.4976870511011
 30
0.0
 10
276.6240574639399
 20
277.3470968993375
 30
0.0
 10
275.6912978349514
 20
276.4143731567619
 30
0.0
 10
274.5407076831884
 20
276.4143731567619
 30
0.0
  0
SPLINE
  5
43
330
1F
100
AcDbEntity
  8
_U+0421_U+043B_U+043E_U+0439 1
 62
     7
370
    35
100
AcDbSpline
210
0.0
220
0.0
230
1.0
 70
    11
 71
     3
 72
    17
 73
    13
 74
     0
 42
0.0000000001
 43
0.0000000001
 12
1.0
 22
0.0
 32
0.0
 13
1.0
 23
0.0
 33
0.0
 40
0.0
 40
0.0
 40
0.0
 40
0.0
 40
1.0
 40
1.0
 40
1.0
 40
2.0
 40
2.0
 40
2.0
 40
3.0
 40
3.0
 40
3.0
 40
4.0
 40
4.0
 40
4.0
 40
4.0
 10
324.5407076706883
 20
280.5810009454402
 30
0.0
 10
325.6912978224512
 20
280.5810009454402
 30
0.0
 10
326.6240215650274
 20
279.6483130892764
 30
0.0
 10
326.6240215650274
 20
278.4976870511011
 30
0.0
 10
326.6240215650274
 20
277.3470968993375
 30
0.0
 10
325.6912978224512
 20
276.4143731567619
 30
0.0
 10
324.5407076706883
 20
276.4143731567619
 30
0.0
 10
323.3901175189254
 20
276.4143731567619
 30
0.0
 10
322.4573937763492
 20
277.3470968993375
 30
0.0
 10
322.4573937763492
 20
278.4976870511011
 30
0.0
 10
322.4573937763492
 20
279.6483130892764
 30
0.0
 10
323.3901175189254
 20
280.5810009454402
 30
0.0
 10
324.5407076706883
 20
280.5810009454402
 30
0.0
  0
SPLINE
  5
44
330
1F
100
AcDbEntity
  8
_U+0421_U+043B_U+043E_U+0439 1
 62
     7
370
    35
100
AcDbSpline
210
0.0
220
0.0
230
1.0
 70
    11
 71
     3
 72
    44
 73
    40
 74
     0
 42
0.0000000001
 43
0.0000000001
 12
1.0
 22
0.0
 32
0.0
 13
1.0
 23
0.0
 33
0.0
 40
0.0
 40
0.0
 40
0.0
 40
0.0
 40
1.0
 40
1.0
 40
1.0
 40
2.0
 40
2.0
 40
2.0
 40
3.0
 40
3.0
 40
3.0
 40
4.0
 40
4.0
 40
4.0
 40
5.0
 40
5.0
 40
5.0
 40
6.0
 40
6.0
 40
6.0
 40
7.0
 40
7.0
 40
7.0
 40
8.0
 40
8.0
 40
8.0
 40
9.0
 40
9.0
 40
9.0
 40
10.0
 40
10.0
 40
10.0
 40
11.0
 40
11.0
 40
11.0
 40
12.0
 40
12.0
 40
12.0
 40
13.0
 40
13.0
 40
13.0
 40
13.0
 10
334.5417842605579
 20
341.8875534301399
 30
0.0
 10
334.665879474356
 20
341.982508877135
 30
0.0
 10
334.8326077459891
 20
342.1294996219925
 30
0.0
 10
334.8343302937805
 20
342.2542407912127
 30
0.0
 10
334.8547137759776
 20
343.7291723375124
 30
0.0
 10
334.8153822680758
 20
346.6135786140425
 30
0.0
 10
334.7991616097077
 20
346.6135786140425
 30
0.0
 10
334.7991616097077
 20
346.6135786140425
 30
0.0
 10
334.7991616097077
 20
349.3481232327298
 30
0.0
 10
334.7991616097077
 20
349.3481232327298
 30
0.0
 10
335.4341357892754
 20
349.4031729892264
 30
0.0
 10
336.0693970601414
 20
349.4779602724987
 30
0.0
 10
336.704658331008
 20
349.5231053791955
 30
0.0
 10
337.0175878464271
 20
349.5453549548335
 30
0.0
 10
337.3336035933058
 20
349.5265504747783
 30
0.0
 10
337.6878742557164
 20
349.5265504747783
 30
0.0
 10
337.7016546380469
 20
349.2893412893513
 30
0.0
 10
337.7223969843671
 20
349.0969183464987
 30
0.0
 10
337.7225405300159
 20
348.9044954036455
 30
0.0
 10
337.7246219419304
 20
346.0547554014154
 30
0.0
 10
337.7150043834296
 20
343.2050153991848
 30
0.0
 10
337.73266049829
 20
340.3554189426037
 30
0.0
 10
337.7356031841002
 20
339.8811441173999
 30
0.0
 10
337.6031105498195
 20
339.6505380318396
 30
0.0
 10
337.1169214357254
 20
339.4348606938038
 30
0.0
 10
334.9101941694221
 20
338.4558793657491
 30
0.0
 10
332.9775673204093
 20
337.1211919187909
 30
0.0
 10
331.5337851800023
 20
335.1793063753996
 30
0.0
 10
331.3460274707506
 20
334.9267378055003
 30
0.0
 10
330.9188356185086
 20
334.7157257010667
 30
0.0
 10
330.5947813152702
 20
334.7049597773711
 30
0.0
 10
329.0960929640154
 20
334.6551494370721
 30
0.0
 10
327.5946772454247
 20
334.6829972930315
 30
0.0
 10
326.218648651475
 20
334.6829972930315
 30
0.0
 10
327.4991835022446
 20
335.9434716393148
 30
0.0
 10
328.7581147327977
 20
337.3121076323264
 30
0.0
 10
330.1599815436165
 20
338.5260731882446
 30
0.0
 10
331.5464889699628
 20
339.7266172259554
 30
0.0
 10
333.0790540944469
 20
340.7688304125158
 30
0.0
 10
334.5417842605579
 20
341.8875534301399
 30
0.0
  0
SPLINE
  5
45
330
1F
100
AcDbEntity
  8
_U+0421_U+043B_U+043E_U+0439 1
 62
     7
370
    35
100
AcDbSpline
210
0.0
220
0.0
230
1.0
 70
    11
 71
     3
 72
   101
 73
    97
 74
     0
 42
0.0000000001
 43
0.0000000001
 12
1.0
 22
0.0
 32
0.0
 13
1.0
 23
0.0
 33
0.0
 40
0.0
 40
0.0
 40
0.0
 40
0.0
 40
1.0
 40
1.0
 40
1.0
 40
2.0
 40
2.0
 40
2.0
 40
3.0
 40
3.0
 40
3.0
 40
4.0
 40
4.0
 40
4.0
 40
5.0
 40
5.0
 40
5.0
 40
6.0
 40
6.0
 40
6.0
 40
7.0
 40
7.0
 40
7.0
 40
8.0
 40
8.0
 40
8.0
 40
9.0
 40
9.0
 40
9.0
 40
10.0
 40
10.0
 40
10.0
 40
11.0
 40
11.0
 40
11.0
 40
12.0
 40
12.0
 40
12.0
 40
13.0
 40
13.0
 40
13.0
 40
14.0
 40
14.0
 40
14.0
 40
15.0
 40
15.0
 40
15.0
 40
16.0
 40
16.0
 40
16.0
 40
17.0
 40
17.0
 40
17.0
 40
18.0
 40
18.0
 40
18.0
 40
19.0
 40
19.0
 40
19.0
 40
20.0
 40
20.0
 40
20.0
 40
21.0
 40
21.0
 40
21.0
 40
22.0
 40
22.0
 40
22.0
 40
23.0
 40
23.0
 40
23.0
 40
24.0
 40
24.0
 40
24.0
 40
25.0
 40
25.0
 40
25.0
 40
26.0
 40
26.0
 40
26.0
 40
27.0
 40
27.0
 40
27.0
 40
28.0
 40
28.0
 40
28.0
 40
29.0
 40
29.0
 40
29.0
 40
30.0
 40
30.0
 40
30.0
 40
31.0
 40
31.0
 40
31.0
 40
32.0
 40
32.0
 40
32.0
 40
32.0
 10
267.886577338225
 20
349.3654204834672
 30
0.0
 10
268.4200647437554
 20
349.3667841671354
 30
0.0
 10
268.9535880356978
 20
349.3691526703483
 30
0.0
 10
269.4868242363419
 20
349.3811387320627
 30
0.0
 10
270.2990414063516
 20
349.39951257517
 30
0.0
 10
271.1129811241528
 20
349.4504712806624
 30
0.0
 10
271.9205689469733
 20
349.5358809419808
 30
0.0
 10
274.1407177314837
 20
349.7706498513702
 30
0.0
 10
276.3742162613768
 20
349.8765147677104
 30
0.0
 10
278.5337170090686
 20
350.5528300942689
 30
0.0
 10
280.3910182786245
 20
351.1345488379561
 30
0.0
 10
282.3193028717468
 20
351.5028152011708
 30
0.0
 10
284.179367395051
 20
352.0772848895686
 30
0.0
 10
285.5002744596788
 20
352.4853133976329
 30
0.0
 10
286.7472914013423
 20
353.1118183838931
 30
0.0
 10
288.0495016451519
 20
353.5833658417616
 30
0.0
 10
290.202614611451
 20
354.363034035798
 30
0.0
 10
292.1622280425275
 20
355.475010407906
 30
0.0
 10
294.0321254428072
 20
356.7467530876575
 30
0.0
 10
295.3448504054265
 20
357.6397505717964
 30
0.0
 10
296.6615946462252
 20
358.5301642342488
 30
0.0
 10
297.9288156380239
 20
359.481297706344
 30
0.0
 10
298.5568996264267
 20
359.9526298457383
 30
0.0
 10
299.0773961506974
 20
360.558464258503
 30
0.0
 10
299.6034191824652
 20
361.0621659418086
 30
0.0
 10
301.1537121946348
 20
359.7864039838784
 30
0.0
 10
302.5596700564578
 20
358.4980817816357
 30
0.0
 10
304.1065179730443
 20
357.3948616941335
 30
0.0
 10
305.5674538185399
 20
356.3527920532219
 30
0.0
 10
307.1413600900148
 20
355.4439327748381
 30
0.0
 10
308.7315946790943
 20
354.5919175735669
 30
0.0
 10
309.9863630858185
 20
353.9196932980126
 30
0.0
 10
311.3204045773552
 20
353.3710618264838
 30
0.0
 10
312.657675846
 20
352.8622642726287
 30
0.0
 10
314.0602962714779
 20
352.3285615486244
 30
0.0
 10
315.4983724723264
 20
351.8752443882145
 30
0.0
 10
316.9399296551694
 20
351.4465453066547
 30
0.0
 10
318.4673630226916
 20
350.9922950995243
 30
0.0
 10
320.0001793520617
 20
350.5293603806128
 30
0.0
 10
321.5618842433479
 20
350.2156413641222
 30
0.0
 10
323.1571070437398
 20
349.8951757021161
 30
0.0
 10
324.7838022277356
 20
349.667009892594
 30
0.0
 10
326.4083442269923
 20
349.5502355069087
 30
0.0
 10
328.4240840069354
 20
349.4053261739656
 30
0.0
 10
330.447216387816
 20
349.3362807166642
 30
0.0
 10
332.4694157219762
 20
349.2995330304502
 30
0.0
 10
332.4694157219762
 20
349.2995330304502
 30
0.0
 10
332.4694157219762
 20
346.5883863525943
 30
0.0
 10
332.4694157219762
 20
346.5883863525943
 30
0.0
 10
331.9098030082776
 20
346.586161395031
 30
0.0
 10
331.3542813455838
 20
346.5924056307745
 30
0.0
 10
330.8020612328233
 20
346.6308040919552
 30
0.0
 10
328.5390640720045
 20
346.7882018963851
 30
0.0
 10
326.2763540024841
 20
346.9961277693603
 30
0.0
 10
324.027567860943
 20
347.2855157982985
 30
0.0
 10
322.2603773727197
 20
347.5128921067497
 30
0.0
 10
320.4967396393158
 20
347.8245297113258
 30
0.0
 10
318.764466630278
 20
348.230476807475
 30
0.0
 10
317.3443695220014
 20
348.5632156224945
 30
0.0
 10
315.965039378119
 20
349.0683527622925
 30
0.0
 10
314.5820129337672
 20
349.5369575343507
 30
0.0
 10
313.3745787048915
 20
349.9459908619596
 30
0.0
 10
312.1737116894699
 20
350.3794987227698
 30
0.0
 10
310.9947353855626
 20
350.8592282826468
 30
0.0
 10
309.7771453020004
 20
351.3546760911192
 30
0.0
 10
308.5566484190404
 20
351.8604591863394
 30
0.0
 10
307.3973019826715
 20
352.4687338751417
 30
0.0
 10
306.0923284851136
 20
353.1532313037088
 30
0.0
 10
304.8254663574373
 20
353.9161046567804
 30
0.0
 10
303.5963567355209
 20
354.7224723415821
 30
0.0
 10
302.6374717983651
 20
355.3514893767053
 30
0.0
 10
301.7370099404632
 20
356.0714425806435
 30
0.0
 10
300.8566444734602
 20
356.8029512093481
 30
0.0
 10
300.1282579626265
 20
357.4082114395162
 30
0.0
 10
300.0274171440111
 20
357.3611284665537
 30
0.0
 10
299.2937912169791
 20
356.831732112028
 30
0.0
 10
297.6890226309102
 20
355.6735340408532
 30
0.0
 10
296.0594924203416
 20
354.5338533584354
 30
0.0
 10
294.3511556483209
 20
353.5281007667907
 30
0.0
 10
292.8427779657399
 20
352.6401273803758
 30
0.0
 10
291.2365739231782
 20
351.8966326899561
 30
0.0
 10
289.631302927337
 20
351.1777560783879
 30
0.0
 10
288.2669733038036
 20
350.5667540222489
 30
0.0
 10
286.8651782658092
 20
350.0153951833842
 30
0.0
 10
285.4387651489644
 20
349.5577716534957
 30
0.0
 10
283.6275779192384
 20
348.9767706380554
 30
0.0
 10
281.7931362943295
 20
348.4398381369426
 30
0.0
 10
279.934758432404
 20
348.0272879409262
 30
0.0
 10
278.1742069304597
 20
347.6364849107752
 30
0.0
 10
276.3666083419654
 20
347.4480094732772
 30
0.0
 10
274.585350380113
 20
347.1401758284076
 30
0.0
 10
272.3634790478111
 20
346.7561194437727
 30
0.0
 10
270.1256023756151
 20
346.7396834669303
 30
0.0
 10
267.886577338225
 20
346.7433438809867
 30
0.0
 10
267.886577338225
 20
346.7433438809867
 30
0.0
 10
267.886577338225
 20
349.3654204834672
 30
0.0
 10
267.886577338225
 20
349.3654204834672
 30
0.0
  0
SPLINE
  5
46
330
1F
100
AcDbEntity
  8
_U+0421_U+043B_U+043E_U+0439 1
 62
     7
370
    35
100
AcDbSpline
210
0.0
220
0.0
230
1.0
 70
    11
 71
     3
 72
    80
 73
    76
 74
     0
 42
0.0000000001
 43
0.0000000001
 12
1.0
 22
0.0
 32
0.0
 13
1.0
 23
0.0
 33
0.0
 40
0.0
 40
0.0
 40
0.0
 40
0.0
 40
1.0
 40
1.0
 40
1.0
 40
2.0
 40
2.0
 40
2.0
 40
3.0
 40
3.0
 40
3.0
 40
4.0
 40
4.0
 40
4.0
 40
5.0
 40
5.0
 40
5.0
 40
6.0
 40
6.0
 40
6.0
 40
7.0
 40
7.0
 40
7.0
 40
8.0
 40
8.0
 40
8.0
 40
9.0
 40
9.0
 40
9.0
 40
10.0
 40
10.0
 40
10.0
 40
11.0
 40
11.0
 40
11.0
 40
12.0
 40
12.0
 40
12.0
 40
13.0
 40
13.0
 40
13.0
 40
14.0
 40
14.0
 40
14.0
 40
15.0
 40
15.0
 40
15.0
 40
16.0
 40
16.0
 40
16.0
 40
17.0
 40
17.0
 40
17.0
 40
18.0
 40
18.0
 40
18.0
 40
19.0
 40
19.0
 40
19.0
 40
20.0
 40
20.0
 40
20.0
 40
21.0
 40
21.0
 40
21.0
 40
22.0
 40
22.0
 40
22.0
 40
23.0
 40
23.0
 40
23.0
 40
24.0
 40
24.0
 40
24.0
 40
25.0
 40
25.0
 40
25.0
 40
25.0
 10
325.0654387916132
 20
337.4803790196891
 30
0.0
 10
325.5656236065113
 20
336.6966915474725
 30
0.0
 10
325.5191148161462
 20
335.6239749104409
 30
0.0
 10
324.9653874740686
 20
334.7166587477865
 30
0.0
 10
324.1974182504475
 20
334.7166587477865
 30
0.0
 10
323.4294849132389
 20
334.7166587477865
 30
0.0
 10
322.6615156896185
 20
334.7166587477865
 30
0.0
 10
322.6615156896185
 20
335.1881344328302
 30
0.0
 10
322.6645301482528
 20
335.6637729417029
 30
0.0
 10
322.660833847784
 20
336.139411450575
 30
0.0
 10
322.6553791131115
 20
336.8350336669613
 30
0.0
 10
322.3447104416688
 20
337.2864129611062
 30
0.0
 10
321.6673544091527
 20
337.415532272629
 30
0.0
 10
321.0777047683437
 20
337.5279285160111
 30
0.0
 10
320.4669898035031
 20
337.5363977093185
 30
0.0
 10
319.786009243343
 20
337.5980505656824
 30
0.0
 10
319.786009243343
 20
337.0844442325762
 30
0.0
 10
319.786009243343
 20
336.604427581401
 30
0.0
 10
319.786009243343
 20
336.1244109302256
 30
0.0
 10
319.786009243343
 20
335.6658543536174
 30
0.0
 10
319.786009243343
 20
335.2073695498333
 30
0.0
 10
319.786009243343
 20
334.7169458390855
 30
0.0
 10
318.8198034780737
 20
334.7169458390855
 30
0.0
 10
317.9162553887128
 20
334.7169458390855
 30
0.0
 10
316.9486859397752
 20
334.7169458390855
 30
0.0
 10
317.3258880196576
 20
336.323580518595
 30
0.0
 10
317.6658758899651
 20
338.4323019928559
 30
0.0
 10
317.6648710704198
 20
340.9116942199567
 30
0.0
 10
317.6638662508753
 20
343.3810023651957
 30
0.0
 10
317.3249190865248
 20
345.4819006015713
 30
0.0
 10
316.9486859397752
 20
347.0844083436642
 30
0.0
 10
317.3211510132313
 20
346.9458867921141
 30
0.0
 10
317.8434059717055
 20
346.7511312324604
 30
0.0
 10
318.2158710451616
 20
346.6125737944973
 30
0.0
 10
318.6310409492775
 20
346.4581186758775
 30
0.0
 10
319.040110163298
 20
346.3057808555847
 30
0.0
 10
319.4463802371586
 20
346.1532994896422
 30
0.0
 10
319.4463802371586
 20
346.1532994896422
 30
0.0
 10
319.4463802371586
 20
343.6614187910545
 30
0.0
 10
319.4463802371586
 20
343.6614187910545
 30
0.0
 10
319.4463802371586
 20
343.3660018448464
 30
0.0
 10
319.4463802371586
 20
343.0792694104201
 30
0.0
 10
319.4463802371586
 20
342.7961973900502
 30
0.0
 10
319.4463802371586
 20
342.0885891119495
 30
0.0
 10
319.4463802371586
 20
341.4101923734758
 30
0.0
 10
319.4463802371586
 20
340.7231828960464
 30
0.0
 10
319.8431404117547
 20
340.6506923431622
 30
0.0
 10
320.1707833562248
 20
340.586025028164
 30
0.0
 10
320.500292394135
 20
340.5320518640367
 30
0.0
 10
320.8295861135717
 20
340.4780069270846
 30
0.0
 10
321.1617866324061
 20
340.3930279027141
 30
0.0
 10
321.4907214877197
 20
340.4007793677747
 30
0.0
 10
321.7230501210714
 20
340.4061623296225
 30
0.0
 10
322.0388146630635
 20
340.47700210754
 30
0.0
 10
322.1674315648137
 20
340.6338975021974
 30
0.0
 10
322.7148070119114
 20
341.3012412256766
 30
0.0
 10
322.3540409088714
 20
342.7177496927215
 30
0.0
 10
321.6902858266245
 20
342.993500884978
 30
0.0
 10
321.4472630424019
 20
343.094485249243
 30
0.0
 10
321.1953045415116
 20
343.1759474052067
 30
0.0
 10
320.9405110140489
 20
343.2520983721473
 30
0.0
 10
320.9405110140489
 20
343.2520983721473
 30
0.0
 10
320.9405110140489
 20
345.5885909053948
 30
0.0
 10
320.9405110140489
 20
345.5885909053948
 30
0.0
 10
321.6838980452315
 20
345.3086051164839
 30
0.0
 10
322.4271056443523
 20
345.0280451449763
 30
0.0
 10
323.1557074736597
 20
344.7156180393292
 30
0.0
 10
324.9931994436156
 20
343.9276241976348
 30
0.0
 10
325.7417182317594
 20
341.9885377944049
 30
0.0
 10
325.4997720399067
 20
340.1642879105946
 30
0.0
 10
325.3847919748376
 20
339.2973439617983
 30
0.0
 10
325.1438506025295
 20
338.5496146747255
 30
0.0
 10
323.9657355725179
 20
338.3688907022882
 30
0.0
 10
324.223687104265
 20
338.2644971288535
 30
0.0
 10
324.7237283735143
 20
338.0157684050724
 30
0.0
 10
325.0654387916132
 20
337.4803790196891
 30
0.0
  0
SPLINE
  5
47
330
1F
100
AcDbEntity
  8
_U+0421_U+043B_U+043E_U+0439 1
 62
     7
370
    35
100
AcDbSpline
210
0.0
220
0.0
230
1.0
 70
    11
 71
     3
 72
    47
 73
    43
 74
     0
 42
0.0000000001
 43
0.0000000001
 12
1.0
 22
0.0
 32
0.0
 13
1.0
 23
0.0
 33
0.0
 40
0.0
 40
0.0
 40
0.0
 40
0.0
 40
1.0
 40
1.0
 40
1.0
 40
2.0
 40
2.0
 40
2.0
 40
3.0
 40
3.0
 40
3.0
 40
4.0
 40
4.0
 40
4.0
 40
5.0
 40
5.0
 40
5.0
 40
6.0
 40
6.0
 40
6.0
 40
7.0
 40
7.0
 40
7.0
 40
8.0
 40
8.0
 40
8.0
 40
9.0
 40
9.0
 40
9.0
 40
10.0
 40
10.0
 40
10.0
 40
11.0
 40
11.0
 40
11.0
 40
12.0
 40
12.0
 40
12.0
 40
13.0
 40
13.0
 40
13.0
 40
14.0
 40
14.0
 40
14.0
 40
14.0
 10
313.3662889436458
 20
343.1680523944966
 30
0.0
 10
313.3555589063627
 20
344.6088200762692
 30
0.0
 10
312.5238913008762
 20
345.5143060318951
 30
0.0
 10
311.0677283482188
 20
345.6890010870625
 30
0.0
 10
311.0552757631442
 20
345.6904365435555
 30
0.0
 10
311.0440792025008
 20
345.6895752696598
 30
0.0
 10
311.0317342766633
 20
345.6907954076786
 30
0.0
 10
311.0317342766633
 20
345.6907954076786
 30
0.0
 10
311.0317342766633
 20
349.0593093863883
 30
0.0
 10
311.0317342766633
 20
349.0593093863883
 30
0.0
 10
311.9860616394553
 20
348.7754478649475
 30
0.0
 10
312.9454848727962
 20
348.5016345389553
 30
0.0
 10
313.80697408692
 20
348.0514036100044
 30
0.0
 10
315.1140289963924
 20
347.368269865105
 30
0.0
 10
315.8148188561523
 20
346.0740622912426
 30
0.0
 10
315.9263538256393
 20
344.6473620830994
 30
0.0
 10
316.0750671182882
 20
342.7440903193631
 30
0.0
 10
316.1239444118661
 20
340.8250285342065
 30
0.0
 10
316.061573827256
 20
338.9175221738171
 30
0.0
 10
316.0160698564362
 20
337.5249140573767
 30
0.0
 10
315.6696942047357
 20
336.1427130005083
 30
0.0
 10
314.4656691850298
 20
335.1950246239952
 30
0.0
 10
314.0740407673961
 20
334.8868321150024
 30
0.0
 10
313.5331607609278
 20
334.608281782584
 30
0.0
 10
313.0486224218005
 20
334.5884007101595
 30
0.0
 10
312.3804891972504
 20
334.5611270367974
 30
0.0
 10
311.703456142445
 20
334.5556005293001
 30
0.0
 10
311.0317342766633
 20
334.5897643938277
 30
0.0
 10
311.0317342766633
 20
334.5897643938277
 30
0.0
 10
311.0317342766633
 20
337.8976303357188
 30
0.0
 10
311.0317342766633
 20
337.8976303357188
 30
0.0
 10
311.0666158694371
 20
337.8925344651694
 30
0.0
 10
311.1007797339647
 20
337.8834193164404
 30
0.0
 10
311.1360919636863
 20
337.8814096773507
 30
0.0
 10
311.8859026626736
 20
337.8381306640941
 30
0.0
 10
312.7319607194996
 20
337.6680290697036
 30
0.0
 10
313.0899635687913
 20
338.6076071170323
 30
0.0
 10
313.2257577530054
 20
338.9641745098317
 30
0.0
 10
313.344434118544
 20
339.3488050770633
 30
0.0
 10
313.355594792775
 20
339.7238180857941
 30
0.0
 10
313.3898304301267
 20
340.8710349147996
 30
0.0
 10
313.3748299097774
 20
342.0199025187712
 30
0.0
 10
313.3662889436458
 20
343.1680523944966
 30
0.0
  0
SPLINE
  5
48
330
1F
100
AcDbEntity
  8
_U+0421_U+043B_U+043E_U+0439 1
 62
     7
370
    35
100
AcDbSpline
210
0.0
220
0.0
230
1.0
 70
    11
 71
     3
 72
    38
 73
    34
 74
     0
 42
0.0000000001
 43
0.0000000001
 12
1.0
 22
0.0
 32
0.0
 13
1.0
 23
0.0
 33
0.0
 40
0.0
 40
0.0
 40
0.0
 40
0.0
 40
1.0
 40
1.0
 40
1.0
 40
2.0
 40
2.0
 40
2.0
 40
3.0
 40
3.0
 40
3.0
 40
4.0
 40
4.0
 40
4.0
 40
5.0
 40
5.0
 40
5.0
 40
6.0
 40
6.0
 40
6.0
 40
7.0
 40
7.0
 40
7.0
 40
8.0
 40
8.0
 40
8.0
 40
9.0
 40
9.0
 40
9.0
 40
10.0
 40
10.0
 40
10.0
 40
11.0
 40
11.0
 40
11.0
 40
11.0
 10
305.7211912089135
 20
346.6969786362711
 30
0.0
 10
305.1668179114131
 20
346.7601746083645
 30
0.0
 10
304.612444613914
 20
346.8233346940456
 30
0.0
 10
304.0580713164136
 20
346.8865306661384
 30
0.0
 10
304.0580713164136
 20
342.8554099703758
 30
0.0
 10
304.0580713164136
 20
338.8881670885406
 30
0.0
 10
304.0580713164136
 20
334.8683147262456
 30
0.0
 10
303.1426807109879
 20
334.8683147262456
 30
0.0
 10
302.2685953661406
 20
334.8683147262456
 30
0.0
 10
301.3226654238313
 20
334.8683147262456
 30
0.0
 10
301.3226654238313
 20
338.8790519398116
 30
0.0
 10
301.3226654238313
 20
342.904502582428
 30
0.0
 10
301.3226654238313
 20
347.0251239905137
 30
0.0
 10
300.7270945249895
 20
347.0251239905137
 30
0.0
 10
300.1315595125602
 20
347.0251239905137
 30
0.0
 10
299.5359886137184
 20
347.0251239905137
 30
0.0
 10
299.6401668686796
 20
347.2738168278825
 30
0.0
 10
299.8991232199716
 20
347.9849419743901
 30
0.0
 10
299.6829793585759
 20
348.8491944422622
 30
0.0
 10
299.3803133570798
 20
350.059499584124
 30
0.0
 10
298.3838194598133
 20
350.6188610929354
 30
0.0
 10
298.2130719100009
 20
350.7110532861822
 30
0.0
 10
299.5210957526062
 20
350.7568802347135
 30
0.0
 10
301.0017691248774
 20
350.7364249796916
 30
0.0
 10
302.6196003650303
 20
350.5919462836965
 30
0.0
 10
304.2399077676332
 20
350.4472522692277
 30
0.0
 10
305.7028173658061
 20
350.2045165763035
 30
0.0
 10
306.983531648637
 20
349.9271146090797
 30
0.0
 10
306.7687873573216
 20
349.7880547613447
 30
0.0
 10
306.1293273762142
 20
349.3350246922331
 30
0.0
 10
305.8076056897764
 20
348.4572071605047
 30
0.0
 10
305.5121169707442
 20
347.6509471349401
 30
0.0
 10
305.6555190743701
 20
346.9525975512172
 30
0.0
 10
305.7211912089135
 20
346.6969786362711
 30
0.0
  0
SPLINE
  5
49
330
1F
100
AcDbEntity
  8
_U+0421_U+043B_U+043E_U+0439 1
 62
     7
370
    35
100
AcDbSpline
210
0.0
220
0.0
230
1.0
 70
    11
 71
     3
 72
    44
 73
    40
 74
     0
 42
0.0000000001
 43
0.0000000001
 12
1.0
 22
0.0
 32
0.0
 13
1.0
 23
0.0
 33
0.0
 40
0.0
 40
0.0
 40
0.0
 40
0.0
 40
1.0
 40
1.0
 40
1.0
 40
2.0
 40
2.0
 40
2.0
 40
3.0
 40
3.0
 40
3.0
 40
4.0
 40
4.0
 40
4.0
 40
5.0
 40
5.0
 40
5.0
 40
6.0
 40
6.0
 40
6.0
 40
7.0
 40
7.0
 40
7.0
 40
8.0
 40
8.0
 40
8.0
 40
9.0
 40
9.0
 40
9.0
 40
10.0
 40
10.0
 40
10.0
 40
11.0
 40
11.0
 40
11.0
 40
12.0
 40
12.0
 40
12.0
 40
13.0
 40
13.0
 40
13.0
 40
13.0
 10
298.2820097080649
 20
339.7209471728086
 30
0.0
 10
298.2482764804855
 20
338.3617851926491
 30
0.0
 10
297.8523058069605
 20
337.0792765892027
 30
0.0
 10
297.2372485862298
 20
335.8689714473409
 30
0.0
 10
296.8565655243528
 20
335.1198067037756
 30
0.0
 10
296.1840900439122
 20
334.6942656264997
 30
0.0
 10
295.3763586754422
 20
334.5937836720072
 30
0.0
 10
295.3763586754422
 20
334.5937836720072
 30
0.0
 10
295.3763586754422
 20
339.1979385996758
 30
0.0
 10
295.3763586754422
 20
339.1979385996758
 30
0.0
 10
295.4802139526927
 20
340.1074438334818
 30
0.0
 10
295.4947838360941
 20
341.0292939931253
 30
0.0
 10
295.5540681892446
 20
341.9448999170253
 30
0.0
 10
295.5326798875026
 20
341.9461200550441
 30
0.0
 10
295.5112556993482
 20
341.9473401930629
 30
0.0
 10
295.4898315111939
 20
341.9485603310817
 30
0.0
 10
295.4898315111939
 20
342.5195131510726
 30
0.0
 10
295.4921282415823
 20
343.0904659710636
 30
0.0
 10
295.4906568986772
 20
343.6614187910545
 30
0.0
 10
295.4906568986772
 20
343.6614187910545
 30
0.0
 10
295.4925588785302
 20
343.6614187910545
 30
0.0
 10
295.4925588785302
 20
343.6614187910545
 30
0.0
 10
295.4925588785302
 20
343.6614187910545
 30
0.0
 10
295.4925588785302
 20
350.5214653699027
 30
0.0
 10
295.4925588785302
 20
350.5214653699027
 30
0.0
 10
295.6047398034386
 20
350.5137856776668
 30
0.0
 10
295.7160594544513
 20
350.5026608898474
 30
0.0
 10
295.8255130120235
 20
350.4845023652144
 30
0.0
 10
297.1744832510846
 20
350.2604276066965
 30
0.0
 10
298.0097036113905
 20
348.8530342883805
 30
0.0
 10
298.1332246425916
 20
347.5672241350001
 30
0.0
 10
298.2756219266722
 20
346.0840387138672
 30
0.0
 10
298.2856701221216
 20
344.58886723102
 30
0.0
 10
298.3531724636932
 20
343.0988633915463
 30
0.0
 10
298.331317638591
 20
343.0980021176506
 30
0.0
 10
298.3094986999012
 20
343.0971408437549
 30
0.0
 10
298.2876797612113
 20
343.0962795698592
 30
0.0
 10
298.2876797612113
 20
341.9711687708421
 30
0.0
 10
298.3098934504366
 20
340.8454837892284
 30
0.0
 10
298.2820097080649
 20
339.7209471728086
 30
0.0
  0
SPLINE
  5
4A
330
1F
100
AcDbEntity
  8
_U+0421_U+043B_U+043E_U+0439 1
 62
     7
370
    35
100
AcDbSpline
210
0.0
220
0.0
230
1.0
 70
    11
 71
     3
 72
    44
 73
    40
 74
     0
 42
0.0000000001
 43
0.0000000001
 12
1.0
 22
0.0
 32
0.0
 13
1.0
 23
0.0
 33
0.0
 40
0.0
 40
0.0
 40
0.0
 40
0.0
 40
1.0
 40
1.0
 40
1.0
 40
2.0
 40
2.0
 40
2.0
 40
3.0
 40
3.0
 40
3.0
 40
4.0
 40
4.0
 40
4.0
 40
5.0
 40
5.0
 40
5.0
 40
6.0
 40
6.0
 40
6.0
 40
7.0
 40
7.0
 40
7.0
 40
8.0
 40
8.0
 40
8.0
 40
9.0
 40
9.0
 40
9.0
 40
10.0
 40
10.0
 40
10.0
 40
11.0
 40
11.0
 40
11.0
 40
12.0
 40
12.0
 40
12.0
 40
13.0
 40
13.0
 40
13.0
 40
13.0
 10
306.9284460057273
 20
346.0459991168096
 30
0.0
 10
306.9844288089444
 20
347.0461534281323
 30
0.0
 10
307.2212432438359
 20
348.0128616031742
 30
0.0
 10
307.982824686064
 20
348.7804001898474
 30
0.0
 10
308.4507835027001
 20
349.25201942054
 30
0.0
 10
308.9545210724182
 20
349.5729874923186
 30
0.0
 10
309.6063618657754
 20
349.4795392746406
 30
0.0
 10
309.6063618657754
 20
349.4795392746406
 30
0.0
 10
309.6063618657754
 20
343.3921271530151
 30
0.0
 10
309.6063618657754
 20
343.3921271530151
 30
0.0
 10
309.6063618657754
 20
343.3921271530151
 30
0.0
 10
309.6936017341222
 20
343.3921271530151
 30
0.0
 10
309.6936017341222
 20
343.3921271530151
 30
0.0
 10
309.6633136021253
 20
342.9216562875166
 30
0.0
 10
309.640274525417
 20
342.4498217383497
 30
0.0
 10
309.6063618657754
 20
341.978346053306
 30
0.0
 10
309.6537319300361
 20
341.3204763426789
 30
0.0
 10
309.6804673072139
 20
340.6618889038057
 30
0.0
 10
309.7347993354643
 20
340.0074642887614
 30
0.0
 10
309.7347993354643
 20
340.0074642887614
 30
0.0
 10
309.7340098343934
 20
340.0074642887614
 30
0.0
 10
309.7340098343934
 20
340.0074642887614
 30
0.0
 10
309.7340098343934
 20
340.0074642887614
 30
0.0
 10
309.7340098343934
 20
334.7207497987914
 30
0.0
 10
309.7340098343934
 20
334.7207497987914
 30
0.0
 10
309.6908025939616
 20
334.7277117627811
 30
0.0
 10
309.6466623068093
 20
334.7305109029418
 30
0.0
 10
309.6036344984394
 20
334.737975276704
 30
0.0
 10
308.2363263026838
 20
334.9763328273251
 30
0.0
 10
307.7390841735952
 20
336.1620916631608
 30
0.0
 10
307.3513673749038
 20
337.272560805951
 30
0.0
 10
307.0839059438923
 20
338.038592163307
 30
0.0
 10
306.9865461072713
 20
338.8775447104939
 30
0.0
 10
306.930993941002
 20
339.6914485418826
 30
0.0
 10
306.8619484837006
 20
340.702225231252
 30
0.0
 10
306.9144144185108
 20
341.7208969313315
 30
0.0
 10
306.9144144185108
 20
342.7361235358282
 30
0.0
 10
306.9144144185108
 20
343.8396307146294
 30
0.0
 10
306.8668649221888
 20
344.945721715117
 30
0.0
 10
306.9284460057273
 20
346.0459991168096
 30
0.0
  0
SPLINE
  5
4B
330
1F
100
AcDbEntity
  8
_U+0421_U+043B_U+043E_U+0439 1
 62
     7
370
    35
100
AcDbSpline
210
0.0
220
0.0
230
1.0
 70
    11
 71
     3
 72
    47
 73
    43
 74
     0
 42
0.0000000001
 43
0.0000000001
 12
1.0
 22
0.0
 32
0.0
 13
1.0
 23
0.0
 33
0.0
 40
0.0
 40
0.0
 40
0.0
 40
0.0
 40
1.0
 40
1.0
 40
1.0
 40
2.0
 40
2.0
 40
2.0
 40
3.0
 40
3.0
 40
3.0
 40
4.0
 40
4.0
 40
4.0
 40
5.0
 40
5.0
 40
5.0
 40
6.0
 40
6.0
 40
6.0
 40
7.0
 40
7.0
 40
7.0
 40
8.0
 40
8.0
 40
8.0
 40
9.0
 40
9.0
 40
9.0
 40
10.0
 40
10.0
 40
10.0
 40
11.0
 40
11.0
 40
11.0
 40
12.0
 40
12.0
 40
12.0
 40
13.0
 40
13.0
 40
13.0
 40
14.0
 40
14.0
 40
14.0
 40
14.0
 10
291.9471966599139
 20
338.9508965372738
 30
0.0
 10
291.9744703332759
 20
338.0895508687994
 30
0.0
 10
292.5871231643814
 20
337.5532643231081
 30
0.0
 10
293.3178422920152
 20
337.5274978790632
 30
0.0
 10
293.5969668070304
 20
337.5176650020881
 30
0.0
 10
293.8455160987499
 20
337.5329526137357
 30
0.0
 10
294.0683707192493
 20
337.5709204379692
 30
0.0
 10
294.0683707192493
 20
337.5709204379692
 30
0.0
 10
294.0683707192493
 20
334.5766299669193
 30
0.0
 10
294.0683707192493
 20
334.5766299669193
 30
0.0
 10
293.4528469751583
 20
334.6003149990497
 30
0.0
 10
292.836246638698
 20
334.6489769741534
 30
0.0
 10
292.2209023266689
 20
334.6795521974494
 30
0.0
 10
291.199395600016
 20
334.730439130117
 30
0.0
 10
290.5628783047188
 20
335.3495515154397
 30
0.0
 10
290.0826822214819
 20
336.1288608453536
 30
0.0
 10
289.4280422879637
 20
337.1911704228121
 30
0.0
 10
289.1521475500574
 20
338.3778623053683
 30
0.0
 10
289.1236537386762
 20
339.5990051437498
 30
0.0
 10
289.0830303199313
 20
341.3410751433503
 30
0.0
 10
289.0440576761532
 20
343.0879539222012
 30
0.0
 10
289.1333430700022
 20
344.8265788262189
 30
0.0
 10
289.2182862079607
 20
346.4810859797618
 30
0.0
 10
289.5991845883115
 20
348.070854045481
 30
0.0
 10
290.8766332076215
 20
349.3271655679353
 30
0.0
 10
291.5950074094177
 20
350.0336972536667
 30
0.0
 10
292.550375478167
 20
350.1180303226158
 30
0.0
 10
293.4499401757605
 20
350.3039937112513
 30
0.0
 10
293.6524472004752
 20
350.3458372680149
 30
0.0
 10
293.8595117995544
 20
350.3863889139348
 30
0.0
 10
294.0683707192493
 20
350.4218446893059
 30
0.0
 10
294.0683707192493
 20
350.4218446893059
 30
0.0
 10
294.0683707192493
 20
346.0070982458557
 30
0.0
 10
294.0683707192493
 20
346.0070982458557
 30
0.0
 10
293.948223010806
 20
346.0162133945846
 30
0.0
 10
293.8230870910507
 20
346.0210221738357
 30
0.0
 10
293.6863957465285
 20
346.0167158043572
 30
0.0
 10
292.489368577225
 20
345.9792503898963
 30
0.0
 10
292.0677750053047
 20
345.3824593530364
 30
0.0
 10
291.9808222282564
 20
344.445106263271
 30
0.0
 10
291.8121202039459
 20
342.6266699782564
 30
0.0
 10
291.8892759904314
 20
340.7821083850737
 30
0.0
 10
291.9471966599139
 20
338.9508965372738
 30
0.0
  0
SPLINE
  5
4C
330
1F
100
AcDbEntity
  8
_U+0421_U+043B_U+043E_U+0439 1
 62
     7
370
    35
100
AcDbSpline
210
0.0
220
0.0
230
1.0
 70
    11
 71
     3
 72
    68
 73
    64
 74
     0
 42
0.0000000001
 43
0.0000000001
 12
1.0
 22
0.0
 32
0.0
 13
1.0
 23
0.0
 33
0.0
 40
0.0
 40
0.0
 40
0.0
 40
0.0
 40
1.0
 40
1.0
 40
1.0
 40
2.0
 40
2.0
 40
2.0
 40
3.0
 40
3.0
 40
3.0
 40
4.0
 40
4.0
 40
4.0
 40
5.0
 40
5.0
 40
5.0
 40
6.0
 40
6.0
 40
6.0
 40
7.0
 40
7.0
 40
7.0
 40
8.0
 40
8.0
 40
8.0
 40
9.0
 40
9.0
 40
9.0
 40
10.0
 40
10.0
 40
10.0
 40
11.0
 40
11.0
 40
11.0
 40
12.0
 40
12.0
 40
12.0
 40
13.0
 40
13.0
 40
13.0
 40
14.0
 40
14.0
 40
14.0
 40
15.0
 40
15.0
 40
15.0
 40
16.0
 40
16.0
 40
16.0
 40
17.0
 40
17.0
 40
17.0
 40
18.0
 40
18.0
 40
18.0
 40
19.0
 40
19.0
 40
19.0
 40
20.0
 40
20.0
 40
20.0
 40
21.0
 40
21.0
 40
21.0
 40
21.0
 10
287.2377868849148
 20
341.4506363601593
 30
0.0
 10
287.2757188227356
 20
338.6969283972937
 30
0.0
 10
287.7552330641386
 20
336.4006645322554
 30
0.0
 10
288.2376899913515
 20
334.7322334507332
 30
0.0
 10
287.3947540523969
 20
334.7322334507332
 30
0.0
 10
286.5518539998544
 20
334.7322334507332
 30
0.0
 10
285.7089180608998
 20
334.7322334507332
 30
0.0
 10
285.6825415478456
 20
337.8522340241354
 30
0.0
 10
285.6561291483792
 20
340.9722704839506
 30
0.0
 10
285.6297526353246
 20
344.0922710573528
 30
0.0
 10
284.8743436560156
 20
341.1046554589943
 30
0.0
 10
284.1253942309237
 20
338.1154608584939
 30
0.0
 10
283.3473768118536
 20
335.1333717676319
 30
0.0
 10
283.3006527030146
 20
334.9542985701613
 30
0.0
 10
283.0321146796338
 20
334.7201756161941
 30
0.0
 10
282.8486274534479
 20
334.7038831850012
 30
0.0
 10
282.2389890809773
 20
334.6496947024003
 30
0.0
 10
281.6210968336734
 20
334.6833561571552
 30
0.0
 10
281.0169490822877
 20
334.6833561571552
 30
0.0
 10
280.224002915693
 20
337.1681313461038
 30
0.0
 10
279.4537369616839
 20
339.5818514386613
 30
0.0
 10
278.6834351212624
 20
341.9955715312194
 30
0.0
 10
278.6444624774843
 20
341.9877482933333
 30
0.0
 10
278.6054180608815
 20
341.9799250554479
 30
0.0
 10
278.5664454171035
 20
341.9720300447378
 30
0.0
 10
278.5664454171035
 20
339.5720903345109
 30
0.0
 10
278.5664454171035
 20
337.1721506242833
 30
0.0
 10
278.5664454171035
 20
334.7277835356059
 30
0.0
 10
277.7010445840373
 20
334.7277835356059
 30
0.0
 10
276.8724273235976
 20
334.7277835356059
 30
0.0
 10
275.9679103011042
 20
334.7277835356059
 30
0.0
 10
275.9679103011042
 20
335.3265842115561
 30
0.0
 10
275.9679103011042
 20
335.916126193128
 30
0.0
 10
275.9679103011042
 20
336.5055964018752
 30
0.0
 10
275.9679103011042
 20
338.6481587629529
 30
0.0
 10
275.986355917036
 20
340.7908646696795
 30
0.0
 10
275.955493602442
 20
342.9329246209841
 30
0.0
 10
275.9473115004332
 20
343.5017242562364
 30
0.0
 10
276.0707607588099
 20
343.8280035170381
 30
0.0
 10
276.6684489559781
 20
344.0761939446342
 30
0.0
 10
277.9300357810431
 20
344.6000637916634
 30
0.0
 10
279.1412021968
 20
345.2378371113917
 30
0.0
 10
280.3962218084108
 20
345.8399393372753
 30
0.0
 10
280.9744954565148
 20
343.7090041737889
 30
0.0
 10
281.5410342477904
 20
341.6214197963843
 30
0.0
 10
282.1075730390661
 20
339.5337636461543
 30
0.0
 10
282.1483400034602
 20
339.5416586568644
 30
0.0
 10
282.1891069678545
 20
339.5495536675746
 30
0.0
 10
282.2298739322483
 20
339.5574486782847
 30
0.0
 10
282.623440216148
 20
341.2792069685128
 30
0.0
 10
283.0199491858575
 20
343.0003193033189
 30
0.0
 10
283.4092091002787
 20
344.7230106402674
 30
0.0
 10
283.580494946276
 20
345.4810752140879
 30
0.0
 10
283.7737791630246
 20
346.2374172401177
 30
0.0
 10
283.8836274711323
 20
347.0043816441935
 30
0.0
 10
283.9352680184592
 20
347.3649683151717
 30
0.0
 10
284.1178221979243
 20
347.4520287514574
 30
0.0
 10
284.4144951685635
 20
347.551003476632
 30
0.0
 10
285.6737493768277
 20
347.9710180464107
 30
0.0
 10
286.9246420510215
 20
348.414645875495
 30
0.0
 10
288.2376899913515
 20
348.8701162206443
 30
0.0
 10
287.723330043587
 20
347.0906525794076
 30
0.0
 10
287.1952614863168
 20
344.5385903673614
 30
0.0
 10
287.2377868849148
 20
341.4506363601593
 30
0.0
  0
SPLINE
  5
4D
330
1F
100
AcDbEntity
  8
_U+0421_U+043B_U+043E_U+0439 1
 62
     7
370
    35
100
AcDbSpline
210
0.0
220
0.0
230
1.0
 70
    11
 71
     3
 72
    44
 73
    40
 74
     0
 42
0.0000000001
 43
0.0000000001
 12
1.0
 22
0.0
 32
0.0
 13
1.0
 23
0.0
 33
0.0
 40
0.0
 40
0.0
 40
0.0
 40
0.0
 40
1.0
 40
1.0
 40
1.0
 40
2.0
 40
2.0
 40
2.0
 40
3.0
 40
3.0
 40
3.0
 40
4.0
 40
4.0
 40
4.0
 40
5.0
 40
5.0
 40
5.0
 40
6.0
 40
6.0
 40
6.0
 40
7.0
 40
7.0
 40
7.0
 40
8.0
 40
8.0
 40
8.0
 40
9.0
 40
9.0
 40
9.0
 40
10.0
 40
10.0
 40
10.0
 40
11.0
 40
11.0
 40
11.0
 40
12.0
 40
12.0
 40
12.0
 40
13.0
 40
13.0
 40
13.0
 40
13.0
 10
262.8278133393033
 20
339.0584122285806
 30
0.0
 10
262.5131612760925
 20
339.2099964342149
 30
0.0
 10
262.2091674773405
 20
339.3821076676952
 30
0.0
 10
261.8930081848126
 20
339.5485488480294
 30
0.0
 10
261.8930081848126
 20
342.8869900132163
 30
0.0
 10
261.8930081848126
 20
346.1734676533657
 30
0.0
 10
261.8930081848126
 20
349.3636261628511
 30
0.0
 10
263.1338885499695
 20
349.3636261628511
 30
0.0
 10
264.34588035321
 20
349.3625495704817
 30
0.0
 10
265.5568314504933
 20
349.3639850269741
 30
0.0
 10
265.5568314504933
 20
349.3639850269741
 30
0.0
 10
265.5568314504933
 20
344.7784910337119
 30
0.0
 10
265.5568314504933
 20
344.7784910337119
 30
0.0
 10
265.5568314504933
 20
344.7784910337119
 30
0.0
 10
265.5581951341612
 20
344.7784910337119
 30
0.0
 10
265.5581951341612
 20
344.7784910337119
 30
0.0
 10
265.5567596776685
 20
343.9251839215972
 30
0.0
 10
265.5609583879099
 20
343.0710873084116
 30
0.0
 10
265.5909235421962
 20
342.2177084234722
 30
0.0
 10
265.5984955751952
 20
342.0031794506305
 30
0.0
 10
265.9416055633744
 20
341.7371893625244
 30
0.0
 10
266.1913032202883
 20
341.6027588619785
 30
0.0
 10
268.7451956393631
 20
340.2280221788723
 30
0.0
 10
270.9028661800266
 20
338.3976716049681
 30
0.0
 10
272.8646686822544
 20
336.3186281936951
 30
0.0
 10
273.4181807058585
 20
335.7320288979327
 30
0.0
 10
274.12115963677
 20
335.2776351451528
 30
0.0
 10
274.7869243581072
 20
334.7371857756331
 30
0.0
 10
274.6574820688734
 20
334.7199602977198
 30
0.0
 10
274.5185298803755
 20
334.6857246603681
 30
0.0
 10
274.379541805465
 20
334.6854375690697
 30
0.0
 10
272.8507447542748
 20
334.6815618365391
 30
0.0
 10
271.3214094068999
 20
334.6626138108351
 30
0.0
 10
269.7935454024298
 20
334.6992897242243
 30
0.0
 10
269.466584299794
 20
334.7071129621098
 30
0.0
 10
269.0701829893212
 20
334.8428353734997
 30
0.0
 10
268.8326867125959
 20
335.0536321594597
 30
0.0
 10
267.0216071421067
 20
336.6610563400401
 30
0.0
 10
265.0261072987116
 20
337.99933242823
 30
0.0
 10
262.8278133393033
 20
339.0584122285806
 30
0.0
  0
SPLINE
  5
4E
330
1F
100
AcDbEntity
  8
_U+0421_U+043B_U+043E_U+0439 1
 62
     7
370
    35
100
AcDbSpline
210
0.0
220
0.0
230
1.0
 70
    11
 71
     3
 72
    17
 73
    13
 74
     0
 42
0.0000000001
 43
0.0000000001
 12
1.0
 22
0.0
 32
0.0
 13
1.0
 23
0.0
 33
0.0
 40
0.0
 40
0.0
 40
0.0
 40
0.0
 40
1.0
 40
1.0
 40
1.0
 40
2.0
 40
2.0
 40
2.0
 40
3.0
 40
3.0
 40
3.0
 40
4.0
 40
4.0
 40
4.0
 40
4.0
 10
255.2010176748529
 20
332.6048330988601
 30
0.0
 10
284.744219524948
 20
332.6048330988601
 30
0.0
 10
314.2895027869576
 20
332.6048330988601
 30
0.0
 10
343.8803617926112
 20
332.6048330988601
 30
0.0
 10
343.8803617926112
 20
332.6048330988601
 30
0.0
 10
343.8803617926112
 20
331.771514718407
 30
0.0
 10
343.8803617926112
 20
331.771514718407
 30
0.0
 10
314.2972542520182
 20
331.771514718407
 30
0.0
 10
284.7609425930884
 20
331.771514718407
 30
0.0
 10
255.2010176748529
 20
331.771514718407
 30
0.0
 10
255.2010176748529
 20
331.771514718407
 30
0.0
 10
255.2010176748529
 20
332.6048330988601
 30
0.0
 10
255.2010176748529
 20
332.6048330988601
 30
0.0
  0
SPLINE
  5
4F
330
1F
100
AcDbEntity
  8
_U+0421_U+043B_U+043E_U+0439 1
 62
     7
370
    35
100
AcDbSpline
210
0.0
220
0.0
230
1.0
 70
    11
 71
     3
 72
    65
 73
    61
 74
     0
 42
0.0000000001
 43
0.0000000001
 12
1.0
 22
0.0
 32
0.0
 13
1.0
 23
0.0
 33
0.0
 40
0.0
 40
0.0
 40
0.0
 40
0.0
 40
1.0
 40
1.0
 40
1.0
 40
2.0
 40
2.0
 40
2.0
 40
3.0
 40
3.0
 40
3.0
 40
4.0
 40
4.0
 40
4.0
 40
5.0
 40
5.0
 40
5.0
 40
6.0
 40
6.0
 40
6.0
 40
7.0
 40
7.0
 40
7.0
 40
8.0
 40
8.0
 40
8.0
 40
9.0
 40
9.0
 40
9.0
 40
10.0
 40
10.0
 40
10.0
 40
11.0
 40
11.0
 40
11.0
 40
12.0
 40
12.0
 40
12.0
 40
13.0
 40
13.0
 40
13.0
 40
14.0
 40
14.0
 40
14.0
 40
15.0
 40
15.0
 40
15.0
 40
16.0
 40
16.0
 40
16.0
 40
17.0
 40
17.0
 40
17.0
 40
18.0
 40
18.0
 40
18.0
 40
19.0
 40
19.0
 40
19.0
 40
20.0
 40
20.0
 40
20.0
 40
20.0
 10
342.4817965317257
 20
322.9910606139405
 30
0.0
 10
342.5049073812594
 20
321.1801604755128
 30
0.0
 10
342.6742553609914
 20
319.5538241556407
 30
0.0
 10
342.8995143711157
 20
318.1527827323053
 30
0.0
 10
342.6038103336099
 20
318.2864955046049
 30
0.0
 10
342.0382045890544
 20
318.4945290368165
 30
0.0
 10
341.3058705728658
 20
318.4710952095721
 30
0.0
 10
340.6961245411587
 20
318.4515730012707
 30
0.0
 10
340.2217061703047
 20
318.2796411998517
 30
0.0
 10
339.9416844949815
 20
318.1527827323053
 30
0.0
 10
339.9884444902332
 20
319.0534599086807
 30
0.0
 10
339.9618167722926
 20
320.239326403753
 30
0.0
 10
339.6889723794333
 20
321.5946485377942
 30
0.0
 10
339.3754686814169
 20
323.1517958547161
 30
0.0
 10
338.8460723268911
 20
324.3905589215464
 30
0.0
 10
338.3933293490778
 20
325.2584000306501
 30
0.0
 10
338.3794413075102
 20
325.2578976208775
 30
0.0
 10
338.3618210790621
 20
325.2572516654561
 30
0.0
 10
338.3479330374944
 20
325.2567133692711
 30
0.0
 10
338.3328248579086
 20
325.2561391866744
 30
0.0
 10
338.3177166783223
 20
325.2555650040771
 30
0.0
 10
338.3026084987364
 20
325.2549908214797
 30
0.0
 10
338.3026084987364
 20
322.9025288347507
 30
0.0
 10
338.3026084987364
 20
320.5501386208451
 30
0.0
 10
338.3026084987364
 20
318.1527468458929
 30
0.0
 10
337.6471790641469
 20
318.1527468458929
 30
0.0
 10
337.1082369239444
 20
318.1527468458929
 30
0.0
 10
336.538288923498
 20
318.1527468458929
 30
0.0
 10
336.7498034377048
 20
319.7006713548487
 30
0.0
 10
336.8988755944768
 20
321.4872405057245
 30
0.0
 10
336.8961482271408
 20
323.4687805347277
 30
0.0
 10
336.893492632629
 20
325.4067544591759
 30
0.0
 10
336.7461430236484
 20
327.1567912423113
 30
0.0
 10
336.538288923498
 20
328.6779803740894
 30
0.0
 10
336.8525462361736
 20
328.5527367950972
 30
0.0
 10
337.3895505101106
 20
328.3846089533841
 30
0.0
 10
338.0720741860008
 20
328.3929704874545
 30
0.0
 10
338.7033879515114
 20
328.4007219525151
 30
0.0
 10
339.2023167419791
 20
328.5563254363289
 30
0.0
 10
339.5074589059251
 20
328.6779803740894
 30
0.0
 10
339.4898745638887
 20
327.6976353623664
 30
0.0
 10
339.562185684711
 20
326.4066575656126
 30
0.0
 10
339.9094584967195
 20
324.9386879833027
 30
0.0
 10
340.2226033306128
 20
323.6150176649266
 30
0.0
 10
340.6694968232181
 20
322.5269416434226
 30
0.0
 10
341.0782071731156
 20
321.7041738681909
 30
0.0
 10
341.0900855755935
 20
321.7050351420866
 30
0.0
 10
341.1019639780707
 20
321.7058964159822
 30
0.0
 10
341.1138423805486
 20
321.7067576898779
 30
0.0
 10
341.1257207830258
 20
321.7076189637737
 30
0.0
 10
341.1375991855031
 20
321.7085161240817
 30
0.0
 10
341.149477587981
 20
321.7094132843898
 30
0.0
 10
341.149477587981
 20
324.015043503043
 30
0.0
 10
341.149477587981
 20
326.3207454945216
 30
0.0
 10
341.149477587981
 20
328.6755042116394
 30
0.0
 10
341.7470581259125
 20
328.6755042116394
 30
0.0
 10
342.3016467418858
 20
328.6755042116394
 30
0.0
 10
342.8995143711157
 20
328.6755042116394
 30
0.0
 10
342.6418140442552
 20
327.0720993092391
 30
0.0
 10
342.4541639942406
 20
325.1546524126368
 30
0.0
 10
342.4817965317257
 20
322.9910606139405
 30
0.0
  0
SPLINE
  5
50
330
1F
100
AcDbEntity
  8
_U+0421_U+043B_U+043E_U+0439 1
 62
     7
370
    35
100
AcDbSpline
210
0.0
220
0.0
230
1.0
 70
    11
 71
     3
 72
    35
 73
    31
 74
     0
 42
0.0000000001
 43
0.0000000001
 12
1.0
 22
0.0
 32
0.0
 13
1.0
 23
0.0
 33
0.0
 40
0.0
 40
0.0
 40
0.0
 40
0.0
 40
1.0
 40
1.0
 40
1.0
 40
2.0
 40
2.0
 40
2.0
 40
3.0
 40
3.0
 40
3.0
 40
4.0
 40
4.0
 40
4.0
 40
5.0
 40
5.0
 40
5.0
 40
6.0
 40
6.0
 40
6.0
 40
7.0
 40
7.0
 40
7.0
 40
8.0
 40
8.0
 40
8.0
 40
9.0
 40
9.0
 40
9.0
 40
10.0
 40
10.0
 40
10.0
 40
10.0
 10
334.581043995635
 20
318.3608521509293
 30
0.0
 10
334.1622136774627
 20
318.0498605017752
 30
0.0
 10
333.6736560601558
 20
317.9938059257334
 30
0.0
 10
333.3410966771983
 20
317.9917604002306
 30
0.0
 10
333.3410966771983
 20
318.8615752620124
 30
0.0
 10
333.3410966771983
 20
319.7313542373811
 30
0.0
 10
333.3410966771983
 20
320.6011690991629
 30
0.0
 10
333.6240251519187
 20
320.6915310853812
 30
0.0
 10
333.8132900904881
 20
320.8793605674576
 30
0.0
 10
333.8756606750976
 20
321.2160468878319
 30
0.0
 10
334.0009042540904
 20
321.8911420763716
 30
0.0
 10
334.0285367915754
 20
322.5827450145784
 30
0.0
 10
334.0968645206307
 20
323.2551846086063
 30
0.0
 10
334.0289674285233
 20
323.9629005459442
 30
0.0
 10
333.9982486595785
 20
324.6531398004827
 30
0.0
 10
333.8869290085657
 20
325.3312853340698
 30
0.0
 10
333.830084931453
 20
325.6770868031729
 30
0.0
 10
333.6242404703929
 20
325.9265691416126
 30
0.0
 10
333.3410966771983
 20
326.0628657355992
 30
0.0
 10
333.3410966771983
 20
326.0628657355992
 30
0.0
 10
333.3410966771983
 20
328.7164506080954
 30
0.0
 10
333.3410966771983
 20
328.7164506080954
 30
0.0
 10
333.7372826691964
 20
328.6764372583598
 30
0.0
 10
334.264561725396
 20
328.5547105477746
 30
0.0
 10
334.6912870542777
 20
328.1724843701682
 30
0.0
 10
335.4898673876065
 20
327.4572322862434
 30
0.0
 10
335.2846329955555
 20
326.4135477567782
 30
0.0
 10
335.2425023474937
 20
323.7627620244427
 30
0.0
 10
335.1869860676362
 20
320.2703322639961
 30
0.0
 10
335.4948197125064
 20
319.0393206622271
 30
0.0
 10
334.581043995635
 20
318.3608521509293
 30
0.0
  0
SPLINE
  5
51
330
1F
100
AcDbEntity
  8
_U+0421_U+043B_U+043E_U+0439 1
 62
     7
370
    35
100
AcDbSpline
210
0.0
220
0.0
230
1.0
 70
    11
 71
     3
 72
    41
 73
    37
 74
     0
 42
0.0000000001
 43
0.0000000001
 12
1.0
 22
0.0
 32
0.0
 13
1.0
 23
0.0
 33
0.0
 40
0.0
 40
0.0
 40
0.0
 40
0.0
 40
1.0
 40
1.0
 40
1.0
 40
2.0
 40
2.0
 40
2.0
 40
3.0
 40
3.0
 40
3.0
 40
4.0
 40
4.0
 40
4.0
 40
5.0
 40
5.0
 40
5.0
 40
6.0
 40
6.0
 40
6.0
 40
7.0
 40
7.0
 40
7.0
 40
8.0
 40
8.0
 40
8.0
 40
9.0
 40
9.0
 40
9.0
 40
10.0
 40
10.0
 40
10.0
 40
11.0
 40
11.0
 40
11.0
 40
12.0
 40
12.0
 40
12.0
 40
12.0
 10
331.7700613187088
 20
321.2535840751169
 30
0.0
 10
331.8088186440132
 20
320.9858714392193
 30
0.0
 10
331.9746138689252
 20
320.7772278379986
 30
0.0
 10
332.2317041267767
 20
320.6545680806929
 30
0.0
 10
332.2317041267767
 20
320.6545680806929
 30
0.0
 10
332.2317041267767
 20
318.0351470727243
 30
0.0
 10
332.2317041267767
 20
318.0351470727243
 30
0.0
 10
332.0816271504602
 20
318.0361518922695
 30
0.0
 10
331.842013575408
 20
318.0559611918692
 30
0.0
 10
331.5824471551066
 20
318.1685727537255
 30
0.0
 10
331.049067408813
 20
318.4000042267686
 30
0.0
 10
330.7916182868385
 20
318.8670658830973
 30
0.0
 10
330.6857892569107
 20
319.0590581890021
 30
0.0
 10
330.0999435758075
 20
320.1219060626462
 30
0.0
 10
330.3848816896183
 20
321.9435003519447
 30
0.0
 10
330.3183123947669
 20
324.0199958279436
 30
0.0
 10
330.2505947347214
 20
326.132449489085
 30
0.0
 10
329.8589304306747
 20
327.2673572786648
 30
0.0
 10
330.5020508258385
 20
327.9519982528819
 30
0.0
 10
331.1667748412187
 20
328.6596065309827
 30
0.0
 10
331.9302941497118
 20
328.7246685965163
 30
0.0
 10
331.9303300361242
 20
328.7246685965163
 30
0.0
 10
332.0560042520642
 20
328.7353627473871
 30
0.0
 10
332.1609002352722
 20
328.7306975137856
 30
0.0
 10
332.2317041267767
 20
328.7247403693411
 30
0.0
 10
332.2317041267767
 20
328.7247403693411
 30
0.0
 10
332.2317041267767
 20
326.0402572958382
 30
0.0
 10
332.2317041267767
 20
326.0402572958382
 30
0.0
 10
331.9180568831114
 20
325.8659211047939
 30
0.0
 10
331.7256339402582
 20
325.5388523429212
 30
0.0
 10
331.7019489081278
 20
325.1110504216695
 30
0.0
 10
331.6842210204425
 20
324.7902617819527
 30
0.0
 10
331.6018258177585
 20
324.4700114384203
 30
0.0
 10
331.6108691936627
 20
324.1511247785561
 30
0.0
 10
331.6381428670253
 20
323.1836271024432
 30
0.0
 10
331.631970404106
 20
322.2084497340938
 30
0.0
 10
331.7700613187088
 20
321.2535840751169
 30
0.0
  0
SPLINE
  5
52
330
1F
100
AcDbEntity
  8
_U+0421_U+043B_U+043E_U+0439 1
 62
     7
370
    35
100
AcDbSpline
210
0.0
220
0.0
230
1.0
 70
    11
 71
     3
 72
   110
 73
   106
 74
     0
 42
0.0000000001
 43
0.0000000001
 12
1.0
 22
0.0
 32
0.0
 13
1.0
 23
0.0
 33
0.0
 40
0.0
 40
0.0
 40
0.0
 40
0.0
 40
1.0
 40
1.0
 40
1.0
 40
2.0
 40
2.0
 40
2.0
 40
3.0
 40
3.0
 40
3.0
 40
4.0
 40
4.0
 40
4.0
 40
5.0
 40
5.0
 40
5.0
 40
6.0
 40
6.0
 40
6.0
 40
7.0
 40
7.0
 40
7.0
 40
8.0
 40
8.0
 40
8.0
 40
9.0
 40
9.0
 40
9.0
 40
10.0
 40
10.0
 40
10.0
 40
11.0
 40
11.0
 40
11.0
 40
12.0
 40
12.0
 40
12.0
 40
13.0
 40
13.0
 40
13.0
 40
14.0
 40
14.0
 40
14.0
 40
15.0
 40
15.0
 40
15.0
 40
16.0
 40
16.0
 40
16.0
 40
17.0
 40
17.0
 40
17.0
 40
18.0
 40
18.0
 40
18.0
 40
19.0
 40
19.0
 40
19.0
 40
20.0
 40
20.0
 40
20.0
 40
21.0
 40
21.0
 40
21.0
 40
22.0
 40
22.0
 40
22.0
 40
23.0
 40
23.0
 40
23.0
 40
24.0
 40
24.0
 40
24.0
 40
25.0
 40
25.0
 40
25.0
 40
26.0
 40
26.0
 40
26.0
 40
27.0
 40
27.0
 40
27.0
 40
28.0
 40
28.0
 40
28.0
 40
29.0
 40
29.0
 40
29.0
 40
30.0
 40
30.0
 40
30.0
 40
31.0
 40
31.0
 40
31.0
 40
32.0
 40
32.0
 40
32.0
 40
33.0
 40
33.0
 40
33.0
 40
34.0
 40
34.0
 40
34.0
 40
35.0
 40
35.0
 40
35.0
 40
35.0
 10
327.6724789873319
 20
322.219359203439
 30
0.0
 10
327.545728179022
 20
322.3518159513073
 30
0.0
 10
327.4053405340312
 20
322.4029182024493
 30
0.0
 10
326.2025715387563
 20
322.550088379368
 30
0.0
 10
325.253914229111
 20
322.6661809232194
 30
0.0
 10
325.0117886051966
 20
322.674721889351
 30
0.0
 10
324.7326640901813
 20
322.8808175552977
 30
0.0
 10
324.3988486827926
 20
323.1272854351024
 30
0.0
 10
324.2643105230097
 20
323.4700724455712
 30
0.0
 10
324.1814487969654
 20
323.6892666520139
 30
0.0
 10
323.884345189379
 20
324.475035536145
 30
0.0
 10
324.256989694897
 20
324.7773785599303
 30
0.0
 10
324.2181964831801
 20
326.0411185697338
 30
0.0
 10
324.1953368385331
 20
326.7856180796987
 30
0.0
 10
324.0544467837695
 20
327.0576370850741
 30
0.0
 10
324.1814487969654
 20
327.7315121355957
 30
0.0
 10
324.2675403001182
 20
328.1883461644132
 30
0.0
 10
324.4157511829945
 20
328.5060126862586
 30
0.0
 10
324.688954439977
 20
328.6669273590954
 30
0.0
 10
324.8711138689073
 20
328.7742277319287
 30
0.0
 10
325.0518019549315
 20
328.7782111236958
 30
0.0
 10
325.1410514623688
 20
328.7804360812598
 30
0.0
 10
327.0071090165302
 20
328.8272678493356
 30
0.0
 10
327.1697103507461
 20
329.0706494976813
 30
0.0
 10
327.716116864711
 20
328.7950418510736
 30
0.0
 10
328.456274118785
 20
328.4217155037219
 30
0.0
 10
328.7540236817935
 20
327.6744168535963
 30
0.0
 10
328.8484049461919
 20
327.4375306458807
 30
0.0
 10
329.1797800775431
 20
326.605898926806
 30
0.0
 10
329.0180041308099
 20
325.8685408128933
 30
0.0
 10
328.9513271767219
 20
325.6183766326192
 30
0.0
 10
328.8191934065642
 20
325.6657108104676
 30
0.0
 10
328.6027983402822
 20
325.7239185712487
 30
0.0
 10
328.3339373391907
 20
325.7103893938048
 30
0.0
 10
327.9496297496691
 20
325.6910107311523
 30
0.0
 10
327.670864098777
 20
325.5357302250492
 30
0.0
 10
327.5421395377898
 20
325.4522943164082
 30
0.0
 10
327.4948053599414
 20
325.5569032083172
 30
0.0
 10
327.3634969772676
 20
325.7127220106053
 30
0.0
 10
327.3509008465435
 20
325.9369403147726
 30
0.0
 10
327.3160551401821
 20
326.5563756778067
 30
0.0
 10
326.8839827358643
 20
326.6198946276108
 30
0.0
 10
326.4038225390402
 20
326.5985063258685
 30
0.0
 10
326.1351768564222
 20
326.5865202641542
 30
0.0
 10
325.9279328252815
 20
326.5045198120056
 30
0.0
 10
325.785356109139
 20
326.360292320897
 30
0.0
 10
325.6501361075223
 20
326.2234933171378
 30
0.0
 10
325.6190943608661
 20
326.0710119511954
 30
0.0
 10
325.5556112974743
 20
325.767520562216
 30
0.0
 10
325.4902980270541
 20
325.4552728886308
 30
0.0
 10
325.4335974955907
 20
325.1841510435628
 30
0.0
 10
325.5411131868976
 20
324.8651926108739
 30
0.0
 10
325.5685662923215
 20
324.7836945684979
 30
0.0
 10
325.6452914418588
 20
324.5640697251073
 30
0.0
 10
325.8350946766126
 20
324.3874726900873
 30
0.0
 10
326.0606766644483
 20
324.1776089508472
 30
0.0
 10
326.3163673522191
 20
324.1491151394663
 30
0.0
 10
327.121263694116
 20
324.0934912003723
 30
0.0
 10
328.1536081172889
 20
324.0221490126822
 30
0.0
 10
328.327226580087
 20
324.0279267250655
 30
0.0
 10
328.5544234564769
 20
323.8730050830861
 30
0.0
 10
328.8742072766492
 20
323.6549592418374
 30
0.0
 10
328.9988766730439
 20
323.323907088197
 30
0.0
 10
329.0688910634782
 20
323.138051358798
 30
0.0
 10
329.3263401854527
 20
322.4545228633631
 30
0.0
 10
328.991448185694
 20
322.1898605725129
 30
0.0
 10
329.0321433772635
 20
321.1904239894365
 30
0.0
 10
329.0669890836249
 20
320.3351072382314
 30
0.0
 10
329.3270220272865
 20
320.1661540090349
 30
0.0
 10
329.1851630393908
 20
319.4950780986746
 30
0.0
 10
329.1394078636844
 20
319.2785753731562
 30
0.0
 10
329.0686757450039
 20
318.933276313825
 30
0.0
 10
328.8032598394945
 20
318.6280264906418
 30
0.0
 10
328.4407711886631
 20
318.2111699251476
 30
0.0
 10
327.8493990000626
 20
318.008734673258
 30
0.0
 10
327.060830975771
 20
317.9971074756667
 30
0.0
 10
326.102986744572
 20
317.9829682292131
 30
0.0
 10
325.5121169657442
 20
317.7782362469347
 30
0.0
 10
324.9769787852475
 20
318.153356914902
 30
0.0
 10
324.6153872947235
 20
318.4068585315218
 30
0.0
 10
324.4380725314567
 20
318.7619904678281
 30
0.0
 10
324.3651872280376
 20
318.9120674441446
 30
0.0
 10
324.3117164736828
 20
319.0221669571386
 30
0.0
 10
324.1738767639667
 20
319.3303235797196
 30
0.0
 10
324.1447011107514
 20
320.198236461648
 30
0.0
 10
324.1323561849139
 20
320.5652109140192
 30
0.0
 10
324.13802623806
 20
321.0747979689452
 30
0.0
 10
324.2181964831801
 20
321.6849746376008
 30
0.0
 10
324.5931018326738
 20
321.6849746376008
 30
0.0
 10
324.967971295755
 20
321.6849746376008
 30
0.0
 10
325.3428766452494
 20
321.6849746376008
 30
0.0
 10
325.412352739498
 20
321.4838312965541
 30
0.0
 10
325.5213038872978
 20
321.2885374407154
 30
0.0
 10
325.5420462336181
 20
321.0849179372194
 30
0.0
 10
325.5679562233124
 20
320.8304832738791
 30
0.0
 10
325.6399443664234
 20
320.6502617112145
 30
0.0
 10
325.7688842458849
 20
320.5332002342308
 30
0.0
 10
325.9477780112936
 20
320.3708142184885
 30
0.0
 10
326.190334272156
 20
320.3602994996796
 30
0.0
 10
326.4333929427903
 20
320.3618426154091
 30
0.0
 10
326.9210892862021
 20
320.3649288468682
 30
0.0
 10
327.4051611019693
 20
320.3679791919155
 30
0.0
 10
327.709226673546
 20
320.749451754864
 30
0.0
 10
328.0496092943889
 20
321.1764641750441
 30
0.0
 10
328.0024904350148
 20
321.8744190082309
 30
0.0
 10
327.6724789873319
 20
322.219359203439
 30
0.0
  0
SPLINE
  5
53
330
1F
100
AcDbEntity
  8
_U+0421_U+043B_U+043E_U+0439 1
 62
     7
370
    35
100
AcDbSpline
210
0.0
220
0.0
230
1.0
 70
    11
 71
     3
 72
    44
 73
    40
 74
     0
 42
0.0000000001
 43
0.0000000001
 12
1.0
 22
0.0
 32
0.0
 13
1.0
 23
0.0
 33
0.0
 40
0.0
 40
0.0
 40
0.0
 40
0.0
 40
1.0
 40
1.0
 40
1.0
 40
2.0
 40
2.0
 40
2.0
 40
3.0
 40
3.0
 40
3.0
 40
4.0
 40
4.0
 40
4.0
 40
5.0
 40
5.0
 40
5.0
 40
6.0
 40
6.0
 40
6.0
 40
7.0
 40
7.0
 40
7.0
 40
8.0
 40
8.0
 40
8.0
 40
9.0
 40
9.0
 40
9.0
 40
10.0
 40
10.0
 40
10.0
 40
11.0
 40
11.0
 40
11.0
 40
12.0
 40
12.0
 40
12.0
 40
13.0
 40
13.0
 40
13.0
 40
13.0
 10
322.8217844070339
 20
321.5211531653655
 30
0.0
 10
322.9005909684857
 20
320.8828415494522
 30
0.0
 10
323.0618286190339
 20
320.1692043540822
 30
0.0
 10
322.753671996453
 20
319.3449293495333
 30
0.0
 10
322.5946951898811
 20
318.9196753635564
 30
0.0
 10
322.4080858458235
 20
318.7281495810112
 30
0.0
 10
322.3416600966215
 20
318.6622980144066
 30
0.0
 10
321.9523284093752
 20
318.276303763506
 30
0.0
 10
321.3895935778058
 20
318.132542795757
 30
0.0
 10
320.7615454758155
 20
318.1234276470281
 30
0.0
 10
320.608454040864
 20
318.1212026894648
 30
0.0
 10
320.454931968964
 20
318.1205567340427
 30
0.0
 10
320.3016611019506
 20
318.1193365960239
 30
0.0
 10
320.3016611019506
 20
318.1193365960239
 30
0.0
 10
320.3016611019506
 20
321.0173438228227
 30
0.0
 10
320.3016611019506
 20
321.0173438228227
 30
0.0
 10
321.090480331129
 20
321.0817599329349
 30
0.0
 10
321.3664827282721
 20
321.437322506189
 30
0.0
 10
321.3675952070544
 20
322.3316477875838
 30
0.0
 10
321.368600026599
 20
323.1249887047143
 30
0.0
 10
321.3421158543079
 20
323.9192985549769
 30
0.0
 10
321.3730499417263
 20
324.7114911069127
 30
0.0
 10
321.4261618319586
 20
326.0702583365368
 30
0.0
 10
321.2079006722357
 20
326.5123789363039
 30
0.0
 10
320.301696988363
 20
326.5788405719176
 30
0.0
 10
320.301696988363
 20
326.5788405719176
 30
0.0
 10
320.301696988363
 20
328.6778368284405
 30
0.0
 10
320.301696988363
 20
328.6778368284405
 30
0.0
 10
320.7198095782891
 20
328.6467591953726
 30
0.0
 10
321.1344770726317
 20
328.6014705430263
 30
0.0
 10
321.5430797632928
 20
328.5260014179196
 30
0.0
 10
322.1048815481424
 20
328.4222537999062
 30
0.0
 10
322.6627358276373
 20
327.7654965680615
 30
0.0
 10
322.9206873593838
 20
327.1526643048946
 30
0.0
 10
323.1472023939399
 20
326.614511665763
 30
0.0
 10
323.0655608059151
 20
326.2787583921087
 30
0.0
 10
322.9687751518914
 20
325.0121833557314
 30
0.0
 10
322.8214614293225
 20
323.0844370587944
 30
0.0
 10
322.7477866248325
 20
322.1205639103255
 30
0.0
 10
322.8217844070339
 20
321.5211531653655
 30
0.0
  0
SPLINE
  5
54
330
1F
100
AcDbEntity
  8
_U+0421_U+043B_U+043E_U+0439 1
 62
     7
370
    35
100
AcDbSpline
210
0.0
220
0.0
230
1.0
 70
    11
 71
     3
 72
    29
 73
    25
 74
     0
 42
0.0000000001
 43
0.0000000001
 12
1.0
 22
0.0
 32
0.0
 13
1.0
 23
0.0
 33
0.0
 40
0.0
 40
0.0
 40
0.0
 40
0.0
 40
1.0
 40
1.0
 40
1.0
 40
2.0
 40
2.0
 40
2.0
 40
3.0
 40
3.0
 40
3.0
 40
4.0
 40
4.0
 40
4.0
 40
5.0
 40
5.0
 40
5.0
 40
6.0
 40
6.0
 40
6.0
 40
7.0
 40
7.0
 40
7.0
 40
8.0
 40
8.0
 40
8.0
 40
8.0
 10
318.9265296683096
 20
321.7416392826518
 30
0.0
 10
319.0294160124272
 20
321.4244392841666
 30
0.0
 10
319.1416687101604
 20
321.1718348278549
 30
0.0
 10
319.2228078884133
 20
321.0040299638524
 30
0.0
 10
319.2228078884133
 20
321.0040299638524
 30
0.0
 10
319.2228078884133
 20
318.115532636318
 30
0.0
 10
319.2228078884133
 20
318.115532636318
 30
0.0
 10
318.6134566072411
 20
318.1162862509772
 30
0.0
 10
317.9958873376479
 20
318.1195878009105
 30
0.0
 10
317.3584011092179
 20
318.1195878009105
 30
0.0
 10
317.3584011092179
 20
321.686230662032
 30
0.0
 10
317.3584011092179
 20
325.1630139467071
 30
0.0
 10
317.3584011092179
 20
328.7827686980603
 30
0.0
 10
317.9821428417298
 20
328.7537365904945
 30
0.0
 10
318.6050591867583
 20
328.7482100829972
 30
0.0
 10
319.2228078884133
 20
328.7305898545491
 30
0.0
 10
319.2228078884133
 20
328.7305898545491
 30
0.0
 10
319.2228078884133
 20
326.521314652971
 30
0.0
 10
319.2228078884133
 20
326.521314652971
 30
0.0
 10
319.0062333900694
 20
325.9902316370662
 30
0.0
 10
318.8863010001004
 20
325.5299883990783
 30
0.0
 10
318.8162866096661
 20
325.1959217868036
 30
0.0
 10
318.6970001751192
 20
324.6267274010158
 30
0.0
 10
318.4299334946431
 20
323.2726254049933
 30
0.0
 10
318.9265296683096
 20
321.7416392826518
 30
0.0
  0
SPLINE
  5
55
330
1F
100
AcDbEntity
  8
_U+0421_U+043B_U+043E_U+0439 1
 62
     7
370
    35
100
AcDbSpline
210
0.0
220
0.0
230
1.0
 70
    11
 71
     3
 72
    23
 73
    19
 74
     0
 42
0.0000000001
 43
0.0000000001
 12
1.0
 22
0.0
 32
0.0
 13
1.0
 23
0.0
 33
0.0
 40
0.0
 40
0.0
 40
0.0
 40
0.0
 40
1.0
 40
1.0
 40
1.0
 40
2.0
 40
2.0
 40
2.0
 40
3.0
 40
3.0
 40
3.0
 40
4.0
 40
4.0
 40
4.0
 40
5.0
 40
5.0
 40
5.0
 40
6.0
 40
6.0
 40
6.0
 40
6.0
 10
316.4669826272209
 20
318.1501271377934
 30
0.0
 10
315.8552628428358
 20
318.1501271377934
 30
0.0
 10
315.243578944863
 20
318.1501271377934
 30
0.0
 10
314.6318591604779
 20
318.1501271377934
 30
0.0
 10
314.8246409674543
 20
319.6998818537778
 30
0.0
 10
314.9570618289103
 20
321.460074491599
 30
0.0
 10
314.9577795571565
 20
323.3952851622989
 30
0.0
 10
314.9584972854034
 20
325.3429843044858
 30
0.0
 10
314.8256099005871
 20
327.1137634339407
 30
0.0
 10
314.6318591604779
 20
328.6715208198723
 30
0.0
 10
315.243578944863
 20
328.6715208198723
 30
0.0
 10
315.8552628428358
 20
328.6715208198723
 30
0.0
 10
316.4669826272209
 20
328.6715208198723
 30
0.0
 10
316.2907803427357
 20
327.1134763426423
 30
0.0
 10
316.1728217054441
 20
325.3696479088381
 30
0.0
 10
316.1704532022312
 20
323.4687805347277
 30
0.0
 10
316.168048812606
 20
321.5220144392612
 30
0.0
 10
316.2872993607412
 20
319.7388903839682
 30
0.0
 10
316.4669826272209
 20
318.1501271377934
 30
0.0
  0
SPLINE
  5
56
330
1F
100
AcDbEntity
  8
_U+0421_U+043B_U+043E_U+0439 1
 62
     7
370
    35
100
AcDbSpline
210
0.0
220
0.0
230
1.0
 70
    11
 71
     3
 72
    41
 73
    37
 74
     0
 42
0.0000000001
 43
0.0000000001
 12
1.0
 22
0.0
 32
0.0
 13
1.0
 23
0.0
 33
0.0
 40
0.0
 40
0.0
 40
0.0
 40
0.0
 40
1.0
 40
1.0
 40
1.0
 40
2.0
 40
2.0
 40
2.0
 40
3.0
 40
3.0
 40
3.0
 40
4.0
 40
4.0
 40
4.0
 40
5.0
 40
5.0
 40
5.0
 40
6.0
 40
6.0
 40
6.0
 40
7.0
 40
7.0
 40
7.0
 40
8.0
 40
8.0
 40
8.0
 40
9.0
 40
9.0
 40
9.0
 40
10.0
 40
10.0
 40
10.0
 40
11.0
 40
11.0
 40
11.0
 40
12.0
 40
12.0
 40
12.0
 40
12.0
 10
309.1883928214995
 20
323.7137770716276
 30
0.0
 10
308.8265142396771
 20
325.7038939531747
 30
0.0
 10
308.2685164145333
 20
327.3757342438673
 30
0.0
 10
307.7322298688426
 20
328.677693282791
 30
0.0
 10
308.373878921101
 20
328.677693282791
 30
0.0
 10
308.9751557595012
 20
328.677693282791
 30
0.0
 10
309.652762996904
 20
328.677693282791
 30
0.0
 10
309.7016761768942
 20
327.3311274333556
 30
0.0
 10
309.8474108973206
 20
325.7889088639582
 30
0.0
 10
310.1683430826869
 20
324.1057284669727
 30
0.0
 10
310.3941762754085
 20
322.9212974283928
 30
0.0
 10
310.6737314273716
 20
321.8403628029404
 30
0.0
 10
310.9718757409156
 20
320.8718244208706
 30
0.0
 10
311.3262181761509
 20
321.8874816623152
 30
0.0
 10
311.6682515719605
 20
323.0688623558477
 30
0.0
 10
311.9322320209769
 20
324.3997099566877
 30
0.0
 10
312.2494679058744
 20
325.9991314673209
 30
0.0
 10
312.3817811080939
 20
327.4505932999644
 30
0.0
 10
312.4197489323268
 20
328.6889257298468
 30
0.0
 10
313.0569121830461
 20
328.6889257298468
 30
0.0
 10
313.694039547353
 20
328.6889257298468
 30
0.0
 10
314.3312027980716
 20
328.6889257298468
 30
0.0
 10
313.8090913852469
 20
327.3566785589261
 30
0.0
 10
313.2842167186731
 20
325.7187509278751
 30
0.0
 10
312.9121463957525
 20
323.8117469772577
 30
0.0
 10
312.4885790711546
 20
321.6407984640362
 30
0.0
 10
312.3773311929659
 20
319.7070950226541
 30
0.0
 10
312.3931571007986
 20
318.1392176684484
 30
0.0
 10
312.084533954858
 20
318.2445084021919
 30
0.0
 10
311.6409061257737
 20
318.3577659194696
 30
0.0
 10
311.0992725046469
 20
318.3730894175297
 30
0.0
 10
310.4346561485044
 20
318.3918938975849
 30
0.0
 10
309.8979389658651
 20
318.255489644361
 30
0.0
 10
309.5565156390646
 20
318.1392176684484
 30
0.0
 10
309.6279654859912
 20
319.6299751225807
 30
0.0
 10
309.5836457667778
 20
321.5400653046578
 30
0.0
 10
309.1883928214995
 20
323.7137770716276
 30
0.0
  0
SPLINE
  5
57
330
1F
100
AcDbEntity
  8
_U+0421_U+043B_U+043E_U+0439 1
 62
     7
370
    35
100
AcDbSpline
210
0.0
220
0.0
230
1.0
 70
    11
 71
     3
 72
    59
 73
    55
 74
     0
 42
0.0000000001
 43
0.0000000001
 12
1.0
 22
0.0
 32
0.0
 13
1.0
 23
0.0
 33
0.0
 40
0.0
 40
0.0
 40
0.0
 40
0.0
 40
1.0
 40
1.0
 40
1.0
 40
2.0
 40
2.0
 40
2.0
 40
3.0
 40
3.0
 40
3.0
 40
4.0
 40
4.0
 40
4.0
 40
5.0
 40
5.0
 40
5.0
 40
6.0
 40
6.0
 40
6.0
 40
7.0
 40
7.0
 40
7.0
 40
8.0
 40
8.0
 40
8.0
 40
9.0
 40
9.0
 40
9.0
 40
10.0
 40
10.0
 40
10.0
 40
11.0
 40
11.0
 40
11.0
 40
12.0
 40
12.0
 40
12.0
 40
13.0
 40
13.0
 40
13.0
 40
14.0
 40
14.0
 40
14.0
 40
15.0
 40
15.0
 40
15.0
 40
16.0
 40
16.0
 40
16.0
 40
17.0
 40
17.0
 40
17.0
 40
18.0
 40
18.0
 40
18.0
 40
18.0
 10
305.2236619885265
 20
325.7228778652918
 30
0.0
 10
305.0070516037703
 20
324.3296955662541
 30
0.0
 10
304.8187914847466
 20
323.1188162417956
 30
0.0
 10
304.6247536533391
 20
321.870902139824
 30
0.0
 10
304.729793182196
 20
321.870902139824
 30
0.0
 10
304.8356222121238
 20
321.870902139824
 30
0.0
 10
304.9404823089195
 20
321.870902139824
 30
0.0
 10
304.9404823089195
 20
321.870902139824
 30
0.0
 10
304.9404823089195
 20
319.9399978386026
 30
0.0
 10
304.9404823089195
 20
319.9399978386026
 30
0.0
 10
304.7000792327957
 20
319.9399978386026
 30
0.0
 10
304.4610039539285
 20
319.9399978386026
 30
0.0
 10
304.2104809095313
 20
319.9399978386026
 30
0.0
 10
304.1009914655471
 20
319.35045585703
 30
0.0
 10
303.9917891128612
 20
318.7624928776
 30
0.0
 10
303.8779215265737
 20
318.1495529551961
 30
0.0
 10
303.252708451157
 20
318.1495529551961
 30
0.0
 10
302.6456539003735
 20
318.1495529551961
 30
0.0
 10
301.99155226304
 20
318.1495529551961
 30
0.0
 10
302.5359850243274
 20
319.303695861779
 30
0.0
 10
303.1113877594457
 20
320.7954222490441
 30
0.0
 10
303.5047387248715
 20
322.5868360655827
 30
0.0
 10
304.0415276803348
 20
325.0314543591468
 30
0.0
 10
304.0469824150073
 20
327.1582984716284
 30
0.0
 10
303.927373002749
 20
328.7019524975187
 30
0.0
 10
304.1675607603985
 20
328.5762423951658
 30
0.0
 10
304.5428249740152
 20
328.4192752276837
 30
0.0
 10
305.0236670126739
 20
328.3684600678408
 30
0.0
 10
305.8518177497534
 20
328.2809331081955
 30
0.0
 10
306.4942921894956
 20
328.5609188971058
 30
0.0
 10
306.7697204040414
 20
328.7019524975187
 30
0.0
 10
306.6984499891767
 20
327.093415838156
 30
0.0
 10
306.7611076650851
 20
325.028009263564
 30
0.0
 10
307.228528185537
 20
322.6848418576251
 30
0.0
 10
307.5833012577195
 20
320.9063112631089
 30
0.0
 10
308.0884742839306
 20
319.3829689465909
 30
0.0
 10
308.5907763971555
 20
318.1479380666418
 30
0.0
 10
307.9143534113599
 20
318.1479380666418
 30
0.0
 10
307.2379304255642
 20
318.1479380666418
 30
0.0
 10
306.5615074397685
 20
318.1479380666418
 30
0.0
 10
306.4525204055563
 20
318.7299439016273
 30
0.0
 10
306.3424567789747
 20
319.3179427674697
 30
0.0
 10
306.2259694845884
 20
319.9399978386026
 30
0.0
 10
306.0195508409311
 20
319.9399978386026
 30
0.0
 10
305.8126656739134
 20
319.9399978386026
 30
0.0
 10
305.6061393710196
 20
319.9399978386026
 30
0.0
 10
305.6061393710196
 20
319.9399978386026
 30
0.0
 10
305.6061393710196
 20
321.870902139824
 30
0.0
 10
305.6061393710196
 20
321.870902139824
 30
0.0
 10
305.7227702110554
 20
321.870902139824
 30
0.0
 10
305.8345922718401
 20
321.870902139824
 30
0.0
 10
305.9575750068564
 20
321.870902139824
 30
0.0
 10
305.7181049774538
 20
323.1279313905245
 30
0.0
 10
305.4874271190686
 20
324.3384518508599
 30
0.0
 10
305.2236619885265
 20
325.7228778652918
 30
0.0
  0
SPLINE
  5
58
330
1F
100
AcDbEntity
  8
_U+0421_U+043B_U+043E_U+0439 1
 62
     7
370
    35
100
AcDbSpline
210
0.0
220
0.0
230
1.0
 70
    11
 71
     3
 72
    47
 73
    43
 74
     0
 42
0.0000000001
 43
0.0000000001
 12
1.0
 22
0.0
 32
0.0
 13
1.0
 23
0.0
 33
0.0
 40
0.0
 40
0.0
 40
0.0
 40
0.0
 40
1.0
 40
1.0
 40
1.0
 40
2.0
 40
2.0
 40
2.0
 40
3.0
 40
3.0
 40
3.0
 40
4.0
 40
4.0
 40
4.0
 40
5.0
 40
5.0
 40
5.0
 40
6.0
 40
6.0
 40
6.0
 40
7.0
 40
7.0
 40
7.0
 40
8.0
 40
8.0
 40
8.0
 40
9.0
 40
9.0
 40
9.0
 40
10.0
 40
10.0
 40
10.0
 40
11.0
 40
11.0
 40
11.0
 40
12.0
 40
12.0
 40
12.0
 40
13.0
 40
13.0
 40
13.0
 40
14.0
 40
14.0
 40
14.0
 40
14.0
 10
299.6894747992057
 20
324.4421994688732
 30
0.0
 10
299.6894747992057
 20
325.7741954349073
 30
0.0
 10
299.540115551135
 20
326.1699866763706
 30
0.0
 10
298.5963029071526
 20
326.2457428927758
 30
0.0
 10
298.5963029071526
 20
326.2457428927758
 30
0.0
 10
298.5963029071526
 20
328.6916530971828
 30
0.0
 10
298.5963029071526
 20
328.6916530971828
 30
0.0
 10
299.1577099414667
 20
328.6657789939014
 30
0.0
 10
299.7153847888997
 20
328.6330864722792
 30
0.0
 10
300.2692915630392
 20
328.5744839609627
 30
0.0
 10
300.5110224364183
 20
328.5489328353914
 30
0.0
 10
300.7239365207058
 20
328.4800309237395
 30
0.0
 10
300.9096128180423
 20
328.3772881252713
 30
0.0
 10
301.505973217955
 20
328.0472766775878
 30
0.0
 10
301.7510056412673
 20
327.325672698683
 30
0.0
 10
301.8439514491727
 20
327.0038074665962
 30
0.0
 10
302.0141965892128
 20
326.4141937121996
 30
0.0
 10
301.941239512969
 20
326.1221142023373
 30
0.0
 10
301.838855578624
 20
324.6447064935876
 30
0.0
 10
301.7362204393923
 20
323.1635307115445
 30
0.0
 10
301.6869842816906
 20
322.4095571887282
 30
0.0
 10
301.7898706258089
 20
321.7538765492527
 30
0.0
 10
301.8938694487082
 20
321.0911621729628
 30
0.0
 10
302.0013851400151
 20
321.0008360731563
 30
0.0
 10
301.9760134465057
 20
320.5437149530404
 30
0.0
 10
301.965426954872
 20
320.3529427851538
 30
0.0
 10
301.8996830475039
 20
319.1686911786358
 30
0.0
 10
301.0010513966305
 20
318.5396741435133
 30
0.0
 10
300.4477546915008
 20
318.1523879817698
 30
0.0
 10
299.7960933302045
 20
318.0754116273459
 30
0.0
 10
299.2719005054649
 20
318.1087142179778
 30
0.0
 10
299.0470362458757
 20
318.1229970100803
 30
0.0
 10
298.8217413493387
 20
318.1303178381937
 30
0.0
 10
298.5963029071526
 20
318.1349471853829
 30
0.0
 10
298.5963029071526
 20
318.1349471853829
 30
0.0
 10
298.5963029071526
 20
320.7044501938161
 30
0.0
 10
298.5963029071526
 20
320.7044501938161
 30
0.0
 10
299.3860910694631
 20
320.7759718135674
 30
0.0
 10
299.6687324528851
 20
321.1412596045595
 30
0.0
 10
299.6863885677463
 20
322.0623202631321
 30
0.0
 10
299.7015326337448
 20
322.8553740889635
 30
0.0
 10
299.6894747992057
 20
323.6488944381552
 30
0.0
 10
299.6894747992057
 20
324.4421994688732
 30
0.0
  0
SPLINE
  5
59
330
1F
100
AcDbEntity
  8
_U+0421_U+043B_U+043E_U+0439 1
 62
     7
370
    35
100
AcDbSpline
210
0.0
220
0.0
230
1.0
 70
    11
 71
     3
 72
    35
 73
    31
 74
     0
 42
0.0000000001
 43
0.0000000001
 12
1.0
 22
0.0
 32
0.0
 13
1.0
 23
0.0
 33
0.0
 40
0.0
 40
0.0
 40
0.0
 40
0.0
 40
1.0
 40
1.0
 40
1.0
 40
2.0
 40
2.0
 40
2.0
 40
3.0
 40
3.0
 40
3.0
 40
4.0
 40
4.0
 40
4.0
 40
5.0
 40
5.0
 40
5.0
 40
6.0
 40
6.0
 40
6.0
 40
7.0
 40
7.0
 40
7.0
 40
8.0
 40
8.0
 40
8.0
 40
9.0
 40
9.0
 40
9.0
 40
10.0
 40
10.0
 40
10.0
 40
10.0
 10
297.1841366959981
 20
323.7627620244427
 30
0.0
 10
297.2344853324815
 20
322.4907322533928
 30
0.0
 10
297.1432620723671
 20
322.3108695548513
 30
0.0
 10
297.2821424880406
 20
321.5579008515802
 30
0.0
 10
297.3505778763326
 20
321.1869071210289
 30
0.0
 10
297.4360234240633
 20
320.8873632374043
 30
0.0
 10
297.498573440735
 20
320.6896291055286
 30
0.0
 10
297.498573440735
 20
320.6896291055286
 30
0.0
 10
297.498573440735
 20
318.1363467554629
 30
0.0
 10
297.498573440735
 20
318.1363467554629
 30
0.0
 10
297.1097082768492
 20
318.1317532946861
 30
0.0
 10
296.7207354537264
 20
318.1257243774169
 30
0.0
 10
296.3322291539638
 20
318.127231606734
 30
0.0
 10
296.2894884368923
 20
318.1273751523835
 30
0.0
 10
296.2467836062331
 20
318.1470409063338
 30
0.0
 10
296.1576776444456
 20
318.1690751634975
 30
0.0
 10
296.1576776444456
 20
321.6532151626984
 30
0.0
 10
296.1576776444456
 20
325.1481210855949
 30
0.0
 10
296.1576776444456
 20
328.7875774773107
 30
0.0
 10
296.6097028940123
 20
328.766440380455
 30
0.0
 10
297.0554121350108
 20
328.7511886552198
 30
0.0
 10
297.498573440735
 20
328.7360445892216
 30
0.0
 10
297.498573440735
 20
328.7360445892216
 30
0.0
 10
297.498573440735
 20
326.2148805781814
 30
0.0
 10
297.498573440735
 20
326.2148805781814
 30
0.0
 10
297.4205204939418
 20
326.0619326888788
 30
0.0
 10
297.3140096221798
 20
325.826517824068
 30
0.0
 10
297.2331575352255
 20
325.5266509627326
 30
0.0
 10
297.08526963006
 20
324.9781989232657
 30
0.0
 10
297.1479631923808
 20
324.6765377413141
 30
0.0
 10
297.1841366959981
 20
323.7627620244427
 30
0.0
  0
SPLINE
  5
5A
330
1F
100
AcDbEntity
  8
_U+0421_U+043B_U+043E_U+0439 1
 62
     7
370
    35
100
AcDbSpline
210
0.0
220
0.0
230
1.0
 70
    11
 71
     3
 72
    56
 73
    52
 74
     0
 42
0.0000000001
 43
0.0000000001
 12
1.0
 22
0.0
 32
0.0
 13
1.0
 23
0.0
 33
0.0
 40
0.0
 40
0.0
 40
0.0
 40
0.0
 40
1.0
 40
1.0
 40
1.0
 40
2.0
 40
2.0
 40
2.0
 40
3.0
 40
3.0
 40
3.0
 40
4.0
 40
4.0
 40
4.0
 40
5.0
 40
5.0
 40
5.0
 40
6.0
 40
6.0
 40
6.0
 40
7.0
 40
7.0
 40
7.0
 40
8.0
 40
8.0
 40
8.0
 40
9.0
 40
9.0
 40
9.0
 40
10.0
 40
10.0
 40
10.0
 40
11.0
 40
11.0
 40
11.0
 40
12.0
 40
12.0
 40
12.0
 40
13.0
 40
13.0
 40
13.0
 40
14.0
 40
14.0
 40
14.0
 40
15.0
 40
15.0
 40
15.0
 40
16.0
 40
16.0
 40
16.0
 40
17.0
 40
17.0
 40
17.0
 40
17.0
 10
289.340156464195
 20
321.0793196568973
 30
0.0
 10
289.3411253973276
 20
321.0651086376189
 30
0.0
 10
289.3407665332045
 20
321.0597256757712
 30
0.0
 10
289.3446422657348
 20
321.0189228249653
 30
0.0
 10
289.3854810029537
 20
320.5884653092017
 30
0.0
 10
289.5384647786684
 20
318.3236738277668
 30
0.0
 10
289.5384647786684
 20
318.1456772226661
 30
0.0
 10
288.8752479926059
 20
318.1456772226661
 30
0.0
 10
288.291017200057
 20
318.1456772226661
 30
0.0
 10
287.5287180295825
 20
318.1456772226661
 30
0.0
 10
287.8248168176243
 20
319.3969646473951
 30
0.0
 10
287.827364752899
 20
320.3945351370313
 30
0.0
 10
287.7767290251173
 20
321.0679436641927
 30
0.0
 10
287.7543359038305
 20
321.36583677285
 30
0.0
 10
287.7318710097189
 20
321.4630530638215
 30
0.0
 10
287.4827475354024
 20
322.9788233473402
 30
0.0
 10
287.0860950200433
 20
325.3923281214239
 30
0.0
 10
287.1059043196434
 20
325.3721599577005
 30
0.0
 10
287.0417753008298
 20
325.6246567547751
 30
0.0
 10
286.8459790352189
 20
326.3956763234434
 30
0.0
 10
286.431096222402
 20
327.4905707632876
 30
0.0
 10
285.44457874776
 20
328.7241661867437
 30
0.0
 10
285.7139421586245
 20
328.8255453015442
 30
0.0
 10
286.3809629043926
 20
328.7688806564933
 30
0.0
 10
287.144805190597
 20
328.7069765952434
 30
0.0
 10
287.3090572997795
 20
328.6936627362732
 30
0.0
 10
287.5467330085667
 20
328.5011321341827
 30
0.0
 10
287.5955385293202
 20
328.3452415590706
 30
0.0
 10
287.9564122915974
 20
327.1921034720329
 30
0.0
 10
288.2780263187978
 20
326.0274817330529
 30
0.0
 10
288.6446419070459
 20
324.7531552316149
 30
0.0
 10
289.0118316778909
 20
326.0109739833864
 30
0.0
 10
289.3330868409682
 20
327.164650366609
 30
0.0
 10
289.6981951998991
 20
328.305228209335
 30
0.0
 10
289.7530296379222
 20
328.4764422825078
 30
0.0
 10
290.0023684307127
 20
328.6880285695387
 30
0.0
 10
290.1798985124535
 20
328.7053258202768
 30
0.0
 10
290.7203119955611
 20
328.7578276414987
 30
0.0
 10
291.2696611953362
 20
328.7243456188056
 30
0.0
 10
291.8625406132541
 20
328.7243456188056
 30
0.0
 10
291.2622685943986
 20
327.6264726067388
 30
0.0
 10
290.8316316465739
 20
326.6170237146254
 30
0.0
 10
290.5205682245951
 20
325.7716474996326
 30
0.0
 10
290.5016560853031
 20
325.7202222707799
 30
0.0
 10
290.4262587330214
 20
325.5001667904415
 30
0.0
 10
290.2742080040268
 20
325.0605941259497
 30
0.0
 10
289.6778117177021
 20
323.3365032189205
 30
0.0
 10
289.6367576620095
 20
323.1994171238635
 30
0.0
 10
289.5896388026347
 20
323.0278083001552
 30
0.0
 10
289.390720419152
 20
322.303153976203
 30
0.0
 10
289.2956214265077
 20
321.7341031360647
 30
0.0
 10
289.340156464195
 20
321.0793196568973
 30
0.0
  0
SPLINE
  5
5B
330
1F
100
AcDbEntity
  8
_U+0421_U+043B_U+043E_U+0439 1
 62
     7
370
    35
100
AcDbSpline
210
0.0
220
0.0
230
1.0
 70
    11
 71
     3
 72
    23
 73
    19
 74
     0
 42
0.0000000001
 43
0.0000000001
 12
1.0
 22
0.0
 32
0.0
 13
1.0
 23
0.0
 33
0.0
 40
0.0
 40
0.0
 40
0.0
 40
0.0
 40
1.0
 40
1.0
 40
1.0
 40
2.0
 40
2.0
 40
2.0
 40
3.0
 40
3.0
 40
3.0
 40
4.0
 40
4.0
 40
4.0
 40
5.0
 40
5.0
 40
5.0
 40
6.0
 40
6.0
 40
6.0
 40
6.0
 10
291.2620891623371
 20
323.524189155348
 30
0.0
 10
291.4475860276124
 20
323.3810023701958
 30
0.0
 10
292.1295714073174
 20
322.8903633409744
 30
0.0
 10
293.1119619445428
 20
322.9298025081127
 30
0.0
 10
293.9555438389191
 20
322.963643394929
 30
0.0
 10
294.5332791908382
 20
323.3687651035955
 30
0.0
 10
294.7339560085247
 20
323.524189155348
 30
0.0
 10
294.7339560085247
 20
322.6792076908907
 30
0.0
 10
294.7339560085247
 20
321.8341544536093
 30
0.0
 10
294.7339560085247
 20
320.945822203072
 30
0.0
 10
294.548997439434
 20
321.094356063659
 30
0.0
 10
293.9495508080619
 20
321.53715850526
 30
0.0
 10
293.0629769917277
 20
321.5579008515802
 30
0.0
 10
292.0962329302735
 20
321.580545177753
 30
0.0
 10
291.4370354223907
 20
321.0861739616505
 30
0.0
 10
291.2620891623371
 20
320.945822203072
 30
0.0
 10
291.2620891623371
 20
321.805265891693
 30
0.0
 10
291.2620891623371
 20
322.6647454667264
 30
0.0
 10
291.2620891623371
 20
323.524189155348
 30
0.0
  0
SPLINE
  5
5C
330
1F
100
AcDbEntity
  8
_U+0421_U+043B_U+043E_U+0439 1
 62
     7
370
    35
100
AcDbSpline
210
0.0
220
0.0
230
1.0
 70
    11
 71
     3
 72
    56
 73
    52
 74
     0
 42
0.0000000001
 43
0.0000000001
 12
1.0
 22
0.0
 32
0.0
 13
1.0
 23
0.0
 33
0.0
 40
0.0
 40
0.0
 40
0.0
 40
0.0
 40
1.0
 40
1.0
 40
1.0
 40
2.0
 40
2.0
 40
2.0
 40
3.0
 40
3.0
 40
3.0
 40
4.0
 40
4.0
 40
4.0
 40
5.0
 40
5.0
 40
5.0
 40
6.0
 40
6.0
 40
6.0
 40
7.0
 40
7.0
 40
7.0
 40
8.0
 40
8.0
 40
8.0
 40
9.0
 40
9.0
 40
9.0
 40
10.0
 40
10.0
 40
10.0
 40
11.0
 40
11.0
 40
11.0
 40
12.0
 40
12.0
 40
12.0
 40
13.0
 40
13.0
 40
13.0
 40
14.0
 40
14.0
 40
14.0
 40
15.0
 40
15.0
 40
15.0
 40
16.0
 40
16.0
 40
16.0
 40
17.0
 40
17.0
 40
17.0
 40
17.0
 10
283.5630182634767
 20
324.0567435141576
 30
0.0
 10
284.0299722605683
 20
323.9971002968842
 30
0.0
 10
284.4173301951366
 20
324.0579277657641
 30
0.0
 10
284.6643722575386
 20
324.1172121189144
 30
0.0
 10
284.6238923844431
 20
323.6887642422413
 30
0.0
 10
284.5834125113476
 20
323.2602804791558
 30
0.0
 10
284.5429326382521
 20
322.8318326024826
 30
0.0
 10
284.4042316546402
 20
322.9139048274553
 30
0.0
 10
284.0035239746893
 20
323.1263523883826
 30
0.0
 10
283.4650124714342
 20
323.0767932529702
 30
0.0
 10
282.8170832970197
 20
323.0171500356967
 30
0.0
 10
282.4195695077653
 20
322.619636246442
 30
0.0
 10
282.3208818738887
 20
322.5148479224711
 30
0.0
 10
282.3208818738887
 20
321.8568705526075
 30
0.0
 10
282.3208818738887
 20
321.1989290691557
 30
0.0
 10
282.3208818738887
 20
320.5409516992921
 30
0.0
 10
282.5046920777853
 20
320.4100739535656
 30
0.0
 10
283.0986122016602
 20
320.0230389967081
 30
0.0
 10
283.9059847060071
 20
320.0879934030046
 30
0.0
 10
284.339815544528
 20
320.1229108821908
 30
0.0
 10
284.671944290538
 20
320.2751769296596
 30
0.0
 10
284.8683865115708
 20
320.3865324670841
 30
0.0
 10
284.9486285295153
 20
319.6435043000252
 30
0.0
 10
285.0288705474598
 20
318.9004761329657
 30
0.0
 10
285.1091125654046
 20
318.1574479659062
 30
0.0
 10
284.7296137551342
 20
318.3681012062174
 30
0.0
 10
283.8797158521896
 20
318.7732229148838
 30
0.0
 10
282.7300587471468
 20
318.7650766992871
 30
0.0
 10
281.6195178315315
 20
318.757181688577
 30
0.0
 10
280.7982931720296
 20
318.3677064556819
 30
0.0
 10
280.4195838628301
 20
318.1574479659062
 30
0.0
 10
280.4195838628301
 20
321.6640887456311
 30
0.0
 10
280.4195838628301
 20
325.1707654117678
 30
0.0
 10
280.4195838628301
 20
328.6774061914927
 30
0.0
 10
280.6871170666664
 20
328.497974129899
 30
0.0
 10
281.6027588769787
 20
327.9326913630542
 30
0.0
 10
282.8280645391892
 20
328.0744785781258
 30
0.0
 10
283.570231432353
 20
328.1603547628043
 30
0.0
 10
284.1113626437072
 20
328.4692650000439
 30
0.0
 10
284.3959418933946
 20
328.6624415575557
 30
0.0
 10
284.6357707869207
 20
327.8926780133192
 30
0.0
 10
284.8755996804468
 20
327.1228785826696
 30
0.0
 10
285.1154285739728
 20
326.3531150384331
 30
0.0
 10
284.1868317688133
 20
326.3531150384331
 30
0.0
 10
283.2826018376183
 20
326.3531150384331
 30
0.0
 10
282.3070297187338
 20
326.3531150384331
 30
0.0
 10
282.3070297187338
 20
325.6920155506975
 30
0.0
 10
282.3070297187338
 20
325.1266251246162
 30
0.0
 10
282.3070297187338
 20
324.5117114495342
 30
0.0
 10
282.5401478531562
 20
324.3635364530703
 30
0.0
 10
282.9727944400707
 20
324.1321049800273
 30
0.0
 10
283.5630182634767
 20
324.0567435141576
 30
0.0
  0
SPLINE
  5
5D
330
1F
100
AcDbEntity
  8
_U+0421_U+043B_U+043E_U+0439 1
 62
     7
370
    35
100
AcDbSpline
210
0.0
220
0.0
230
1.0
 70
    11
 71
     3
 72
    35
 73
    31
 74
     0
 42
0.0000000001
 43
0.0000000001
 12
1.0
 22
0.0
 32
0.0
 13
1.0
 23
0.0
 33
0.0
 40
0.0
 40
0.0
 40
0.0
 40
0.0
 40
1.0
 40
1.0
 40
1.0
 40
2.0
 40
2.0
 40
2.0
 40
3.0
 40
3.0
 40
3.0
 40
4.0
 40
4.0
 40
4.0
 40
5.0
 40
5.0
 40
5.0
 40
6.0
 40
6.0
 40
6.0
 40
7.0
 40
7.0
 40
7.0
 40
8.0
 40
8.0
 40
8.0
 40
9.0
 40
9.0
 40
9.0
 40
10.0
 40
10.0
 40
10.0
 40
10.0
 10
276.0174694365163
 20
324.3997099566877
 30
0.0
 10
275.9542375780109
 20
326.0295631449673
 30
0.0
 10
275.7378783981412
 20
327.4741706728577
 30
0.0
 10
275.4754769512664
 20
328.6923349390173
 30
0.0
 10
276.1383348732058
 20
328.6923349390173
 30
0.0
 10
276.8011927951453
 20
328.6923349390173
 30
0.0
 10
277.4640507170843
 20
328.6923349390173
 30
0.0
 10
277.2536845680719
 20
327.5512546865187
 30
0.0
 10
277.0874228197993
 20
326.1494237621123
 30
0.0
 10
277.0954254897462
 20
324.5467007015452
 30
0.0
 10
277.1029257499209
 20
323.03965081622
 30
0.0
 10
277.2627279439764
 20
321.7150115647112
 30
0.0
 10
277.4640507170843
 20
320.6230598106771
 30
0.0
 10
277.9005371501171
 20
320.1259971136504
 30
0.0
 10
278.524063564155
 20
319.9372345848536
 30
0.0
 10
279.006305172894
 20
320.1369783558196
 30
0.0
 10
279.2979181593958
 20
320.257772019685
 30
0.0
 10
279.4651129543889
 20
320.4904954035716
 30
0.0
 10
279.5452473130966
 20
320.6269714296195
 30
0.0
 10
279.5779039483067
 20
319.8103402308948
 30
0.0
 10
279.6105964699289
 20
318.9937449185825
 30
0.0
 10
279.643253105139
 20
318.1771137198571
 30
0.0
 10
279.4375521897281
 20
318.3575864874077
 30
0.0
 10
278.7591913376672
 20
318.9066485958845
 30
0.0
 10
277.7323734219916
 20
318.9610523969596
 30
0.0
 10
276.4884427117874
 20
319.0269398499773
 30
0.0
 10
275.6473369798611
 20
318.3184344115685
 30
0.0
 10
275.4754769512664
 20
318.1670655244077
 30
0.0
 10
275.8265178365684
 20
319.8015480598766
 30
0.0
 10
276.113465589469
 20
321.9257006914347
 30
0.0
 10
276.0174694365163
 20
324.3997099566877
 30
0.0
  0
SPLINE
  5
5E
330
1F
100
AcDbEntity
  8
_U+0421_U+043B_U+043E_U+0439 1
 62
     7
370
    35
100
AcDbSpline
210
0.0
220
0.0
230
1.0
 70
    11
 71
     3
 72
    77
 73
    73
 74
     0
 42
0.0000000001
 43
0.0000000001
 12
1.0
 22
0.0
 32
0.0
 13
1.0
 23
0.0
 33
0.0
 40
0.0
 40
0.0
 40
0.0
 40
0.0
 40
1.0
 40
1.0
 40
1.0
 40
2.0
 40
2.0
 40
2.0
 40
3.0
 40
3.0
 40
3.0
 40
4.0
 40
4.0
 40
4.0
 40
5.0
 40
5.0
 40
5.0
 40
6.0
 40
6.0
 40
6.0
 40
7.0
 40
7.0
 40
7.0
 40
8.0
 40
8.0
 40
8.0
 40
9.0
 40
9.0
 40
9.0
 40
10.0
 40
10.0
 40
10.0
 40
11.0
 40
11.0
 40
11.0
 40
12.0
 40
12.0
 40
12.0
 40
13.0
 40
13.0
 40
13.0
 40
14.0
 40
14.0
 40
14.0
 40
15.0
 40
15.0
 40
15.0
 40
16.0
 40
16.0
 40
16.0
 40
17.0
 40
17.0
 40
17.0
 40
18.0
 40
18.0
 40
18.0
 40
19.0
 40
19.0
 40
19.0
 40
20.0
 40
20.0
 40
20.0
 40
21.0
 40
21.0
 40
21.0
 40
22.0
 40
22.0
 40
22.0
 40
23.0
 40
23.0
 40
23.0
 40
24.0
 40
24.0
 40
24.0
 40
24.0
 10
273.2736661234509
 20
320.3819748927196
 30
0.0
 10
273.1160530005471
 20
320.562806524394
 30
0.0
 10
272.889286761105
 20
320.648467390599
 30
0.0
 10
272.6856672576086
 20
320.7254078586099
 30
0.0
 10
272.0692822396222
 20
320.9582747881466
 30
0.0
 10
271.508449387905
 20
320.895222361702
 30
0.0
 10
271.2078647983235
 20
320.8366557367985
 30
0.0
 10
271.2078647983235
 20
319.9693529238791
 30
0.0
 10
271.2078647983235
 20
319.0936168040652
 30
0.0
 10
271.2078647983235
 20
318.1691110499099
 30
0.0
 10
270.7858764758674
 20
318.1691110499099
 30
0.0
 10
270.3638522669993
 20
318.1691110499099
 30
0.0
 10
269.9418639445432
 20
318.1691110499099
 30
0.0
 10
270.0148569071994
 20
319.8158667383921
 30
0.0
 10
270.0160052723938
 20
321.6416238515196
 30
0.0
 10
269.8928789917282
 20
323.6157712795851
 30
0.0
 10
269.7772529712373
 20
325.4700939769182
 30
0.0
 10
269.5691835526133
 20
327.1791843635981
 30
0.0
 10
269.3155742767566
 20
328.7229101623125
 30
0.0
 10
269.6217930330727
 20
328.7249556878147
 30
0.0
 10
269.929447245881
 20
328.7267858948432
 30
0.0
 10
270.2385369151821
 20
328.7315946740936
 30
0.0
 10
270.5458322638674
 20
328.7363675669324
 30
0.0
 10
270.8527328620172
 20
328.7419658472537
 30
0.0
 10
271.1591310503944
 20
328.7453032835994
 30
0.0
 10
271.1591310503944
 20
328.7453032835994
 30
0.0
 10
271.1591310503944
 20
326.7152807115538
 30
0.0
 10
271.1591310503944
 20
326.7152807115538
 30
0.0
 10
271.1591310503944
 20
326.4320651455344
 30
0.0
 10
271.1591310503944
 20
326.1630605987933
 30
0.0
 10
271.1591310503944
 20
325.9005873790941
 30
0.0
 10
271.1591310503944
 20
325.1815672218757
 30
0.0
 10
271.1591310503944
 20
324.5182427765768
 30
0.0
 10
271.1591310503944
 20
323.7968900025579
 30
0.0
 10
271.7788535047268
 20
323.9735588104026
 30
0.0
 10
272.5266904510367
 20
323.5021907845961
 30
0.0
 10
272.8466537032705
 20
324.1771783138993
 30
0.0
 10
273.1452645401747
 20
324.8071283957423
 30
0.0
 10
273.2975305876429
 20
325.7964091241329
 30
0.0
 10
272.7206565096195
 20
326.3434974799316
 30
0.0
 10
272.6306175011116
 20
326.4288712548382
 30
0.0
 10
272.4520467134136
 20
326.5713044253312
 30
0.0
 10
272.146725117406
 20
326.6535919687776
 30
0.0
 10
272.1140684821959
 20
327.3558890578552
 30
0.0
 10
272.0813759605737
 20
328.0581502605205
 30
0.0
 10
272.0487193253635
 20
328.7604473495982
 30
0.0
 10
272.2822322103214
 20
328.8140975360148
 30
0.0
 10
272.8149660011929
 20
328.9019474733708
 30
0.0
 10
273.403610822457
 20
328.6746788241561
 30
0.0
 10
274.082761175589
 20
328.4124568093435
 30
0.0
 10
274.4887800445632
 20
327.9187674350748
 30
0.0
 10
274.5713546793085
 20
327.6600622886691
 30
0.0
 10
275.0614912987576
 20
326.1243032734889
 30
0.0
 10
275.0971982790147
 20
324.530659475239
 30
0.0
 10
274.6123010757643
 20
322.9737633632031
 30
0.0
 10
274.5125009631057
 20
322.6533335876094
 30
0.0
 10
274.1543904545771
 20
322.4083370507094
 30
0.0
 10
273.9233178456569
 20
322.1379688203
 30
0.0
 10
274.1646180820881
 20
321.9999137921096
 30
0.0
 10
274.3385595225969
 20
321.8415470545474
 30
0.0
 10
274.465812740679
 20
321.6909676684577
 30
0.0
 10
275.527189271418
 20
320.4350508965395
 30
0.0
 10
274.5674071739535
 20
318.2695930044023
 30
0.0
 10
274.4985770351263
 20
318.1195519144981
 30
0.0
 10
274.3033908385247
 20
318.1195519144981
 30
0.0
 10
274.1082405283355
 20
318.1195519144981
 30
0.0
 10
273.9130543317339
 20
318.1195519144981
 30
0.0
 10
273.5986175869971
 20
318.1195519144981
 30
0.0
 10
273.2841808422602
 20
318.1195519144981
 30
0.0
 10
272.9697440975237
 20
318.1195519144981
 30
0.0
 10
273.5221077559333
 20
319.0238177321052
 30
0.0
 10
273.6645409264264
 20
319.9335023979725
 30
0.0
 10
273.2736661234509
 20
320.3819748927196
 30
0.0
  0
SPLINE
  5
5F
330
1F
100
AcDbEntity
  8
_U+0421_U+043B_U+043E_U+0439 1
 62
     7
370
    35
100
AcDbSpline
210
0.0
220
0.0
230
1.0
 70
    11
 71
     3
 72
    62
 73
    58
 74
     0
 42
0.0000000001
 43
0.0000000001
 12
1.0
 22
0.0
 32
0.0
 13
1.0
 23
0.0
 33
0.0
 40
0.0
 40
0.0
 40
0.0
 40
0.0
 40
1.0
 40
1.0
 40
1.0
 40
2.0
 40
2.0
 40
2.0
 40
3.0
 40
3.0
 40
3.0
 40
4.0
 40
4.0
 40
4.0
 40
5.0
 40
5.0
 40
5.0
 40
6.0
 40
6.0
 40
6.0
 40
7.0
 40
7.0
 40
7.0
 40
8.0
 40
8.0
 40
8.0
 40
9.0
 40
9.0
 40
9.0
 40
10.0
 40
10.0
 40
10.0
 40
11.0
 40
11.0
 40
11.0
 40
12.0
 40
12.0
 40
12.0
 40
13.0
 40
13.0
 40
13.0
 40
14.0
 40
14.0
 40
14.0
 40
15.0
 40
15.0
 40
15.0
 40
16.0
 40
16.0
 40
16.0
 40
17.0
 40
17.0
 40
17.0
 40
18.0
 40
18.0
 40
18.0
 40
19.0
 40
19.0
 40
19.0
 40
19.0
 10
265.7388473337737
 20
325.601007609057
 30
0.0
 10
265.7157364842404
 20
325.6064623437296
 30
0.0
 10
265.6926974075318
 20
325.6119170784021
 30
0.0
 10
265.6695865579987
 20
325.6173718130747
 30
0.0
 10
265.4393752229739
 20
324.4021861191376
 30
0.0
 10
265.2091638879493
 20
323.1869286523765
 30
0.0
 10
264.979777940408
 20
321.9764081920411
 30
0.0
 10
265.1184430376076
 20
321.9764081920411
 30
0.0
 10
265.2491772376849
 20
321.9764081920411
 30
0.0
 10
265.3824952594487
 20
321.9764081920411
 30
0.0
 10
265.3824952594487
 20
321.9764081920411
 30
0.0
 10
265.3824952594487
 20
319.9544241763545
 30
0.0
 10
265.3824952594487
 20
319.9544241763545
 30
0.0
 10
265.094040277231
 20
319.9544241763545
 30
0.0
 10
264.8062312504347
 20
319.9544241763545
 30
0.0
 10
264.507225662995
 20
319.9544241763545
 30
0.0
 10
264.3951882837358
 20
319.3566283199494
 30
0.0
 10
264.2850528843297
 20
318.7690242046425
 30
0.0
 10
264.1693192046017
 20
318.151670253523
 30
0.0
 10
263.5537595740986
 20
318.151670253523
 30
0.0
 10
262.9473150923245
 20
318.151670253523
 30
0.0
 10
262.282160439997
 20
318.151670253523
 30
0.0
 10
262.8634126603233
 20
319.3518195406983
 30
0.0
 10
263.5141409748989
 20
320.9981445922327
 30
0.0
 10
263.9152434053852
 20
323.0278083001552
 30
0.0
 10
264.3670174500656
 20
325.3139521969194
 30
0.0
 10
264.3443372374801
 20
327.2882072842221
 30
0.0
 10
264.2183400438291
 20
328.7117853744939
 30
0.0
 10
264.4367088627885
 20
328.5818047890754
 30
0.0
 10
264.9830794903413
 20
328.2964719247291
 30
0.0
 10
265.7281172964906
 20
328.3194751150257
 30
0.0
 10
266.3742880367016
 20
328.339427960275
 30
0.0
 10
266.8474144967117
 20
328.5813382657152
 30
0.0
 10
267.0661421797942
 20
328.7117853744939
 30
0.0
 10
267.0667522488038
 20
326.9983527319237
 30
0.0
 10
267.1764928976744
 20
325.033607543886
 30
0.0
 10
267.4920062347805
 20
322.8808175552977
 30
0.0
 10
267.7467638758312
 20
321.1425515154031
 30
0.0
 10
268.0938931421902
 20
319.5671021281987
 30
0.0
 10
268.4719564959683
 20
318.1735609650378
 30
0.0
 10
267.9766163467326
 20
318.1735609650378
 30
0.0
 10
267.4813120839097
 20
318.1735609650378
 30
0.0
 10
266.9859719346741
 20
318.1735609650378
 30
0.0
 10
266.8767336955761
 20
318.7392743688299
 30
0.0
 10
266.7606052653126
 20
319.3411253898275
 30
0.0
 10
266.642215991073
 20
319.9544241763545
 30
0.0
 10
266.4073394224469
 20
319.9544241763545
 30
0.0
 10
266.1811832520145
 20
319.9544241763545
 30
0.0
 10
265.9530174424921
 20
319.9544241763545
 30
0.0
 10
265.9530174424921
 20
319.9544241763545
 30
0.0
 10
265.9530174424921
 20
321.9764081920411
 30
0.0
 10
265.9530174424921
 20
321.9764081920411
 30
0.0
 10
266.0707966477219
 20
321.9764081920411
 30
0.0
 10
266.1897959909709
 20
321.9764081920411
 30
0.0
 10
266.3064986038314
 20
321.9764081920411
 30
0.0
 10
266.1111688615806
 20
323.2234969065294
 30
0.0
 10
265.9250260408832
 20
324.412234314587
 30
0.0
 10
265.7388473337737
 20
325.601007609057
 30
0.0
  0
SPLINE
  5
60
330
1F
100
AcDbEntity
  8
_U+0421_U+043B_U+043E_U+0439 1
 62
     7
370
    35
100
AcDbSpline
210
0.0
220
0.0
230
1.0
 70
    11
 71
     3
 72
    47
 73
    43
 74
     0
 42
0.0000000001
 43
0.0000000001
 12
1.0
 22
0.0
 32
0.0
 13
1.0
 23
0.0
 33
0.0
 40
0.0
 40
0.0
 40
0.0
 40
0.0
 40
1.0
 40
1.0
 40
1.0
 40
2.0
 40
2.0
 40
2.0
 40
3.0
 40
3.0
 40
3.0
 40
4.0
 40
4.0
 40
4.0
 40
5.0
 40
5.0
 40
5.0
 40
6.0
 40
6.0
 40
6.0
 40
7.0
 40
7.0
 40
7.0
 40
8.0
 40
8.0
 40
8.0
 40
9.0
 40
9.0
 40
9.0
 40
10.0
 40
10.0
 40
10.0
 40
11.0
 40
11.0
 40
11.0
 40
12.0
 40
12.0
 40
12.0
 40
13.0
 40
13.0
 40
13.0
 40
14.0
 40
14.0
 40
14.0
 40
14.0
 10
261.318394950765
 20
318.1614672440863
 30
0.0
 10
260.9178308164633
 20
318.1614672440863
 30
0.0
 10
260.5173025685742
 20
318.1614672440863
 30
0.0
 10
260.1167384342725
 20
318.1614672440863
 30
0.0
 10
260.1167384342725
 20
319.4970159649403
 30
0.0
 10
260.1167384342725
 20
320.8138319785631
 30
0.0
 10
260.1167384342725
 20
322.2034256363692
 30
0.0
 10
259.3884954690884
 20
322.2034256363692
 30
0.0
 10
258.7588683649565
 20
322.2034256363692
 30
0.0
 10
258.0542745454904
 20
322.2034256363692
 30
0.0
 10
258.0542745454904
 20
320.8510820745504
 30
0.0
 10
258.0542745454904
 20
319.517614765611
 30
0.0
 10
258.0542745454904
 20
318.1527468458929
 30
0.0
 10
257.5090881695443
 20
318.1527468458929
 30
0.0
 10
256.9639017935983
 20
318.1527468458929
 30
0.0
 10
256.4187154176522
 20
318.1527468458929
 30
0.0
 10
256.693318244715
 20
319.5774733013587
 30
0.0
 10
256.9156345690295
 20
321.4012207753964
 30
0.0
 10
256.8596876522247
 20
323.5177654875427
 30
0.0
 10
256.8057862609218
 20
325.5566161170188
 30
0.0
 10
256.5084673348612
 20
327.3070835371021
 30
0.0
 10
256.1771280899223
 20
328.6830762446388
 30
0.0
 10
256.7931542437856
 20
328.6830762446388
 30
0.0
 10
257.4091803976489
 20
328.6830762446388
 30
0.0
 10
258.0252065515122
 20
328.6830762446388
 30
0.0
 10
258.0252065515122
 20
327.4361310758001
 30
0.0
 10
258.0252065515122
 20
326.2074879772439
 30
0.0
 10
258.0252065515122
 20
324.9298958122844
 30
0.0
 10
258.720326358126
 20
324.9298958122844
 30
0.0
 10
259.3659946885648
 20
324.9298958122844
 30
0.0
 10
260.0880293044174
 20
324.9298958122844
 30
0.0
 10
260.0880293044174
 20
326.1699507899582
 30
0.0
 10
260.0880293044174
 20
327.4151734110056
 30
0.0
 10
260.0880293044174
 20
328.6916889835952
 30
0.0
 10
260.7460425606937
 20
328.6916889835952
 30
0.0
 10
261.3303451260673
 20
328.6916889835952
 30
0.0
 10
261.9652116463978
 20
328.6916889835952
 30
0.0
 10
261.7019848120401
 20
327.1212995805278
 30
0.0
 10
261.4853385408717
 20
325.3728059131225
 30
0.0
 10
261.3674157899924
 20
323.4687805347277
 30
0.0
 10
261.2482729010943
 20
321.5449817431454
 30
0.0
 10
261.2487394244545
 20
319.765984625269
 30
0.0
 10
261.318394950765
 20
318.1614672440863
 30
0.0
  0
SPLINE
  5
61
330
1F
100
AcDbEntity
  8
_U+0421_U+043B_U+043E_U+0439 1
 62
     7
370
    35
100
AcDbSpline
210
0.0
220
0.0
230
1.0
 70
    11
 71
     3
 72
    26
 73
    22
 74
     0
 42
0.0000000001
 43
0.0000000001
 12
1.0
 22
0.0
 32
0.0
 13
1.0
 23
0.0
 33
0.0
 40
0.0
 40
0.0
 40
0.0
 40
0.0
 40
1.0
 40
1.0
 40
1.0
 40
2.0
 40
2.0
 40
2.0
 40
3.0
 40
3.0
 40
3.0
 40
4.0
 40
4.0
 40
4.0
 40
5.0
 40
5.0
 40
5.0
 40
6.0
 40
6.0
 40
6.0
 40
7.0
 40
7.0
 40
7.0
 40
7.0
 10
252.5287539247451
 20
331.0998466822435
 30
0.0
 10
252.5287539247451
 20
329.9687428523696
 30
0.0
 10
252.5287539247451
 20
328.8419992215925
 30
0.0
 10
252.5287539247451
 20
327.7132818381378
 30
0.0
 10
252.5287539247451
 20
324.8500126584634
 30
0.0
 10
252.5287539247451
 20
321.9878918439829
 30
0.0
 10
252.5287539247451
 20
319.1215723192617
 30
0.0
 10
252.5287539247451
 20
319.1215723192617
 30
0.0
 10
252.4802534384961
 20
314.250763404859
 30
0.0
 10
252.4802534384961
 20
314.250763404859
 30
0.0
 10
252.218551776662
 20
314.250763404859
 30
0.0
 10
251.95711926292
 20
314.250763404859
 30
0.0
 10
251.6954355442917
 20
314.250763404859
 30
0.0
 10
251.6954355442917
 20
320.3660772120629
 30
0.0
 10
251.6954355442917
 20
326.4526639462051
 30
0.0
 10
251.6954355442917
 20
332.5840907525399
 30
0.0
 10
251.9732143188448
 20
332.5840907525399
 30
0.0
 10
252.2509930933982
 20
332.5840907525399
 30
0.0
 10
252.5287539247451
 20
332.5840907525399
 30
0.0
 10
252.5287539247451
 20
332.5840907525399
 30
0.0
 10
252.5287539247451
 20
331.0998466822435
 30
0.0
 10
252.5287539247451
 20
331.0998466822435
 30
0.0
  0
SPLINE
  5
62
330
1F
100
AcDbEntity
  8
_U+0421_U+043B_U+043E_U+0439 1
 62
     7
370
    35
100
AcDbSpline
210
0.0
220
0.0
230
1.0
 70
    11
 71
     3
 72
    77
 73
    73
 74
     0
 42
0.0000000001
 43
0.0000000001
 12
1.0
 22
0.0
 32
0.0
 13
1.0
 23
0.0
 33
0.0
 40
0.0
 40
0.0
 40
0.0
 40
0.0
 40
1.0
 40
1.0
 40
1.0
 40
2.0
 40
2.0
 40
2.0
 40
3.0
 40
3.0
 40
3.0
 40
4.0
 40
4.0
 40
4.0
 40
5.0
 40
5.0
 40
5.0
 40
6.0
 40
6.0
 40
6.0
 40
7.0
 40
7.0
 40
7.0
 40
8.0
 40
8.0
 40
8.0
 40
9.0
 40
9.0
 40
9.0
 40
10.0
 40
10.0
 40
10.0
 40
11.0
 40
11.0
 40
11.0
 40
12.0
 40
12.0
 40
12.0
 40
13.0
 40
13.0
 40
13.0
 40
14.0
 40
14.0
 40
14.0
 40
15.0
 40
15.0
 40
15.0
 40
16.0
 40
16.0
 40
16.0
 40
17.0
 40
17.0
 40
17.0
 40
18.0
 40
18.0
 40
18.0
 40
19.0
 40
19.0
 40
19.0
 40
20.0
 40
20.0
 40
20.0
 40
21.0
 40
21.0
 40
21.0
 40
22.0
 40
22.0
 40
22.0
 40
23.0
 40
23.0
 40
23.0
 40
24.0
 40
24.0
 40
24.0
 40
24.0
 10
298.2603343150246
 20
284.9736772453143
 30
0.0
 10
297.9644149590442
 20
285.0124345706181
 30
0.0
 10
297.6699310595567
 20
285.0578308822015
 30
0.0
 10
297.3804712577941
 20
285.1183712597831
 30
0.0
 10
295.0767071325808
 20
285.6002181179869
 30
0.0
 10
292.7835653854142
 20
286.1337772963416
 30
0.0
 10
290.4975291478864
 20
286.6905549834666
 30
0.0
 10
287.2737809564703
 20
287.4757496850003
 30
0.0
 10
284.2070358189488
 20
288.7118571573194
 30
0.0
 10
281.1380657238635
 20
289.9149132438919
 30
0.0
 10
279.3930171520404
 20
290.5989800355117
 30
0.0
 10
277.7460102586726
 20
291.5202560125578
 30
0.0
 10
276.0654495697865
 20
292.3547945310303
 30
0.0
 10
274.6367397225532
 20
293.0642330161589
 30
0.0
 10
273.173004736897
 20
293.7246865484731
 30
0.0
 10
271.81434516651
 20
294.5456600030886
 30
0.0
 10
269.5798777034844
 20
295.8958144937558
 30
0.0
 10
267.3884380488287
 20
297.3179930139475
 30
0.0
 10
265.2369399710839
 20
298.7894076918396
 30
0.0
 10
264.0674735664413
 20
299.5891722767748
 30
0.0
 10
263.0074607193706
 20
300.5414541140641
 30
0.0
 10
261.9179492413742
 20
301.4473707066385
 30
0.0
 10
261.2581057780697
 20
301.9960021781673
 30
0.0
 10
260.6332156803635
 20
302.5843240217204
 30
0.0
 10
260.0015430507295
 20
303.1639613534924
 30
0.0
 10
259.9262533576846
 20
303.2330068107938
 30
0.0
 10
259.9072335591558
 20
303.3595064142171
 30
0.0
 10
259.8545523058719
 20
303.4761731406653
 30
0.0
 10
260.6622119015173
 20
303.8259221151237
 30
0.0
 10
261.4948484401361
 20
304.1328944860983
 30
0.0
 10
262.2754855673057
 20
304.5344993263573
 30
0.0
 10
264.5716058866948
 20
305.7157723606526
 30
0.0
 10
266.6950407900064
 20
307.1424725687958
 30
0.0
 10
268.5673425799113
 20
308.8978205409542
 30
0.0
 10
269.6325948431806
 20
309.8965393957845
 30
0.0
 10
270.6551422757904
 20
310.9380348540987
 30
0.0
 10
271.725849273732
 20
311.931011882958
 30
0.0
 10
271.9273155924894
 20
312.1178365454893
 30
0.0
 10
272.2620640465983
 20
312.2533436384044
 30
0.0
 10
272.5411167887887
 20
312.263607152328
 30
0.0
 10
273.5888564828464
 20
312.3021491591582
 30
0.0
 10
274.6389646801169
 20
312.2790383096252
 30
0.0
 10
275.8902879912589
 20
312.2790383096252
 30
0.0
 10
273.0720921454567
 20
308.6462926770124
 30
0.0
 10
269.9485029308222
 20
305.5440917641196
 30
0.0
 10
265.9206478985806
 20
303.2877694759921
 30
0.0
 10
266.0746723802525
 20
303.1317353552304
 30
0.0
 10
266.1801066596449
 20
302.9903070042819
 30
0.0
 10
266.317838710124
 20
302.8906863236852
 30
0.0
 10
267.8767085748372
 20
301.7633146806924
 30
0.0
 10
269.4032806684638
 20
300.5889677239743
 30
0.0
 10
271.0142217174514
 20
299.5357732952448
 30
0.0
 10
272.4262802693687
 20
298.6125235655206
 30
0.0
 10
273.9149921979989
 20
297.7932726586965
 30
0.0
 10
275.4053549015957
 20
296.9897041140554
 30
0.0
 10
277.1574730966456
 20
296.0449225369401
 30
0.0
 10
278.9286110902239
 20
295.128598884794
 30
0.0
 10
280.728529986482
 20
294.2729591558788
 30
0.0
 10
281.9067526757307
 20
293.7129158052323
 30
0.0
 10
283.1436855355325
 20
293.2651610387314
 30
0.0
 10
284.367053331478
 20
292.7983147008775
 30
0.0
 10
285.8359559605081
 20
292.237768940459
 30
0.0
 10
287.2955998951601
 20
291.6395424471054
 30
0.0
 10
288.8005324821584
 20
291.1857946497477
 30
0.0
 10
290.8971243490554
 20
290.5536196103407
 30
0.0
 10
293.029028445674
 20
290.0294985584255
 30
0.0
 10
295.1518532799762
 20
289.4808670868973
 30
0.0
 10
296.1822239504717
 20
289.2145540210798
 30
0.0
 10
297.2406577954002
 20
289.0437705848548
 30
0.0
 10
298.2603343150246
 20
288.7463081131447
 30
0.0
 10
298.2603343150246
 20
288.7463081131447
 30
0.0
 10
298.2603343150246
 20
284.9736772453143
 30
0.0
 10
298.2603343150246
 20
284.9736772453143
 30
0.0
  0
SPLINE
  5
63
330
1F
100
AcDbEntity
  8
_U+0421_U+043B_U+043E_U+0439 1
 62
     7
370
    35
100
AcDbSpline
210
0.0
220
0.0
230
1.0
 70
    11
 71
     3
 72
    62
 73
    58
 74
     0
 42
0.0000000001
 43
0.0000000001
 12
1.0
 22
0.0
 32
0.0
 13
1.0
 23
0.0
 33
0.0
 40
0.0
 40
0.0
 40
0.0
 40
0.0
 40
1.0
 40
1.0
 40
1.0
 40
2.0
 40
2.0
 40
2.0
 40
3.0
 40
3.0
 40
3.0
 40
4.0
 40
4.0
 40
4.0
 40
5.0
 40
5.0
 40
5.0
 40
6.0
 40
6.0
 40
6.0
 40
7.0
 40
7.0
 40
7.0
 40
8.0
 40
8.0
 40
8.0
 40
9.0
 40
9.0
 40
9.0
 40
10.0
 40
10.0
 40
10.0
 40
11.0
 40
11.0
 40
11.0
 40
12.0
 40
12.0
 40
12.0
 40
13.0
 40
13.0
 40
13.0
 40
14.0
 40
14.0
 40
14.0
 40
15.0
 40
15.0
 40
15.0
 40
16.0
 40
16.0
 40
16.0
 40
17.0
 40
17.0
 40
17.0
 40
18.0
 40
18.0
 40
18.0
 40
19.0
 40
19.0
 40
19.0
 40
19.0
 10
278.1742787032842
 20
303.0318634697471
 30
0.0
 10
278.2072942026174
 20
302.1327652955135
 30
0.0
 10
278.8209159668555
 20
301.5874353739187
 30
0.0
 10
279.6644978612318
 20
301.2835492344032
 30
0.0
 10
280.8323852637325
 20
300.862888709203
 30
0.0
 10
281.1452071199147
 20
301.0845590780963
 30
0.0
 10
281.1708659047228
 20
302.3421625113935
 30
0.0
 10
281.1739521361822
 20
302.4943208996252
 30
0.0
 10
281.1712965416706
 20
302.6465869470933
 30
0.0
 10
281.1712965416706
 20
302.9067275499914
 30
0.0
 10
282.0709330120888
 20
302.6341343620188
 30
0.0
 10
282.9013804795565
 20
302.3824988388399
 30
0.0
 10
283.8344989726681
 20
302.0998215690054
 30
0.0
 10
283.7672837223952
 20
301.0539838548003
 30
0.0
 10
283.7742097999725
 20
299.9744487994286
 30
0.0
 10
283.6043952968803
 20
298.9216850076468
 30
0.0
 10
283.4848576574467
 20
298.1802717291416
 30
0.0
 10
283.0444237190588
 20
297.4921856593423
 30
0.0
 10
282.1636276151079
 20
297.4121948462841
 30
0.0
 10
281.6910035648705
 20
297.3692388107383
 30
0.0
 10
281.1547529055915
 20
297.4931904788875
 30
0.0
 10
280.7151443546873
 20
297.6866182412853
 30
0.0
 10
279.0482563888946
 20
298.4199211906061
 30
0.0
 10
277.4648402181552
 20
299.2978104951593
 30
0.0
 10
276.4004133423696
 20
300.8059369728531
 30
0.0
 10
275.7637166150105
 20
301.7081213785463
 30
0.0
 10
275.3265124537315
 20
302.7185392037925
 30
0.0
 10
275.2943223418816
 20
303.8244866586307
 30
0.0
 10
275.2500385090802
 20
305.3476495430868
 30
0.0
 10
275.2784605476367
 20
306.8729656122822
 30
0.0
 10
275.2846330105557
 20
308.3973486347571
 30
0.0
 10
275.2905901550005
 20
309.8725672723558
 30
0.0
 10
276.7833931346349
 20
311.3355486433534
 30
0.0
 10
278.2938881155425
 20
311.3496520033946
 30
0.0
 10
279.0969183639989
 20
311.357188149981
 30
0.0
 10
279.9092790796578
 20
311.2758695396669
 30
0.0
 10
280.7011845402952
 20
311.3669133677197
 30
0.0
 10
282.2963355678626
 20
311.5502570482564
 30
0.0
 10
283.4406455974701
 20
310.0168665362891
 30
0.0
 10
283.6186780889831
 20
308.833153225956
 30
0.0
 10
283.7646281278837
 20
307.8628564096819
 30
0.0
 10
283.7662430164379
 20
306.8721761112112
 30
0.0
 10
283.8367239302318
 20
305.8178692036993
 30
0.0
 10
283.1120696062796
 20
305.9544887753967
 30
0.0
 10
282.5215586915749
 20
306.1406674825066
 30
0.0
 10
281.9261313383826
 20
306.1568522544623
 30
0.0
 10
281.3399626795684
 20
306.1727858215314
 30
0.0
 10
281.1713683144951
 20
306.4637169661997
 30
0.0
 10
281.0510770604029
 20
306.9195820618844
 30
0.0
 10
280.7323339461879
 20
308.1275545869451
 30
0.0
 10
280.4132678542622
 20
308.3745966493472
 30
0.0
 10
279.1648872289304
 20
308.4322302275309
 30
0.0
 10
278.6723462198561
 20
308.4549104401167
 30
0.0
 10
278.173919839161
 20
308.013974091956
 30
0.0
 10
278.1664554653988
 20
307.471909833882
 30
0.0
 10
278.1462155288512
 20
305.9919541898577
 30
0.0
 10
278.1199466750337
 20
304.5102042252171
 30
0.0
 10
278.1742787032842
 20
303.0318634697471
 30
0.0
  0
SPLINE
  5
64
330
1F
100
AcDbEntity
  8
_U+0421_U+043B_U+043E_U+0439 1
 62
     7
370
    35
100
AcDbSpline
210
0.0
220
0.0
230
1.0
 70
    11
 71
     3
 72
    53
 73
    49
 74
     0
 42
0.0000000001
 43
0.0000000001
 12
1.0
 22
0.0
 32
0.0
 13
1.0
 23
0.0
 33
0.0
 40
0.0
 40
0.0
 40
0.0
 40
0.0
 40
1.0
 40
1.0
 40
1.0
 40
2.0
 40
2.0
 40
2.0
 40
3.0
 40
3.0
 40
3.0
 40
4.0
 40
4.0
 40
4.0
 40
5.0
 40
5.0
 40
5.0
 40
6.0
 40
6.0
 40
6.0
 40
7.0
 40
7.0
 40
7.0
 40
8.0
 40
8.0
 40
8.0
 40
9.0
 40
9.0
 40
9.0
 40
10.0
 40
10.0
 40
10.0
 40
11.0
 40
11.0
 40
11.0
 40
12.0
 40
12.0
 40
12.0
 40
13.0
 40
13.0
 40
13.0
 40
14.0
 40
14.0
 40
14.0
 40
15.0
 40
15.0
 40
15.0
 40
16.0
 40
16.0
 40
16.0
 40
16.0
 10
289.5241102137409
 20
293.9579482285446
 30
0.0
 10
288.5297336148012
 20
294.3453779359376
 30
0.0
 10
287.6050125421722
 20
294.7056775156174
 30
0.0
 10
286.6485678810536
 20
295.0783937939601
 30
0.0
 10
286.6920263263714
 20
296.8092672329172
 30
0.0
 10
286.6822652222207
 20
298.2013011667602
 30
0.0
 10
286.6631377644547
 20
299.1901512582029
 30
0.0
 10
286.6473836294469
 20
300.0052393411981
 30
0.0
 10
286.6008030662574
 20
301.812156087858
 30
0.0
 10
286.6008030662574
 20
301.812156087858
 30
0.0
 10
286.5348079540033
 20
303.6106754140358
 30
0.0
 10
286.2975987685763
 20
305.1062775338315
 30
0.0
 10
286.0618609260545
 20
306.2218784335835
 30
0.0
 10
285.5874784416133
 20
308.4670759338923
 30
0.0
 10
285.0101378402297
 20
309.6887929548712
 30
0.0
 10
284.8369141279671
 20
310.0436377998791
 30
0.0
 10
284.5980541675738
 20
310.5329490318446
 30
0.0
 10
284.3692782890416
 20
310.9272330439907
 30
0.0
 10
284.1999661957221
 20
311.2028406905984
 30
0.0
 10
284.9504228501311
 20
311.2028406905984
 30
0.0
 10
285.7008795045405
 20
311.2028406905984
 30
0.0
 10
286.4513361589499
 20
311.2028406905984
 30
0.0
 10
286.9898476622046
 20
309.1824715634667
 30
0.0
 10
287.5318042610422
 20
307.1491115550748
 30
0.0
 10
288.1087859983027
 20
304.9844790504216
 30
0.0
 10
288.2702030809121
 20
305.4153313167199
 30
0.0
 10
288.4235098343378
 20
305.7491467241086
 30
0.0
 10
288.5209055573709
 20
306.0975320148995
 30
0.0
 10
288.9571407855174
 20
307.6574425855697
 30
0.0
 10
289.3794520856841
 20
309.2209417974721
 30
0.0
 10
289.8016198402018
 20
310.7844410093746
 30
0.0
 10
289.8867065238094
 20
311.0995237095329
 30
0.0
 10
290.0527529536081
 20
311.2571368324365
 30
0.0
 10
290.4164258560459
 20
311.2232241727955
 30
0.0
 10
291.245868503969
 20
311.1458530678361
 30
0.0
 10
292.0778590871661
 20
311.0939254292109
 30
0.0
 10
292.9980225854309
 20
311.0249517447348
 30
0.0
 10
291.7353591679963
 20
309.4673020180404
 30
0.0
 10
291.1055526318025
 20
308.0523007803126
 30
0.0
 10
290.765564761495
 20
307.0548020635011
 30
0.0
 10
290.2182969736345
 20
305.4492080899492
 30
0.0
 10
290.014569810901
 20
303.708752978903
 30
0.0
 10
289.607115485434
 20
300.2278068703989
 30
0.0
 10
289.5676045454713
 20
299.8903310489531
 30
0.0
 10
289.5282371511575
 20
299.7225620713637
 30
0.0
 10
289.5275194229113
 20
299.5173276793127
 30
0.0
 10
289.5212751871678
 20
297.6894891542707
 30
0.0
 10
289.5241102137409
 20
295.8616147428165
 30
0.0
 10
289.5241102137409
 20
293.9579482285446
 30
0.0
  0
SPLINE
  5
65
330
1F
100
AcDbEntity
  8
_U+0421_U+043B_U+043E_U+0439 1
 62
     7
370
    35
100
AcDbSpline
210
0.0
220
0.0
230
1.0
 70
    11
 71
     3
 72
    71
 73
    67
 74
     0
 42
0.0000000001
 43
0.0000000001
 12
1.0
 22
0.0
 32
0.0
 13
1.0
 23
0.0
 33
0.0
 40
0.0
 40
0.0
 40
0.0
 40
0.0
 40
1.0
 40
1.0
 40
1.0
 40
2.0
 40
2.0
 40
2.0
 40
3.0
 40
3.0
 40
3.0
 40
4.0
 40
4.0
 40
4.0
 40
5.0
 40
5.0
 40
5.0
 40
6.0
 40
6.0
 40
6.0
 40
7.0
 40
7.0
 40
7.0
 40
8.0
 40
8.0
 40
8.0
 40
9.0
 40
9.0
 40
9.0
 40
10.0
 40
10.0
 40
10.0
 40
11.0
 40
11.0
 40
11.0
 40
12.0
 40
12.0
 40
12.0
 40
13.0
 40
13.0
 40
13.0
 40
14.0
 40
14.0
 40
14.0
 40
15.0
 40
15.0
 40
15.0
 40
16.0
 40
16.0
 40
16.0
 40
17.0
 40
17.0
 40
17.0
 40
18.0
 40
18.0
 40
18.0
 40
19.0
 40
19.0
 40
19.0
 40
20.0
 40
20.0
 40
20.0
 40
21.0
 40
21.0
 40
21.0
 40
22.0
 40
22.0
 40
22.0
 40
22.0
 10
301.0063625856542
 20
304.1539239237168
 30
0.0
 10
300.0761867783522
 20
304.1539239237168
 30
0.0
 10
299.2238127129576
 20
304.1539239237168
 30
0.0
 10
298.3730176497053
 20
304.1539239237168
 30
0.0
 10
298.2898329459506
 20
304.7918407890947
 30
0.0
 10
298.2841628928041
 20
305.3643726112275
 30
0.0
 10
298.129994865483
 20
305.8966398787388
 30
0.0
 10
297.8800101172708
 20
306.7598516406539
 30
0.0
 10
297.5049253357153
 20
306.925933956865
 30
0.0
 10
296.4213710021637
 20
306.8450100970857
 30
0.0
 10
295.6403391244586
 20
306.7866946770681
 30
0.0
 10
295.4785631777261
 20
306.148598379629
 30
0.0
 10
295.440738899142
 20
305.6416669192142
 30
0.0
 10
295.3199452352773
 20
304.0229744051656
 30
0.0
 10
295.2747283557554
 20
302.3953461744499
 30
0.0
 10
295.2909490141236
 20
300.7720243132121
 30
0.0
 10
295.3025044388904
 20
299.6213982750374
 30
0.0
 10
295.3975675451226
 20
298.4628054533272
 30
0.0
 10
295.5772866980147
 20
297.3258162518329
 30
0.0
 10
295.6842640931369
 20
296.6489985155018
 30
0.0
 10
296.3413443026927
 20
296.2512694077728
 30
0.0
 10
296.997993875301
 20
296.2383861857504
 30
0.0
 10
297.8685264653287
 20
296.2213401398989
 30
0.0
 10
298.2334912786101
 20
296.5815679467546
 30
0.0
 10
298.2848806210507
 20
297.5257753412725
 30
0.0
 10
298.3004912104091
 20
297.812005365927
 30
0.0
 10
298.2876079883866
 20
298.0997067334861
 30
0.0
 10
298.2876797612113
 20
298.3867621456237
 30
0.0
 10
298.2877515340361
 20
298.6512450044127
 30
0.0
 10
298.2877156476237
 20
298.9157278632017
 30
0.0
 10
298.2877156476237
 20
299.2338250219949
 30
0.0
 10
299.1817538377202
 20
299.2338250219949
 30
0.0
 10
300.0563057059276
 20
299.2338250219949
 30
0.0
 10
300.9302116187137
 20
299.2338250219949
 30
0.0
 10
300.9302116187137
 20
298.0962616379033
 30
0.0
 10
300.9649855522503
 20
296.9413651166625
 30
0.0
 10
300.9158929401981
 20
295.7898060317667
 30
0.0
 10
300.8903777010399
 20
295.1910412422288
 30
0.0
 10
300.795852890992
 20
294.5719647433179
 30
0.0
 10
300.5954631646044
 20
294.0076867960183
 30
0.0
 10
299.9626421697757
 20
292.2250651504979
 30
0.0
 10
299.2738742581423
 20
291.4882453327701
 30
0.0
 10
297.1666958996112
 20
291.7324882550109
 30
0.0
 10
295.5791169050429
 20
291.9164420045566
 30
0.0
 10
294.198279531843
 20
292.4358619364585
 30
0.0
 10
293.5009347676653
 20
293.975245479282
 30
0.0
 10
292.9124334920506
 20
295.2743336052203
 30
0.0
 10
292.5515597297735
 20
296.6253493697837
 30
0.0
 10
292.5327193633062
 20
298.0574684261871
 30
0.0
 10
292.5011752068781
 20
300.455721475035
 30
0.0
 10
292.3830730239369
 20
302.8545487064803
 30
0.0
 10
292.4217585764166
 20
305.2513304124234
 30
0.0
 10
292.4470943835136
 20
306.8251649110736
 30
0.0
 10
292.6536206864081
 20
308.398927636899
 30
0.0
 10
293.5058512061532
 20
309.814108306688
 30
0.0
 10
293.9996123532466
 20
310.6339692825219
 30
0.0
 10
294.6963111620022
 20
311.2100538594747
 30
0.0
 10
295.6616915397885
 20
311.3132272948907
 30
0.0
 10
296.539078434569
 20
311.40699849028
 30
0.0
 10
297.4528182650284
 20
311.437537827163
 30
0.0
 10
298.319941645886
 20
311.3063729901381
 30
0.0
 10
299.5915766664
 20
311.1140935929344
 30
0.0
 10
300.2489439672545
 20
310.1618117556444
 30
0.0
 10
300.5968986210975
 20
309.0596682605116
 30
0.0
 10
301.1042607184596
 20
307.4523517391682
 30
0.0
 10
301.0703839452303
 20
305.7871145483422
 30
0.0
 10
301.0063625856542
 20
304.1539239237168
 30
0.0
  0
SPLINE
  5
66
330
1F
100
AcDbEntity
  8
_U+0421_U+043B_U+043E_U+0439 1
 62
     7
370
    35
100
AcDbSpline
210
0.0
220
0.0
230
1.0
 70
    11
 71
     3
 72
    77
 73
    73
 74
     0
 42
0.0000000001
 43
0.0000000001
 12
1.0
 22
0.0
 32
0.0
 13
1.0
 23
0.0
 33
0.0
 40
0.0
 40
0.0
 40
0.0
 40
0.0
 40
1.0
 40
1.0
 40
1.0
 40
2.0
 40
2.0
 40
2.0
 40
3.0
 40
3.0
 40
3.0
 40
4.0
 40
4.0
 40
4.0
 40
5.0
 40
5.0
 40
5.0
 40
6.0
 40
6.0
 40
6.0
 40
7.0
 40
7.0
 40
7.0
 40
8.0
 40
8.0
 40
8.0
 40
9.0
 40
9.0
 40
9.0
 40
10.0
 40
10.0
 40
10.0
 40
11.0
 40
11.0
 40
11.0
 40
12.0
 40
12.0
 40
12.0
 40
13.0
 40
13.0
 40
13.0
 40
14.0
 40
14.0
 40
14.0
 40
15.0
 40
15.0
 40
15.0
 40
16.0
 40
16.0
 40
16.0
 40
17.0
 40
17.0
 40
17.0
 40
18.0
 40
18.0
 40
18.0
 40
19.0
 40
19.0
 40
19.0
 40
20.0
 40
20.0
 40
20.0
 40
21.0
 40
21.0
 40
21.0
 40
22.0
 40
22.0
 40
22.0
 40
23.0
 40
23.0
 40
23.0
 40
24.0
 40
24.0
 40
24.0
 40
24.0
 10
333.8992021615791
 20
306.7271950054435
 30
0.0
 10
335.2038885678388
 20
305.7886217776593
 30
0.0
 10
336.6107077035574
 20
304.9811775004883
 30
0.0
 10
337.9893918920184
 20
304.142081407652
 30
0.0
 10
338.3992147206982
 20
303.8925990692117
 30
0.0
 10
338.8681783568796
 20
303.7340528995877
 30
0.0
 10
339.4146566436692
 20
303.4864007681765
 30
0.0
 10
338.6353473137552
 20
302.7875128882692
 30
0.0
 10
337.946471742885
 20
302.1076089204784
 30
0.0
 10
337.1913498548747
 20
301.5056502402437
 30
0.0
 10
335.6503873099085
 20
300.2772583465741
 30
0.0
 10
334.1122956779272
 20
299.0395359857014
 30
0.0
 10
332.5007804463425
 20
297.9014343054254
 30
0.0
 10
330.8970166798185
 20
296.7687514734089
 30
0.0
 10
329.2331790590731
 20
295.7087745127509
 30
0.0
 10
327.5427854932119
 20
294.7000792352961
 30
0.0
 10
326.0540017917569
 20
293.8116752119333
 30
0.0
 10
324.5247741036192
 20
292.9735121658175
 30
0.0
 10
322.9540617228404
 20
292.2307352036446
 30
0.0
 10
321.1197277571684
 20
291.3633606179005
 30
0.0
 10
319.2246022090288
 20
290.6153442395293
 30
0.0
 10
317.3488553235412
 20
289.8313696760144
 30
0.0
 10
316.1851666312821
 20
289.3450370162709
 30
0.0
 10
315.0235234645247
 20
288.8476154551211
 30
0.0
 10
313.8334941456234
 20
288.428354500001
 30
0.0
 10
312.4560659815936
 20
287.9430984326274
 30
0.0
 10
311.0494262779362
 20
287.5351416973878
 30
0.0
 10
309.6536242707996
 20
287.0992294469524
 30
0.0
 10
308.553885165292
 20
286.7558323674745
 30
0.0
 10
307.4662038943235
 20
286.3621225379256
 30
0.0
 10
306.3463325115054
 20
286.0969578373029
 30
0.0
 10
304.897813364672
 20
285.7539555083604
 30
0.0
 10
303.4220205444767
 20
285.519437803857
 30
0.0
 10
301.9591827191285
 20
285.23238239172
 30
0.0
 10
301.7685899833037
 20
285.1949528636715
 30
0.0
 10
301.5784278844268
 20
285.1467574119274
 30
0.0
 10
301.3884093311988
 20
285.097987777586
 30
0.0
 10
301.3884093311988
 20
285.097987777586
 30
0.0
 10
301.3884093311988
 20
288.7842759373782
 30
0.0
 10
301.3884093311988
 20
288.7842759373782
 30
0.0
 10
301.5409983563783
 20
288.8168966861763
 30
0.0
 10
301.693659154382
 20
288.8494815485614
 30
0.0
 10
301.8462481795615
 20
288.8852961880556
 30
0.0
 10
303.3380463396507
 20
289.2353322538124
 30
0.0
 10
304.8070566279183
 20
289.696939175468
 30
0.0
 10
306.3136758762955
 20
289.9630010363989
 30
0.0
 10
309.0084942365455
 20
290.4389266365699
 30
0.0
 10
311.5423979239586
 20
291.370502013952
 30
0.0
 10
314.0599015209424
 20
292.3542562348454
 30
0.0
 10
316.2668441057194
 20
293.2166067228642
 30
0.0
 10
318.4789184474581
 20
294.0793160750068
 30
0.0
 10
320.6253924274783
 20
295.0703552376005
 30
0.0
 10
322.7397480684729
 20
296.0466091983192
 30
0.0
 10
324.8195092079928
 20
297.1114308246406
 30
0.0
 10
326.8300813445617
 20
298.2741505837674
 30
0.0
 10
328.4463335825727
 20
299.208848079021
 30
0.0
 10
329.942940521913
 20
300.3391265214116
 30
0.0
 10
331.480170879998
 20
301.3995700054298
 30
0.0
 10
332.3890301583819
 20
302.0264697422255
 30
0.0
 10
333.273558449214
 20
302.6863490919424
 30
0.0
 10
334.2585686945385
 20
303.3958593498963
 30
0.0
 10
330.4762126089694
 20
305.7966244476066
 30
0.0
 10
327.5366489167055
 20
308.8828200206049
 30
0.0
 10
324.7511814789376
 20
312.2784282406154
 30
0.0
 10
325.8520330632269
 20
312.2784282406154
 30
0.0
 10
326.8657524384064
 20
312.3883483215475
 30
0.0
 10
327.8325323862731
 20
312.2297303790987
 30
0.0
 10
328.2822609054514
 20
312.1559479153717
 30
0.0
 10
328.6841169505964
 20
311.5961916560241
 30
0.0
 10
329.0328611055103
 20
311.1956992945468
 30
0.0
 10
330.4840358468549
 20
309.5290266472284
 30
0.0
 10
332.0982784457761
 20
308.0226227173253
 30
0.0
 10
333.8992021615791
 20
306.7271950054435
 30
0.0
  0
SPLINE
  5
67
330
1F
100
AcDbEntity
  8
_U+0421_U+043B_U+043E_U+0439 1
 62
     7
370
    35
100
AcDbSpline
210
0.0
220
0.0
230
1.0
 70
    11
 71
     3
 72
    26
 73
    22
 74
     0
 42
0.0000000001
 43
0.0000000001
 12
1.0
 22
0.0
 32
0.0
 13
1.0
 23
0.0
 33
0.0
 40
0.0
 40
0.0
 40
0.0
 40
0.0
 40
1.0
 40
1.0
 40
1.0
 40
2.0
 40
2.0
 40
2.0
 40
3.0
 40
3.0
 40
3.0
 40
4.0
 40
4.0
 40
4.0
 40
5.0
 40
5.0
 40
5.0
 40
6.0
 40
6.0
 40
6.0
 40
7.0
 40
7.0
 40
7.0
 40
7.0
 10
302.5447413089333
 20
304.6521349859376
 30
0.0
 10
302.3994372254548
 20
306.9745959319687
 30
0.0
 10
302.1117358578957
 20
309.1161534735012
 30
0.0
 10
301.7511491869168
 20
311.0530149191678
 30
0.0
 10
302.6878563212601
 20
311.0530149191678
 30
0.0
 10
303.6245634556034
 20
311.0530149191678
 30
0.0
 10
304.5612705899474
 20
311.0530149191678
 30
0.0
 10
304.5612705899474
 20
306.2298811035308
 30
0.0
 10
304.5612705899474
 20
301.4062448781212
 30
0.0
 10
304.5612705899474
 20
296.4373404556454
 30
0.0
 10
305.662660470421
 20
296.6120355108135
 30
0.0
 10
306.7640862373077
 20
296.7867664523932
 30
0.0
 10
307.865476117782
 20
296.9614615075606
 30
0.0
 10
307.8770674289609
 20
295.4747951044325
 30
0.0
 10
307.8886587401398
 20
293.9881645877169
 30
0.0
 10
307.9002500513187
 20
292.5014981845888
 30
0.0
 10
305.8505617253222
 20
292.1999805482874
 30
0.0
 10
303.8008375129133
 20
291.898427025573
 30
0.0
 10
301.7511491869168
 20
291.596909389271
 30
0.0
 10
302.4085523741837
 20
295.15562135327
 30
0.0
 10
302.8614388976458
 20
299.5899258914334
 30
0.0
 10
302.5447413089333
 20
304.6521349859376
 30
0.0
  0
SPLINE
  5
68
330
1F
100
AcDbEntity
  8
_U+0421_U+043B_U+043E_U+0439 1
 62
     7
370
    35
100
AcDbSpline
210
0.0
220
0.0
230
1.0
 70
    11
 71
     3
 72
    53
 73
    49
 74
     0
 42
0.0000000001
 43
0.0000000001
 12
1.0
 22
0.0
 32
0.0
 13
1.0
 23
0.0
 33
0.0
 40
0.0
 40
0.0
 40
0.0
 40
0.0
 40
1.0
 40
1.0
 40
1.0
 40
2.0
 40
2.0
 40
2.0
 40
3.0
 40
3.0
 40
3.0
 40
4.0
 40
4.0
 40
4.0
 40
5.0
 40
5.0
 40
5.0
 40
6.0
 40
6.0
 40
6.0
 40
7.0
 40
7.0
 40
7.0
 40
8.0
 40
8.0
 40
8.0
 40
9.0
 40
9.0
 40
9.0
 40
10.0
 40
10.0
 40
10.0
 40
11.0
 40
11.0
 40
11.0
 40
12.0
 40
12.0
 40
12.0
 40
13.0
 40
13.0
 40
13.0
 40
14.0
 40
14.0
 40
14.0
 40
15.0
 40
15.0
 40
15.0
 40
16.0
 40
16.0
 40
16.0
 40
16.0
 10
309.1304003791926
 20
311.1356613267379
 30
0.0
 10
311.4489497062806
 20
311.1356613267379
 30
0.0
 10
313.7674990333693
 20
311.1356613267379
 30
0.0
 10
316.0860483604574
 20
311.1356613267379
 30
0.0
 10
315.894702009974
 20
310.8151956647318
 30
0.0
 10
315.6079336891353
 20
310.2412283861059
 30
0.0
 10
315.5089948503725
 20
309.4679120870495
 30
0.0
 10
315.4197453429358
 20
308.7704237772228
 30
0.0
 10
315.5199760925416
 20
308.1976766366158
 30
0.0
 10
315.6091538271542
 20
307.8488965952901
 30
0.0
 10
315.3359505701717
 20
307.7510343488972
 30
0.0
 10
315.0406771696132
 20
307.6599905208444
 30
0.0
 10
314.7240154673124
 20
307.5818299148141
 30
0.0
 10
313.6418965902535
 20
307.3147991207504
 30
0.0
 10
312.6634535583832
 20
307.2856593539474
 30
0.0
 10
311.882314021442
 20
307.3381970615824
 30
0.0
 10
311.882314021442
 20
306.3160802659201
 30
0.0
 10
311.882314021442
 20
305.3082462623609
 30
0.0
 10
311.882314021442
 20
304.2396924491583
 30
0.0
 10
312.7625359427956
 20
304.3490383474937
 30
0.0
 10
313.6427219777368
 20
304.4584201322414
 30
0.0
 10
314.5229438990904
 20
304.5677660305761
 30
0.0
 10
314.5674071639534
 20
303.6015961517192
 30
0.0
 10
314.6119063152287
 20
302.6353903864499
 30
0.0
 10
314.6563695800916
 20
301.669220507593
 30
0.0
 10
313.6837760334294
 20
301.4159700958592
 30
0.0
 10
312.7111824867677
 20
301.1627555705384
 30
0.0
 10
311.7385889401054
 20
300.9095051588052
 30
0.0
 10
311.7385889401054
 20
299.8853787240532
 30
0.0
 10
311.7385889401054
 20
298.8106524479325
 30
0.0
 10
311.7385889401054
 20
297.6033617647055
 30
0.0
 10
312.9463820331043
 20
298.0794309105261
 30
0.0
 10
314.1542110125161
 20
298.555500056346
 30
0.0
 10
315.362004105515
 20
299.0315692021665
 30
0.0
 10
315.2639265406477
 20
298.778031699135
 30
0.0
 10
315.0135111554877
 20
298.0330297793981
 30
0.0
 10
315.2517610468715
 20
297.1206895190191
 30
0.0
 10
315.4740414847739
 20
296.2694638188189
 30
0.0
 10
315.9944303498079
 20
295.7599485367176
 30
0.0
 10
316.2022844499577
 20
295.5760665599959
 30
0.0
 10
313.8449777975652
 20
294.6341200094544
 30
0.0
 10
311.4877070315851
 20
293.6922093453245
 30
0.0
 10
309.1304003791926
 20
292.7502627947823
 30
0.0
 10
309.5840405173133
 20
295.3598509257758
 30
0.0
 10
309.934256015132
 20
298.5185370516583
 30
0.0
 10
309.923346545787
 20
302.106137577573
 30
0.0
 10
309.9128677133897
 20
305.5545705965168
 30
0.0
 10
309.5711572952908
 20
308.6002145235952
 30
0.0
 10
309.1304003791926
 20
311.1356613267379
 30
0.0
  0
SPLINE
  5
69
330
1F
100
AcDbEntity
  8
_U+0421_U+043B_U+043E_U+0439 1
 62
     7
370
    35
100
AcDbSpline
210
0.0
220
0.0
230
1.0
 70
    11
 71
     3
 72
    83
 73
    79
 74
     0
 42
0.0000000001
 43
0.0000000001
 12
1.0
 22
0.0
 32
0.0
 13
1.0
 23
0.0
 33
0.0
 40
0.0
 40
0.0
 40
0.0
 40
0.0
 40
1.0
 40
1.0
 40
1.0
 40
2.0
 40
2.0
 40
2.0
 40
3.0
 40
3.0
 40
3.0
 40
4.0
 40
4.0
 40
4.0
 40
5.0
 40
5.0
 40
5.0
 40
6.0
 40
6.0
 40
6.0
 40
7.0
 40
7.0
 40
7.0
 40
8.0
 40
8.0
 40
8.0
 40
9.0
 40
9.0
 40
9.0
 40
10.0
 40
10.0
 40
10.0
 40
11.0
 40
11.0
 40
11.0
 40
12.0
 40
12.0
 40
12.0
 40
13.0
 40
13.0
 40
13.0
 40
14.0
 40
14.0
 40
14.0
 40
15.0
 40
15.0
 40
15.0
 40
16.0
 40
16.0
 40
16.0
 40
17.0
 40
17.0
 40
17.0
 40
18.0
 40
18.0
 40
18.0
 40
19.0
 40
19.0
 40
19.0
 40
20.0
 40
20.0
 40
20.0
 40
21.0
 40
21.0
 40
21.0
 40
22.0
 40
22.0
 40
22.0
 40
23.0
 40
23.0
 40
23.0
 40
24.0
 40
24.0
 40
24.0
 40
25.0
 40
25.0
 40
25.0
 40
26.0
 40
26.0
 40
26.0
 40
26.0
 10
322.5221687505845
 20
302.9063686858684
 30
0.0
 10
322.493423734317
 20
303.3531904056488
 30
0.0
 10
322.3003548360423
 20
303.6390974525925
 30
0.0
 10
321.7679440228816
 20
303.5322994895319
 30
0.0
 10
320.8739417191975
 20
303.3530109735876
 30
0.0
 10
319.9828821013236
 20
303.1573582536258
 30
0.0
 10
319.0842504504503
 20
303.0026878165318
 30
0.0
 10
317.9023314607328
 20
302.7992836315094
 30
0.0
 10
317.0876381282731
 20
303.1580042090472
 30
0.0
 10
316.9796918000184
 20
304.2865959900595
 30
0.0
 10
316.8148296218261
 20
306.0094667590693
 30
0.0
 10
316.8457637092452
 20
307.7718484680421
 30
0.0
 10
317.0215712431942
 20
309.4956881701841
 30
0.0
 10
317.143190294543
 20
310.6880501058864
 30
0.0
 10
318.1117645630251
 20
311.407787991351
 30
0.0
 10
319.354116271087
 20
311.4429925618355
 30
0.0
 10
320.6528096464898
 20
311.4798479072867
 30
0.0
 10
321.9749368491363
 20
311.4216042600932
 30
0.0
 10
323.2540721298253
 20
311.2149702979622
 30
0.0
 10
324.3422916969782
 20
311.0392345368373
 30
0.0
 10
324.8515198877811
 20
310.2325797607372
 30
0.0
 10
324.8524170480892
 20
309.1794929912441
 30
0.0
 10
324.8527400257999
 20
308.7846347965012
 30
0.0
 10
324.8524529345009
 20
308.3898124881701
 30
0.0
 10
324.8524529345009
 20
307.9852649621016
 30
0.0
 10
323.961680407926
 20
307.8075554482992
 30
0.0
 10
323.155886905721
 20
307.6467484346988
 30
0.0
 10
322.3167190400599
 20
307.4793024348195
 30
0.0
 10
322.2896606851715
 20
307.6260060883786
 30
0.0
 10
322.2575782325584
 20
307.7289283189087
 30
0.0
 10
322.2535230679665
 20
307.8328553689839
 30
0.0
 10
322.2231272767324
 20
308.6086478304896
 30
0.0
 10
321.9750086219611
 20
308.815066474147
 30
0.0
 10
321.2061781244444
 20
308.6944163559318
 30
0.0
 10
320.8319187303728
 20
308.6356702989657
 30
0.0
 10
320.435732738374
 20
308.6310050653648
 30
0.0
 10
320.0893212002612
 20
308.5018498674297
 30
0.0
 10
319.6236950004255
 20
308.3281596318068
 30
0.0
 10
319.3615447584369
 20
307.4925086345527
 30
0.0
 10
319.5212392932556
 20
306.8628815304205
 30
0.0
 10
319.6629906219148
 20
306.3039865449686
 30
0.0
 10
320.1224802452435
 20
306.2792966932937
 30
0.0
 10
320.5898289928707
 20
306.3162238115696
 30
0.0
 10
321.5982730654389
 20
306.3958198740924
 30
0.0
 10
322.6038462250218
 20
306.5251545040893
 30
0.0
 10
323.6135822084342
 20
306.5682181988716
 30
0.0
 10
324.531556635547
 20
306.6073702747115
 30
0.0
 10
325.1286706501183
 20
305.9947533300183
 30
0.0
 10
325.1238259844555
 20
305.0942196992924
 30
0.0
 10
325.1171869981765
 20
303.856138474296
 30
0.0
 10
325.2365810919613
 20
302.6100186929405
 30
0.0
 10
324.6694322316756
 20
301.4260900641333
 30
0.0
 10
323.9523499407229
 20
299.9291601470823
 30
0.0
 10
322.6234760925602
 20
299.0623597439361
 30
0.0
 10
321.2614431994152
 20
298.2271034972174
 30
0.0
 10
320.5827593696438
 20
297.8109287735576
 30
0.0
 10
319.8780937773533
 20
297.4321476915333
 30
0.0
 10
319.1697677710058
 20
297.0642760788541
 30
0.0
 10
317.7719920111912
 20
296.338293957646
 30
0.0
 10
316.8787792085781
 20
297.3606978446067
 30
0.0
 10
316.7890272913689
 20
298.3706132600804
 30
0.0
 10
316.7170032618455
 20
299.1812873143606
 30
0.0
 10
316.7658805554235
 20
300.0029426108094
 30
0.0
 10
316.7836802159335
 20
300.8192149454116
 30
0.0
 10
316.7863358104453
 20
300.9383219478974
 30
0.0
 10
316.8873919475351
 20
301.1233164034001
 30
0.0
 10
316.989417017757
 20
301.1616430917567
 30
0.0
 10
317.7499577540275
 20
301.4472989338137
 30
0.0
 10
318.5222692335394
 20
301.703743236243
 30
0.0
 10
319.2829535154594
 20
301.9665753200654
 30
0.0
 10
319.3240793439767
 20
301.8874816673152
 30
0.0
 10
319.3413048218894
 20
301.8684618687864
 30
0.0
 10
319.3435297794533
 20
301.8478989545275
 30
0.0
 10
319.4992768089166
 20
300.4079925466511
 30
0.0
 10
319.5378188157468
 20
300.4028607896893
 30
0.0
 10
320.9578441511987
 20
300.9915056109538
 30
0.0
 10
321.8559733923001
 20
301.3637553659356
 30
0.0
 10
322.5922549138429
 20
301.8186515284881
 30
0.0
 10
322.5221687505845
 20
302.9063686858684
 30
0.0
  0
SPLINE
  5
6A
330
1F
100
AcDbEntity
  8
_U+0421_U+043B_U+043E_U+0439 1
 62
     7
370
    35
100
AcDbSpline
210
0.0
220
0.0
230
1.0
 70
    11
 71
     3
 72
    17
 73
    13
 74
     0
 42
0.0000000001
 43
0.0000000001
 12
1.0
 22
0.0
 32
0.0
 13
1.0
 23
0.0
 33
0.0
 40
0.0
 40
0.0
 40
0.0
 40
0.0
 40
1.0
 40
1.0
 40
1.0
 40
2.0
 40
2.0
 40
2.0
 40
3.0
 40
3.0
 40
3.0
 40
4.0
 40
4.0
 40
4.0
 40
4.0
 10
343.981417929701
 20
314.2174967006395
 30
0.0
 10
314.3520886900413
 20
314.2174967006395
 30
0.0
 10
284.7441477521232
 20
314.2174967006395
 30
0.0
 10
255.1125935548996
 20
314.2174967006395
 30
0.0
 10
255.1125935548996
 20
314.2174967006395
 30
0.0
 10
255.1125935548996
 20
315.0508150810925
 30
0.0
 10
255.1125935548996
 20
315.0508150810925
 30
0.0
 10
284.7761584319116
 20
315.0508150810925
 30
0.0
 10
314.3879033295355
 20
315.0508150810925
 30
0.0
 10
343.981417929701
 20
315.0508150810925
 30
0.0
 10
343.981417929701
 20
315.0508150810925
 30
0.0
 10
343.981417929701
 20
314.2174967006395
 30
0.0
 10
343.981417929701
 20
314.2174967006395
 30
0.0
  0
SPLINE
  5
6B
330
1F
100
AcDbEntity
  8
_U+0421_U+043B_U+043E_U+0439 1
 62
     7
370
    35
100
AcDbSpline
210
0.0
220
0.0
230
1.0
 70
    11
 71
     3
 72
    29
 73
    25
 74
     0
 42
0.0000000001
 43
0.0000000001
 12
1.0
 22
0.0
 32
0.0
 13
1.0
 23
0.0
 33
0.0
 40
0.0
 40
0.0
 40
0.0
 40
0.0
 40
1.0
 40
1.0
 40
1.0
 40
2.0
 40
2.0
 40
2.0
 40
3.0
 40
3.0
 40
3.0
 40
4.0
 40
4.0
 40
4.0
 40
5.0
 40
5.0
 40
5.0
 40
6.0
 40
6.0
 40
6.0
 40
7.0
 40
7.0
 40
7.0
 40
8.0
 40
8.0
 40
8.0
 40
8.0
 10
347.4844880114001
 20
314.3085046422799
 30
0.0
 10
347.2071039873822
 20
314.3085046422799
 30
0.0
 10
346.9299352818385
 20
314.3085046422799
 30
0.0
 10
346.6525333146147
 20
314.3085046422799
 30
0.0
 10
346.6525333146147
 20
314.3085046422799
 30
0.0
 10
346.6525333146147
 20
318.3241582943328
 30
0.0
 10
346.6525333146147
 20
318.3241582943328
 30
0.0
 10
346.6525333146147
 20
318.3241582943328
 30
0.0
 10
346.6511696309464
 20
318.3241582943328
 30
0.0
 10
346.6511696309464
 20
318.3241582943328
 30
0.0
 10
346.6511696309464
 20
322.5086934027582
 30
0.0
 10
346.6511696309464
 20
326.6741010534183
 30
0.0
 10
346.6511696309464
 20
330.8242210924294
 30
0.0
 10
346.6511696309464
 20
330.9350921632884
 30
0.0
 10
346.6511696309464
 20
331.0466450759813
 30
0.0
 10
346.6511696309464
 20
331.1575879196644
 30
0.0
 10
346.6511696309464
 20
331.1575879196644
 30
0.0
 10
346.6511696309464
 20
332.6418319899607
 30
0.0
 10
346.6511696309464
 20
332.6418319899607
 30
0.0
 10
346.9290381215304
 20
332.6418319899607
 30
0.0
 10
347.206511861579
 20
332.6418319899607
 30
0.0
 10
347.4844880114001
 20
332.6418319899607
 30
0.0
 10
347.4844880114001
 20
326.5153575085259
 30
0.0
 10
347.4844880114001
 20
320.4287348879712
 30
0.0
 10
347.4844880114001
 20
314.3085046422799
 30
0.0
  0
ENDSEC
  0
SECTION
  2
OBJECTS
  0
DICTIONARY
  5
C
330
0
100
AcDbDictionary
281
     1
  3
ACAD_GROUP
350
D
  3
ACAD_LAYOUT
350
1A
  3
ACAD_MATERIAL
350
3B
  3
ACAD_MLEADERSTYLE
350
8D
  3
ACAD_MLINESTYLE
350
17
  3
ACAD_PLOTSETTINGS
350
19
  3
ACAD_PLOTSTYLENAME
350
E
  3
ACAD_TABLESTYLE
350
8C
  3
ACAD_VISUALSTYLE
350
2A
  0
SUN
  5
3F
330
29
100
AcDbSun
 90
        1
290
     0
 63
     7
421
 16777215
 40
1.0
291
     1
 91
  2455826
 92
 54000000
292
     0
 70
     2
 71
   256
280
     1
  0
DICTIONARY
  5
D
102
{ACAD_REACTORS
330
C
102
}
330
C
100
AcDbDictionary
281
     1
  0
DICTIONARY
  5
1A
102
{ACAD_REACTORS
330
C
102
}
330
C
100
AcDbDictionary
281
     1
  3
Layout1
350
1E
  3
Layout2
350
26
  3
Model
350
22
  0
DICTIONARY
  5
3B
102
{ACAD_REACTORS
330
C
102
}
330
C
100
AcDbDictionary
281
     1
  3
ByBlock
350
3D
  3
ByLayer
350
3C
  3
Global
350
3E
  0
DICTIONARY
  5
8D
102
{ACAD_REACTORS
330
C
102
}
330
C
100
AcDbDictionary
281
     1
  0
DICTIONARY
  5
17
102
{ACAD_REACTORS
330
C
102
}
330
C
100
AcDbDictionary
281
     1
  3
Standard
350
18
  0
DICTIONARY
  5
19
102
{ACAD_REACTORS
330
C
102
}
330
C
100
AcDbDictionary
281
     1
  0
ACDBDICTIONARYWDFLT
  5
E
102
{ACAD_REACTORS
330
C
102
}
330
C
100
AcDbDictionary
281
     1
  3
Normal
350
F
100
AcDbDictionaryWithDefault
340
F
  0
DICTIONARY
  5
8C
102
{ACAD_REACTORS
330
C
102
}
330
C
100
AcDbDictionary
281
     1
  0
DICTIONARY
  5
2A
102
{ACAD_REACTORS
330
C
102
}
330
C
100
AcDbDictionary
281
     1
  3
2dWireframe
350
2F
  3
3D Hidden
350
31
  3
3dWireframe
350
30
  3
Basic
350
32
  3
Brighten
350
36
  3
ColorChange
350
3A
  3
Conceptual
350
34
  3
Dim
350
35
  3
Facepattern
350
39
  3
Flat
350
2B
  3
FlatWithEdges
350
2C
  3
Gouraud
350
2D
  3
GouraudWithEdges
350
2E
  3
Linepattern
350
38
  3
Realistic
350
33
  3
Thicken
350
37
  0
LAYOUT
  5
1E
102
{ACAD_REACTORS
330
1A
102
}
330
1A
100
AcDbPlotSettings
  1

  2
none_device
  4

  6

 40
0.0
 41
0.0
 42
0.0
 43
0.0
 44
0.0
 45
0.0
 46
0.0
 47
0.0
 48
0.0
 49
0.0
140
0.0
141
0.0
142
1.0
143
1.0
 70
   688
 72
     0
 73
     0
 74
     5
  7

 75
    16
 76
     0
 77
     2
 78
   300
147
1.0
148
0.0
149
0.0
100
AcDbLayout
  1
Layout1
 70
     1
 71
     1
 10
0.0
 20
0.0
 11
12.0
 21
9.0
 12
0.0
 22
0.0
 32
0.0
 14
1.000000000000000E+20
 24
1.000000000000000E+20
 34
1.000000000000000E+20
 15
-1.000000000000000E+20
 25
-1.000000000000000E+20
 35
-1.000000000000000E+20
146
0.0
 13
0.0
 23
0.0
 33
0.0
 16
1.0
 26
0.0
 36
0.0
 17
0.0
 27
1.0
 37
0.0
 76
     0
330
1B
  0
LAYOUT
  5
26
102
{ACAD_REACTORS
330
1A
102
}
330
1A
100
AcDbPlotSettings
  1

  2
none_device
  4

  6

 40
0.0
 41
0.0
 42
0.0
 43
0.0
 44
0.0
 45
0.0
 46
0.0
 47
0.0
 48
0.0
 49
0.0
140
0.0
141
0.0
142
1.0
143
1.0
 70
   688
 72
     0
 73
     0
 74
     5
  7

 75
    16
 76
     0
 77
     2
 78
   300
147
1.0
148
0.0
149
0.0
100
AcDbLayout
  1
Layout2
 70
     1
 71
     2
 10
0.0
 20
0.0
 11
0.0
 21
0.0
 12
0.0
 22
0.0
 32
0.0
 14
0.0
 24
0.0
 34
0.0
 15
0.0
 25
0.0
 35
0.0
146
0.0
 13
0.0
 23
0.0
 33
0.0
 16
1.0
 26
0.0
 36
0.0
 17
0.0
 27
1.0
 37
0.0
 76
     0
330
23
  0
LAYOUT
  5
22
102
{ACAD_REACTORS
330
1A
102
}
330
1A
100
AcDbPlotSettings
  1

  2
none_device
  4

  6

 40
0.0
 41
0.0
 42
0.0
 43
0.0
 44
0.0
 45
0.0
 46
0.0
 47
0.0
 48
0.0
 49
0.0
140
0.0
141
0.0
142
1.0
143
1.0
 70
  1712
 72
     0
 73
     0
 74
     0
  7

 75
     0
 76
     0
 77
     2
 78
   300
147
1.0
148
0.0
149
0.0
100
AcDbLayout
  1
Model
 70
     1
 71
     0
 10
0.0
 20
0.0
 11
12.0
 21
9.0
 12
0.0
 22
0.0
 32
0.0
 14
1.000000000000000E+20
 24
1.000000000000000E+20
 34
1.000000000000000E+20
 15
-1.000000000000000E+20
 25
-1.000000000000000E+20
 35
-1.000000000000000E+20
146
0.0
 13
0.0
 23
0.0
 33
0.0
 16
1.0
 26
0.0
 36
0.0
 17
0.0
 27
1.0
 37
0.0
 76
     0
330
1F
331
29
  0
MATERIAL
  5
3D
102
{ACAD_REACTORS
330
3B
102
}
330
3B
100
AcDbMaterial
  1
ByBlock
 72
     1
 94
      127
  0
MATERIAL
  5
3C
102
{ACAD_REACTORS
330
3B
102
}
330
3B
100
AcDbMaterial
  1
ByLayer
 72
     1
 94
      127
  0
MATERIAL
  5
3E
102
{ACAD_REACTORS
330
3B
102
}
330
3B
100
AcDbMaterial
  1
Global
 72
     1
 94
      127
  0
MLINESTYLE
  5
18
102
{ACAD_REACTORS
330
17
102
}
330
17
100
AcDbMlineStyle
  2
Standard
 70
     0
  3

 62
   256
 51
90.0
 52
90.0
 71
     2
 49
0.5
 62
   256
  6
BYLAYER
 49
-0.5
 62
   256
  6
BYLAYER
  0
ACDBPLACEHOLDER
  5
F
102
{ACAD_REACTORS
330
E
102
}
330
E
  0
VISUALSTYLE
  5
2F
102
{ACAD_REACTORS
330
2A
102
}
102
{ACAD_XDICTIONARY
360
74
102
}
330
2A
100
AcDbVisualStyle
  2
2dWireframe
 70
     4
 71
     0
 72
     2
 73
     0
 90
        0
 40
-0.6
 41
-30.0
 62
     5
 63
     7
421
 16777215
 74
     1
 91
        4
 64
     7
 65
   257
 75
     1
175
     1
 42
1.0
 92
        0
 66
   257
 43
1.0
 76
     1
 77
     6
 78
     2
 67
     7
 79
     5
170
     0
171
     0
290
     0
174
     0
 93
        1
 44
0.0
173
     0
291
     0
 45
0.0
  0
VISUALSTYLE
  5
31
102
{ACAD_REACTORS
330
2A
102
}
102
{ACAD_XDICTIONARY
360
78
102
}
330
2A
100
AcDbVisualStyle
  2
3D Hidden
 70
     6
 71
     1
 72
     2
 73
     2
 90
        0
 40
-0.6
 41
-30.0
 62
     5
 63
     7
421
 16777215
 74
     2
 91
        2
 64
     7
 65
   257
 75
     2
175
     1
 42
40.0
 92
        0
 66
   257
 43
1.0
 76
     1
 77
     6
 78
     2
 67
     7
 79
     3
170
     0
171
     0
290
     0
174
     0
 93
        1
 44
0.0
173
     0
291
     0
 45
0.0
  0
VISUALSTYLE
  5
30
102
{ACAD_REACTORS
330
2A
102
}
102
{ACAD_XDICTIONARY
360
76
102
}
330
2A
100
AcDbVisualStyle
  2
3dWireframe
 70
     5
 71
     0
 72
     2
 73
     0
 90
        0
 40
-0.6
 41
-30.0
 62
     5
 63
     7
421
 16777215
 74
     1
 91
        4
 64
     7
 65
   257
 75
     1
175
     1
 42
1.0
 92
        0
 66
   257
 43
1.0
 76
     1
 77
     6
 78
     2
 67
     7
 79
     5
170
     0
171
     0
290
     0
174
     0
 93
        1
 44
0.0
173
     0
291
     0
 45
0.0
  0
VISUALSTYLE
  5
32
102
{ACAD_REACTORS
330
2A
102
}
102
{ACAD_XDICTIONARY
360
7A
102
}
330
2A
100
AcDbVisualStyle
  2
Basic
 70
     7
 71
     1
 72
     0
 73
     1
 90
        0
 40
-0.6
 41
-30.0
 62
     5
 63
     7
421
 16777215
 74
     0
 91
        4
 64
     7
 65
   257
 75
     1
175
     1
 42
1.0
 92
        8
 66
     7
 43
1.0
 76
     1
 77
     6
 78
     2
 67
     7
 79
     5
170
     0
171
     0
290
     0
174
     0
 93
        1
 44
0.0
173
     0
291
     1
 45
0.0
  0
VISUALSTYLE
  5
36
102
{ACAD_REACTORS
330
2A
102
}
102
{ACAD_XDICTIONARY
360
82
102
}
330
2A
100
AcDbVisualStyle
  2
Brighten
 70
    12
 71
     2
 72
     2
 73
     0
 90
        0
 40
-0.6
 41
-30.0
 62
     5
 63
     7
421
 16777215
 74
     1
 91
        4
 64
     7
 65
   257
 75
     1
175
     1
 42
1.0
 92
        8
 66
     7
 43
1.0
 76
     1
 77
     6
 78
     2
 67
     7
 79
     5
170
     0
171
     0
290
     0
174
     0
 93
        1
 44
50.0
173
     0
291
     1
 45
0.0
  0
VISUALSTYLE
  5
3A
102
{ACAD_REACTORS
330
2A
102
}
102
{ACAD_XDICTIONARY
360
8A
102
}
330
2A
100
AcDbVisualStyle
  2
ColorChange
 70
    16
 71
     2
 72
     2
 73
     3
 90
        0
 40
-0.6
 41
-30.0
 62
     5
 63
     8
421
  8421504
 74
     1
 91
        4
 64
     7
 65
   257
 75
     1
175
     1
 42
1.0
 92
        8
 66
     8
424
  8421504
 43
1.0
 76
     1
 77
     6
 78
     2
 67
     7
 79
     5
170
     0
171
     0
290
     0
174
     0
 93
        1
 44
0.0
173
     0
291
     1
 45
0.0
  0
VISUALSTYLE
  5
34
102
{ACAD_REACTORS
330
2A
102
}
102
{ACAD_XDICTIONARY
360
7E
102
}
330
2A
100
AcDbVisualStyle
  2
Conceptual
 70
     9
 71
     3
 72
     2
 73
     0
 90
        0
 40
-0.6
 41
-30.0
 62
     5
 63
     7
421
 16777215
 74
     2
 91
        2
 64
     7
 65
   257
 75
     1
175
     1
 42
40.0
 92
        8
 66
     7
 43
1.0
 76
     1
 77
     6
 78
     2
 67
     7
 79
     3
170
     0
171
     0
290
     0
174
     0
 93
        1
 44
0.0
173
     0
291
     0
 45
0.0
  0
VISUALSTYLE
  5
35
102
{ACAD_REACTORS
330
2A
102
}
102
{ACAD_XDICTIONARY
360
80
102
}
330
2A
100
AcDbVisualStyle
  2
Dim
 70
    11
 71
     2
 72
     2
 73
     0
 90
        0
 40
-0.6
 41
-30.0
 62
     5
 63
     7
421
 16777215
 74
     1
 91
        4
 64
     7
 65
   257
 75
     1
175
     1
 42
1.0
 92
        8
 66
     7
 43
1.0
 76
     1
 77
     6
 78
     2
 67
     7
 79
     5
170
     0
171
     0
290
     0
174
     0
 93
        1
 44
-50.0
173
     0
291
     1
 45
0.0
  0
VISUALSTYLE
  5
39
102
{ACAD_REACTORS
330
2A
102
}
102
{ACAD_XDICTIONARY
360
88
102
}
330
2A
100
AcDbVisualStyle
  2
Facepattern
 70
    15
 71
     2
 72
     2
 73
     0
 90
        0
 40
-0.6
 41
-30.0
 62
     5
 63
     7
421
 16777215
 74
     1
 91
        4
 64
     7
 65
   257
 75
     1
175
     1
 42
1.0
 92
        8
 66
     7
 43
1.0
 76
     1
 77
     6
 78
     2
 67
     7
 79
     5
170
     0
171
     0
290
     0
174
     0
 93
        1
 44
0.0
173
     0
291
     1
 45
0.0
  0
VISUALSTYLE
  5
2B
102
{ACAD_REACTORS
330
2A
102
}
102
{ACAD_XDICTIONARY
360
6C
102
}
330
2A
100
AcDbVisualStyle
  2
Flat
 70
     0
 71
     2
 72
     1
 73
     1
 90
        2
 40
-0.6
 41
30.0
 62
     5
 63
     7
421
 16777215
 74
     0
 91
        4
 64
     7
 65
   257
 75
     1
175
     1
 42
1.0
 92
        8
 66
     7
 43
1.0
 76
     1
 77
     6
 78
     2
 67
     7
 79
     5
170
     0
171
     0
290
     0
174
     0
 93
       13
 44
0.0
173
     0
291
     1
 45
0.0
  0
VISUALSTYLE
  5
2C
102
{ACAD_REACTORS
330
2A
102
}
102
{ACAD_XDICTIONARY
360
6E
102
}
330
2A
100
AcDbVisualStyle
  2
FlatWithEdges
 70
     1
 71
     2
 72
     1
 73
     1
 90
        2
 40
-0.6
 41
30.0
 62
     5
 63
     7
421
 16777215
 74
     1
 91
        4
 64
     7
 65
   257
 75
     1
175
     1
 42
1.0
 92
        0
 66
   257
 43
1.0
 76
     1
 77
     6
 78
     2
 67
     7
 79
     5
170
     0
171
     0
290
     0
174
     0
 93
       13
 44
0.0
173
     0
291
     1
 45
0.0
  0
VISUALSTYLE
  5
2D
102
{ACAD_REACTORS
330
2A
102
}
102
{ACAD_XDICTIONARY
360
70
102
}
330
2A
100
AcDbVisualStyle
  2
Gouraud
 70
     2
 71
     2
 72
     2
 73
     1
 90
        2
 40
-0.6
 41
30.0
 62
     5
 63
     7
421
 16777215
 74
     0
 91
        4
 64
     7
 65
   257
 75
     1
175
     1
 42
1.0
 92
        0
 66
     7
 43
1.0
 76
     1
 77
     6
 78
     2
 67
     7
 79
     5
170
     0
171
     0
290
     0
174
     0
 93
       13
 44
0.0
173
     0
291
     1
 45
0.0
  0
VISUALSTYLE
  5
2E
102
{ACAD_REACTORS
330
2A
102
}
102
{ACAD_XDICTIONARY
360
72
102
}
330
2A
100
AcDbVisualStyle
  2
GouraudWithEdges
 70
     3
 71
     2
 72
     2
 73
     1
 90
        2
 40
-0.6
 41
30.0
 62
     5
 63
     7
421
 16777215
 74
     1
 91
        4
 64
     7
 65
   257
 75
     1
175
     1
 42
1.0
 92
        0
 66
   257
 43
1.0
 76
     1
 77
     6
 78
     2
 67
     7
 79
     5
170
     0
171
     0
290
     0
174
     0
 93
       13
 44
0.0
173
     0
291
     1
 45
0.0
  0
VISUALSTYLE
  5
38
102
{ACAD_REACTORS
330
2A
102
}
102
{ACAD_XDICTIONARY
360
86
102
}
330
2A
100
AcDbVisualStyle
  2
Linepattern
 70
    14
 71
     2
 72
     2
 73
     0
 90
        0
 40
-0.6
 41
-30.0
 62
     5
 63
     7
421
 16777215
 74
     1
 91
        4
 64
     7
 65
   257
 75
     7
175
     7
 42
1.0
 92
        8
 66
     7
 43
1.0
 76
     1
 77
     6
 78
     2
 67
     7
 79
     5
170
     0
171
     0
290
     0
174
     0
 93
        1
 44
0.0
173
     0
291
     1
 45
0.0
  0
VISUALSTYLE
  5
33
102
{ACAD_REACTORS
330
2A
102
}
102
{ACAD_XDICTIONARY
360
7C
102
}
330
2A
100
AcDbVisualStyle
  2
Realistic
 70
     8
 71
     2
 72
     2
 73
     0
 90
        0
 40
-0.6
 41
-30.0
 62
     5
 63
     7
421
 16777215
 74
     1
 91
        0
 64
     7
 65
   257
 75
     1
175
     1
 42
1.0
 92
        8
 66
     8
424
  7895160
 43
1.0
 76
     1
 77
     6
 78
     2
 67
     7
 79
     5
170
     0
171
     0
290
     0
174
     0
 93
       13
 44
0.0
173
     0
291
     0
 45
0.0
  0
VISUALSTYLE
  5
37
102
{ACAD_REACTORS
330
2A
102
}
102
{ACAD_XDICTIONARY
360
84
102
}
330
2A
100
AcDbVisualStyle
  2
Thicken
 70
    13
 71
     2
 72
     2
 73
     0
 90
        0
 40
-0.6
 41
-30.0
 62
     5
 63
     7
421
 16777215
 74
     1
 91
        4
 64
     7
 65
   257
 75
     1
175
     1
 42
1.0
 92
       12
 66
     7
 43
1.0
 76
     1
 77
     6
 78
     2
 67
     7
 79
     5
170
     0
171
     0
290
     0
174
     0
 93
        1
 44
0.0
173
     0
291
     1
 45
0.0
  0
DICTIONARY
  5
74
330
2F
100
AcDbDictionary
280
     1
281
     1
  3
ACAD_XREC_ROUNDTRIP
360
75
  0
DICTIONARY
  5
78
330
31
100
AcDbDictionary
280
     1
281
     1
  3
ACAD_XREC_ROUNDTRIP
360
79
  0
DICTIONARY
  5
76
330
30
100
AcDbDictionary
280
     1
281
     1
  3
ACAD_XREC_ROUNDTRIP
360
77
  0
DICTIONARY
  5
7A
330
32
100
AcDbDictionary
280
     1
281
     1
  3
ACAD_XREC_ROUNDTRIP
360
7B
  0
DICTIONARY
  5
82
330
36
100
AcDbDictionary
280
     1
281
     1
  3
ACAD_XREC_ROUNDTRIP
360
83
  0
DICTIONARY
  5
8A
330
3A
100
AcDbDictionary
280
     1
281
     1
  3
ACAD_XREC_ROUNDTRIP
360
8B
  0
DICTIONARY
  5
7E
330
34
100
AcDbDictionary
280
     1
281
     1
  3
ACAD_XREC_ROUNDTRIP
360
7F
  0
DICTIONARY
  5
80
330
35
100
AcDbDictionary
280
     1
281
     1
  3
ACAD_XREC_ROUNDTRIP
360
81
  0
DICTIONARY
  5
88
330
39
100
AcDbDictionary
280
     1
281
     1
  3
ACAD_XREC_ROUNDTRIP
360
89
  0
DICTIONARY
  5
6C
330
2B
100
AcDbDictionary
280
     1
281
     1
  3
ACAD_XREC_ROUNDTRIP
360
6D
  0
DICTIONARY
  5
6E
330
2C
100
AcDbDictionary
280
     1
281
     1
  3
ACAD_XREC_ROUNDTRIP
360
6F
  0
DICTIONARY
  5
70
330
2D
100
AcDbDictionary
280
     1
281
     1
  3
ACAD_XREC_ROUNDTRIP
360
71
  0
DICTIONARY
  5
72
330
2E
100
AcDbDictionary
280
     1
281
     1
  3
ACAD_XREC_ROUNDTRIP
360
73
  0
DICTIONARY
  5
86
330
38
100
AcDbDictionary
280
     1
281
     1
  3
ACAD_XREC_ROUNDTRIP
360
87
  0
DICTIONARY
  5
7C
330
33
100
AcDbDictionary
280
     1
281
     1
  3
ACAD_XREC_ROUNDTRIP
360
7D
  0
DICTIONARY
  5
84
330
37
100
AcDbDictionary
280
     1
281
     1
  3
ACAD_XREC_ROUNDTRIP
360
85
  0
XRECORD
  5
75
102
{ACAD_REACTORS
330
74
102
}
330
74
100
AcDbXrecord
280
     1
102
RTVSPropertyOp0
 70
     1
102
RTVSPropertyOp1
 70
     1
102
RTVSPropertyOp2
 70
     1
102
RTVSPropertyOp3
 70
     1
102
RTVSPropertyOp4
 70
     1
102
RTVSPropertyOp5
 70
     1
102
RTVSPropertyOp6
 70
     1
102
RTVSPropertyOp7
 70
     1
102
RTVSPropertyOp8
 70
     1
102
RTVSPropertyOp9
 70
     1
102
RTVSPropertyOp10
 70
     1
102
RTVSPropertyOp11
 70
     1
102
RTVSPropertyOp12
 70
     1
102
RTVSPropertyOp13
 70
     1
102
RTVSPropertyOp14
 70
     1
102
RTVSPropertyOp15
 70
     1
102
RTVSPropertyOp16
 70
     1
102
RTVSPropertyOp17
 70
     1
102
RTVSPropertyOp18
 70
     1
102
RTVSPropertyOp19
 70
     1
102
RTVSPropertyOp20
 70
     1
102
RTVSPropertyOp21
 70
     1
102
RTVSPropertyOp22
 70
     1
102
RTVSPropertyOp23
 70
     1
102
RTVSPropertyOp24
 70
     1
102
RTVSPropertyOp25
 70
     1
102
RTVSPropertyOp26
 70
     1
102
RTVSPropertyOp27
 70
     1
102
RTVSPropertyOp28
 70
     1
102
RTVSPropertyOp29
 70
     1
102
RTVSPropertyOp30
 70
     1
102
RTVSPropertyOp31
 70
     1
102
RTVSPropertyOp32
 70
     1
  0
XRECORD
  5
79
102
{ACAD_REACTORS
330
78
102
}
330
78
100
AcDbXrecord
280
     1
102
RTVSPropertyOp0
 70
     1
102
RTVSPropertyOp1
 70
     1
102
RTVSPropertyOp2
 70
     1
102
RTVSPropertyOp3
 70
     1
102
RTVSPropertyOp4
 70
     1
102
RTVSPropertyOp5
 70
     1
102
RTVSPropertyOp6
 70
     1
102
RTVSPropertyOp7
 70
     1
102
RTVSPropertyOp8
 70
     1
102
RTVSPropertyOp9
 70
     1
102
RTVSPropertyOp10
 70
     1
102
RTVSPropertyOp11
 70
     1
102
RTVSPropertyOp12
 70
     1
102
RTVSPropertyOp13
 70
     1
102
RTVSPropertyOp14
 70
     1
102
RTVSPropertyOp15
 70
     1
102
RTVSPropertyOp16
 70
     1
102
RTVSPropertyOp17
 70
     1
102
RTVSPropertyOp18
 70
     1
102
RTVSPropertyOp19
 70
     1
102
RTVSPropertyOp20
 70
     1
102
RTVSPropertyOp21
 70
     1
102
RTVSPropertyOp22
 70
     1
102
RTVSPropertyOp23
 70
     1
102
RTVSPropertyOp24
 70
     1
102
RTVSPropertyOp25
 70
     1
102
RTVSPropertyOp26
 70
     1
102
RTVSPropertyOp27
 70
     1
102
RTVSPropertyOp28
 70
     1
102
RTVSPropertyOp29
 70
     1
102
RTVSPropertyOp30
 70
     1
102
RTVSPropertyOp31
 70
     1
102
RTVSPropertyOp32
 70
     1
  0
XRECORD
  5
77
102
{ACAD_REACTORS
330
76
102
}
330
76
100
AcDbXrecord
280
     1
102
RTVSPropertyOp0
 70
     1
102
RTVSPropertyOp1
 70
     1
102
RTVSPropertyOp2
 70
     1
102
RTVSPropertyOp3
 70
     1
102
RTVSPropertyOp4
 70
     1
102
RTVSPropertyOp5
 70
     1
102
RTVSPropertyOp6
 70
     1
102
RTVSPropertyOp7
 70
     1
102
RTVSPropertyOp8
 70
     1
102
RTVSPropertyOp9
 70
     1
102
RTVSPropertyOp10
 70
     1
102
RTVSPropertyOp11
 70
     1
102
RTVSPropertyOp12
 70
     1
102
RTVSPropertyOp13
 70
     1
102
RTVSPropertyOp14
 70
     1
102
RTVSPropertyOp15
 70
     1
102
RTVSPropertyOp16
 70
     1
102
RTVSPropertyOp17
 70
     1
102
RTVSPropertyOp18
 70
     1
102
RTVSPropertyOp19
 70
     1
102
RTVSPropertyOp20
 70
     1
102
RTVSPropertyOp21
 70
     1
102
RTVSPropertyOp22
 70
     1
102
RTVSPropertyOp23
 70
     1
102
RTVSPropertyOp24
 70
     1
102
RTVSPropertyOp25
 70
     1
102
RTVSPropertyOp26
 70
     1
102
RTVSPropertyOp27
 70
     1
102
RTVSPropertyOp28
 70
     1
102
RTVSPropertyOp29
 70
     1
102
RTVSPropertyOp30
 70
     1
102
RTVSPropertyOp31
 70
     1
102
RTVSPropertyOp32
 70
     1
  0
XRECORD
  5
7B
102
{ACAD_REACTORS
330
7A
102
}
330
7A
100
AcDbXrecord
280
     1
102
RTVSPropertyOp0
 70
     1
102
RTVSPropertyOp1
 70
     1
102
RTVSPropertyOp2
 70
     1
102
RTVSPropertyOp3
 70
     1
102
RTVSPropertyOp4
 70
     1
102
RTVSPropertyOp5
 70
     1
102
RTVSPropertyOp6
 70
     1
102
RTVSPropertyOp7
 70
     1
102
RTVSPropertyOp8
 70
     1
102
RTVSPropertyOp9
 70
     1
102
RTVSPropertyOp10
 70
     1
102
RTVSPropertyOp11
 70
     1
102
RTVSPropertyOp12
 70
     1
102
RTVSPropertyOp13
 70
     1
102
RTVSPropertyOp14
 70
     1
102
RTVSPropertyOp15
 70
     1
102
RTVSPropertyOp16
 70
     1
102
RTVSPropertyOp17
 70
     1
102
RTVSPropertyOp18
 70
     1
102
RTVSPropertyOp19
 70
     1
102
RTVSPropertyOp20
 70
     1
102
RTVSPropertyOp21
 70
     1
102
RTVSPropertyOp22
 70
     1
102
RTVSPropertyOp23
 70
     1
102
RTVSPropertyOp24
 70
     1
102
RTVSPropertyOp25
 70
     1
102
RTVSPropertyOp26
 70
     1
102
RTVSPropertyOp27
 70
     1
102
RTVSPropertyOp28
 70
     1
102
RTVSPropertyOp29
 70
     1
102
RTVSPropertyOp30
 70
     1
102
RTVSPropertyOp31
 70
     1
102
RTVSPropertyOp32
 70
     1
  0
XRECORD
  5
83
102
{ACAD_REACTORS
330
82
102
}
330
82
100
AcDbXrecord
280
     1
102
RTVSPropertyOp0
 70
     1
102
RTVSPropertyOp1
 70
     1
102
RTVSPropertyOp2
 70
     1
102
RTVSPropertyOp3
 70
     1
102
RTVSPropertyOp4
 70
     1
102
RTVSPropertyOp5
 70
     1
102
RTVSPropertyOp6
 70
     1
102
RTVSPropertyOp7
 70
     1
102
RTVSPropertyOp8
 70
     1
102
RTVSPropertyOp9
 70
     1
102
RTVSPropertyOp10
 70
     1
102
RTVSPropertyOp11
 70
     1
102
RTVSPropertyOp12
 70
     1
102
RTVSPropertyOp13
 70
     1
102
RTVSPropertyOp14
 70
     1
102
RTVSPropertyOp15
 70
     1
102
RTVSPropertyOp16
 70
     1
102
RTVSPropertyOp17
 70
     1
102
RTVSPropertyOp18
 70
     1
102
RTVSPropertyOp19
 70
     1
102
RTVSPropertyOp20
 70
     1
102
RTVSPropertyOp21
 70
     1
102
RTVSPropertyOp22
 70
     1
102
RTVSPropertyOp23
 70
     1
102
RTVSPropertyOp24
 70
     1
102
RTVSPropertyOp25
 70
     1
102
RTVSPropertyOp26
 70
     1
102
RTVSPropertyOp27
 70
     1
102
RTVSPropertyOp28
 70
     1
102
RTVSPropertyOp29
 70
     1
102
RTVSPropertyOp30
 70
     1
102
RTVSPropertyOp31
 70
     1
102
RTVSPropertyOp32
 70
     1
  0
XRECORD
  5
8B
102
{ACAD_REACTORS
330
8A
102
}
330
8A
100
AcDbXrecord
280
     1
102
RTVSPropertyOp0
 70
     1
102
RTVSPropertyOp1
 70
     1
102
RTVSPropertyOp2
 70
     1
102
RTVSPropertyOp3
 70
     1
102
RTVSPropertyOp4
 70
     1
102
RTVSPropertyOp5
 70
     1
102
RTVSPropertyOp6
 70
     1
102
RTVSPropertyOp7
 70
     1
102
RTVSPropertyOp8
 70
     1
102
RTVSPropertyOp9
 70
     1
102
RTVSPropertyOp10
 70
     1
102
RTVSPropertyOp11
 70
     1
102
RTVSPropertyOp12
 70
     1
102
RTVSPropertyOp13
 70
     1
102
RTVSPropertyOp14
 70
     1
102
RTVSPropertyOp15
 70
     1
102
RTVSPropertyOp16
 70
     1
102
RTVSPropertyOp17
 70
     1
102
RTVSPropertyOp18
 70
     1
102
RTVSPropertyOp19
 70
     1
102
RTVSPropertyOp20
 70
     1
102
RTVSPropertyOp21
 70
     1
102
RTVSPropertyOp22
 70
     1
102
RTVSPropertyOp23
 70
     1
102
RTVSPropertyOp24
 70
     1
102
RTVSPropertyOp25
 70
     1
102
RTVSPropertyOp26
 70
     1
102
RTVSPropertyOp27
 70
     1
102
RTVSPropertyOp28
 70
     1
102
RTVSPropertyOp29
 70
     1
102
RTVSPropertyOp30
 70
     1
102
RTVSPropertyOp31
 70
     1
102
RTVSPropertyOp32
 70
     1
  0
XRECORD
  5
7F
102
{ACAD_REACTORS
330
7E
102
}
330
7E
100
AcDbXrecord
280
     1
102
RTVSPropertyOp0
 70
     1
102
RTVSPropertyOp1
 70
     1
102
RTVSPropertyOp2
 70
     1
102
RTVSPropertyOp3
 70
     1
102
RTVSPropertyOp4
 70
     1
102
RTVSPropertyOp5
 70
     1
102
RTVSPropertyOp6
 70
     1
102
RTVSPropertyOp7
 70
     1
102
RTVSPropertyOp8
 70
     1
102
RTVSPropertyOp9
 70
     1
102
RTVSPropertyOp10
 70
     1
102
RTVSPropertyOp11
 70
     1
102
RTVSPropertyOp12
 70
     1
102
RTVSPropertyOp13
 70
     1
102
RTVSPropertyOp14
 70
     1
102
RTVSPropertyOp15
 70
     1
102
RTVSPropertyOp16
 70
     1
102
RTVSPropertyOp17
 70
     1
102
RTVSPropertyOp18
 70
     1
102
RTVSPropertyOp19
 70
     1
102
RTVSPropertyOp20
 70
     1
102
RTVSPropertyOp21
 70
     1
102
RTVSPropertyOp22
 70
     1
102
RTVSPropertyOp23
 70
     1
102
RTVSPropertyOp24
 70
     1
102
RTVSPropertyOp25
 70
     1
102
RTVSPropertyOp26
 70
     1
102
RTVSPropertyOp27
 70
     1
102
RTVSPropertyOp28
 70
     1
102
RTVSPropertyOp29
 70
     1
102
RTVSPropertyOp30
 70
     1
102
RTVSPropertyOp31
 70
     1
102
RTVSPropertyOp32
 70
     1
  0
XRECORD
  5
81
102
{ACAD_REACTORS
330
80
102
}
330
80
100
AcDbXrecord
280
     1
102
RTVSPropertyOp0
 70
     1
102
RTVSPropertyOp1
 70
     1
102
RTVSPropertyOp2
 70
     1
102
RTVSPropertyOp3
 70
     1
102
RTVSPropertyOp4
 70
     1
102
RTVSPropertyOp5
 70
     1
102
RTVSPropertyOp6
 70
     1
102
RTVSPropertyOp7
 70
     1
102
RTVSPropertyOp8
 70
     1
102
RTVSPropertyOp9
 70
     1
102
RTVSPropertyOp10
 70
     1
102
RTVSPropertyOp11
 70
     1
102
RTVSPropertyOp12
 70
     1
102
RTVSPropertyOp13
 70
     1
102
RTVSPropertyOp14
 70
     1
102
RTVSPropertyOp15
 70
     1
102
RTVSPropertyOp16
 70
     1
102
RTVSPropertyOp17
 70
     1
102
RTVSPropertyOp18
 70
     1
102
RTVSPropertyOp19
 70
     1
102
RTVSPropertyOp20
 70
     1
102
RTVSPropertyOp21
 70
     1
102
RTVSPropertyOp22
 70
     1
102
RTVSPropertyOp23
 70
     1
102
RTVSPropertyOp24
 70
     1
102
RTVSPropertyOp25
 70
     1
102
RTVSPropertyOp26
 70
     1
102
RTVSPropertyOp27
 70
     1
102
RTVSPropertyOp28
 70
     1
102
RTVSPropertyOp29
 70
     1
102
RTVSPropertyOp30
 70
     1
102
RTVSPropertyOp31
 70
     1
102
RTVSPropertyOp32
 70
     1
  0
XRECORD
  5
89
102
{ACAD_REACTORS
330
88
102
}
330
88
100
AcDbXrecord
280
     1
102
RTVSPropertyOp0
 70
     1
102
RTVSPropertyOp1
 70
     1
102
RTVSPropertyOp2
 70
     1
102
RTVSPropertyOp3
 70
     1
102
RTVSPropertyOp4
 70
     1
102
RTVSPropertyOp5
 70
     1
102
RTVSPropertyOp6
 70
     1
102
RTVSPropertyOp7
 70
     1
102
RTVSPropertyOp8
 70
     1
102
RTVSPropertyOp9
 70
     1
102
RTVSPropertyOp10
 70
     1
102
RTVSPropertyOp11
 70
     1
102
RTVSPropertyOp12
 70
     1
102
RTVSPropertyOp13
 70
     1
102
RTVSPropertyOp14
 70
     1
102
RTVSPropertyOp15
 70
     1
102
RTVSPropertyOp16
 70
     1
102
RTVSPropertyOp17
 70
     1
102
RTVSPropertyOp18
 70
     1
102
RTVSPropertyOp19
 70
     1
102
RTVSPropertyOp20
 70
     1
102
RTVSPropertyOp21
 70
     1
102
RTVSPropertyOp22
 70
     1
102
RTVSPropertyOp23
 70
     1
102
RTVSPropertyOp24
 70
     1
102
RTVSPropertyOp25
 70
     1
102
RTVSPropertyOp26
 70
     1
102
RTVSPropertyOp27
 70
     1
102
RTVSPropertyOp28
 70
     1
102
RTVSPropertyOp29
 70
     1
102
RTVSPropertyOp30
 70
     1
102
RTVSPropertyOp31
 70
     1
102
RTVSPropertyOp32
 70
     1
  0
XRECORD
  5
6D
102
{ACAD_REACTORS
330
6C
102
}
330
6C
100
AcDbXrecord
280
     1
102
RTVSPropertyOp0
 70
     1
102
RTVSPropertyOp1
 70
     1
102
RTVSPropertyOp2
 70
     1
102
RTVSPropertyOp3
 70
     1
102
RTVSPropertyOp4
 70
     1
102
RTVSPropertyOp5
 70
     1
102
RTVSPropertyOp6
 70
     1
102
RTVSPropertyOp7
 70
     1
102
RTVSPropertyOp8
 70
     1
102
RTVSPropertyOp9
 70
     1
102
RTVSPropertyOp10
 70
     1
102
RTVSPropertyOp11
 70
     1
102
RTVSPropertyOp12
 70
     1
102
RTVSPropertyOp13
 70
     1
102
RTVSPropertyOp14
 70
     1
102
RTVSPropertyOp15
 70
     1
102
RTVSPropertyOp16
 70
     1
102
RTVSPropertyOp17
 70
     1
102
RTVSPropertyOp18
 70
     1
102
RTVSPropertyOp19
 70
     1
102
RTVSPropertyOp20
 70
     1
102
RTVSPropertyOp21
 70
     1
102
RTVSPropertyOp22
 70
     1
102
RTVSPropertyOp23
 70
     1
102
RTVSPropertyOp24
 70
     1
102
RTVSPropertyOp25
 70
     1
102
RTVSPropertyOp26
 70
     1
102
RTVSPropertyOp27
 70
     1
102
RTVSPropertyOp28
 70
     1
102
RTVSPropertyOp29
 70
     1
102
RTVSPropertyOp30
 70
     1
102
RTVSPropertyOp31
 70
     1
102
RTVSPropertyOp32
 70
     1
  0
XRECORD
  5
6F
102
{ACAD_REACTORS
330
6E
102
}
330
6E
100
AcDbXrecord
280
     1
102
RTVSPropertyOp0
 70
     1
102
RTVSPropertyOp1
 70
     1
102
RTVSPropertyOp2
 70
     1
102
RTVSPropertyOp3
 70
     1
102
RTVSPropertyOp4
 70
     1
102
RTVSPropertyOp5
 70
     1
102
RTVSPropertyOp6
 70
     1
102
RTVSPropertyOp7
 70
     1
102
RTVSPropertyOp8
 70
     1
102
RTVSPropertyOp9
 70
     1
102
RTVSPropertyOp10
 70
     1
102
RTVSPropertyOp11
 70
     1
102
RTVSPropertyOp12
 70
     1
102
RTVSPropertyOp13
 70
     1
102
RTVSPropertyOp14
 70
     1
102
RTVSPropertyOp15
 70
     1
102
RTVSPropertyOp16
 70
     1
102
RTVSPropertyOp17
 70
     1
102
RTVSPropertyOp18
 70
     1
102
RTVSPropertyOp19
 70
     1
102
RTVSPropertyOp20
 70
     1
102
RTVSPropertyOp21
 70
     1
102
RTVSPropertyOp22
 70
     1
102
RTVSPropertyOp23
 70
     1
102
RTVSPropertyOp24
 70
     1
102
RTVSPropertyOp25
 70
     1
102
RTVSPropertyOp26
 70
     1
102
RTVSPropertyOp27
 70
     1
102
RTVSPropertyOp28
 70
     1
102
RTVSPropertyOp29
 70
     1
102
RTVSPropertyOp30
 70
     1
102
RTVSPropertyOp31
 70
     1
102
RTVSPropertyOp32
 70
     1
  0
XRECORD
  5
71
102
{ACAD_REACTORS
330
70
102
}
330
70
100
AcDbXrecord
280
     1
102
RTVSPropertyOp0
 70
     1
102
RTVSPropertyOp1
 70
     1
102
RTVSPropertyOp2
 70
     1
102
RTVSPropertyOp3
 70
     1
102
RTVSPropertyOp4
 70
     1
102
RTVSPropertyOp5
 70
     1
102
RTVSPropertyOp6
 70
     1
102
RTVSPropertyOp7
 70
     1
102
RTVSPropertyOp8
 70
     1
102
RTVSPropertyOp9
 70
     1
102
RTVSPropertyOp10
 70
     1
102
RTVSPropertyOp11
 70
     1
102
RTVSPropertyOp12
 70
     1
102
RTVSPropertyOp13
 70
     1
102
RTVSPropertyOp14
 70
     1
102
RTVSPropertyOp15
 70
     1
102
RTVSPropertyOp16
 70
     1
102
RTVSPropertyOp17
 70
     1
102
RTVSPropertyOp18
 70
     1
102
RTVSPropertyOp19
 70
     1
102
RTVSPropertyOp20
 70
     1
102
RTVSPropertyOp21
 70
     1
102
RTVSPropertyOp22
 70
     1
102
RTVSPropertyOp23
 70
     1
102
RTVSPropertyOp24
 70
     1
102
RTVSPropertyOp25
 70
     1
102
RTVSPropertyOp26
 70
     1
102
RTVSPropertyOp27
 70
     1
102
RTVSPropertyOp28
 70
     1
102
RTVSPropertyOp29
 70
     1
102
RTVSPropertyOp30
 70
     1
102
RTVSPropertyOp31
 70
     1
102
RTVSPropertyOp32
 70
     1
  0
XRECORD
  5
73
102
{ACAD_REACTORS
330
72
102
}
330
72
100
AcDbXrecord
280
     1
102
RTVSPropertyOp0
 70
     1
102
RTVSPropertyOp1
 70
     1
102
RTVSPropertyOp2
 70
     1
102
RTVSPropertyOp3
 70
     1
102
RTVSPropertyOp4
 70
     1
102
RTVSPropertyOp5
 70
     1
102
RTVSPropertyOp6
 70
     1
102
RTVSPropertyOp7
 70
     1
102
RTVSPropertyOp8
 70
     1
102
RTVSPropertyOp9
 70
     1
102
RTVSPropertyOp10
 70
     1
102
RTVSPropertyOp11
 70
     1
102
RTVSPropertyOp12
 70
     1
102
RTVSPropertyOp13
 70
     1
102
RTVSPropertyOp14
 70
     1
102
RTVSPropertyOp15
 70
     1
102
RTVSPropertyOp16
 70
     1
102
RTVSPropertyOp17
 70
     1
102
RTVSPropertyOp18
 70
     1
102
RTVSPropertyOp19
 70
     1
102
RTVSPropertyOp20
 70
     1
102
RTVSPropertyOp21
 70
     1
102
RTVSPropertyOp22
 70
     1
102
RTVSPropertyOp23
 70
     1
102
RTVSPropertyOp24
 70
     1
102
RTVSPropertyOp25
 70
     1
102
RTVSPropertyOp26
 70
     1
102
RTVSPropertyOp27
 70
     1
102
RTVSPropertyOp28
 70
     1
102
RTVSPropertyOp29
 70
     1
102
RTVSPropertyOp30
 70
     1
102
RTVSPropertyOp31
 70
     1
102
RTVSPropertyOp32
 70
     1
  0
XRECORD
  5
87
102
{ACAD_REACTORS
330
86
102
}
330
86
100
AcDbXrecord
280
     1
102
RTVSPropertyOp0
 70
     1
102
RTVSPropertyOp1
 70
     1
102
RTVSPropertyOp2
 70
     1
102
RTVSPropertyOp3
 70
     1
102
RTVSPropertyOp4
 70
     1
102
RTVSPropertyOp5
 70
     1
102
RTVSPropertyOp6
 70
     1
102
RTVSPropertyOp7
 70
     1
102
RTVSPropertyOp8
 70
     1
102
RTVSPropertyOp9
 70
     1
102
RTVSPropertyOp10
 70
     1
102
RTVSPropertyOp11
 70
     1
102
RTVSPropertyOp12
 70
     1
102
RTVSPropertyOp13
 70
     1
102
RTVSPropertyOp14
 70
     1
102
RTVSPropertyOp15
 70
     1
102
RTVSPropertyOp16
 70
     1
102
RTVSPropertyOp17
 70
     1
102
RTVSPropertyOp18
 70
     1
102
RTVSPropertyOp19
 70
     1
102
RTVSPropertyOp20
 70
     1
102
RTVSPropertyOp21
 70
     1
102
RTVSPropertyOp22
 70
     1
102
RTVSPropertyOp23
 70
     1
102
RTVSPropertyOp24
 70
     1
102
RTVSPropertyOp25
 70
     1
102
RTVSPropertyOp26
 70
     1
102
RTVSPropertyOp27
 70
     1
102
RTVSPropertyOp28
 70
     1
102
RTVSPropertyOp29
 70
     1
102
RTVSPropertyOp30
 70
     1
102
RTVSPropertyOp31
 70
     1
102
RTVSPropertyOp32
 70
     1
  0
XRECORD
  5
7D
102
{ACAD_REACTORS
330
7C
102
}
330
7C
100
AcDbXrecord
280
     1
102
RTVSPropertyOp0
 70
     1
102
RTVSPropertyOp1
 70
     1
102
RTVSPropertyOp2
 70
     1
102
RTVSPropertyOp3
 70
     1
102
RTVSPropertyOp4
 70
     1
102
RTVSPropertyOp5
 70
     1
102
RTVSPropertyOp6
 70
     1
102
RTVSPropertyOp7
 70
     1
102
RTVSPropertyOp8
 70
     1
102
RTVSPropertyOp9
 70
     1
102
RTVSPropertyOp10
 70
     1
102
RTVSPropertyOp11
 70
     1
102
RTVSPropertyOp12
 70
     1
102
RTVSPropertyOp13
 70
     1
102
RTVSPropertyOp14
 70
     1
102
RTVSPropertyOp15
 70
     1
102
RTVSPropertyOp16
 70
     1
102
RTVSPropertyOp17
 70
     1
102
RTVSPropertyOp18
 70
     1
102
RTVSPropertyOp19
 70
     1
102
RTVSPropertyOp20
 70
     1
102
RTVSPropertyOp21
 70
     1
102
RTVSPropertyOp22
 70
     1
102
RTVSPropertyOp23
 70
     1
102
RTVSPropertyOp24
 70
     1
102
RTVSPropertyOp25
 70
     1
102
RTVSPropertyOp26
 70
     1
102
RTVSPropertyOp27
 70
     1
102
RTVSPropertyOp28
 70
     1
102
RTVSPropertyOp29
 70
     1
102
RTVSPropertyOp30
 70
     1
102
RTVSPropertyOp31
 70
     1
102
RTVSPropertyOp32
 70
     1
  0
XRECORD
  5
85
102
{ACAD_REACTORS
330
84
102
}
330
84
100
AcDbXrecord
280
     1
102
RTVSPropertyOp0
 70
     1
102
RTVSPropertyOp1
 70
     1
102
RTVSPropertyOp2
 70
     1
102
RTVSPropertyOp3
 70
     1
102
RTVSPropertyOp4
 70
     1
102
RTVSPropertyOp5
 70
     1
102
RTVSPropertyOp6
 70
     1
102
RTVSPropertyOp7
 70
     1
102
RTVSPropertyOp8
 70
     1
102
RTVSPropertyOp9
 70
     1
102
RTVSPropertyOp10
 70
     1
102
RTVSPropertyOp11
 70
     1
102
RTVSPropertyOp12
 70
     1
102
RTVSPropertyOp13
 70
     1
102
RTVSPropertyOp14
 70
     1
102
RTVSPropertyOp15
 70
     1
102
RTVSPropertyOp16
 70
     1
102
RTVSPropertyOp17
 70
     1
102
RTVSPropertyOp18
 70
     1
102
RTVSPropertyOp19
 70
     1
102
RTVSPropertyOp20
 70
     1
102
RTVSPropertyOp21
 70
     1
102
RTVSPropertyOp22
 70
     1
102
RTVSPropertyOp23
 70
     1
102
RTVSPropertyOp24
 70
     1
102
RTVSPropertyOp25
 70
     1
102
RTVSPropertyOp26
 70
     1
102
RTVSPropertyOp27
 70
     1
102
RTVSPropertyOp28
 70
     1
102
RTVSPropertyOp29
 70
     1
102
RTVSPropertyOp30
 70
     1
102
RTVSPropertyOp31
 70
     1
102
RTVSPropertyOp32
 70
     1
  0
ENDSEC
  0
EOF
