  0
SECTION
  2
HEADER
  9
$ACADVER
  1
AC1014
  9
$HANDSEED
  5
FFFF
  9
$MEASUREMENT
 70
     1
  0
ENDSEC
  0
SECTION
  2
TABLES
  0
TABLE
  2
VPORT
  5
8
330
0
100
AcDbSymbolTable
 70
     4
  0
VPORT
  5
2E
330
8
100
AcDbSymbolTableRecord
100
AcDbViewportTableRecord
  2
*ACTIVE
 70
     0
 10
0.0
 20
0.0
 11
1.0
 21
1.0
 12
210.0
 22
148.5
 13
0.0
 23
0.0
 14
10.0
 24
10.0
 15
10.0
 25
10.0
 16
0.0
 26
0.0
 36
1.0
 17
0.0
 27
0.0
 37
0.0
 40
341.0
 41
1.24
 42
50.0
 43
0.0
 44
0.0
 50
0.0
 51
0.0
 71
     0
 72
   100
 73
     1
 74
     3
 75
     0
 76
     0
 77
     0
 78
     0
  0
ENDTAB
  0
TABLE
  2
LTYPE
  5
5
330
0
100
AcDbSymbolTable
 70
     1
  0
LTYPE
  5
14
330
5
100
AcDbSymbolTableRecord
100
AcDbLinetypeTableRecord
  2
BYBLOCK
 70
     0
  3

 72
    65
 73
     0
 40
0.0
  0
LTYPE
  5
15
330
5
100
AcDbSymbolTableRecord
100
AcDbLinetypeTableRecord
  2
BYLAYER
 70
     0
  3

 72
    65
 73
     0
 40
0.0
  0
LTYPE
  5
16
330
5
100
AcDbSymbolTableRecord
100
AcDbLinetypeTableRecord
  2
CONTINUOUS
 70
     0
  3
Solid line
 72
    65
 73
     0
 40
0.0
  0
ENDTAB
  0
TABLE
  2
LAYER
  5
2
100
AcDbSymbolTable
 70
2
  0
LAYER
  5
50
100
AcDbSymbolTableRecord
100
AcDbLayerTableRecord
  2
0
 70
0
  6
CONTINUOUS
  0
LAYER
  5
51
100
AcDbSymbolTableRecord
100
AcDbLayerTableRecord
  2
Layer_1
 70
0
  6
CONTINUOUS
  0
ENDTAB
  0
TABLE
  2
STYLE
  5
3
330
0
100
AcDbSymbolTable
 70
     1
  0
STYLE
  5
11
330
3
100
AcDbSymbolTableRecord
100
AcDbTextStyleTableRecord
  2
STANDARD
 70
     0
 40
0.0
 41
1.0
 50
0.0
 71
     0
 42
2.5
  3
txt
  4

  0
ENDTAB
  0
TABLE
  2
VIEW
  5
6
330
0
100
AcDbSymbolTable
 70
     0
  0
ENDTAB
  0
TABLE
  2
UCS
  5
7
330
0
100
AcDbSymbolTable
 70
     0
  0
ENDTAB
  0
TABLE
  2
APPID
  5
9
330
0
100
AcDbSymbolTable
 70
     2
  0
APPID
  5
12
330
9
100
AcDbSymbolTableRecord
100
AcDbRegAppTableRecord
  2
ACAD
 70
     0
  0
ENDTAB
  0
TABLE
  2
DIMSTYLE
  5
A
330
0
100
AcDbSymbolTable
 70
     1
  0
DIMSTYLE
105
27
330
A
100
AcDbSymbolTableRecord
100
AcDbDimStyleTableRecord
  2
ISO-25
 70
     0
  3

  4

  5

  6

  7

 40
1.0
 41
2.5
 42
0.625
 43
3.75
 44
1.25
 45
0.0
 46
0.0
 47
0.0
 48
0.0
140
2.5
141
2.5
142
0.0
143
0.03937007874016
144
1.0
145
0.0
146
1.0
147
0.625
 71
     0
 72
     0
 73
     0
 74
     0
 75
     0
 76
     0
 77
     1
 78
     8
170
     0
171
     3
172
     1
173
     0
174
     0
175
     0
176
     0
177
     0
178
     0
270
     2
271
     2
272
     2
273
     2
274
     3
340
11
275
     0
280
     0
281
     0
282
     0
283
     0
284
     8
285
     0
286
     0
287
     3
288
     0
  0
ENDTAB
  0
TABLE
  2
BLOCK_RECORD
  5
1
330
0
100
AcDbSymbolTable
 70
     1
  0
BLOCK_RECORD
  5
1F
330
1
100
AcDbSymbolTableRecord
100
AcDbBlockTableRecord
  2
*MODEL_SPACE
  0
BLOCK_RECORD
  5
1B
330
1
100
AcDbSymbolTableRecord
100
AcDbBlockTableRecord
  2
*PAPER_SPACE
  0
ENDTAB
  0
ENDSEC
  0
SECTION
  2
BLOCKS
  0
BLOCK
  5
20
330
1F
100
AcDbEntity
  8
0
100
AcDbBlockBegin
  2
*MODEL_SPACE
 70
     0
 10
0.0
 20
0.0
 30
0.0
  3
*MODEL_SPACE
  1

  0
ENDBLK
  5
21
330
1F
100
AcDbEntity
  8
0
100
AcDbBlockEnd
  0
BLOCK
  5
1C
330
1B
100
AcDbEntity
 67
     1
  8
0
100
AcDbBlockBegin
  2
*PAPER_SPACE
  1

  0
ENDBLK
  5
1D
330
1B
100
AcDbEntity
 67
     1
  8
0
100
AcDbBlockEnd
  0
ENDSEC
  0
SECTION
  2
ENTITIES
  0
SPLINE
  5
100
100
AcDbEntity
  8
Layer_1
 62
7
100
AcDbSpline
 70
8
 71
3
 72
8
 73
4
 74
0
 40
0
 40
0
 40
0
 40
0
 40
1
 40
1
 40
1
 40
1
 10
289.199537
 20
191.049505
 30
0.0
 10
283.861191
 20
196.571381
 30
0.0
 10
278.337354
 20
201.910681
 30
0.0
 10
272.645440
 20
207.065616
 30
0.0
  0
LWPOLYLINE
  5
101
100
AcDbEntity
  8
Layer_1
 62
7
100
AcDbPolyline
 90
4
 70
0
 10
42.863635
 20
295.895061
 30
0.0
 10
42.863635
 20
49.559172
 30
0.0
 10
289.199537
 20
49.559172
 30
0.0
 10
289.199537
 20
191.049505
 30
0.0
  0
SPLINE
  5
102
100
AcDbEntity
  8
Layer_1
 62
7
100
AcDbSpline
 70
8
 71
3
 72
8
 73
4
 74
0
 40
0
 40
0
 40
0
 40
0
 40
1
 40
1
 40
1
 40
1
 10
269.276412
 20
210.081866
 30
0.0
 10
261.284613
 20
217.132206
 30
0.0
 10
252.964490
 20
223.810479
 30
0.0
 10
244.343843
 20
230.102005
 30
0.0
  0
LWPOLYLINE
  5
103
100
AcDbEntity
  8
Layer_1
 62
7
100
AcDbPolyline
 90
4
 70
0
 10
272.645440
 20
207.065616
 30
0.0
 10
256.823357
 20
188.738811
 30
0.0
 10
253.401412
 20
191.693325
 30
0.0
 10
269.276412
 20
210.081866
 30
0.0
  0
SPLINE
  5
104
100
AcDbEntity
  8
Layer_1
 62
7
100
AcDbSpline
 70
8
 71
3
 72
8
 73
4
 74
0
 40
0
 40
0
 40
0
 40
0
 40
1
 40
1
 40
1
 40
1
 10
240.674954
 20
232.739019
 30
0.0
 10
231.754389
 20
239.072264
 30
0.0
 10
222.517482
 20
244.983769
 30
0.0
 10
212.999537
 20
250.457283
 30
0.0
  0
LWPOLYLINE
  5
105
100
AcDbEntity
  8
Layer_1
 62
7
100
AcDbPolyline
 90
4
 70
0
 10
244.343843
 20
230.102005
 30
0.0
 10
230.338565
 20
210.205339
 30
0.0
 10
226.643218
 20
212.807075
 30
0.0
 10
240.674954
 20
232.739019
 30
0.0
  0
SPLINE
  5
106
100
AcDbEntity
  8
Layer_1
 62
7
100
AcDbSpline
 70
8
 71
3
 72
8
 73
4
 74
0
 40
0
 40
0
 40
0
 40
0
 40
1
 40
1
 40
1
 40
1
 10
209.074885
 20
252.688602
 30
0.0
 10
200.245308
 20
257.612737
 30
0.0
 10
191.177082
 20
262.153063
 30
0.0
 10
181.893357
 20
266.297005
 30
0.0
  0
LWPOLYLINE
  5
107
100
AcDbEntity
  8
Layer_1
 62
7
100
AcDbPolyline
 90
4
 70
0
 10
212.999537
 20
250.457283
 30
0.0
 10
200.669954
 20
228.955477
 30
0.0
 10
196.754121
 20
231.204436
 30
0.0
 10
209.074885
 20
252.688602
 30
0.0
  0
SPLINE
  5
108
100
AcDbEntity
  8
Layer_1
 62
7
100
AcDbSpline
 70
8
 71
3
 72
8
 73
4
 74
0
 40
0
 40
0
 40
0
 40
0
 40
1
 40
1
 40
1
 40
1
 10
177.748218
 20
268.113811
 30
0.0
 10
168.938849
 20
271.906776
 30
0.0
 10
159.938796
 20
275.331797
 30
0.0
 10
150.769537
 20
278.388464
 30
0.0
  0
LWPOLYLINE
  5
109
100
AcDbEntity
  8
Layer_1
 62
7
100
AcDbPolyline
 90
4
 70
0
 10
181.893357
 20
266.297005
 30
0.0
 10
171.195371
 20
243.966172
 30
0.0
 10
167.120787
 20
245.915269
 30
0.0
 10
177.748218
 20
268.113811
 30
0.0
  0
SPLINE
  5
10a
100
AcDbEntity
  8
Layer_1
 62
7
100
AcDbSpline
 70
8
 71
3
 72
8
 73
4
 74
0
 40
0
 40
0
 40
0
 40
0
 40
1
 40
1
 40
1
 40
1
 10
146.474468
 20
279.790755
 30
0.0
 10
136.399501
 20
283.001239
 30
0.0
 10
126.120589
 20
285.757167
 30
0.0
 10
115.668148
 20
288.036936
 30
0.0
  0
LWPOLYLINE
  5
10b
100
AcDbEntity
  8
Layer_1
 62
7
100
AcDbPolyline
 90
4
 70
0
 10
150.769537
 20
278.388464
 30
0.0
 10
142.699746
 20
255.158047
 30
0.0
 10
138.431135
 20
256.639714
 30
0.0
 10
146.474468
 20
279.790755
 30
0.0
  0
SPLINE
  5
10c
100
AcDbEntity
  8
Layer_1
 62
7
100
AcDbSpline
 70
8
 71
3
 72
8
 73
4
 74
0
 40
0
 40
0
 40
0
 40
0
 40
1
 40
1
 40
1
 40
1
 10
111.240787
 20
288.971797
 30
0.0
 10
99.728774
 20
291.322810
 30
0.0
 10
88.010644
 20
293.091417
 30
0.0
 10
76.112940
 20
294.254644
 30
0.0
  0
LWPOLYLINE
  5
10d
100
AcDbEntity
  8
Layer_1
 62
7
100
AcDbPolyline
 90
4
 70
0
 10
115.668148
 20
288.036936
 30
0.0
 10
111.611204
 20
264.074505
 30
0.0
 10
107.157385
 20
264.824158
 30
0.0
 10
111.240787
 20
288.971797
 30
0.0
  0
SPLINE
  5
10e
100
AcDbEntity
  8
Layer_1
 62
7
100
AcDbSpline
 70
8
 71
3
 72
8
 73
4
 74
0
 40
0
 40
0
 40
0
 40
0
 40
1
 40
1
 40
1
 40
1
 10
71.597385
 20
294.660339
 30
0.0
 10
62.123348
 20
295.460582
 30
0.0
 10
52.541317
 20
295.884432
 30
0.0
 10
42.863635
 20
295.895061
 30
0.0
  0
LWPOLYLINE
  5
10f
100
AcDbEntity
  8
Layer_1
 62
7
100
AcDbPolyline
 90
4
 70
0
 10
76.112940
 20
294.254644
 30
0.0
 10
76.112940
 20
267.699297
 30
0.0
 10
71.597385
 20
267.699297
 30
0.0
 10
71.597385
 20
294.660339
 30
0.0
  0
LWPOLYLINE
  5
110
100
AcDbEntity
  8
Layer_1
 62
7
100
AcDbPolyline
 90
2
 70
0
 10
42.863635
 20
295.895061
 30
0.0
 10
42.863635
 20
295.895061
 30
0.0
  0
SPLINE
  5
111
100
AcDbEntity
  8
Layer_1
 62
7
100
AcDbSpline
 70
8
 71
3
 72
8
 73
4
 74
0
 40
0
 40
0
 40
0
 40
0
 40
1
 40
1
 40
1
 40
1
 10
73.290718
 20
246.656102
 30
0.0
 10
144.885960
 20
240.381303
 30
0.0
 10
210.262151
 20
212.433412
 30
0.0
 10
262.829398
 20
169.415408
 30
0.0
  0
LWPOLYLINE
  5
112
100
AcDbEntity
  8
Layer_1
 62
7
100
AcDbPolyline
 90
5
 70
0
 10
53.645108
 20
275.566241
 30
0.0
 10
57.371621
 20
275.566241
 30
0.0
 10
57.371621
 20
257.883255
 30
0.0
 10
53.645108
 20
257.883255
 30
0.0
 10
53.645108
 20
275.566241
 30
0.0
  0
SPLINE
  5
113
100
AcDbEntity
  8
Layer_1
 62
7
100
AcDbSpline
 70
8
 71
3
 72
8
 73
4
 74
0
 40
0
 40
0
 40
0
 40
0
 40
1
 40
1
 40
1
 40
1
 10
262.829398
 20
109.416727
 30
0.0
 10
253.435688
 20
117.103987
 30
0.0
 10
243.635014
 20
124.310480
 30
0.0
 10
233.460648
 20
130.997908
 30
0.0
  0
LWPOLYLINE
  5
114
100
AcDbEntity
  8
Layer_1
 62
7
100
AcDbPolyline
 90
2
 70
0
 10
262.829398
 20
169.415408
 30
0.0
 10
262.829398
 20
109.416727
 30
0.0
  0
SPLINE
  5
115
100
AcDbEntity
  8
Layer_1
 62
7
100
AcDbSpline
 70
8
 71
3
 72
8
 73
4
 74
0
 40
0
 40
0
 40
0
 40
0
 40
1
 40
1
 40
1
 40
1
 10
229.668287
 20
133.449714
 30
0.0
 10
211.269967
 20
145.204540
 30
0.0
 10
191.697740
 20
155.279221
 30
0.0
 10
171.160093
 20
163.453464
 30
0.0
  0
LWPOLYLINE
  5
116
100
AcDbEntity
  8
Layer_1
 62
7
100
AcDbPolyline
 90
4
 70
0
 10
233.460648
 20
130.997908
 30
0.0
 10
220.152107
 20
110.104644
 30
0.0
 10
216.342107
 20
112.529991
 30
0.0
 10
229.668287
 20
133.449714
 30
0.0
  0
SPLINE
  5
117
100
AcDbEntity
  8
Layer_1
 62
7
100
AcDbSpline
 70
8
 71
3
 72
8
 73
4
 74
0
 40
0
 40
0
 40
0
 40
0
 40
1
 40
1
 40
1
 40
1
 10
166.944398
 20
165.093880
 30
0.0
 10
146.956179
 20
172.747880
 30
0.0
 10
126.084154
 20
178.616756
 30
0.0
 10
104.520371
 20
182.494644
 30
0.0
  0
LWPOLYLINE
  5
118
100
AcDbEntity
  8
Layer_1
 62
7
100
AcDbPolyline
 90
4
 70
0
 10
171.160093
 20
163.453464
 30
0.0
 10
161.758565
 20
140.778672
 30
0.0
 10
157.578148
 20
142.507283
 30
0.0
 10
166.944398
 20
165.093880
 30
0.0
  0
SPLINE
  5
119
100
AcDbEntity
  8
Layer_1
 62
7
100
AcDbSpline
 70
8
 71
3
 72
8
 73
4
 74
0
 40
0
 40
0
 40
0
 40
0
 40
1
 40
1
 40
1
 40
1
 10
100.057732
 20
183.270755
 30
0.0
 10
91.243903
 20
184.737199
 30
0.0
 10
82.315386
 20
185.866477
 30
0.0
 10
73.290718
 20
186.657422
 30
0.0
  0
LWPOLYLINE
  5
11a
100
AcDbEntity
  8
Layer_1
 62
7
100
AcDbPolyline
 90
4
 70
0
 10
104.520371
 20
182.494644
 30
0.0
 10
101.548218
 20
158.285269
 30
0.0
 10
97.067940
 20
158.840894
 30
0.0
 10
100.057732
 20
183.270755
 30
0.0
  0
LWPOLYLINE
  5
11b
100
AcDbEntity
  8
Layer_1
 62
7
100
AcDbPolyline
 90
2
 70
0
 10
73.290718
 20
186.657422
 30
0.0
 10
73.290718
 20
246.656102
 30
0.0
  0
LWPOLYLINE
  5
11c
100
AcDbEntity
  8
Layer_1
 62
7
100
AcDbPolyline
 90
5
 70
0
 10
54.952361
 20
95.570200
 30
0.0
 10
58.773912
 20
95.570200
 30
0.0
 10
58.773912
 20
77.887214
 30
0.0
 10
54.952361
 20
77.887214
 30
0.0
 10
54.952361
 20
95.570200
 30
0.0
  0
LWPOLYLINE
  5
11d
100
AcDbEntity
  8
Layer_1
 62
7
100
AcDbPolyline
 90
5
 70
0
 10
71.191690
 20
65.112546
 30
0.0
 10
88.874676
 20
65.112546
 30
0.0
 10
88.874676
 20
61.386033
 30
0.0
 10
71.191690
 20
61.386033
 30
0.0
 10
71.191690
 20
65.112546
 30
0.0
  0
SPLINE
  5
11e
100
AcDbEntity
  8
Layer_1
 62
7
100
AcDbSpline
 70
8
 71
3
 72
8
 73
4
 74
0
 40
0
 40
0
 40
0
 40
0
 40
1
 40
1
 40
1
 40
1
 10
29.132445
 20
54.085623
 30
0.0
 10
29.061373
 20
54.085623
 30
0.0
 10
28.991656
 20
54.077720
 30
0.0
 10
28.920779
 20
54.076874
 30
0.0
  0
LWPOLYLINE
  5
11f
100
AcDbEntity
  8
Layer_1
 62
7
100
AcDbPolyline
 90
5
 70
0
 10
249.280753
 20
65.207584
 30
0.0
 10
266.963739
 20
65.207584
 30
0.0
 10
266.868704
 20
61.386033
 30
0.0
 10
249.185718
 20
61.386033
 30
0.0
 10
249.280753
 20
65.207584
 30
0.0
  0
SPLINE
  5
120
100
AcDbEntity
  8
Layer_1
 62
7
100
AcDbSpline
 70
8
 71
3
 72
8
 73
4
 74
0
 40
0
 40
0
 40
0
 40
0
 40
1
 40
1
 40
1
 40
1
 10
29.132445
 20
18.410956
 30
0.0
 10
29.479172
 20
18.410956
 30
0.0
 10
29.822473
 20
18.418011
 30
0.0
 10
30.164320
 20
18.437485
 30
0.0
  0
LWPOLYLINE
  5
121
100
AcDbEntity
  8
Layer_1
 62
7
100
AcDbPolyline
 90
11
 70
0
 10
28.920779
 20
54.076874
 30
0.0
 10
28.920779
 20
36.058735
 30
0.0
 10
0.954320
 20
36.058735
 30
0.0
 10
0.954320
 20
18.437485
 30
0.0
 10
24.638638
 20
18.437485
 30
0.0
 10
24.571438
 20
26.225040
 30
0.0
 10
28.744390
 20
26.225040
 30
0.0
 10
28.744390
 20
18.437485
 30
0.0
 10
28.920779
 20
18.437485
 30
0.0
 10
28.920779
 20
18.410956
 30
0.0
 10
29.132445
 20
18.410956
 30
0.0
  0
SPLINE
  5
122
100
AcDbEntity
  8
Layer_1
 62
7
100
AcDbSpline
 70
8
 71
3
 72
8
 73
4
 74
0
 40
0
 40
0
 40
0
 40
0
 40
1
 40
1
 40
1
 40
1
 10
307.227153
 20
18.437485
 30
0.0
 10
307.569376
 20
18.418011
 30
0.0
 10
307.920771
 20
18.410956
 30
0.0
 10
308.267876
 20
18.410956
 30
0.0
  0
LWPOLYLINE
  5
123
100
AcDbEntity
  8
Layer_1
 62
7
100
AcDbPolyline
 90
2
 70
0
 10
30.164320
 20
18.437485
 30
0.0
 10
307.227153
 20
18.437485
 30
0.0
  0
SPLINE
  5
124
100
AcDbEntity
  8
Layer_1
 62
7
100
AcDbSpline
 70
8
 71
3
 72
8
 73
4
 74
0
 40
0
 40
0
 40
0
 40
0
 40
1
 40
1
 40
1
 40
1
 10
308.479543
 20
54.077156
 30
0.0
 10
308.408649
 20
54.077156
 30
0.0
 10
308.338940
 20
54.085905
 30
0.0
 10
308.267876
 20
54.085905
 30
0.0
  0
SPLINE
  5
125
100
AcDbEntity
  8
Layer_1
 62
7
100
AcDbSpline
 70
8
 71
3
 72
8
 73
4
 74
0
 40
0
 40
0
 40
0
 40
0
 40
1
 40
1
 40
1
 40
1
 10
308.267876
 20
54.085905
 30
0.0
 10
298.416006
 20
54.085905
 30
0.0
 10
290.426126
 20
46.096053
 30
0.0
 10
290.426126
 20
36.244183
 30
0.0
  0
SPLINE
  5
126
100
AcDbEntity
  8
Layer_1
 62
7
100
AcDbSpline
 70
8
 71
3
 72
8
 73
4
 74
0
 40
0
 40
0
 40
0
 40
0
 40
1
 40
1
 40
1
 40
1
 10
290.426126
 20
36.244183
 30
0.0
 10
290.426126
 20
36.182037
 30
0.0
 10
290.425561
 20
36.120965
 30
0.0
 10
290.426126
 20
36.058960
 30
0.0
  0
LWPOLYLINE
  5
127
100
AcDbEntity
  8
Layer_1
 62
7
100
AcDbPolyline
 90
11
 70
0
 10
308.267876
 20
18.410956
 30
0.0
 10
308.479543
 20
18.410956
 30
0.0
 10
308.479543
 20
18.437485
 30
0.0
 10
308.779376
 20
18.437485
 30
0.0
 10
308.779376
 20
26.225040
 30
0.0
 10
312.750725
 20
26.241973
 30
0.0
 10
312.750725
 20
18.454418
 30
0.0
 10
337.566042
 20
18.437767
 30
0.0
 10
337.566042
 20
36.059017
 30
0.0
 10
308.479543
 20
36.059017
 30
0.0
 10
308.479543
 20
54.077156
 30
0.0
  0
SPLINE
  5
128
100
AcDbEntity
  8
Layer_1
 62
7
100
AcDbSpline
 70
8
 71
3
 72
8
 73
4
 74
0
 40
0
 40
0
 40
0
 40
0
 40
1
 40
1
 40
1
 40
1
 10
46.965362
 20
36.058960
 30
0.0
 10
46.965926
 20
36.121021
 30
0.0
 10
46.974167
 20
36.181981
 30
0.0
 10
46.974167
 20
36.244183
 30
0.0
  0
SPLINE
  5
129
100
AcDbEntity
  8
Layer_1
 62
7
100
AcDbSpline
 70
8
 71
3
 72
8
 73
4
 74
0
 40
0
 40
0
 40
0
 40
0
 40
1
 40
1
 40
1
 40
1
 10
46.974167
 20
36.244183
 30
0.0
 10
46.974167
 20
46.096053
 30
0.0
 10
38.984287
 20
54.085905
 30
0.0
 10
29.132431
 20
54.085905
 30
0.0
  0
LWPOLYLINE
  5
12a
100
AcDbEntity
  8
Layer_1
 62
7
100
AcDbPolyline
 90
2
 70
0
 10
290.426126
 20
36.058960
 30
0.0
 10
46.965362
 20
36.058960
 30
0.0
  0
LWPOLYLINE
  5
12b
100
AcDbEntity
  8
Layer_1
 62
7
100
AcDbPolyline
 90
2
 70
0
 10
29.132431
 20
54.085905
 30
0.0
 10
29.132445
 20
54.085623
 30
0.0
  0
LWPOLYLINE
  5
12c
100
AcDbEntity
  8
Layer_1
 62
7
100
AcDbPolyline
 90
13
 70
0
 10
0.869614
 20
17.906822
 30
0.0
 10
0.869614
 20
0.285572
 30
0.0
 10
24.688348
 20
0.352769
 30
0.0
 10
24.688348
 20
8.073127
 30
0.0
 10
28.659698
 20
8.073127
 30
0.0
 10
28.659698
 20
0.285572
 30
0.0
 10
308.694686
 20
0.285572
 30
0.0
 10
308.694686
 20
8.073127
 30
0.0
 10
312.666036
 20
8.073127
 30
0.0
 10
312.666036
 20
0.285572
 30
0.0
 10
337.481381
 20
0.285572
 30
0.0
 10
337.481381
 20
17.906822
 30
0.0
 10
0.869614
 20
17.906822
 30
0.0
  0
SPLINE
  5
12d
100
AcDbEntity
  8
Layer_1
 62
7
100
AcDbSpline
 70
8
 71
3
 72
8
 73
4
 74
0
 40
0
 40
0
 40
0
 40
0
 40
1
 40
1
 40
1
 40
1
 10
291.336936
 20
105.301802
 30
0.0
 10
296.675282
 20
99.779926
 30
0.0
 10
302.199105
 20
94.440620
 30
0.0
 10
307.891019
 20
89.285690
 30
0.0
  0
LWPOLYLINE
  5
12e
100
AcDbEntity
  8
Layer_1
 62
7
100
AcDbPolyline
 90
4
 70
0
 10
537.672825
 20
0.456232
 30
0.0
 10
537.672825
 20
246.792121
 30
0.0
 10
291.336936
 20
246.792121
 30
0.0
 10
291.336936
 20
105.301802
 30
0.0
  0
SPLINE
  5
12f
100
AcDbEntity
  8
Layer_1
 62
7
100
AcDbSpline
 70
8
 71
3
 72
8
 73
4
 74
0
 40
0
 40
0
 40
0
 40
0
 40
1
 40
1
 40
1
 40
1
 10
311.260047
 20
86.269440
 30
0.0
 10
319.251846
 20
79.219106
 30
0.0
 10
327.571955
 20
72.540822
 30
0.0
 10
336.192602
 20
66.249296
 30
0.0
  0
LWPOLYLINE
  5
130
100
AcDbEntity
  8
Layer_1
 62
7
100
AcDbPolyline
 90
4
 70
0
 10
307.891019
 20
89.285690
 30
0.0
 10
323.713102
 20
107.612496
 30
0.0
 10
327.135047
 20
104.657968
 30
0.0
 10
311.260047
 20
86.269440
 30
0.0
  0
SPLINE
  5
131
100
AcDbEntity
  8
Layer_1
 62
7
100
AcDbSpline
 70
8
 71
3
 72
8
 73
4
 74
0
 40
0
 40
0
 40
0
 40
0
 40
1
 40
1
 40
1
 40
1
 10
339.861491
 20
63.612282
 30
0.0
 10
348.782056
 20
57.279023
 30
0.0
 10
358.018963
 20
51.367512
 30
0.0
 10
367.536908
 20
45.894010
 30
0.0
  0
LWPOLYLINE
  5
132
100
AcDbEntity
  8
Layer_1
 62
7
100
AcDbPolyline
 90
4
 70
0
 10
336.192602
 20
66.249296
 30
0.0
 10
350.197880
 20
86.145968
 30
0.0
 10
353.893241
 20
83.544218
 30
0.0
 10
339.861491
 20
63.612282
 30
0.0
  0
SPLINE
  5
133
100
AcDbEntity
  8
Layer_1
 62
7
100
AcDbSpline
 70
8
 71
3
 72
8
 73
4
 74
0
 40
0
 40
0
 40
0
 40
0
 40
1
 40
1
 40
1
 40
1
 10
371.461575
 20
43.662704
 30
0.0
 10
380.291151
 20
38.738547
 30
0.0
 10
389.359374
 20
34.198241
 30
0.0
 10
398.643102
 20
30.054287
 30
0.0
  0
LWPOLYLINE
  5
134
100
AcDbEntity
  8
Layer_1
 62
7
100
AcDbPolyline
 90
4
 70
0
 10
367.536908
 20
45.894010
 30
0.0
 10
379.866491
 20
67.395824
 30
0.0
 10
383.782324
 20
65.146865
 30
0.0
 10
371.461575
 20
43.662704
 30
0.0
  0
SPLINE
  5
135
100
AcDbEntity
  8
Layer_1
 62
7
100
AcDbSpline
 70
8
 71
3
 72
8
 73
4
 74
0
 40
0
 40
0
 40
0
 40
0
 40
1
 40
1
 40
1
 40
1
 10
402.788241
 20
28.237482
 30
0.0
 10
411.597610
 20
24.444528
 30
0.0
 10
420.597649
 20
21.019507
 30
0.0
 10
429.766908
 20
17.962843
 30
0.0
  0
LWPOLYLINE
  5
136
100
AcDbEntity
  8
Layer_1
 62
7
100
AcDbPolyline
 90
4
 70
0
 10
398.643102
 20
30.054287
 30
0.0
 10
409.341074
 20
52.385121
 30
0.0
 10
413.415658
 20
50.436038
 30
0.0
 10
402.788241
 20
28.237482
 30
0.0
  0
SPLINE
  5
137
100
AcDbEntity
  8
Layer_1
 62
7
100
AcDbSpline
 70
8
 71
3
 72
8
 73
4
 74
0
 40
0
 40
0
 40
0
 40
0
 40
1
 40
1
 40
1
 40
1
 10
434.061991
 20
16.560537
 30
0.0
 10
444.136958
 20
13.350062
 30
0.0
 10
454.415858
 20
10.594134
 30
0.0
 10
464.868297
 20
8.314371
 30
0.0
  0
LWPOLYLINE
  5
138
100
AcDbEntity
  8
Layer_1
 62
7
100
AcDbPolyline
 90
4
 70
0
 10
429.766908
 20
17.962843
 30
0.0
 10
437.836714
 20
41.193260
 30
0.0
 10
442.105325
 20
39.711593
 30
0.0
 10
434.061991
 20
16.560537
 30
0.0
  0
SPLINE
  5
139
100
AcDbEntity
  8
Layer_1
 62
7
100
AcDbSpline
 70
8
 71
3
 72
8
 73
4
 74
0
 40
0
 40
0
 40
0
 40
0
 40
1
 40
1
 40
1
 40
1
 10
469.295658
 20
7.379510
 30
0.0
 10
480.807672
 20
5.028486
 30
0.0
 10
492.525820
 20
3.259884
 30
0.0
 10
504.423519
 20
2.096649
 30
0.0
  0
LWPOLYLINE
  5
13a
100
AcDbEntity
  8
Layer_1
 62
7
100
AcDbPolyline
 90
4
 70
0
 10
464.868297
 20
8.314371
 30
0.0
 10
468.925241
 20
32.276787
 30
0.0
 10
473.379075
 20
31.527149
 30
0.0
 10
469.295658
 20
7.379510
 30
0.0
  0
SPLINE
  5
13b
100
AcDbEntity
  8
Layer_1
 62
7
100
AcDbSpline
 70
8
 71
3
 72
8
 73
4
 74
0
 40
0
 40
0
 40
0
 40
0
 40
1
 40
1
 40
1
 40
1
 10
508.939075
 20
1.690954
 30
0.0
 10
518.413105
 20
0.890713
 30
0.0
 10
527.995142
 20
0.466872
 30
0.0
 10
537.672825
 20
0.456232
 30
0.0
  0
LWPOLYLINE
  5
13c
100
AcDbEntity
  8
Layer_1
 62
7
100
AcDbPolyline
 90
4
 70
0
 10
504.423519
 20
2.096649
 30
0.0
 10
504.423519
 20
28.652010
 30
0.0
 10
508.939075
 20
28.652010
 30
0.0
 10
508.939075
 20
1.690954
 30
0.0
  0
LWPOLYLINE
  5
13d
100
AcDbEntity
  8
Layer_1
 62
7
100
AcDbPolyline
 90
2
 70
0
 10
537.672825
 20
0.456232
 30
0.0
 10
537.672825
 20
0.456232
 30
0.0
  0
SPLINE
  5
13e
100
AcDbEntity
  8
Layer_1
 62
7
100
AcDbSpline
 70
8
 71
3
 72
8
 73
4
 74
0
 40
0
 40
0
 40
0
 40
0
 40
1
 40
1
 40
1
 40
1
 10
507.245741
 20
49.695204
 30
0.0
 10
435.650507
 20
55.969992
 30
0.0
 10
370.274294
 20
83.917880
 30
0.0
 10
317.707047
 20
126.935885
 30
0.0
  0
LWPOLYLINE
  5
13f
100
AcDbEntity
  8
Layer_1
 62
7
100
AcDbPolyline
 90
5
 70
0
 10
526.891343
 20
20.785065
 30
0.0
 10
523.164824
 20
20.785065
 30
0.0
 10
523.164824
 20
38.468037
 30
0.0
 10
526.891343
 20
38.468037
 30
0.0
 10
526.891343
 20
20.785065
 30
0.0
  0
SPLINE
  5
140
100
AcDbEntity
  8
Layer_1
 62
7
100
AcDbSpline
 70
8
 71
3
 72
8
 73
4
 74
0
 40
0
 40
0
 40
0
 40
0
 40
1
 40
1
 40
1
 40
1
 10
317.707047
 20
186.934579
 30
0.0
 10
327.100757
 20
179.247326
 30
0.0
 10
336.901432
 20
172.040810
 30
0.0
 10
347.075797
 20
165.353385
 30
0.0
  0
LWPOLYLINE
  5
141
100
AcDbEntity
  8
Layer_1
 62
7
100
AcDbPolyline
 90
2
 70
0
 10
317.707047
 20
126.935885
 30
0.0
 10
317.707047
 20
186.934579
 30
0.0
  0
SPLINE
  5
142
100
AcDbEntity
  8
Layer_1
 62
7
100
AcDbSpline
 70
8
 71
3
 72
8
 73
4
 74
0
 40
0
 40
0
 40
0
 40
0
 40
1
 40
1
 40
1
 40
1
 10
350.868158
 20
162.901579
 30
0.0
 10
369.266478
 20
151.146770
 30
0.0
 10
388.838702
 20
141.072085
 30
0.0
 10
409.376352
 20
132.897829
 30
0.0
  0
LWPOLYLINE
  5
143
100
AcDbEntity
  8
Layer_1
 62
7
100
AcDbPolyline
 90
4
 70
0
 10
347.075797
 20
165.353385
 30
0.0
 10
360.384352
 20
186.246663
 30
0.0
 10
364.194352
 20
183.821301
 30
0.0
 10
350.868158
 20
162.901579
 30
0.0
  0
SPLINE
  5
144
100
AcDbEntity
  8
Layer_1
 62
7
100
AcDbSpline
 70
8
 71
3
 72
8
 73
4
 74
0
 40
0
 40
0
 40
0
 40
0
 40
1
 40
1
 40
1
 40
1
 10
413.592047
 20
131.257412
 30
0.0
 10
433.580266
 20
123.603433
 30
0.0
 10
454.452293
 20
117.734537
 30
0.0
 10
476.016074
 20
113.856663
 30
0.0
  0
LWPOLYLINE
  5
145
100
AcDbEntity
  8
Layer_1
 62
7
100
AcDbPolyline
 90
4
 70
0
 10
409.376352
 20
132.897829
 30
0.0
 10
418.777880
 20
155.572635
 30
0.0
 10
422.958297
 20
153.844024
 30
0.0
 10
413.592047
 20
131.257412
 30
0.0
  0
SPLINE
  5
146
100
AcDbEntity
  8
Layer_1
 62
7
100
AcDbSpline
 70
8
 71
3
 72
8
 73
4
 74
0
 40
0
 40
0
 40
0
 40
0
 40
1
 40
1
 40
1
 40
1
 10
480.478713
 20
113.080552
 30
0.0
 10
489.292542
 20
111.614097
 30
0.0
 10
498.221065
 20
110.484813
 30
0.0
 10
507.245741
 20
109.693885
 30
0.0
  0
LWPOLYLINE
  5
147
100
AcDbEntity
  8
Layer_1
 62
7
100
AcDbPolyline
 90
4
 70
0
 10
476.016074
 20
113.856663
 30
0.0
 10
478.988241
 20
138.066024
 30
0.0
 10
483.468519
 20
137.510413
 30
0.0
 10
480.478713
 20
113.080552
 30
0.0
  0
LWPOLYLINE
  5
148
100
AcDbEntity
  8
Layer_1
 62
7
100
AcDbPolyline
 90
2
 70
0
 10
507.245741
 20
109.693885
 30
0.0
 10
507.245741
 20
49.695204
 30
0.0
  0
LWPOLYLINE
  5
149
100
AcDbEntity
  8
Layer_1
 62
7
100
AcDbPolyline
 90
5
 70
0
 10
525.584090
 20
200.781107
 30
0.0
 10
521.762547
 20
200.781107
 30
0.0
 10
521.762547
 20
218.464079
 30
0.0
 10
525.584090
 20
218.464079
 30
0.0
 10
525.584090
 20
200.781107
 30
0.0
  0
LWPOLYLINE
  5
14a
100
AcDbEntity
  8
Layer_1
 62
7
100
AcDbPolyline
 90
5
 70
0
 10
509.344769
 20
231.238755
 30
0.0
 10
491.661769
 20
231.238755
 30
0.0
 10
491.661769
 20
234.965274
 30
0.0
 10
509.344769
 20
234.965274
 30
0.0
 10
509.344769
 20
231.238755
 30
0.0
  0
SPLINE
  5
14b
100
AcDbEntity
  8
Layer_1
 62
7
100
AcDbSpline
 70
8
 71
3
 72
8
 73
4
 74
0
 40
0
 40
0
 40
0
 40
0
 40
1
 40
1
 40
1
 40
1
 10
551.404008
 20
242.265685
 30
0.0
 10
551.475072
 20
242.265685
 30
0.0
 10
551.544809
 20
242.273588
 30
0.0
 10
551.615675
 20
242.274434
 30
0.0
  0
LWPOLYLINE
  5
14c
100
AcDbEntity
  8
Layer_1
 62
7
100
AcDbPolyline
 90
5
 70
0
 10
331.255717
 20
231.143731
 30
0.0
 10
313.572717
 20
231.143731
 30
0.0
 10
313.667741
 20
234.965274
 30
0.0
 10
331.350741
 20
234.965274
 30
0.0
 10
331.255717
 20
231.143731
 30
0.0
  0
SPLINE
  5
14d
100
AcDbEntity
  8
Layer_1
 62
7
100
AcDbSpline
 70
8
 71
3
 72
8
 73
4
 74
0
 40
0
 40
0
 40
0
 40
0
 40
1
 40
1
 40
1
 40
1
 10
551.404008
 20
277.940338
 30
0.0
 10
551.057298
 20
277.940338
 30
0.0
 10
550.713975
 20
277.933283
 30
0.0
 10
550.372147
 20
277.913809
 30
0.0
  0
LWPOLYLINE
  5
14e
100
AcDbEntity
  8
Layer_1
 62
7
100
AcDbPolyline
 90
11
 70
0
 10
551.615675
 20
242.274434
 30
0.0
 10
551.615675
 20
260.292559
 30
0.0
 10
579.582147
 20
260.292559
 30
0.0
 10
579.582147
 20
277.913809
 30
0.0
 10
555.897833
 20
277.913809
 30
0.0
 10
555.965030
 20
270.126254
 30
0.0
 10
551.792064
 20
270.126254
 30
0.0
 10
551.792064
 20
277.913809
 30
0.0
 10
551.615675
 20
277.913809
 30
0.0
 10
551.615675
 20
277.940338
 30
0.0
 10
551.404008
 20
277.940338
 30
0.0
  0
SPLINE
  5
14f
100
AcDbEntity
  8
Layer_1
 62
7
100
AcDbSpline
 70
8
 71
3
 72
8
 73
4
 74
0
 40
0
 40
0
 40
0
 40
0
 40
1
 40
1
 40
1
 40
1
 10
273.309314
 20
277.913809
 30
0.0
 10
272.967092
 20
277.933283
 30
0.0
 10
272.615697
 20
277.940338
 30
0.0
 10
272.268592
 20
277.940338
 30
0.0
  0
LWPOLYLINE
  5
150
100
AcDbEntity
  8
Layer_1
 62
7
100
AcDbPolyline
 90
2
 70
0
 10
550.372147
 20
277.913809
 30
0.0
 10
273.309314
 20
277.913809
 30
0.0
  0
SPLINE
  5
151
100
AcDbEntity
  8
Layer_1
 62
7
100
AcDbSpline
 70
8
 71
3
 72
8
 73
4
 74
0
 40
0
 40
0
 40
0
 40
0
 40
1
 40
1
 40
1
 40
1
 10
272.056925
 20
242.274152
 30
0.0
 10
272.127819
 20
242.274152
 30
0.0
 10
272.197528
 20
242.265403
 30
0.0
 10
272.268592
 20
242.265403
 30
0.0
  0
SPLINE
  5
152
100
AcDbEntity
  8
Layer_1
 62
7
100
AcDbSpline
 70
8
 71
3
 72
8
 73
4
 74
0
 40
0
 40
0
 40
0
 40
0
 40
1
 40
1
 40
1
 40
1
 10
272.268592
 20
242.265403
 30
0.0
 10
282.120461
 20
242.265403
 30
0.0
 10
290.110342
 20
250.255241
 30
0.0
 10
290.110342
 20
260.107111
 30
0.0
  0
SPLINE
  5
153
100
AcDbEntity
  8
Layer_1
 62
7
100
AcDbSpline
 70
8
 71
3
 72
8
 73
4
 74
0
 40
0
 40
0
 40
0
 40
0
 40
1
 40
1
 40
1
 40
1
 10
290.110342
 20
260.107111
 30
0.0
 10
290.110342
 20
260.169256
 30
0.0
 10
290.110342
 20
260.230329
 30
0.0
 10
290.110342
 20
260.292333
 30
0.0
  0
LWPOLYLINE
  5
154
100
AcDbEntity
  8
Layer_1
 62
7
100
AcDbPolyline
 90
11
 70
0
 10
272.268592
 20
277.940338
 30
0.0
 10
272.056925
 20
277.940338
 30
0.0
 10
272.056925
 20
277.913809
 30
0.0
 10
271.757092
 20
277.913809
 30
0.0
 10
271.757092
 20
270.126254
 30
0.0
 10
267.785746
 20
270.109321
 30
0.0
 10
267.785746
 20
277.896876
 30
0.0
 10
242.970425
 20
277.913527
 30
0.0
 10
242.970425
 20
260.292277
 30
0.0
 10
272.056925
 20
260.292277
 30
0.0
 10
272.056925
 20
242.274152
 30
0.0
  0
SPLINE
  5
155
100
AcDbEntity
  8
Layer_1
 62
7
100
AcDbSpline
 70
8
 71
3
 72
8
 73
4
 74
0
 40
0
 40
0
 40
0
 40
0
 40
1
 40
1
 40
1
 40
1
 10
533.571092
 20
260.292333
 30
0.0
 10
533.571092
 20
260.230273
 30
0.0
 10
533.562343
 20
260.169313
 30
0.0
 10
533.562343
 20
260.107111
 30
0.0
  0
SPLINE
  5
156
100
AcDbEntity
  8
Layer_1
 62
7
100
AcDbSpline
 70
8
 71
3
 72
8
 73
4
 74
0
 40
0
 40
0
 40
0
 40
0
 40
1
 40
1
 40
1
 40
1
 10
533.562343
 20
260.107111
 30
0.0
 10
533.562343
 20
250.255241
 30
0.0
 10
541.552223
 20
242.265403
 30
0.0
 10
551.404093
 20
242.265403
 30
0.0
  0
LWPOLYLINE
  5
157
100
AcDbEntity
  8
Layer_1
 62
7
100
AcDbPolyline
 90
2
 70
0
 10
290.110342
 20
260.292333
 30
0.0
 10
533.571092
 20
260.292333
 30
0.0
  0
LWPOLYLINE
  5
158
100
AcDbEntity
  8
Layer_1
 62
7
100
AcDbPolyline
 90
2
 70
0
 10
551.404093
 20
242.265403
 30
0.0
 10
551.404008
 20
242.265685
 30
0.0
  0
LWPOLYLINE
  5
159
100
AcDbEntity
  8
Layer_1
 62
7
100
AcDbPolyline
 90
13
 70
0
 10
579.666842
 20
278.444472
 30
0.0
 10
579.666842
 20
296.065750
 30
0.0
 10
555.848105
 20
295.998553
 30
0.0
 10
555.848105
 20
288.278195
 30
0.0
 10
551.876759
 20
288.278195
 30
0.0
 10
551.876759
 20
296.065750
 30
0.0
 10
271.841787
 20
296.065750
 30
0.0
 10
271.841787
 20
288.278195
 30
0.0
 10
267.870440
 20
288.278195
 30
0.0
 10
267.870440
 20
296.065750
 30
0.0
 10
243.055092
 20
296.065750
 30
0.0
 10
243.055092
 20
278.444472
 30
0.0
 10
579.666842
 20
278.444472
 30
0.0
  0
ENDSEC
  0
SECTION
  2
OBJECTS
  0
DICTIONARY
  5
C
330
0
100
AcDbDictionary
  3
ACAD_GROUP
350
D
  3
ACAD_MLINESTYLE
350
17
  0
DICTIONARY
  5
D
330
C
100
AcDbDictionary
  0
DICTIONARY
  5
1A
330
C
100
AcDbDictionary
  0
DICTIONARY
  5
17
330
C
100
AcDbDictionary
  3
STANDARD
350
18
  0
DICTIONARY
  5
19
330
C
100
AcDbDictionary
  0
ENDSEC
  0
EOF
