999
dxflib 2.2.0.0
  0
SECTION
  2
HEADER
  9
$ACADVER
  1
AC1015
  9
$HANDSEED
  5
FFFF
  9
$DIMASZ
 40
2.5
  9
$PLIMMIN
 10
0.0
 20
0.0
  9
$DIMEXE
 40
1.25
  9
$DIMGAP
 40
0.625
  9
$PLIMMAX
 10
210.0
 20
297.0
  9
$INSUNITS
 70
4
  9
$DIMSTYLE
  2
Standard
  9
$CLAYER
  8
frame
  9
$DIMEXO
 40
0.625
  9
$DIMTXT
 40
2.5
  9
$CLAYER
  8
frame
  0
ENDSEC
  0
SECTION
  2
TABLES
  0
TABLE
  2
VPORT
  5
8
100
AcDbSymbolTable
 70
1
  0
VPORT
  5
30
100
AcDbSymbolTableRecord
100
AcDbViewportTableRecord
  2
*Active
 70
0
 10
0.0
 20
0.0
 11
1.0
 21
1.0
 12
286.30555555555549
 22
148.5
 13
0.0
 23
0.0
 14
10.0
 24
10.0
 15
10.0
 25
10.0
 16
0.0
 26
0.0
 36
1.0
 17
0.0
 27
0.0
 37
0.0
 40
297.0
 41
1.92798353909465
 42
50.0
 43
0.0
 44
0.0
 50
0.0
 51
0.0
 71
0
 72
100
 73
1
 74
3
 75
1
 76
1
 77
0
 78
0
281
0
 65
1
110
0.0
120
0.0
130
0.0
111
1.0
121
0.0
131
0.0
112
0.0
122
1.0
132
0.0
 79
0
146
0.0
  0
ENDTAB
  0
TABLE
  2
LTYPE
  5
5
100
AcDbSymbolTable
 70
21
  0
LTYPE
  5
14
100
AcDbSymbolTableRecord
100
AcDbLinetypeTableRecord
  2
ByBlock
 70
0
  3

 72
65
 73
0
 40
0.0
  0
LTYPE
  5
15
100
AcDbSymbolTableRecord
100
AcDbLinetypeTableRecord
  2
ByLayer
 70
0
  3

 72
65
 73
0
 40
0.0
  0
LTYPE
  5
16
100
AcDbSymbolTableRecord
100
AcDbLinetypeTableRecord
  2
CONTINUOUS
 70
0
  3
Solid line
 72
65
 73
0
 40
0.0
  0
LTYPE
  5
31
100
AcDbSymbolTableRecord
100
AcDbLinetypeTableRecord
  2
DOT
 70
0
  3
Dot . . . . . . . . . . . . . . . . . . . . . .
 72
65
 73
2
 40
6.3499999999999996
 49
0.0
 74
0
 49
-6.3499999999999996
 74
0
  0
LTYPE
  5
32
100
AcDbSymbolTableRecord
100
AcDbLinetypeTableRecord
  2
DOT2
 70
0
  3
Dot (.5x) .....................................
 72
65
 73
2
 40
3.1749999999999998
 49
0.0
 74
0
 49
-3.1749999999999998
 74
0
  0
LTYPE
  5
33
100
AcDbSymbolTableRecord
100
AcDbLinetypeTableRecord
  2
DOTX2
 70
0
  3
Dot (2x) .  .  .  .  .  .  .  .  .  .  .  .  .
 72
65
 73
2
 40
12.699999999999999
 49
0.0
 74
0
 49
-12.699999999999999
 74
0
  0
LTYPE
  5
34
100
AcDbSymbolTableRecord
100
AcDbLinetypeTableRecord
  2
DASHED
 70
0
  3
Dashed __ __ __ __ __ __ __ __ __ __ __ __ __ _
 72
65
 73
2
 40
19.050000000000001
 49
12.699999999999999
 74
0
 49
-6.3499999999999996
 74
0
  0
LTYPE
  5
35
100
AcDbSymbolTableRecord
100
AcDbLinetypeTableRecord
  2
DASHED2
 70
0
  3
Dashed (.5x) _ _ _ _ _ _ _ _ _ _ _ _ _ _ _ _ _
 72
65
 73
2
 40
9.5250000000000004
 49
6.3499999999999996
 74
0
 49
-3.1749999999999998
 74
0
  0
LTYPE
  5
36
100
AcDbSymbolTableRecord
100
AcDbLinetypeTableRecord
  2
DASHEDX2
 70
0
  3
Dashed (2x) ____  ____  ____  ____  ____  ___
 72
65
 73
2
 40
38.100000000000001
 49
25.399999999999999
 74
0
 49
-12.699999999999999
 74
0
  0
LTYPE
  5
37
100
AcDbSymbolTableRecord
100
AcDbLinetypeTableRecord
  2
DASHDOT
 70
0
  3
Dash dot __ . __ . __ . __ . __ . __ . __ . __
 72
65
 73
4
 40
25.399999999999999
 49
12.699999999999999
 74
0
 49
-6.3499999999999996
 74
0
 49
0.0
 74
0
 49
-6.3499999999999996
 74
0
  0
LTYPE
  5
38
100
AcDbSymbolTableRecord
100
AcDbLinetypeTableRecord
  2
DASHDOT2
 70
0
  3
Dash dot (.5x) _._._._._._._._._._._._._._._.
 72
65
 73
4
 40
12.699999999999999
 49
6.3499999999999996
 74
0
 49
-3.1749999999999998
 74
0
 49
0.0
 74
0
 49
-3.1749999999999998
 74
0
  0
LTYPE
  5
39
100
AcDbSymbolTableRecord
100
AcDbLinetypeTableRecord
  2
DASHDOTX2
 70
0
  3
Dash dot (2x) ____  .  ____  .  ____  .  ___
 72
65
 73
4
 40
50.799999999999997
 49
25.399999999999999
 74
0
 49
-12.699999999999999
 74
0
 49
0.0
 74
0
 49
-12.699999999999999
 74
0
  0
LTYPE
  5
3A
100
AcDbSymbolTableRecord
100
AcDbLinetypeTableRecord
  2
DIVIDE
 70
0
  3
Divide ____ . . ____ . . ____ . . ____ . . ____
 72
65
 73
6
 40
31.75
 49
12.699999999999999
 74
0
 49
-6.3499999999999996
 74
0
 49
0.0
 74
0
 49
-6.3499999999999996
 74
0
 49
0.0
 74
0
 49
-6.3499999999999996
 74
0
  0
LTYPE
  5
3B
100
AcDbSymbolTableRecord
100
AcDbLinetypeTableRecord
  2
DIVIDE2
 70
0
  3
Divide (.5x) __..__..__..__..__..__..__..__.._
 72
65
 73
6
 40
15.875
 49
6.3499999999999996
 74
0
 49
-3.1749999999999998
 74
0
 49
0.0
 74
0
 49
-3.1749999999999998
 74
0
 49
0.0
 74
0
 49
-3.1749999999999998
 74
0
  0
LTYPE
  5
3C
100
AcDbSymbolTableRecord
100
AcDbLinetypeTableRecord
  2
DIVIDEX2
 70
0
  3
Divide (2x) ________  .  .  ________  .  .  _
 72
65
 73
6
 40
63.5
 49
25.399999999999999
 74
0
 49
-12.699999999999999
 74
0
 49
0.0
 74
0
 49
-12.699999999999999
 74
0
 49
0.0
 74
0
 49
-12.699999999999999
 74
0
  0
LTYPE
  5
3D
100
AcDbSymbolTableRecord
100
AcDbLinetypeTableRecord
  2
CENTER
 70
0
  3
Center ____ _ ____ _ ____ _ ____ _ ____ _ ____
 72
65
 73
4
 40
50.799999999999997
 49
31.75
 74
0
 49
-6.3499999999999996
 74
0
 49
6.3499999999999996
 74
0
 49
-6.3499999999999996
 74
0
  0
LTYPE
  5
3E
100
AcDbSymbolTableRecord
100
AcDbLinetypeTableRecord
  2
CENTER2
 70
0
  3
Center (.5x) ___ _ ___ _ ___ _ ___ _ ___ _ ___
 72
65
 73
4
 40
28.574999999999999
 49
19.050000000000001
 74
0
 49
-3.1749999999999998
 74
0
 49
3.1749999999999998
 74
0
 49
-3.1749999999999998
 74
0
  0
LTYPE
  5
3F
100
AcDbSymbolTableRecord
100
AcDbLinetypeTableRecord
  2
CENTERX2
 70
0
  3
Center (2x) ________  __  ________  __  _____
 72
65
 73
4
 40
101.59999999999999
 49
63.5
 74
0
 49
-12.699999999999999
 74
0
 49
12.699999999999999
 74
0
 49
-12.699999999999999
 74
0
  0
LTYPE
  5
40
100
AcDbSymbolTableRecord
100
AcDbLinetypeTableRecord
  2
BORDER
 70
0
  3
Border __ __ . __ __ . __ __ . __ __ . __ __ .
 72
65
 73
6
 40
44.450000000000003
 49
12.699999999999999
 74
0
 49
-6.3499999999999996
 74
0
 49
12.699999999999999
 74
0
 49
-6.3499999999999996
 74
0
 49
0.0
 74
0
 49
-6.3499999999999996
 74
0
  0
LTYPE
  5
41
100
AcDbSymbolTableRecord
100
AcDbLinetypeTableRecord
  2
BORDER2
 70
0
  3
Border (.5x) __.__.__.__.__.__.__.__.__.__.__.
 72
65
 73
6
 40
22.225000000000001
 49
6.3499999999999996
 74
0
 49
-3.1749999999999998
 74
0
 49
6.3499999999999996
 74
0
 49
-3.1749999999999998
 74
0
 49
0.0
 74
0
 49
-3.1749999999999998
 74
0
  0
LTYPE
  5
42
100
AcDbSymbolTableRecord
100
AcDbLinetypeTableRecord
  2
BORDERX2
 70
0
  3
Border (2x) ____  ____  .  ____  ____  .  ___
 72
65
 73
6
 40
88.900000000000006
 49
25.399999999999999
 74
0
 49
-12.699999999999999
 74
0
 49
25.399999999999999
 74
0
 49
-12.699999999999999
 74
0
 49
0.0
 74
0
 49
-12.699999999999999
 74
0
  0
ENDTAB
  0
TABLE
  2
LAYER
  5
2
100
AcDbSymbolTable
 70
3
  0
LAYER
  5
10
100
AcDbSymbolTableRecord
100
AcDbLayerTableRecord
  2
0
 70
0
 62
7
420
0
  6
CONTINUOUS
370
25
390
F
  0
LAYER
  5
43
100
AcDbSymbolTableRecord
100
AcDbLayerTableRecord
  2
frame
 70
0
 62
7
420
0
  6
CONTINUOUS
370
0
390
F
  0
LAYER
  5
44
100
AcDbSymbolTableRecord
100
AcDbLayerTableRecord
  2
etch
 70
0
 62
1
420
16711680
  6
CONTINUOUS
370
0
390
F
  0
ENDTAB
  0
TABLE
  2
STYLE
  5
3
100
AcDbSymbolTable
 70
1
  0
STYLE
  5
11
100
AcDbSymbolTableRecord
100
AcDbTextStyleTableRecord
  2
Standard
 70
0
 40
0.0
 41
0.75
 50
0.0
 71
0
 42
2.5
  3
txt
  4

  0
ENDTAB
  0
TABLE
  2
VIEW
  5
6
100
AcDbSymbolTable
 70
0
  0
ENDTAB
  0
TABLE
  2
UCS
  5
7
100
AcDbSymbolTable
 70
0
  0
ENDTAB
  0
TABLE
  2
APPID
  5
9
100
AcDbSymbolTable
 70
1
  0
APPID
  5
12
100
AcDbSymbolTableRecord
100
AcDbRegAppTableRecord
  2
ACAD
 70
0
  0
ENDTAB
  0
TABLE
  2
DIMSTYLE
  5
A
100
AcDbSymbolTable
 70
1
100
AcDbDimStyleTable
 71
0
  0
DIMSTYLE
105
27
100
AcDbSymbolTableRecord
100
AcDbDimStyleTableRecord
  2
Standard
 41
2.5
 42
0.625
 43
3.75
 44
1.25
 70
0
 73
0
 74
0
 77
1
 78
8
140
2.5
141
2.5
143
0.03937007874016
147
0.625
171
3
172
1
271
2
272
2
274
3
278
44
283
0
284
8
340
11
  0
ENDTAB
  0
TABLE
  2
BLOCK_RECORD
  5
1
100
AcDbSymbolTable
 70
1
  0
BLOCK_RECORD
  5
1F
100
AcDbSymbolTableRecord
100
AcDbBlockTableRecord
  2
*Model_Space
340
22
  0
BLOCK_RECORD
  5
1B
100
AcDbSymbolTableRecord
100
AcDbBlockTableRecord
  2
*Paper_Space
340
1E
  0
BLOCK_RECORD
  5
23
100
AcDbSymbolTableRecord
100
AcDbBlockTableRecord
  2
*Paper_Space0
340
26
  0
ENDTAB
  0
ENDSEC
  0
SECTION
  2
BLOCKS
  0
BLOCK
  5
20
100
AcDbEntity
  8
0
100
AcDbBlockBegin
  2
*Model_Space
 70
0
 10
0.0
 20
0.0
 30
0.0
  3
*Model_Space
  1

  0
ENDBLK
  5
21
100
AcDbEntity
  8
0
100
AcDbBlockEnd
  0
BLOCK
  5
1C
100
AcDbEntity
 67
1
  8
0
100
AcDbBlockBegin
  2
*Paper_Space
 70
0
 10
0.0
 20
0.0
 30
0.0
  3
*Paper_Space
  1

  0
ENDBLK
  5
1D
100
AcDbEntity
 67
1
  8
0
100
AcDbBlockEnd
  0
BLOCK
  5
24
100
AcDbEntity
  8
0
100
AcDbBlockBegin
  2
*Paper_Space0
 70
0
 10
0.0
 20
0.0
 30
0.0
  3
*Paper_Space0
  1

  0
ENDBLK
  5
25
100
AcDbEntity
  8
0
100
AcDbBlockEnd
  0
ENDSEC
  0
SECTION
  2
ENTITIES
  0
LINE
  5
45
100
AcDbEntity
100
AcDbLine
  8
frame
 62
256
370
-1
  6
ByLayer
 10
3.0
 20
3.0
 30
0.0
 11
3.0
 21
97.0
 31
0.0
  0
LINE
  5
46
100
AcDbEntity
100
AcDbLine
  8
frame
 62
256
370
-1
  6
ByLayer
 10
3.0
 20
97.0
 30
0.0
 11
97.0
 21
97.0
 31
0.0
  0
LINE
  5
47
100
AcDbEntity
100
AcDbLine
  8
frame
 62
256
370
-1
  6
ByLayer
 10
97.0
 20
97.0
 30
0.0
 11
97.0
 21
3.0
 31
0.0
  0
LINE
  5
48
100
AcDbEntity
100
AcDbLine
  8
frame
 62
256
370
-1
  6
ByLayer
 10
97.0
 20
3.0
 30
0.0
 11
3.0
 21
3.0
 31
0.0
  0
ARC
  5
49
100
AcDbEntity
  8
frame
 62
256
370
-1
  6
ByLayer
100
AcDbCircle
 10
-1.0
 20
-1.0
 30
0.0
 40
4.2426406871192848
100
AcDbArc
 50
135.0
 51
315.0
  0
ARC
  5
4A
100
AcDbEntity
  8
frame
 62
256
370
-1
  6
ByLayer
100
AcDbCircle
 10
5.0
 20
-1.0
 30
0.0
 40
4.2426406871192857
100
AcDbArc
 50
225.0
 51
315.0
  0
ARC
  5
4B
100
AcDbEntity
  8
frame
 62
256
370
-1
  6
ByLayer
100
AcDbCircle
 10
11.000000000000002
 20
-1.0000000000000009
 30
0.0
 40
4.2426406871192857
100
AcDbArc
 50
225.0
 51
315.0
  0
ARC
  5
4C
100
AcDbEntity
  8
frame
 62
256
370
-1
  6
ByLayer
100
AcDbCircle
 10
17.0
 20
-1.0000000000000018
 30
0.0
 40
4.2426406871192857
100
AcDbArc
 50
225.0
 51
315.0
  0
ARC
  5
4D
100
AcDbEntity
  8
frame
 62
256
370
-1
  6
ByLayer
100
AcDbCircle
 10
23.0
 20
-1.0000000000000018
 30
0.0
 40
4.2426406871192857
100
AcDbArc
 50
225.0
 51
315.0
  0
ARC
  5
4E
100
AcDbEntity
  8
frame
 62
256
370
-1
  6
ByLayer
100
AcDbCircle
 10
29.0
 20
-1.0000000000000027
 30
0.0
 40
4.2426406871192857
100
AcDbArc
 50
225.0
 51
315.0
  0
ARC
  5
4F
100
AcDbEntity
  8
frame
 62
256
370
-1
  6
ByLayer
100
AcDbCircle
 10
35.0
 20
-1.0000000000000013
 30
0.0
 40
4.2426406871192857
100
AcDbArc
 50
225.0
 51
315.0
  0
ARC
  5
50
100
AcDbEntity
  8
frame
 62
256
370
-1
  6
ByLayer
100
AcDbCircle
 10
41.0
 20
-1.0000000000000004
 30
0.0
 40
4.2426406871192857
100
AcDbArc
 50
225.0
 51
315.0
  0
ARC
  5
51
100
AcDbEntity
  8
frame
 62
256
370
-1
  6
ByLayer
100
AcDbCircle
 10
47.0
 20
-1.0000000000000013
 30
0.0
 40
4.2426406871192857
100
AcDbArc
 50
225.0
 51
315.0
  0
ARC
  5
52
100
AcDbEntity
  8
frame
 62
256
370
-1
  6
ByLayer
100
AcDbCircle
 10
53.0
 20
-1.0000000000000027
 30
0.0
 40
4.2426406871192857
100
AcDbArc
 50
225.0
 51
315.0
  0
ARC
  5
53
100
AcDbEntity
  8
frame
 62
256
370
-1
  6
ByLayer
100
AcDbCircle
 10
59.0
 20
-1.0000000000000013
 30
0.0
 40
4.2426406871192857
100
AcDbArc
 50
225.0
 51
315.0
  0
ARC
  5
54
100
AcDbEntity
  8
frame
 62
256
370
-1
  6
ByLayer
100
AcDbCircle
 10
65.0
 20
-1.0000000000000004
 30
0.0
 40
4.2426406871192857
100
AcDbArc
 50
225.0
 51
315.0
  0
ARC
  5
55
100
AcDbEntity
  8
frame
 62
256
370
-1
  6
ByLayer
100
AcDbCircle
 10
71.0
 20
-1.0000000000000013
 30
0.0
 40
4.2426406871192857
100
AcDbArc
 50
225.0
 51
315.0
  0
ARC
  5
56
100
AcDbEntity
  8
frame
 62
256
370
-1
  6
ByLayer
100
AcDbCircle
 10
77.0
 20
-1.0000000000000027
 30
0.0
 40
4.2426406871192857
100
AcDbArc
 50
225.0
 51
315.0
  0
ARC
  5
57
100
AcDbEntity
  8
frame
 62
256
370
-1
  6
ByLayer
100
AcDbCircle
 10
83.0
 20
-1.0000000000000009
 30
0.0
 40
4.2426406871192857
100
AcDbArc
 50
225.0
 51
315.0
  0
ARC
  5
58
100
AcDbEntity
  8
frame
 62
256
370
-1
  6
ByLayer
100
AcDbCircle
 10
89.0
 20
-1.0000000000000009
 30
0.0
 40
4.2426406871192857
100
AcDbArc
 50
225.0
 51
315.0
  0
ARC
  5
59
100
AcDbEntity
  8
frame
 62
256
370
-1
  6
ByLayer
100
AcDbCircle
 10
95.0
 20
-1.0000000000000009
 30
0.0
 40
4.2426406871192857
100
AcDbArc
 50
225.0
 51
315.0
  0
ARC
  5
5A
100
AcDbEntity
  8
frame
 62
256
370
-1
  6
ByLayer
100
AcDbCircle
 10
101.0
 20
-1.0
 30
0.0
 40
4.2426406871192848
100
AcDbArc
 50
225.0
 51
45.0
  0
ARC
  5
5B
100
AcDbEntity
  8
frame
 62
256
370
-1
  6
ByLayer
100
AcDbCircle
 10
100.99999999999996
 20
5.0000000000000142
 30
0.0
 40
4.2426406871192857
100
AcDbArc
 50
315.0
 51
45.0
  0
ARC
  5
5C
100
AcDbEntity
  8
frame
 62
256
370
-1
  6
ByLayer
100
AcDbCircle
 10
100.99999999999982
 20
11.000000000000014
 30
0.0
 40
4.2426406871192857
100
AcDbArc
 50
315.0
 51
45.0
  0
ARC
  5
5D
100
AcDbEntity
  8
frame
 62
256
370
-1
  6
ByLayer
100
AcDbCircle
 10
100.99999999999999
 20
17.000000000000014
 30
0.0
 40
4.2426406871192857
100
AcDbArc
 50
315.0
 51
45.0
  0
ARC
  5
5E
100
AcDbEntity
  8
frame
 62
256
370
-1
  6
ByLayer
100
AcDbCircle
 10
101.00000000000009
 20
23.000000000000014
 30
0.0
 40
4.2426406871192857
100
AcDbArc
 50
315.0
 51
45.0
  0
ARC
  5
5F
100
AcDbEntity
  8
frame
 62
256
370
-1
  6
ByLayer
100
AcDbCircle
 10
101.00000000000001
 20
29.000000000000014
 30
0.0
 40
4.2426406871192857
100
AcDbArc
 50
315.0
 51
45.0
  0
ARC
  5
60
100
AcDbEntity
  8
frame
 62
256
370
-1
  6
ByLayer
100
AcDbCircle
 10
101.00000000000001
 20
35.000000000000014
 30
0.0
 40
4.2426406871192857
100
AcDbArc
 50
315.0
 51
45.0
  0
ARC
  5
61
100
AcDbEntity
  8
frame
 62
256
370
-1
  6
ByLayer
100
AcDbCircle
 10
100.99999999999996
 20
41.000000000000014
 30
0.0
 40
4.2426406871192857
100
AcDbArc
 50
315.0
 51
45.0
  0
ARC
  5
62
100
AcDbEntity
  8
frame
 62
256
370
-1
  6
ByLayer
100
AcDbCircle
 10
101.00000000000007
 20
47.000000000000014
 30
0.0
 40
4.2426406871192857
100
AcDbArc
 50
315.0
 51
45.0
  0
ARC
  5
63
100
AcDbEntity
  8
frame
 62
256
370
-1
  6
ByLayer
100
AcDbCircle
 10
100.99999999999996
 20
53.000000000000014
 30
0.0
 40
4.2426406871192857
100
AcDbArc
 50
315.0
 51
45.0
  0
ARC
  5
64
100
AcDbEntity
  8
frame
 62
256
370
-1
  6
ByLayer
100
AcDbCircle
 10
100.99999999999999
 20
59.000000000000014
 30
0.0
 40
4.2426406871192857
100
AcDbArc
 50
315.0
 51
45.0
  0
ARC
  5
65
100
AcDbEntity
  8
frame
 62
256
370
-1
  6
ByLayer
100
AcDbCircle
 10
101.00000000000001
 20
65.000000000000014
 30
0.0
 40
4.2426406871192857
100
AcDbArc
 50
315.0
 51
45.0
  0
ARC
  5
66
100
AcDbEntity
  8
frame
 62
256
370
-1
  6
ByLayer
100
AcDbCircle
 10
101.00000000000011
 20
71.000000000000014
 30
0.0
 40
4.2426406871192857
100
AcDbArc
 50
315.0
 51
45.0
  0
ARC
  5
67
100
AcDbEntity
  8
frame
 62
256
370
-1
  6
ByLayer
100
AcDbCircle
 10
101.00000000000003
 20
77.000000000000014
 30
0.0
 40
4.2426406871192857
100
AcDbArc
 50
315.0
 51
45.0
  0
ARC
  5
68
100
AcDbEntity
  8
frame
 62
256
370
-1
  6
ByLayer
100
AcDbCircle
 10
101.00000000000003
 20
83.000000000000014
 30
0.0
 40
4.2426406871192857
100
AcDbArc
 50
315.0
 51
45.0
  0
ARC
  5
69
100
AcDbEntity
  8
frame
 62
256
370
-1
  6
ByLayer
100
AcDbCircle
 10
100.99999999999991
 20
89.000000000000014
 30
0.0
 40
4.2426406871192857
100
AcDbArc
 50
315.0
 51
45.0
  0
ARC
  5
6A
100
AcDbEntity
  8
frame
 62
256
370
-1
  6
ByLayer
100
AcDbCircle
 10
101.00000000000033
 20
95.000000000000014
 30
0.0
 40
4.2426406871192857
100
AcDbArc
 50
315.0
 51
45.0
  0
ARC
  5
6B
100
AcDbEntity
  8
frame
 62
256
370
-1
  6
ByLayer
100
AcDbCircle
 10
101.00000000000034
 20
101.00000000000001
 30
0.0
 40
4.2426406871192848
100
AcDbArc
 50
315.0
 51
134.99999999999994
  0
ARC
  5
6C
100
AcDbEntity
  8
frame
 62
256
370
-1
  6
ByLayer
100
AcDbCircle
 10
95.000000000000341
 20
101.0
 30
0.0
 40
4.2426406871192857
100
AcDbArc
 50
45.0
 51
134.99999999999994
  0
ARC
  5
6D
100
AcDbEntity
  8
frame
 62
256
370
-1
  6
ByLayer
100
AcDbCircle
 10
89.000000000000369
 20
100.99999999999997
 30
0.0
 40
4.2426406871192857
100
AcDbArc
 50
45.0
 51
134.99999999999994
  0
ARC
  5
6E
100
AcDbEntity
  8
frame
 62
256
370
-1
  6
ByLayer
100
AcDbCircle
 10
83.000000000000341
 20
101.0
 30
0.0
 40
4.2426406871192857
100
AcDbArc
 50
45.0
 51
134.99999999999994
  0
ARC
  5
6F
100
AcDbEntity
  8
frame
 62
256
370
-1
  6
ByLayer
100
AcDbCircle
 10
77.000000000000398
 20
100.99999999999999
 30
0.0
 40
4.2426406871192857
100
AcDbArc
 50
45.0
 51
134.99999999999994
  0
ARC
  5
70
100
AcDbEntity
  8
frame
 62
256
370
-1
  6
ByLayer
100
AcDbCircle
 10
71.000000000000341
 20
101.0
 30
0.0
 40
4.2426406871192857
100
AcDbArc
 50
45.0
 51
134.99999999999994
  0
ARC
  5
71
100
AcDbEntity
  8
frame
 62
256
370
-1
  6
ByLayer
100
AcDbCircle
 10
65.000000000000341
 20
101.0
 30
0.0
 40
4.2426406871192857
100
AcDbArc
 50
45.0
 51
134.99999999999994
  0
ARC
  5
72
100
AcDbEntity
  8
frame
 62
256
370
-1
  6
ByLayer
100
AcDbCircle
 10
59.000000000000398
 20
101.0
 30
0.0
 40
4.2426406871192857
100
AcDbArc
 50
45.0
 51
134.99999999999994
  0
ARC
  5
73
100
AcDbEntity
  8
frame
 62
256
370
-1
  6
ByLayer
100
AcDbCircle
 10
53.000000000000341
 20
101.0
 30
0.0
 40
4.2426406871192857
100
AcDbArc
 50
45.0
 51
134.99999999999994
  0
ARC
  5
74
100
AcDbEntity
  8
frame
 62
256
370
-1
  6
ByLayer
100
AcDbCircle
 10
47.000000000000341
 20
101.0
 30
0.0
 40
4.2426406871192857
100
AcDbArc
 50
45.0
 51
134.99999999999994
  0
ARC
  5
75
100
AcDbEntity
  8
frame
 62
256
370
-1
  6
ByLayer
100
AcDbCircle
 10
41.000000000000313
 20
101.0
 30
0.0
 40
4.2426406871192857
100
AcDbArc
 50
45.0
 51
134.99999999999994
  0
ARC
  5
76
100
AcDbEntity
  8
frame
 62
256
370
-1
  6
ByLayer
100
AcDbCircle
 10
35.000000000000313
 20
101.0
 30
0.0
 40
4.2426406871192857
100
AcDbArc
 50
45.0
 51
134.99999999999994
  0
ARC
  5
77
100
AcDbEntity
  8
frame
 62
256
370
-1
  6
ByLayer
100
AcDbCircle
 10
29.000000000000369
 20
101.00000000000003
 30
0.0
 40
4.2426406871192857
100
AcDbArc
 50
45.0
 51
134.99999999999994
  0
ARC
  5
78
100
AcDbEntity
  8
frame
 62
256
370
-1
  6
ByLayer
100
AcDbCircle
 10
23.000000000000313
 20
101.0
 30
0.0
 40
4.2426406871192857
100
AcDbArc
 50
45.0
 51
134.99999999999994
  0
ARC
  5
79
100
AcDbEntity
  8
frame
 62
256
370
-1
  6
ByLayer
100
AcDbCircle
 10
17.000000000000398
 20
101.00000000000003
 30
0.0
 40
4.2426406871192857
100
AcDbArc
 50
45.0
 51
134.99999999999994
  0
ARC
  5
7A
100
AcDbEntity
  8
frame
 62
256
370
-1
  6
ByLayer
100
AcDbCircle
 10
11.000000000000313
 20
100.99999999999997
 30
0.0
 40
4.2426406871192857
100
AcDbArc
 50
45.0
 51
134.99999999999994
  0
ARC
  5
7B
100
AcDbEntity
  8
frame
 62
256
370
-1
  6
ByLayer
100
AcDbCircle
 10
5.0000000000003411
 20
101.00000000000004
 30
0.0
 40
4.2426406871192857
100
AcDbArc
 50
45.0
 51
134.99999999999994
  0
ARC
  5
7C
100
AcDbEntity
  8
frame
 62
256
370
-1
  6
ByLayer
100
AcDbCircle
 10
-0.9999999999996021
 20
101.00000000000006
 30
0.0
 40
4.2426406871192848
100
AcDbArc
 50
45.0
 51
225.0
  0
ARC
  5
7D
100
AcDbEntity
  8
frame
 62
256
370
-1
  6
ByLayer
100
AcDbCircle
 10
-0.9999999999996305
 20
94.999999999999972
 30
0.0
 40
4.2426406871192857
100
AcDbArc
 50
134.99999999999994
 51
225.0
  0
ARC
  5
7E
100
AcDbEntity
  8
frame
 62
256
370
-1
  6
ByLayer
100
AcDbCircle
 10
-0.9999999999994316
 20
89.000000000000071
 30
0.0
 40
4.2426406871192857
100
AcDbArc
 50
134.99999999999994
 51
225.0
  0
ARC
  5
7F
100
AcDbEntity
  8
frame
 62
256
370
-1
  6
ByLayer
100
AcDbCircle
 10
-0.9999999999996589
 20
83.0
 30
0.0
 40
4.2426406871192857
100
AcDbArc
 50
134.99999999999994
 51
225.0
  0
ARC
  5
80
100
AcDbEntity
  8
frame
 62
256
370
-1
  6
ByLayer
100
AcDbCircle
 10
-0.9999999999997158
 20
77.000000000000043
 30
0.0
 40
4.2426406871192857
100
AcDbArc
 50
134.99999999999994
 51
225.0
  0
ARC
  5
81
100
AcDbEntity
  8
frame
 62
256
370
-1
  6
ByLayer
100
AcDbCircle
 10
-0.9999999999997158
 20
70.999999999999957
 30
0.0
 40
4.2426406871192857
100
AcDbArc
 50
134.99999999999994
 51
225.0
  0
ARC
  5
82
100
AcDbEntity
  8
frame
 62
256
370
-1
  6
ByLayer
100
AcDbCircle
 10
-0.9999999999996874
 20
65.000000000000085
 30
0.0
 40
4.2426406871192857
100
AcDbArc
 50
134.99999999999994
 51
225.0
  0
ARC
  5
83
100
AcDbEntity
  8
frame
 62
256
370
-1
  6
ByLayer
100
AcDbCircle
 10
-0.9999999999996305
 20
59.000000000000007
 30
0.0
 40
4.2426406871192857
100
AcDbArc
 50
134.99999999999994
 51
225.0
  0
ARC
  5
84
100
AcDbEntity
  8
frame
 62
256
370
-1
  6
ByLayer
100
AcDbCircle
 10
-0.9999999999997442
 20
53.000000000000028
 30
0.0
 40
4.2426406871192857
100
AcDbArc
 50
134.99999999999994
 51
225.0
  0
ARC
  5
85
100
AcDbEntity
  8
frame
 62
256
370
-1
  6
ByLayer
100
AcDbCircle
 10
-0.9999999999996305
 20
46.999999999999993
 30
0.0
 40
4.2426406871192857
100
AcDbArc
 50
134.99999999999994
 51
225.0
  0
ARC
  5
86
100
AcDbEntity
  8
frame
 62
256
370
-1
  6
ByLayer
100
AcDbCircle
 10
-0.9999999999996589
 20
41.000000000000021
 30
0.0
 40
4.2426406871192857
100
AcDbArc
 50
134.99999999999994
 51
225.0
  0
ARC
  5
87
100
AcDbEntity
  8
frame
 62
256
370
-1
  6
ByLayer
100
AcDbCircle
 10
-0.9999999999996874
 20
34.999999999999993
 30
0.0
 40
4.2426406871192857
100
AcDbArc
 50
134.99999999999994
 51
225.0
  0
ARC
  5
88
100
AcDbEntity
  8
frame
 62
256
370
-1
  6
ByLayer
100
AcDbCircle
 10
-0.9999999999997726
 20
28.999999999999982
 30
0.0
 40
4.2426406871192857
100
AcDbArc
 50
134.99999999999994
 51
225.0
  0
ARC
  5
89
100
AcDbEntity
  8
frame
 62
256
370
-1
  6
ByLayer
100
AcDbCircle
 10
-0.9999999999996874
 20
22.999999999999996
 30
0.0
 40
4.2426406871192857
100
AcDbArc
 50
134.99999999999994
 51
225.0
  0
ARC
  5
8A
100
AcDbEntity
  8
frame
 62
256
370
-1
  6
ByLayer
100
AcDbCircle
 10
-0.9999999999996874
 20
17.0
 30
0.0
 40
4.2426406871192857
100
AcDbArc
 50
134.99999999999994
 51
225.0
  0
ARC
  5
8B
100
AcDbEntity
  8
frame
 62
256
370
-1
  6
ByLayer
100
AcDbCircle
 10
-0.9999999999995737
 20
10.999999999999986
 30
0.0
 40
4.2426406871192857
100
AcDbArc
 50
134.99999999999994
 51
225.0
  0
ARC
  5
8C
100
AcDbEntity
  8
frame
 62
256
370
-1
  6
ByLayer
100
AcDbCircle
 10
-1.0
 20
5.0000000000000071
 30
0.0
 40
4.2426406871192857
100
AcDbArc
 50
134.99999999999994
 51
225.0
  0
ARC
  5
8D
100
AcDbEntity
  8
frame
 62
256
370
-1
  6
ByLayer
100
AcDbCircle
 10
-1.0000000000001918
 20
-121.0
 30
0.0
 40
4.2426406871192848
100
AcDbArc
 50
135.0
 51
315.0
  0
ARC
  5
8E
100
AcDbEntity
  8
frame
 62
256
370
-1
  6
ByLayer
100
AcDbCircle
 10
4.9999999999998295
 20
-121.0
 30
0.0
 40
4.2426406871192857
100
AcDbArc
 50
225.0
 51
315.0
  0
ARC
  5
8F
100
AcDbEntity
  8
frame
 62
256
370
-1
  6
ByLayer
100
AcDbCircle
 10
10.999999999999766
 20
-120.99999999999997
 30
0.0
 40
4.2426406871192857
100
AcDbArc
 50
225.0
 51
315.0
  0
ARC
  5
90
100
AcDbEntity
  8
frame
 62
256
370
-1
  6
ByLayer
100
AcDbCircle
 10
16.999999999999829
 20
-121.00000000000003
 30
0.0
 40
4.2426406871192857
100
AcDbArc
 50
225.0
 51
315.0
  0
ARC
  5
91
100
AcDbEntity
  8
frame
 62
256
370
-1
  6
ByLayer
100
AcDbCircle
 10
22.999999999999808
 20
-121.0
 30
0.0
 40
4.2426406871192857
100
AcDbArc
 50
225.0
 51
315.0
  0
ARC
  5
92
100
AcDbEntity
  8
frame
 62
256
370
-1
  6
ByLayer
100
AcDbCircle
 10
28.99999999999979
 20
-121.0
 30
0.0
 40
4.2426406871192857
100
AcDbArc
 50
225.0
 51
315.0
  0
ARC
  5
93
100
AcDbEntity
  8
frame
 62
256
370
-1
  6
ByLayer
100
AcDbCircle
 10
34.999999999999829
 20
-121.00000000000003
 30
0.0
 40
4.2426406871192857
100
AcDbArc
 50
225.0
 51
315.0
  0
ARC
  5
94
100
AcDbEntity
  8
frame
 62
256
370
-1
  6
ByLayer
100
AcDbCircle
 10
40.999999999999815
 20
-121.00000000000003
 30
0.0
 40
4.2426406871192857
100
AcDbArc
 50
225.0
 51
315.0
  0
ARC
  5
95
100
AcDbEntity
  8
frame
 62
256
370
-1
  6
ByLayer
100
AcDbCircle
 10
46.999999999999801
 20
-121.0
 30
0.0
 40
4.2426406871192857
100
AcDbArc
 50
225.0
 51
315.0
  0
ARC
  5
96
100
AcDbEntity
  8
frame
 62
256
370
-1
  6
ByLayer
100
AcDbCircle
 10
52.999999999999815
 20
-121.0
 30
0.0
 40
4.2426406871192857
100
AcDbArc
 50
225.0
 51
315.0
  0
ARC
  5
97
100
AcDbEntity
  8
frame
 62
256
370
-1
  6
ByLayer
100
AcDbCircle
 10
58.999999999999837
 20
-121.0
 30
0.0
 40
4.2426406871192857
100
AcDbArc
 50
225.0
 51
315.0
  0
ARC
  5
98
100
AcDbEntity
  8
frame
 62
256
370
-1
  6
ByLayer
100
AcDbCircle
 10
64.999999999999758
 20
-121.00000000000004
 30
0.0
 40
4.2426406871192857
100
AcDbArc
 50
225.0
 51
315.0
  0
ARC
  5
99
100
AcDbEntity
  8
frame
 62
256
370
-1
  6
ByLayer
100
AcDbCircle
 10
70.999999999999829
 20
-121.00000000000003
 30
0.0
 40
4.2426406871192857
100
AcDbArc
 50
225.0
 51
315.0
  0
ARC
  5
9A
100
AcDbEntity
  8
frame
 62
256
370
-1
  6
ByLayer
100
AcDbCircle
 10
76.999999999999829
 20
-121.00000000000003
 30
0.0
 40
4.2426406871192857
100
AcDbArc
 50
225.0
 51
315.0
  0
ARC
  5
9B
100
AcDbEntity
  8
frame
 62
256
370
-1
  6
ByLayer
100
AcDbCircle
 10
82.999999999999829
 20
-121.00000000000001
 30
0.0
 40
4.2426406871192857
100
AcDbArc
 50
225.0
 51
315.0
  0
ARC
  5
9C
100
AcDbEntity
  8
frame
 62
256
370
-1
  6
ByLayer
100
AcDbCircle
 10
88.999999999999815
 20
-121.00000000000003
 30
0.0
 40
4.2426406871192857
100
AcDbArc
 50
225.0
 51
315.0
  0
ARC
  5
9D
100
AcDbEntity
  8
frame
 62
256
370
-1
  6
ByLayer
100
AcDbCircle
 10
94.999999999999829
 20
-121.00000000000003
 30
0.0
 40
4.2426406871192857
100
AcDbArc
 50
225.0
 51
315.0
  0
ARC
  5
9E
100
AcDbEntity
  8
frame
 62
256
370
-1
  6
ByLayer
100
AcDbCircle
 10
100.99999999999983
 20
-121.00000000000003
 30
0.0
 40
4.2426406871192848
100
AcDbArc
 50
225.0
 51
45.0
  0
ARC
  5
9F
100
AcDbEntity
  8
frame
 62
256
370
-1
  6
ByLayer
100
AcDbCircle
 10
100.99999999999977
 20
-115.00000000000004
 30
0.0
 40
4.2426406871192857
100
AcDbArc
 50
315.0
 51
45.0
  0
ARC
  5
A0
100
AcDbEntity
  8
frame
 62
256
370
-1
  6
ByLayer
100
AcDbCircle
 10
100.99999999999963
 20
-109.00000000000004
 30
0.0
 40
4.2426406871192857
100
AcDbArc
 50
315.0
 51
45.0
  0
ARC
  5
A1
100
AcDbEntity
  8
frame
 62
256
370
-1
  6
ByLayer
100
AcDbCircle
 10
100.9999999999998
 20
-103.00000000000003
 30
0.0
 40
4.2426406871192857
100
AcDbArc
 50
315.0
 51
45.0
  0
ARC
  5
A2
100
AcDbEntity
  8
frame
 62
256
370
-1
  6
ByLayer
100
AcDbCircle
 10
100.99999999999991
 20
-97.000000000000028
 30
0.0
 40
4.2426406871192857
100
AcDbArc
 50
315.0
 51
45.0
  0
ARC
  5
A3
100
AcDbEntity
  8
frame
 62
256
370
-1
  6
ByLayer
100
AcDbCircle
 10
100.99999999999983
 20
-91.000000000000028
 30
0.0
 40
4.2426406871192857
100
AcDbArc
 50
315.0
 51
45.0
  0
ARC
  5
A4
100
AcDbEntity
  8
frame
 62
256
370
-1
  6
ByLayer
100
AcDbCircle
 10
100.99999999999983
 20
-85.000000000000014
 30
0.0
 40
4.2426406871192857
100
AcDbArc
 50
315.0
 51
45.0
  0
ARC
  5
A5
100
AcDbEntity
  8
frame
 62
256
370
-1
  6
ByLayer
100
AcDbCircle
 10
100.99999999999977
 20
-79.0
 30
0.0
 40
4.2426406871192857
100
AcDbArc
 50
315.0
 51
45.0
  0
ARC
  5
A6
100
AcDbEntity
  8
frame
 62
256
370
-1
  6
ByLayer
100
AcDbCircle
 10
100.99999999999989
 20
-73.000000000000057
 30
0.0
 40
4.2426406871192857
100
AcDbArc
 50
315.0
 51
45.0
  0
ARC
  5
A7
100
AcDbEntity
  8
frame
 62
256
370
-1
  6
ByLayer
100
AcDbCircle
 10
100.99999999999977
 20
-66.999999999999986
 30
0.0
 40
4.2426406871192857
100
AcDbArc
 50
315.0
 51
45.0
  0
ARC
  5
A8
100
AcDbEntity
  8
frame
 62
256
370
-1
  6
ByLayer
100
AcDbCircle
 10
100.99999999999983
 20
-60.99999999999995
 30
0.0
 40
4.2426406871192857
100
AcDbArc
 50
315.0
 51
45.0
  0
ARC
  5
A9
100
AcDbEntity
  8
frame
 62
256
370
-1
  6
ByLayer
100
AcDbCircle
 10
100.99999999999983
 20
-54.999999999999979
 30
0.0
 40
4.2426406871192857
100
AcDbArc
 50
315.0
 51
45.0
  0
ARC
  5
AA
100
AcDbEntity
  8
frame
 62
256
370
-1
  6
ByLayer
100
AcDbCircle
 10
100.99999999999994
 20
-49.000000000000014
 30
0.0
 40
4.2426406871192857
100
AcDbArc
 50
315.0
 51
45.0
  0
ARC
  5
AB
100
AcDbEntity
  8
frame
 62
256
370
-1
  6
ByLayer
100
AcDbCircle
 10
100.99999999999986
 20
-43.000000000000028
 30
0.0
 40
4.2426406871192857
100
AcDbArc
 50
315.0
 51
45.0
  0
ARC
  5
AC
100
AcDbEntity
  8
frame
 62
256
370
-1
  6
ByLayer
100
AcDbCircle
 10
100.99999999999986
 20
-37.000000000000007
 30
0.0
 40
4.2426406871192857
100
AcDbArc
 50
315.0
 51
45.0
  0
ARC
  5
AD
100
AcDbEntity
  8
frame
 62
256
370
-1
  6
ByLayer
100
AcDbCircle
 10
100.99999999999974
 20
-31.000000000000021
 30
0.0
 40
4.2426406871192857
100
AcDbArc
 50
315.0
 51
45.0
  0
ARC
  5
AE
100
AcDbEntity
  8
frame
 62
256
370
-1
  6
ByLayer
100
AcDbCircle
 10
101.00000000000017
 20
-25.000000000000014
 30
0.0
 40
4.2426406871192857
100
AcDbArc
 50
315.0
 51
45.0
  0
ARC
  5
AF
100
AcDbEntity
  8
frame
 62
256
370
-1
  6
ByLayer
100
AcDbCircle
 10
101.00000000000017
 20
-19.000000000000014
 30
0.0
 40
4.2426406871192848
100
AcDbArc
 50
315.0
 51
134.99999999999994
  0
ARC
  5
B0
100
AcDbEntity
  8
frame
 62
256
370
-1
  6
ByLayer
100
AcDbCircle
 10
95.000000000000171
 20
-19.000000000000028
 30
0.0
 40
4.2426406871192857
100
AcDbArc
 50
45.0
 51
134.99999999999994
  0
ARC
  5
B1
100
AcDbEntity
  8
frame
 62
256
370
-1
  6
ByLayer
100
AcDbCircle
 10
89.000000000000199
 20
-19.000000000000043
 30
0.0
 40
4.2426406871192857
100
AcDbArc
 50
45.0
 51
134.99999999999994
  0
ARC
  5
B2
100
AcDbEntity
  8
frame
 62
256
370
-1
  6
ByLayer
100
AcDbCircle
 10
83.000000000000171
 20
-19.000000000000014
 30
0.0
 40
4.2426406871192857
100
AcDbArc
 50
45.0
 51
134.99999999999994
  0
ARC
  5
B3
100
AcDbEntity
  8
frame
 62
256
370
-1
  6
ByLayer
100
AcDbCircle
 10
77.000000000000227
 20
-19.00000000000005
 30
0.0
 40
4.2426406871192857
100
AcDbArc
 50
45.0
 51
134.99999999999994
  0
ARC
  5
B4
100
AcDbEntity
  8
frame
 62
256
370
-1
  6
ByLayer
100
AcDbCircle
 10
71.000000000000171
 20
-19.000000000000014
 30
0.0
 40
4.2426406871192857
100
AcDbArc
 50
45.0
 51
134.99999999999994
  0
ARC
  5
B5
100
AcDbEntity
  8
frame
 62
256
370
-1
  6
ByLayer
100
AcDbCircle
 10
65.000000000000171
 20
-19.000000000000021
 30
0.0
 40
4.2426406871192857
100
AcDbArc
 50
45.0
 51
134.99999999999994
  0
ARC
  5
B6
100
AcDbEntity
  8
frame
 62
256
370
-1
  6
ByLayer
100
AcDbCircle
 10
59.000000000000227
 20
-19.000000000000028
 30
0.0
 40
4.2426406871192857
100
AcDbArc
 50
45.0
 51
134.99999999999994
  0
ARC
  5
B7
100
AcDbEntity
  8
frame
 62
256
370
-1
  6
ByLayer
100
AcDbCircle
 10
53.000000000000178
 20
-19.000000000000028
 30
0.0
 40
4.2426406871192857
100
AcDbArc
 50
45.0
 51
134.99999999999994
  0
ARC
  5
B8
100
AcDbEntity
  8
frame
 62
256
370
-1
  6
ByLayer
100
AcDbCircle
 10
47.000000000000171
 20
-19.000000000000021
 30
0.0
 40
4.2426406871192857
100
AcDbArc
 50
45.0
 51
134.99999999999994
  0
ARC
  5
B9
100
AcDbEntity
  8
frame
 62
256
370
-1
  6
ByLayer
100
AcDbCircle
 10
41.000000000000142
 20
-19.000000000000028
 30
0.0
 40
4.2426406871192857
100
AcDbArc
 50
45.0
 51
134.99999999999994
  0
ARC
  5
BA
100
AcDbEntity
  8
frame
 62
256
370
-1
  6
ByLayer
100
AcDbCircle
 10
35.000000000000135
 20
-19.000000000000021
 30
0.0
 40
4.2426406871192857
100
AcDbArc
 50
45.0
 51
134.99999999999994
  0
ARC
  5
BB
100
AcDbEntity
  8
frame
 62
256
370
-1
  6
ByLayer
100
AcDbCircle
 10
29.000000000000199
 20
-18.999999999999993
 30
0.0
 40
4.2426406871192857
100
AcDbArc
 50
45.0
 51
134.99999999999994
  0
ARC
  5
BC
100
AcDbEntity
  8
frame
 62
256
370
-1
  6
ByLayer
100
AcDbCircle
 10
23.000000000000135
 20
-19.000000000000028
 30
0.0
 40
4.2426406871192857
100
AcDbArc
 50
45.0
 51
134.99999999999994
  0
ARC
  5
BD
100
AcDbEntity
  8
frame
 62
256
370
-1
  6
ByLayer
100
AcDbCircle
 10
17.000000000000234
 20
-18.999999999999986
 30
0.0
 40
4.2426406871192857
100
AcDbArc
 50
45.0
 51
134.99999999999994
  0
ARC
  5
BE
100
AcDbEntity
  8
frame
 62
256
370
-1
  6
ByLayer
100
AcDbCircle
 10
11.000000000000135
 20
-19.000000000000057
 30
0.0
 40
4.2426406871192857
100
AcDbArc
 50
45.0
 51
134.99999999999994
  0
ARC
  5
BF
100
AcDbEntity
  8
frame
 62
256
370
-1
  6
ByLayer
100
AcDbCircle
 10
5.0000000000001705
 20
-18.999999999999993
 30
0.0
 40
4.2426406871192857
100
AcDbArc
 50
45.0
 51
134.99999999999994
  0
ARC
  5
C0
100
AcDbEntity
  8
frame
 62
256
370
-1
  6
ByLayer
100
AcDbCircle
 10
-0.9999999999997797
 20
-18.999999999999986
 30
0.0
 40
4.2426406871192848
100
AcDbArc
 50
45.0
 51
225.0
  0
ARC
  5
C1
100
AcDbEntity
  8
frame
 62
256
370
-1
  6
ByLayer
100
AcDbCircle
 10
-0.9999999999997939
 20
-25.000000000000028
 30
0.0
 40
4.2426406871192857
100
AcDbArc
 50
134.99999999999994
 51
225.0
  0
ARC
  5
C2
100
AcDbEntity
  8
frame
 62
256
370
-1
  6
ByLayer
100
AcDbCircle
 10
-0.999999999999595
 20
-30.999999999999922
 30
0.0
 40
4.2426406871192857
100
AcDbArc
 50
134.99999999999994
 51
225.0
  0
ARC
  5
C3
100
AcDbEntity
  8
frame
 62
256
370
-1
  6
ByLayer
100
AcDbCircle
 10
-0.9999999999998224
 20
-37.000000000000021
 30
0.0
 40
4.2426406871192857
100
AcDbArc
 50
134.99999999999994
 51
225.0
  0
ARC
  5
C4
100
AcDbEntity
  8
frame
 62
256
370
-1
  6
ByLayer
100
AcDbCircle
 10
-0.9999999999998863
 20
-43.0
 30
0.0
 40
4.2426406871192857
100
AcDbArc
 50
134.99999999999994
 51
225.0
  0
ARC
  5
C5
100
AcDbEntity
  8
frame
 62
256
370
-1
  6
ByLayer
100
AcDbCircle
 10
-0.9999999999998863
 20
-49.000000000000085
 30
0.0
 40
4.2426406871192857
100
AcDbArc
 50
134.99999999999994
 51
225.0
  0
ARC
  5
C6
100
AcDbEntity
  8
frame
 62
256
370
-1
  6
ByLayer
100
AcDbCircle
 10
-0.9999999999998579
 20
-54.999999999999957
 30
0.0
 40
4.2426406871192857
100
AcDbArc
 50
134.99999999999994
 51
225.0
  0
ARC
  5
C7
100
AcDbEntity
  8
frame
 62
256
370
-1
  6
ByLayer
100
AcDbCircle
 10
-0.9999999999998011
 20
-61.000000000000092
 30
0.0
 40
4.2426406871192857
100
AcDbArc
 50
134.99999999999994
 51
225.0
  0
ARC
  5
C8
100
AcDbEntity
  8
frame
 62
256
370
-1
  6
ByLayer
100
AcDbCircle
 10
-0.9999999999999147
 20
-66.999999999999972
 30
0.0
 40
4.2426406871192857
100
AcDbArc
 50
134.99999999999994
 51
225.0
  0
ARC
  5
C9
100
AcDbEntity
  8
frame
 62
256
370
-1
  6
ByLayer
100
AcDbCircle
 10
-0.9999999999998011
 20
-73.000000000000014
 30
0.0
 40
4.2426406871192857
100
AcDbArc
 50
134.99999999999994
 51
225.0
  0
ARC
  5
CA
100
AcDbEntity
  8
frame
 62
256
370
-1
  6
ByLayer
100
AcDbCircle
 10
-0.9999999999998295
 20
-79.0
 30
0.0
 40
4.2426406871192857
100
AcDbArc
 50
134.99999999999994
 51
225.0
  0
ARC
  5
CB
100
AcDbEntity
  8
frame
 62
256
370
-1
  6
ByLayer
100
AcDbCircle
 10
-0.9999999999998579
 20
-85.0
 30
0.0
 40
4.2426406871192857
100
AcDbArc
 50
134.99999999999994
 51
225.0
  0
ARC
  5
CC
100
AcDbEntity
  8
frame
 62
256
370
-1
  6
ByLayer
100
AcDbCircle
 10
-0.9999999999999503
 20
-91.0
 30
0.0
 40
4.2426406871192857
100
AcDbArc
 50
134.99999999999994
 51
225.0
  0
ARC
  5
CD
100
AcDbEntity
  8
frame
 62
256
370
-1
  6
ByLayer
100
AcDbCircle
 10
-0.999999999999865
 20
-96.999999999999972
 30
0.0
 40
4.2426406871192857
100
AcDbArc
 50
134.99999999999994
 51
225.0
  0
ARC
  5
CE
100
AcDbEntity
  8
frame
 62
256
370
-1
  6
ByLayer
100
AcDbCircle
 10
-0.9999999999998721
 20
-103.0
 30
0.0
 40
4.2426406871192857
100
AcDbArc
 50
134.99999999999994
 51
225.0
  0
ARC
  5
CF
100
AcDbEntity
  8
frame
 62
256
370
-1
  6
ByLayer
100
AcDbCircle
 10
-0.9999999999997442
 20
-109.00000000000003
 30
0.0
 40
4.2426406871192857
100
AcDbArc
 50
134.99999999999994
 51
225.0
  0
ARC
  5
D0
100
AcDbEntity
  8
frame
 62
256
370
-1
  6
ByLayer
100
AcDbCircle
 10
-1.0000000000001776
 20
-114.99999999999997
 30
0.0
 40
4.2426406871192857
100
AcDbArc
 50
134.99999999999994
 51
225.0
  0
ARC
  5
D1
100
AcDbEntity
  8
frame
 62
256
370
-1
  6
ByLayer
100
AcDbCircle
 10
15.119379566434276
 20
9.2357287525384919
 30
0.0
 40
4.2426406871192848
100
AcDbArc
 50
90.0
 51
270.0
  0
ARC
  5
D2
100
AcDbEntity
  8
frame
 62
256
370
-1
  6
ByLayer
100
AcDbCircle
 10
83.001630560343045
 20
77.117979746446778
 30
0.0
 40
4.2426406871192857
100
AcDbArc
 50
89.999999999999943
 51
180.0
  0
ARC
  5
D3
100
AcDbEntity
  8
frame
 62
256
370
-1
  6
ByLayer
100
AcDbCircle
 10
78.75898987322401
 20
72.875339059327416
 30
0.0
 40
4.2426406871192857
100
AcDbArc
 50
89.999999999999943
 51
180.0
  0
ARC
  5
D4
100
AcDbEntity
  8
frame
 62
256
370
-1
  6
ByLayer
100
AcDbCircle
 10
74.516349186104492
 20
68.632698372208239
 30
0.0
 40
4.2426406871192857
100
AcDbArc
 50
89.999999999999943
 51
180.0
  0
ARC
  5
D5
100
AcDbEntity
  8
frame
 62
256
370
-1
  6
ByLayer
100
AcDbCircle
 10
70.273708498985201
 20
64.390057685089019
 30
0.0
 40
4.2426406871192857
100
AcDbArc
 50
89.999999999999943
 51
180.0
  0
ARC
  5
D6
100
AcDbEntity
  8
frame
 62
256
370
-1
  6
ByLayer
100
AcDbCircle
 10
66.031067811865853
 20
60.147416997969664
 30
0.0
 40
4.2426406871192857
100
AcDbArc
 50
89.999999999999943
 51
180.0
  0
ARC
  5
D7
100
AcDbEntity
  8
frame
 62
256
370
-1
  6
ByLayer
100
AcDbCircle
 10
61.788427124746676
 20
55.904776310850458
 30
0.0
 40
4.2426406871192857
100
AcDbArc
 50
89.999999999999943
 51
180.0
  0
ARC
  5
D8
100
AcDbEntity
  8
frame
 62
256
370
-1
  6
ByLayer
100
AcDbCircle
 10
57.545786437627385
 20
51.662135623731096
 30
0.0
 40
4.2426406871192857
100
AcDbArc
 50
89.999999999999943
 51
180.0
  0
ARC
  5
D9
100
AcDbEntity
  8
frame
 62
256
370
-1
  6
ByLayer
100
AcDbCircle
 10
53.303145750508037
 20
47.419494936611891
 30
0.0
 40
4.2426406871192857
100
AcDbArc
 50
89.999999999999943
 51
180.0
  0
ARC
  5
DA
100
AcDbEntity
  8
frame
 62
256
370
-1
  6
ByLayer
100
AcDbCircle
 10
49.060505063388803
 20
43.176854249492514
 30
0.0
 40
4.2426406871192857
100
AcDbArc
 50
89.999999999999943
 51
180.0
  0
ARC
  5
DB
100
AcDbEntity
  8
frame
 62
256
370
-1
  6
ByLayer
100
AcDbCircle
 10
44.817864376269512
 20
38.934213562373266
 30
0.0
 40
4.2426406871192857
100
AcDbArc
 50
89.999999999999943
 51
180.0
  0
ARC
  5
DC
100
AcDbEntity
  8
frame
 62
256
370
-1
  6
ByLayer
100
AcDbCircle
 10
40.575223689150164
 20
34.691572875253968
 30
0.0
 40
4.2426406871192857
100
AcDbArc
 50
89.999999999999943
 51
180.0
  0
ARC
  5
DD
100
AcDbEntity
  8
frame
 62
256
370
-1
  6
ByLayer
100
AcDbCircle
 10
36.332583002030873
 20
30.448932188134744
 30
0.0
 40
4.2426406871192857
100
AcDbArc
 50
89.999999999999943
 51
180.0
  0
ARC
  5
DE
100
AcDbEntity
  8
frame
 62
256
370
-1
  6
ByLayer
100
AcDbCircle
 10
32.08994231491161
 20
26.206291501015418
 30
0.0
 40
4.2426406871192857
100
AcDbArc
 50
89.999999999999943
 51
180.0
  0
ARC
  5
DF
100
AcDbEntity
  8
frame
 62
256
370
-1
  6
ByLayer
100
AcDbCircle
 10
27.847301627792348
 20
21.963650813896145
 30
0.0
 40
4.2426406871192857
100
AcDbArc
 50
89.999999999999943
 51
180.0
  0
ARC
  5
E0
100
AcDbEntity
  8
frame
 62
256
370
-1
  6
ByLayer
100
AcDbCircle
 10
23.604660940673114
 20
17.721010126776743
 30
0.0
 40
4.2426406871192857
100
AcDbArc
 50
89.999999999999943
 51
180.0
  0
ARC
  5
E1
100
AcDbEntity
  8
frame
 62
256
370
-1
  6
ByLayer
100
AcDbCircle
 10
19.362020253553567
 20
13.478369439657797
 30
0.0
 40
4.2426406871192857
100
AcDbArc
 50
89.999999999999943
 51
180.0
  0
LINE
  5
E2
100
AcDbEntity
100
AcDbLine
  8
frame
 62
256
370
-1
  6
ByLayer
 10
90.866853976071496
 20
83.568989599802421
 30
0.0
 11
16.533593128807325
 21
9.2357287525385168
 31
0.0
  0
ARC
  5
E3
100
AcDbEntity
  8
frame
 62
256
370
-1
  6
ByLayer
100
AcDbCircle
 10
87.244271247462336
 20
81.360620433566055
 30
0.0
 40
4.2426406871192848
100
AcDbArc
 50
31.366977774630826
 51
179.99999999999997
  0
LINE
  5
E4
100
AcDbEntity
100
AcDbLine
  8
frame
 62
256
370
-1
  6
ByLayer
 10
16.533593128807325
 20
9.2357287525385168
 30
0.0
 11
15.119379566434219
 21
4.9930880654192391
 31
0.0
  0
ARC
  5
E5
100
AcDbEntity
  8
frame
 62
256
370
-1
  6
ByLayer
100
AcDbCircle
 10
20.776233815926616
 20
12.064155877284705
 30
0.0
 40
4.2426406871192857
100
AcDbArc
 50
270.0
 51
360.0
  0
ARC
  5
E6
100
AcDbEntity
  8
frame
 62
256
370
-1
  6
ByLayer
100
AcDbCircle
 10
25.018874503045879
 20
16.306796564403964
 30
0.0
 40
4.2426406871192857
100
AcDbArc
 50
270.0
 51
360.0
  0
ARC
  5
E7
100
AcDbEntity
  8
frame
 62
256
370
-1
  6
ByLayer
100
AcDbCircle
 10
29.261515190165198
 20
20.549437251523258
 30
0.0
 40
4.2426406871192857
100
AcDbArc
 50
270.0
 51
360.0
  0
ARC
  5
E8
100
AcDbEntity
  8
frame
 62
256
370
-1
  6
ByLayer
100
AcDbCircle
 10
33.504155877284461
 20
24.792077938642542
 30
0.0
 40
4.2426406871192857
100
AcDbArc
 50
270.0
 51
360.0
  0
ARC
  5
E9
100
AcDbEntity
  8
frame
 62
256
370
-1
  6
ByLayer
100
AcDbCircle
 10
37.746796564403752
 20
29.034718625761826
 30
0.0
 40
4.2426406871192857
100
AcDbArc
 50
270.0
 51
360.0
  0
ARC
  5
EA
100
AcDbEntity
  8
frame
 62
256
370
-1
  6
ByLayer
100
AcDbCircle
 10
41.989437251523071
 20
33.27735931288111
 30
0.0
 40
4.2426406871192857
100
AcDbArc
 50
270.0
 51
360.0
  0
ARC
  5
EB
100
AcDbEntity
  8
frame
 62
256
370
-1
  6
ByLayer
100
AcDbCircle
 10
46.232077938642334
 20
37.520000000000401
 30
0.0
 40
4.2426406871192857
100
AcDbArc
 50
270.0
 51
360.0
  0
ARC
  5
EC
100
AcDbEntity
  8
frame
 62
256
370
-1
  6
ByLayer
100
AcDbCircle
 10
50.474718625761597
 20
41.762640687119671
 30
0.0
 40
4.2426406871192857
100
AcDbArc
 50
270.0
 51
360.0
  0
ARC
  5
ED
100
AcDbEntity
  8
frame
 62
256
370
-1
  6
ByLayer
100
AcDbCircle
 10
54.717359312880888
 20
46.005281374238955
 30
0.0
 40
4.2426406871192857
100
AcDbArc
 50
270.0
 51
360.0
  0
ARC
  5
EE
100
AcDbEntity
  8
frame
 62
256
370
-1
  6
ByLayer
100
AcDbCircle
 10
58.960000000000207
 20
50.24792206135826
 30
0.0
 40
4.2426406871192857
100
AcDbArc
 50
270.0
 51
360.0
  0
ARC
  5
EF
100
AcDbEntity
  8
frame
 62
256
370
-1
  6
ByLayer
100
AcDbCircle
 10
63.202640687119469
 20
54.490562748477515
 30
0.0
 40
4.2426406871192857
100
AcDbArc
 50
270.0
 51
360.0
  0
ARC
  5
F0
100
AcDbEntity
  8
frame
 62
256
370
-1
  6
ByLayer
100
AcDbCircle
 10
67.44528137423876
 20
58.733203435596828
 30
0.0
 40
4.2426406871192857
100
AcDbArc
 50
270.0
 51
360.0
  0
ARC
  5
F1
100
AcDbEntity
  8
frame
 62
256
370
-1
  6
ByLayer
100
AcDbCircle
 10
71.687922061358051
 20
62.975844122716104
 30
0.0
 40
4.2426406871192857
100
AcDbArc
 50
270.0
 51
360.0
  0
ARC
  5
F2
100
AcDbEntity
  8
frame
 62
256
370
-1
  6
ByLayer
100
AcDbCircle
 10
75.930562748477342
 20
67.218484809835402
 30
0.0
 40
4.2426406871192857
100
AcDbArc
 50
270.0
 51
360.0
  0
ARC
  5
F3
100
AcDbEntity
  8
frame
 62
256
370
-1
  6
ByLayer
100
AcDbCircle
 10
80.173203435596662
 20
71.461125496954665
 30
0.0
 40
4.2426406871192857
100
AcDbArc
 50
270.0
 51
360.0
  0
ARC
  5
F4
100
AcDbEntity
  8
frame
 62
256
370
-1
  6
ByLayer
100
AcDbCircle
 10
84.415844122715924
 20
75.703766184073956
 30
0.0
 40
4.2426406871192857
100
AcDbArc
 50
270.0
 51
360.0
  0
LINE
  5
F5
100
AcDbEntity
100
AcDbLine
  8
frame
 62
256
370
-1
  6
ByLayer
 10
16.533593128807325
 20
9.2357287525385168
 30
0.0
 11
20.776233815926616
 21
7.8215151901654094
 31
0.0
  0
LINE
  5
F6
100
AcDbEntity
100
AcDbLine
  8
frame
 62
256
370
-1
  6
ByLayer
 10
87.244271247462109
 20
79.946406871193261
 30
0.0
 11
88.658484809835159
 21
75.703766184073999
 31
0.0
  0
ARC
  5
F7
100
AcDbEntity
  8
frame
 62
256
370
-1
  6
ByLayer
100
AcDbCircle
 10
84.237020795669025
 20
89.486059144776277
 30
0.0
 40
4.2426406871192848
100
AcDbArc
 50
360.0
 51
180.0
  0
ARC
  5
F8
100
AcDbEntity
  8
frame
 62
256
370
-1
  6
ByLayer
100
AcDbCircle
 10
79.994380108549791
 20
85.243418457656972
 30
0.0
 40
4.2426406871192857
100
AcDbArc
 50
90.0
 51
180.0
  0
ARC
  5
F9
100
AcDbEntity
  8
frame
 62
256
370
-1
  6
ByLayer
100
AcDbCircle
 10
75.751739421430557
 20
81.00077777053761
 30
0.0
 40
4.2426406871192857
100
AcDbArc
 50
90.0
 51
180.0
  0
ARC
  5
FA
100
AcDbEntity
  8
frame
 62
256
370
-1
  6
ByLayer
100
AcDbCircle
 10
71.509098734311152
 20
76.758137083418404
 30
0.0
 40
4.2426406871192857
100
AcDbArc
 50
90.0
 51
180.0
  0
ARC
  5
FB
100
AcDbEntity
  8
frame
 62
256
370
-1
  6
ByLayer
100
AcDbCircle
 10
67.266458047191804
 20
72.515496396299184
 30
0.0
 40
4.2426406871192857
100
AcDbArc
 50
90.0
 51
180.0
  0
ARC
  5
FC
100
AcDbEntity
  8
frame
 62
256
370
-1
  6
ByLayer
100
AcDbCircle
 10
63.02381736007257
 20
68.272855709179851
 30
0.0
 40
4.2426406871192857
100
AcDbArc
 50
90.0
 51
180.0
  0
ARC
  5
FD
100
AcDbEntity
  8
frame
 62
256
370
-1
  6
ByLayer
100
AcDbCircle
 10
58.781176672953279
 20
64.030215022060574
 30
0.0
 40
4.2426406871192857
100
AcDbArc
 50
90.0
 51
180.0
  0
ARC
  5
FE
100
AcDbEntity
  8
frame
 62
256
370
-1
  6
ByLayer
100
AcDbCircle
 10
54.538535985834017
 20
59.787574334941219
 30
0.0
 40
4.2426406871192857
100
AcDbArc
 50
90.0
 51
180.0
  0
ARC
  5
FF
100
AcDbEntity
  8
frame
 62
256
370
-1
  6
ByLayer
100
AcDbCircle
 10
50.295895298714697
 20
55.544933647822056
 30
0.0
 40
4.2426406871192857
100
AcDbArc
 50
90.0
 51
180.0
  0
ARC
  5
100
100
AcDbEntity
  8
frame
 62
256
370
-1
  6
ByLayer
100
AcDbCircle
 10
46.053254611595435
 20
51.302292960702651
 30
0.0
 40
4.2426406871192857
100
AcDbArc
 50
90.0
 51
180.0
  0
ARC
  5
101
100
AcDbEntity
  8
frame
 62
256
370
-1
  6
ByLayer
100
AcDbCircle
 10
41.810613924476115
 20
47.05965227358341
 30
0.0
 40
4.2426406871192857
100
AcDbArc
 50
90.0
 51
180.0
  0
ARC
  5
102
100
AcDbEntity
  8
frame
 62
256
370
-1
  6
ByLayer
100
AcDbCircle
 10
37.567973237356824
 20
42.817011586464119
 30
0.0
 40
4.2426406871192857
100
AcDbArc
 50
90.0
 51
180.0
  0
ARC
  5
103
100
AcDbEntity
  8
frame
 62
256
370
-1
  6
ByLayer
100
AcDbCircle
 10
33.325332550237448
 20
38.574370899344927
 30
0.0
 40
4.2426406871192857
100
AcDbArc
 50
90.0
 51
180.0
  0
ARC
  5
104
100
AcDbEntity
  8
frame
 62
256
370
-1
  6
ByLayer
100
AcDbCircle
 10
29.082691863118242
 20
34.331730212225644
 30
0.0
 40
4.2426406871192857
100
AcDbArc
 50
90.0
 51
180.0
  0
ARC
  5
105
100
AcDbEntity
  8
frame
 62
256
370
-1
  6
ByLayer
100
AcDbCircle
 10
24.840051175998923
 20
30.089089525106303
 30
0.0
 40
4.2426406871192857
100
AcDbArc
 50
90.0
 51
180.0
  0
ARC
  5
106
100
AcDbEntity
  8
frame
 62
256
370
-1
  6
ByLayer
100
AcDbCircle
 10
20.597410488879746
 20
25.846448837986976
 30
0.0
 40
4.2426406871192857
100
AcDbArc
 50
90.0
 51
180.0
  0
ARC
  5
107
100
AcDbEntity
  8
frame
 62
256
370
-1
  6
ByLayer
100
AcDbCircle
 10
16.35476980176017
 20
21.603808150867952
 30
0.0
 40
4.2426406871192857
100
AcDbArc
 50
90.0
 51
180.0
  0
LINE
  5
108
100
AcDbEntity
100
AcDbLine
  8
frame
 62
256
370
-1
  6
ByLayer
 10
84.237020795668968
 20
88.071845582403171
 30
0.0
 11
9.9037599484050531
 21
13.738584735139508
 31
0.0
  0
ARC
  5
109
100
AcDbEntity
  8
frame
 62
256
370
-1
  6
ByLayer
100
AcDbCircle
 10
12.112129114640879
 20
17.361167463748668
 30
0.0
 40
4.2426406871192848
100
AcDbArc
 50
90.0
 51
238.63302222536919
  0
LINE
  5
10A
100
AcDbEntity
100
AcDbLine
  8
frame
 62
256
370
-1
  6
ByLayer
 10
84.237020795668968
 20
88.071845582403171
 30
0.0
 11
88.479661482788316
 21
89.486059144776306
 31
0.0
  0
LINE
  5
10B
100
AcDbEntity
100
AcDbLine
  8
frame
 62
256
370
-1
  6
ByLayer
 10
52.499999999999979
 20
-100.0
 30
0.0
 11
52.499999999999972
 21
-110.0
 31
0.0
  0
LINE
  5
10C
100
AcDbEntity
100
AcDbLine
  8
frame
 62
256
370
-1
  6
ByLayer
 10
52.499999999999986
 20
-80.0
 30
0.0
 11
52.499999999999986
 21
-90.0
 31
0.0
  0
LINE
  5
10D
100
AcDbEntity
100
AcDbLine
  8
frame
 62
256
370
-1
  6
ByLayer
 10
52.499999999999986
 20
-60.0
 30
0.0
 11
52.499999999999986
 21
-70.0
 31
0.0
  0
LINE
  5
10E
100
AcDbEntity
100
AcDbLine
  8
frame
 62
256
370
-1
  6
ByLayer
 10
55.0
 20
-30.0
 30
0.0
 11
55.0
 21
-38.0
 31
0.0
  0
LINE
  5
10F
100
AcDbEntity
100
AcDbLine
  8
frame
 62
256
370
-1
  6
ByLayer
 10
45.0
 20
-38.0
 30
0.0
 11
45.0
 21
-30.0
 31
0.0
  0
LINE
  5
110
100
AcDbEntity
100
AcDbLine
  8
frame
 62
256
370
-1
  6
ByLayer
 10
120.0
 20
0.0
 30
0.0
 11
120.0
 21
100.0
 31
0.0
  0
LINE
  5
111
100
AcDbEntity
100
AcDbLine
  8
frame
 62
256
370
-1
  6
ByLayer
 10
120.0
 20
100.0
 30
0.0
 11
220.0
 21
100.0
 31
0.0
  0
LINE
  5
112
100
AcDbEntity
100
AcDbLine
  8
frame
 62
256
370
-1
  6
ByLayer
 10
220.0
 20
100.0
 30
0.0
 11
220.0
 21
0.0
 31
0.0
  0
LINE
  5
113
100
AcDbEntity
100
AcDbLine
  8
frame
 62
256
370
-1
  6
ByLayer
 10
220.0
 20
0.0
 30
0.0
 11
120.0
 21
0.0
 31
0.0
  0
LINE
  5
114
100
AcDbEntity
100
AcDbLine
  8
frame
 62
256
370
-1
  6
ByLayer
 10
47.500000000000014
 20
-28.0
 30
0.0
 11
47.500000000000014
 21
-30.0
 31
0.0
  0
LINE
  5
115
100
AcDbEntity
100
AcDbLine
  8
frame
 62
256
370
-1
  6
ByLayer
 10
52.499999999999986
 20
-28.0
 30
0.0
 11
52.499999999999986
 21
-29.999999999999996
 31
0.0
  0
LINE
  5
116
100
AcDbEntity
100
AcDbLine
  8
frame
 62
256
370
-1
  6
ByLayer
 10
54.799999999999997
 20
-110.0
 30
0.0
 11
54.800000000000011
 21
-100.0
 31
0.0
  0
LINE
  5
117
100
AcDbEntity
100
AcDbLine
  8
frame
 62
256
370
-1
  6
ByLayer
 10
54.800000000000011
 20
-90.0
 30
0.0
 11
54.800000000000018
 21
-80.0
 31
0.0
  0
LINE
  5
118
100
AcDbEntity
100
AcDbLine
  8
frame
 62
256
370
-1
  6
ByLayer
 10
54.800000000000018
 20
-70.0
 30
0.0
 11
54.800000000000018
 21
-60.0
 31
0.0
  0
LINE
  5
119
100
AcDbEntity
100
AcDbLine
  8
frame
 62
256
370
-1
  6
ByLayer
 10
52.499999999999986
 20
-70.0
 30
0.0
 11
54.800000000000018
 21
-70.0
 31
0.0
  0
LINE
  5
11A
100
AcDbEntity
100
AcDbLine
  8
frame
 62
256
370
-1
  6
ByLayer
 10
54.800000000000018
 20
-60.0
 30
0.0
 11
52.499999999999986
 21
-60.0
 31
0.0
  0
LINE
  5
11B
100
AcDbEntity
100
AcDbLine
  8
frame
 62
256
370
-1
  6
ByLayer
 10
47.500000000000014
 20
-60.0
 30
0.0
 11
45.200000000000003
 21
-60.0
 31
0.0
  0
LINE
  5
11C
100
AcDbEntity
100
AcDbLine
  8
frame
 62
256
370
-1
  6
ByLayer
 10
45.200000000000003
 20
-80.0
 30
0.0
 11
47.500000000000014
 21
-80.0
 31
0.0
  0
LINE
  5
11D
100
AcDbEntity
100
AcDbLine
  8
frame
 62
256
370
-1
  6
ByLayer
 10
52.499999999999986
 20
-80.0
 30
0.0
 11
54.800000000000018
 21
-80.0
 31
0.0
  0
LINE
  5
11E
100
AcDbEntity
100
AcDbLine
  8
frame
 62
256
370
-1
  6
ByLayer
 10
54.800000000000011
 20
-90.0
 30
0.0
 11
52.499999999999986
 21
-90.0
 31
0.0
  0
LINE
  5
11F
100
AcDbEntity
100
AcDbLine
  8
frame
 62
256
370
-1
  6
ByLayer
 10
45.200000000000003
 20
-100.0
 30
0.0
 11
47.500000000000007
 21
-100.0
 31
0.0
  0
LINE
  5
120
100
AcDbEntity
100
AcDbLine
  8
frame
 62
256
370
-1
  6
ByLayer
 10
52.499999999999979
 20
-100.0
 30
0.0
 11
54.800000000000011
 21
-100.0
 31
0.0
  0
LINE
  5
121
100
AcDbEntity
100
AcDbLine
  8
frame
 62
256
370
-1
  6
ByLayer
 10
54.799999999999997
 20
-110.0
 30
0.0
 11
52.499999999999972
 21
-110.0
 31
0.0
  0
ARC
  5
122
100
AcDbEntity
  8
frame
 62
256
370
-1
  6
ByLayer
100
AcDbCircle
 10
50.0
 20
-28.0
 30
0.0
 40
2.4999999999999858
100
AcDbArc
 50
0.0
 51
180.0
  0
LINE
  5
123
100
AcDbEntity
100
AcDbLine
  8
frame
 62
256
370
-1
  6
ByLayer
 10
45.0
 20
-30.0
 30
0.0
 11
47.500000000000014
 21
-30.0
 31
0.0
  0
LINE
  5
124
100
AcDbEntity
100
AcDbLine
  8
frame
 62
256
370
-1
  6
ByLayer
 10
52.499999999999986
 20
-30.0
 30
0.0
 11
55.0
 21
-30.0
 31
0.0
  0
LINE
  5
125
100
AcDbEntity
100
AcDbLine
  8
frame
 62
256
370
-1
  6
ByLayer
 10
55.0
 20
-46.0
 30
0.0
 11
55.0
 21
-38.0
 31
0.0
  0
LINE
  5
126
100
AcDbEntity
100
AcDbLine
  8
frame
 62
256
370
-1
  6
ByLayer
 10
45.0
 20
-38.0
 30
0.0
 11
45.0
 21
-46.0
 31
0.0
  0
LINE
  5
127
100
AcDbEntity
100
AcDbLine
  8
frame
 62
256
370
-1
  6
ByLayer
 10
47.500000000000014
 20
-48.0
 30
0.0
 11
47.500000000000014
 21
-46.0
 31
0.0
  0
LINE
  5
128
100
AcDbEntity
100
AcDbLine
  8
frame
 62
256
370
-1
  6
ByLayer
 10
52.499999999999986
 20
-48.0
 30
0.0
 11
52.499999999999986
 21
-46.000000000000007
 31
0.0
  0
ARC
  5
129
100
AcDbEntity
  8
frame
 62
256
370
-1
  6
ByLayer
100
AcDbCircle
 10
50.0
 20
-48.0
 30
0.0
 40
2.4999999999999858
100
AcDbArc
 50
180.0
 51
0.0
  0
LINE
  5
12A
100
AcDbEntity
100
AcDbLine
  8
frame
 62
256
370
-1
  6
ByLayer
 10
45.0
 20
-46.0
 30
0.0
 11
47.500000000000014
 21
-46.0
 31
0.0
  0
LINE
  5
12B
100
AcDbEntity
100
AcDbLine
  8
frame
 62
256
370
-1
  6
ByLayer
 10
52.499999999999986
 20
-46.0
 30
0.0
 11
55.0
 21
-46.0
 31
0.0
  0
LINE
  5
12C
100
AcDbEntity
100
AcDbLine
  8
frame
 62
256
370
-1
  6
ByLayer
 10
45.0
 20
-38.0
 30
0.0
 11
55.0
 21
-38.0
 31
0.0
  0
LINE
  5
12D
100
AcDbEntity
100
AcDbLine
  8
frame
 62
256
370
-1
  6
ByLayer
 10
88.000000000000014
 20
59.999999999999993
 30
0.0
 11
90.0
 21
60.000000000000007
 31
0.0
  0
LINE
  5
12E
100
AcDbEntity
100
AcDbLine
  8
frame
 62
256
370
-1
  6
ByLayer
 10
90.0
 20
60.000000000000007
 30
0.0
 11
90.000000000000014
 21
49.999999999999993
 31
0.0
  0
LINE
  5
12F
100
AcDbEntity
100
AcDbLine
  8
frame
 62
256
370
-1
  6
ByLayer
 10
90.000000000000014
 20
49.999999999999993
 30
0.0
 11
88.000000000000014
 21
49.999999999999993
 31
0.0
  0
LINE
  5
130
100
AcDbEntity
100
AcDbLine
  8
frame
 62
256
370
-1
  6
ByLayer
 10
88.0
 20
39.999999999999993
 30
0.0
 11
90.0
 21
39.999999999999993
 31
0.0
  0
LINE
  5
131
100
AcDbEntity
100
AcDbLine
  8
frame
 62
256
370
-1
  6
ByLayer
 10
90.0
 20
39.999999999999993
 30
0.0
 11
90.0
 21
30.0
 31
0.0
  0
LINE
  5
132
100
AcDbEntity
100
AcDbLine
  8
frame
 62
256
370
-1
  6
ByLayer
 10
90.0
 20
30.0
 30
0.0
 11
88.0
 21
30.000000000000007
 31
0.0
  0
LINE
  5
133
100
AcDbEntity
100
AcDbLine
  8
frame
 62
256
370
-1
  6
ByLayer
 10
90.0
 20
20.000000000000007
 30
0.0
 11
88.0
 21
19.999999999999996
 31
0.0
  0
LINE
  5
134
100
AcDbEntity
100
AcDbLine
  8
frame
 62
256
370
-1
  6
ByLayer
 10
90.0
 20
10.0
 30
0.0
 11
90.0
 21
20.000000000000007
 31
0.0
  0
LINE
  5
135
100
AcDbEntity
100
AcDbLine
  8
frame
 62
256
370
-1
  6
ByLayer
 10
88.0
 20
19.999999999999996
 30
0.0
 11
88.0
 21
30.000000000000007
 31
0.0
  0
LINE
  5
136
100
AcDbEntity
100
AcDbLine
  8
frame
 62
256
370
-1
  6
ByLayer
 10
88.0
 20
39.999999999999993
 30
0.0
 11
88.000000000000014
 21
49.999999999999993
 31
0.0
  0
LINE
  5
137
100
AcDbEntity
100
AcDbLine
  8
frame
 62
256
370
-1
  6
ByLayer
 10
74.703773481284372
 20
53.982025518400071
 30
0.0
 11
75.764433653064202
 21
55.042685690179887
 31
0.0
  0
SPLINE
  5
138
  8
frame
 62
256
370
-1
  6
ByLayer
100
AcDbEntity
100
AcDbSpline
 70
8
 71
3
 72
13
 73
9
 74
0
 40
0.0
 40
0.0
 40
0.0
 40
0.0
 40
0.1666666666666667
 40
0.3333333333333333
 40
0.5
 40
0.6666666666666666
 40
0.8333333333333334
 40
1.0
 40
1.0
 40
1.0
 40
1.0
 10
83.000000000000014
 20
14.000000000000007
 30
0.0
 10
84.000000000002743
 20
38.600000000003227
 30
0.0
 10
69.994953494027243
 20
27.472739126023853
 30
0.0
 10
61.80000000000188
 20
20.400000000002525
 30
0.0
 10
33.000000000000014
 20
4.9999999999999734
 30
0.0
 10
57.400000000001711
 20
27.600000000002787
 30
0.0
 10
62.40000000000191
 20
30.400000000002898
 30
0.0
 10
75.400000000002436
 20
61.000000000004114
 30
0.0
 10
88.000000000000014
 20
59.999999999999993
 30
0.0
  0
ARC
  5
139
100
AcDbEntity
  8
frame
 62
256
370
-1
  6
ByLayer
100
AcDbCircle
 10
87.000000000000014
 20
14.000000000000007
 30
0.0
 40
4.0
100
AcDbArc
 50
180.0
 51
270.0
  0
LINE
  5
13A
100
AcDbEntity
100
AcDbLine
  8
frame
 62
256
370
-1
  6
ByLayer
 10
87.000000000000014
 20
10.000000000000007
 30
0.0
 11
90.0
 21
10.0
 31
0.0
  0
LINE
  5
13B
100
AcDbEntity
100
AcDbLine
  8
frame
 62
256
370
-1
  6
ByLayer
 10
80.072458072926622
 20
48.037001611057583
 30
0.0
 11
74.415603823434253
 21
53.693855860549952
 31
0.0
  0
LINE
  5
13C
100
AcDbEntity
100
AcDbLine
  8
frame
 62
256
370
-1
  6
ByLayer
 10
81.709457560406733
 20
49.67400109853768
 30
0.0
 11
76.05260331091435
 21
55.330855348030063
 31
0.0
  0
LINE
  5
13D
100
AcDbEntity
100
AcDbLine
  8
frame
 62
256
370
-1
  6
ByLayer
 10
80.072458072926622
 20
48.037001611057583
 30
0.0
 11
81.709457560406733
 21
49.67400109853768
 31
0.0
  0
LINE
  5
13E
100
AcDbEntity
100
AcDbLine
  8
frame
 62
256
370
-1
  6
ByLayer
 10
74.415603823434253
 20
53.693855860549952
 30
0.0
 11
76.05260331091435
 21
55.330855348030063
 31
0.0
  0
LINE
  5
13F
100
AcDbEntity
100
AcDbLine
  8
frame
 62
256
370
-1
  6
ByLayer
 10
77.314701451048862
 20
32.369728159305609
 30
0.0
 11
77.314701451048862
 21
40.369728159305595
 31
0.0
  0
LINE
  5
140
100
AcDbEntity
100
AcDbLine
  8
frame
 62
256
370
-1
  6
ByLayer
 10
79.629768327841035
 20
32.369728159305595
 30
0.0
 11
79.629768327841035
 21
40.369728159305595
 31
0.0
  0
LINE
  5
141
100
AcDbEntity
100
AcDbLine
  8
frame
 62
256
370
-1
  6
ByLayer
 10
77.314701451048862
 20
32.369728159305609
 30
0.0
 11
79.629768327841035
 21
32.369728159305595
 31
0.0
  0
LINE
  5
142
100
AcDbEntity
100
AcDbLine
  8
frame
 62
256
370
-1
  6
ByLayer
 10
77.314701451048862
 20
40.369728159305595
 30
0.0
 11
79.629768327841035
 21
40.369728159305595
 31
0.0
  0
LINE
  5
143
100
AcDbEntity
100
AcDbLine
  8
frame
 62
256
370
-1
  6
ByLayer
 10
60.0
 20
88.000000000000014
 30
0.0
 11
60.000000000000007
 21
90.0
 31
0.0
  0
LINE
  5
144
100
AcDbEntity
100
AcDbLine
  8
frame
 62
256
370
-1
  6
ByLayer
 10
60.000000000000007
 20
90.0
 30
0.0
 11
50.000000000000007
 21
90.0
 31
0.0
  0
LINE
  5
145
100
AcDbEntity
100
AcDbLine
  8
frame
 62
256
370
-1
  6
ByLayer
 10
50.000000000000007
 20
90.0
 30
0.0
 11
50.000000000000007
 21
88.0
 31
0.0
  0
LINE
  5
146
100
AcDbEntity
100
AcDbLine
  8
frame
 62
256
370
-1
  6
ByLayer
 10
39.999999999999993
 20
88.0
 30
0.0
 11
40.0
 21
90.0
 31
0.0
  0
LINE
  5
147
100
AcDbEntity
100
AcDbLine
  8
frame
 62
256
370
-1
  6
ByLayer
 10
40.0
 20
90.0
 30
0.0
 11
30.000000000000011
 21
90.0
 31
0.0
  0
LINE
  5
148
100
AcDbEntity
100
AcDbLine
  8
frame
 62
256
370
-1
  6
ByLayer
 10
30.000000000000011
 20
90.0
 30
0.0
 11
30.000000000000011
 21
88.0
 31
0.0
  0
LINE
  5
149
100
AcDbEntity
100
AcDbLine
  8
frame
 62
256
370
-1
  6
ByLayer
 10
20.000000000000014
 20
90.0
 30
0.0
 11
20.000000000000018
 21
88.0
 31
0.0
  0
LINE
  5
14A
100
AcDbEntity
100
AcDbLine
  8
frame
 62
256
370
-1
  6
ByLayer
 10
10.000000000000124
 20
90.0
 30
0.0
 11
20.000000000000014
 21
90.0
 31
0.0
  0
LINE
  5
14B
100
AcDbEntity
100
AcDbLine
  8
frame
 62
256
370
-1
  6
ByLayer
 10
20.000000000000018
 20
88.0
 30
0.0
 11
30.000000000000011
 21
88.0
 31
0.0
  0
LINE
  5
14C
100
AcDbEntity
100
AcDbLine
  8
frame
 62
256
370
-1
  6
ByLayer
 10
39.999999999999993
 20
88.0
 30
0.0
 11
50.000000000000007
 21
88.0
 31
0.0
  0
LINE
  5
14D
100
AcDbEntity
100
AcDbLine
  8
frame
 62
256
370
-1
  6
ByLayer
 10
53.982025518400057
 20
74.703773481284372
 30
0.0
 11
55.042685690179894
 21
75.764433653064202
 31
0.0
  0
SPLINE
  5
14E
  8
frame
 62
256
370
-1
  6
ByLayer
100
AcDbEntity
100
AcDbSpline
 70
8
 71
3
 72
13
 73
9
 74
0
 40
0.0
 40
0.0
 40
0.0
 40
0.0
 40
0.1666666666666667
 40
0.3333333333333333
 40
0.5
 40
0.6666666666666666
 40
0.8333333333333334
 40
1.0
 40
1.0
 40
1.0
 40
1.0
 10
14.000000000000007
 20
83.000000000000014
 30
0.0
 10
38.600000000003241
 20
84.000000000002743
 30
0.0
 10
27.472739126023839
 20
69.994953494027243
 30
0.0
 10
20.400000000002535
 20
61.80000000000188
 30
0.0
 10
5.0000000000000142
 20
33.000000000000014
 30
0.0
 10
27.600000000002797
 20
57.400000000001704
 30
0.0
 10
30.400000000002901
 20
62.400000000001903
 30
0.0
 10
61.000000000004114
 20
75.400000000002422
 30
0.0
 10
60.0
 20
88.000000000000014
 30
0.0
  0
ARC
  5
14F
100
AcDbEntity
  8
frame
 62
256
370
-1
  6
ByLayer
100
AcDbCircle
 10
14.000000000000041
 20
87.000000000000014
 30
0.0
 40
4.0
100
AcDbArc
 50
180.0
 51
270.0
  0
LINE
  5
150
100
AcDbEntity
100
AcDbLine
  8
frame
 62
256
370
-1
  6
ByLayer
 10
9.9999999999999503
 20
87.000000000000014
 30
0.0
 11
10.000000000000124
 21
90.0
 31
0.0
  0
LINE
  5
151
100
AcDbEntity
100
AcDbLine
  8
frame
 62
256
370
-1
  6
ByLayer
 10
48.037001611057583
 20
80.072458072926622
 30
0.0
 11
53.693855860549974
 21
74.415603823434253
 31
0.0
  0
LINE
  5
152
100
AcDbEntity
100
AcDbLine
  8
frame
 62
256
370
-1
  6
ByLayer
 10
49.67400109853768
 20
81.709457560406733
 30
0.0
 11
55.330855348030056
 21
76.05260331091435
 31
0.0
  0
LINE
  5
153
100
AcDbEntity
100
AcDbLine
  8
frame
 62
256
370
-1
  6
ByLayer
 10
48.037001611057583
 20
80.072458072926622
 30
0.0
 11
49.67400109853768
 21
81.709457560406733
 31
0.0
  0
LINE
  5
154
100
AcDbEntity
100
AcDbLine
  8
frame
 62
256
370
-1
  6
ByLayer
 10
53.693855860549974
 20
74.415603823434253
 30
0.0
 11
55.330855348030056
 21
76.05260331091435
 31
0.0
  0
LINE
  5
155
100
AcDbEntity
100
AcDbLine
  8
frame
 62
256
370
-1
  6
ByLayer
 10
32.369728159305609
 20
77.314701451048862
 30
0.0
 11
40.369728159305602
 21
77.314701451048862
 31
0.0
  0
LINE
  5
156
100
AcDbEntity
100
AcDbLine
  8
frame
 62
256
370
-1
  6
ByLayer
 10
32.369728159305581
 20
79.629768327841035
 30
0.0
 11
40.369728159305602
 21
79.629768327841035
 31
0.0
  0
LINE
  5
157
100
AcDbEntity
100
AcDbLine
  8
frame
 62
256
370
-1
  6
ByLayer
 10
32.369728159305609
 20
77.314701451048862
 30
0.0
 11
32.369728159305581
 21
79.629768327841035
 31
0.0
  0
LINE
  5
158
100
AcDbEntity
100
AcDbLine
  8
frame
 62
256
370
-1
  6
ByLayer
 10
40.369728159305602
 20
77.314701451048862
 30
0.0
 11
40.369728159305602
 21
79.629768327841035
 31
0.0
  0
LINE
  5
159
100
AcDbEntity
100
AcDbLine
  8
frame
 62
256
370
-1
  6
ByLayer
 10
-1.0000000000001918
 20
-22.0
 30
0.0
 11
1.9999999999998082
 21
-22.0
 31
0.0
  0
LINE
  5
15A
100
AcDbEntity
100
AcDbLine
  8
frame
 62
256
370
-1
  6
ByLayer
 10
1.9999999999998082
 20
-22.0
 30
0.0
 11
1.9999999999998082
 21
-19.0
 31
0.0
  0
LINE
  5
15B
100
AcDbEntity
100
AcDbLine
  8
frame
 62
256
370
-1
  6
ByLayer
 10
1.9999999999998082
 20
-19.0
 30
0.0
 11
-1.0000000000001918
 21
-19.0
 31
0.0
  0
LINE
  5
15C
100
AcDbEntity
100
AcDbLine
  8
frame
 62
256
370
-1
  6
ByLayer
 10
-1.0000000000001918
 20
-19.0
 30
0.0
 11
-1.0000000000001918
 21
-22.0
 31
0.0
  0
LINE
  5
15D
100
AcDbEntity
100
AcDbLine
  8
frame
 62
256
370
-1
  6
ByLayer
 10
97.999999999999801
 20
-22.0
 30
0.0
 11
100.9999999999998
 21
-22.0
 31
0.0
  0
LINE
  5
15E
100
AcDbEntity
100
AcDbLine
  8
frame
 62
256
370
-1
  6
ByLayer
 10
100.9999999999998
 20
-22.0
 30
0.0
 11
100.9999999999998
 21
-19.0
 31
0.0
  0
LINE
  5
15F
100
AcDbEntity
100
AcDbLine
  8
frame
 62
256
370
-1
  6
ByLayer
 10
100.9999999999998
 20
-19.0
 30
0.0
 11
97.999999999999801
 21
-19.0
 31
0.0
  0
LINE
  5
160
100
AcDbEntity
100
AcDbLine
  8
frame
 62
256
370
-1
  6
ByLayer
 10
97.999999999999801
 20
-19.0
 30
0.0
 11
97.999999999999801
 21
-22.0
 31
0.0
  0
LINE
  5
161
100
AcDbEntity
100
AcDbLine
  8
frame
 62
256
370
-1
  6
ByLayer
 10
-1.0000000000001921
 20
-121.0
 30
0.0
 11
1.9999999999998077
 21
-121.0
 31
0.0
  0
LINE
  5
162
100
AcDbEntity
100
AcDbLine
  8
frame
 62
256
370
-1
  6
ByLayer
 10
1.9999999999998077
 20
-121.0
 30
0.0
 11
1.9999999999998082
 21
-118.0
 31
0.0
  0
LINE
  5
163
100
AcDbEntity
100
AcDbLine
  8
frame
 62
256
370
-1
  6
ByLayer
 10
1.9999999999998082
 20
-118.0
 30
0.0
 11
-1.0000000000001916
 21
-118.0
 31
0.0
  0
LINE
  5
164
100
AcDbEntity
100
AcDbLine
  8
frame
 62
256
370
-1
  6
ByLayer
 10
-1.0000000000001916
 20
-118.0
 30
0.0
 11
-1.0000000000001921
 21
-121.0
 31
0.0
  0
LINE
  5
165
100
AcDbEntity
100
AcDbLine
  8
frame
 62
256
370
-1
  6
ByLayer
 10
97.999999999999801
 20
-121.0
 30
0.0
 11
100.9999999999998
 21
-121.0
 31
0.0
  0
LINE
  5
166
100
AcDbEntity
100
AcDbLine
  8
frame
 62
256
370
-1
  6
ByLayer
 10
100.9999999999998
 20
-121.0
 30
0.0
 11
100.9999999999998
 21
-118.0
 31
0.0
  0
LINE
  5
167
100
AcDbEntity
100
AcDbLine
  8
frame
 62
256
370
-1
  6
ByLayer
 10
100.9999999999998
 20
-118.0
 30
0.0
 11
97.999999999999801
 21
-118.0
 31
0.0
  0
LINE
  5
168
100
AcDbEntity
100
AcDbLine
  8
frame
 62
256
370
-1
  6
ByLayer
 10
97.999999999999801
 20
-118.0
 30
0.0
 11
97.999999999999801
 21
-121.0
 31
0.0
  0
LINE
  5
169
100
AcDbEntity
100
AcDbLine
  8
frame
 62
256
370
-1
  6
ByLayer
 10
45.199999999999989
 20
-69.899999999999991
 30
0.0
 11
47.5
 21
-69.899999999999991
 31
0.0
  0
LINE
  5
16A
100
AcDbEntity
100
AcDbLine
  8
frame
 62
256
370
-1
  6
ByLayer
 10
47.500000000000014
 20
-69.899999999999991
 30
0.0
 11
47.500000000000014
 21
-60.0
 31
0.0
  0
LINE
  5
16B
100
AcDbEntity
100
AcDbLine
  8
frame
 62
256
370
-1
  6
ByLayer
 10
45.200000000000003
 20
-60.0
 30
0.0
 11
45.200000000000003
 21
-69.899999999999991
 31
0.0
  0
LINE
  5
16C
100
AcDbEntity
100
AcDbLine
  8
frame
 62
256
370
-1
  6
ByLayer
 10
47.5
 20
-89.900000000000006
 30
0.0
 11
45.199999999999996
 21
-89.900000000000006
 31
0.0
  0
LINE
  5
16D
100
AcDbEntity
100
AcDbLine
  8
frame
 62
256
370
-1
  6
ByLayer
 10
47.500000000000007
 20
-89.900000000000006
 30
0.0
 11
47.500000000000014
 21
-80.0
 31
0.0
  0
LINE
  5
16E
100
AcDbEntity
100
AcDbLine
  8
frame
 62
256
370
-1
  6
ByLayer
 10
45.200000000000003
 20
-80.0
 30
0.0
 11
45.200000000000003
 21
-89.900000000000006
 31
0.0
  0
LINE
  5
16F
100
AcDbEntity
100
AcDbLine
  8
frame
 62
256
370
-1
  6
ByLayer
 10
47.5
 20
-109.89999999999999
 30
0.0
 11
45.200000000000003
 21
-109.89999999999999
 31
0.0
  0
LINE
  5
170
100
AcDbEntity
100
AcDbLine
  8
frame
 62
256
370
-1
  6
ByLayer
 10
47.5
 20
-109.89999999999999
 30
0.0
 11
47.500000000000007
 21
-100.0
 31
0.0
  0
LINE
  5
171
100
AcDbEntity
100
AcDbLine
  8
frame
 62
256
370
-1
  6
ByLayer
 10
45.200000000000003
 20
-100.0
 30
0.0
 11
45.200000000000003
 21
-109.89999999999999
 31
0.0
  0
ENDSEC
  0
SECTION
  2
OBJECTS
  0
DICTIONARY
  5
C
100
AcDbDictionary
280
0
281
1
  3
ACAD_GROUP
350
D
  3
ACAD_LAYOUT
350
1A
  3
ACAD_MLINESTYLE
350
17
  3
ACAD_PLOTSETTINGS
350
19
  3
ACAD_PLOTSTYLENAME
350
E
  3
AcDbVariableDictionary
350
172
  0
DICTIONARY
  5
D
100
AcDbDictionary
280
0
281
1
  0
ACDBDICTIONARYWDFLT
  5
E
100
AcDbDictionary
281
1
  3
Normal
350
F
100
AcDbDictionaryWithDefault
340
F
  0
ACDBPLACEHOLDER
  5
F
  0
DICTIONARY
  5
17
100
AcDbDictionary
280
0
281
1
  3
Standard
350
18
  0
MLINESTYLE
  5
18
100
AcDbMlineStyle
  2
STANDARD
 70
0
  3

 62
256
 51
90.0
 52
90.0
 71
2
 49
0.5
 62
256
  6
BYLAYER
 49
-0.5
 62
256
  6
BYLAYER
  0
DICTIONARY
  5
19
100
AcDbDictionary
280
0
281
1
  0
DICTIONARY
  5
1A
100
AcDbDictionary
281
1
  3
Layout1
350
1E
  3
Layout2
350
26
  3
Model
350
22
  0
LAYOUT
  5
1E
100
AcDbPlotSettings
  1

  2
C:\Program Files\AutoCAD 2002\plotters\DWF ePlot (optimized for plotting).pc3
  4

  6

 40
0.0
 41
0.0
 42
0.0
 43
0.0
 44
0.0
 45
0.0
 46
0.0
 47
0.0
 48
0.0
 49
0.0
140
0.0
141
0.0
142
1.0
143
1.0
 70
688
 72
0
 73
0
 74
5
  7

 75
16
147
1.0
148
0.0
149
0.0
100
AcDbLayout
  1
Layout1
 70
1
 71
1
 10
0.0
 20
0.0
 11
420.0
 21
297.0
 12
0.0
 22
0.0
 32
0.0
 14
100000000000000000000.0
 24
100000000000000000000.0
 34
100000000000000000000.0
 15
-100000000000000000000.0
 25
-100000000000000000000.0
 35
-100000000000000000000.0
146
0.0
 13
0.0
 23
0.0
 33
0.0
 16
1.0
 26
0.0
 36
0.0
 17
0.0
 27
1.0
 37
0.0
 76
0
330
1B
  0
LAYOUT
  5
22
100
AcDbPlotSettings
  1

  2
C:\Program Files\AutoCAD 2002\plotters\DWF ePlot (optimized for plotting).pc3
  4

  6

 40
0.0
 41
0.0
 42
0.0
 43
0.0
 44
0.0
 45
0.0
 46
0.0
 47
0.0
 48
0.0
 49
0.0
140
0.0
141
0.0
142
1.0
143
1.0
 70
1712
 72
0
 73
0
 74
0
  7

 75
0
147
1.0
148
0.0
149
0.0
100
AcDbLayout
  1
Model
 70
1
 71
0
 10
0.0
 20
0.0
 11
12.0
 21
9.0
 12
0.0
 22
0.0
 32
0.0
 14
0.0
 24
0.0
 34
0.0
 15
0.0
 25
0.0
 35
0.0
146
0.0
 13
0.0
 23
0.0
 33
0.0
 16
1.0
 26
0.0
 36
0.0
 17
0.0
 27
1.0
 37
0.0
 76
0
330
1F
  0
LAYOUT
  5
26
100
AcDbPlotSettings
  1

  2
C:\Program Files\AutoCAD 2002\plotters\DWF ePlot (optimized for plotting).pc3
  4

  6

 40
0.0
 41
0.0
 42
0.0
 43
0.0
 44
0.0
 45
0.0
 46
0.0
 47
0.0
 48
0.0
 49
0.0
140
0.0
141
0.0
142
1.0
143
1.0
 70
688
 72
0
 73
0
 74
5
  7

 75
16
147
1.0
148
0.0
149
0.0
100
AcDbLayout
  1
Layout2
 70
1
 71
2
 10
0.0
 20
0.0
 11
12.0
 21
9.0
 12
0.0
 22
0.0
 32
0.0
 14
0.0
 24
0.0
 34
0.0
 15
0.0
 25
0.0
 35
0.0
146
0.0
 13
0.0
 23
0.0
 33
0.0
 16
1.0
 26
0.0
 36
0.0
 17
0.0
 27
1.0
 37
0.0
 76
0
330
23
  0
DICTIONARY
  5
172
100
AcDbDictionary
281
1
  3
DIMASSOC
350
174
  3
HIDETEXT
350
173
  0
DICTIONARYVAR
  5
173
100
DictionaryVariables
280
0
  1
2
  0
DICTIONARYVAR
  5
174
100
DictionaryVariables
280
0
  1
1
  0
ENDSEC
  0
EOF
