  0
SECTION
  2
HEADER
  9
$ACADVER
  1
AC1014
  9
$HANDSEED
  5
FFFF
  9
$MEASUREMENT
 70
     1
  0
ENDSEC
  0
SECTION
  2
TABLES
  0
TABLE
  2
VPORT
  5
8
330
0
100
AcDbSymbolTable
 70
     4
  0
VPORT
  5
2E
330
8
100
AcDbSymbolTableRecord
100
AcDbViewportTableRecord
  2
*ACTIVE
 70
     0
 10
0.0
 20
0.0
 11
1.0
 21
1.0
 12
210.0
 22
148.5
 13
0.0
 23
0.0
 14
10.0
 24
10.0
 15
10.0
 25
10.0
 16
0.0
 26
0.0
 36
1.0
 17
0.0
 27
0.0
 37
0.0
 40
341.0
 41
1.24
 42
50.0
 43
0.0
 44
0.0
 50
0.0
 51
0.0
 71
     0
 72
   100
 73
     1
 74
     3
 75
     0
 76
     0
 77
     0
 78
     0
  0
ENDTAB
  0
TABLE
  2
LTYPE
  5
5
330
0
100
AcDbSymbolTable
 70
     1
  0
LTYPE
  5
14
330
5
100
AcDbSymbolTableRecord
100
AcDbLinetypeTableRecord
  2
BYBLOCK
 70
     0
  3

 72
    65
 73
     0
 40
0.0
  0
LTYPE
  5
15
330
5
100
AcDbSymbolTableRecord
100
AcDbLinetypeTableRecord
  2
BYLAYER
 70
     0
  3

 72
    65
 73
     0
 40
0.0
  0
LTYPE
  5
16
330
5
100
AcDbSymbolTableRecord
100
AcDbLinetypeTableRecord
  2
CONTINUOUS
 70
     0
  3
Solid line
 72
    65
 73
     0
 40
0.0
  0
ENDTAB
  0
TABLE
  2
LAYER
  5
2
100
AcDbSymbolTable
 70
1
  0
LAYER
  5
50
100
AcDbSymbolTableRecord
100
AcDbLayerTableRecord
  2
0
 70
0
  6
CONTINUOUS
  0
ENDTAB
  0
TABLE
  2
STYLE
  5
3
330
0
100
AcDbSymbolTable
 70
     1
  0
STYLE
  5
11
330
3
100
AcDbSymbolTableRecord
100
AcDbTextStyleTableRecord
  2
STANDARD
 70
     0
 40
0.0
 41
1.0
 50
0.0
 71
     0
 42
2.5
  3
txt
  4

  0
ENDTAB
  0
TABLE
  2
VIEW
  5
6
330
0
100
AcDbSymbolTable
 70
     0
  0
ENDTAB
  0
TABLE
  2
UCS
  5
7
330
0
100
AcDbSymbolTable
 70
     0
  0
ENDTAB
  0
TABLE
  2
APPID
  5
9
330
0
100
AcDbSymbolTable
 70
     2
  0
APPID
  5
12
330
9
100
AcDbSymbolTableRecord
100
AcDbRegAppTableRecord
  2
ACAD
 70
     0
  0
ENDTAB
  0
TABLE
  2
DIMSTYLE
  5
A
330
0
100
AcDbSymbolTable
 70
     1
  0
DIMSTYLE
105
27
330
A
100
AcDbSymbolTableRecord
100
AcDbDimStyleTableRecord
  2
ISO-25
 70
     0
  3

  4

  5

  6

  7

 40
1.0
 41
2.5
 42
0.625
 43
3.75
 44
1.25
 45
0.0
 46
0.0
 47
0.0
 48
0.0
140
2.5
141
2.5
142
0.0
143
0.03937007874016
144
1.0
145
0.0
146
1.0
147
0.625
 71
     0
 72
     0
 73
     0
 74
     0
 75
     0
 76
     0
 77
     1
 78
     8
170
     0
171
     3
172
     1
173
     0
174
     0
175
     0
176
     0
177
     0
178
     0
270
     2
271
     2
272
     2
273
     2
274
     3
340
11
275
     0
280
     0
281
     0
282
     0
283
     0
284
     8
285
     0
286
     0
287
     3
288
     0
  0
ENDTAB
  0
TABLE
  2
BLOCK_RECORD
  5
1
330
0
100
AcDbSymbolTable
 70
     1
  0
BLOCK_RECORD
  5
1F
330
1
100
AcDbSymbolTableRecord
100
AcDbBlockTableRecord
  2
*MODEL_SPACE
  0
BLOCK_RECORD
  5
1B
330
1
100
AcDbSymbolTableRecord
100
AcDbBlockTableRecord
  2
*PAPER_SPACE
  0
ENDTAB
  0
ENDSEC
  0
SECTION
  2
BLOCKS
  0
BLOCK
  5
20
330
1F
100
AcDbEntity
  8
0
100
AcDbBlockBegin
  2
*MODEL_SPACE
 70
     0
 10
0.0
 20
0.0
 30
0.0
  3
*MODEL_SPACE
  1

  0
ENDBLK
  5
21
330
1F
100
AcDbEntity
  8
0
100
AcDbBlockEnd
  0
BLOCK
  5
1C
330
1B
100
AcDbEntity
 67
     1
  8
0
100
AcDbBlockBegin
  2
*PAPER_SPACE
  1

  0
ENDBLK
  5
1D
330
1B
100
AcDbEntity
 67
     1
  8
0
100
AcDbBlockEnd
  0
ENDSEC
  0
SECTION
  2
ENTITIES
  0
SPLINE
  5
100
100
AcDbEntity
  8
0
 62
7
100
AcDbSpline
 70
8
 71
3
 72
8
 73
4
 74
0
 40
0
 40
0
 40
0
 40
0
 40
1
 40
1
 40
1
 40
1
 10
511.478715
 20
38.913938
 30
0.0
 10
511.475011
 20
39.386880
 30
0.0
 10
511.172857
 20
40.607271
 30
0.0
 10
510.807414
 20
41.625917
 30
0.0
  0
SPLINE
  5
101
100
AcDbEntity
  8
0
 62
7
100
AcDbSpline
 70
8
 71
3
 72
8
 73
4
 74
0
 40
0
 40
0
 40
0
 40
0
 40
1
 40
1
 40
1
 40
1
 10
510.807414
 20
41.625917
 30
0.0
 10
510.441945
 20
42.644563
 30
0.0
 10
510.077482
 20
43.672892
 30
0.0
 10
509.997445
 20
43.911097
 30
0.0
  0
SPLINE
  5
102
100
AcDbEntity
  8
0
 62
7
100
AcDbSpline
 70
8
 71
3
 72
8
 73
4
 74
0
 40
0
 40
0
 40
0
 40
0
 40
1
 40
1
 40
1
 40
1
 10
509.997445
 20
43.911097
 30
0.0
 10
509.880579
 20
44.259050
 30
0.0
 10
510.545821
 20
44.615126
 30
0.0
 10
513.380725
 20
45.721984
 30
0.0
  0
SPLINE
  5
103
100
AcDbEntity
  8
0
 62
7
100
AcDbSpline
 70
8
 71
3
 72
8
 73
4
 74
0
 40
0
 40
0
 40
0
 40
0
 40
1
 40
1
 40
1
 40
1
 10
513.380725
 20
45.721984
 30
0.0
 10
523.077837
 20
49.508119
 30
0.0
 10
530.268127
 20
52.413429
 30
0.0
 10
530.671828
 20
52.708625
 30
0.0
  0
SPLINE
  5
104
100
AcDbEntity
  8
0
 62
7
100
AcDbSpline
 70
8
 71
3
 72
8
 73
4
 74
0
 40
0
 40
0
 40
0
 40
0
 40
1
 40
1
 40
1
 40
1
 10
530.671828
 20
52.708625
 30
0.0
 10
531.083494
 20
53.009641
 30
0.0
 10
529.425905
 20
58.588407
 30
0.0
 10
511.082740
 20
118.636891
 30
0.0
  0
SPLINE
  5
105
100
AcDbEntity
  8
0
 62
7
100
AcDbSpline
 70
8
 71
3
 72
8
 73
4
 74
0
 40
0
 40
0
 40
0
 40
0
 40
1
 40
1
 40
1
 40
1
 10
511.082740
 20
118.636891
 30
0.0
 10
500.061362
 20
154.716586
 30
0.0
 10
490.985069
 20
184.448027
 30
0.0
 10
490.913182
 20
184.706763
 30
0.0
  0
SPLINE
  5
106
100
AcDbEntity
  8
0
 62
7
100
AcDbSpline
 70
8
 71
3
 72
8
 73
4
 74
0
 40
0
 40
0
 40
0
 40
0
 40
1
 40
1
 40
1
 40
1
 10
490.913182
 20
184.706763
 30
0.0
 10
490.817826
 20
185.049901
 30
0.0
 10
490.630210
 20
185.129064
 30
0.0
 10
490.219921
 20
184.999286
 30
0.0
  0
SPLINE
  5
107
100
AcDbEntity
  8
0
 62
7
100
AcDbSpline
 70
8
 71
3
 72
8
 73
4
 74
0
 40
0
 40
0
 40
0
 40
0
 40
1
 40
1
 40
1
 40
1
 10
490.219921
 20
184.999286
 30
0.0
 10
488.782625
 20
184.544652
 30
0.0
 10
471.758883
 20
177.476362
 30
0.0
 10
460.500995
 20
172.659940
 30
0.0
  0
SPLINE
  5
108
100
AcDbEntity
  8
0
 62
7
100
AcDbSpline
 70
8
 71
3
 72
8
 73
4
 74
0
 40
0
 40
0
 40
0
 40
0
 40
1
 40
1
 40
1
 40
1
 10
460.500995
 20
172.659940
 30
0.0
 10
449.339150
 20
167.884607
 30
0.0
 10
447.996204
 20
167.246406
 30
0.0
 10
447.852165
 20
166.648739
 30
0.0
  0
SPLINE
  5
109
100
AcDbEntity
  8
0
 62
7
100
AcDbSpline
 70
8
 71
3
 72
8
 73
4
 74
0
 40
0
 40
0
 40
0
 40
0
 40
1
 40
1
 40
1
 40
1
 10
447.852165
 20
166.648739
 30
0.0
 10
447.763530
 20
166.280968
 30
0.0
 10
446.983353
 20
164.415391
 30
0.0
 10
446.118483
 20
162.503009
 30
0.0
  0
SPLINE
  5
10a
100
AcDbEntity
  8
0
 62
7
100
AcDbSpline
 70
8
 71
3
 72
8
 73
4
 74
0
 40
0
 40
0
 40
0
 40
0
 40
1
 40
1
 40
1
 40
1
 10
446.118483
 20
162.503009
 30
0.0
 10
445.253586
 20
160.590627
 30
0.0
 10
444.545958
 20
158.902982
 30
0.0
 10
444.545958
 20
158.752699
 30
0.0
  0
SPLINE
  5
10b
100
AcDbEntity
  8
0
 62
7
100
AcDbSpline
 70
8
 71
3
 72
8
 73
4
 74
0
 40
0
 40
0
 40
0
 40
0
 40
1
 40
1
 40
1
 40
1
 10
444.545958
 20
158.752699
 30
0.0
 10
444.545958
 20
158.602415
 30
0.0
 10
444.185992
 20
157.580489
 30
0.0
 10
443.746070
 20
156.481780
 30
0.0
  0
SPLINE
  5
10c
100
AcDbEntity
  8
0
 62
7
100
AcDbSpline
 70
8
 71
3
 72
8
 73
4
 74
0
 40
0
 40
0
 40
0
 40
0
 40
1
 40
1
 40
1
 40
1
 10
443.746070
 20
156.481780
 30
0.0
 10
443.004734
 20
154.630411
 30
0.0
 10
442.964411
 20
154.362547
 30
0.0
 10
443.195366
 20
152.823783
 30
0.0
  0
SPLINE
  5
10d
100
AcDbEntity
  8
0
 62
7
100
AcDbSpline
 70
8
 71
3
 72
8
 73
4
 74
0
 40
0
 40
0
 40
0
 40
0
 40
1
 40
1
 40
1
 40
1
 10
443.195366
 20
152.823783
 30
0.0
 10
443.332447
 20
151.910574
 30
0.0
 10
443.520301
 20
150.210917
 30
0.0
 10
443.612852
 20
149.046750
 30
0.0
  0
SPLINE
  5
10e
100
AcDbEntity
  8
0
 62
7
100
AcDbSpline
 70
8
 71
3
 72
8
 73
4
 74
0
 40
0
 40
0
 40
0
 40
0
 40
1
 40
1
 40
1
 40
1
 10
443.612852
 20
149.046750
 30
0.0
 10
443.705403
 20
147.882584
 30
0.0
 10
443.952842
 20
145.620396
 30
0.0
 10
444.162736
 20
144.019667
 30
0.0
  0
SPLINE
  5
10f
100
AcDbEntity
  8
0
 62
7
100
AcDbSpline
 70
8
 71
3
 72
8
 73
4
 74
0
 40
0
 40
0
 40
0
 40
0
 40
1
 40
1
 40
1
 40
1
 10
444.162736
 20
144.019667
 30
0.0
 10
444.610437
 20
140.605351
 30
0.0
 10
445.145530
 20
129.605881
 30
0.0
 10
444.913623
 20
128.584510
 30
0.0
  0
SPLINE
  5
110
100
AcDbEntity
  8
0
 62
7
100
AcDbSpline
 70
8
 71
3
 72
8
 73
4
 74
0
 40
0
 40
0
 40
0
 40
0
 40
1
 40
1
 40
1
 40
1
 10
444.913623
 20
128.584510
 30
0.0
 10
444.825649
 20
128.197081
 30
0.0
 10
444.412396
 20
126.808521
 30
0.0
 10
443.995254
 20
125.498834
 30
0.0
  0
SPLINE
  5
111
100
AcDbEntity
  8
0
 62
7
100
AcDbSpline
 70
8
 71
3
 72
8
 73
4
 74
0
 40
0
 40
0
 40
0
 40
0
 40
1
 40
1
 40
1
 40
1
 10
443.995254
 20
125.498834
 30
0.0
 10
443.578112
 20
124.189146
 30
0.0
 10
443.108689
 20
122.527721
 30
0.0
 10
442.952108
 20
121.806758
 30
0.0
  0
SPLINE
  5
112
100
AcDbEntity
  8
0
 62
7
100
AcDbSpline
 70
8
 71
3
 72
8
 73
4
 74
0
 40
0
 40
0
 40
0
 40
0
 40
1
 40
1
 40
1
 40
1
 10
442.952108
 20
121.806758
 30
0.0
 10
442.795528
 20
121.085822
 30
0.0
 10
442.504116
 20
120.133322
 30
0.0
 10
442.304514
 20
119.690092
 30
0.0
  0
SPLINE
  5
113
100
AcDbEntity
  8
0
 62
7
100
AcDbSpline
 70
8
 71
3
 72
8
 73
4
 74
0
 40
0
 40
0
 40
0
 40
0
 40
1
 40
1
 40
1
 40
1
 10
442.304514
 20
119.690092
 30
0.0
 10
441.887054
 20
118.763045
 30
0.0
 10
441.490682
 20
113.932838
 30
0.0
 10
441.087669
 20
104.861334
 30
0.0
  0
SPLINE
  5
114
100
AcDbEntity
  8
0
 62
7
100
AcDbSpline
 70
8
 71
3
 72
8
 73
4
 74
0
 40
0
 40
0
 40
0
 40
0
 40
1
 40
1
 40
1
 40
1
 10
441.087669
 20
104.861334
 30
0.0
 10
440.846633
 20
99.435655
 30
0.0
 10
440.710532
 20
98.183965
 30
0.0
 10
440.152631
 20
96.262375
 30
0.0
  0
SPLINE
  5
115
100
AcDbEntity
  8
0
 62
7
100
AcDbSpline
 70
8
 71
3
 72
8
 73
4
 74
0
 40
0
 40
0
 40
0
 40
0
 40
1
 40
1
 40
1
 40
1
 10
440.152631
 20
96.262375
 30
0.0
 10
438.782698
 20
91.543637
 30
0.0
 10
438.100814
 20
89.417922
 30
0.0
 10
437.012424
 20
86.472792
 30
0.0
  0
SPLINE
  5
116
100
AcDbEntity
  8
0
 62
7
100
AcDbSpline
 70
8
 71
3
 72
8
 73
4
 74
0
 40
0
 40
0
 40
0
 40
0
 40
1
 40
1
 40
1
 40
1
 10
437.012424
 20
86.472792
 30
0.0
 10
435.544172
 20
82.499888
 30
0.0
 10
434.942721
 20
79.716101
 30
0.0
 10
434.954415
 20
76.947792
 30
0.0
  0
SPLINE
  5
117
100
AcDbEntity
  8
0
 62
7
100
AcDbSpline
 70
8
 71
3
 72
8
 73
4
 74
0
 40
0
 40
0
 40
0
 40
0
 40
1
 40
1
 40
1
 40
1
 10
434.954415
 20
76.947792
 30
0.0
 10
434.964999
 20
74.464624
 30
0.0
 10
435.531710
 20
71.335344
 30
0.0
 10
436.344457
 20
69.273367
 30
0.0
  0
SPLINE
  5
118
100
AcDbEntity
  8
0
 62
7
100
AcDbSpline
 70
8
 71
3
 72
8
 73
4
 74
0
 40
0
 40
0
 40
0
 40
0
 40
1
 40
1
 40
1
 40
1
 10
436.344457
 20
69.273367
 30
0.0
 10
436.964111
 20
67.701345
 30
0.0
 10
437.023669
 20
65.799600
 30
0.0
 10
436.499794
 20
64.314731
 30
0.0
  0
LWPOLYLINE
  5
119
100
AcDbEntity
  8
0
 62
7
100
AcDbPolyline
 90
8
 70
1
 10
2.691800
 20
314.940500
 30
0.0
 10
2.691800
 20
632.572785
 30
0.0
 10
320.324083
 20
632.572785
 30
0.0
 10
637.956375
 20
632.572785
 30
0.0
 10
637.956375
 20
314.940500
 30
0.0
 10
637.956375
 20
-2.691791
 30
0.0
 10
320.324083
 20
-2.691791
 30
0.0
 10
2.691800
 20
-2.691791
 30
0.0
  0
SPLINE
  5
11a
100
AcDbEntity
  8
0
 62
7
100
AcDbSpline
 70
8
 71
3
 72
8
 73
4
 74
0
 40
0
 40
0
 40
0
 40
0
 40
1
 40
1
 40
1
 40
1
 10
438.021148
 20
62.179703
 30
0.0
 10
439.063183
 20
61.587327
 30
0.0
 10
440.489843
 20
60.960556
 30
0.0
 10
441.191518
 20
60.786936
 30
0.0
  0
SPLINE
  5
11b
100
AcDbEntity
  8
0
 62
7
100
AcDbSpline
 70
8
 71
3
 72
8
 73
4
 74
0
 40
0
 40
0
 40
0
 40
0
 40
1
 40
1
 40
1
 40
1
 10
441.191518
 20
60.786936
 30
0.0
 10
443.491541
 20
60.217791
 30
0.0
 10
445.453929
 20
61.240141
 30
0.0
 10
446.857199
 20
63.738628
 30
0.0
  0
SPLINE
  5
11c
100
AcDbEntity
  8
0
 62
7
100
AcDbSpline
 70
8
 71
3
 72
8
 73
4
 74
0
 40
0
 40
0
 40
0
 40
0
 40
1
 40
1
 40
1
 40
1
 10
446.857199
 20
63.738628
 30
0.0
 10
447.259498
 20
64.454934
 30
0.0
 10
447.767260
 20
65.038499
 30
0.0
 10
447.985541
 20
65.035456
 30
0.0
  0
SPLINE
  5
11d
100
AcDbEntity
  8
0
 62
7
100
AcDbSpline
 70
8
 71
3
 72
8
 73
4
 74
0
 40
0
 40
0
 40
0
 40
0
 40
1
 40
1
 40
1
 40
1
 10
447.985541
 20
65.035456
 30
0.0
 10
449.296578
 20
65.017200
 30
0.0
 10
450.951097
 20
63.763525
 30
0.0
 10
454.600125
 20
60.023640
 30
0.0
  0
SPLINE
  5
11e
100
AcDbEntity
  8
0
 62
7
100
AcDbSpline
 70
8
 71
3
 72
8
 73
4
 74
0
 40
0
 40
0
 40
0
 40
0
 40
1
 40
1
 40
1
 40
1
 10
454.600125
 20
60.023640
 30
0.0
 10
457.699507
 20
56.847052
 30
0.0
 10
458.647562
 20
56.029860
 30
0.0
 10
459.534736
 20
55.770092
 30
0.0
  0
SPLINE
  5
11f
100
AcDbEntity
  8
0
 62
7
100
AcDbSpline
 70
8
 71
3
 72
8
 73
4
 74
0
 40
0
 40
0
 40
0
 40
0
 40
1
 40
1
 40
1
 40
1
 10
459.534736
 20
55.770092
 30
0.0
 10
461.125332
 20
55.304372
 30
0.0
 10
462.693702
 20
55.635340
 30
0.0
 10
464.357799
 20
56.787918
 30
0.0
  0
LWPOLYLINE
  5
120
100
AcDbEntity
  8
0
 62
7
100
AcDbPolyline
 90
3
 70
0
 10
436.499794
 20
64.314731
 30
0.0
 10
436.126520
 20
63.256795
 30
0.0
 10
438.021148
 20
62.179703
 30
0.0
  0
SPLINE
  5
121
100
AcDbEntity
  8
0
 62
7
100
AcDbSpline
 70
8
 71
3
 72
8
 73
4
 74
0
 40
0
 40
0
 40
0
 40
0
 40
1
 40
1
 40
1
 40
1
 10
470.178633
 20
54.879981
 30
0.0
 10
472.597268
 20
53.288459
 30
0.0
 10
477.147758
 20
50.296630
 30
0.0
 10
480.290849
 20
48.231478
 30
0.0
  0
LWPOLYLINE
  5
122
100
AcDbEntity
  8
0
 62
7
100
AcDbPolyline
 90
3
 70
0
 10
464.357799
 20
56.787918
 30
0.0
 10
465.781099
 20
57.773702
 30
0.0
 10
470.178633
 20
54.879981
 30
0.0
  0
SPLINE
  5
123
100
AcDbEntity
  8
0
 62
7
100
AcDbSpline
 70
8
 71
3
 72
8
 73
4
 74
0
 40
0
 40
0
 40
0
 40
0
 40
1
 40
1
 40
1
 40
1
 10
486.289959
 20
45.300265
 30
0.0
 10
486.446380
 20
45.753232
 30
0.0
 10
486.710355
 20
46.838209
 30
0.0
 10
486.876513
 20
47.711334
 30
0.0
  0
SPLINE
  5
124
100
AcDbEntity
  8
0
 62
7
100
AcDbSpline
 70
8
 71
3
 72
8
 73
4
 74
0
 40
0
 40
0
 40
0
 40
0
 40
1
 40
1
 40
1
 40
1
 10
486.876513
 20
47.711334
 30
0.0
 10
487.327390
 20
50.080519
 30
0.0
 10
487.669628
 20
51.058657
 30
0.0
 10
488.380934
 20
52.011104
 30
0.0
  0
SPLINE
  5
125
100
AcDbEntity
  8
0
 62
7
100
AcDbSpline
 70
8
 71
3
 72
8
 73
4
 74
0
 40
0
 40
0
 40
0
 40
0
 40
1
 40
1
 40
1
 40
1
 10
488.380934
 20
52.011104
 30
0.0
 10
489.454878
 20
53.449141
 30
0.0
 10
490.343322
 20
53.749734
 30
0.0
 10
493.082236
 20
53.601646
 30
0.0
  0
SPLINE
  5
126
100
AcDbEntity
  8
0
 62
7
100
AcDbSpline
 70
8
 71
3
 72
8
 73
4
 74
0
 40
0
 40
0
 40
0
 40
0
 40
1
 40
1
 40
1
 40
1
 10
493.082236
 20
53.601646
 30
0.0
 10
495.671792
 20
53.461655
 30
0.0
 10
497.905696
 20
52.710239
 30
0.0
 10
499.970160
 20
51.284690
 30
0.0
  0
SPLINE
  5
127
100
AcDbEntity
  8
0
 62
7
100
AcDbSpline
 70
8
 71
3
 72
8
 73
4
 74
0
 40
0
 40
0
 40
0
 40
0
 40
1
 40
1
 40
1
 40
1
 10
499.970160
 20
51.284690
 30
0.0
 10
502.434834
 20
49.582811
 30
0.0
 10
505.808641
 20
45.616892
 30
0.0
 10
507.367090
 20
42.589609
 30
0.0
  0
SPLINE
  5
128
100
AcDbEntity
  8
0
 62
7
100
AcDbSpline
 70
8
 71
3
 72
8
 73
4
 74
0
 40
0
 40
0
 40
0
 40
0
 40
1
 40
1
 40
1
 40
1
 10
507.367090
 20
42.589609
 30
0.0
 10
507.926816
 20
41.502356
 30
0.0
 10
507.767378
 20
40.695827
 30
0.0
 10
506.692800
 20
39.178521
 30
0.0
  0
LWPOLYLINE
  5
129
100
AcDbEntity
  8
0
 62
7
100
AcDbPolyline
 90
3
 70
0
 10
480.290849
 20
48.231478
 30
0.0
 10
486.005505
 20
44.476696
 30
0.0
 10
486.289959
 20
45.300265
 30
0.0
  0
LWPOLYLINE
  5
12a
100
AcDbEntity
  8
0
 62
7
100
AcDbPolyline
 90
6
 70
0
 10
506.692800
 20
39.178521
 30
0.0
 10
505.896404
 20
38.054042
 30
0.0
 10
508.690986
 20
38.054042
 30
0.0
 10
511.485541
 20
38.054042
 30
0.0
 10
511.478662
 20
38.913938
 30
0.0
 10
511.478715
 20
38.913938
 30
0.0
  0
SPLINE
  5
12b
100
AcDbEntity
  8
0
 62
7
100
AcDbSpline
 70
8
 71
3
 72
8
 73
4
 74
0
 40
0
 40
0
 40
0
 40
0
 40
1
 40
1
 40
1
 40
1
 10
593.440229
 20
211.456640
 30
0.0
 10
590.784474
 20
210.670193
 30
0.0
 10
587.189077
 20
209.607811
 30
0.0
 10
585.450474
 20
209.095763
 30
0.0
  0
SPLINE
  5
12c
100
AcDbEntity
  8
0
 62
7
100
AcDbSpline
 70
8
 71
3
 72
8
 73
4
 74
0
 40
0
 40
0
 40
0
 40
0
 40
1
 40
1
 40
1
 40
1
 10
585.450474
 20
209.095763
 30
0.0
 10
583.711844
 20
208.583715
 30
0.0
 10
582.271531
 20
208.138686
 30
0.0
 10
582.249756
 20
208.106804
 30
0.0
  0
SPLINE
  5
12d
100
AcDbEntity
  8
0
 62
7
100
AcDbSpline
 70
8
 71
3
 72
8
 73
4
 74
0
 40
0
 40
0
 40
0
 40
0
 40
1
 40
1
 40
1
 40
1
 10
582.249756
 20
208.106804
 30
0.0
 10
582.228060
 20
208.074921
 30
0.0
 10
582.365670
 20
205.012740
 30
0.0
 10
582.555773
 20
201.301959
 30
0.0
  0
SPLINE
  5
12e
100
AcDbEntity
  8
0
 62
7
100
AcDbSpline
 70
8
 71
3
 72
8
 73
4
 74
0
 40
0
 40
0
 40
0
 40
0
 40
1
 40
1
 40
1
 40
1
 10
582.555773
 20
201.301959
 30
0.0
 10
583.583944
 20
181.231566
 30
0.0
 10
584.243339
 20
157.212056
 30
0.0
 10
585.043492
 20
110.682167
 30
0.0
  0
SPLINE
  5
12f
100
AcDbEntity
  8
0
 62
7
100
AcDbSpline
 70
8
 71
3
 72
8
 73
4
 74
0
 40
0
 40
0
 40
0
 40
0
 40
1
 40
1
 40
1
 40
1
 10
585.043492
 20
110.682167
 30
0.0
 10
585.295243
 20
96.042215
 30
0.0
 10
585.542655
 20
84.289874
 30
0.0
 10
586.001574
 20
65.171743
 30
0.0
  0
LWPOLYLINE
  5
130
100
AcDbEntity
  8
0
 62
7
100
AcDbPolyline
 90
3
 70
0
 10
598.268875
 20
130.100493
 30
0.0
 10
598.268875
 20
212.886555
 30
0.0
 10
593.440229
 20
211.456640
 30
0.0
  0
SPLINE
  5
131
100
AcDbEntity
  8
0
 62
7
100
AcDbSpline
 70
8
 71
3
 72
8
 73
4
 74
0
 40
0
 40
0
 40
0
 40
0
 40
1
 40
1
 40
1
 40
1
 10
593.811810
 20
54.995604
 30
0.0
 10
595.520833
 20
54.908820
 30
0.0
 10
597.002076
 20
54.754859
 30
0.0
 10
597.103491
 20
54.653471
 30
0.0
  0
SPLINE
  5
132
100
AcDbEntity
  8
0
 62
7
100
AcDbSpline
 70
8
 71
3
 72
8
 73
4
 74
0
 40
0
 40
0
 40
0
 40
0
 40
1
 40
1
 40
1
 40
1
 10
597.103491
 20
54.653471
 30
0.0
 10
597.344712
 20
54.412224
 30
0.0
 10
597.637579
 20
52.506271
 30
0.0
 10
597.875439
 20
49.629563
 30
0.0
  0
SPLINE
  5
133
100
AcDbEntity
  8
0
 62
7
100
AcDbSpline
 70
8
 71
3
 72
8
 73
4
 74
0
 40
0
 40
0
 40
0
 40
0
 40
1
 40
1
 40
1
 40
1
 10
597.875439
 20
49.629563
 30
0.0
 10
597.980744
 20
48.356255
 30
0.0
 10
598.112321
 20
47.314459
 30
0.0
 10
598.167883
 20
47.314459
 30
0.0
  0
SPLINE
  5
134
100
AcDbEntity
  8
0
 62
7
100
AcDbSpline
 70
8
 71
3
 72
8
 73
4
 74
0
 40
0
 40
0
 40
0
 40
0
 40
1
 40
1
 40
1
 40
1
 10
598.167883
 20
47.314459
 30
0.0
 10
598.223419
 20
47.314459
 30
0.0
 10
598.268875
 20
84.568189
 30
0.0
 10
598.268875
 20
130.100493
 30
0.0
  0
LWPOLYLINE
  5
135
100
AcDbEntity
  8
0
 62
7
100
AcDbPolyline
 90
5
 70
0
 10
586.001574
 20
65.171743
 30
0.0
 10
586.179454
 20
57.761346
 30
0.0
 10
588.441985
 20
56.457347
 30
0.0
 10
590.704490
 20
55.153375
 30
0.0
 10
593.811810
 20
54.995604
 30
0.0
  0
SPLINE
  5
136
100
AcDbEntity
  8
0
 62
7
100
AcDbSpline
 70
8
 71
3
 72
8
 73
4
 74
0
 40
0
 40
0
 40
0
 40
0
 40
1
 40
1
 40
1
 40
1
 10
535.904414
 20
57.396301
 30
0.0
 10
537.332740
 20
58.757555
 30
0.0
 10
537.569278
 20
58.815631
 30
0.0
 10
542.430018
 20
58.997982
 30
0.0
  0
SPLINE
  5
137
100
AcDbEntity
  8
0
 62
7
100
AcDbSpline
 70
8
 71
3
 72
8
 73
4
 74
0
 40
0
 40
0
 40
0
 40
0
 40
1
 40
1
 40
1
 40
1
 10
542.430018
 20
58.997982
 30
0.0
 10
546.057984
 20
59.134084
 30
0.0
 10
547.996745
 20
59.355593
 30
0.0
 10
551.305333
 20
60.011998
 30
0.0
  0
SPLINE
  5
138
100
AcDbEntity
  8
0
 62
7
100
AcDbSpline
 70
8
 71
3
 72
8
 73
4
 74
0
 40
0
 40
0
 40
0
 40
0
 40
1
 40
1
 40
1
 40
1
 10
551.305333
 20
60.011998
 30
0.0
 10
553.633666
 20
60.473907
 30
0.0
 10
556.822081
 20
60.918593
 30
0.0
 10
558.390716
 20
61.000164
 30
0.0
  0
SPLINE
  5
139
100
AcDbEntity
  8
0
 62
7
100
AcDbSpline
 70
8
 71
3
 72
8
 73
4
 74
0
 40
0
 40
0
 40
0
 40
0
 40
1
 40
1
 40
1
 40
1
 10
558.390716
 20
61.000164
 30
0.0
 10
559.959325
 20
61.081735
 30
0.0
 10
561.307562
 20
61.253370
 30
0.0
 10
561.386805
 20
61.381561
 30
0.0
  0
SPLINE
  5
13a
100
AcDbEntity
  8
0
 62
7
100
AcDbSpline
 70
8
 71
3
 72
8
 73
4
 74
0
 40
0
 40
0
 40
0
 40
0
 40
1
 40
1
 40
1
 40
1
 10
561.386805
 20
61.381561
 30
0.0
 10
561.526849
 20
61.608176
 30
0.0
 10
561.213503
 20
96.080448
 30
0.0
 10
560.700555
 20
136.875917
 30
0.0
  0
SPLINE
  5
13b
100
AcDbEntity
  8
0
 62
7
100
AcDbSpline
 70
8
 71
3
 72
8
 73
4
 74
0
 40
0
 40
0
 40
0
 40
0
 40
1
 40
1
 40
1
 40
1
 10
560.700555
 20
136.875917
 30
0.0
 10
560.125192
 20
182.635895
 30
0.0
 10
559.823726
 20
203.820977
 30
0.0
 10
559.746626
 20
203.913131
 30
0.0
  0
SPLINE
  5
13c
100
AcDbEntity
  8
0
 62
7
100
AcDbSpline
 70
8
 71
3
 72
8
 73
4
 74
0
 40
0
 40
0
 40
0
 40
0
 40
1
 40
1
 40
1
 40
1
 10
559.746626
 20
203.913131
 30
0.0
 10
559.630739
 20
204.051641
 30
0.0
 10
550.706502
 20
202.758834
 30
0.0
 10
544.293875
 20
201.674571
 30
0.0
  0
SPLINE
  5
13d
100
AcDbEntity
  8
0
 62
7
100
AcDbSpline
 70
8
 71
3
 72
8
 73
4
 74
0
 40
0
 40
0
 40
0
 40
0
 40
1
 40
1
 40
1
 40
1
 10
544.293875
 20
201.674571
 30
0.0
 10
533.950254
 20
199.925622
 30
0.0
 10
527.921194
 20
198.335609
 30
0.0
 10
514.263666
 20
193.754798
 30
0.0
  0
SPLINE
  5
13e
100
AcDbEntity
  8
0
 62
7
100
AcDbSpline
 70
8
 71
3
 72
8
 73
4
 74
0
 40
0
 40
0
 40
0
 40
0
 40
1
 40
1
 40
1
 40
1
 10
514.263666
 20
193.754798
 30
0.0
 10
502.816363
 20
189.915297
 30
0.0
 10
496.264697
 20
187.447158
 30
0.0
 10
496.303062
 20
186.988688
 30
0.0
  0
SPLINE
  5
13f
100
AcDbEntity
  8
0
 62
7
100
AcDbSpline
 70
8
 71
3
 72
8
 73
4
 74
0
 40
0
 40
0
 40
0
 40
0
 40
1
 40
1
 40
1
 40
1
 10
496.303062
 20
186.988688
 30
0.0
 10
496.345951
 20
186.476164
 30
0.0
 10
535.120850
 20
56.839459
 30
0.0
 10
535.231234
 20
56.839459
 30
0.0
  0
SPLINE
  5
140
100
AcDbEntity
  8
0
 62
7
100
AcDbSpline
 70
8
 71
3
 72
8
 73
4
 74
0
 40
0
 40
0
 40
0
 40
0
 40
1
 40
1
 40
1
 40
1
 10
535.231234
 20
56.839459
 30
0.0
 10
535.280156
 20
56.839459
 30
0.0
 10
535.583077
 20
57.090019
 30
0.0
 10
535.904414
 20
57.396301
 30
0.0
  0
LWPOLYLINE
  5
141
100
AcDbEntity
  8
0
 62
7
100
AcDbPolyline
 90
1
 70
1
 10
598.268875
 20
130.100493
 30
0.0
  0
SPLINE
  5
142
100
AcDbEntity
  8
0
 62
7
100
AcDbSpline
 70
8
 71
3
 72
8
 73
4
 74
0
 40
0
 40
0
 40
0
 40
0
 40
1
 40
1
 40
1
 40
1
 10
391.791455
 20
78.204563
 30
0.0
 10
391.703507
 20
82.097245
 30
0.0
 10
391.557695
 20
89.302828
 30
0.0
 10
391.467393
 20
94.216987
 30
0.0
  0
LWPOLYLINE
  5
143
100
AcDbEntity
  8
0
 62
7
100
AcDbPolyline
 90
1
 70
1
 10
535.904414
 20
57.396301
 30
0.0
  0
SPLINE
  5
144
100
AcDbEntity
  8
0
 62
7
100
AcDbSpline
 70
8
 71
3
 72
8
 73
4
 74
0
 40
0
 40
0
 40
0
 40
0
 40
1
 40
1
 40
1
 40
1
 10
390.414695
 20
101.757612
 30
0.0
 10
389.629200
 20
100.525104
 30
0.0
 10
389.524716
 20
100.148655
 30
0.0
 10
389.513657
 20
98.511334
 30
0.0
  0
SPLINE
  5
145
100
AcDbEntity
  8
0
 62
7
100
AcDbSpline
 70
8
 71
3
 72
8
 73
4
 74
0
 40
0
 40
0
 40
0
 40
0
 40
1
 40
1
 40
1
 40
1
 10
389.513657
 20
98.511334
 30
0.0
 10
389.506778
 20
97.492688
 30
0.0
 10
389.331332
 20
95.409094
 30
0.0
 10
389.123740
 20
93.881125
 30
0.0
  0
SPLINE
  5
146
100
AcDbEntity
  8
0
 62
7
100
AcDbSpline
 70
8
 71
3
 72
8
 73
4
 74
0
 40
0
 40
0
 40
0
 40
0
 40
1
 40
1
 40
1
 40
1
 10
389.123740
 20
93.881125
 30
0.0
 10
388.916175
 20
92.353156
 30
0.0
 10
388.437199
 20
88.424094
 30
0.0
 10
388.059348
 20
85.149875
 30
0.0
  0
SPLINE
  5
147
100
AcDbEntity
  8
0
 62
7
100
AcDbSpline
 70
8
 71
3
 72
8
 73
4
 74
0
 40
0
 40
0
 40
0
 40
0
 40
1
 40
1
 40
1
 40
1
 10
388.059348
 20
85.149875
 30
0.0
 10
387.681496
 20
81.875656
 30
0.0
 10
387.146244
 20
77.711670
 30
0.0
 10
386.869914
 20
75.896576
 30
0.0
  0
SPLINE
  5
148
100
AcDbEntity
  8
0
 62
7
100
AcDbSpline
 70
8
 71
3
 72
8
 73
4
 74
0
 40
0
 40
0
 40
0
 40
0
 40
1
 40
1
 40
1
 40
1
 10
386.869914
 20
75.896576
 30
0.0
 10
386.593583
 20
74.081481
 30
0.0
 10
386.417952
 20
72.545945
 30
0.0
 10
386.479627
 20
72.484271
 30
0.0
  0
SPLINE
  5
149
100
AcDbEntity
  8
0
 62
7
100
AcDbSpline
 70
8
 71
3
 72
8
 73
4
 74
0
 40
0
 40
0
 40
0
 40
0
 40
1
 40
1
 40
1
 40
1
 10
386.479627
 20
72.484271
 30
0.0
 10
386.581729
 20
72.382168
 30
0.0
 10
391.190903
 20
71.211493
 30
0.0
 10
391.724171
 20
71.152200
 30
0.0
  0
SPLINE
  5
14a
100
AcDbEntity
  8
0
 62
7
100
AcDbSpline
 70
8
 71
3
 72
8
 73
4
 74
0
 40
0
 40
0
 40
0
 40
0
 40
1
 40
1
 40
1
 40
1
 10
391.724171
 20
71.152200
 30
0.0
 10
391.849187
 20
71.138177
 30
0.0
 10
391.879455
 20
74.309684
 30
0.0
 10
391.791455
 20
78.204563
 30
0.0
  0
LWPOLYLINE
  5
14b
100
AcDbEntity
  8
0
 62
7
100
AcDbPolyline
 90
3
 70
0
 10
391.467393
 20
94.216987
 30
0.0
 10
391.303219
 20
103.151808
 30
0.0
 10
390.414695
 20
101.757612
 30
0.0
  0
SPLINE
  5
14c
100
AcDbEntity
  8
0
 62
7
100
AcDbSpline
 70
8
 71
3
 72
8
 73
4
 74
0
 40
0
 40
0
 40
0
 40
0
 40
1
 40
1
 40
1
 40
1
 10
340.778571
 20
81.995777
 30
0.0
 10
341.023496
 20
82.448982
 30
0.0
 10
341.083080
 20
83.303586
 30
0.0
 10
340.982300
 20
84.917677
 30
0.0
  0
LWPOLYLINE
  5
14d
100
AcDbEntity
  8
0
 62
7
100
AcDbPolyline
 90
1
 70
1
 10
391.791455
 20
78.204563
 30
0.0
  0
SPLINE
  5
14e
100
AcDbEntity
  8
0
 62
7
100
AcDbSpline
 70
8
 71
3
 72
8
 73
4
 74
0
 40
0
 40
0
 40
0
 40
0
 40
1
 40
1
 40
1
 40
1
 10
341.826771
 20
87.362162
 30
0.0
 10
342.369563
 20
87.451883
 30
0.0
 10
343.133071
 20
87.526601
 30
0.0
 10
343.523438
 20
87.528215
 30
0.0
  0
SPLINE
  5
14f
100
AcDbEntity
  8
0
 62
7
100
AcDbSpline
 70
8
 71
3
 72
8
 73
4
 74
0
 40
0
 40
0
 40
0
 40
0
 40
1
 40
1
 40
1
 40
1
 10
343.523438
 20
87.528215
 30
0.0
 10
344.363384
 20
87.531654
 30
0.0
 10
344.431541
 20
87.713926
 30
0.0
 10
344.662337
 20
90.573834
 30
0.0
  0
SPLINE
  5
150
100
AcDbEntity
  8
0
 62
7
100
AcDbSpline
 70
8
 71
3
 72
8
 73
4
 74
0
 40
0
 40
0
 40
0
 40
0
 40
1
 40
1
 40
1
 40
1
 10
344.662337
 20
90.573834
 30
0.0
 10
344.973487
 20
94.429924
 30
0.0
 10
346.606627
 20
100.021549
 30
0.0
 10
348.078928
 20
102.271751
 30
0.0
  0
SPLINE
  5
151
100
AcDbEntity
  8
0
 62
7
100
AcDbSpline
 70
8
 71
3
 72
8
 73
4
 74
0
 40
0
 40
0
 40
0
 40
0
 40
1
 40
1
 40
1
 40
1
 10
348.078928
 20
102.271751
 30
0.0
 10
348.439528
 20
102.822904
 30
0.0
 10
348.815634
 20
103.631021
 30
0.0
 10
348.914720
 20
104.067584
 30
0.0
  0
SPLINE
  5
152
100
AcDbEntity
  8
0
 62
7
100
AcDbSpline
 70
8
 71
3
 72
8
 73
4
 74
0
 40
0
 40
0
 40
0
 40
0
 40
1
 40
1
 40
1
 40
1
 10
348.914720
 20
104.067584
 30
0.0
 10
349.013780
 20
104.504146
 30
0.0
 10
349.268600
 20
105.000425
 30
0.0
 10
349.480981
 20
105.170446
 30
0.0
  0
SPLINE
  5
153
100
AcDbEntity
  8
0
 62
7
100
AcDbSpline
 70
8
 71
3
 72
8
 73
4
 74
0
 40
0
 40
0
 40
0
 40
0
 40
1
 40
1
 40
1
 40
1
 10
349.480981
 20
105.170446
 30
0.0
 10
349.693362
 20
105.340441
 30
0.0
 10
350.519497
 20
106.821076
 30
0.0
 10
351.316872
 20
108.460752
 30
0.0
  0
SPLINE
  5
154
100
AcDbEntity
  8
0
 62
7
100
AcDbSpline
 70
8
 71
3
 72
8
 73
4
 74
0
 40
0
 40
0
 40
0
 40
0
 40
1
 40
1
 40
1
 40
1
 10
351.316872
 20
108.460752
 30
0.0
 10
352.414390
 20
110.717700
 30
0.0
 10
352.768429
 20
111.735341
 30
0.0
 10
352.774171
 20
112.649556
 30
0.0
  0
SPLINE
  5
155
100
AcDbEntity
  8
0
 62
7
100
AcDbSpline
 70
8
 71
3
 72
8
 73
4
 74
0
 40
0
 40
0
 40
0
 40
0
 40
1
 40
1
 40
1
 40
1
 10
352.774171
 20
112.649556
 30
0.0
 10
352.783696
 20
114.169931
 30
0.0
 10
351.927186
 20
116.479664
 30
0.0
 10
350.794664
 20
117.987762
 30
0.0
  0
SPLINE
  5
156
100
AcDbEntity
  8
0
 62
7
100
AcDbSpline
 70
8
 71
3
 72
8
 73
4
 74
0
 40
0
 40
0
 40
0
 40
0
 40
1
 40
1
 40
1
 40
1
 10
350.794664
 20
117.987762
 30
0.0
 10
348.041330
 20
121.654173
 30
0.0
 10
345.199917
 20
125.845226
 30
0.0
 10
344.643445
 20
127.060722
 30
0.0
  0
SPLINE
  5
157
100
AcDbEntity
  8
0
 62
7
100
AcDbSpline
 70
8
 71
3
 72
8
 73
4
 74
0
 40
0
 40
0
 40
0
 40
0
 40
1
 40
1
 40
1
 40
1
 10
344.643445
 20
127.060722
 30
0.0
 10
343.837498
 20
128.821127
 30
0.0
 10
343.480178
 20
130.698081
 30
0.0
 10
343.735475
 20
131.830048
 30
0.0
  0
SPLINE
  5
158
100
AcDbEntity
  8
0
 62
7
100
AcDbSpline
 70
8
 71
3
 72
8
 73
4
 74
0
 40
0
 40
0
 40
0
 40
0
 40
1
 40
1
 40
1
 40
1
 10
343.735475
 20
131.830048
 30
0.0
 10
343.900178
 20
132.560325
 30
0.0
 10
343.861813
 20
132.690235
 30
0.0
 10
343.505737
 20
132.607923
 30
0.0
  0
SPLINE
  5
159
100
AcDbEntity
  8
0
 62
7
100
AcDbSpline
 70
8
 71
3
 72
8
 73
4
 74
0
 40
0
 40
0
 40
0
 40
0
 40
1
 40
1
 40
1
 40
1
 10
343.505737
 20
132.607923
 30
0.0
 10
340.908905
 20
132.007689
 30
0.0
 10
329.466813
 20
130.823520
 30
0.0
 10
318.207416
 20
129.989739
 30
0.0
  0
SPLINE
  5
15a
100
AcDbEntity
  8
0
 62
7
100
AcDbSpline
 70
8
 71
3
 72
8
 73
4
 74
0
 40
0
 40
0
 40
0
 40
0
 40
1
 40
1
 40
1
 40
1
 10
318.207416
 20
129.989739
 30
0.0
 10
310.874780
 20
129.446734
 30
0.0
 10
304.724356
 20
128.834145
 30
0.0
 10
289.103250
 20
127.090990
 30
0.0
  0
SPLINE
  5
15b
100
AcDbEntity
  8
0
 62
7
100
AcDbSpline
 70
8
 71
3
 72
8
 73
4
 74
0
 40
0
 40
0
 40
0
 40
0
 40
1
 40
1
 40
1
 40
1
 10
289.103250
 20
127.090990
 30
0.0
 10
268.929194
 20
124.839783
 30
0.0
 10
258.402608
 20
124.047038
 30
0.0
 10
248.621995
 20
124.042435
 30
0.0
  0
LWPOLYLINE
  5
15c
100
AcDbEntity
  8
0
 62
7
100
AcDbPolyline
 90
3
 70
0
 10
340.982300
 20
84.917677
 30
0.0
 10
340.839848
 20
87.199020
 30
0.0
 10
341.826771
 20
87.362162
 30
0.0
  0
SPLINE
  5
15d
100
AcDbEntity
  8
0
 62
7
100
AcDbSpline
 70
8
 71
3
 72
8
 73
4
 74
0
 40
0
 40
0
 40
0
 40
0
 40
1
 40
1
 40
1
 40
1
 10
240.365698
 20
118.022317
 30
0.0
 10
238.589630
 20
114.712697
 30
0.0
 10
237.029276
 20
111.707163
 30
0.0
 10
236.898254
 20
111.343361
 30
0.0
  0
SPLINE
  5
15e
100
AcDbEntity
  8
0
 62
7
100
AcDbSpline
 70
8
 71
3
 72
8
 73
4
 74
0
 40
0
 40
0
 40
0
 40
0
 40
1
 40
1
 40
1
 40
1
 10
236.898254
 20
111.343361
 30
0.0
 10
236.716459
 20
110.838536
 30
0.0
 10
237.042584
 20
109.225292
 30
0.0
 10
238.275410
 20
104.530842
 30
0.0
  0
SPLINE
  5
15f
100
AcDbEntity
  8
0
 62
7
100
AcDbSpline
 70
8
 71
3
 72
8
 73
4
 74
0
 40
0
 40
0
 40
0
 40
0
 40
1
 40
1
 40
1
 40
1
 10
238.275410
 20
104.530842
 30
0.0
 10
239.163855
 20
101.147774
 30
0.0
 10
240.009807
 20
98.382217
 30
0.0
 10
240.155328
 20
98.385180
 30
0.0
  0
SPLINE
  5
160
100
AcDbEntity
  8
0
 62
7
100
AcDbSpline
 70
8
 71
3
 72
8
 73
4
 74
0
 40
0
 40
0
 40
0
 40
0
 40
1
 40
1
 40
1
 40
1
 10
240.155328
 20
98.385180
 30
0.0
 10
240.300849
 20
98.388091
 30
0.0
 10
240.707963
 20
98.611981
 30
0.0
 10
241.060018
 20
98.882597
 30
0.0
  0
LWPOLYLINE
  5
161
100
AcDbEntity
  8
0
 62
7
100
AcDbPolyline
 90
3
 70
0
 10
248.621995
 20
124.042435
 30
0.0
 10
243.594911
 20
124.039789
 30
0.0
 10
240.365698
 20
118.022317
 30
0.0
  0
SPLINE
  5
162
100
AcDbEntity
  8
0
 62
7
100
AcDbSpline
 70
8
 71
3
 72
8
 73
4
 74
0
 40
0
 40
0
 40
0
 40
0
 40
1
 40
1
 40
1
 40
1
 10
243.344113
 20
97.979997
 30
0.0
 10
246.239792
 20
95.523500
 30
0.0
 10
248.888351
 20
94.306284
 30
0.0
 10
252.023928
 20
93.990874
 30
0.0
  0
SPLINE
  5
163
100
AcDbEntity
  8
0
 62
7
100
AcDbSpline
 70
8
 71
3
 72
8
 73
4
 74
0
 40
0
 40
0
 40
0
 40
0
 40
1
 40
1
 40
1
 40
1
 10
252.023928
 20
93.990874
 30
0.0
 10
254.093472
 20
93.782700
 30
0.0
 10
256.109359
 20
94.148513
 30
0.0
 10
261.057411
 20
95.630206
 30
0.0
  0
SPLINE
  5
164
100
AcDbEntity
  8
0
 62
7
100
AcDbSpline
 70
8
 71
3
 72
8
 73
4
 74
0
 40
0
 40
0
 40
0
 40
0
 40
1
 40
1
 40
1
 40
1
 10
261.057411
 20
95.630206
 30
0.0
 10
266.049099
 20
97.124943
 30
0.0
 10
268.772719
 20
97.528354
 30
0.0
 10
271.040860
 20
97.108883
 30
0.0
  0
SPLINE
  5
165
100
AcDbEntity
  8
0
 62
7
100
AcDbSpline
 70
8
 71
3
 72
8
 73
4
 74
0
 40
0
 40
0
 40
0
 40
0
 40
1
 40
1
 40
1
 40
1
 10
271.040860
 20
97.108883
 30
0.0
 10
273.504157
 20
96.653350
 30
0.0
 10
276.107340
 20
95.246190
 30
0.0
 10
278.401806
 20
93.129947
 30
0.0
  0
LWPOLYLINE
  5
166
100
AcDbEntity
  8
0
 62
7
100
AcDbPolyline
 90
3
 70
0
 10
241.060018
 20
98.882597
 30
0.0
 10
241.700098
 20
99.374642
 30
0.0
 10
243.344113
 20
97.979997
 30
0.0
  0
SPLINE
  5
167
100
AcDbEntity
  8
0
 62
7
100
AcDbSpline
 70
8
 71
3
 72
8
 73
4
 74
0
 40
0
 40
0
 40
0
 40
0
 40
1
 40
1
 40
1
 40
1
 10
281.047640
 20
91.798987
 30
0.0
 10
282.256442
 20
92.755826
 30
0.0
 10
283.636164
 20
93.342010
 30
0.0
 10
285.078620
 20
93.511529
 30
0.0
  0
SPLINE
  5
168
100
AcDbEntity
  8
0
 62
7
100
AcDbSpline
 70
8
 71
3
 72
8
 73
4
 74
0
 40
0
 40
0
 40
0
 40
0
 40
1
 40
1
 40
1
 40
1
 10
285.078620
 20
93.511529
 30
0.0
 10
287.416214
 20
93.786272
 30
0.0
 10
289.871653
 20
92.887297
 30
0.0
 10
295.409911
 20
89.729098
 30
0.0
  0
SPLINE
  5
169
100
AcDbEntity
  8
0
 62
7
100
AcDbSpline
 70
8
 71
3
 72
8
 73
4
 74
0
 40
0
 40
0
 40
0
 40
0
 40
1
 40
1
 40
1
 40
1
 10
295.409911
 20
89.729098
 30
0.0
 10
300.868583
 20
86.616275
 30
0.0
 10
302.450765
 20
85.942699
 30
0.0
 10
304.762747
 20
85.747357
 30
0.0
  0
SPLINE
  5
16a
100
AcDbEntity
  8
0
 62
7
100
AcDbSpline
 70
8
 71
3
 72
8
 73
4
 74
0
 40
0
 40
0
 40
0
 40
0
 40
1
 40
1
 40
1
 40
1
 10
304.762747
 20
85.747357
 30
0.0
 10
307.518250
 20
85.514524
 30
0.0
 10
307.519864
 20
85.675205
 30
0.0
 10
304.787353
 20
88.205627
 30
0.0
  0
SPLINE
  5
16b
100
AcDbEntity
  8
0
 62
7
100
AcDbSpline
 70
8
 71
3
 72
8
 73
4
 74
0
 40
0
 40
0
 40
0
 40
0
 40
1
 40
1
 40
1
 40
1
 10
304.787353
 20
88.205627
 30
0.0
 10
303.437184
 20
89.455890
 30
0.0
 10
301.240931
 20
91.392931
 30
0.0
 10
299.906796
 20
92.510187
 30
0.0
  0
SPLINE
  5
16c
100
AcDbEntity
  8
0
 62
7
100
AcDbSpline
 70
8
 71
3
 72
8
 73
4
 74
0
 40
0
 40
0
 40
0
 40
0
 40
1
 40
1
 40
1
 40
1
 10
299.906796
 20
92.510187
 30
0.0
 10
298.572634
 20
93.627416
 30
0.0
 10
297.518005
 20
94.578487
 30
0.0
 10
297.563196
 20
94.623678
 30
0.0
  0
SPLINE
  5
16d
100
AcDbEntity
  8
0
 62
7
100
AcDbSpline
 70
8
 71
3
 72
8
 73
4
 74
0
 40
0
 40
0
 40
0
 40
0
 40
1
 40
1
 40
1
 40
1
 10
297.563196
 20
94.623678
 30
0.0
 10
297.608360
 20
94.668843
 30
0.0
 10
298.640421
 20
94.508823
 30
0.0
 10
299.856631
 20
94.268025
 30
0.0
  0
SPLINE
  5
16e
100
AcDbEntity
  8
0
 62
7
100
AcDbSpline
 70
8
 71
3
 72
8
 73
4
 74
0
 40
0
 40
0
 40
0
 40
0
 40
1
 40
1
 40
1
 40
1
 10
299.856631
 20
94.268025
 30
0.0
 10
301.072841
 20
94.027255
 30
0.0
 10
303.853876
 20
93.766614
 30
0.0
 10
306.036689
 20
93.688800
 30
0.0
  0
SPLINE
  5
16f
100
AcDbEntity
  8
0
 62
7
100
AcDbSpline
 70
8
 71
3
 72
8
 73
4
 74
0
 40
0
 40
0
 40
0
 40
0
 40
1
 40
1
 40
1
 40
1
 10
306.036689
 20
93.688800
 30
0.0
 10
309.912703
 20
93.550608
 30
0.0
 10
310.048407
 20
93.525790
 30
0.0
 10
311.844611
 20
92.625624
 30
0.0
  0
LWPOLYLINE
  5
170
100
AcDbEntity
  8
0
 62
7
100
AcDbPolyline
 90
3
 70
0
 10
278.401806
 20
93.129947
 30
0.0
 10
280.400337
 20
91.286621
 30
0.0
 10
281.047640
 20
91.798987
 30
0.0
  0
SPLINE
  5
171
100
AcDbEntity
  8
0
 62
7
100
AcDbSpline
 70
8
 71
3
 72
8
 73
4
 74
0
 40
0
 40
0
 40
0
 40
0
 40
1
 40
1
 40
1
 40
1
 10
315.416486
 20
92.329370
 30
0.0
 10
316.701170
 20
92.793106
 30
0.0
 10
317.668143
 20
92.949025
 30
0.0
 10
319.156212
 20
92.932382
 30
0.0
  0
SPLINE
  5
172
100
AcDbEntity
  8
0
 62
7
100
AcDbSpline
 70
8
 71
3
 72
8
 73
4
 74
0
 40
0
 40
0
 40
0
 40
0
 40
1
 40
1
 40
1
 40
1
 10
319.156212
 20
92.932382
 30
0.0
 10
322.146904
 20
92.898965
 30
0.0
 10
324.598480
 20
91.625923
 30
0.0
 10
329.638184
 20
87.489321
 30
0.0
  0
SPLINE
  5
173
100
AcDbEntity
  8
0
 62
7
100
AcDbSpline
 70
8
 71
3
 72
8
 73
4
 74
0
 40
0
 40
0
 40
0
 40
0
 40
1
 40
1
 40
1
 40
1
 10
329.638184
 20
87.489321
 30
0.0
 10
334.358774
 20
83.614657
 30
0.0
 10
335.927726
 20
82.568071
 30
0.0
 10
338.183564
 20
81.789138
 30
0.0
  0
SPLINE
  5
174
100
AcDbEntity
  8
0
 62
7
100
AcDbSpline
 70
8
 71
3
 72
8
 73
4
 74
0
 40
0
 40
0
 40
0
 40
0
 40
1
 40
1
 40
1
 40
1
 10
338.183564
 20
81.789138
 30
0.0
 10
340.151879
 20
81.109476
 30
0.0
 10
340.306501
 20
81.121753
 30
0.0
 10
340.778677
 20
81.995513
 30
0.0
  0
LWPOLYLINE
  5
175
100
AcDbEntity
  8
0
 62
7
100
AcDbPolyline
 90
3
 70
0
 10
311.844611
 20
92.625624
 30
0.0
 10
313.683782
 20
91.703922
 30
0.0
 10
315.416486
 20
92.329370
 30
0.0
  0
SPLINE
  5
176
100
AcDbEntity
  8
0
 62
7
100
AcDbSpline
 70
8
 71
3
 72
8
 73
4
 74
0
 40
0
 40
0
 40
0
 40
0
 40
1
 40
1
 40
1
 40
1
 10
178.537071
 20
98.661961
 30
0.0
 10
179.745211
 20
99.408615
 30
0.0
 10
180.090837
 20
100.725843
 30
0.0
 10
179.714705
 20
103.150061
 30
0.0
  0
SPLINE
  5
177
100
AcDbEntity
  8
0
 62
7
100
AcDbSpline
 70
8
 71
3
 72
8
 73
4
 74
0
 40
0
 40
0
 40
0
 40
0
 40
1
 40
1
 40
1
 40
1
 10
179.714705
 20
103.150061
 30
0.0
 10
179.280180
 20
105.950570
 30
0.0
 10
179.276952
 20
105.939378
 30
0.0
 10
180.627412
 20
106.317468
 30
0.0
  0
SPLINE
  5
178
100
AcDbEntity
  8
0
 62
7
100
AcDbSpline
 70
8
 71
3
 72
8
 73
4
 74
0
 40
0
 40
0
 40
0
 40
0
 40
1
 40
1
 40
1
 40
1
 10
180.627412
 20
106.317468
 30
0.0
 10
181.793801
 20
106.644043
 30
0.0
 10
184.907047
 20
106.572976
 30
0.0
 10
185.813642
 20
106.199067
 30
0.0
  0
SPLINE
  5
179
100
AcDbEntity
  8
0
 62
7
100
AcDbSpline
 70
8
 71
3
 72
8
 73
4
 74
0
 40
0
 40
0
 40
0
 40
0
 40
1
 40
1
 40
1
 40
1
 10
185.813642
 20
106.199067
 30
0.0
 10
186.138894
 20
106.064923
 30
0.0
 10
186.280790
 20
106.223409
 30
0.0
 10
186.408954
 20
106.864282
 30
0.0
  0
SPLINE
  5
17a
100
AcDbEntity
  8
0
 62
7
100
AcDbSpline
 70
8
 71
3
 72
8
 73
4
 74
0
 40
0
 40
0
 40
0
 40
0
 40
1
 40
1
 40
1
 40
1
 10
186.408954
 20
106.864282
 30
0.0
 10
186.740715
 20
108.523061
 30
0.0
 10
186.566461
 20
112.085993
 30
0.0
 10
185.937414
 20
116.505646
 30
0.0
  0
SPLINE
  5
17b
100
AcDbEntity
  8
0
 62
7
100
AcDbSpline
 70
8
 71
3
 72
8
 73
4
 74
0
 40
0
 40
0
 40
0
 40
0
 40
1
 40
1
 40
1
 40
1
 10
185.937414
 20
116.505646
 30
0.0
 10
185.242459
 20
121.388505
 30
0.0
 10
183.107933
 20
134.433945
 30
0.0
 10
182.978023
 20
134.592510
 30
0.0
  0
SPLINE
  5
17c
100
AcDbEntity
  8
0
 62
7
100
AcDbSpline
 70
8
 71
3
 72
8
 73
4
 74
0
 40
0
 40
0
 40
0
 40
0
 40
1
 40
1
 40
1
 40
1
 10
182.978023
 20
134.592510
 30
0.0
 10
182.757360
 20
134.861803
 30
0.0
 10
170.639047
 20
137.111290
 30
0.0
 10
162.235536
 20
138.442885
 30
0.0
  0
SPLINE
  5
17d
100
AcDbEntity
  8
0
 62
7
100
AcDbSpline
 70
8
 71
3
 72
8
 73
4
 74
0
 40
0
 40
0
 40
0
 40
0
 40
1
 40
1
 40
1
 40
1
 10
162.235536
 20
138.442885
 30
0.0
 10
138.513127
 20
142.201874
 30
0.0
 10
110.625276
 20
144.066022
 30
0.0
 10
88.681370
 20
143.359611
 30
0.0
  0
SPLINE
  5
17e
100
AcDbEntity
  8
0
 62
7
100
AcDbSpline
 70
8
 71
3
 72
8
 73
4
 74
0
 40
0
 40
0
 40
0
 40
0
 40
1
 40
1
 40
1
 40
1
 10
88.681370
 20
143.359611
 30
0.0
 10
84.388505
 20
143.221419
 30
0.0
 10
79.073026
 20
143.105055
 30
0.0
 10
76.869179
 20
143.100981
 30
0.0
  0
LWPOLYLINE
  5
17f
100
AcDbEntity
  8
0
 62
7
100
AcDbPolyline
 90
2
 70
0
 10
340.778677
 20
81.995513
 30
0.0
 10
340.778571
 20
81.995777
 30
0.0
  0
SPLINE
  5
180
100
AcDbEntity
  8
0
 62
7
100
AcDbSpline
 70
8
 71
3
 72
8
 73
4
 74
0
 40
0
 40
0
 40
0
 40
0
 40
1
 40
1
 40
1
 40
1
 10
55.811510
 20
116.669264
 30
0.0
 10
56.645720
 20
115.887606
 30
0.0
 10
58.135488
 20
114.591386
 30
0.0
 10
59.122093
 20
113.788799
 30
0.0
  0
SPLINE
  5
181
100
AcDbEntity
  8
0
 62
7
100
AcDbSpline
 70
8
 71
3
 72
8
 73
4
 74
0
 40
0
 40
0
 40
0
 40
0
 40
1
 40
1
 40
1
 40
1
 10
59.122093
 20
113.788799
 30
0.0
 10
60.108724
 20
112.986185
 30
0.0
 10
60.857336
 20
112.270937
 30
0.0
 10
60.785740
 20
112.199314
 30
0.0
  0
SPLINE
  5
182
100
AcDbEntity
  8
0
 62
7
100
AcDbSpline
 70
8
 71
3
 72
8
 73
4
 74
0
 40
0
 40
0
 40
0
 40
0
 40
1
 40
1
 40
1
 40
1
 10
60.785740
 20
112.199314
 30
0.0
 10
60.500943
 20
111.914517
 30
0.0
 10
56.692496
 20
114.020044
 30
0.0
 10
54.965944
 20
115.416806
 30
0.0
  0
SPLINE
  5
183
100
AcDbEntity
  8
0
 62
7
100
AcDbSpline
 70
8
 71
3
 72
8
 73
4
 74
0
 40
0
 40
0
 40
0
 40
0
 40
1
 40
1
 40
1
 40
1
 10
54.965944
 20
115.416806
 30
0.0
 10
53.047075
 20
116.969170
 30
0.0
 10
52.921284
 20
117.049894
 30
0.0
 10
53.028779
 20
116.659766
 30
0.0
  0
SPLINE
  5
184
100
AcDbEntity
  8
0
 62
7
100
AcDbSpline
 70
8
 71
3
 72
8
 73
4
 74
0
 40
0
 40
0
 40
0
 40
0
 40
1
 40
1
 40
1
 40
1
 10
53.028779
 20
116.659766
 30
0.0
 10
53.065159
 20
116.527739
 30
0.0
 10
52.172190
 20
115.173892
 30
0.0
 10
51.044404
 20
113.651242
 30
0.0
  0
LWPOLYLINE
  5
185
100
AcDbEntity
  8
0
 62
7
100
AcDbPolyline
 90
5
 70
0
 10
76.869179
 20
143.100981
 30
0.0
 10
72.862197
 20
143.093572
 30
0.0
 10
63.578470
 20
130.592010
 30
0.0
 10
54.294760
 20
118.090447
 30
0.0
 10
55.811510
 20
116.669264
 30
0.0
  0
SPLINE
  5
186
100
AcDbEntity
  8
0
 62
7
100
AcDbSpline
 70
8
 71
3
 72
8
 73
4
 74
0
 40
0
 40
0
 40
0
 40
0
 40
1
 40
1
 40
1
 40
1
 10
48.993883
 20
107.418240
 30
0.0
 10
48.993883
 20
104.197203
 30
0.0
 10
49.372666
 20
101.900302
 30
0.0
 10
50.011960
 20
101.244770
 30
0.0
  0
SPLINE
  5
187
100
AcDbEntity
  8
0
 62
7
100
AcDbSpline
 70
8
 71
3
 72
8
 73
4
 74
0
 40
0
 40
0
 40
0
 40
0
 40
1
 40
1
 40
1
 40
1
 10
50.011960
 20
101.244770
 30
0.0
 10
50.106860
 20
101.147457
 30
0.0
 10
53.756383
 20
100.696342
 30
0.0
 10
58.121995
 20
100.242317
 30
0.0
  0
SPLINE
  5
188
100
AcDbEntity
  8
0
 62
7
100
AcDbSpline
 70
8
 71
3
 72
8
 73
4
 74
0
 40
0
 40
0
 40
0
 40
0
 40
1
 40
1
 40
1
 40
1
 10
58.121995
 20
100.242317
 30
0.0
 10
62.487620
 20
99.788266
 30
0.0
 10
66.293254
 20
99.391655
 30
0.0
 10
66.578951
 20
99.360911
 30
0.0
  0
SPLINE
  5
189
100
AcDbEntity
  8
0
 62
7
100
AcDbSpline
 70
8
 71
3
 72
8
 73
4
 74
0
 40
0
 40
0
 40
0
 40
0
 40
1
 40
1
 40
1
 40
1
 10
66.578951
 20
99.360911
 30
0.0
 10
66.987944
 20
99.316910
 30
0.0
 10
67.392809
 20
99.867720
 30
0.0
 10
68.482787
 20
101.950864
 30
0.0
  0
SPLINE
  5
18a
100
AcDbEntity
  8
0
 62
7
100
AcDbSpline
 70
8
 71
3
 72
8
 73
4
 74
0
 40
0
 40
0
 40
0
 40
0
 40
1
 40
1
 40
1
 40
1
 10
68.482787
 20
101.950864
 30
0.0
 10
69.244178
 20
103.406072
 30
0.0
 10
69.962919
 20
104.589236
 30
0.0
 10
70.079997
 20
104.580134
 30
0.0
  0
SPLINE
  5
18b
100
AcDbEntity
  8
0
 62
7
100
AcDbSpline
 70
8
 71
3
 72
8
 73
4
 74
0
 40
0
 40
0
 40
0
 40
0
 40
1
 40
1
 40
1
 40
1
 10
70.079997
 20
104.580134
 30
0.0
 10
70.197049
 20
104.571139
 30
0.0
 10
71.662047
 20
103.901002
 30
0.0
 10
73.335536
 20
103.091218
 30
0.0
  0
SPLINE
  5
18c
100
AcDbEntity
  8
0
 62
7
100
AcDbSpline
 70
8
 71
3
 72
8
 73
4
 74
0
 40
0
 40
0
 40
0
 40
0
 40
1
 40
1
 40
1
 40
1
 10
73.335536
 20
103.091218
 30
0.0
 10
76.892092
 20
101.370236
 30
0.0
 10
80.265900
 20
100.197232
 30
0.0
 10
84.012400
 20
99.379114
 30
0.0
  0
SPLINE
  5
18d
100
AcDbEntity
  8
0
 62
7
100
AcDbSpline
 70
8
 71
3
 72
8
 73
4
 74
0
 40
0
 40
0
 40
0
 40
0
 40
1
 40
1
 40
1
 40
1
 10
84.012400
 20
99.379114
 30
0.0
 10
86.350787
 20
98.868468
 30
0.0
 10
87.481802
 20
98.792956
 30
0.0
 10
92.782411
 20
98.793617
 30
0.0
  0
SPLINE
  5
18e
100
AcDbEntity
  8
0
 62
7
100
AcDbSpline
 70
8
 71
3
 72
8
 73
4
 74
0
 40
0
 40
0
 40
0
 40
0
 40
1
 40
1
 40
1
 40
1
 10
92.782411
 20
98.793617
 30
0.0
 10
98.131519
 20
98.793617
 30
0.0
 10
99.171966
 20
98.865320
 30
0.0
 10
101.381370
 20
99.380728
 30
0.0
  0
SPLINE
  5
18f
100
AcDbEntity
  8
0
 62
7
100
AcDbSpline
 70
8
 71
3
 72
8
 73
4
 74
0
 40
0
 40
0
 40
0
 40
0
 40
1
 40
1
 40
1
 40
1
 10
101.381370
 20
99.380728
 30
0.0
 10
104.935623
 20
100.209879
 30
0.0
 10
108.260536
 20
101.327770
 30
0.0
 10
108.260536
 20
101.693663
 30
0.0
  0
SPLINE
  5
190
100
AcDbEntity
  8
0
 62
7
100
AcDbSpline
 70
8
 71
3
 72
8
 73
4
 74
0
 40
0
 40
0
 40
0
 40
0
 40
1
 40
1
 40
1
 40
1
 10
108.260536
 20
101.693663
 30
0.0
 10
108.260536
 20
101.909060
 30
0.0
 10
109.378718
 20
102.053919
 30
0.0
 10
111.898557
 20
102.164991
 30
0.0
  0
SPLINE
  5
191
100
AcDbEntity
  8
0
 62
7
100
AcDbSpline
 70
8
 71
3
 72
8
 73
4
 74
0
 40
0
 40
0
 40
0
 40
0
 40
1
 40
1
 40
1
 40
1
 10
111.898557
 20
102.164991
 30
0.0
 10
116.077942
 20
102.349247
 30
0.0
 10
120.506379
 20
103.184775
 30
0.0
 10
124.598557
 20
104.561190
 30
0.0
  0
LWPOLYLINE
  5
192
100
AcDbEntity
  8
0
 62
7
100
AcDbPolyline
 90
3
 70
0
 10
51.044404
 20
113.651242
 30
0.0
 10
48.993883
 20
110.882748
 30
0.0
 10
48.993883
 20
107.418240
 30
0.0
  0
SPLINE
  5
193
100
AcDbEntity
  8
0
 62
7
100
AcDbSpline
 70
8
 71
3
 72
8
 73
4
 74
0
 40
0
 40
0
 40
0
 40
0
 40
1
 40
1
 40
1
 40
1
 10
131.345432
 20
103.497433
 30
0.0
 10
133.564625
 20
103.477325
 30
0.0
 10
137.047203
 20
103.267722
 30
0.0
 10
139.084495
 20
103.031899
 30
0.0
  0
SPLINE
  5
194
100
AcDbEntity
  8
0
 62
7
100
AcDbSpline
 70
8
 71
3
 72
8
 73
4
 74
0
 40
0
 40
0
 40
0
 40
0
 40
1
 40
1
 40
1
 40
1
 10
139.084495
 20
103.031899
 30
0.0
 10
147.616169
 20
102.044315
 30
0.0
 10
152.105434
 20
102.003807
 30
0.0
 10
156.079423
 20
102.878599
 30
0.0
  0
SPLINE
  5
195
100
AcDbEntity
  8
0
 62
7
100
AcDbSpline
 70
8
 71
3
 72
8
 73
4
 74
0
 40
0
 40
0
 40
0
 40
0
 40
1
 40
1
 40
1
 40
1
 10
156.079423
 20
102.878599
 30
0.0
 10
157.404800
 20
103.170355
 30
0.0
 10
157.475947
 20
103.230521
 30
0.0
 10
157.745451
 20
104.286923
 30
0.0
  0
SPLINE
  5
196
100
AcDbEntity
  8
0
 62
7
100
AcDbSpline
 70
8
 71
3
 72
8
 73
4
 74
0
 40
0
 40
0
 40
0
 40
0
 40
1
 40
1
 40
1
 40
1
 10
157.745451
 20
104.286923
 30
0.0
 10
158.371799
 20
106.742124
 30
0.0
 10
158.794260
 20
107.270709
 30
0.0
 10
159.536786
 20
106.528156
 30
0.0
  0
SPLINE
  5
197
100
AcDbEntity
  8
0
 62
7
100
AcDbSpline
 70
8
 71
3
 72
8
 73
4
 74
0
 40
0
 40
0
 40
0
 40
0
 40
1
 40
1
 40
1
 40
1
 10
159.536786
 20
106.528156
 30
0.0
 10
159.783748
 20
106.281220
 30
0.0
 10
159.854286
 20
106.373771
 30
0.0
 10
159.854286
 20
106.944716
 30
0.0
  0
SPLINE
  5
198
100
AcDbEntity
  8
0
 62
7
100
AcDbSpline
 70
8
 71
3
 72
8
 73
4
 74
0
 40
0
 40
0
 40
0
 40
0
 40
1
 40
1
 40
1
 40
1
 10
159.854286
 20
106.944716
 30
0.0
 10
159.854286
 20
107.500473
 30
0.0
 10
160.409964
 20
108.277237
 30
0.0
 10
162.142271
 20
110.142972
 30
0.0
  0
LWPOLYLINE
  5
199
100
AcDbEntity
  8
0
 62
7
100
AcDbPolyline
 90
5
 70
0
 10
124.598557
 20
104.561190
 30
0.0
 10
127.310536
 20
105.473341
 30
0.0
 10
127.310536
 20
104.503776
 30
0.0
 10
127.310536
 20
103.534210
 30
0.0
 10
131.345432
 20
103.497433
 30
0.0
  0
SPLINE
  5
19a
100
AcDbEntity
  8
0
 62
7
100
AcDbSpline
 70
8
 71
3
 72
8
 73
4
 74
0
 40
0
 40
0
 40
0
 40
0
 40
1
 40
1
 40
1
 40
1
 10
166.295541
 20
109.528001
 30
0.0
 10
170.876669
 20
101.965522
 30
0.0
 10
174.408433
 20
98.164147
 30
0.0
 10
176.888690
 20
98.126100
 30
0.0
  0
SPLINE
  5
19b
100
AcDbEntity
  8
0
 62
7
100
AcDbSpline
 70
8
 71
3
 72
8
 73
4
 74
0
 40
0
 40
0
 40
0
 40
0
 40
1
 40
1
 40
1
 40
1
 10
176.888690
 20
98.126100
 30
0.0
 10
177.308081
 20
98.119750
 30
0.0
 10
178.049841
 20
98.360786
 30
0.0
 10
178.537071
 20
98.661908
 30
0.0
  0
LWPOLYLINE
  5
19c
100
AcDbEntity
  8
0
 62
7
100
AcDbPolyline
 90
3
 70
0
 10
162.142271
 20
110.142972
 30
0.0
 10
164.430228
 20
112.607196
 30
0.0
 10
166.295541
 20
109.528001
 30
0.0
  0
SPLINE
  5
19d
100
AcDbEntity
  8
0
 62
7
100
AcDbSpline
 70
8
 71
3
 72
8
 73
4
 74
0
 40
0
 40
0
 40
0
 40
0
 40
1
 40
1
 40
1
 40
1
 10
49.868376
 20
118.271290
 30
0.0
 10
50.716995
 20
119.431170
 30
0.0
 10
50.734233
 20
119.589947
 30
0.0
 10
50.076179
 20
120.185471
 30
0.0
  0
SPLINE
  5
19e
100
AcDbEntity
  8
0
 62
7
100
AcDbSpline
 70
8
 71
3
 72
8
 73
4
 74
0
 40
0
 40
0
 40
0
 40
0
 40
1
 40
1
 40
1
 40
1
 10
50.076179
 20
120.185471
 30
0.0
 10
49.595349
 20
120.620631
 30
0.0
 10
49.562755
 20
120.616795
 30
0.0
 10
49.400645
 20
120.106043
 30
0.0
  0
SPLINE
  5
19f
100
AcDbEntity
  8
0
 62
7
100
AcDbSpline
 70
8
 71
3
 72
8
 73
4
 74
0
 40
0
 40
0
 40
0
 40
0
 40
1
 40
1
 40
1
 40
1
 10
49.400645
 20
120.106043
 30
0.0
 10
49.119954
 20
119.221647
 30
0.0
 10
48.789693
 20
116.851483
 30
0.0
 10
48.979331
 20
117.082385
 30
0.0
  0
SPLINE
  5
1a0
100
AcDbEntity
  8
0
 62
7
100
AcDbSpline
 70
8
 71
3
 72
8
 73
4
 74
0
 40
0
 40
0
 40
0
 40
0
 40
1
 40
1
 40
1
 40
1
 10
48.979331
 20
117.082385
 30
0.0
 10
49.076152
 20
117.200283
 30
0.0
 10
49.476221
 20
117.735297
 30
0.0
 10
49.868376
 20
118.271290
 30
0.0
  0
LWPOLYLINE
  5
1a1
100
AcDbEntity
  8
0
 62
7
100
AcDbPolyline
 90
1
 70
1
 10
178.537071
 20
98.661908
 30
0.0
  0
SPLINE
  5
1a2
100
AcDbEntity
  8
0
 62
7
100
AcDbSpline
 70
8
 71
3
 72
8
 73
4
 74
0
 40
0
 40
0
 40
0
 40
0
 40
1
 40
1
 40
1
 40
1
 10
59.948466
 20
132.160645
 30
0.0
 10
64.251993
 20
138.080194
 30
0.0
 10
67.729518
 20
142.967022
 30
0.0
 10
67.676284
 20
143.020256
 30
0.0
  0
SPLINE
  5
1a3
100
AcDbEntity
  8
0
 62
7
100
AcDbSpline
 70
8
 71
3
 72
8
 73
4
 74
0
 40
0
 40
0
 40
0
 40
0
 40
1
 40
1
 40
1
 40
1
 10
67.676284
 20
143.020256
 30
0.0
 10
67.623050
 20
143.073464
 30
0.0
 10
66.106405
 20
143.232346
 30
0.0
 10
64.305968
 20
143.373263
 30
0.0
  0
SPLINE
  5
1a4
100
AcDbEntity
  8
0
 62
7
100
AcDbSpline
 70
8
 71
3
 72
8
 73
4
 74
0
 40
0
 40
0
 40
0
 40
0
 40
1
 40
1
 40
1
 40
1
 10
64.305968
 20
143.373263
 30
0.0
 10
59.869223
 20
143.720582
 30
0.0
 10
55.755426
 20
144.299649
 30
0.0
 10
52.499612
 20
145.035138
 30
0.0
  0
LWPOLYLINE
  5
1a5
100
AcDbEntity
  8
0
 62
7
100
AcDbPolyline
 90
1
 70
1
 10
49.868376
 20
118.271290
 30
0.0
  0
SPLINE
  5
1a6
100
AcDbEntity
  8
0
 62
7
100
AcDbSpline
 70
8
 71
3
 72
8
 73
4
 74
0
 40
0
 40
0
 40
0
 40
0
 40
1
 40
1
 40
1
 40
1
 10
49.787633
 20
144.815613
 30
0.0
 10
49.787633
 20
143.557572
 30
0.0
 10
50.468834
 20
141.522053
 30
0.0
 10
51.360041
 20
140.117063
 30
0.0
  0
LWPOLYLINE
  5
1a7
100
AcDbEntity
  8
0
 62
7
100
AcDbPolyline
 90
3
 70
0
 10
52.499612
 20
145.035138
 30
0.0
 10
49.787633
 20
145.647807
 30
0.0
 10
49.787633
 20
144.815613
 30
0.0
  0
SPLINE
  5
1a8
100
AcDbEntity
  8
0
 62
7
100
AcDbSpline
 70
8
 71
3
 72
8
 73
4
 74
0
 40
0
 40
0
 40
0
 40
0
 40
1
 40
1
 40
1
 40
1
 10
51.516600
 20
138.860292
 30
0.0
 10
50.288899
 20
138.860292
 30
0.0
 10
50.052658
 20
138.052995
 30
0.0
 10
50.047623
 20
133.840485
 30
0.0
  0
SPLINE
  5
1a9
100
AcDbEntity
  8
0
 62
7
100
AcDbSpline
 70
8
 71
3
 72
8
 73
4
 74
0
 40
0
 40
0
 40
0
 40
0
 40
1
 40
1
 40
1
 40
1
 10
50.047623
 20
133.840485
 30
0.0
 10
50.044792
 20
131.478417
 30
0.0
 10
49.892495
 20
129.286106
 30
0.0
 10
49.652518
 20
128.153239
 30
0.0
  0
LWPOLYLINE
  5
1aa
100
AcDbEntity
  8
0
 62
7
100
AcDbPolyline
 90
3
 70
0
 10
51.360041
 20
140.117063
 30
0.0
 10
52.157228
 20
138.860292
 30
0.0
 10
51.516600
 20
138.860292
 30
0.0
  0
SPLINE
  5
1ab
100
AcDbEntity
  8
0
 62
7
100
AcDbSpline
 70
8
 71
3
 72
8
 73
4
 74
0
 40
0
 40
0
 40
0
 40
0
 40
1
 40
1
 40
1
 40
1
 10
50.456761
 20
123.853760
 30
0.0
 10
51.113875
 20
122.502983
 30
0.0
 10
51.757794
 20
121.397792
 30
0.0
 10
51.887692
 20
121.397792
 30
0.0
  0
SPLINE
  5
1ac
100
AcDbEntity
  8
0
 62
7
100
AcDbSpline
 70
8
 71
3
 72
8
 73
4
 74
0
 40
0
 40
0
 40
0
 40
0
 40
1
 40
1
 40
1
 40
1
 10
51.887692
 20
121.397792
 30
0.0
 10
52.017589
 20
121.397792
 30
0.0
 10
55.644936
 20
126.241069
 30
0.0
 10
59.948466
 20
132.160645
 30
0.0
  0
LWPOLYLINE
  5
1ad
100
AcDbEntity
  8
0
 62
7
100
AcDbPolyline
 90
3
 70
0
 10
49.652518
 20
128.153239
 30
0.0
 10
49.262009
 20
126.309702
 30
0.0
 10
50.456761
 20
123.853760
 30
0.0
  0
SPLINE
  5
1ae
100
AcDbEntity
  8
0
 62
7
100
AcDbSpline
 70
8
 71
3
 72
8
 73
4
 74
0
 40
0
 40
0
 40
0
 40
0
 40
1
 40
1
 40
1
 40
1
 10
264.629291
 20
140.332407
 30
0.0
 10
270.811863
 20
140.845593
 30
0.0
 10
277.951168
 20
141.579203
 30
0.0
 10
288.970958
 20
142.833672
 30
0.0
  0
SPLINE
  5
1af
100
AcDbEntity
  8
0
 62
7
100
AcDbSpline
 70
8
 71
3
 72
8
 73
4
 74
0
 40
0
 40
0
 40
0
 40
0
 40
1
 40
1
 40
1
 40
1
 10
288.970958
 20
142.833672
 30
0.0
 10
302.382317
 20
144.360397
 30
0.0
 10
307.482478
 20
144.854560
 30
0.0
 10
317.585355
 20
145.606188
 30
0.0
  0
SPLINE
  5
1b0
100
AcDbEntity
  8
0
 62
7
100
AcDbSpline
 70
8
 71
3
 72
8
 73
4
 74
0
 40
0
 40
0
 40
0
 40
0
 40
1
 40
1
 40
1
 40
1
 10
317.585355
 20
145.606188
 30
0.0
 10
327.489211
 20
146.343026
 30
0.0
 10
333.300308
 20
146.966305
 30
0.0
 10
340.035092
 20
148.014002
 30
0.0
  0
SPLINE
  5
1b1
100
AcDbEntity
  8
0
 62
7
100
AcDbSpline
 70
8
 71
3
 72
8
 73
4
 74
0
 40
0
 40
0
 40
0
 40
0
 40
1
 40
1
 40
1
 40
1
 10
340.035092
 20
148.014002
 30
0.0
 10
342.435947
 20
148.387514
 30
0.0
 10
344.415877
 20
148.713137
 30
0.0
 10
344.434927
 20
148.737638
 30
0.0
  0
SPLINE
  5
1b2
100
AcDbEntity
  8
0
 62
7
100
AcDbSpline
 70
8
 71
3
 72
8
 73
4
 74
0
 40
0
 40
0
 40
0
 40
0
 40
1
 40
1
 40
1
 40
1
 10
344.434927
 20
148.737638
 30
0.0
 10
344.483690
 20
148.800291
 30
0.0
 10
342.144376
 20
157.391074
 30
0.0
 10
340.532244
 20
163.069667
 30
0.0
  0
SPLINE
  5
1b3
100
AcDbEntity
  8
0
 62
7
100
AcDbSpline
 70
8
 71
3
 72
8
 73
4
 74
0
 40
0
 40
0
 40
0
 40
0
 40
1
 40
1
 40
1
 40
1
 10
340.532244
 20
163.069667
 30
0.0
 10
338.810970
 20
169.132806
 30
0.0
 10
337.831959
 20
172.090794
 30
0.0
 10
336.722932
 20
174.579042
 30
0.0
  0
SPLINE
  5
1b4
100
AcDbEntity
  8
0
 62
7
100
AcDbSpline
 70
8
 71
3
 72
8
 73
4
 74
0
 40
0
 40
0
 40
0
 40
0
 40
1
 40
1
 40
1
 40
1
 10
336.722932
 20
174.579042
 30
0.0
 10
335.633351
 20
177.023633
 30
0.0
 10
333.880116
 20
182.746200
 30
0.0
 10
334.069505
 20
183.239728
 30
0.0
  0
SPLINE
  5
1b5
100
AcDbEntity
  8
0
 62
7
100
AcDbSpline
 70
8
 71
3
 72
8
 73
4
 74
0
 40
0
 40
0
 40
0
 40
0
 40
1
 40
1
 40
1
 40
1
 10
334.069505
 20
183.239728
 30
0.0
 10
334.146022
 20
183.439170
 30
0.0
 10
334.111150
 20
183.542093
 30
0.0
 10
333.991982
 20
183.468460
 30
0.0
  0
SPLINE
  5
1b6
100
AcDbEntity
  8
0
 62
7
100
AcDbSpline
 70
8
 71
3
 72
8
 73
4
 74
0
 40
0
 40
0
 40
0
 40
0
 40
1
 40
1
 40
1
 40
1
 10
333.991982
 20
183.468460
 30
0.0
 10
333.872814
 20
183.394800
 30
0.0
 10
333.515309
 20
184.847124
 30
0.0
 10
333.197544
 20
186.695847
 30
0.0
  0
SPLINE
  5
1b7
100
AcDbEntity
  8
0
 62
7
100
AcDbSpline
 70
8
 71
3
 72
8
 73
4
 74
0
 40
0
 40
0
 40
0
 40
0
 40
1
 40
1
 40
1
 40
1
 10
333.197544
 20
186.695847
 30
0.0
 10
330.682918
 20
201.325242
 30
0.0
 10
329.112959
 20
215.581177
 30
0.0
 10
328.636286
 20
228.114304
 30
0.0
  0
LWPOLYLINE
  5
1b8
100
AcDbEntity
  8
0
 62
7
100
AcDbPolyline
 90
1
 70
1
 10
59.948466
 20
132.160645
 30
0.0
  0
SPLINE
  5
1b9
100
AcDbEntity
  8
0
 62
7
100
AcDbSpline
 70
8
 71
3
 72
8
 73
4
 74
0
 40
0
 40
0
 40
0
 40
0
 40
1
 40
1
 40
1
 40
1
 10
326.899746
 20
238.697638
 30
0.0
 10
324.540404
 20
241.877241
 30
0.0
 10
322.937823
 20
246.281258
 30
0.0
 10
322.661042
 20
250.345919
 30
0.0
  0
SPLINE
  5
1ba
100
AcDbEntity
  8
0
 62
7
100
AcDbSpline
 70
8
 71
3
 72
8
 73
4
 74
0
 40
0
 40
0
 40
0
 40
0
 40
1
 40
1
 40
1
 40
1
 10
322.661042
 20
250.345919
 30
0.0
 10
322.515653
 20
252.481265
 30
0.0
 10
322.983119
 20
256.860940
 30
0.0
 10
323.752184
 20
260.568625
 30
0.0
  0
SPLINE
  5
1bb
100
AcDbEntity
  8
0
 62
7
100
AcDbSpline
 70
8
 71
3
 72
8
 73
4
 74
0
 40
0
 40
0
 40
0
 40
0
 40
1
 40
1
 40
1
 40
1
 10
323.752184
 20
260.568625
 30
0.0
 10
324.125881
 20
262.370253
 30
0.0
 10
326.665114
 20
268.751420
 30
0.0
 10
328.423217
 20
272.307103
 30
0.0
  0
LWPOLYLINE
  5
1bc
100
AcDbEntity
  8
0
 62
7
100
AcDbPolyline
 90
3
 70
0
 10
328.636286
 20
228.114304
 30
0.0
 10
328.305848
 20
236.802718
 30
0.0
 10
326.899746
 20
238.697638
 30
0.0
  0
SPLINE
  5
1bd
100
AcDbEntity
  8
0
 62
7
100
AcDbSpline
 70
8
 71
3
 72
8
 73
4
 74
0
 40
0
 40
0
 40
0
 40
0
 40
1
 40
1
 40
1
 40
1
 10
328.524632
 20
275.651992
 30
0.0
 10
326.116447
 20
278.932561
 30
0.0
 10
326.163411
 20
281.054572
 30
0.0
 10
328.729525
 20
284.910292
 30
0.0
  0
SPLINE
  5
1be
100
AcDbEntity
  8
0
 62
7
100
AcDbSpline
 70
8
 71
3
 72
8
 73
4
 74
0
 40
0
 40
0
 40
0
 40
0
 40
1
 40
1
 40
1
 40
1
 10
328.729525
 20
284.910292
 30
0.0
 10
329.165347
 20
285.565136
 30
0.0
 10
331.238384
 20
287.834520
 30
0.0
 10
333.336291
 20
289.953356
 30
0.0
  0
LWPOLYLINE
  5
1bf
100
AcDbEntity
  8
0
 62
7
100
AcDbPolyline
 90
3
 70
0
 10
328.423217
 20
272.307103
 30
0.0
 10
329.452235
 20
274.388315
 30
0.0
 10
328.524632
 20
275.651992
 30
0.0
  0
SPLINE
  5
1c0
100
AcDbEntity
  8
0
 62
7
100
AcDbSpline
 70
8
 71
3
 72
8
 73
4
 74
0
 40
0
 40
0
 40
0
 40
0
 40
1
 40
1
 40
1
 40
1
 10
336.606727
 20
296.832523
 30
0.0
 10
335.843774
 20
301.077789
 30
0.0
 10
334.972104
 20
311.134469
 30
0.0
 10
335.025683
 20
315.072792
 30
0.0
  0
LWPOLYLINE
  5
1c1
100
AcDbEntity
  8
0
 62
7
100
AcDbPolyline
 90
3
 70
0
 10
333.336291
 20
289.953356
 30
0.0
 10
337.150657
 20
293.805822
 30
0.0
 10
336.606727
 20
296.832523
 30
0.0
  0
SPLINE
  5
1c2
100
AcDbEntity
  8
0
 62
7
100
AcDbSpline
 70
8
 71
3
 72
8
 73
4
 74
0
 40
0
 40
0
 40
0
 40
0
 40
1
 40
1
 40
1
 40
1
 10
332.644776
 20
325.391542
 30
0.0
 10
331.310509
 20
329.247844
 30
0.0
 10
329.986693
 20
333.366983
 30
0.0
 10
329.702954
 20
334.545173
 30
0.0
  0
SPLINE
  5
1c3
100
AcDbEntity
  8
0
 62
7
100
AcDbSpline
 70
8
 71
3
 72
8
 73
4
 74
0
 40
0
 40
0
 40
0
 40
0
 40
1
 40
1
 40
1
 40
1
 10
329.702954
 20
334.545173
 30
0.0
 10
329.419215
 20
335.723389
 30
0.0
 10
328.949076
 20
337.379125
 30
0.0
 10
328.658194
 20
338.224627
 30
0.0
  0
SPLINE
  5
1c4
100
AcDbEntity
  8
0
 62
7
100
AcDbSpline
 70
8
 71
3
 72
8
 73
4
 74
0
 40
0
 40
0
 40
0
 40
0
 40
1
 40
1
 40
1
 40
1
 10
328.658194
 20
338.224627
 30
0.0
 10
328.367284
 20
339.070103
 30
0.0
 10
328.129291
 20
339.981381
 30
0.0
 10
328.129291
 20
340.249642
 30
0.0
  0
SPLINE
  5
1c5
100
AcDbEntity
  8
0
 62
7
100
AcDbSpline
 70
8
 71
3
 72
8
 73
4
 74
0
 40
0
 40
0
 40
0
 40
0
 40
1
 40
1
 40
1
 40
1
 10
328.129291
 20
340.249642
 30
0.0
 10
328.129291
 20
340.517877
 30
0.0
 10
328.024305
 20
340.737375
 30
0.0
 10
327.896008
 20
340.737375
 30
0.0
  0
SPLINE
  5
1c6
100
AcDbEntity
  8
0
 62
7
100
AcDbSpline
 70
8
 71
3
 72
8
 73
4
 74
0
 40
0
 40
0
 40
0
 40
0
 40
1
 40
1
 40
1
 40
1
 10
327.896008
 20
340.737375
 30
0.0
 10
327.767685
 20
340.737375
 30
0.0
 10
327.579858
 20
339.695578
 30
0.0
 10
327.478575
 20
338.422271
 30
0.0
  0
SPLINE
  5
1c7
100
AcDbEntity
  8
0
 62
7
100
AcDbSpline
 70
8
 71
3
 72
8
 73
4
 74
0
 40
0
 40
0
 40
0
 40
0
 40
1
 40
1
 40
1
 40
1
 10
327.478575
 20
338.422271
 30
0.0
 10
327.294055
 20
336.101955
 30
0.0
 10
326.303693
 20
329.592596
 30
0.0
 10
325.757725
 20
327.111334
 30
0.0
  0
SPLINE
  5
1c8
100
AcDbEntity
  8
0
 62
7
100
AcDbSpline
 70
8
 71
3
 72
8
 73
4
 74
0
 40
0
 40
0
 40
0
 40
0
 40
1
 40
1
 40
1
 40
1
 10
325.757725
 20
327.111334
 30
0.0
 10
325.046472
 20
323.878945
 30
0.0
 10
323.292232
 20
319.637516
 30
0.0
 10
321.925368
 20
317.845493
 30
0.0
  0
SPLINE
  5
1c9
100
AcDbEntity
  8
0
 62
7
100
AcDbSpline
 70
8
 71
3
 72
8
 73
4
 74
0
 40
0
 40
0
 40
0
 40
0
 40
1
 40
1
 40
1
 40
1
 10
321.925368
 20
317.845493
 30
0.0
 10
321.565376
 20
317.373503
 30
0.0
 10
321.063382
 20
316.467252
 30
0.0
 10
320.809858
 20
315.831617
 30
0.0
  0
SPLINE
  5
1ca
100
AcDbEntity
  8
0
 62
7
100
AcDbSpline
 70
8
 71
3
 72
8
 73
4
 74
0
 40
0
 40
0
 40
0
 40
0
 40
1
 40
1
 40
1
 40
1
 10
320.809858
 20
315.831617
 30
0.0
 10
320.024072
 20
313.861556
 30
0.0
 10
316.984909
 20
308.930622
 30
0.0
 10
315.728720
 20
307.587650
 30
0.0
  0
SPLINE
  5
1cb
100
AcDbEntity
  8
0
 62
7
100
AcDbSpline
 70
8
 71
3
 72
8
 73
4
 74
0
 40
0
 40
0
 40
0
 40
0
 40
1
 40
1
 40
1
 40
1
 10
315.728720
 20
307.587650
 30
0.0
 10
315.071046
 20
306.884546
 30
0.0
 10
313.782101
 20
305.823699
 30
0.0
 10
312.864447
 20
305.230212
 30
0.0
  0
SPLINE
  5
1cc
100
AcDbEntity
  8
0
 62
7
100
AcDbSpline
 70
8
 71
3
 72
8
 73
4
 74
0
 40
0
 40
0
 40
0
 40
0
 40
1
 40
1
 40
1
 40
1
 10
312.864447
 20
305.230212
 30
0.0
 10
311.946766
 20
304.636752
 30
0.0
 10
311.195958
 20
304.105866
 30
0.0
 10
311.195958
 20
304.050488
 30
0.0
  0
SPLINE
  5
1cd
100
AcDbEntity
  8
0
 62
7
100
AcDbSpline
 70
8
 71
3
 72
8
 73
4
 74
0
 40
0
 40
0
 40
0
 40
0
 40
1
 40
1
 40
1
 40
1
 10
311.195958
 20
304.050488
 30
0.0
 10
311.195958
 20
303.995085
 30
0.0
 10
311.512003
 20
303.449143
 30
0.0
 10
311.898268
 20
302.837241
 30
0.0
  0
SPLINE
  5
1ce
100
AcDbEntity
  8
0
 62
7
100
AcDbSpline
 70
8
 71
3
 72
8
 73
4
 74
0
 40
0
 40
0
 40
0
 40
0
 40
1
 40
1
 40
1
 40
1
 10
311.898268
 20
302.837241
 30
0.0
 10
313.825996
 20
299.783526
 30
0.0
 10
314.559976
 20
296.284121
 30
0.0
 10
313.864493
 20
293.463080
 30
0.0
  0
SPLINE
  5
1cf
100
AcDbEntity
  8
0
 62
7
100
AcDbSpline
 70
8
 71
3
 72
8
 73
4
 74
0
 40
0
 40
0
 40
0
 40
0
 40
1
 40
1
 40
1
 40
1
 10
313.864493
 20
293.463080
 30
0.0
 10
313.332151
 20
291.303922
 30
0.0
 10
311.308380
 20
287.539033
 30
0.0
 10
309.376286
 20
285.113518
 30
0.0
  0
SPLINE
  5
1d0
100
AcDbEntity
  8
0
 62
7
100
AcDbSpline
 70
8
 71
3
 72
8
 73
4
 74
0
 40
0
 40
0
 40
0
 40
0
 40
1
 40
1
 40
1
 40
1
 10
309.376286
 20
285.113518
 30
0.0
 10
308.364096
 20
283.842830
 30
0.0
 10
307.465677
 20
282.473612
 30
0.0
 10
307.379793
 20
282.070810
 30
0.0
  0
SPLINE
  5
1d1
100
AcDbEntity
  8
0
 62
7
100
AcDbSpline
 70
8
 71
3
 72
8
 73
4
 74
0
 40
0
 40
0
 40
0
 40
0
 40
1
 40
1
 40
1
 40
1
 10
307.379793
 20
282.070810
 30
0.0
 10
307.158681
 20
281.033696
 30
0.0
 10
306.434067
 20
271.088062
 30
0.0
 10
306.433749
 20
269.085827
 30
0.0
  0
SPLINE
  5
1d2
100
AcDbEntity
  8
0
 62
7
100
AcDbSpline
 70
8
 71
3
 72
8
 73
4
 74
0
 40
0
 40
0
 40
0
 40
0
 40
1
 40
1
 40
1
 40
1
 10
306.433749
 20
269.085827
 30
0.0
 10
306.433538
 20
267.840328
 30
0.0
 10
306.349506
 20
267.457767
 30
0.0
 10
306.102729
 20
267.578840
 30
0.0
  0
SPLINE
  5
1d3
100
AcDbEntity
  8
0
 62
7
100
AcDbSpline
 70
8
 71
3
 72
8
 73
4
 74
0
 40
0
 40
0
 40
0
 40
0
 40
1
 40
1
 40
1
 40
1
 10
306.102729
 20
267.578840
 30
0.0
 10
305.920828
 20
267.668084
 30
0.0
 10
306.367312
 20
267.230939
 30
0.0
 10
307.094916
 20
266.607369
 30
0.0
  0
SPLINE
  5
1d4
100
AcDbEntity
  8
0
 62
7
100
AcDbSpline
 70
8
 71
3
 72
8
 73
4
 74
0
 40
0
 40
0
 40
0
 40
0
 40
1
 40
1
 40
1
 40
1
 10
307.094916
 20
266.607369
 30
0.0
 10
307.822521
 20
265.983826
 30
0.0
 10
309.772129
 20
264.102109
 30
0.0
 10
311.427389
 20
262.425815
 30
0.0
  0
SPLINE
  5
1d5
100
AcDbEntity
  8
0
 62
7
100
AcDbSpline
 70
8
 71
3
 72
8
 73
4
 74
0
 40
0
 40
0
 40
0
 40
0
 40
1
 40
1
 40
1
 40
1
 10
311.427389
 20
262.425815
 30
0.0
 10
313.725772
 20
260.098196
 30
0.0
 10
314.606570
 20
259.002874
 30
0.0
 10
315.154839
 20
257.790500
 30
0.0
  0
SPLINE
  5
1d6
100
AcDbEntity
  8
0
 62
7
100
AcDbSpline
 70
8
 71
3
 72
8
 73
4
 74
0
 40
0
 40
0
 40
0
 40
0
 40
1
 40
1
 40
1
 40
1
 10
315.154839
 20
257.790500
 30
0.0
 10
317.287487
 20
253.074673
 30
0.0
 10
317.215943
 20
248.703809
 30
0.0
 10
314.932827
 20
244.228594
 30
0.0
  0
SPLINE
  5
1d7
100
AcDbEntity
  8
0
 62
7
100
AcDbSpline
 70
8
 71
3
 72
8
 73
4
 74
0
 40
0
 40
0
 40
0
 40
0
 40
1
 40
1
 40
1
 40
1
 10
314.932827
 20
244.228594
 30
0.0
 10
314.628424
 20
243.631905
 30
0.0
 10
314.157889
 20
242.335209
 30
0.0
 10
313.887194
 20
241.347016
 30
0.0
  0
LWPOLYLINE
  5
1d8
100
AcDbEntity
  8
0
 62
7
100
AcDbPolyline
 90
3
 70
0
 10
335.025683
 20
315.072792
 30
0.0
 10
335.070715
 20
318.380084
 30
0.0
 10
332.644776
 20
325.391542
 30
0.0
  0
SPLINE
  5
1d9
100
AcDbEntity
  8
0
 62
7
100
AcDbSpline
 70
8
 71
3
 72
8
 73
4
 74
0
 40
0
 40
0
 40
0
 40
0
 40
1
 40
1
 40
1
 40
1
 10
314.666789
 20
237.932039
 30
0.0
 10
316.080087
 20
236.133640
 30
0.0
 10
316.487625
 20
235.264828
 30
0.0
 10
316.487625
 20
234.050179
 30
0.0
  0
SPLINE
  5
1da
100
AcDbEntity
  8
0
 62
7
100
AcDbSpline
 70
8
 71
3
 72
8
 73
4
 74
0
 40
0
 40
0
 40
0
 40
0
 40
1
 40
1
 40
1
 40
1
 10
316.487625
 20
234.050179
 30
0.0
 10
316.487625
 20
232.996899
 30
0.0
 10
315.434689
 20
231.203394
 30
0.0
 10
314.317936
 20
230.354452
 30
0.0
  0
SPLINE
  5
1db
100
AcDbEntity
  8
0
 62
7
100
AcDbSpline
 70
8
 71
3
 72
8
 73
4
 74
0
 40
0
 40
0
 40
0
 40
0
 40
1
 40
1
 40
1
 40
1
 10
314.317936
 20
230.354452
 30
0.0
 10
312.638943
 20
229.078129
 30
0.0
 10
311.829715
 20
228.820001
 30
0.0
 10
308.956366
 20
228.644185
 30
0.0
  0
LWPOLYLINE
  5
1dc
100
AcDbEntity
  8
0
 62
7
100
AcDbPolyline
 90
3
 70
0
 10
313.887194
 20
241.347016
 30
0.0
 10
313.395016
 20
239.550337
 30
0.0
 10
314.666789
 20
237.932039
 30
0.0
  0
SPLINE
  5
1dd
100
AcDbEntity
  8
0
 62
7
100
AcDbSpline
 70
8
 71
3
 72
8
 73
4
 74
0
 40
0
 40
0
 40
0
 40
0
 40
1
 40
1
 40
1
 40
1
 10
306.163319
 20
226.992471
 30
0.0
 10
306.150354
 20
223.509761
 30
0.0
 10
304.618046
 20
219.893780
 30
0.0
 10
302.791045
 20
219.034413
 30
0.0
  0
SPLINE
  5
1de
100
AcDbEntity
  8
0
 62
7
100
AcDbSpline
 70
8
 71
3
 72
8
 73
4
 74
0
 40
0
 40
0
 40
0
 40
0
 40
1
 40
1
 40
1
 40
1
 10
302.791045
 20
219.034413
 30
0.0
 10
301.630821
 20
218.488683
 30
0.0
 10
298.564538
 20
218.390840
 30
0.0
 10
296.838635
 20
218.844469
 30
0.0
  0
SPLINE
  5
1df
100
AcDbEntity
  8
0
 62
7
100
AcDbSpline
 70
8
 71
3
 72
8
 73
4
 74
0
 40
0
 40
0
 40
0
 40
0
 40
1
 40
1
 40
1
 40
1
 10
296.838635
 20
218.844469
 30
0.0
 10
295.438883
 20
219.212372
 30
0.0
 10
295.294209
 20
219.209250
 30
0.0
 10
295.076986
 20
218.806421
 30
0.0
  0
SPLINE
  5
1e0
100
AcDbEntity
  8
0
 62
7
100
AcDbSpline
 70
8
 71
3
 72
8
 73
4
 74
0
 40
0
 40
0
 40
0
 40
0
 40
1
 40
1
 40
1
 40
1
 10
295.076986
 20
218.806421
 30
0.0
 10
281.625913
 20
193.863410
 30
0.0
 10
265.707257
 20
164.852773
 30
0.0
 10
265.549750
 20
164.995093
 30
0.0
  0
SPLINE
  5
1e1
100
AcDbEntity
  8
0
 62
7
100
AcDbSpline
 70
8
 71
3
 72
8
 73
4
 74
0
 40
0
 40
0
 40
0
 40
0
 40
1
 40
1
 40
1
 40
1
 10
265.549750
 20
164.995093
 30
0.0
 10
265.433387
 20
165.100291
 30
0.0
 10
265.408463
 20
165.062323
 30
0.0
 10
265.494426
 20
164.910744
 30
0.0
  0
SPLINE
  5
1e2
100
AcDbEntity
  8
0
 62
7
100
AcDbSpline
 70
8
 71
3
 72
8
 73
4
 74
0
 40
0
 40
0
 40
0
 40
0
 40
1
 40
1
 40
1
 40
1
 10
265.494426
 20
164.910744
 30
0.0
 10
265.663839
 20
164.611923
 30
0.0
 10
260.828282
 20
155.449455
 30
0.0
 10
260.614155
 20
155.663582
 30
0.0
  0
SPLINE
  5
1e3
100
AcDbEntity
  8
0
 62
7
100
AcDbSpline
 70
8
 71
3
 72
8
 73
4
 74
0
 40
0
 40
0
 40
0
 40
0
 40
1
 40
1
 40
1
 40
1
 10
260.614155
 20
155.663582
 30
0.0
 10
260.542638
 20
155.735099
 30
0.0
 10
260.484112
 20
155.638182
 30
0.0
 10
260.484112
 20
155.447974
 30
0.0
  0
SPLINE
  5
1e4
100
AcDbEntity
  8
0
 62
7
100
AcDbSpline
 70
8
 71
3
 72
8
 73
4
 74
0
 40
0
 40
0
 40
0
 40
0
 40
1
 40
1
 40
1
 40
1
 10
260.484112
 20
155.447974
 30
0.0
 10
260.484112
 20
155.257870
 30
0.0
 10
258.648565
 20
151.724942
 30
0.0
 10
256.405110
 20
147.596992
 30
0.0
  0
SPLINE
  5
1e5
100
AcDbEntity
  8
0
 62
7
100
AcDbSpline
 70
8
 71
3
 72
8
 73
4
 74
0
 40
0
 40
0
 40
0
 40
0
 40
1
 40
1
 40
1
 40
1
 10
256.405110
 20
147.596992
 30
0.0
 10
254.161655
 20
143.469042
 30
0.0
 10
252.280441
 20
139.975167
 30
0.0
 10
252.224588
 20
139.832821
 30
0.0
  0
SPLINE
  5
1e6
100
AcDbEntity
  8
0
 62
7
100
AcDbSpline
 70
8
 71
3
 72
8
 73
4
 74
0
 40
0
 40
0
 40
0
 40
0
 40
1
 40
1
 40
1
 40
1
 10
252.224588
 20
139.832821
 30
0.0
 10
252.105763
 20
139.529926
 30
0.0
 10
257.652594
 20
139.753340
 30
0.0
 10
264.629239
 20
140.332407
 30
0.0
  0
LWPOLYLINE
  5
1e7
100
AcDbEntity
  8
0
 62
7
100
AcDbPolyline
 90
3
 70
0
 10
308.956366
 20
228.644185
 30
0.0
 10
306.168875
 20
228.473635
 30
0.0
 10
306.163319
 20
226.992471
 30
0.0
  0
LWPOLYLINE
  5
1e8
100
AcDbEntity
  8
0
 62
7
100
AcDbPolyline
 90
1
 70
1
 10
264.629239
 20
140.332407
 30
0.0
  0
SPLINE
  5
1e9
100
AcDbEntity
  8
0
 62
7
100
AcDbSpline
 70
8
 71
3
 72
8
 73
4
 74
0
 40
0
 40
0
 40
0
 40
0
 40
1
 40
1
 40
1
 40
1
 10
288.789586
 20
222.066247
 30
0.0
 10
286.939673
 20
223.412711
 30
0.0
 10
284.414542
 20
225.783854
 30
0.0
 10
284.030235
 20
226.535377
 30
0.0
  0
SPLINE
  5
1ea
100
AcDbEntity
  8
0
 62
7
100
AcDbSpline
 70
8
 71
3
 72
8
 73
4
 74
0
 40
0
 40
0
 40
0
 40
0
 40
1
 40
1
 40
1
 40
1
 10
284.030235
 20
226.535377
 30
0.0
 10
283.797349
 20
226.990804
 30
0.0
 10
283.287549
 20
227.780136
 30
0.0
 10
282.897368
 20
228.289459
 30
0.0
  0
SPLINE
  5
1eb
100
AcDbEntity
  8
0
 62
7
100
AcDbSpline
 70
8
 71
3
 72
8
 73
4
 74
0
 40
0
 40
0
 40
0
 40
0
 40
1
 40
1
 40
1
 40
1
 10
282.897368
 20
228.289459
 30
0.0
 10
282.507187
 20
228.798781
 30
0.0
 10
281.794268
 20
229.929875
 30
0.0
 10
281.313096
 20
230.803000
 30
0.0
  0
SPLINE
  5
1ec
100
AcDbEntity
  8
0
 62
7
100
AcDbSpline
 70
8
 71
3
 72
8
 73
4
 74
0
 40
0
 40
0
 40
0
 40
0
 40
1
 40
1
 40
1
 40
1
 10
281.313096
 20
230.803000
 30
0.0
 10
280.831951
 20
231.676125
 30
0.0
 10
279.937078
 20
232.985813
 30
0.0
 10
279.324514
 20
233.713417
 30
0.0
  0
SPLINE
  5
1ed
100
AcDbEntity
  8
0
 62
7
100
AcDbSpline
 70
8
 71
3
 72
8
 73
4
 74
0
 40
0
 40
0
 40
0
 40
0
 40
1
 40
1
 40
1
 40
1
 10
279.324514
 20
233.713417
 30
0.0
 10
277.711270
 20
235.629609
 30
0.0
 10
276.901619
 20
237.154138
 30
0.0
 10
276.303370
 20
239.401959
 30
0.0
  0
SPLINE
  5
1ee
100
AcDbEntity
  8
0
 62
7
100
AcDbSpline
 70
8
 71
3
 72
8
 73
4
 74
0
 40
0
 40
0
 40
0
 40
0
 40
1
 40
1
 40
1
 40
1
 10
276.303370
 20
239.401959
 30
0.0
 10
275.701681
 20
241.662770
 30
0.0
 10
275.110654
 20
246.789601
 30
0.0
 10
275.331502
 20
247.832615
 30
0.0
  0
SPLINE
  5
1ef
100
AcDbEntity
  8
0
 62
7
100
AcDbSpline
 70
8
 71
3
 72
8
 73
4
 74
0
 40
0
 40
0
 40
0
 40
0
 40
1
 40
1
 40
1
 40
1
 10
275.331502
 20
247.832615
 30
0.0
 10
275.412703
 20
248.216235
 30
0.0
 10
275.531898
 20
251.328052
 30
0.0
 10
275.596324
 20
254.747792
 30
0.0
  0
SPLINE
  5
1f0
100
AcDbEntity
  8
0
 62
7
100
AcDbSpline
 70
8
 71
3
 72
8
 73
4
 74
0
 40
0
 40
0
 40
0
 40
0
 40
1
 40
1
 40
1
 40
1
 10
275.596324
 20
254.747792
 30
0.0
 10
275.711073
 20
260.837071
 30
0.0
 10
275.730150
 20
261.014210
 30
0.0
 10
276.519164
 20
263.323652
 30
0.0
  0
SPLINE
  5
1f1
100
AcDbEntity
  8
0
 62
7
100
AcDbSpline
 70
8
 71
3
 72
8
 73
4
 74
0
 40
0
 40
0
 40
0
 40
0
 40
1
 40
1
 40
1
 40
1
 10
276.519164
 20
263.323652
 30
0.0
 10
276.962288
 20
264.620613
 30
0.0
 10
277.493333
 20
265.938953
 30
0.0
 10
277.699258
 20
266.253225
 30
0.0
  0
SPLINE
  5
1f2
100
AcDbEntity
  8
0
 62
7
100
AcDbSpline
 70
8
 71
3
 72
8
 73
4
 74
0
 40
0
 40
0
 40
0
 40
0
 40
1
 40
1
 40
1
 40
1
 10
277.699258
 20
266.253225
 30
0.0
 10
277.905184
 20
266.567523
 30
0.0
 10
278.216783
 20
268.006671
 30
0.0
 10
278.391673
 20
269.451349
 30
0.0
  0
SPLINE
  5
1f3
100
AcDbEntity
  8
0
 62
7
100
AcDbSpline
 70
8
 71
3
 72
8
 73
4
 74
0
 40
0
 40
0
 40
0
 40
0
 40
1
 40
1
 40
1
 40
1
 10
278.391673
 20
269.451349
 30
0.0
 10
279.557692
 20
279.082791
 30
0.0
 10
282.159128
 20
294.532341
 30
0.0
 10
282.785555
 20
295.545880
 30
0.0
  0
SPLINE
  5
1f4
100
AcDbEntity
  8
0
 62
7
100
AcDbSpline
 70
8
 71
3
 72
8
 73
4
 74
0
 40
0
 40
0
 40
0
 40
0
 40
1
 40
1
 40
1
 40
1
 10
282.785555
 20
295.545880
 30
0.0
 10
282.864190
 20
295.673119
 30
0.0
 10
282.567645
 20
296.339578
 30
0.0
 10
282.126584
 20
297.026886
 30
0.0
  0
SPLINE
  5
1f5
100
AcDbEntity
  8
0
 62
7
100
AcDbSpline
 70
8
 71
3
 72
8
 73
4
 74
0
 40
0
 40
0
 40
0
 40
0
 40
1
 40
1
 40
1
 40
1
 10
282.126584
 20
297.026886
 30
0.0
 10
280.947760
 20
298.863967
 30
0.0
 10
280.172663
 20
300.757246
 30
0.0
 10
280.308500
 20
301.467890
 30
0.0
  0
SPLINE
  5
1f6
100
AcDbEntity
  8
0
 62
7
100
AcDbSpline
 70
8
 71
3
 72
8
 73
4
 74
0
 40
0
 40
0
 40
0
 40
0
 40
1
 40
1
 40
1
 40
1
 10
280.308500
 20
301.467890
 30
0.0
 10
280.374143
 20
301.811267
 30
0.0
 10
280.325962
 20
302.029230
 30
0.0
 10
280.201476
 20
301.952290
 30
0.0
  0
SPLINE
  5
1f7
100
AcDbEntity
  8
0
 62
7
100
AcDbSpline
 70
8
 71
3
 72
8
 73
4
 74
0
 40
0
 40
0
 40
0
 40
0
 40
1
 40
1
 40
1
 40
1
 10
280.201476
 20
301.952290
 30
0.0
 10
280.076989
 20
301.875349
 30
0.0
 10
279.975125
 20
302.709871
 30
0.0
 10
279.975125
 20
303.806807
 30
0.0
  0
SPLINE
  5
1f8
100
AcDbEntity
  8
0
 62
7
100
AcDbSpline
 70
8
 71
3
 72
8
 73
4
 74
0
 40
0
 40
0
 40
0
 40
0
 40
1
 40
1
 40
1
 40
1
 10
279.975125
 20
303.806807
 30
0.0
 10
279.975125
 20
306.039520
 30
0.0
 10
279.424209
 20
307.950023
 30
0.0
 10
277.442560
 20
312.589519
 30
0.0
  0
SPLINE
  5
1f9
100
AcDbEntity
  8
0
 62
7
100
AcDbSpline
 70
8
 71
3
 72
8
 73
4
 74
0
 40
0
 40
0
 40
0
 40
0
 40
1
 40
1
 40
1
 40
1
 10
277.442560
 20
312.589519
 30
0.0
 10
275.439823
 20
317.278411
 30
0.0
 10
275.130710
 20
319.370551
 30
0.0
 10
275.759201
 20
323.983324
 30
0.0
  0
SPLINE
  5
1fa
100
AcDbEntity
  8
0
 62
7
100
AcDbSpline
 70
8
 71
3
 72
8
 73
4
 74
0
 40
0
 40
0
 40
0
 40
0
 40
1
 40
1
 40
1
 40
1
 10
275.759201
 20
323.983324
 30
0.0
 10
276.583696
 20
330.034821
 30
0.0
 10
278.675703
 20
335.319449
 30
0.0
 10
281.441366
 20
338.336969
 30
0.0
  0
SPLINE
  5
1fb
100
AcDbEntity
  8
0
 62
7
100
AcDbSpline
 70
8
 71
3
 72
8
 73
4
 74
0
 40
0
 40
0
 40
0
 40
0
 40
1
 40
1
 40
1
 40
1
 10
281.441366
 20
338.336969
 30
0.0
 10
282.575529
 20
339.574399
 30
0.0
 10
282.761849
 20
339.917617
 30
0.0
 10
282.600903
 20
340.472792
 30
0.0
  0
SPLINE
  5
1fc
100
AcDbEntity
  8
0
 62
7
100
AcDbSpline
 70
8
 71
3
 72
8
 73
4
 74
0
 40
0
 40
0
 40
0
 40
0
 40
1
 40
1
 40
1
 40
1
 10
282.600903
 20
340.472792
 30
0.0
 10
282.495413
 20
340.836594
 30
0.0
 10
282.397253
 20
342.667325
 30
0.0
 10
282.382754
 20
344.541078
 30
0.0
  0
SPLINE
  5
1fd
100
AcDbEntity
  8
0
 62
7
100
AcDbSpline
 70
8
 71
3
 72
8
 73
4
 74
0
 40
0
 40
0
 40
0
 40
0
 40
1
 40
1
 40
1
 40
1
 10
282.382754
 20
344.541078
 30
0.0
 10
282.362910
 20
347.116770
 30
0.0
 10
282.490651
 20
348.536842
 30
0.0
 10
282.906735
 20
350.361911
 30
0.0
  0
SPLINE
  5
1fe
100
AcDbEntity
  8
0
 62
7
100
AcDbSpline
 70
8
 71
3
 72
8
 73
4
 74
0
 40
0
 40
0
 40
0
 40
0
 40
1
 40
1
 40
1
 40
1
 10
282.906735
 20
350.361911
 30
0.0
 10
283.677175
 20
353.741355
 30
0.0
 10
283.945436
 20
354.389293
 30
0.0
 10
287.063524
 20
360.402188
 30
0.0
  0
SPLINE
  5
1ff
100
AcDbEntity
  8
0
 62
7
100
AcDbSpline
 70
8
 71
3
 72
8
 73
4
 74
0
 40
0
 40
0
 40
0
 40
0
 40
1
 40
1
 40
1
 40
1
 10
287.063524
 20
360.402188
 30
0.0
 10
290.312237
 20
366.666965
 30
0.0
 10
291.289184
 20
369.403709
 30
0.0
 10
293.880593
 20
379.498836
 30
0.0
  0
SPLINE
  5
200
100
AcDbEntity
  8
0
 62
7
100
AcDbSpline
 70
8
 71
3
 72
8
 73
4
 74
0
 40
0
 40
0
 40
0
 40
0
 40
1
 40
1
 40
1
 40
1
 10
293.880593
 20
379.498836
 30
0.0
 10
294.515619
 20
381.972690
 30
0.0
 10
295.326885
 20
384.849267
 30
0.0
 10
295.683411
 20
385.891275
 30
0.0
  0
LWPOLYLINE
  5
201
100
AcDbEntity
  8
0
 62
7
100
AcDbPolyline
 90
3
 70
0
 10
267.820484
 20
180.817441
 30
0.0
 10
289.524175
 20
221.531550
 30
0.0
 10
288.789586
 20
222.066247
 30
0.0
  0
SPLINE
  5
202
100
AcDbEntity
  8
0
 62
7
100
AcDbSpline
 70
8
 71
3
 72
8
 73
4
 74
0
 40
0
 40
0
 40
0
 40
0
 40
1
 40
1
 40
1
 40
1
 10
292.971564
 20
391.050650
 30
0.0
 10
289.204585
 20
394.710843
 30
0.0
 10
287.283472
 20
397.005892
 30
0.0
 10
285.324762
 20
400.185840
 30
0.0
  0
SPLINE
  5
203
100
AcDbEntity
  8
0
 62
7
100
AcDbSpline
 70
8
 71
3
 72
8
 73
4
 74
0
 40
0
 40
0
 40
0
 40
0
 40
1
 40
1
 40
1
 40
1
 10
285.324762
 20
400.185840
 30
0.0
 10
283.935461
 20
402.441386
 30
0.0
 10
282.257791
 20
406.138991
 30
0.0
 10
281.962886
 20
407.595522
 30
0.0
  0
SPLINE
  5
204
100
AcDbEntity
  8
0
 62
7
100
AcDbSpline
 70
8
 71
3
 72
8
 73
4
 74
0
 40
0
 40
0
 40
0
 40
0
 40
1
 40
1
 40
1
 40
1
 10
281.962886
 20
407.595522
 30
0.0
 10
281.828134
 20
408.261055
 30
0.0
 10
281.501136
 20
408.605728
 30
0.0
 10
280.420471
 20
409.221228
 30
0.0
  0
SPLINE
  5
205
100
AcDbEntity
  8
0
 62
7
100
AcDbSpline
 70
8
 71
3
 72
8
 73
4
 74
0
 40
0
 40
0
 40
0
 40
0
 40
1
 40
1
 40
1
 40
1
 10
280.420471
 20
409.221228
 30
0.0
 10
277.897378
 20
410.658339
 30
0.0
 10
274.735660
 20
413.223422
 30
0.0
 10
272.450983
 20
415.686878
 30
0.0
  0
SPLINE
  5
206
100
AcDbEntity
  8
0
 62
7
100
AcDbSpline
 70
8
 71
3
 72
8
 73
4
 74
0
 40
0
 40
0
 40
0
 40
0
 40
1
 40
1
 40
1
 40
1
 10
272.450983
 20
415.686878
 30
0.0
 10
269.963344
 20
418.369171
 30
0.0
 10
269.774961
 20
418.335092
 30
0.0
 10
270.588317
 20
415.349878
 30
0.0
  0
SPLINE
  5
207
100
AcDbEntity
  8
0
 62
7
100
AcDbSpline
 70
8
 71
3
 72
8
 73
4
 74
0
 40
0
 40
0
 40
0
 40
0
 40
1
 40
1
 40
1
 40
1
 10
270.588317
 20
415.349878
 30
0.0
 10
270.806360
 20
414.549513
 30
0.0
 10
271.416886
 20
411.156232
 30
0.0
 10
271.945021
 20
407.809253
 30
0.0
  0
SPLINE
  5
208
100
AcDbEntity
  8
0
 62
7
100
AcDbSpline
 70
8
 71
3
 72
8
 73
4
 74
0
 40
0
 40
0
 40
0
 40
0
 40
1
 40
1
 40
1
 40
1
 10
271.945021
 20
407.809253
 30
0.0
 10
272.842461
 20
402.121611
 30
0.0
 10
272.909004
 20
401.282776
 30
0.0
 10
272.962926
 20
394.976961
 30
0.0
  0
SPLINE
  5
209
100
AcDbEntity
  8
0
 62
7
100
AcDbSpline
 70
8
 71
3
 72
8
 73
4
 74
0
 40
0
 40
0
 40
0
 40
0
 40
1
 40
1
 40
1
 40
1
 10
272.962926
 20
394.976961
 30
0.0
 10
272.994649
 20
391.266180
 30
0.0
 10
273.151891
 20
387.613633
 30
0.0
 10
273.312387
 20
386.860206
 30
0.0
  0
SPLINE
  5
20a
100
AcDbEntity
  8
0
 62
7
100
AcDbSpline
 70
8
 71
3
 72
8
 73
4
 74
0
 40
0
 40
0
 40
0
 40
0
 40
1
 40
1
 40
1
 40
1
 10
273.312387
 20
386.860206
 30
0.0
 10
273.624754
 20
385.393621
 30
0.0
 10
274.286768
 20
378.043469
 30
0.0
 10
274.690364
 20
371.561336
 30
0.0
  0
SPLINE
  5
20b
100
AcDbEntity
  8
0
 62
7
100
AcDbSpline
 70
8
 71
3
 72
8
 73
4
 74
0
 40
0
 40
0
 40
0
 40
0
 40
1
 40
1
 40
1
 40
1
 10
274.690364
 20
371.561336
 30
0.0
 10
274.826254
 20
369.378521
 30
0.0
 10
275.117534
 20
365.866177
 30
0.0
 10
275.337640
 20
363.756125
 30
0.0
  0
SPLINE
  5
20c
100
AcDbEntity
  8
0
 62
7
100
AcDbSpline
 70
8
 71
3
 72
8
 73
4
 74
0
 40
0
 40
0
 40
0
 40
0
 40
1
 40
1
 40
1
 40
1
 10
275.337640
 20
363.756125
 30
0.0
 10
275.557747
 20
361.646073
 30
0.0
 10
275.913665
 20
357.717011
 30
0.0
 10
276.128612
 20
355.024875
 30
0.0
  0
SPLINE
  5
20d
100
AcDbEntity
  8
0
 62
7
100
AcDbSpline
 70
8
 71
3
 72
8
 73
4
 74
0
 40
0
 40
0
 40
0
 40
0
 40
1
 40
1
 40
1
 40
1
 10
276.128612
 20
355.024875
 30
0.0
 10
276.343533
 20
352.332740
 30
0.0
 10
276.652434
 20
348.571397
 30
0.0
 10
276.815021
 20
346.666344
 30
0.0
  0
SPLINE
  5
20e
100
AcDbEntity
  8
0
 62
7
100
AcDbSpline
 70
8
 71
3
 72
8
 73
4
 74
0
 40
0
 40
0
 40
0
 40
0
 40
1
 40
1
 40
1
 40
1
 10
276.815021
 20
346.666344
 30
0.0
 10
276.977634
 20
344.761264
 30
0.0
 10
277.070291
 20
341.189389
 30
0.0
 10
277.020946
 20
338.728844
 30
0.0
  0
SPLINE
  5
20f
100
AcDbEntity
  8
0
 62
7
100
AcDbSpline
 70
8
 71
3
 72
8
 73
4
 74
0
 40
0
 40
0
 40
0
 40
0
 40
1
 40
1
 40
1
 40
1
 10
277.020946
 20
338.728844
 30
0.0
 10
276.946307
 20
335.006527
 30
0.0
 10
276.847776
 20
334.086941
 30
0.0
 10
276.434418
 20
333.253980
 30
0.0
  0
SPLINE
  5
210
100
AcDbEntity
  8
0
 62
7
100
AcDbSpline
 70
8
 71
3
 72
8
 73
4
 74
0
 40
0
 40
0
 40
0
 40
0
 40
1
 40
1
 40
1
 40
1
 10
276.434418
 20
333.253980
 30
0.0
 10
275.983383
 20
332.345083
 30
0.0
 10
274.477850
 20
330.706174
 30
0.0
 10
273.293046
 20
329.834293
 30
0.0
  0
SPLINE
  5
211
100
AcDbEntity
  8
0
 62
7
100
AcDbSpline
 70
8
 71
3
 72
8
 73
4
 74
0
 40
0
 40
0
 40
0
 40
0
 40
1
 40
1
 40
1
 40
1
 10
273.293046
 20
329.834293
 30
0.0
 10
272.851906
 20
329.509649
 30
0.0
 10
272.861511
 20
329.234906
 30
0.0
 10
273.485372
 20
324.333209
 30
0.0
  0
SPLINE
  5
212
100
AcDbEntity
  8
0
 62
7
100
AcDbSpline
 70
8
 71
3
 72
8
 73
4
 74
0
 40
0
 40
0
 40
0
 40
0
 40
1
 40
1
 40
1
 40
1
 10
273.485372
 20
324.333209
 30
0.0
 10
274.199403
 20
318.723275
 30
0.0
 10
274.402973
 20
317.038196
 30
0.0
 10
275.211434
 20
310.045709
 30
0.0
  0
SPLINE
  5
213
100
AcDbEntity
  8
0
 62
7
100
AcDbSpline
 70
8
 71
3
 72
8
 73
4
 74
0
 40
0
 40
0
 40
0
 40
0
 40
1
 40
1
 40
1
 40
1
 10
275.211434
 20
310.045709
 30
0.0
 10
276.806554
 20
296.249090
 30
0.0
 10
276.806792
 20
288.272458
 30
0.0
 10
275.211434
 20
274.459250
 30
0.0
  0
SPLINE
  5
214
100
AcDbEntity
  8
0
 62
7
100
AcDbSpline
 70
8
 71
3
 72
8
 73
4
 74
0
 40
0
 40
0
 40
0
 40
0
 40
1
 40
1
 40
1
 40
1
 10
275.211434
 20
274.459250
 30
0.0
 10
274.925896
 20
271.985396
 30
0.0
 10
274.446524
 20
267.520552
 30
0.0
 10
274.146142
 20
264.537375
 30
0.0
  0
SPLINE
  5
215
100
AcDbEntity
  8
0
 62
7
100
AcDbSpline
 70
8
 71
3
 72
8
 73
4
 74
0
 40
0
 40
0
 40
0
 40
0
 40
1
 40
1
 40
1
 40
1
 10
274.146142
 20
264.537375
 30
0.0
 10
273.008222
 20
253.236571
 30
0.0
 10
270.175355
 20
230.301059
 30
0.0
 10
268.476148
 20
218.632167
 30
0.0
  0
SPLINE
  5
216
100
AcDbEntity
  8
0
 62
7
100
AcDbSpline
 70
8
 71
3
 72
8
 73
4
 74
0
 40
0
 40
0
 40
0
 40
0
 40
1
 40
1
 40
1
 40
1
 10
268.476148
 20
218.632167
 30
0.0
 10
267.840407
 20
214.266542
 30
0.0
 10
267.238718
 20
209.920761
 30
0.0
 10
267.138997
 20
208.974875
 30
0.0
  0
SPLINE
  5
217
100
AcDbEntity
  8
0
 62
7
100
AcDbSpline
 70
8
 71
3
 72
8
 73
4
 74
0
 40
0
 40
0
 40
0
 40
0
 40
1
 40
1
 40
1
 40
1
 10
267.138997
 20
208.974875
 30
0.0
 10
267.039275
 20
208.028990
 30
0.0
 10
266.742651
 20
206.302584
 30
0.0
 10
266.479840
 20
205.138417
 30
0.0
  0
SPLINE
  5
218
100
AcDbEntity
  8
0
 62
7
100
AcDbSpline
 70
8
 71
3
 72
8
 73
4
 74
0
 40
0
 40
0
 40
0
 40
0
 40
1
 40
1
 40
1
 40
1
 10
266.479840
 20
205.138417
 30
0.0
 10
266.217003
 20
203.974250
 30
0.0
 10
265.802904
 20
201.712063
 30
0.0
 10
265.559566
 20
200.111334
 30
0.0
  0
SPLINE
  5
219
100
AcDbEntity
  8
0
 62
7
100
AcDbSpline
 70
8
 71
3
 72
8
 73
4
 74
0
 40
0
 40
0
 40
0
 40
0
 40
1
 40
1
 40
1
 40
1
 10
265.559566
 20
200.111334
 30
0.0
 10
264.670117
 20
194.259888
 30
0.0
 10
261.760727
 20
184.172939
 30
0.0
 10
260.011963
 20
180.877580
 30
0.0
  0
SPLINE
  5
21a
100
AcDbEntity
  8
0
 62
7
100
AcDbSpline
 70
8
 71
3
 72
8
 73
4
 74
0
 40
0
 40
0
 40
0
 40
0
 40
1
 40
1
 40
1
 40
1
 10
260.011963
 20
180.877580
 30
0.0
 10
258.314423
 20
177.678741
 30
0.0
 10
257.988483
 20
176.530529
 30
0.0
 10
257.585628
 20
172.330084
 30
0.0
  0
SPLINE
  5
21b
100
AcDbEntity
  8
0
 62
7
100
AcDbSpline
 70
8
 71
3
 72
8
 73
4
 74
0
 40
0
 40
0
 40
0
 40
0
 40
1
 40
1
 40
1
 40
1
 10
257.585628
 20
172.330084
 30
0.0
 10
257.376263
 20
170.147271
 30
0.0
 10
257.042915
 20
167.944615
 30
0.0
 10
256.844848
 20
167.435292
 30
0.0
  0
SPLINE
  5
21c
100
AcDbEntity
  8
0
 62
7
100
AcDbSpline
 70
8
 71
3
 72
8
 73
4
 74
0
 40
0
 40
0
 40
0
 40
0
 40
1
 40
1
 40
1
 40
1
 10
256.844848
 20
167.435292
 30
0.0
 10
256.646781
 20
166.925969
 30
0.0
 10
255.502087
 20
163.532688
 30
0.0
 10
254.301091
 20
159.894667
 30
0.0
  0
SPLINE
  5
21d
100
AcDbEntity
  8
0
 62
7
100
AcDbSpline
 70
8
 71
3
 72
8
 73
4
 74
0
 40
0
 40
0
 40
0
 40
0
 40
1
 40
1
 40
1
 40
1
 10
254.301091
 20
159.894667
 30
0.0
 10
253.100094
 20
156.256646
 30
0.0
 10
251.646394
 20
152.208521
 30
0.0
 10
251.070634
 20
150.898834
 30
0.0
  0
SPLINE
  5
21e
100
AcDbEntity
  8
0
 62
7
100
AcDbSpline
 70
8
 71
3
 72
8
 73
4
 74
0
 40
0
 40
0
 40
0
 40
0
 40
1
 40
1
 40
1
 40
1
 10
251.070634
 20
150.898834
 30
0.0
 10
250.494874
 20
149.589146
 30
0.0
 10
249.661516
 20
147.684146
 30
0.0
 10
249.218709
 20
146.665500
 30
0.0
  0
SPLINE
  5
21f
100
AcDbEntity
  8
0
 62
7
100
AcDbSpline
 70
8
 71
3
 72
8
 73
4
 74
0
 40
0
 40
0
 40
0
 40
0
 40
1
 40
1
 40
1
 40
1
 10
249.218709
 20
146.665500
 30
0.0
 10
248.775903
 20
145.646854
 30
0.0
 10
248.146432
 20
144.456229
 30
0.0
 10
247.819884
 20
144.019667
 30
0.0
  0
SPLINE
  5
220
100
AcDbEntity
  8
0
 62
7
100
AcDbSpline
 70
8
 71
3
 72
8
 73
4
 74
0
 40
0
 40
0
 40
0
 40
0
 40
1
 40
1
 40
1
 40
1
 10
247.819884
 20
144.019667
 30
0.0
 10
246.909638
 20
142.802769
 30
0.0
 10
245.330604
 20
139.368398
 30
0.0
 10
245.946369
 20
139.944845
 30
0.0
  0
SPLINE
  5
221
100
AcDbEntity
  8
0
 62
7
100
AcDbSpline
 70
8
 71
3
 72
8
 73
4
 74
0
 40
0
 40
0
 40
0
 40
0
 40
1
 40
1
 40
1
 40
1
 10
245.946369
 20
139.944845
 30
0.0
 10
246.039502
 20
140.031999
 30
0.0
 10
255.882373
 20
158.424695
 30
0.0
 10
267.819399
 20
180.817441
 30
0.0
  0
LWPOLYLINE
  5
222
100
AcDbEntity
  8
0
 62
7
100
AcDbPolyline
 90
3
 70
0
 10
295.683411
 20
385.891275
 30
0.0
 10
296.331640
 20
387.785798
 30
0.0
 10
292.971564
 20
391.050650
 30
0.0
  0
SPLINE
  5
223
100
AcDbEntity
  8
0
 62
7
100
AcDbSpline
 70
8
 71
3
 72
8
 73
4
 74
0
 40
0
 40
0
 40
0
 40
0
 40
1
 40
1
 40
1
 40
1
 10
182.303044
 20
155.595188
 30
0.0
 10
183.884723
 20
171.224787
 30
0.0
 10
185.471483
 20
180.687848
 30
0.0
 10
187.371694
 20
185.823834
 30
0.0
  0
SPLINE
  5
224
100
AcDbEntity
  8
0
 62
7
100
AcDbSpline
 70
8
 71
3
 72
8
 73
4
 74
0
 40
0
 40
0
 40
0
 40
0
 40
1
 40
1
 40
1
 40
1
 10
187.371694
 20
185.823834
 30
0.0
 10
187.868925
 20
187.167732
 30
0.0
 10
187.936844
 20
187.756430
 30
0.0
 10
187.814368
 20
189.660292
 30
0.0
  0
SPLINE
  5
225
100
AcDbEntity
  8
0
 62
7
100
AcDbSpline
 70
8
 71
3
 72
8
 73
4
 74
0
 40
0
 40
0
 40
0
 40
0
 40
1
 40
1
 40
1
 40
1
 10
187.814368
 20
189.660292
 30
0.0
 10
187.643050
 20
192.323535
 30
0.0
 10
186.323388
 20
197.886849
 30
0.0
 10
184.643152
 20
203.029317
 30
0.0
  0
SPLINE
  5
226
100
AcDbEntity
  8
0
 62
7
100
AcDbSpline
 70
8
 71
3
 72
8
 73
4
 74
0
 40
0
 40
0
 40
0
 40
0
 40
1
 40
1
 40
1
 40
1
 10
184.643152
 20
203.029317
 30
0.0
 10
183.978836
 20
205.062455
 30
0.0
 10
183.178947
 20
208.095136
 30
0.0
 10
182.865575
 20
209.768625
 30
0.0
  0
SPLINE
  5
227
100
AcDbEntity
  8
0
 62
7
100
AcDbSpline
 70
8
 71
3
 72
8
 73
4
 74
0
 40
0
 40
0
 40
0
 40
0
 40
1
 40
1
 40
1
 40
1
 10
182.865575
 20
209.768625
 30
0.0
 10
182.552202
 20
211.442115
 30
0.0
 10
182.114740
 20
213.347115
 30
0.0
 10
181.893416
 20
214.001959
 30
0.0
  0
SPLINE
  5
228
100
AcDbEntity
  8
0
 62
7
100
AcDbSpline
 70
8
 71
3
 72
8
 73
4
 74
0
 40
0
 40
0
 40
0
 40
0
 40
1
 40
1
 40
1
 40
1
 10
181.893416
 20
214.001959
 30
0.0
 10
181.243229
 20
215.925638
 30
0.0
 10
176.603390
 20
228.727873
 30
0.0
 10
175.564583
 20
231.464459
 30
0.0
  0
SPLINE
  5
229
100
AcDbEntity
  8
0
 62
7
100
AcDbSpline
 70
8
 71
3
 72
8
 73
4
 74
0
 40
0
 40
0
 40
0
 40
0
 40
1
 40
1
 40
1
 40
1
 10
175.564583
 20
231.464459
 30
0.0
 10
172.096822
 20
240.599648
 30
0.0
 10
169.498349
 20
248.300531
 30
0.0
 10
168.466950
 20
252.498834
 30
0.0
  0
SPLINE
  5
22a
100
AcDbEntity
  8
0
 62
7
100
AcDbSpline
 70
8
 71
3
 72
8
 73
4
 74
0
 40
0
 40
0
 40
0
 40
0
 40
1
 40
1
 40
1
 40
1
 10
168.466950
 20
252.498834
 30
0.0
 10
167.888147
 20
254.854922
 30
0.0
 10
167.033305
 20
260.281658
 30
0.0
 10
165.778730
 20
269.564459
 30
0.0
  0
SPLINE
  5
22b
100
AcDbEntity
  8
0
 62
7
100
AcDbSpline
 70
8
 71
3
 72
8
 73
4
 74
0
 40
0
 40
0
 40
0
 40
0
 40
1
 40
1
 40
1
 40
1
 10
165.778730
 20
269.564459
 30
0.0
 10
165.193128
 20
273.897302
 30
0.0
 10
164.945716
 20
275.086498
 30
0.0
 10
163.824571
 20
278.957167
 30
0.0
  0
SPLINE
  5
22c
100
AcDbEntity
  8
0
 62
7
100
AcDbSpline
 70
8
 71
3
 72
8
 73
4
 74
0
 40
0
 40
0
 40
0
 40
0
 40
1
 40
1
 40
1
 40
1
 10
163.824571
 20
278.957167
 30
0.0
 10
163.276619
 20
280.848938
 30
0.0
 10
162.081152
 20
285.432844
 30
0.0
 10
161.167969
 20
289.143625
 30
0.0
  0
SPLINE
  5
22d
100
AcDbEntity
  8
0
 62
7
100
AcDbSpline
 70
8
 71
3
 72
8
 73
4
 74
0
 40
0
 40
0
 40
0
 40
0
 40
1
 40
1
 40
1
 40
1
 10
161.167969
 20
289.143625
 30
0.0
 10
160.254812
 20
292.854406
 30
0.0
 10
158.999338
 20
297.697075
 30
0.0
 10
158.378017
 20
299.905129
 30
0.0
  0
SPLINE
  5
22e
100
AcDbEntity
  8
0
 62
7
100
AcDbSpline
 70
8
 71
3
 72
8
 73
4
 74
0
 40
0
 40
0
 40
0
 40
0
 40
1
 40
1
 40
1
 40
1
 10
158.378017
 20
299.905129
 30
0.0
 10
156.672672
 20
305.965622
 30
0.0
 10
156.639096
 20
307.106452
 30
0.0
 10
157.988392
 20
313.144085
 30
0.0
  0
SPLINE
  5
22f
100
AcDbEntity
  8
0
 62
7
100
AcDbSpline
 70
8
 71
3
 72
8
 73
4
 74
0
 40
0
 40
0
 40
0
 40
0
 40
1
 40
1
 40
1
 40
1
 10
157.988392
 20
313.144085
 30
0.0
 10
158.599473
 20
315.878369
 30
0.0
 10
160.025736
 20
320.967153
 30
0.0
 10
161.157888
 20
324.452509
 30
0.0
  0
LWPOLYLINE
  5
230
100
AcDbEntity
  8
0
 62
7
100
AcDbPolyline
 90
2
 70
0
 10
267.819399
 20
180.817441
 30
0.0
 10
267.820484
 20
180.817441
 30
0.0
  0
SPLINE
  5
231
100
AcDbEntity
  8
0
 62
7
100
AcDbSpline
 70
8
 71
3
 72
8
 73
4
 74
0
 40
0
 40
0
 40
0
 40
0
 40
1
 40
1
 40
1
 40
1
 10
162.462787
 20
332.399799
 30
0.0
 10
162.048343
 20
333.285439
 30
0.0
 10
161.594715
 20
334.660505
 30
0.0
 10
161.454698
 20
335.455498
 30
0.0
  0
SPLINE
  5
232
100
AcDbEntity
  8
0
 62
7
100
AcDbSpline
 70
8
 71
3
 72
8
 73
4
 74
0
 40
0
 40
0
 40
0
 40
0
 40
1
 40
1
 40
1
 40
1
 10
161.454698
 20
335.455498
 30
0.0
 10
161.132012
 20
337.287791
 30
0.0
 10
160.458700
 20
343.967885
 30
0.0
 10
160.221792
 20
347.687503
 30
0.0
  0
SPLINE
  5
233
100
AcDbEntity
  8
0
 62
7
100
AcDbSpline
 70
8
 71
3
 72
8
 73
4
 74
0
 40
0
 40
0
 40
0
 40
0
 40
1
 40
1
 40
1
 40
1
 10
160.221792
 20
347.687503
 30
0.0
 10
160.121992
 20
349.254498
 30
0.0
 10
159.983032
 20
350.479281
 30
0.0
 10
159.912971
 20
350.409245
 30
0.0
  0
SPLINE
  5
234
100
AcDbEntity
  8
0
 62
7
100
AcDbSpline
 70
8
 71
3
 72
8
 73
4
 74
0
 40
0
 40
0
 40
0
 40
0
 40
1
 40
1
 40
1
 40
1
 10
159.912971
 20
350.409245
 30
0.0
 10
159.842936
 20
350.339210
 30
0.0
 10
159.282204
 20
348.453128
 30
0.0
 10
158.666916
 20
346.217954
 30
0.0
  0
LWPOLYLINE
  5
235
100
AcDbEntity
  8
0
 62
7
100
AcDbPolyline
 90
3
 70
0
 10
161.157888
 20
324.452509
 30
0.0
 10
163.216347
 20
330.789492
 30
0.0
 10
162.462787
 20
332.399799
 30
0.0
  0
SPLINE
  5
236
100
AcDbEntity
  8
0
 62
7
100
AcDbSpline
 70
8
 71
3
 72
8
 73
4
 74
0
 40
0
 40
0
 40
0
 40
0
 40
1
 40
1
 40
1
 40
1
 10
158.453476
 20
337.013894
 30
0.0
 10
159.286728
 20
332.282985
 30
0.0
 10
159.345387
 20
331.600043
 30
0.0
 10
159.190367
 20
328.434250
 30
0.0
  0
SPLINE
  5
237
100
AcDbEntity
  8
0
 62
7
100
AcDbSpline
 70
8
 71
3
 72
8
 73
4
 74
0
 40
0
 40
0
 40
0
 40
0
 40
1
 40
1
 40
1
 40
1
 10
159.190367
 20
328.434250
 30
0.0
 10
158.989919
 20
324.341278
 30
0.0
 10
158.189554
 20
317.856526
 30
0.0
 10
157.607656
 20
315.610954
 30
0.0
  0
SPLINE
  5
238
100
AcDbEntity
  8
0
 62
7
100
AcDbSpline
 70
8
 71
3
 72
8
 73
4
 74
0
 40
0
 40
0
 40
0
 40
0
 40
1
 40
1
 40
1
 40
1
 10
157.607656
 20
315.610954
 30
0.0
 10
157.136222
 20
313.791574
 30
0.0
 10
155.986713
 20
310.597444
 30
0.0
 10
154.804343
 20
307.821409
 30
0.0
  0
SPLINE
  5
239
100
AcDbEntity
  8
0
 62
7
100
AcDbSpline
 70
8
 71
3
 72
8
 73
4
 74
0
 40
0
 40
0
 40
0
 40
0
 40
1
 40
1
 40
1
 40
1
 10
154.804343
 20
307.821409
 30
0.0
 10
154.364711
 20
306.789190
 30
0.0
 10
153.816203
 20
305.501437
 30
0.0
 10
153.585434
 20
304.959702
 30
0.0
  0
SPLINE
  5
23a
100
AcDbEntity
  8
0
 62
7
100
AcDbSpline
 70
8
 71
3
 72
8
 73
4
 74
0
 40
0
 40
0
 40
0
 40
0
 40
1
 40
1
 40
1
 40
1
 10
153.585434
 20
304.959702
 30
0.0
 10
153.340985
 20
304.385874
 30
0.0
 10
153.043197
 20
304.044641
 30
0.0
 10
152.872064
 20
304.142219
 30
0.0
  0
SPLINE
  5
23b
100
AcDbEntity
  8
0
 62
7
100
AcDbSpline
 70
8
 71
3
 72
8
 73
4
 74
0
 40
0
 40
0
 40
0
 40
0
 40
1
 40
1
 40
1
 40
1
 10
152.872064
 20
304.142219
 30
0.0
 10
152.710457
 20
304.234347
 30
0.0
 10
152.661033
 20
304.217758
 30
0.0
 10
152.762236
 20
304.105363
 30
0.0
  0
SPLINE
  5
23c
100
AcDbEntity
  8
0
 62
7
100
AcDbSpline
 70
8
 71
3
 72
8
 73
4
 74
0
 40
0
 40
0
 40
0
 40
0
 40
1
 40
1
 40
1
 40
1
 10
152.762236
 20
304.105363
 30
0.0
 10
153.180727
 20
303.640543
 30
0.0
 10
150.770611
 20
300.003025
 30
0.0
 10
148.222885
 20
297.254295
 30
0.0
  0
LWPOLYLINE
  5
23d
100
AcDbEntity
  8
0
 62
7
100
AcDbPolyline
 90
3
 70
0
 10
158.666916
 20
346.217954
 30
0.0
 10
157.548178
 20
342.153981
 30
0.0
 10
158.453476
 20
337.013894
 30
0.0
  0
SPLINE
  5
23e
100
AcDbEntity
  8
0
 62
7
100
AcDbSpline
 70
8
 71
3
 72
8
 73
4
 74
0
 40
0
 40
0
 40
0
 40
0
 40
1
 40
1
 40
1
 40
1
 10
150.726082
 20
275.123778
 30
0.0
 10
154.913404
 20
270.981937
 30
0.0
 10
155.273820
 20
270.668089
 30
0.0
 10
157.998869
 20
268.790843
 30
0.0
  0
SPLINE
  5
23f
100
AcDbEntity
  8
0
 62
7
100
AcDbSpline
 70
8
 71
3
 72
8
 73
4
 74
0
 40
0
 40
0
 40
0
 40
0
 40
1
 40
1
 40
1
 40
1
 10
157.998869
 20
268.790843
 30
0.0
 10
160.242589
 20
267.245147
 30
0.0
 10
161.770663
 20
265.530356
 30
0.0
 10
162.626299
 20
263.597946
 30
0.0
  0
SPLINE
  5
240
100
AcDbEntity
  8
0
 62
7
100
AcDbSpline
 70
8
 71
3
 72
8
 73
4
 74
0
 40
0
 40
0
 40
0
 40
0
 40
1
 40
1
 40
1
 40
1
 10
162.626299
 20
263.597946
 30
0.0
 10
163.158138
 20
262.396843
 30
0.0
 10
163.235211
 20
261.673975
 30
0.0
 10
163.387982
 20
256.454196
 30
0.0
  0
SPLINE
  5
241
100
AcDbEntity
  8
0
 62
7
100
AcDbSpline
 70
8
 71
3
 72
8
 73
4
 74
0
 40
0
 40
0
 40
0
 40
0
 40
1
 40
1
 40
1
 40
1
 10
163.387982
 20
256.454196
 30
0.0
 10
163.481486
 20
253.260093
 30
0.0
 10
163.632430
 20
249.096054
 30
0.0
 10
163.723421
 20
247.200764
 30
0.0
  0
SPLINE
  5
242
100
AcDbEntity
  8
0
 62
7
100
AcDbSpline
 70
8
 71
3
 72
8
 73
4
 74
0
 40
0
 40
0
 40
0
 40
0
 40
1
 40
1
 40
1
 40
1
 10
163.723421
 20
247.200764
 30
0.0
 10
163.931912
 20
242.858766
 30
0.0
 10
164.019569
 20
242.963488
 30
0.0
 10
160.207452
 20
243.000054
 30
0.0
  0
SPLINE
  5
243
100
AcDbEntity
  8
0
 62
7
100
AcDbSpline
 70
8
 71
3
 72
8
 73
4
 74
0
 40
0
 40
0
 40
0
 40
0
 40
1
 40
1
 40
1
 40
1
 10
160.207452
 20
243.000054
 30
0.0
 10
157.546485
 20
243.025718
 30
0.0
 10
157.472957
 20
243.010372
 30
0.0
 10
157.472957
 20
242.435539
 30
0.0
  0
SPLINE
  5
244
100
AcDbEntity
  8
0
 62
7
100
AcDbSpline
 70
8
 71
3
 72
8
 73
4
 74
0
 40
0
 40
0
 40
0
 40
0
 40
1
 40
1
 40
1
 40
1
 10
157.472957
 20
242.435539
 30
0.0
 10
157.472957
 20
241.606149
 30
0.0
 10
155.598305
 20
239.993831
 30
0.0
 10
154.198765
 20
239.619499
 30
0.0
  0
SPLINE
  5
245
100
AcDbEntity
  8
0
 62
7
100
AcDbSpline
 70
8
 71
3
 72
8
 73
4
 74
0
 40
0
 40
0
 40
0
 40
0
 40
1
 40
1
 40
1
 40
1
 10
154.198765
 20
239.619499
 30
0.0
 10
153.316458
 20
239.383517
 30
0.0
 10
152.933897
 20
239.102106
 30
0.0
 10
152.565518
 20
238.418105
 30
0.0
  0
SPLINE
  5
246
100
AcDbEntity
  8
0
 62
7
100
AcDbSpline
 70
8
 71
3
 72
8
 73
4
 74
0
 40
0
 40
0
 40
0
 40
0
 40
1
 40
1
 40
1
 40
1
 10
152.565518
 20
238.418105
 30
0.0
 10
152.192376
 20
237.725215
 30
0.0
 10
151.546370
 20
237.257775
 30
0.0
 10
149.685502
 20
236.334221
 30
0.0
  0
SPLINE
  5
247
100
AcDbEntity
  8
0
 62
7
100
AcDbSpline
 70
8
 71
3
 72
8
 73
4
 74
0
 40
0
 40
0
 40
0
 40
0
 40
1
 40
1
 40
1
 40
1
 10
149.685502
 20
236.334221
 30
0.0
 10
146.558206
 20
234.782122
 30
0.0
 10
144.696968
 20
234.535239
 30
0.0
 10
143.021812
 20
235.450327
 30
0.0
  0
SPLINE
  5
248
100
AcDbEntity
  8
0
 62
7
100
AcDbSpline
 70
8
 71
3
 72
8
 73
4
 74
0
 40
0
 40
0
 40
0
 40
0
 40
1
 40
1
 40
1
 40
1
 10
143.021812
 20
235.450327
 30
0.0
 10
142.293308
 20
235.848313
 30
0.0
 10
141.785864
 20
235.984309
 30
0.0
 10
141.635845
 20
235.821829
 30
0.0
  0
SPLINE
  5
249
100
AcDbEntity
  8
0
 62
7
100
AcDbSpline
 70
8
 71
3
 72
8
 73
4
 74
0
 40
0
 40
0
 40
0
 40
0
 40
1
 40
1
 40
1
 40
1
 10
141.635845
 20
235.821829
 30
0.0
 10
141.505670
 20
235.680859
 30
0.0
 10
140.145394
 20
233.877538
 30
0.0
 10
138.612981
 20
231.814476
 30
0.0
  0
SPLINE
  5
24a
100
AcDbEntity
  8
0
 62
7
100
AcDbSpline
 70
8
 71
3
 72
8
 73
4
 74
0
 40
0
 40
0
 40
0
 40
0
 40
1
 40
1
 40
1
 40
1
 10
138.612981
 20
231.814476
 30
0.0
 10
137.080567
 20
229.751387
 30
0.0
 10
135.746141
 20
228.144044
 30
0.0
 10
135.647610
 20
228.242601
 30
0.0
  0
SPLINE
  5
24b
100
AcDbEntity
  8
0
 62
7
100
AcDbSpline
 70
8
 71
3
 72
8
 73
4
 74
0
 40
0
 40
0
 40
0
 40
0
 40
1
 40
1
 40
1
 40
1
 10
135.647610
 20
228.242601
 30
0.0
 10
135.549079
 20
228.341132
 30
0.0
 10
135.508122
 20
228.287289
 30
0.0
 10
135.556646
 20
228.122930
 30
0.0
  0
SPLINE
  5
24c
100
AcDbEntity
  8
0
 62
7
100
AcDbSpline
 70
8
 71
3
 72
8
 73
4
 74
0
 40
0
 40
0
 40
0
 40
0
 40
1
 40
1
 40
1
 40
1
 10
135.556646
 20
228.122930
 30
0.0
 10
135.605144
 20
227.958597
 30
0.0
 10
131.299051
 20
221.958482
 30
0.0
 10
125.987540
 20
214.789385
 30
0.0
  0
SPLINE
  5
24d
100
AcDbEntity
  8
0
 62
7
100
AcDbSpline
 70
8
 71
3
 72
8
 73
4
 74
0
 40
0
 40
0
 40
0
 40
0
 40
1
 40
1
 40
1
 40
1
 10
125.987540
 20
214.789385
 30
0.0
 10
120.676030
 20
207.620261
 30
0.0
 10
116.238068
 20
201.598662
 30
0.0
 10
116.125408
 20
201.408056
 30
0.0
  0
SPLINE
  5
24e
100
AcDbEntity
  8
0
 62
7
100
AcDbSpline
 70
8
 71
3
 72
8
 73
4
 74
0
 40
0
 40
0
 40
0
 40
0
 40
1
 40
1
 40
1
 40
1
 10
116.125408
 20
201.408056
 30
0.0
 10
115.977929
 20
201.158501
 30
0.0
 10
116.311304
 20
201.198454
 30
0.0
 10
117.316033
 20
201.550693
 30
0.0
  0
SPLINE
  5
24f
100
AcDbEntity
  8
0
 62
7
100
AcDbSpline
 70
8
 71
3
 72
8
 73
4
 74
0
 40
0
 40
0
 40
0
 40
0
 40
1
 40
1
 40
1
 40
1
 10
117.316033
 20
201.550693
 30
0.0
 10
122.638497
 20
203.416588
 30
0.0
 10
129.649717
 20
207.200950
 30
0.0
 10
138.345725
 20
212.901662
 30
0.0
  0
LWPOLYLINE
  5
250
100
AcDbEntity
  8
0
 62
7
100
AcDbPolyline
 90
5
 70
0
 10
148.222885
 20
297.254295
 30
0.0
 10
147.034615
 20
295.972256
 30
0.0
 10
147.028265
 20
287.379992
 30
0.0
 10
147.021915
 20
278.787728
 30
0.0
 10
150.726082
 20
275.123778
 30
0.0
  0
SPLINE
  5
251
100
AcDbEntity
  8
0
 62
7
100
AcDbSpline
 70
8
 71
3
 72
8
 73
4
 74
0
 40
0
 40
0
 40
0
 40
0
 40
1
 40
1
 40
1
 40
1
 10
142.541223
 20
217.441542
 30
0.0
 10
143.890730
 20
221.771977
 30
0.0
 10
145.574618
 20
224.551452
 30
0.0
 10
147.114175
 20
224.989760
 30
0.0
  0
SPLINE
  5
252
100
AcDbEntity
  8
0
 62
7
100
AcDbSpline
 70
8
 71
3
 72
8
 73
4
 74
0
 40
0
 40
0
 40
0
 40
0
 40
1
 40
1
 40
1
 40
1
 10
147.114175
 20
224.989760
 30
0.0
 10
147.654719
 20
225.143669
 30
0.0
 10
147.712742
 20
225.094615
 30
0.0
 10
147.559866
 20
224.612967
 30
0.0
  0
SPLINE
  5
253
100
AcDbEntity
  8
0
 62
7
100
AcDbSpline
 70
8
 71
3
 72
8
 73
4
 74
0
 40
0
 40
0
 40
0
 40
0
 40
1
 40
1
 40
1
 40
1
 10
147.559866
 20
224.612967
 30
0.0
 10
147.463214
 20
224.308405
 30
0.0
 10
147.276286
 20
221.290330
 30
0.0
 10
147.144497
 20
217.906124
 30
0.0
  0
SPLINE
  5
254
100
AcDbEntity
  8
0
 62
7
100
AcDbSpline
 70
8
 71
3
 72
8
 73
4
 74
0
 40
0
 40
0
 40
0
 40
0
 40
1
 40
1
 40
1
 40
1
 10
147.144497
 20
217.906124
 30
0.0
 10
147.012681
 20
214.521891
 30
0.0
 10
146.791225
 20
211.217219
 30
0.0
 10
146.652345
 20
210.562375
 30
0.0
  0
SPLINE
  5
255
100
AcDbEntity
  8
0
 62
7
100
AcDbSpline
 70
8
 71
3
 72
8
 73
4
 74
0
 40
0
 40
0
 40
0
 40
0
 40
1
 40
1
 40
1
 40
1
 10
146.652345
 20
210.562375
 30
0.0
 10
146.064997
 20
207.792823
 30
0.0
 10
144.773327
 20
205.840092
 30
0.0
 10
143.053377
 20
205.121457
 30
0.0
  0
SPLINE
  5
256
100
AcDbEntity
  8
0
 62
7
100
AcDbSpline
 70
8
 71
3
 72
8
 73
4
 74
0
 40
0
 40
0
 40
0
 40
0
 40
1
 40
1
 40
1
 40
1
 10
143.053377
 20
205.121457
 30
0.0
 10
142.075106
 20
204.712702
 30
0.0
 10
141.923553
 20
204.253068
 30
0.0
 10
142.375303
 20
203.064904
 30
0.0
  0
SPLINE
  5
257
100
AcDbEntity
  8
0
 62
7
100
AcDbSpline
 70
8
 71
3
 72
8
 73
4
 74
0
 40
0
 40
0
 40
0
 40
0
 40
1
 40
1
 40
1
 40
1
 10
142.375303
 20
203.064904
 30
0.0
 10
142.530216
 20
202.657445
 30
0.0
 10
142.974346
 20
202.296369
 30
0.0
 10
143.557276
 20
202.103990
 30
0.0
  0
SPLINE
  5
258
100
AcDbEntity
  8
0
 62
7
100
AcDbSpline
 70
8
 71
3
 72
8
 73
4
 74
0
 40
0
 40
0
 40
0
 40
0
 40
1
 40
1
 40
1
 40
1
 10
143.557276
 20
202.103990
 30
0.0
 10
144.991900
 20
201.630518
 30
0.0
 10
145.777977
 20
200.539165
 30
0.0
 10
145.588773
 20
199.283532
 30
0.0
  0
SPLINE
  5
259
100
AcDbEntity
  8
0
 62
7
100
AcDbSpline
 70
8
 71
3
 72
8
 73
4
 74
0
 40
0
 40
0
 40
0
 40
0
 40
1
 40
1
 40
1
 40
1
 10
145.588773
 20
199.283532
 30
0.0
 10
145.359062
 20
197.759161
 30
0.0
 10
145.032883
 20
197.389300
 30
0.0
 10
143.441468
 20
196.848677
 30
0.0
  0
LWPOLYLINE
  5
25a
100
AcDbEntity
  8
0
 62
7
100
AcDbPolyline
 90
3
 70
0
 10
138.345725
 20
212.901662
 30
0.0
 10
141.840395
 20
215.192584
 30
0.0
 10
142.541223
 20
217.441542
 30
0.0
  0
SPLINE
  5
25b
100
AcDbEntity
  8
0
 62
7
100
AcDbSpline
 70
8
 71
3
 72
8
 73
4
 74
0
 40
0
 40
0
 40
0
 40
0
 40
1
 40
1
 40
1
 40
1
 10
141.774460
 20
194.794690
 30
0.0
 10
141.625421
 20
193.737944
 30
0.0
 10
141.649921
 20
193.078497
 30
0.0
 10
141.850184
 20
192.757399
 30
0.0
  0
SPLINE
  5
25c
100
AcDbEntity
  8
0
 62
7
100
AcDbSpline
 70
8
 71
3
 72
8
 73
4
 74
0
 40
0
 40
0
 40
0
 40
0
 40
1
 40
1
 40
1
 40
1
 10
141.850184
 20
192.757399
 30
0.0
 10
142.084817
 20
192.381161
 30
0.0
 10
141.998192
 20
191.952721
 30
0.0
 10
141.432698
 20
190.692643
 30
0.0
  0
SPLINE
  5
25d
100
AcDbEntity
  8
0
 62
7
100
AcDbSpline
 70
8
 71
3
 72
8
 73
4
 74
0
 40
0
 40
0
 40
0
 40
0
 40
1
 40
1
 40
1
 40
1
 10
141.432698
 20
190.692643
 30
0.0
 10
139.965531
 20
187.423319
 30
0.0
 10
138.616552
 20
187.264649
 30
0.0
 10
134.831370
 20
189.916197
 30
0.0
  0
SPLINE
  5
25e
100
AcDbEntity
  8
0
 62
7
100
AcDbSpline
 70
8
 71
3
 72
8
 73
4
 74
0
 40
0
 40
0
 40
0
 40
0
 40
1
 40
1
 40
1
 40
1
 10
134.831370
 20
189.916197
 30
0.0
 10
132.771563
 20
191.359076
 30
0.0
 10
131.831498
 20
191.639693
 30
0.0
 10
130.675507
 20
191.156669
 30
0.0
  0
LWPOLYLINE
  5
25f
100
AcDbEntity
  8
0
 62
7
100
AcDbPolyline
 90
3
 70
0
 10
143.441468
 20
196.848677
 30
0.0
 10
141.994832
 20
196.357240
 30
0.0
 10
141.774460
 20
194.794690
 30
0.0
  0
SPLINE
  5
260
100
AcDbEntity
  8
0
 62
7
100
AcDbSpline
 70
8
 71
3
 72
8
 73
4
 74
0
 40
0
 40
0
 40
0
 40
0
 40
1
 40
1
 40
1
 40
1
 10
129.972006
 20
189.490006
 30
0.0
 10
130.254396
 20
187.763706
 30
0.0
 10
130.717126
 20
186.573186
 30
0.0
 10
132.313304
 20
183.466317
 30
0.0
  0
SPLINE
  5
261
100
AcDbEntity
  8
0
 62
7
100
AcDbSpline
 70
8
 71
3
 72
8
 73
4
 74
0
 40
0
 40
0
 40
0
 40
0
 40
1
 40
1
 40
1
 40
1
 10
132.313304
 20
183.466317
 30
0.0
 10
133.439318
 20
181.274641
 30
0.0
 10
133.660457
 20
180.611462
 30
0.0
 10
133.660457
 20
179.426367
 30
0.0
  0
SPLINE
  5
262
100
AcDbEntity
  8
0
 62
7
100
AcDbSpline
 70
8
 71
3
 72
8
 73
4
 74
0
 40
0
 40
0
 40
0
 40
0
 40
1
 40
1
 40
1
 40
1
 10
133.660457
 20
179.426367
 30
0.0
 10
133.660457
 20
178.012963
 30
0.0
 10
133.657811
 20
178.009100
 30
0.0
 10
132.932853
 20
178.186212
 30
0.0
  0
SPLINE
  5
263
100
AcDbEntity
  8
0
 62
7
100
AcDbSpline
 70
8
 71
3
 72
8
 73
4
 74
0
 40
0
 40
0
 40
0
 40
0
 40
1
 40
1
 40
1
 40
1
 10
132.932853
 20
178.186212
 30
0.0
 10
131.393401
 20
178.562159
 30
0.0
 10
130.191161
 20
179.983368
 30
0.0
 10
128.374426
 20
183.574875
 30
0.0
  0
SPLINE
  5
264
100
AcDbEntity
  8
0
 62
7
100
AcDbSpline
 70
8
 71
3
 72
8
 73
4
 74
0
 40
0
 40
0
 40
0
 40
0
 40
1
 40
1
 40
1
 40
1
 10
128.374426
 20
183.574875
 30
0.0
 10
127.822346
 20
184.666281
 30
0.0
 10
127.127074
 20
185.856906
 30
0.0
 10
126.829365
 20
186.220709
 30
0.0
  0
LWPOLYLINE
  5
265
100
AcDbEntity
  8
0
 62
7
100
AcDbPolyline
 90
3
 70
0
 10
130.675507
 20
191.156669
 30
0.0
 10
129.761848
 20
190.774929
 30
0.0
 10
129.972006
 20
189.490006
 30
0.0
  0
SPLINE
  5
266
100
AcDbEntity
  8
0
 62
7
100
AcDbSpline
 70
8
 71
3
 72
8
 73
4
 74
0
 40
0
 40
0
 40
0
 40
0
 40
1
 40
1
 40
1
 40
1
 10
125.873214
 20
185.898472
 30
0.0
 10
125.645063
 20
185.357452
 30
0.0
 10
125.458373
 20
184.546743
 30
0.0
 10
125.458373
 20
184.096925
 30
0.0
  0
SPLINE
  5
267
100
AcDbEntity
  8
0
 62
7
100
AcDbSpline
 70
8
 71
3
 72
8
 73
4
 74
0
 40
0
 40
0
 40
0
 40
0
 40
1
 40
1
 40
1
 40
1
 10
125.458373
 20
184.096925
 30
0.0
 10
125.458373
 20
183.581569
 30
0.0
 10
125.353281
 20
183.344000
 30
0.0
 10
125.174264
 20
183.454649
 30
0.0
  0
SPLINE
  5
268
100
AcDbEntity
  8
0
 62
7
100
AcDbSpline
 70
8
 71
3
 72
8
 73
4
 74
0
 40
0
 40
0
 40
0
 40
0
 40
1
 40
1
 40
1
 40
1
 10
125.174264
 20
183.454649
 30
0.0
 10
124.976752
 20
183.576727
 30
0.0
 10
124.969397
 20
183.480578
 30
0.0
 10
125.150187
 20
183.139530
 30
0.0
  0
SPLINE
  5
269
100
AcDbEntity
  8
0
 62
7
100
AcDbSpline
 70
8
 71
3
 72
8
 73
4
 74
0
 40
0
 40
0
 40
0
 40
0
 40
1
 40
1
 40
1
 40
1
 10
125.150187
 20
183.139530
 30
0.0
 10
125.354683
 20
182.753556
 30
0.0
 10
126.521099
 20
176.790535
 30
0.0
 10
126.517580
 20
176.149053
 30
0.0
  0
SPLINE
  5
26a
100
AcDbEntity
  8
0
 62
7
100
AcDbSpline
 70
8
 71
3
 72
8
 73
4
 74
0
 40
0
 40
0
 40
0
 40
0
 40
1
 40
1
 40
1
 40
1
 10
126.517580
 20
176.149053
 30
0.0
 10
126.517580
 20
176.066662
 30
0.0
 10
125.806697
 20
175.659891
 30
0.0
 10
124.938864
 20
175.245104
 30
0.0
  0
SPLINE
  5
26b
100
AcDbEntity
  8
0
 62
7
100
AcDbSpline
 70
8
 71
3
 72
8
 73
4
 74
0
 40
0
 40
0
 40
0
 40
0
 40
1
 40
1
 40
1
 40
1
 10
124.938864
 20
175.245104
 30
0.0
 10
123.448360
 20
174.532713
 30
0.0
 10
123.351629
 20
174.428759
 30
0.0
 10
123.192693
 20
173.368758
 30
0.0
  0
SPLINE
  5
26c
100
AcDbEntity
  8
0
 62
7
100
AcDbSpline
 70
8
 71
3
 72
8
 73
4
 74
0
 40
0
 40
0
 40
0
 40
0
 40
1
 40
1
 40
1
 40
1
 10
123.192693
 20
173.368758
 30
0.0
 10
122.954912
 20
171.783163
 30
0.0
 10
123.216771
 20
170.857968
 30
0.0
 10
124.796360
 20
167.699875
 30
0.0
  0
SPLINE
  5
26d
100
AcDbEntity
  8
0
 62
7
100
AcDbSpline
 70
8
 71
3
 72
8
 73
4
 74
0
 40
0
 40
0
 40
0
 40
0
 40
1
 40
1
 40
1
 40
1
 10
124.796360
 20
167.699875
 30
0.0
 10
126.488767
 20
164.316542
 30
0.0
 10
126.684056
 20
163.481332
 30
0.0
 10
125.963622
 20
162.708008
 30
0.0
  0
SPLINE
  5
26e
100
AcDbEntity
  8
0
 62
7
100
AcDbSpline
 70
8
 71
3
 72
8
 73
4
 74
0
 40
0
 40
0
 40
0
 40
0
 40
1
 40
1
 40
1
 40
1
 10
125.963622
 20
162.708008
 30
0.0
 10
125.183022
 20
161.870152
 30
0.0
 10
124.778474
 20
162.004931
 30
0.0
 10
123.687279
 20
163.466542
 30
0.0
  0
SPLINE
  5
26f
100
AcDbEntity
  8
0
 62
7
100
AcDbSpline
 70
8
 71
3
 72
8
 73
4
 74
0
 40
0
 40
0
 40
0
 40
0
 40
1
 40
1
 40
1
 40
1
 10
123.687279
 20
163.466542
 30
0.0
 10
123.144063
 20
164.194146
 30
0.0
 10
122.546449
 20
164.789459
 30
0.0
 10
122.359230
 20
164.789459
 30
0.0
  0
SPLINE
  5
270
100
AcDbEntity
  8
0
 62
7
100
AcDbSpline
 70
8
 71
3
 72
8
 73
4
 74
0
 40
0
 40
0
 40
0
 40
0
 40
1
 40
1
 40
1
 40
1
 10
122.359230
 20
164.789459
 30
0.0
 10
121.813765
 20
164.789459
 30
0.0
 10
121.957857
 20
163.341500
 30
0.0
 10
122.680301
 20
161.563579
 30
0.0
  0
SPLINE
  5
271
100
AcDbEntity
  8
0
 62
7
100
AcDbSpline
 70
8
 71
3
 72
8
 73
4
 74
0
 40
0
 40
0
 40
0
 40
0
 40
1
 40
1
 40
1
 40
1
 10
122.680301
 20
161.563579
 30
0.0
 10
123.044103
 20
160.668256
 30
0.0
 10
123.341760
 20
159.480012
 30
0.0
 10
123.341760
 20
158.923011
 30
0.0
  0
SPLINE
  5
272
100
AcDbEntity
  8
0
 62
7
100
AcDbSpline
 70
8
 71
3
 72
8
 73
4
 74
0
 40
0
 40
0
 40
0
 40
0
 40
1
 40
1
 40
1
 40
1
 10
123.341760
 20
158.923011
 30
0.0
 10
123.341760
 20
158.366010
 30
0.0
 10
123.453626
 20
157.910292
 30
0.0
 10
123.590389
 20
157.910292
 30
0.0
  0
SPLINE
  5
273
100
AcDbEntity
  8
0
 62
7
100
AcDbSpline
 70
8
 71
3
 72
8
 73
4
 74
0
 40
0
 40
0
 40
0
 40
0
 40
1
 40
1
 40
1
 40
1
 10
123.590389
 20
157.910292
 30
0.0
 10
123.727125
 20
157.910292
 30
0.0
 10
126.019078
 20
157.728073
 30
0.0
 10
128.683618
 20
157.505374
 30
0.0
  0
SPLINE
  5
274
100
AcDbEntity
  8
0
 62
7
100
AcDbSpline
 70
8
 71
3
 72
8
 73
4
 74
0
 40
0
 40
0
 40
0
 40
0
 40
1
 40
1
 40
1
 40
1
 10
128.683618
 20
157.505374
 30
0.0
 10
143.887264
 20
156.234606
 30
0.0
 10
161.342541
 20
153.760964
 30
0.0
 10
176.126135
 20
150.782126
 30
0.0
  0
SPLINE
  5
275
100
AcDbEntity
  8
0
 62
7
100
AcDbSpline
 70
8
 71
3
 72
8
 73
4
 74
0
 40
0
 40
0
 40
0
 40
0
 40
1
 40
1
 40
1
 40
1
 10
176.126135
 20
150.782126
 30
0.0
 10
178.891031
 20
150.225019
 30
0.0
 10
181.277863
 20
149.755490
 30
0.0
 10
181.430237
 20
149.738715
 30
0.0
  0
SPLINE
  5
276
100
AcDbEntity
  8
0
 62
7
100
AcDbSpline
 70
8
 71
3
 72
8
 73
4
 74
0
 40
0
 40
0
 40
0
 40
0
 40
1
 40
1
 40
1
 40
1
 10
181.430237
 20
149.738715
 30
0.0
 10
181.600179
 20
149.719930
 30
0.0
 10
181.937496
 20
151.983440
 30
0.0
 10
182.302991
 20
155.595188
 30
0.0
  0
LWPOLYLINE
  5
277
100
AcDbEntity
  8
0
 62
7
100
AcDbPolyline
 90
3
 70
0
 10
126.829365
 20
186.220709
 30
0.0
 10
126.288080
 20
186.882167
 30
0.0
 10
125.873214
 20
185.898472
 30
0.0
  0
SPLINE
  5
278
100
AcDbEntity
  8
0
 62
7
100
AcDbSpline
 70
8
 71
3
 72
8
 73
4
 74
0
 40
0
 40
0
 40
0
 40
0
 40
1
 40
1
 40
1
 40
1
 10
121.843318
 20
159.499565
 30
0.0
 10
121.104073
 20
160.740513
 30
0.0
 10
120.646687
 20
161.199354
 30
0.0
 10
119.756259
 20
161.593239
 30
0.0
  0
SPLINE
  5
279
100
AcDbEntity
  8
0
 62
7
100
AcDbSpline
 70
8
 71
3
 72
8
 73
4
 74
0
 40
0
 40
0
 40
0
 40
0
 40
1
 40
1
 40
1
 40
1
 10
119.756259
 20
161.593239
 30
0.0
 10
117.657584
 20
162.521582
 30
0.0
 10
116.720615
 20
164.330512
 30
0.0
 10
114.888322
 20
170.991477
 30
0.0
  0
SPLINE
  5
27a
100
AcDbEntity
  8
0
 62
7
100
AcDbSpline
 70
8
 71
3
 72
8
 73
4
 74
0
 40
0
 40
0
 40
0
 40
0
 40
1
 40
1
 40
1
 40
1
 10
114.888322
 20
170.991477
 30
0.0
 10
113.565829
 20
175.799141
 30
0.0
 10
112.406980
 20
178.323187
 30
0.0
 10
111.717741
 20
177.897208
 30
0.0
  0
SPLINE
  5
27b
100
AcDbEntity
  8
0
 62
7
100
AcDbSpline
 70
8
 71
3
 72
8
 73
4
 74
0
 40
0
 40
0
 40
0
 40
0
 40
1
 40
1
 40
1
 40
1
 10
111.717741
 20
177.897208
 30
0.0
 10
111.284009
 20
177.629159
 30
0.0
 10
111.366453
 20
174.266251
 30
0.0
 10
111.822727
 20
173.614847
 30
0.0
  0
SPLINE
  5
27c
100
AcDbEntity
  8
0
 62
7
100
AcDbSpline
 70
8
 71
3
 72
8
 73
4
 74
0
 40
0
 40
0
 40
0
 40
0
 40
1
 40
1
 40
1
 40
1
 10
111.822727
 20
173.614847
 30
0.0
 10
112.820154
 20
172.190833
 30
0.0
 10
113.004013
 20
163.791133
 30
0.0
 10
112.110515
 20
160.468389
 30
0.0
  0
SPLINE
  5
27d
100
AcDbEntity
  8
0
 62
7
100
AcDbSpline
 70
8
 71
3
 72
8
 73
4
 74
0
 40
0
 40
0
 40
0
 40
0
 40
1
 40
1
 40
1
 40
1
 10
112.110515
 20
160.468389
 30
0.0
 10
111.882312
 20
159.619765
 30
0.0
 10
111.763170
 20
158.816093
 30
0.0
 10
111.845773
 20
158.682452
 30
0.0
  0
SPLINE
  5
27e
100
AcDbEntity
  8
0
 62
7
100
AcDbSpline
 70
8
 71
3
 72
8
 73
4
 74
0
 40
0
 40
0
 40
0
 40
0
 40
1
 40
1
 40
1
 40
1
 10
111.845773
 20
158.682452
 30
0.0
 10
111.928376
 20
158.548811
 30
0.0
 10
113.030709
 20
158.425462
 30
0.0
 10
114.295444
 20
158.408370
 30
0.0
  0
SPLINE
  5
27f
100
AcDbEntity
  8
0
 62
7
100
AcDbSpline
 70
8
 71
3
 72
8
 73
4
 74
0
 40
0
 40
0
 40
0
 40
0
 40
1
 40
1
 40
1
 40
1
 10
114.295444
 20
158.408370
 30
0.0
 10
116.186156
 20
158.382970
 30
0.0
 10
120.308471
 20
158.149899
 30
0.0
 10
122.338327
 20
157.953895
 30
0.0
  0
SPLINE
  5
280
100
AcDbEntity
  8
0
 62
7
100
AcDbSpline
 70
8
 71
3
 72
8
 73
4
 74
0
 40
0
 40
0
 40
0
 40
0
 40
1
 40
1
 40
1
 40
1
 10
122.338327
 20
157.953895
 30
0.0
 10
122.700304
 20
157.918944
 30
0.0
 10
122.601985
 20
158.225993
 30
0.0
 10
121.843318
 20
159.499565
 30
0.0
  0
LWPOLYLINE
  5
281
100
AcDbEntity
  8
0
 62
7
100
AcDbPolyline
 90
1
 70
1
 10
182.302991
 20
155.595188
 30
0.0
  0
SPLINE
  5
282
100
AcDbEntity
  8
0
 62
7
100
AcDbSpline
 70
8
 71
3
 72
8
 73
4
 74
0
 40
0
 40
0
 40
0
 40
0
 40
1
 40
1
 40
1
 40
1
 10
78.527984
 20
158.592308
 30
0.0
 10
79.137505
 20
158.714784
 30
0.0
 10
79.851298
 20
159.520440
 30
0.0
 10
82.119888
 20
162.646360
 30
0.0
  0
LWPOLYLINE
  5
283
100
AcDbEntity
  8
0
 62
7
100
AcDbPolyline
 90
1
 70
1
 10
121.843318
 20
159.499565
 30
0.0
  0
SPLINE
  5
284
100
AcDbEntity
  8
0
 62
7
100
AcDbSpline
 70
8
 71
3
 72
8
 73
4
 74
0
 40
0
 40
0
 40
0
 40
0
 40
1
 40
1
 40
1
 40
1
 10
83.774063
 20
169.438823
 30
0.0
 10
82.092133
 20
173.570424
 30
0.0
 10
81.765849
 20
173.927505
 30
0.0
 10
79.049425
 20
174.609469
 30
0.0
  0
SPLINE
  5
285
100
AcDbEntity
  8
0
 62
7
100
AcDbSpline
 70
8
 71
3
 72
8
 73
4
 74
0
 40
0
 40
0
 40
0
 40
0
 40
1
 40
1
 40
1
 40
1
 10
79.049425
 20
174.609469
 30
0.0
 10
78.335764
 20
174.788645
 30
0.0
 10
76.698655
 20
175.626818
 30
0.0
 10
75.411404
 20
176.472056
 30
0.0
  0
LWPOLYLINE
  5
286
100
AcDbEntity
  8
0
 62
7
100
AcDbPolyline
 90
3
 70
0
 10
82.119888
 20
162.646360
 30
0.0
 10
84.951088
 20
166.547562
 30
0.0
 10
83.774063
 20
169.438823
 30
0.0
  0
SPLINE
  5
287
100
AcDbEntity
  8
0
 62
7
100
AcDbSpline
 70
8
 71
3
 72
8
 73
4
 74
0
 40
0
 40
0
 40
0
 40
0
 40
1
 40
1
 40
1
 40
1
 10
73.070953
 20
176.795165
 30
0.0
 10
73.070953
 20
176.127622
 30
0.0
 10
73.254971
 20
174.871406
 30
0.0
 10
73.479840
 20
174.003547
 30
0.0
  0
SPLINE
  5
288
100
AcDbEntity
  8
0
 62
7
100
AcDbSpline
 70
8
 71
3
 72
8
 73
4
 74
0
 40
0
 40
0
 40
0
 40
0
 40
1
 40
1
 40
1
 40
1
 10
73.479840
 20
174.003547
 30
0.0
 10
73.903200
 20
172.369798
 30
0.0
 10
73.820570
 20
171.594277
 30
0.0
 10
73.140565
 20
170.819366
 30
0.0
  0
SPLINE
  5
289
100
AcDbEntity
  8
0
 62
7
100
AcDbSpline
 70
8
 71
3
 72
8
 73
4
 74
0
 40
0
 40
0
 40
0
 40
0
 40
1
 40
1
 40
1
 40
1
 10
73.140565
 20
170.819366
 30
0.0
 10
72.766629
 20
170.393201
 30
0.0
 10
72.687916
 20
170.395530
 30
0.0
 10
71.782802
 20
170.859768
 30
0.0
  0
SPLINE
  5
28a
100
AcDbEntity
  8
0
 62
7
100
AcDbSpline
 70
8
 71
3
 72
8
 73
4
 74
0
 40
0
 40
0
 40
0
 40
0
 40
1
 40
1
 40
1
 40
1
 10
71.782802
 20
170.859768
 30
0.0
 10
70.123733
 20
171.710694
 30
0.0
 10
69.613140
 20
172.483859
 30
0.0
 10
69.221689
 20
174.738162
 30
0.0
  0
SPLINE
  5
28b
100
AcDbEntity
  8
0
 62
7
100
AcDbSpline
 70
8
 71
3
 72
8
 73
4
 74
0
 40
0
 40
0
 40
0
 40
0
 40
1
 40
1
 40
1
 40
1
 10
69.221689
 20
174.738162
 30
0.0
 10
69.025632
 20
175.867139
 30
0.0
 10
68.936944
 20
176.906925
 30
0.0
 10
69.024601
 20
177.048742
 30
0.0
  0
SPLINE
  5
28c
100
AcDbEntity
  8
0
 62
7
100
AcDbSpline
 70
8
 71
3
 72
8
 73
4
 74
0
 40
0
 40
0
 40
0
 40
0
 40
1
 40
1
 40
1
 40
1
 10
69.024601
 20
177.048742
 30
0.0
 10
69.112257
 20
177.190585
 30
0.0
 10
69.061007
 20
177.230643
 30
0.0
 10
68.910724
 20
177.137748
 30
0.0
  0
SPLINE
  5
28d
100
AcDbEntity
  8
0
 62
7
100
AcDbSpline
 70
8
 71
3
 72
8
 73
4
 74
0
 40
0
 40
0
 40
0
 40
0
 40
1
 40
1
 40
1
 40
1
 10
68.910724
 20
177.137748
 30
0.0
 10
68.757504
 20
177.043080
 30
0.0
 10
68.573248
 20
177.286629
 30
0.0
 10
68.491280
 20
177.692182
 30
0.0
  0
SPLINE
  5
28e
100
AcDbEntity
  8
0
 62
7
100
AcDbSpline
 70
8
 71
3
 72
8
 73
4
 74
0
 40
0
 40
0
 40
0
 40
0
 40
1
 40
1
 40
1
 40
1
 10
68.491280
 20
177.692182
 30
0.0
 10
68.248683
 20
178.892518
 30
0.0
 10
66.366200
 20
181.537742
 30
0.0
 10
63.799424
 20
184.285070
 30
0.0
  0
SPLINE
  5
28f
100
AcDbEntity
  8
0
 62
7
100
AcDbSpline
 70
8
 71
3
 72
8
 73
4
 74
0
 40
0
 40
0
 40
0
 40
0
 40
1
 40
1
 40
1
 40
1
 10
63.799424
 20
184.285070
 30
0.0
 10
62.464918
 20
185.713476
 30
0.0
 10
61.029607
 20
187.477479
 30
0.0
 10
60.609898
 20
188.205084
 30
0.0
  0
SPLINE
  5
290
100
AcDbEntity
  8
0
 62
7
100
AcDbSpline
 70
8
 71
3
 72
8
 73
4
 74
0
 40
0
 40
0
 40
0
 40
0
 40
1
 40
1
 40
1
 40
1
 10
60.609898
 20
188.205084
 30
0.0
 10
60.190163
 20
188.932688
 30
0.0
 10
59.845649
 20
189.432803
 30
0.0
 10
59.844273
 20
189.316466
 30
0.0
  0
SPLINE
  5
291
100
AcDbEntity
  8
0
 62
7
100
AcDbSpline
 70
8
 71
3
 72
8
 73
4
 74
0
 40
0
 40
0
 40
0
 40
0
 40
1
 40
1
 40
1
 40
1
 10
59.844273
 20
189.316466
 30
0.0
 10
59.844273
 20
189.200129
 30
0.0
 10
60.286524
 20
187.354660
 30
0.0
 10
60.830111
 20
185.215424
 30
0.0
  0
SPLINE
  5
292
100
AcDbEntity
  8
0
 62
7
100
AcDbSpline
 70
8
 71
3
 72
8
 73
4
 74
0
 40
0
 40
0
 40
0
 40
0
 40
1
 40
1
 40
1
 40
1
 10
60.830111
 20
185.215424
 30
0.0
 10
61.949457
 20
180.810138
 30
0.0
 10
62.142444
 20
177.247867
 30
0.0
 10
61.370469
 20
175.240500
 30
0.0
  0
LWPOLYLINE
  5
293
100
AcDbEntity
  8
0
 62
7
100
AcDbPolyline
 90
3
 70
0
 10
75.411404
 20
176.472056
 30
0.0
 10
73.070953
 20
178.008889
 30
0.0
 10
73.070953
 20
176.795165
 30
0.0
  0
SPLINE
  5
294
100
AcDbEntity
  8
0
 62
7
100
AcDbSpline
 70
8
 71
3
 72
8
 73
4
 74
0
 40
0
 40
0
 40
0
 40
0
 40
1
 40
1
 40
1
 40
1
 10
60.769177
 20
175.179011
 30
0.0
 10
60.389818
 20
177.125630
 30
0.0
 10
58.461111
 20
177.810001
 30
0.0
 10
56.946371
 20
176.535424
 30
0.0
  0
SPLINE
  5
295
100
AcDbEntity
  8
0
 62
7
100
AcDbSpline
 70
8
 71
3
 72
8
 73
4
 74
0
 40
0
 40
0
 40
0
 40
0
 40
1
 40
1
 40
1
 40
1
 10
56.946371
 20
176.535424
 30
0.0
 10
56.240172
 20
175.941196
 30
0.0
 10
56.067272
 20
175.895529
 30
0.0
 10
55.694461
 20
176.204695
 30
0.0
  0
SPLINE
  5
296
100
AcDbEntity
  8
0
 62
7
100
AcDbSpline
 70
8
 71
3
 72
8
 73
4
 74
0
 40
0
 40
0
 40
0
 40
0
 40
1
 40
1
 40
1
 40
1
 10
55.694461
 20
176.204695
 30
0.0
 10
55.104411
 20
176.694042
 30
0.0
 10
54.644010
 20
177.888715
 30
0.0
 10
54.429726
 20
179.486481
 30
0.0
  0
SPLINE
  5
297
100
AcDbEntity
  8
0
 62
7
100
AcDbSpline
 70
8
 71
3
 72
8
 73
4
 74
0
 40
0
 40
0
 40
0
 40
0
 40
1
 40
1
 40
1
 40
1
 10
54.429726
 20
179.486481
 30
0.0
 10
54.207405
 20
181.144201
 30
0.0
 10
53.903425
 20
181.711097
 30
0.0
 10
53.469516
 20
181.277181
 30
0.0
  0
SPLINE
  5
298
100
AcDbEntity
  8
0
 62
7
100
AcDbSpline
 70
8
 71
3
 72
8
 73
4
 74
0
 40
0
 40
0
 40
0
 40
0
 40
1
 40
1
 40
1
 40
1
 10
53.469516
 20
181.277181
 30
0.0
 10
53.261816
 20
181.069483
 30
0.0
 10
53.198591
 20
180.203369
 30
0.0
 10
53.276534
 20
178.633543
 30
0.0
  0
SPLINE
  5
299
100
AcDbEntity
  8
0
 62
7
100
AcDbSpline
 70
8
 71
3
 72
8
 73
4
 74
0
 40
0
 40
0
 40
0
 40
0
 40
1
 40
1
 40
1
 40
1
 10
53.276534
 20
178.633543
 30
0.0
 10
53.412488
 20
175.895370
 30
0.0
 10
54.297884
 20
173.596274
 30
0.0
 10
55.763483
 20
172.175779
 30
0.0
  0
SPLINE
  5
29a
100
AcDbEntity
  8
0
 62
7
100
AcDbSpline
 70
8
 71
3
 72
8
 73
4
 74
0
 40
0
 40
0
 40
0
 40
0
 40
1
 40
1
 40
1
 40
1
 10
55.763483
 20
172.175779
 30
0.0
 10
56.260307
 20
171.694237
 30
0.0
 10
56.666799
 20
171.050955
 30
0.0
 10
56.666799
 20
170.746261
 30
0.0
  0
SPLINE
  5
29b
100
AcDbEntity
  8
0
 62
7
100
AcDbSpline
 70
8
 71
3
 72
8
 73
4
 74
0
 40
0
 40
0
 40
0
 40
0
 40
1
 40
1
 40
1
 40
1
 10
56.666799
 20
170.746261
 30
0.0
 10
56.666799
 20
169.501370
 30
0.0
 10
57.522131
 20
167.003095
 30
0.0
 10
58.185362
 20
166.310813
 30
0.0
  0
SPLINE
  5
29c
100
AcDbEntity
  8
0
 62
7
100
AcDbSpline
 70
8
 71
3
 72
8
 73
4
 74
0
 40
0
 40
0
 40
0
 40
0
 40
1
 40
1
 40
1
 40
1
 10
58.185362
 20
166.310813
 30
0.0
 10
59.159928
 20
165.293596
 30
0.0
 10
60.041229
 20
165.368446
 30
0.0
 10
63.635461
 20
166.773834
 30
0.0
  0
SPLINE
  5
29d
100
AcDbEntity
  8
0
 62
7
100
AcDbSpline
 70
8
 71
3
 72
8
 73
4
 74
0
 40
0
 40
0
 40
0
 40
0
 40
1
 40
1
 40
1
 40
1
 10
63.635461
 20
166.773834
 30
0.0
 10
66.585275
 20
167.927232
 30
0.0
 10
67.552168
 20
168.136544
 30
0.0
 10
68.409947
 20
167.807375
 30
0.0
  0
SPLINE
  5
29e
100
AcDbEntity
  8
0
 62
7
100
AcDbSpline
 70
8
 71
3
 72
8
 73
4
 74
0
 40
0
 40
0
 40
0
 40
0
 40
1
 40
1
 40
1
 40
1
 10
68.409947
 20
167.807375
 30
0.0
 10
68.736390
 20
167.682122
 30
0.0
 10
68.658444
 20
167.514931
 30
0.0
 10
68.025216
 20
166.982114
 30
0.0
  0
SPLINE
  5
29f
100
AcDbEntity
  8
0
 62
7
100
AcDbSpline
 70
8
 71
3
 72
8
 73
4
 74
0
 40
0
 40
0
 40
0
 40
0
 40
1
 40
1
 40
1
 40
1
 10
68.025216
 20
166.982114
 30
0.0
 10
66.472536
 20
165.675628
 30
0.0
 10
65.786868
 20
163.362481
 30
0.0
 10
66.061585
 20
160.357688
 30
0.0
  0
LWPOLYLINE
  5
2a0
100
AcDbEntity
  8
0
 62
7
100
AcDbPolyline
 90
3
 70
0
 10
61.370469
 20
175.240500
 30
0.0
 10
60.963461
 20
174.182167
 30
0.0
 10
60.769177
 20
175.179011
 30
0.0
  0
SPLINE
  5
2a1
100
AcDbEntity
  8
0
 62
7
100
AcDbSpline
 70
8
 71
3
 72
8
 73
4
 74
0
 40
0
 40
0
 40
0
 40
0
 40
1
 40
1
 40
1
 40
1
 10
72.002142
 20
158.439459
 30
0.0
 10
75.172988
 20
158.439459
 30
0.0
 10
78.109625
 20
158.508250
 30
0.0
 10
78.527984
 20
158.592308
 30
0.0
  0
LWPOLYLINE
  5
2a2
100
AcDbEntity
  8
0
 62
7
100
AcDbPolyline
 90
3
 70
0
 10
66.061585
 20
160.357688
 30
0.0
 10
66.236951
 20
158.439459
 30
0.0
 10
72.002142
 20
158.439459
 30
0.0
  0
SPLINE
  5
2a3
100
AcDbEntity
  8
0
 62
7
100
AcDbSpline
 70
8
 71
3
 72
8
 73
4
 74
0
 40
0
 40
0
 40
0
 40
0
 40
1
 40
1
 40
1
 40
1
 10
108.395580
 20
159.233209
 30
0.0
 10
108.129409
 20
160.090353
 30
0.0
 10
107.748356
 20
163.536207
 30
0.0
 10
107.459298
 20
167.699875
 30
0.0
  0
SPLINE
  5
2a4
100
AcDbEntity
  8
0
 62
7
100
AcDbSpline
 70
8
 71
3
 72
8
 73
4
 74
0
 40
0
 40
0
 40
0
 40
0
 40
1
 40
1
 40
1
 40
1
 10
107.459298
 20
167.699875
 30
0.0
 10
107.292611
 20
170.100969
 30
0.0
 10
106.995669
 20
172.918543
 30
0.0
 10
106.799428
 20
173.961160
 30
0.0
  0
SPLINE
  5
2a5
100
AcDbEntity
  8
0
 62
7
100
AcDbSpline
 70
8
 71
3
 72
8
 73
4
 74
0
 40
0
 40
0
 40
0
 40
0
 40
1
 40
1
 40
1
 40
1
 10
106.799428
 20
173.961160
 30
0.0
 10
106.434805
 20
175.898254
 30
0.0
 10
105.444523
 20
178.547792
 30
0.0
 10
105.085139
 20
178.547792
 30
0.0
  0
SPLINE
  5
2a6
100
AcDbEntity
  8
0
 62
7
100
AcDbSpline
 70
8
 71
3
 72
8
 73
4
 74
0
 40
0
 40
0
 40
0
 40
0
 40
1
 40
1
 40
1
 40
1
 10
105.085139
 20
178.547792
 30
0.0
 10
104.882627
 20
178.547792
 30
0.0
 10
104.575790
 20
176.755372
 30
0.0
 10
103.998099
 20
172.197792
 30
0.0
  0
SPLINE
  5
2a7
100
AcDbEntity
  8
0
 62
7
100
AcDbSpline
 70
8
 71
3
 72
8
 73
4
 74
0
 40
0
 40
0
 40
0
 40
0
 40
1
 40
1
 40
1
 40
1
 10
103.998099
 20
172.197792
 30
0.0
 10
103.822865
 20
170.815344
 30
0.0
 10
103.668428
 20
167.452278
 30
0.0
 10
103.654908
 20
164.724345
 30
0.0
  0
SPLINE
  5
2a8
100
AcDbEntity
  8
0
 62
7
100
AcDbSpline
 70
8
 71
3
 72
8
 73
4
 74
0
 40
0
 40
0
 40
0
 40
0
 40
1
 40
1
 40
1
 40
1
 10
103.654908
 20
164.724345
 30
0.0
 10
103.633741
 20
160.463442
 30
0.0
 10
103.573390
 20
159.764280
 30
0.0
 10
103.226203
 20
159.763407
 30
0.0
  0
SPLINE
  5
2a9
100
AcDbEntity
  8
0
 62
7
100
AcDbSpline
 70
8
 71
3
 72
8
 73
4
 74
0
 40
0
 40
0
 40
0
 40
0
 40
1
 40
1
 40
1
 40
1
 10
103.226203
 20
159.763407
 30
0.0
 10
102.366440
 20
159.760761
 30
0.0
 10
101.648043
 20
160.600734
 30
0.0
 10
101.235425
 20
162.089809
 30
0.0
  0
SPLINE
  5
2aa
100
AcDbEntity
  8
0
 62
7
100
AcDbSpline
 70
8
 71
3
 72
8
 73
4
 74
0
 40
0
 40
0
 40
0
 40
0
 40
1
 40
1
 40
1
 40
1
 10
101.235425
 20
162.089809
 30
0.0
 10
100.554176
 20
164.548238
 30
0.0
 10
100.300494
 20
165.054042
 30
0.0
 10
99.748652
 20
165.054042
 30
0.0
  0
SPLINE
  5
2ab
100
AcDbEntity
  8
0
 62
7
100
AcDbSpline
 70
8
 71
3
 72
8
 73
4
 74
0
 40
0
 40
0
 40
0
 40
0
 40
1
 40
1
 40
1
 40
1
 10
99.748652
 20
165.054042
 30
0.0
 10
97.968297
 20
165.054042
 30
0.0
 10
95.758868
 20
167.715380
 30
0.0
 10
94.756547
 20
171.067174
 30
0.0
  0
LWPOLYLINE
  5
2ac
100
AcDbEntity
  8
0
 62
7
100
AcDbPolyline
 90
1
 70
1
 10
78.527984
 20
158.592308
 30
0.0
  0
SPLINE
  5
2ad
100
AcDbEntity
  8
0
 62
7
100
AcDbSpline
 70
8
 71
3
 72
8
 73
4
 74
0
 40
0
 40
0
 40
0
 40
0
 40
1
 40
1
 40
1
 40
1
 10
90.947817
 20
167.495299
 30
0.0
 10
89.036970
 20
164.915691
 30
0.0
 10
86.814046
 20
161.912115
 30
0.0
 10
86.007993
 20
160.820709
 30
0.0
  0
LWPOLYLINE
  5
2ae
100
AcDbEntity
  8
0
 62
7
100
AcDbPolyline
 90
3
 70
0
 10
94.756547
 20
171.067174
 30
0.0
 10
94.422113
 20
172.185542
 30
0.0
 10
90.947817
 20
167.495299
 30
0.0
  0
SPLINE
  5
2af
100
AcDbEntity
  8
0
 62
7
100
AcDbSpline
 70
8
 71
3
 72
8
 73
4
 74
0
 40
0
 40
0
 40
0
 40
0
 40
1
 40
1
 40
1
 40
1
 10
96.530631
 20
158.836334
 30
0.0
 10
107.065175
 20
158.836334
 30
0.0
 10
108.503873
 20
158.884461
 30
0.0
 10
108.395580
 20
159.233209
 30
0.0
  0
LWPOLYLINE
  5
2b0
100
AcDbEntity
  8
0
 62
7
100
AcDbPolyline
 90
3
 70
0
 10
86.007993
 20
160.820709
 30
0.0
 10
84.542466
 20
158.836334
 30
0.0
 10
96.530631
 20
158.836334
 30
0.0
  0
LWPOLYLINE
  5
2b1
100
AcDbEntity
  8
0
 62
7
100
AcDbPolyline
 90
1
 70
1
 10
108.395580
 20
159.233209
 30
0.0
  0
SPLINE
  5
2b2
100
AcDbEntity
  8
0
 62
7
100
AcDbSpline
 70
8
 71
3
 72
8
 73
4
 74
0
 40
0
 40
0
 40
0
 40
0
 40
1
 40
1
 40
1
 40
1
 10
92.130822
 20
179.840573
 30
0.0
 10
91.330431
 20
182.289820
 30
0.0
 10
90.329565
 20
184.472924
 30
0.0
 10
89.408656
 20
185.778061
 30
0.0
  0
SPLINE
  5
2b3
100
AcDbEntity
  8
0
 62
7
100
AcDbSpline
 70
8
 71
3
 72
8
 73
4
 74
0
 40
0
 40
0
 40
0
 40
0
 40
1
 40
1
 40
1
 40
1
 10
89.408656
 20
185.778061
 30
0.0
 10
88.422237
 20
187.176119
 30
0.0
 10
88.297697
 20
186.425179
 30
0.0
 10
88.196891
 20
178.471909
 30
0.0
  0
SPLINE
  5
2b4
100
AcDbEntity
  8
0
 62
7
100
AcDbSpline
 70
8
 71
3
 72
8
 73
4
 74
0
 40
0
 40
0
 40
0
 40
0
 40
1
 40
1
 40
1
 40
1
 10
88.196891
 20
178.471909
 30
0.0
 10
88.136407
 20
173.699038
 30
0.0
 10
88.193716
 20
171.102576
 30
0.0
 10
88.356223
 20
171.271750
 30
0.0
  0
SPLINE
  5
2b5
100
AcDbEntity
  8
0
 62
7
100
AcDbSpline
 70
8
 71
3
 72
8
 73
4
 74
0
 40
0
 40
0
 40
0
 40
0
 40
1
 40
1
 40
1
 40
1
 10
88.356223
 20
171.271750
 30
0.0
 10
88.495897
 20
171.417271
 30
0.0
 10
89.576905
 20
172.870574
 30
0.0
 10
90.758428
 20
174.501334
 30
0.0
  0
LWPOLYLINE
  5
2b6
100
AcDbEntity
  8
0
 62
7
100
AcDbPolyline
 90
3
 70
0
 10
90.758428
 20
174.501334
 30
0.0
 10
92.906686
 20
177.466307
 30
0.0
 10
92.130822
 20
179.840573
 30
0.0
  0
SPLINE
  5
2b7
100
AcDbEntity
  8
0
 62
7
100
AcDbSpline
 70
8
 71
3
 72
8
 73
4
 74
0
 40
0
 40
0
 40
0
 40
0
 40
1
 40
1
 40
1
 40
1
 10
460.156375
 20
189.325964
 30
0.0
 10
466.632052
 20
192.083902
 30
0.0
 10
475.115255
 20
195.637706
 30
0.0
 10
479.007937
 20
197.223301
 30
0.0
  0
SPLINE
  5
2b8
100
AcDbEntity
  8
0
 62
7
100
AcDbSpline
 70
8
 71
3
 72
8
 73
4
 74
0
 40
0
 40
0
 40
0
 40
0
 40
1
 40
1
 40
1
 40
1
 10
479.007937
 20
197.223301
 30
0.0
 10
482.900620
 20
198.808896
 30
0.0
 10
486.085541
 20
200.202721
 30
0.0
 10
486.085541
 20
200.320698
 30
0.0
  0
SPLINE
  5
2b9
100
AcDbEntity
  8
0
 62
7
100
AcDbSpline
 70
8
 71
3
 72
8
 73
4
 74
0
 40
0
 40
0
 40
0
 40
0
 40
1
 40
1
 40
1
 40
1
 10
486.085541
 20
200.320698
 30
0.0
 10
486.085541
 20
200.438650
 30
0.0
 10
482.449770
 20
212.439673
 30
0.0
 10
478.006066
 20
226.989614
 30
0.0
  0
SPLINE
  5
2ba
100
AcDbEntity
  8
0
 62
7
100
AcDbSpline
 70
8
 71
3
 72
8
 73
4
 74
0
 40
0
 40
0
 40
0
 40
0
 40
1
 40
1
 40
1
 40
1
 10
478.006066
 20
226.989614
 30
0.0
 10
473.562363
 20
241.539554
 30
0.0
 10
470.008876
 20
253.577222
 30
0.0
 10
470.109444
 20
253.739941
 30
0.0
  0
SPLINE
  5
2bb
100
AcDbEntity
  8
0
 62
7
100
AcDbSpline
 70
8
 71
3
 72
8
 73
4
 74
0
 40
0
 40
0
 40
0
 40
0
 40
1
 40
1
 40
1
 40
1
 10
470.109444
 20
253.739941
 30
0.0
 10
470.210012
 20
253.902660
 30
0.0
 10
470.184612
 20
253.970764
 30
0.0
 10
470.052982
 20
253.891309
 30
0.0
  0
SPLINE
  5
2bc
100
AcDbEntity
  8
0
 62
7
100
AcDbSpline
 70
8
 71
3
 72
8
 73
4
 74
0
 40
0
 40
0
 40
0
 40
0
 40
1
 40
1
 40
1
 40
1
 10
470.052982
 20
253.891309
 30
0.0
 10
469.921352
 20
253.811828
 30
0.0
 10
467.497689
 20
261.351818
 30
0.0
 10
464.667071
 20
270.646869
 30
0.0
  0
SPLINE
  5
2bd
100
AcDbEntity
  8
0
 62
7
100
AcDbSpline
 70
8
 71
3
 72
8
 73
4
 74
0
 40
0
 40
0
 40
0
 40
0
 40
1
 40
1
 40
1
 40
1
 10
464.667071
 20
270.646869
 30
0.0
 10
460.064062
 20
285.761933
 30
0.0
 10
459.119552
 20
288.440283
 30
0.0
 10
459.102090
 20
286.427598
 30
0.0
  0
SPLINE
  5
2be
100
AcDbEntity
  8
0
 62
7
100
AcDbSpline
 70
8
 71
3
 72
8
 73
4
 74
0
 40
0
 40
0
 40
0
 40
0
 40
1
 40
1
 40
1
 40
1
 10
459.102090
 20
286.427598
 30
0.0
 10
459.095210
 20
285.626942
 30
0.0
 10
457.034318
 20
280.710852
 30
0.0
 10
455.991225
 20
279.006697
 30
0.0
  0
SPLINE
  5
2bf
100
AcDbEntity
  8
0
 62
7
100
AcDbSpline
 70
8
 71
3
 72
8
 73
4
 74
0
 40
0
 40
0
 40
0
 40
0
 40
1
 40
1
 40
1
 40
1
 10
455.991225
 20
279.006697
 30
0.0
 10
454.392453
 20
276.394651
 30
0.0
 10
447.560674
 20
269.627271
 30
0.0
 10
445.174476
 20
268.291892
 30
0.0
  0
SPLINE
  5
2c0
100
AcDbEntity
  8
0
 62
7
100
AcDbSpline
 70
8
 71
3
 72
8
 73
4
 74
0
 40
0
 40
0
 40
0
 40
0
 40
1
 40
1
 40
1
 40
1
 10
445.174476
 20
268.291892
 30
0.0
 10
444.774664
 20
268.068134
 30
0.0
 10
444.785962
 20
267.727906
 30
0.0
 10
445.317668
 20
263.978072
 30
0.0
  0
SPLINE
  5
2c1
100
AcDbEntity
  8
0
 62
7
100
AcDbSpline
 70
8
 71
3
 72
8
 73
4
 74
0
 40
0
 40
0
 40
0
 40
0
 40
1
 40
1
 40
1
 40
1
 10
445.317668
 20
263.978072
 30
0.0
 10
445.635142
 20
261.739062
 30
0.0
 10
446.357613
 20
257.049667
 30
0.0
 10
446.923186
 20
253.557167
 30
0.0
  0
SPLINE
  5
2c2
100
AcDbEntity
  8
0
 62
7
100
AcDbSpline
 70
8
 71
3
 72
8
 73
4
 74
0
 40
0
 40
0
 40
0
 40
0
 40
1
 40
1
 40
1
 40
1
 10
446.923186
 20
253.557167
 30
0.0
 10
447.488733
 20
250.064667
 30
0.0
 10
448.430544
 20
243.694823
 30
0.0
 10
449.016094
 20
239.401959
 30
0.0
  0
SPLINE
  5
2c3
100
AcDbEntity
  8
0
 62
7
100
AcDbSpline
 70
8
 71
3
 72
8
 73
4
 74
0
 40
0
 40
0
 40
0
 40
0
 40
1
 40
1
 40
1
 40
1
 10
449.016094
 20
239.401959
 30
0.0
 10
451.362392
 20
222.200311
 30
0.0
 10
451.557390
 20
219.301192
 30
0.0
 10
450.955966
 20
210.562375
 30
0.0
  0
SPLINE
  5
2c4
100
AcDbEntity
  8
0
 62
7
100
AcDbSpline
 70
8
 71
3
 72
8
 73
4
 74
0
 40
0
 40
0
 40
0
 40
0
 40
1
 40
1
 40
1
 40
1
 10
450.955966
 20
210.562375
 30
0.0
 10
450.770678
 20
207.870240
 30
0.0
 10
450.438097
 20
202.691021
 30
0.0
 10
450.216879
 20
199.053000
 30
0.0
  0
SPLINE
  5
2c5
100
AcDbEntity
  8
0
 62
7
100
AcDbSpline
 70
8
 71
3
 72
8
 73
4
 74
0
 40
0
 40
0
 40
0
 40
0
 40
1
 40
1
 40
1
 40
1
 10
450.216879
 20
199.053000
 30
0.0
 10
449.712318
 20
190.755138
 30
0.0
 10
449.446041
 20
188.526182
 30
0.0
 10
448.665626
 20
186.068652
 30
0.0
  0
SPLINE
  5
2c6
100
AcDbEntity
  8
0
 62
7
100
AcDbSpline
 70
8
 71
3
 72
8
 73
4
 74
0
 40
0
 40
0
 40
0
 40
0
 40
1
 40
1
 40
1
 40
1
 10
448.665626
 20
186.068652
 30
0.0
 10
448.323256
 20
184.990528
 30
0.0
 10
448.119474
 20
184.154101
 30
0.0
 10
448.212766
 20
184.209955
 30
0.0
  0
SPLINE
  5
2c7
100
AcDbEntity
  8
0
 62
7
100
AcDbSpline
 70
8
 71
3
 72
8
 73
4
 74
0
 40
0
 40
0
 40
0
 40
0
 40
1
 40
1
 40
1
 40
1
 10
448.212766
 20
184.209955
 30
0.0
 10
448.306084
 20
184.265835
 30
0.0
 10
453.680698
 20
186.568027
 30
0.0
 10
460.156375
 20
189.325964
 30
0.0
  0
LWPOLYLINE
  5
2c8
100
AcDbEntity
  8
0
 62
7
100
AcDbPolyline
 90
1
 70
1
 10
90.758428
 20
174.501334
 30
0.0
  0
SPLINE
  5
2c9
100
AcDbEntity
  8
0
 62
7
100
AcDbSpline
 70
8
 71
3
 72
8
 73
4
 74
0
 40
0
 40
0
 40
0
 40
0
 40
1
 40
1
 40
1
 40
1
 10
108.194496
 20
199.161374
 30
0.0
 10
108.601769
 20
199.270091
 30
0.0
 10
113.290583
 20
205.506505
 30
0.0
 10
123.033494
 20
218.898126
 30
0.0
  0
LWPOLYLINE
  5
2ca
100
AcDbEntity
  8
0
 62
7
100
AcDbPolyline
 90
1
 70
1
 10
460.156375
 20
189.325964
 30
0.0
  0
SPLINE
  5
2cb
100
AcDbEntity
  8
0
 62
7
100
AcDbSpline
 70
8
 71
3
 72
8
 73
4
 74
0
 40
0
 40
0
 40
0
 40
0
 40
1
 40
1
 40
1
 40
1
 10
136.461018
 20
238.667687
 30
0.0
 10
136.012153
 20
238.773150
 30
0.0
 10
135.153104
 20
238.791512
 30
0.0
 10
134.551997
 20
238.708512
 30
0.0
  0
SPLINE
  5
2cc
100
AcDbEntity
  8
0
 62
7
100
AcDbSpline
 70
8
 71
3
 72
8
 73
4
 74
0
 40
0
 40
0
 40
0
 40
0
 40
1
 40
1
 40
1
 40
1
 10
134.551997
 20
238.708512
 30
0.0
 10
133.257258
 20
238.529707
 30
0.0
 10
130.733583
 20
239.005507
 30
0.0
 10
129.408894
 20
239.678157
 30
0.0
  0
SPLINE
  5
2cd
100
AcDbEntity
  8
0
 62
7
100
AcDbSpline
 70
8
 71
3
 72
8
 73
4
 74
0
 40
0
 40
0
 40
0
 40
0
 40
1
 40
1
 40
1
 40
1
 10
129.408894
 20
239.678157
 30
0.0
 10
127.919713
 20
240.434310
 30
0.0
 10
125.925469
 20
242.120552
 30
0.0
 10
125.086634
 20
243.332847
 30
0.0
  0
SPLINE
  5
2ce
100
AcDbEntity
  8
0
 62
7
100
AcDbSpline
 70
8
 71
3
 72
8
 73
4
 74
0
 40
0
 40
0
 40
0
 40
0
 40
1
 40
1
 40
1
 40
1
 10
125.086634
 20
243.332847
 30
0.0
 10
124.171387
 20
244.655578
 30
0.0
 10
124.105241
 20
245.218267
 30
0.0
 10
123.386792
 20
257.790500
 30
0.0
  0
SPLINE
  5
2cf
100
AcDbEntity
  8
0
 62
7
100
AcDbSpline
 70
8
 71
3
 72
8
 73
4
 74
0
 40
0
 40
0
 40
0
 40
0
 40
1
 40
1
 40
1
 40
1
 10
123.386792
 20
257.790500
 30
0.0
 10
123.112657
 20
262.588110
 30
0.0
 10
122.773752
 20
266.498282
 30
0.0
 10
122.604763
 20
266.813533
 30
0.0
  0
SPLINE
  5
2d0
100
AcDbEntity
  8
0
 62
7
100
AcDbSpline
 70
8
 71
3
 72
8
 73
4
 74
0
 40
0
 40
0
 40
0
 40
0
 40
1
 40
1
 40
1
 40
1
 10
122.604763
 20
266.813533
 30
0.0
 10
122.440721
 20
267.119550
 30
0.0
 10
121.053352
 20
268.566397
 30
0.0
 10
119.521706
 20
270.028749
 30
0.0
  0
SPLINE
  5
2d1
100
AcDbEntity
  8
0
 62
7
100
AcDbSpline
 70
8
 71
3
 72
8
 73
4
 74
0
 40
0
 40
0
 40
0
 40
0
 40
1
 40
1
 40
1
 40
1
 10
119.521706
 20
270.028749
 30
0.0
 10
115.756076
 20
273.624014
 30
0.0
 10
114.110950
 20
274.373949
 30
0.0
 10
112.180100
 20
273.375464
 30
0.0
  0
LWPOLYLINE
  5
2d2
100
AcDbEntity
  8
0
 62
7
100
AcDbPolyline
 90
3
 70
0
 10
123.033494
 20
218.898126
 30
0.0
 10
137.277099
 20
238.475917
 30
0.0
 10
136.461018
 20
238.667687
 30
0.0
  0
SPLINE
  5
2d3
100
AcDbEntity
  8
0
 62
7
100
AcDbSpline
 70
8
 71
3
 72
8
 73
4
 74
0
 40
0
 40
0
 40
0
 40
0
 40
1
 40
1
 40
1
 40
1
 10
111.574019
 20
270.795776
 30
0.0
 10
111.940785
 20
267.038984
 30
0.0
 10
111.882417
 20
265.538876
 30
0.0
 10
111.338275
 20
264.735601
 30
0.0
  0
LWPOLYLINE
  5
2d4
100
AcDbEntity
  8
0
 62
7
100
AcDbPolyline
 90
3
 70
0
 10
112.180100
 20
273.375464
 30
0.0
 10
111.363411
 20
272.953162
 30
0.0
 10
111.574019
 20
270.795776
 30
0.0
  0
SPLINE
  5
2d5
100
AcDbEntity
  8
0
 62
7
100
AcDbSpline
 70
8
 71
3
 72
8
 73
4
 74
0
 40
0
 40
0
 40
0
 40
0
 40
1
 40
1
 40
1
 40
1
 10
109.868674
 20
265.397059
 30
0.0
 10
106.608663
 20
270.034729
 30
0.0
 10
104.817725
 20
272.284005
 30
0.0
 10
104.769915
 20
271.800558
 30
0.0
  0
SPLINE
  5
2d6
100
AcDbEntity
  8
0
 62
7
100
AcDbSpline
 70
8
 71
3
 72
8
 73
4
 74
0
 40
0
 40
0
 40
0
 40
0
 40
1
 40
1
 40
1
 40
1
 10
104.769915
 20
271.800558
 30
0.0
 10
104.741816
 20
271.516581
 30
0.0
 10
104.712050
 20
268.903000
 30
0.0
 10
104.703769
 20
265.992584
 30
0.0
  0
SPLINE
  5
2d7
100
AcDbEntity
  8
0
 62
7
100
AcDbSpline
 70
8
 71
3
 72
8
 73
4
 74
0
 40
0
 40
0
 40
0
 40
0
 40
1
 40
1
 40
1
 40
1
 10
104.703769
 20
265.992584
 30
0.0
 10
104.689746
 20
261.077842
 30
0.0
 10
104.649000
 20
260.639163
 30
0.0
 10
104.131634
 20
259.833957
 30
0.0
  0
SPLINE
  5
2d8
100
AcDbEntity
  8
0
 62
7
100
AcDbSpline
 70
8
 71
3
 72
8
 73
4
 74
0
 40
0
 40
0
 40
0
 40
0
 40
1
 40
1
 40
1
 40
1
 10
104.131634
 20
259.833957
 30
0.0
 10
103.707242
 20
259.173424
 30
0.0
 10
103.511847
 20
259.047430
 30
0.0
 10
103.311108
 20
259.304790
 30
0.0
  0
SPLINE
  5
2d9
100
AcDbEntity
  8
0
 62
7
100
AcDbSpline
 70
8
 71
3
 72
8
 73
4
 74
0
 40
0
 40
0
 40
0
 40
0
 40
1
 40
1
 40
1
 40
1
 10
103.311108
 20
259.304790
 30
0.0
 10
103.166196
 20
259.490580
 30
0.0
 10
102.061851
 20
261.547584
 30
0.0
 10
100.856992
 20
263.875917
 30
0.0
  0
SPLINE
  5
2da
100
AcDbEntity
  8
0
 62
7
100
AcDbSpline
 70
8
 71
3
 72
8
 73
4
 74
0
 40
0
 40
0
 40
0
 40
0
 40
1
 40
1
 40
1
 40
1
 10
100.856992
 20
263.875917
 30
0.0
 10
99.652159
 20
266.204250
 30
0.0
 10
98.497914
 20
268.245405
 30
0.0
 10
98.292042
 20
268.411801
 30
0.0
  0
SPLINE
  5
2db
100
AcDbEntity
  8
0
 62
7
100
AcDbSpline
 70
8
 71
3
 72
8
 73
4
 74
0
 40
0
 40
0
 40
0
 40
0
 40
1
 40
1
 40
1
 40
1
 10
98.292042
 20
268.411801
 30
0.0
 10
98.007694
 20
268.641645
 30
0.0
 10
97.595764
 20
268.611403
 30
0.0
 10
96.578203
 20
268.285992
 30
0.0
  0
SPLINE
  5
2dc
100
AcDbEntity
  8
0
 62
7
100
AcDbSpline
 70
8
 71
3
 72
8
 73
4
 74
0
 40
0
 40
0
 40
0
 40
0
 40
1
 40
1
 40
1
 40
1
 10
96.578203
 20
268.285992
 30
0.0
 10
95.260499
 20
267.864616
 30
0.0
 10
95.230865
 20
267.867315
 30
0.0
 10
94.757288
 20
268.452150
 30
0.0
  0
SPLINE
  5
2dd
100
AcDbEntity
  8
0
 62
7
100
AcDbSpline
 70
8
 71
3
 72
8
 73
4
 74
0
 40
0
 40
0
 40
0
 40
0
 40
1
 40
1
 40
1
 40
1
 10
94.757288
 20
268.452150
 30
0.0
 10
94.208304
 20
269.130119
 30
0.0
 10
94.201795
 20
269.123425
 30
0.0
 10
93.590131
 20
267.249354
 30
0.0
  0
SPLINE
  5
2de
100
AcDbEntity
  8
0
 62
7
100
AcDbSpline
 70
8
 71
3
 72
8
 73
4
 74
0
 40
0
 40
0
 40
0
 40
0
 40
1
 40
1
 40
1
 40
1
 10
93.590131
 20
267.249354
 30
0.0
 10
93.051201
 20
265.598116
 30
0.0
 10
92.571829
 20
265.474265
 30
0.0
 10
91.532758
 20
266.717806
 30
0.0
  0
LWPOLYLINE
  5
2df
100
AcDbEntity
  8
0
 62
7
100
AcDbPolyline
 90
3
 70
0
 10
111.338275
 20
264.735601
 30
0.0
 10
110.845224
 20
264.007759
 30
0.0
 10
109.868674
 20
265.397059
 30
0.0
  0
SPLINE
  5
2e0
100
AcDbEntity
  8
0
 62
7
100
AcDbSpline
 70
8
 71
3
 72
8
 73
4
 74
0
 40
0
 40
0
 40
0
 40
0
 40
1
 40
1
 40
1
 40
1
 10
90.126735
 20
258.055084
 30
0.0
 10
89.238979
 20
259.489760
 30
0.0
 10
88.351566
 20
261.841774
 30
0.0
 10
88.314763
 20
262.857456
 30
0.0
  0
SPLINE
  5
2e1
100
AcDbEntity
  8
0
 62
7
100
AcDbSpline
 70
8
 71
3
 72
8
 73
4
 74
0
 40
0
 40
0
 40
0
 40
0
 40
1
 40
1
 40
1
 40
1
 10
88.314763
 20
262.857456
 30
0.0
 10
88.298094
 20
263.315926
 30
0.0
 10
88.213269
 20
263.647449
 30
0.0
 10
88.126141
 20
263.594162
 30
0.0
  0
SPLINE
  5
2e2
100
AcDbEntity
  8
0
 62
7
100
AcDbSpline
 70
8
 71
3
 72
8
 73
4
 74
0
 40
0
 40
0
 40
0
 40
0
 40
1
 40
1
 40
1
 40
1
 10
88.126141
 20
263.594162
 30
0.0
 10
88.038988
 20
263.540875
 30
0.0
 10
87.464022
 20
266.082780
 30
0.0
 10
86.848442
 20
269.242831
 30
0.0
  0
SPLINE
  5
2e3
100
AcDbEntity
  8
0
 62
7
100
AcDbSpline
 70
8
 71
3
 72
8
 73
4
 74
0
 40
0
 40
0
 40
0
 40
0
 40
1
 40
1
 40
1
 40
1
 10
86.848442
 20
269.242831
 30
0.0
 10
85.628316
 20
275.506259
 30
0.0
 10
85.044037
 20
277.851103
 30
0.0
 10
84.257272
 20
279.641723
 30
0.0
  0
LWPOLYLINE
  5
2e4
100
AcDbEntity
  8
0
 62
7
100
AcDbPolyline
 90
5
 70
0
 10
91.532758
 20
266.717806
 30
0.0
 10
90.812271
 20
267.580084
 30
0.0
 10
90.796925
 20
262.288417
 30
0.0
 10
90.781579
 20
256.996750
 30
0.0
 10
90.126735
 20
258.055084
 30
0.0
  0
SPLINE
  5
2e5
100
AcDbEntity
  8
0
 62
7
100
AcDbSpline
 70
8
 71
3
 72
8
 73
4
 74
0
 40
0
 40
0
 40
0
 40
0
 40
1
 40
1
 40
1
 40
1
 10
83.555015
 20
279.165659
 30
0.0
 10
83.413621
 20
277.937569
 30
0.0
 10
83.463971
 20
277.332202
 30
0.0
 10
83.754246
 20
276.770835
 30
0.0
  0
SPLINE
  5
2e6
100
AcDbEntity
  8
0
 62
7
100
AcDbSpline
 70
8
 71
3
 72
8
 73
4
 74
0
 40
0
 40
0
 40
0
 40
0
 40
1
 40
1
 40
1
 40
1
 10
83.754246
 20
276.770835
 30
0.0
 10
84.285106
 20
275.744305
 30
0.0
 10
84.757599
 20
271.216993
 30
0.0
 10
84.557732
 20
269.072439
 30
0.0
  0
SPLINE
  5
2e7
100
AcDbEntity
  8
0
 62
7
100
AcDbSpline
 70
8
 71
3
 72
8
 73
4
 74
0
 40
0
 40
0
 40
0
 40
0
 40
1
 40
1
 40
1
 40
1
 10
84.557732
 20
269.072439
 30
0.0
 10
84.350934
 20
266.853564
 30
0.0
 10
83.761760
 20
264.462234
 30
0.0
 10
83.104429
 20
263.173766
 30
0.0
  0
SPLINE
  5
2e8
100
AcDbEntity
  8
0
 62
7
100
AcDbSpline
 70
8
 71
3
 72
8
 73
4
 74
0
 40
0
 40
0
 40
0
 40
0
 40
1
 40
1
 40
1
 40
1
 10
83.104429
 20
263.173766
 30
0.0
 10
82.506259
 20
262.001265
 30
0.0
 10
82.363622
 20
262.128317
 30
0.0
 10
85.558360
 20
260.987725
 30
0.0
  0
LWPOLYLINE
  5
2e9
100
AcDbEntity
  8
0
 62
7
100
AcDbPolyline
 90
3
 70
0
 10
84.257272
 20
279.641723
 30
0.0
 10
83.744271
 20
280.809250
 30
0.0
 10
83.555015
 20
279.165659
 30
0.0
  0
SPLINE
  5
2ea
100
AcDbEntity
  8
0
 62
7
100
AcDbSpline
 70
8
 71
3
 72
8
 73
4
 74
0
 40
0
 40
0
 40
0
 40
0
 40
1
 40
1
 40
1
 40
1
 10
81.381436
 20
251.589990
 30
0.0
 10
81.471341
 20
250.925674
 30
0.0
 10
81.781433
 20
249.627416
 30
0.0
 10
82.070464
 20
248.704947
 30
0.0
  0
SPLINE
  5
2eb
100
AcDbEntity
  8
0
 62
7
100
AcDbSpline
 70
8
 71
3
 72
8
 73
4
 74
0
 40
0
 40
0
 40
0
 40
0
 40
1
 40
1
 40
1
 40
1
 10
82.070464
 20
248.704947
 30
0.0
 10
82.359521
 20
247.782477
 30
0.0
 10
82.596032
 20
246.323961
 30
0.0
 10
82.596032
 20
245.463801
 30
0.0
  0
LWPOLYLINE
  5
2ec
100
AcDbEntity
  8
0
 62
7
100
AcDbPolyline
 90
5
 70
0
 10
85.558360
 20
260.987725
 30
0.0
 10
87.594646
 20
260.260730
 30
0.0
 10
84.406285
 20
256.529258
 30
0.0
 10
81.217923
 20
252.797786
 30
0.0
 10
81.381436
 20
251.589990
 30
0.0
  0
SPLINE
  5
2ed
100
AcDbEntity
  8
0
 62
7
100
AcDbSpline
 70
8
 71
3
 72
8
 73
4
 74
0
 40
0
 40
0
 40
0
 40
0
 40
1
 40
1
 40
1
 40
1
 10
81.441073
 20
243.899875
 30
0.0
 10
80.683412
 20
243.899875
 30
0.0
 10
80.052698
 20
244.083496
 30
0.0
 10
79.607484
 20
244.433699
 30
0.0
  0
SPLINE
  5
2ee
100
AcDbEntity
  8
0
 62
7
100
AcDbSpline
 70
8
 71
3
 72
8
 73
4
 74
0
 40
0
 40
0
 40
0
 40
0
 40
1
 40
1
 40
1
 40
1
 10
79.607484
 20
244.433699
 30
0.0
 10
78.811168
 20
245.060100
 30
0.0
 10
78.781693
 20
245.026683
 30
0.0
 10
78.371748
 20
243.032465
 30
0.0
  0
SPLINE
  5
2ef
100
AcDbEntity
  8
0
 62
7
100
AcDbSpline
 70
8
 71
3
 72
8
 73
4
 74
0
 40
0
 40
0
 40
0
 40
0
 40
1
 40
1
 40
1
 40
1
 10
78.371748
 20
243.032465
 30
0.0
 10
78.030700
 20
241.373369
 30
0.0
 10
78.274646
 20
239.528403
 30
0.0
 10
79.027597
 20
238.072348
 30
0.0
  0
SPLINE
  5
2f0
100
AcDbEntity
  8
0
 62
7
100
AcDbSpline
 70
8
 71
3
 72
8
 73
4
 74
0
 40
0
 40
0
 40
0
 40
0
 40
1
 40
1
 40
1
 40
1
 10
79.027597
 20
238.072348
 30
0.0
 10
79.359808
 20
237.429966
 30
0.0
 10
79.379440
 20
236.986419
 30
0.0
 10
79.143193
 20
235.463741
 30
0.0
  0
SPLINE
  5
2f1
100
AcDbEntity
  8
0
 62
7
100
AcDbSpline
 70
8
 71
3
 72
8
 73
4
 74
0
 40
0
 40
0
 40
0
 40
0
 40
1
 40
1
 40
1
 40
1
 10
79.143193
 20
235.463741
 30
0.0
 10
78.804844
 20
233.283046
 30
0.0
 10
79.131816
 20
231.666177
 30
0.0
 10
80.030077
 20
231.077585
 30
0.0
  0
SPLINE
  5
2f2
100
AcDbEntity
  8
0
 62
7
100
AcDbSpline
 70
8
 71
3
 72
8
 73
4
 74
0
 40
0
 40
0
 40
0
 40
0
 40
1
 40
1
 40
1
 40
1
 10
80.030077
 20
231.077585
 30
0.0
 10
80.833484
 20
230.551170
 30
0.0
 10
92.882635
 20
230.715476
 30
0.0
 10
95.825199
 20
231.292956
 30
0.0
  0
SPLINE
  5
2f3
100
AcDbEntity
  8
0
 62
7
100
AcDbSpline
 70
8
 71
3
 72
8
 73
4
 74
0
 40
0
 40
0
 40
0
 40
0
 40
1
 40
1
 40
1
 40
1
 10
95.825199
 20
231.292956
 30
0.0
 10
102.434808
 20
232.590102
 30
0.0
 10
105.635605
 20
235.761874
 30
0.0
 10
107.476999
 20
242.839108
 30
0.0
  0
SPLINE
  5
2f4
100
AcDbEntity
  8
0
 62
7
100
AcDbSpline
 70
8
 71
3
 72
8
 73
4
 74
0
 40
0
 40
0
 40
0
 40
0
 40
1
 40
1
 40
1
 40
1
 10
107.476999
 20
242.839108
 30
0.0
 10
107.861624
 20
244.317361
 30
0.0
 10
108.598250
 20
245.374742
 30
0.0
 10
109.606763
 20
245.896262
 30
0.0
  0
SPLINE
  5
2f5
100
AcDbEntity
  8
0
 62
7
100
AcDbSpline
 70
8
 71
3
 72
8
 73
4
 74
0
 40
0
 40
0
 40
0
 40
0
 40
1
 40
1
 40
1
 40
1
 10
109.606763
 20
245.896262
 30
0.0
 10
110.546854
 20
246.382408
 30
0.0
 10
111.243502
 20
246.097160
 30
0.0
 10
111.814922
 20
244.992181
 30
0.0
  0
SPLINE
  5
2f6
100
AcDbEntity
  8
0
 62
7
100
AcDbSpline
 70
8
 71
3
 72
8
 73
4
 74
0
 40
0
 40
0
 40
0
 40
0
 40
1
 40
1
 40
1
 40
1
 10
111.814922
 20
244.992181
 30
0.0
 10
112.168644
 20
244.308127
 30
0.0
 10
112.147503
 20
244.144959
 30
0.0
 10
111.553064
 20
242.970791
 30
0.0
  0
SPLINE
  5
2f7
100
AcDbEntity
  8
0
 62
7
100
AcDbSpline
 70
8
 71
3
 72
8
 73
4
 74
0
 40
0
 40
0
 40
0
 40
0
 40
1
 40
1
 40
1
 40
1
 10
111.553064
 20
242.970791
 30
0.0
 10
110.744365
 20
241.373369
 30
0.0
 10
110.713832
 20
239.671225
 30
0.0
 10
111.446040
 20
237.002823
 30
0.0
  0
SPLINE
  5
2f8
100
AcDbEntity
  8
0
 62
7
100
AcDbSpline
 70
8
 71
3
 72
8
 73
4
 74
0
 40
0
 40
0
 40
0
 40
0
 40
1
 40
1
 40
1
 40
1
 10
111.446040
 20
237.002823
 30
0.0
 10
112.678178
 20
232.512500
 30
0.0
 10
112.890242
 20
231.095391
 30
0.0
 10
112.516677
 20
229.848489
 30
0.0
  0
SPLINE
  5
2f9
100
AcDbEntity
  8
0
 62
7
100
AcDbSpline
 70
8
 71
3
 72
8
 73
4
 74
0
 40
0
 40
0
 40
0
 40
0
 40
1
 40
1
 40
1
 40
1
 10
112.516677
 20
229.848489
 30
0.0
 10
112.072124
 20
228.364732
 30
0.0
 10
110.206917
 20
226.437375
 30
0.0
 10
109.215550
 20
226.437375
 30
0.0
  0
SPLINE
  5
2fa
100
AcDbEntity
  8
0
 62
7
100
AcDbSpline
 70
8
 71
3
 72
8
 73
4
 74
0
 40
0
 40
0
 40
0
 40
0
 40
1
 40
1
 40
1
 40
1
 10
109.215550
 20
226.437375
 30
0.0
 10
108.763430
 20
226.437375
 30
0.0
 10
108.102183
 20
226.816391
 30
0.0
 10
107.358810
 20
227.501609
 30
0.0
  0
LWPOLYLINE
  5
2fb
100
AcDbEntity
  8
0
 62
7
100
AcDbPolyline
 90
3
 70
0
 10
82.596032
 20
245.463801
 30
0.0
 10
82.596032
 20
243.899875
 30
0.0
 10
81.441073
 20
243.899875
 30
0.0
  0
SPLINE
  5
2fc
100
AcDbEntity
  8
0
 62
7
100
AcDbSpline
 70
8
 71
3
 72
8
 73
4
 74
0
 40
0
 40
0
 40
0
 40
0
 40
1
 40
1
 40
1
 40
1
 10
106.028511
 20
227.832338
 30
0.0
 10
105.931859
 20
227.428901
 30
0.0
 10
105.610390
 20
226.186444
 30
0.0
 10
105.314136
 20
225.071331
 30
0.0
  0
LWPOLYLINE
  5
2fd
100
AcDbEntity
  8
0
 62
7
100
AcDbPolyline
 90
3
 70
0
 10
107.358810
 20
227.501609
 30
0.0
 10
106.204274
 20
228.565842
 30
0.0
 10
106.028511
 20
227.832338
 30
0.0
  0
SPLINE
  5
2fe
100
AcDbEntity
  8
0
 62
7
100
AcDbSpline
 70
8
 71
3
 72
8
 73
4
 74
0
 40
0
 40
0
 40
0
 40
0
 40
1
 40
1
 40
1
 40
1
 10
103.843608
 20
223.433190
 30
0.0
 10
103.331084
 20
223.647317
 30
0.0
 10
102.881345
 20
223.785800
 30
0.0
 10
102.844171
 20
223.740901
 30
0.0
  0
SPLINE
  5
2ff
100
AcDbEntity
  8
0
 62
7
100
AcDbSpline
 70
8
 71
3
 72
8
 73
4
 74
0
 40
0
 40
0
 40
0
 40
0
 40
1
 40
1
 40
1
 40
1
 10
102.844171
 20
223.740901
 30
0.0
 10
102.807024
 20
223.696001
 30
0.0
 10
102.272063
 20
222.134668
 30
0.0
 10
101.655398
 20
220.271314
 30
0.0
  0
SPLINE
  5
300
100
AcDbEntity
  8
0
 62
7
100
AcDbSpline
 70
8
 71
3
 72
8
 73
4
 74
0
 40
0
 40
0
 40
0
 40
0
 40
1
 40
1
 40
1
 40
1
 10
101.655398
 20
220.271314
 30
0.0
 10
100.547165
 20
216.922562
 30
0.0
 10
100.527612
 20
216.888113
 30
0.0
 10
99.965637
 20
217.294063
 30
0.0
  0
SPLINE
  5
301
100
AcDbEntity
  8
0
 62
7
100
AcDbSpline
 70
8
 71
3
 72
8
 73
4
 74
0
 40
0
 40
0
 40
0
 40
0
 40
1
 40
1
 40
1
 40
1
 10
99.965637
 20
217.294063
 30
0.0
 10
98.633963
 20
218.256009
 30
0.0
 10
97.329884
 20
218.801050
 30
0.0
 10
96.723830
 20
218.648941
 30
0.0
  0
SPLINE
  5
302
100
AcDbEntity
  8
0
 62
7
100
AcDbSpline
 70
8
 71
3
 72
8
 73
4
 74
0
 40
0
 40
0
 40
0
 40
0
 40
1
 40
1
 40
1
 40
1
 10
96.723830
 20
218.648941
 30
0.0
 10
95.962147
 20
218.457754
 30
0.0
 10
95.219647
 20
217.080730
 30
0.0
 10
94.758108
 20
215.003301
 30
0.0
  0
SPLINE
  5
303
100
AcDbEntity
  8
0
 62
7
100
AcDbSpline
 70
8
 71
3
 72
8
 73
4
 74
0
 40
0
 40
0
 40
0
 40
0
 40
1
 40
1
 40
1
 40
1
 10
94.758108
 20
215.003301
 30
0.0
 10
94.563269
 20
214.126260
 30
0.0
 10
94.310671
 20
213.559972
 30
0.0
 10
94.156763
 20
213.655116
 30
0.0
  0
SPLINE
  5
304
100
AcDbEntity
  8
0
 62
7
100
AcDbSpline
 70
8
 71
3
 72
8
 73
4
 74
0
 40
0
 40
0
 40
0
 40
0
 40
1
 40
1
 40
1
 40
1
 10
94.156763
 20
213.655116
 30
0.0
 10
94.004813
 20
213.749017
 30
0.0
 10
93.973618
 20
213.686020
 30
0.0
 10
94.083817
 20
213.507717
 30
0.0
  0
SPLINE
  5
305
100
AcDbEntity
  8
0
 62
7
100
AcDbSpline
 70
8
 71
3
 72
8
 73
4
 74
0
 40
0
 40
0
 40
0
 40
0
 40
1
 40
1
 40
1
 40
1
 10
94.083817
 20
213.507717
 30
0.0
 10
94.296198
 20
213.164076
 30
0.0
 10
93.647466
 20
210.979888
 30
0.0
 10
92.877714
 20
209.446892
 30
0.0
  0
SPLINE
  5
306
100
AcDbEntity
  8
0
 62
7
100
AcDbSpline
 70
8
 71
3
 72
8
 73
4
 74
0
 40
0
 40
0
 40
0
 40
0
 40
1
 40
1
 40
1
 40
1
 10
92.877714
 20
209.446892
 30
0.0
 10
92.298541
 20
208.293467
 30
0.0
 10
90.704982
 20
207.122792
 30
0.0
 10
89.714038
 20
207.122792
 30
0.0
  0
SPLINE
  5
307
100
AcDbEntity
  8
0
 62
7
100
AcDbSpline
 70
8
 71
3
 72
8
 73
4
 74
0
 40
0
 40
0
 40
0
 40
0
 40
1
 40
1
 40
1
 40
1
 10
89.714038
 20
207.122792
 30
0.0
 10
89.330869
 20
207.122792
 30
0.0
 10
88.703594
 20
207.369622
 30
0.0
 10
88.320055
 20
207.671300
 30
0.0
  0
SPLINE
  5
308
100
AcDbEntity
  8
0
 62
7
100
AcDbSpline
 70
8
 71
3
 72
8
 73
4
 74
0
 40
0
 40
0
 40
0
 40
0
 40
1
 40
1
 40
1
 40
1
 10
88.320055
 20
207.671300
 30
0.0
 10
86.786768
 20
208.877403
 30
0.0
 10
86.017306
 20
211.039922
 30
0.0
 10
85.079094
 20
216.780084
 30
0.0
  0
SPLINE
  5
309
100
AcDbEntity
  8
0
 62
7
100
AcDbSpline
 70
8
 71
3
 72
8
 73
4
 74
0
 40
0
 40
0
 40
0
 40
0
 40
1
 40
1
 40
1
 40
1
 10
85.079094
 20
216.780084
 30
0.0
 10
84.345378
 20
221.269004
 30
0.0
 10
83.444604
 20
222.997792
 30
0.0
 10
81.839456
 20
222.997792
 30
0.0
  0
LWPOLYLINE
  5
30a
100
AcDbEntity
  8
0
 62
7
100
AcDbPolyline
 90
3
 70
0
 10
105.314136
 20
225.071331
 30
0.0
 10
104.775471
 20
223.043829
 30
0.0
 10
103.843608
 20
223.433190
 30
0.0
  0
SPLINE
  5
30b
100
AcDbEntity
  8
0
 62
7
100
AcDbSpline
 70
8
 71
3
 72
8
 73
4
 74
0
 40
0
 40
0
 40
0
 40
0
 40
1
 40
1
 40
1
 40
1
 10
81.382388
 20
220.418104
 30
0.0
 10
81.765346
 20
214.983060
 30
0.0
 10
82.635640
 20
211.692120
 30
0.0
 10
84.554293
 20
208.423907
 30
0.0
  0
SPLINE
  5
30c
100
AcDbEntity
  8
0
 62
7
100
AcDbSpline
 70
8
 71
3
 72
8
 73
4
 74
0
 40
0
 40
0
 40
0
 40
0
 40
1
 40
1
 40
1
 40
1
 10
84.554293
 20
208.423907
 30
0.0
 10
85.935180
 20
206.071708
 30
0.0
 10
87.431584
 20
204.466084
 30
0.0
 10
89.542509
 20
203.071624
 30
0.0
  0
SPLINE
  5
30d
100
AcDbEntity
  8
0
 62
7
100
AcDbSpline
 70
8
 71
3
 72
8
 73
4
 74
0
 40
0
 40
0
 40
0
 40
0
 40
1
 40
1
 40
1
 40
1
 10
89.542509
 20
203.071624
 30
0.0
 10
92.990744
 20
200.793773
 30
0.0
 10
96.702346
 20
199.411087
 30
0.0
 10
100.617015
 20
198.946082
 30
0.0
  0
SPLINE
  5
30e
100
AcDbEntity
  8
0
 62
7
100
AcDbSpline
 70
8
 71
3
 72
8
 73
4
 74
0
 40
0
 40
0
 40
0
 40
0
 40
1
 40
1
 40
1
 40
1
 10
100.617015
 20
198.946082
 30
0.0
 10
102.530667
 20
198.718752
 30
0.0
 10
107.013793
 20
198.846122
 30
0.0
 10
108.194549
 20
199.161374
 30
0.0
  0
LWPOLYLINE
  5
30f
100
AcDbEntity
  8
0
 62
7
100
AcDbPolyline
 90
3
 70
0
 10
81.839456
 20
222.997792
 30
0.0
 10
81.200593
 20
222.997792
 30
0.0
 10
81.382388
 20
220.418104
 30
0.0
  0
SPLINE
  5
310
100
AcDbEntity
  8
0
 62
7
100
AcDbSpline
 70
8
 71
3
 72
8
 73
4
 74
0
 40
0
 40
0
 40
0
 40
0
 40
1
 40
1
 40
1
 40
1
 10
498.388666
 20
204.739108
 30
0.0
 10
509.801786
 20
208.971912
 30
0.0
 10
522.350762
 20
213.018714
 30
0.0
 10
529.477208
 20
214.764594
 30
0.0
  0
SPLINE
  5
311
100
AcDbEntity
  8
0
 62
7
100
AcDbSpline
 70
8
 71
3
 72
8
 73
4
 74
0
 40
0
 40
0
 40
0
 40
0
 40
1
 40
1
 40
1
 40
1
 10
529.477208
 20
214.764594
 30
0.0
 10
535.342650
 20
216.201546
 30
0.0
 10
543.146059
 20
217.543010
 30
0.0
 10
557.432395
 20
219.570247
 30
0.0
  0
LWPOLYLINE
  5
312
100
AcDbEntity
  8
0
 62
7
100
AcDbPolyline
 90
1
 70
1
 10
108.194549
 20
199.161374
 30
0.0
  0
SPLINE
  5
313
100
AcDbEntity
  8
0
 62
7
100
AcDbSpline
 70
8
 71
3
 72
8
 73
4
 74
0
 40
0
 40
0
 40
0
 40
0
 40
1
 40
1
 40
1
 40
1
 10
559.681354
 20
221.015004
 30
0.0
 10
559.731201
 20
221.641194
 30
0.0
 10
559.683999
 20
222.098341
 30
0.0
 10
559.573562
 20
222.030872
 30
0.0
  0
SPLINE
  5
314
100
AcDbEntity
  8
0
 62
7
100
AcDbSpline
 70
8
 71
3
 72
8
 73
4
 74
0
 40
0
 40
0
 40
0
 40
0
 40
1
 40
1
 40
1
 40
1
 10
559.573562
 20
222.030872
 30
0.0
 10
559.464422
 20
221.963430
 30
0.0
 10
559.375125
 20
224.183072
 30
0.0
 10
559.375125
 20
226.963446
 30
0.0
  0
SPLINE
  5
315
100
AcDbEntity
  8
0
 62
7
100
AcDbSpline
 70
8
 71
3
 72
8
 73
4
 74
0
 40
0
 40
0
 40
0
 40
0
 40
1
 40
1
 40
1
 40
1
 10
559.375125
 20
226.963446
 30
0.0
 10
559.375125
 20
233.221636
 30
0.0
 10
558.588492
 20
276.524694
 30
0.0
 10
558.472710
 20
276.640475
 30
0.0
  0
SPLINE
  5
316
100
AcDbEntity
  8
0
 62
7
100
AcDbSpline
 70
8
 71
3
 72
8
 73
4
 74
0
 40
0
 40
0
 40
0
 40
0
 40
1
 40
1
 40
1
 40
1
 10
558.472710
 20
276.640475
 30
0.0
 10
558.426408
 20
276.686804
 30
0.0
 10
555.209869
 20
277.125192
 30
0.0
 10
551.324886
 20
277.614698
 30
0.0
  0
SPLINE
  5
317
100
AcDbEntity
  8
0
 62
7
100
AcDbSpline
 70
8
 71
3
 72
8
 73
4
 74
0
 40
0
 40
0
 40
0
 40
0
 40
1
 40
1
 40
1
 40
1
 10
551.324886
 20
277.614698
 30
0.0
 10
547.439903
 20
278.104203
 30
0.0
 10
544.212383
 20
278.553571
 30
0.0
 10
544.152640
 20
278.613341
 30
0.0
  0
SPLINE
  5
318
100
AcDbEntity
  8
0
 62
7
100
AcDbSpline
 70
8
 71
3
 72
8
 73
4
 74
0
 40
0
 40
0
 40
0
 40
0
 40
1
 40
1
 40
1
 40
1
 10
544.152640
 20
278.613341
 30
0.0
 10
544.092871
 20
278.673084
 30
0.0
 10
544.709562
 20
279.125362
 30
0.0
 10
545.523050
 20
279.618387
 30
0.0
  0
SPLINE
  5
319
100
AcDbEntity
  8
0
 62
7
100
AcDbSpline
 70
8
 71
3
 72
8
 73
4
 74
0
 40
0
 40
0
 40
0
 40
0
 40
1
 40
1
 40
1
 40
1
 10
545.523050
 20
279.618387
 30
0.0
 10
546.446101
 20
280.177796
 30
0.0
 10
548.507153
 20
280.950458
 30
0.0
 10
551.005798
 20
281.673776
 30
0.0
  0
SPLINE
  5
31a
100
AcDbEntity
  8
0
 62
7
100
AcDbSpline
 70
8
 71
3
 72
8
 73
4
 74
0
 40
0
 40
0
 40
0
 40
0
 40
1
 40
1
 40
1
 40
1
 10
551.005798
 20
281.673776
 30
0.0
 10
555.747846
 20
283.046488
 30
0.0
 10
557.130691
 20
283.745358
 30
0.0
 10
558.869612
 20
285.648003
 30
0.0
  0
SPLINE
  5
31b
100
AcDbEntity
  8
0
 62
7
100
AcDbSpline
 70
8
 71
3
 72
8
 73
4
 74
0
 40
0
 40
0
 40
0
 40
0
 40
1
 40
1
 40
1
 40
1
 10
558.869612
 20
285.648003
 30
0.0
 10
560.271321
 20
287.181713
 30
0.0
 10
560.303865
 20
287.301226
 30
0.0
 10
559.899899
 20
289.431360
 30
0.0
  0
SPLINE
  5
31c
100
AcDbEntity
  8
0
 62
7
100
AcDbSpline
 70
8
 71
3
 72
8
 73
4
 74
0
 40
0
 40
0
 40
0
 40
0
 40
1
 40
1
 40
1
 40
1
 10
559.899899
 20
289.431360
 30
0.0
 10
558.631566
 20
296.119206
 30
0.0
 10
558.387541
 20
307.381672
 30
0.0
 10
559.269794
 20
318.512375
 30
0.0
  0
SPLINE
  5
31d
100
AcDbEntity
  8
0
 62
7
100
AcDbSpline
 70
8
 71
3
 72
8
 73
4
 74
0
 40
0
 40
0
 40
0
 40
0
 40
1
 40
1
 40
1
 40
1
 10
559.269794
 20
318.512375
 30
0.0
 10
559.624997
 20
322.994020
 30
0.0
 10
559.763427
 20
327.389596
 30
0.0
 10
559.765544
 20
334.255084
 30
0.0
  0
SPLINE
  5
31e
100
AcDbEntity
  8
0
 62
7
100
AcDbSpline
 70
8
 71
3
 72
8
 73
4
 74
0
 40
0
 40
0
 40
0
 40
0
 40
1
 40
1
 40
1
 40
1
 10
559.765544
 20
334.255084
 30
0.0
 10
559.768719
 20
344.430059
 30
0.0
 10
559.552819
 20
346.822183
 30
0.0
 10
558.040725
 20
353.371229
 30
0.0
  0
LWPOLYLINE
  5
31f
100
AcDbEntity
  8
0
 62
7
100
AcDbPolyline
 90
3
 70
0
 10
557.432395
 20
219.570247
 30
0.0
 10
559.590707
 20
219.876502
 30
0.0
 10
559.681354
 20
221.015004
 30
0.0
  0
SPLINE
  5
320
100
AcDbEntity
  8
0
 62
7
100
AcDbSpline
 70
8
 71
3
 72
8
 73
4
 74
0
 40
0
 40
0
 40
0
 40
0
 40
1
 40
1
 40
1
 40
1
 10
556.242564
 20
355.839263
 30
0.0
 10
555.564384
 20
355.850640
 30
0.0
 10
548.699187
 20
356.178035
 30
0.0
 10
540.986583
 20
356.566867
 30
0.0
  0
LWPOLYLINE
  5
321
100
AcDbEntity
  8
0
 62
7
100
AcDbPolyline
 90
3
 70
0
 10
558.040725
 20
353.371229
 30
0.0
 10
557.475628
 20
355.818625
 30
0.0
 10
556.242564
 20
355.839263
 30
0.0
  0
SPLINE
  5
322
100
AcDbEntity
  8
0
 62
7
100
AcDbSpline
 70
8
 71
3
 72
8
 73
4
 74
0
 40
0
 40
0
 40
0
 40
0
 40
1
 40
1
 40
1
 40
1
 10
528.075737
 20
360.264816
 30
0.0
 10
530.823514
 20
361.519364
 30
0.0
 10
532.599027
 20
361.764263
 30
0.0
 10
541.912625
 20
362.173361
 30
0.0
  0
SPLINE
  5
323
100
AcDbEntity
  8
0
 62
7
100
AcDbSpline
 70
8
 71
3
 72
8
 73
4
 74
0
 40
0
 40
0
 40
0
 40
0
 40
1
 40
1
 40
1
 40
1
 10
541.912625
 20
362.173361
 30
0.0
 10
549.183534
 20
362.492740
 30
0.0
 10
551.962505
 20
363.000264
 30
0.0
 10
555.090356
 20
364.579985
 30
0.0
  0
SPLINE
  5
324
100
AcDbEntity
  8
0
 62
7
100
AcDbSpline
 70
8
 71
3
 72
8
 73
4
 74
0
 40
0
 40
0
 40
0
 40
0
 40
1
 40
1
 40
1
 40
1
 10
555.090356
 20
364.579985
 30
0.0
 10
556.693996
 20
365.389901
 30
0.0
 10
557.659302
 20
366.100254
 30
0.0
 10
558.662231
 20
367.208514
 30
0.0
  0
LWPOLYLINE
  5
325
100
AcDbEntity
  8
0
 62
7
100
AcDbPolyline
 90
5
 70
0
 10
540.986583
 20
356.566867
 30
0.0
 10
526.963666
 20
357.273886
 30
0.0
 10
526.885112
 20
358.479619
 30
0.0
 10
526.806557
 20
359.685352
 30
0.0
 10
528.075737
 20
360.264816
 30
0.0
  0
SPLINE
  5
326
100
AcDbEntity
  8
0
 62
7
100
AcDbSpline
 70
8
 71
3
 72
8
 73
4
 74
0
 40
0
 40
0
 40
0
 40
0
 40
1
 40
1
 40
1
 40
1
 10
559.992371
 20
381.521364
 30
0.0
 10
559.957314
 20
391.659615
 30
0.0
 10
559.859683
 20
394.947169
 30
0.0
 10
559.521995
 20
397.358264
 30
0.0
  0
SPLINE
  5
327
100
AcDbEntity
  8
0
 62
7
100
AcDbSpline
 70
8
 71
3
 72
8
 73
4
 74
0
 40
0
 40
0
 40
0
 40
0
 40
1
 40
1
 40
1
 40
1
 10
559.521995
 20
397.358264
 30
0.0
 10
558.808123
 20
402.455356
 30
0.0
 10
558.912474
 20
402.211172
 30
0.0
 10
557.316296
 20
402.519438
 30
0.0
  0
LWPOLYLINE
  5
328
100
AcDbEntity
  8
0
 62
7
100
AcDbPolyline
 90
3
 70
0
 10
558.662231
 20
367.208514
 30
0.0
 10
560.036583
 20
368.727170
 30
0.0
 10
559.992371
 20
381.521364
 30
0.0
  0
SPLINE
  5
329
100
AcDbEntity
  8
0
 62
7
100
AcDbSpline
 70
8
 71
3
 72
8
 73
4
 74
0
 40
0
 40
0
 40
0
 40
0
 40
1
 40
1
 40
1
 40
1
 10
556.884734
 20
404.106938
 30
0.0
 10
559.119537
 20
407.221904
 30
0.0
 10
560.203853
 20
410.321445
 30
0.0
 10
560.265368
 20
413.770553
 30
0.0
  0
LWPOLYLINE
  5
32a
100
AcDbEntity
  8
0
 62
7
100
AcDbPolyline
 90
3
 70
0
 10
557.316296
 20
402.519438
 30
0.0
 10
555.936917
 20
402.785821
 30
0.0
 10
556.884734
 20
404.106938
 30
0.0
  0
SPLINE
  5
32b
100
AcDbEntity
  8
0
 62
7
100
AcDbSpline
 70
8
 71
3
 72
8
 73
4
 74
0
 40
0
 40
0
 40
0
 40
0
 40
1
 40
1
 40
1
 40
1
 10
559.273816
 20
416.688378
 30
0.0
 10
558.708798
 20
417.189155
 30
0.0
 10
558.075941
 20
417.698452
 30
0.0
 10
557.867476
 20
417.820134
 30
0.0
  0
SPLINE
  5
32c
100
AcDbEntity
  8
0
 62
7
100
AcDbSpline
 70
8
 71
3
 72
8
 73
4
 74
0
 40
0
 40
0
 40
0
 40
0
 40
1
 40
1
 40
1
 40
1
 10
557.867476
 20
417.820134
 30
0.0
 10
557.617736
 20
417.965919
 30
0.0
 10
556.118183
 20
417.451543
 30
0.0
 10
553.470868
 20
416.311956
 30
0.0
  0
SPLINE
  5
32d
100
AcDbEntity
  8
0
 62
7
100
AcDbSpline
 70
8
 71
3
 72
8
 73
4
 74
0
 40
0
 40
0
 40
0
 40
0
 40
1
 40
1
 40
1
 40
1
 10
553.470868
 20
416.311956
 30
0.0
 10
551.261174
 20
415.360752
 30
0.0
 10
541.864550
 20
411.313077
 30
0.0
 10
532.589475
 20
407.317075
 30
0.0
  0
SPLINE
  5
32e
100
AcDbEntity
  8
0
 62
7
100
AcDbSpline
 70
8
 71
3
 72
8
 73
4
 74
0
 40
0
 40
0
 40
0
 40
0
 40
1
 40
1
 40
1
 40
1
 10
532.589475
 20
407.317075
 30
0.0
 10
519.391821
 20
401.631126
 30
0.0
 10
515.791238
 20
400.175918
 30
0.0
 10
516.027061
 20
400.623196
 30
0.0
  0
SPLINE
  5
32f
100
AcDbEntity
  8
0
 62
7
100
AcDbSpline
 70
8
 71
3
 72
8
 73
4
 74
0
 40
0
 40
0
 40
0
 40
0
 40
1
 40
1
 40
1
 40
1
 10
516.027061
 20
400.623196
 30
0.0
 10
517.455150
 20
403.331577
 30
0.0
 10
520.957784
 20
407.041141
 30
0.0
 10
523.831053
 20
408.888171
 30
0.0
  0
SPLINE
  5
330
100
AcDbEntity
  8
0
 62
7
100
AcDbSpline
 70
8
 71
3
 72
8
 73
4
 74
0
 40
0
 40
0
 40
0
 40
0
 40
1
 40
1
 40
1
 40
1
 10
523.831053
 20
408.888171
 30
0.0
 10
526.660771
 20
410.707234
 30
0.0
 10
530.196293
 20
412.182736
 30
0.0
 10
537.476568
 20
414.582930
 30
0.0
  0
SPLINE
  5
331
100
AcDbEntity
  8
0
 62
7
100
AcDbSpline
 70
8
 71
3
 72
8
 73
4
 74
0
 40
0
 40
0
 40
0
 40
0
 40
1
 40
1
 40
1
 40
1
 10
537.476568
 20
414.582930
 30
0.0
 10
545.081513
 20
417.090148
 30
0.0
 10
549.329001
 20
418.931675
 30
0.0
 10
552.269634
 20
420.996536
 30
0.0
  0
SPLINE
  5
332
100
AcDbEntity
  8
0
 62
7
100
AcDbSpline
 70
8
 71
3
 72
8
 73
4
 74
0
 40
0
 40
0
 40
0
 40
0
 40
1
 40
1
 40
1
 40
1
 10
552.269634
 20
420.996536
 30
0.0
 10
554.728221
 20
422.722916
 30
0.0
 10
557.958307
 20
426.237905
 30
0.0
 10
559.375125
 20
428.728719
 30
0.0
  0
LWPOLYLINE
  5
333
100
AcDbEntity
  8
0
 62
7
100
AcDbPolyline
 90
3
 70
0
 10
560.265368
 20
413.770553
 30
0.0
 10
560.301166
 20
415.777868
 30
0.0
 10
559.273816
 20
416.688378
 30
0.0
  0
SPLINE
  5
334
100
AcDbEntity
  8
0
 62
7
100
AcDbSpline
 70
8
 71
3
 72
8
 73
4
 74
0
 40
0
 40
0
 40
0
 40
0
 40
1
 40
1
 40
1
 40
1
 10
560.565750
 20
434.264543
 30
0.0
 10
560.565750
 20
437.593716
 30
0.0
 10
560.325349
 20
439.204235
 30
0.0
 10
558.699247
 20
446.769202
 30
0.0
  0
SPLINE
  5
335
100
AcDbEntity
  8
0
 62
7
100
AcDbSpline
 70
8
 71
3
 72
8
 73
4
 74
0
 40
0
 40
0
 40
0
 40
0
 40
1
 40
1
 40
1
 40
1
 10
558.699247
 20
446.769202
 30
0.0
 10
558.522981
 20
447.589251
 30
0.0
 10
558.128805
 20
447.526148
 30
0.0
 10
555.751339
 20
446.297238
 30
0.0
  0
SPLINE
  5
336
100
AcDbEntity
  8
0
 62
7
100
AcDbSpline
 70
8
 71
3
 72
8
 73
4
 74
0
 40
0
 40
0
 40
0
 40
0
 40
1
 40
1
 40
1
 40
1
 10
555.751339
 20
446.297238
 30
0.0
 10
552.993454
 20
444.871689
 30
0.0
 10
551.064298
 20
442.932267
 30
0.0
 10
546.943677
 20
437.442639
 30
0.0
  0
SPLINE
  5
337
100
AcDbEntity
  8
0
 62
7
100
AcDbSpline
 70
8
 71
3
 72
8
 73
4
 74
0
 40
0
 40
0
 40
0
 40
0
 40
1
 40
1
 40
1
 40
1
 10
546.943677
 20
437.442639
 30
0.0
 10
543.363229
 20
432.672678
 30
0.0
 10
540.797856
 20
429.914317
 30
0.0
 10
538.560486
 20
428.428841
 30
0.0
  0
SPLINE
  5
338
100
AcDbEntity
  8
0
 62
7
100
AcDbSpline
 70
8
 71
3
 72
8
 73
4
 74
0
 40
0
 40
0
 40
0
 40
0
 40
1
 40
1
 40
1
 40
1
 10
538.560486
 20
428.428841
 30
0.0
 10
537.808223
 20
427.929387
 30
0.0
 10
537.113268
 20
427.520764
 30
0.0
 10
537.016166
 20
427.520764
 30
0.0
  0
SPLINE
  5
339
100
AcDbEntity
  8
0
 62
7
100
AcDbSpline
 70
8
 71
3
 72
8
 73
4
 74
0
 40
0
 40
0
 40
0
 40
0
 40
1
 40
1
 40
1
 40
1
 10
537.016166
 20
427.520764
 30
0.0
 10
536.674669
 20
427.520764
 30
0.0
 10
539.016998
 20
431.548596
 30
0.0
 10
540.522425
 20
433.550142
 30
0.0
  0
SPLINE
  5
33a
100
AcDbEntity
  8
0
 62
7
100
AcDbSpline
 70
8
 71
3
 72
8
 73
4
 74
0
 40
0
 40
0
 40
0
 40
0
 40
1
 40
1
 40
1
 40
1
 10
540.522425
 20
433.550142
 30
0.0
 10
541.359804
 20
434.663429
 30
0.0
 10
543.865700
 20
437.654517
 30
0.0
 10
546.091110
 20
440.197005
 30
0.0
  0
SPLINE
  5
33b
100
AcDbEntity
  8
0
 62
7
100
AcDbSpline
 70
8
 71
3
 72
8
 73
4
 74
0
 40
0
 40
0
 40
0
 40
0
 40
1
 40
1
 40
1
 40
1
 10
546.091110
 20
440.197005
 30
0.0
 10
553.436023
 20
448.588397
 30
0.0
 10
555.303822
 20
451.116068
 30
0.0
 10
557.546034
 20
455.698889
 30
0.0
  0
SPLINE
  5
33c
100
AcDbEntity
  8
0
 62
7
100
AcDbSpline
 70
8
 71
3
 72
8
 73
4
 74
0
 40
0
 40
0
 40
0
 40
0
 40
1
 40
1
 40
1
 40
1
 10
557.546034
 20
455.698889
 30
0.0
 10
558.975895
 20
458.621424
 30
0.0
 10
560.162022
 20
462.363161
 30
0.0
 10
560.167023
 20
463.967118
 30
0.0
  0
SPLINE
  5
33d
100
AcDbEntity
  8
0
 62
7
100
AcDbSpline
 70
8
 71
3
 72
8
 73
4
 74
0
 40
0
 40
0
 40
0
 40
0
 40
1
 40
1
 40
1
 40
1
 10
560.167023
 20
463.967118
 30
0.0
 10
560.169669
 20
464.473769
 30
0.0
 10
560.028064
 20
464.562431
 30
0.0
 10
559.223333
 20
464.562431
 30
0.0
  0
SPLINE
  5
33e
100
AcDbEntity
  8
0
 62
7
100
AcDbSpline
 70
8
 71
3
 72
8
 73
4
 74
0
 40
0
 40
0
 40
0
 40
0
 40
1
 40
1
 40
1
 40
1
 10
559.223333
 20
464.562431
 30
0.0
 10
557.892215
 20
464.562431
 30
0.0
 10
554.504278
 20
463.372732
 30
0.0
 10
552.680611
 20
462.264921
 30
0.0
  0
SPLINE
  5
33f
100
AcDbEntity
  8
0
 62
7
100
AcDbSpline
 70
8
 71
3
 72
8
 73
4
 74
0
 40
0
 40
0
 40
0
 40
0
 40
1
 40
1
 40
1
 40
1
 10
552.680611
 20
462.264921
 30
0.0
 10
551.833494
 20
461.750307
 30
0.0
 10
550.450332
 20
460.690412
 30
0.0
 10
549.606920
 20
459.909548
 30
0.0
  0
SPLINE
  5
340
100
AcDbEntity
  8
0
 62
7
100
AcDbSpline
 70
8
 71
3
 72
8
 73
4
 74
0
 40
0
 40
0
 40
0
 40
0
 40
1
 40
1
 40
1
 40
1
 10
549.606920
 20
459.909548
 30
0.0
 10
548.763507
 20
459.128683
 30
0.0
 10
548.026696
 20
458.516702
 30
0.0
 10
547.969599
 20
458.549536
 30
0.0
  0
SPLINE
  5
341
100
AcDbEntity
  8
0
 62
7
100
AcDbSpline
 70
8
 71
3
 72
8
 73
4
 74
0
 40
0
 40
0
 40
0
 40
0
 40
1
 40
1
 40
1
 40
1
 10
547.969599
 20
458.549536
 30
0.0
 10
547.912475
 20
458.582398
 30
0.0
 10
547.892287
 20
458.563030
 30
0.0
 10
547.924699
 20
458.506224
 30
0.0
  0
SPLINE
  5
342
100
AcDbEntity
  8
0
 62
7
100
AcDbSpline
 70
8
 71
3
 72
8
 73
4
 74
0
 40
0
 40
0
 40
0
 40
0
 40
1
 40
1
 40
1
 40
1
 10
547.924699
 20
458.506224
 30
0.0
 10
547.957137
 20
458.449550
 30
0.0
 10
547.371614
 20
457.735175
 30
0.0
 10
546.623531
 20
456.918724
 30
0.0
  0
SPLINE
  5
343
100
AcDbEntity
  8
0
 62
7
100
AcDbSpline
 70
8
 71
3
 72
8
 73
4
 74
0
 40
0
 40
0
 40
0
 40
0
 40
1
 40
1
 40
1
 40
1
 10
546.623531
 20
456.918724
 30
0.0
 10
545.875448
 20
456.102299
 30
0.0
 10
543.176672
 20
452.638004
 30
0.0
 10
540.626247
 20
449.220302
 30
0.0
  0
SPLINE
  5
344
100
AcDbEntity
  8
0
 62
7
100
AcDbSpline
 70
8
 71
3
 72
8
 73
4
 74
0
 40
0
 40
0
 40
0
 40
0
 40
1
 40
1
 40
1
 40
1
 10
540.626247
 20
449.220302
 30
0.0
 10
536.313724
 20
443.441272
 30
0.0
 10
531.586784
 20
437.993078
 30
0.0
 10
531.392077
 20
438.577172
 30
0.0
  0
SPLINE
  5
345
100
AcDbEntity
  8
0
 62
7
100
AcDbSpline
 70
8
 71
3
 72
8
 73
4
 74
0
 40
0
 40
0
 40
0
 40
0
 40
1
 40
1
 40
1
 40
1
 10
531.392077
 20
438.577172
 30
0.0
 10
531.161149
 20
439.269957
 30
0.0
 10
532.242369
 20
443.000503
 30
0.0
 10
533.287102
 20
445.115556
 30
0.0
  0
SPLINE
  5
346
100
AcDbEntity
  8
0
 62
7
100
AcDbSpline
 70
8
 71
3
 72
8
 73
4
 74
0
 40
0
 40
0
 40
0
 40
0
 40
1
 40
1
 40
1
 40
1
 10
533.287102
 20
445.115556
 30
0.0
 10
535.169798
 20
448.927117
 30
0.0
 10
537.489956
 20
451.685768
 30
0.0
 10
545.737045
 20
459.918411
 30
0.0
  0
SPLINE
  5
347
100
AcDbEntity
  8
0
 62
7
100
AcDbSpline
 70
8
 71
3
 72
8
 73
4
 74
0
 40
0
 40
0
 40
0
 40
0
 40
1
 40
1
 40
1
 40
1
 10
545.737045
 20
459.918411
 30
0.0
 10
549.972151
 20
464.146109
 30
0.0
 10
554.220327
 20
468.617170
 30
0.0
 10
555.177431
 20
469.854097
 30
0.0
  0
SPLINE
  5
348
100
AcDbEntity
  8
0
 62
7
100
AcDbSpline
 70
8
 71
3
 72
8
 73
4
 74
0
 40
0
 40
0
 40
0
 40
0
 40
1
 40
1
 40
1
 40
1
 10
555.177431
 20
469.854097
 30
0.0
 10
560.340034
 20
476.526095
 30
0.0
 10
561.929465
 20
481.988789
 30
0.0
 10
560.655893
 20
488.682985
 30
0.0
  0
SPLINE
  5
349
100
AcDbEntity
  8
0
 62
7
100
AcDbSpline
 70
8
 71
3
 72
8
 73
4
 74
0
 40
0
 40
0
 40
0
 40
0
 40
1
 40
1
 40
1
 40
1
 10
560.655893
 20
488.682985
 30
0.0
 10
560.324952
 20
490.422435
 30
0.0
 10
560.215283
 20
490.482496
 30
0.0
 10
557.359264
 20
490.487973
 30
0.0
  0
SPLINE
  5
34a
100
AcDbEntity
  8
0
 62
7
100
AcDbSpline
 70
8
 71
3
 72
8
 73
4
 74
0
 40
0
 40
0
 40
0
 40
0
 40
1
 40
1
 40
1
 40
1
 10
557.359264
 20
490.487973
 30
0.0
 10
552.770410
 20
490.496704
 30
0.0
 10
548.144488
 20
489.052608
 30
0.0
 10
544.090384
 20
486.345524
 30
0.0
  0
SPLINE
  5
34b
100
AcDbEntity
  8
0
 62
7
100
AcDbSpline
 70
8
 71
3
 72
8
 73
4
 74
0
 40
0
 40
0
 40
0
 40
0
 40
1
 40
1
 40
1
 40
1
 10
544.090384
 20
486.345524
 30
0.0
 10
541.138375
 20
484.374378
 30
0.0
 10
536.324995
 20
479.609391
 30
0.0
 10
532.108754
 20
474.484306
 30
0.0
  0
SPLINE
  5
34c
100
AcDbEntity
  8
0
 62
7
100
AcDbSpline
 70
8
 71
3
 72
8
 73
4
 74
0
 40
0
 40
0
 40
0
 40
0
 40
1
 40
1
 40
1
 40
1
 10
532.108754
 20
474.484306
 30
0.0
 10
524.205782
 20
464.877788
 30
0.0
 10
521.599954
 20
462.124745
 30
0.0
 10
517.430226
 20
458.976574
 30
0.0
  0
SPLINE
  5
34d
100
AcDbEntity
  8
0
 62
7
100
AcDbSpline
 70
8
 71
3
 72
8
 73
4
 74
0
 40
0
 40
0
 40
0
 40
0
 40
1
 40
1
 40
1
 40
1
 10
517.430226
 20
458.976574
 30
0.0
 10
515.458419
 20
457.487843
 30
0.0
 10
512.000870
 20
455.566597
 30
0.0
 10
511.293507
 20
455.566597
 30
0.0
  0
SPLINE
  5
34e
100
AcDbEntity
  8
0
 62
7
100
AcDbSpline
 70
8
 71
3
 72
8
 73
4
 74
0
 40
0
 40
0
 40
0
 40
0
 40
1
 40
1
 40
1
 40
1
 10
511.293507
 20
455.566597
 30
0.0
 10
510.492401
 20
455.566597
 30
0.0
 10
510.533835
 20
455.968632
 30
0.0
 10
511.409527
 20
456.692823
 30
0.0
  0
SPLINE
  5
34f
100
AcDbEntity
  8
0
 62
7
100
AcDbSpline
 70
8
 71
3
 72
8
 73
4
 74
0
 40
0
 40
0
 40
0
 40
0
 40
1
 40
1
 40
1
 40
1
 10
511.409527
 20
456.692823
 30
0.0
 10
512.680823
 20
457.744145
 30
0.0
 10
513.602208
 20
458.694290
 30
0.0
 10
513.602208
 20
458.953899
 30
0.0
  0
SPLINE
  5
350
100
AcDbEntity
  8
0
 62
7
100
AcDbSpline
 70
8
 71
3
 72
8
 73
4
 74
0
 40
0
 40
0
 40
0
 40
0
 40
1
 40
1
 40
1
 40
1
 10
513.602208
 20
458.953899
 30
0.0
 10
513.602208
 20
459.093070
 30
0.0
 10
511.994864
 20
459.293016
 30
0.0
 10
510.030333
 20
459.398240
 30
0.0
  0
SPLINE
  5
351
100
AcDbEntity
  8
0
 62
7
100
AcDbSpline
 70
8
 71
3
 72
8
 73
4
 74
0
 40
0
 40
0
 40
0
 40
0
 40
1
 40
1
 40
1
 40
1
 10
510.030333
 20
459.398240
 30
0.0
 10
508.065802
 20
459.503465
 30
0.0
 10
506.458458
 20
459.688938
 30
0.0
 10
506.458458
 20
459.810435
 30
0.0
  0
SPLINE
  5
352
100
AcDbEntity
  8
0
 62
7
100
AcDbSpline
 70
8
 71
3
 72
8
 73
4
 74
0
 40
0
 40
0
 40
0
 40
0
 40
1
 40
1
 40
1
 40
1
 10
506.458458
 20
459.810435
 30
0.0
 10
506.458458
 20
459.931931
 30
0.0
 10
507.262130
 20
460.417521
 30
0.0
 10
508.244396
 20
460.889538
 30
0.0
  0
SPLINE
  5
353
100
AcDbEntity
  8
0
 62
7
100
AcDbSpline
 70
8
 71
3
 72
8
 73
4
 74
0
 40
0
 40
0
 40
0
 40
0
 40
1
 40
1
 40
1
 40
1
 10
508.244396
 20
460.889538
 30
0.0
 10
510.124948
 20
461.793196
 30
0.0
 10
511.229054
 20
462.611711
 30
0.0
 10
511.208867
 20
463.087193
 30
0.0
  0
SPLINE
  5
354
100
AcDbEntity
  8
0
 62
7
100
AcDbSpline
 70
8
 71
3
 72
8
 73
4
 74
0
 40
0
 40
0
 40
0
 40
0
 40
1
 40
1
 40
1
 40
1
 10
511.208867
 20
463.087193
 30
0.0
 10
511.202252
 20
463.243721
 30
0.0
 10
510.696210
 20
463.616043
 30
0.0
 10
510.084387
 20
463.914572
 30
0.0
  0
SPLINE
  5
355
100
AcDbEntity
  8
0
 62
7
100
AcDbSpline
 70
8
 71
3
 72
8
 73
4
 74
0
 40
0
 40
0
 40
0
 40
0
 40
1
 40
1
 40
1
 40
1
 10
510.084387
 20
463.914572
 30
0.0
 10
509.472565
 20
464.213101
 30
0.0
 10
508.229526
 20
464.855510
 30
0.0
 10
507.322058
 20
465.342131
 30
0.0
  0
SPLINE
  5
356
100
AcDbEntity
  8
0
 62
7
100
AcDbSpline
 70
8
 71
3
 72
8
 73
4
 74
0
 40
0
 40
0
 40
0
 40
0
 40
1
 40
1
 40
1
 40
1
 10
507.322058
 20
465.342131
 30
0.0
 10
504.170024
 20
467.032369
 30
0.0
 10
501.295723
 20
466.657772
 30
0.0
 10
500.642652
 20
464.471652
 30
0.0
  0
SPLINE
  5
357
100
AcDbEntity
  8
0
 62
7
100
AcDbSpline
 70
8
 71
3
 72
8
 73
4
 74
0
 40
0
 40
0
 40
0
 40
0
 40
1
 40
1
 40
1
 40
1
 10
500.642652
 20
464.471652
 30
0.0
 10
499.824851
 20
461.734114
 30
0.0
 10
498.188456
 20
459.818954
 30
0.0
 10
496.064381
 20
459.113443
 30
0.0
  0
SPLINE
  5
358
100
AcDbEntity
  8
0
 62
7
100
AcDbSpline
 70
8
 71
3
 72
8
 73
4
 74
0
 40
0
 40
0
 40
0
 40
0
 40
1
 40
1
 40
1
 40
1
 10
496.064381
 20
459.113443
 30
0.0
 10
493.574017
 20
458.286276
 30
0.0
 10
490.661325
 20
458.893971
 30
0.0
 10
484.066771
 20
461.616639
 30
0.0
  0
SPLINE
  5
359
100
AcDbEntity
  8
0
 62
7
100
AcDbSpline
 70
8
 71
3
 72
8
 73
4
 74
0
 40
0
 40
0
 40
0
 40
0
 40
1
 40
1
 40
1
 40
1
 10
484.066771
 20
461.616639
 30
0.0
 10
482.301603
 20
462.345408
 30
0.0
 10
480.188244
 20
463.136194
 30
0.0
 10
479.370416
 20
463.373949
 30
0.0
  0
SPLINE
  5
35a
100
AcDbEntity
  8
0
 62
7
100
AcDbSpline
 70
8
 71
3
 72
8
 73
4
 74
0
 40
0
 40
0
 40
0
 40
0
 40
1
 40
1
 40
1
 40
1
 10
479.370416
 20
463.373949
 30
0.0
 10
478.482131
 20
463.632182
 30
0.0
 10
477.883458
 20
463.954709
 30
0.0
 10
477.883458
 20
464.175001
 30
0.0
  0
SPLINE
  5
35b
100
AcDbEntity
  8
0
 62
7
100
AcDbSpline
 70
8
 71
3
 72
8
 73
4
 74
0
 40
0
 40
0
 40
0
 40
0
 40
1
 40
1
 40
1
 40
1
 10
477.883458
 20
464.175001
 30
0.0
 10
477.883458
 20
464.670804
 30
0.0
 10
477.041210
 20
465.091597
 30
0.0
 10
476.048758
 20
465.091597
 30
0.0
  0
SPLINE
  5
35c
100
AcDbEntity
  8
0
 62
7
100
AcDbSpline
 70
8
 71
3
 72
8
 73
4
 74
0
 40
0
 40
0
 40
0
 40
0
 40
1
 40
1
 40
1
 40
1
 10
476.048758
 20
465.091597
 30
0.0
 10
475.602644
 20
465.091597
 30
0.0
 10
475.237625
 20
465.192774
 30
0.0
 10
475.237625
 20
465.316467
 30
0.0
  0
SPLINE
  5
35d
100
AcDbEntity
  8
0
 62
7
100
AcDbSpline
 70
8
 71
3
 72
8
 73
4
 74
0
 40
0
 40
0
 40
0
 40
0
 40
1
 40
1
 40
1
 40
1
 10
475.237625
 20
465.316467
 30
0.0
 10
475.237625
 20
465.770307
 30
0.0
 10
476.776045
 20
467.642578
 30
0.0
 10
478.268506
 20
469.005076
 30
0.0
  0
SPLINE
  5
35e
100
AcDbEntity
  8
0
 62
7
100
AcDbSpline
 70
8
 71
3
 72
8
 73
4
 74
0
 40
0
 40
0
 40
0
 40
0
 40
1
 40
1
 40
1
 40
1
 10
478.268506
 20
469.005076
 30
0.0
 10
479.111919
 20
469.775040
 30
0.0
 10
479.757264
 20
470.444409
 30
0.0
 10
479.702627
 20
470.492590
 30
0.0
  0
SPLINE
  5
35f
100
AcDbEntity
  8
0
 62
7
100
AcDbSpline
 70
8
 71
3
 72
8
 73
4
 74
0
 40
0
 40
0
 40
0
 40
0
 40
1
 40
1
 40
1
 40
1
 10
479.702627
 20
470.492590
 30
0.0
 10
479.647964
 20
470.540718
 30
0.0
 10
461.327156
 20
484.721776
 30
0.0
 10
438.989708
 20
502.006026
 30
0.0
  0
SPLINE
  5
360
100
AcDbEntity
  8
0
 62
7
100
AcDbSpline
 70
8
 71
3
 72
8
 73
4
 74
0
 40
0
 40
0
 40
0
 40
0
 40
1
 40
1
 40
1
 40
1
 10
438.989708
 20
502.006026
 30
0.0
 10
416.652260
 20
519.290250
 30
0.0
 10
397.943970
 20
533.770253
 30
0.0
 10
397.415702
 20
534.183815
 30
0.0
  0
LWPOLYLINE
  5
361
100
AcDbEntity
  8
0
 62
7
100
AcDbPolyline
 90
3
 70
0
 10
559.375125
 20
428.728719
 30
0.0
 10
560.565750
 20
430.821891
 30
0.0
 10
560.565750
 20
434.264543
 30
0.0
  0
SPLINE
  5
362
100
AcDbEntity
  8
0
 62
7
100
AcDbSpline
 70
8
 71
3
 72
8
 73
4
 74
0
 40
0
 40
0
 40
0
 40
0
 40
1
 40
1
 40
1
 40
1
 10
372.553362
 20
528.057830
 30
0.0
 10
359.407328
 20
524.274976
 30
0.0
 10
348.505383
 20
521.150879
 30
0.0
 10
348.326842
 20
521.115398
 30
0.0
  0
SPLINE
  5
363
100
AcDbEntity
  8
0
 62
7
100
AcDbSpline
 70
8
 71
3
 72
8
 73
4
 74
0
 40
0
 40
0
 40
0
 40
0
 40
1
 40
1
 40
1
 40
1
 10
348.326842
 20
521.115398
 30
0.0
 10
348.148275
 20
521.079944
 30
0.0
 10
345.010026
 20
524.920440
 30
0.0
 10
341.352928
 20
529.649867
 30
0.0
  0
SPLINE
  5
364
100
AcDbEntity
  8
0
 62
7
100
AcDbSpline
 70
8
 71
3
 72
8
 73
4
 74
0
 40
0
 40
0
 40
0
 40
0
 40
1
 40
1
 40
1
 40
1
 10
341.352928
 20
529.649867
 30
0.0
 10
337.695831
 20
534.379294
 30
0.0
 10
334.604651
 20
538.284849
 30
0.0
 10
334.483604
 20
538.328878
 30
0.0
  0
SPLINE
  5
365
100
AcDbEntity
  8
0
 62
7
100
AcDbSpline
 70
8
 71
3
 72
8
 73
4
 74
0
 40
0
 40
0
 40
0
 40
0
 40
1
 40
1
 40
1
 40
1
 10
334.483604
 20
538.328878
 30
0.0
 10
334.362584
 20
538.372907
 30
0.0
 10
332.913117
 20
537.695629
 30
0.0
 10
331.262567
 20
536.823819
 30
0.0
  0
SPLINE
  5
366
100
AcDbEntity
  8
0
 62
7
100
AcDbSpline
 70
8
 71
3
 72
8
 73
4
 74
0
 40
0
 40
0
 40
0
 40
0
 40
1
 40
1
 40
1
 40
1
 10
331.262567
 20
536.823819
 30
0.0
 10
318.970686
 20
530.331299
 30
0.0
 10
303.530265
 20
524.828770
 30
0.0
 10
290.029291
 20
522.129456
 30
0.0
  0
SPLINE
  5
367
100
AcDbEntity
  8
0
 62
7
100
AcDbSpline
 70
8
 71
3
 72
8
 73
4
 74
0
 40
0
 40
0
 40
0
 40
0
 40
1
 40
1
 40
1
 40
1
 10
290.029291
 20
522.129456
 30
0.0
 10
282.846515
 20
520.693362
 30
0.0
 10
272.271569
 20
519.331128
 30
0.0
 10
268.306206
 20
519.331128
 30
0.0
  0
SPLINE
  5
368
100
AcDbEntity
  8
0
 62
7
100
AcDbSpline
 70
8
 71
3
 72
8
 73
4
 74
0
 40
0
 40
0
 40
0
 40
0
 40
1
 40
1
 40
1
 40
1
 10
268.306206
 20
519.331128
 30
0.0
 10
266.080425
 20
519.331128
 30
0.0
 10
256.319412
 20
515.645773
 30
0.0
 10
248.225119
 20
511.749360
 30
0.0
  0
SPLINE
  5
369
100
AcDbEntity
  8
0
 62
7
100
AcDbSpline
 70
8
 71
3
 72
8
 73
4
 74
0
 40
0
 40
0
 40
0
 40
0
 40
1
 40
1
 40
1
 40
1
 10
248.225119
 20
511.749360
 30
0.0
 10
242.705461
 20
509.092308
 30
0.0
 10
236.558635
 20
505.781048
 30
0.0
 10
236.650234
 20
505.514057
 30
0.0
  0
SPLINE
  5
36a
100
AcDbEntity
  8
0
 62
7
100
AcDbSpline
 70
8
 71
3
 72
8
 73
4
 74
0
 40
0
 40
0
 40
0
 40
0
 40
1
 40
1
 40
1
 40
1
 10
236.650234
 20
505.514057
 30
0.0
 10
236.686270
 20
505.409017
 30
0.0
 10
240.270951
 20
502.182318
 30
0.0
 10
244.616176
 20
498.343637
 30
0.0
  0
LWPOLYLINE
  5
36b
100
AcDbEntity
  8
0
 62
7
100
AcDbPolyline
 90
3
 70
0
 10
397.415702
 20
534.183815
 30
0.0
 10
396.455239
 20
534.935742
 30
0.0
 10
372.553362
 20
528.057830
 30
0.0
  0
SPLINE
  5
36c
100
AcDbEntity
  8
0
 62
7
100
AcDbSpline
 70
8
 71
3
 72
8
 73
4
 74
0
 40
0
 40
0
 40
0
 40
0
 40
1
 40
1
 40
1
 40
1
 10
260.491176
 20
488.924550
 30
0.0
 10
264.877206
 20
487.582768
 30
0.0
 10
269.021481
 20
486.199765
 30
0.0
 10
269.700692
 20
485.851256
 30
0.0
  0
SPLINE
  5
36d
100
AcDbEntity
  8
0
 62
7
100
AcDbSpline
 70
8
 71
3
 72
8
 73
4
 74
0
 40
0
 40
0
 40
0
 40
0
 40
1
 40
1
 40
1
 40
1
 10
269.700692
 20
485.851256
 30
0.0
 10
272.022358
 20
484.659996
 30
0.0
 10
279.610079
 20
479.411112
 30
0.0
 10
281.882744
 20
477.424171
 30
0.0
  0
SPLINE
  5
36e
100
AcDbEntity
  8
0
 62
7
100
AcDbSpline
 70
8
 71
3
 72
8
 73
4
 74
0
 40
0
 40
0
 40
0
 40
0
 40
1
 40
1
 40
1
 40
1
 10
281.882744
 20
477.424171
 30
0.0
 10
283.130995
 20
476.332897
 30
0.0
 10
284.730137
 20
474.748730
 30
0.0
 10
285.436389
 20
473.903810
 30
0.0
  0
SPLINE
  5
36f
100
AcDbEntity
  8
0
 62
7
100
AcDbSpline
 70
8
 71
3
 72
8
 73
4
 74
0
 40
0
 40
0
 40
0
 40
0
 40
1
 40
1
 40
1
 40
1
 10
285.436389
 20
473.903810
 30
0.0
 10
287.914715
 20
470.938863
 30
0.0
 10
289.312720
 20
469.760514
 30
0.0
 10
291.900160
 20
468.455563
 30
0.0
  0
SPLINE
  5
370
100
AcDbEntity
  8
0
 62
7
100
AcDbSpline
 70
8
 71
3
 72
8
 73
4
 74
0
 40
0
 40
0
 40
0
 40
0
 40
1
 40
1
 40
1
 40
1
 10
291.900160
 20
468.455563
 30
0.0
 10
295.323710
 20
466.728945
 30
0.0
 10
296.855991
 20
465.516227
 30
0.0
 10
297.827700
 20
463.764209
 30
0.0
  0
SPLINE
  5
371
100
AcDbEntity
  8
0
 62
7
100
AcDbSpline
 70
8
 71
3
 72
8
 73
4
 74
0
 40
0
 40
0
 40
0
 40
0
 40
1
 40
1
 40
1
 40
1
 10
297.827700
 20
463.764209
 30
0.0
 10
298.643781
 20
462.292835
 30
0.0
 10
300.900280
 20
456.743041
 30
0.0
 10
302.576812
 20
452.083966
 30
0.0
  0
SPLINE
  5
372
100
AcDbEntity
  8
0
 62
7
100
AcDbSpline
 70
8
 71
3
 72
8
 73
4
 74
0
 40
0
 40
0
 40
0
 40
0
 40
1
 40
1
 40
1
 40
1
 10
302.576812
 20
452.083966
 30
0.0
 10
303.082801
 20
450.677865
 30
0.0
 10
303.860438
 20
448.725372
 30
0.0
 10
304.304938
 20
447.745064
 30
0.0
  0
SPLINE
  5
373
100
AcDbEntity
  8
0
 62
7
100
AcDbSpline
 70
8
 71
3
 72
8
 73
4
 74
0
 40
0
 40
0
 40
0
 40
0
 40
1
 40
1
 40
1
 40
1
 10
304.304938
 20
447.745064
 30
0.0
 10
305.038707
 20
446.126793
 30
0.0
 10
306.064417
 20
442.740788
 30
0.0
 10
307.833686
 20
436.096280
 30
0.0
  0
SPLINE
  5
374
100
AcDbEntity
  8
0
 62
7
100
AcDbSpline
 70
8
 71
3
 72
8
 73
4
 74
0
 40
0
 40
0
 40
0
 40
0
 40
1
 40
1
 40
1
 40
1
 10
307.833686
 20
436.096280
 30
0.0
 10
308.369970
 20
434.082325
 30
0.0
 10
308.704324
 20
433.394541
 30
0.0
 10
309.891747
 20
431.862947
 30
0.0
  0
SPLINE
  5
375
100
AcDbEntity
  8
0
 62
7
100
AcDbSpline
 70
8
 71
3
 72
8
 73
4
 74
0
 40
0
 40
0
 40
0
 40
0
 40
1
 40
1
 40
1
 40
1
 10
309.891747
 20
431.862947
 30
0.0
 10
312.584730
 20
428.389338
 30
0.0
 10
314.748439
 20
425.835845
 30
0.0
 10
317.270368
 20
423.155086
 30
0.0
  0
SPLINE
  5
376
100
AcDbEntity
  8
0
 62
7
100
AcDbSpline
 70
8
 71
3
 72
8
 73
4
 74
0
 40
0
 40
0
 40
0
 40
0
 40
1
 40
1
 40
1
 40
1
 10
317.270368
 20
423.155086
 30
0.0
 10
318.222709
 20
422.142764
 30
0.0
 10
319.757319
 20
420.075310
 30
0.0
 10
320.064421
 20
419.390886
 30
0.0
  0
SPLINE
  5
377
100
AcDbEntity
  8
0
 62
7
100
AcDbSpline
 70
8
 71
3
 72
8
 73
4
 74
0
 40
0
 40
0
 40
0
 40
0
 40
1
 40
1
 40
1
 40
1
 10
320.064421
 20
419.390886
 30
0.0
 10
320.079238
 20
419.357866
 30
0.0
 10
321.716268
 20
419.923412
 30
0.0
 10
323.702283
 20
420.647656
 30
0.0
  0
SPLINE
  5
378
100
AcDbEntity
  8
0
 62
7
100
AcDbSpline
 70
8
 71
3
 72
8
 73
4
 74
0
 40
0
 40
0
 40
0
 40
0
 40
1
 40
1
 40
1
 40
1
 10
323.702283
 20
420.647656
 30
0.0
 10
325.688272
 20
421.371900
 30
0.0
 10
327.449101
 20
421.964461
 30
0.0
 10
327.615206
 20
421.964461
 30
0.0
  0
SPLINE
  5
379
100
AcDbEntity
  8
0
 62
7
100
AcDbSpline
 70
8
 71
3
 72
8
 73
4
 74
0
 40
0
 40
0
 40
0
 40
0
 40
1
 40
1
 40
1
 40
1
 10
327.615206
 20
421.964461
 30
0.0
 10
327.781338
 20
421.964461
 30
0.0
 10
328.590037
 20
422.365093
 30
0.0
 10
329.412335
 20
422.854758
 30
0.0
  0
SPLINE
  5
37a
100
AcDbEntity
  8
0
 62
7
100
AcDbSpline
 70
8
 71
3
 72
8
 73
4
 74
0
 40
0
 40
0
 40
0
 40
0
 40
1
 40
1
 40
1
 40
1
 10
329.412335
 20
422.854758
 30
0.0
 10
330.234634
 20
423.344448
 30
0.0
 10
333.229135
 20
425.112738
 30
0.0
 10
336.066791
 20
426.784349
 30
0.0
  0
SPLINE
  5
37b
100
AcDbEntity
  8
0
 62
7
100
AcDbSpline
 70
8
 71
3
 72
8
 73
4
 74
0
 40
0
 40
0
 40
0
 40
0
 40
1
 40
1
 40
1
 40
1
 10
336.066791
 20
426.784349
 30
0.0
 10
338.904448
 20
428.455960
 30
0.0
 10
342.178666
 20
430.422793
 30
0.0
 10
343.342833
 20
431.155081
 30
0.0
  0
SPLINE
  5
37c
100
AcDbEntity
  8
0
 62
7
100
AcDbSpline
 70
8
 71
3
 72
8
 73
4
 74
0
 40
0
 40
0
 40
0
 40
0
 40
1
 40
1
 40
1
 40
1
 10
343.342833
 20
431.155081
 30
0.0
 10
344.507000
 20
431.887395
 30
0.0
 10
347.394265
 20
433.520297
 30
0.0
 10
349.758979
 20
434.783788
 30
0.0
  0
LWPOLYLINE
  5
37d
100
AcDbEntity
  8
0
 62
7
100
AcDbPolyline
 90
3
 70
0
 10
244.616176
 20
498.343637
 30
0.0
 10
252.516582
 20
491.364193
 30
0.0
 10
260.491176
 20
488.924550
 30
0.0
  0
SPLINE
  5
37e
100
AcDbEntity
  8
0
 62
7
100
AcDbSpline
 70
8
 71
3
 72
8
 73
4
 74
0
 40
0
 40
0
 40
0
 40
0
 40
1
 40
1
 40
1
 40
1
 10
354.058458
 20
439.953456
 30
0.0
 10
354.058458
 20
443.307658
 30
0.0
 10
354.096346
 20
443.377349
 30
0.0
 10
357.339741
 20
445.986511
 30
0.0
  0
SPLINE
  5
37f
100
AcDbEntity
  8
0
 62
7
100
AcDbSpline
 70
8
 71
3
 72
8
 73
4
 74
0
 40
0
 40
0
 40
0
 40
0
 40
1
 40
1
 40
1
 40
1
 10
357.339741
 20
445.986511
 30
0.0
 10
358.950286
 20
447.282123
 30
0.0
 10
359.231618
 20
447.623356
 30
0.0
 10
359.063634
 20
448.077460
 30
0.0
  0
SPLINE
  5
380
100
AcDbEntity
  8
0
 62
7
100
AcDbSpline
 70
8
 71
3
 72
8
 73
4
 74
0
 40
0
 40
0
 40
0
 40
0
 40
1
 40
1
 40
1
 40
1
 10
359.063634
 20
448.077460
 30
0.0
 10
358.953223
 20
448.375910
 30
0.0
 10
358.426173
 20
450.331869
 30
0.0
 10
357.892429
 20
452.424062
 30
0.0
  0
SPLINE
  5
381
100
AcDbEntity
  8
0
 62
7
100
AcDbSpline
 70
8
 71
3
 72
8
 73
4
 74
0
 40
0
 40
0
 40
0
 40
0
 40
1
 40
1
 40
1
 40
1
 10
357.892429
 20
452.424062
 30
0.0
 10
357.358685
 20
454.516228
 30
0.0
 10
356.871429
 20
456.390642
 30
0.0
 10
356.809649
 20
456.589450
 30
0.0
  0
SPLINE
  5
382
100
AcDbEntity
  8
0
 62
7
100
AcDbSpline
 70
8
 71
3
 72
8
 73
4
 74
0
 40
0
 40
0
 40
0
 40
0
 40
1
 40
1
 40
1
 40
1
 10
356.809649
 20
456.589450
 30
0.0
 10
356.747868
 20
456.788232
 30
0.0
 10
356.325117
 20
456.252450
 30
0.0
 10
355.870219
 20
455.398825
 30
0.0
  0
SPLINE
  5
383
100
AcDbEntity
  8
0
 62
7
100
AcDbSpline
 70
8
 71
3
 72
8
 73
4
 74
0
 40
0
 40
0
 40
0
 40
0
 40
1
 40
1
 40
1
 40
1
 10
355.870219
 20
455.398825
 30
0.0
 10
355.415321
 20
454.545173
 30
0.0
 10
354.537883
 20
453.191909
 30
0.0
 10
353.920372
 20
452.391545
 30
0.0
  0
SPLINE
  5
384
100
AcDbEntity
  8
0
 62
7
100
AcDbSpline
 70
8
 71
3
 72
8
 73
4
 74
0
 40
0
 40
0
 40
0
 40
0
 40
1
 40
1
 40
1
 40
1
 10
353.920372
 20
452.391545
 30
0.0
 10
352.495485
 20
450.544726
 30
0.0
 10
349.128768
 20
447.234101
 30
0.0
 10
347.949652
 20
446.520282
 30
0.0
  0
SPLINE
  5
385
100
AcDbEntity
  8
0
 62
7
100
AcDbSpline
 70
8
 71
3
 72
8
 73
4
 74
0
 40
0
 40
0
 40
0
 40
0
 40
1
 40
1
 40
1
 40
1
 10
347.949652
 20
446.520282
 30
0.0
 10
347.453188
 20
446.219741
 30
0.0
 10
346.511219
 20
445.528332
 30
0.0
 10
345.856375
 20
444.983820
 30
0.0
  0
SPLINE
  5
386
100
AcDbEntity
  8
0
 62
7
100
AcDbSpline
 70
8
 71
3
 72
8
 73
4
 74
0
 40
0
 40
0
 40
0
 40
0
 40
1
 40
1
 40
1
 40
1
 10
345.856375
 20
444.983820
 30
0.0
 10
345.201531
 20
444.439307
 30
0.0
 10
343.891844
 20
443.605261
 30
0.0
 10
342.945958
 20
443.130387
 30
0.0
  0
SPLINE
  5
387
100
AcDbEntity
  8
0
 62
7
100
AcDbSpline
 70
8
 71
3
 72
8
 73
4
 74
0
 40
0
 40
0
 40
0
 40
0
 40
1
 40
1
 40
1
 40
1
 10
342.945958
 20
443.130387
 30
0.0
 10
342.000073
 20
442.655539
 30
0.0
 10
340.749916
 20
441.945927
 30
0.0
 10
340.167833
 20
441.553470
 30
0.0
  0
SPLINE
  5
388
100
AcDbEntity
  8
0
 62
7
100
AcDbSpline
 70
8
 71
3
 72
8
 73
4
 74
0
 40
0
 40
0
 40
0
 40
0
 40
1
 40
1
 40
1
 40
1
 10
340.167833
 20
441.553470
 30
0.0
 10
338.513208
 20
440.437908
 30
0.0
 10
338.334218
 20
440.349722
 30
0.0
 10
338.587768
 20
440.775119
 30
0.0
  0
SPLINE
  5
389
100
AcDbEntity
  8
0
 62
7
100
AcDbSpline
 70
8
 71
3
 72
8
 73
4
 74
0
 40
0
 40
0
 40
0
 40
0
 40
1
 40
1
 40
1
 40
1
 10
338.587768
 20
440.775119
 30
0.0
 10
338.709609
 20
440.979510
 30
0.0
 10
339.701770
 20
442.218315
 30
0.0
 10
340.792567
 20
443.528003
 30
0.0
  0
SPLINE
  5
38a
100
AcDbEntity
  8
0
 62
7
100
AcDbSpline
 70
8
 71
3
 72
8
 73
4
 74
0
 40
0
 40
0
 40
0
 40
0
 40
1
 40
1
 40
1
 40
1
 10
340.792567
 20
443.528003
 30
0.0
 10
343.742460
 20
447.069795
 30
0.0
 10
343.758599
 20
447.098952
 30
0.0
 10
341.755333
 20
445.267162
 30
0.0
  0
SPLINE
  5
38b
100
AcDbEntity
  8
0
 62
7
100
AcDbSpline
 70
8
 71
3
 72
8
 73
4
 74
0
 40
0
 40
0
 40
0
 40
0
 40
1
 40
1
 40
1
 40
1
 10
341.755333
 20
445.267162
 30
0.0
 10
339.550825
 20
443.251355
 30
0.0
 10
333.548725
 20
436.995626
 30
0.0
 10
332.500129
 20
435.620851
 30
0.0
  0
SPLINE
  5
38c
100
AcDbEntity
  8
0
 62
7
100
AcDbSpline
 70
8
 71
3
 72
8
 73
4
 74
0
 40
0
 40
0
 40
0
 40
0
 40
1
 40
1
 40
1
 40
1
 10
332.500129
 20
435.620851
 30
0.0
 10
332.092882
 20
435.086921
 30
0.0
 10
331.708919
 20
434.700788
 30
0.0
 10
331.646874
 20
434.762833
 30
0.0
  0
SPLINE
  5
38d
100
AcDbEntity
  8
0
 62
7
100
AcDbSpline
 70
8
 71
3
 72
8
 73
4
 74
0
 40
0
 40
0
 40
0
 40
0
 40
1
 40
1
 40
1
 40
1
 10
331.646874
 20
434.762833
 30
0.0
 10
331.359960
 20
435.049774
 30
0.0
 10
332.215437
 20
437.151624
 30
0.0
 10
333.439294
 20
439.166638
 30
0.0
  0
SPLINE
  5
38e
100
AcDbEntity
  8
0
 62
7
100
AcDbSpline
 70
8
 71
3
 72
8
 73
4
 74
0
 40
0
 40
0
 40
0
 40
0
 40
1
 40
1
 40
1
 40
1
 10
333.439294
 20
439.166638
 30
0.0
 10
335.709101
 20
442.903718
 30
0.0
 10
341.075142
 20
449.518725
 30
0.0
 10
346.420784
 20
455.169670
 30
0.0
  0
SPLINE
  5
38f
100
AcDbEntity
  8
0
 62
7
100
AcDbSpline
 70
8
 71
3
 72
8
 73
4
 74
0
 40
0
 40
0
 40
0
 40
0
 40
1
 40
1
 40
1
 40
1
 10
346.420784
 20
455.169670
 30
0.0
 10
347.935047
 20
456.770399
 30
0.0
 10
349.451163
 20
458.471934
 30
0.0
 10
349.789909
 20
458.950856
 30
0.0
  0
LWPOLYLINE
  5
390
100
AcDbEntity
  8
0
 62
7
100
AcDbPolyline
 90
3
 70
0
 10
349.758979
 20
434.783788
 30
0.0
 10
354.058458
 20
437.080980
 30
0.0
 10
354.058458
 20
439.953456
 30
0.0
  0
SPLINE
  5
391
100
AcDbEntity
  8
0
 62
7
100
AcDbSpline
 70
8
 71
3
 72
8
 73
4
 74
0
 40
0
 40
0
 40
0
 40
0
 40
1
 40
1
 40
1
 40
1
 10
348.726416
 20
458.765516
 30
0.0
 10
347.802729
 20
458.184623
 30
0.0
 10
346.570750
 20
457.367008
 30
0.0
 10
345.988666
 20
456.948569
 30
0.0
  0
SPLINE
  5
392
100
AcDbEntity
  8
0
 62
7
100
AcDbSpline
 70
8
 71
3
 72
8
 73
4
 74
0
 40
0
 40
0
 40
0
 40
0
 40
1
 40
1
 40
1
 40
1
 10
345.988666
 20
456.948569
 30
0.0
 10
345.406583
 20
456.530104
 30
0.0
 10
344.335021
 20
455.848670
 30
0.0
 10
343.607416
 20
455.434226
 30
0.0
  0
SPLINE
  5
393
100
AcDbEntity
  8
0
 62
7
100
AcDbSpline
 70
8
 71
3
 72
8
 73
4
 74
0
 40
0
 40
0
 40
0
 40
0
 40
1
 40
1
 40
1
 40
1
 10
343.607416
 20
455.434226
 30
0.0
 10
341.699744
 20
454.347636
 30
0.0
 10
335.011765
 20
449.805851
 30
0.0
 10
334.112685
 20
448.986383
 30
0.0
  0
SPLINE
  5
394
100
AcDbEntity
  8
0
 62
7
100
AcDbSpline
 70
8
 71
3
 72
8
 73
4
 74
0
 40
0
 40
0
 40
0
 40
0
 40
1
 40
1
 40
1
 40
1
 10
334.112685
 20
448.986383
 30
0.0
 10
331.516276
 20
446.619871
 30
0.0
 10
329.469618
 20
441.684783
 30
0.0
 10
328.673725
 20
435.871543
 30
0.0
  0
LWPOLYLINE
  5
395
100
AcDbEntity
  8
0
 62
7
100
AcDbPolyline
 90
3
 70
0
 10
349.789909
 20
458.950856
 30
0.0
 10
350.405832
 20
459.821627
 30
0.0
 10
348.726416
 20
458.765516
 30
0.0
  0
SPLINE
  5
396
100
AcDbEntity
  8
0
 62
7
100
AcDbSpline
 70
8
 71
3
 72
8
 73
4
 74
0
 40
0
 40
0
 40
0
 40
0
 40
1
 40
1
 40
1
 40
1
 10
327.771601
 20
433.937227
 30
0.0
 10
326.981688
 20
436.005528
 30
0.0
 10
327.279132
 20
440.601976
 30
0.0
 10
328.421735
 20
443.984541
 30
0.0
  0
SPLINE
  5
397
100
AcDbEntity
  8
0
 62
7
100
AcDbSpline
 70
8
 71
3
 72
8
 73
4
 74
0
 40
0
 40
0
 40
0
 40
0
 40
1
 40
1
 40
1
 40
1
 10
328.421735
 20
443.984541
 30
0.0
 10
328.730160
 20
444.897618
 30
0.0
 10
329.709754
 20
447.132951
 30
0.0
 10
330.598621
 20
448.951961
 30
0.0
  0
SPLINE
  5
398
100
AcDbEntity
  8
0
 62
7
100
AcDbSpline
 70
8
 71
3
 72
8
 73
4
 74
0
 40
0
 40
0
 40
0
 40
0
 40
1
 40
1
 40
1
 40
1
 10
330.598621
 20
448.951961
 30
0.0
 10
333.059273
 20
453.987591
 30
0.0
 10
334.350281
 20
455.060502
 30
0.0
 10
344.276177
 20
460.318805
 30
0.0
  0
SPLINE
  5
399
100
AcDbEntity
  8
0
 62
7
100
AcDbSpline
 70
8
 71
3
 72
8
 73
4
 74
0
 40
0
 40
0
 40
0
 40
0
 40
1
 40
1
 40
1
 40
1
 10
344.276177
 20
460.318805
 30
0.0
 10
349.906405
 20
463.301427
 30
0.0
 10
351.467605
 20
464.504196
 30
0.0
 10
351.810690
 20
466.123446
 30
0.0
  0
SPLINE
  5
39a
100
AcDbEntity
  8
0
 62
7
100
AcDbSpline
 70
8
 71
3
 72
8
 73
4
 74
0
 40
0
 40
0
 40
0
 40
0
 40
1
 40
1
 40
1
 40
1
 10
351.810690
 20
466.123446
 30
0.0
 10
351.982246
 20
466.933150
 30
0.0
 10
351.952031
 20
467.001863
 30
0.0
 10
351.508510
 20
466.810833
 30
0.0
  0
SPLINE
  5
39b
100
AcDbEntity
  8
0
 62
7
100
AcDbSpline
 70
8
 71
3
 72
8
 73
4
 74
0
 40
0
 40
0
 40
0
 40
0
 40
1
 40
1
 40
1
 40
1
 10
351.508510
 20
466.810833
 30
0.0
 10
350.568895
 20
466.406127
 30
0.0
 10
347.302772
 20
465.906223
 30
0.0
 10
345.529985
 20
465.895772
 30
0.0
  0
SPLINE
  5
39c
100
AcDbEntity
  8
0
 62
7
100
AcDbSpline
 70
8
 71
3
 72
8
 73
4
 74
0
 40
0
 40
0
 40
0
 40
0
 40
1
 40
1
 40
1
 40
1
 10
345.529985
 20
465.895772
 30
0.0
 10
344.021886
 20
465.886776
 30
0.0
 10
343.233057
 20
465.679687
 30
0.0
 10
340.391591
 20
464.546080
 30
0.0
  0
SPLINE
  5
39d
100
AcDbEntity
  8
0
 62
7
100
AcDbSpline
 70
8
 71
3
 72
8
 73
4
 74
0
 40
0
 40
0
 40
0
 40
0
 40
1
 40
1
 40
1
 40
1
 10
340.391591
 20
464.546080
 30
0.0
 10
336.035703
 20
462.808270
 30
0.0
 10
333.494830
 20
461.481517
 30
0.0
 10
332.960266
 20
460.665647
 30
0.0
  0
SPLINE
  5
39e
100
AcDbEntity
  8
0
 62
7
100
AcDbSpline
 70
8
 71
3
 72
8
 73
4
 74
0
 40
0
 40
0
 40
0
 40
0
 40
1
 40
1
 40
1
 40
1
 10
332.960266
 20
460.665647
 30
0.0
 10
332.595829
 20
460.109440
 30
0.0
 10
332.581726
 20
459.885815
 30
0.0
 10
332.866550
 20
459.177842
 30
0.0
  0
SPLINE
  5
39f
100
AcDbEntity
  8
0
 62
7
100
AcDbSpline
 70
8
 71
3
 72
8
 73
4
 74
0
 40
0
 40
0
 40
0
 40
0
 40
1
 40
1
 40
1
 40
1
 10
332.866550
 20
459.177842
 30
0.0
 10
333.050938
 20
458.719584
 30
0.0
 10
333.268585
 20
458.122472
 30
0.0
 10
333.350261
 20
457.850931
 30
0.0
  0
SPLINE
  5
3a0
100
AcDbEntity
  8
0
 62
7
100
AcDbSpline
 70
8
 71
3
 72
8
 73
4
 74
0
 40
0
 40
0
 40
0
 40
0
 40
1
 40
1
 40
1
 40
1
 10
333.350261
 20
457.850931
 30
0.0
 10
333.495174
 20
457.369018
 30
0.0
 10
333.484485
 20
457.369018
 30
0.0
 10
332.902666
 20
457.850931
 30
0.0
  0
SPLINE
  5
3a1
100
AcDbEntity
  8
0
 62
7
100
AcDbSpline
 70
8
 71
3
 72
8
 73
4
 74
0
 40
0
 40
0
 40
0
 40
0
 40
1
 40
1
 40
1
 40
1
 10
332.902666
 20
457.850931
 30
0.0
 10
332.144291
 20
458.479078
 30
0.0
 10
331.304291
 20
460.386380
 30
0.0
 10
331.304291
 20
461.480167
 30
0.0
  0
SPLINE
  5
3a2
100
AcDbEntity
  8
0
 62
7
100
AcDbSpline
 70
8
 71
3
 72
8
 73
4
 74
0
 40
0
 40
0
 40
0
 40
0
 40
1
 40
1
 40
1
 40
1
 10
331.304291
 20
461.480167
 30
0.0
 10
331.304291
 20
462.522070
 30
0.0
 10
332.322831
 20
464.067263
 30
0.0
 10
333.478267
 20
464.778304
 30
0.0
  0
SPLINE
  5
3a3
100
AcDbEntity
  8
0
 62
7
100
AcDbSpline
 70
8
 71
3
 72
8
 73
4
 74
0
 40
0
 40
0
 40
0
 40
0
 40
1
 40
1
 40
1
 40
1
 10
333.478267
 20
464.778304
 30
0.0
 10
335.726881
 20
466.162049
 30
0.0
 10
342.782842
 20
468.548008
 30
0.0
 10
346.457402
 20
469.167133
 30
0.0
  0
SPLINE
  5
3a4
100
AcDbEntity
  8
0
 62
7
100
AcDbSpline
 70
8
 71
3
 72
8
 73
4
 74
0
 40
0
 40
0
 40
0
 40
0
 40
1
 40
1
 40
1
 40
1
 10
346.457402
 20
469.167133
 30
0.0
 10
349.863040
 20
469.740988
 30
0.0
 10
351.393522
 20
470.354292
 30
0.0
 10
352.140229
 20
471.444428
 30
0.0
  0
SPLINE
  5
3a5
100
AcDbEntity
  8
0
 62
7
100
AcDbSpline
 70
8
 71
3
 72
8
 73
4
 74
0
 40
0
 40
0
 40
0
 40
0
 40
1
 40
1
 40
1
 40
1
 10
352.140229
 20
471.444428
 30
0.0
 10
352.926306
 20
472.592032
 30
0.0
 10
352.892069
 20
473.103048
 30
0.0
 10
351.935997
 20
474.492640
 30
0.0
  0
SPLINE
  5
3a6
100
AcDbEntity
  8
0
 62
7
100
AcDbSpline
 70
8
 71
3
 72
8
 73
4
 74
0
 40
0
 40
0
 40
0
 40
0
 40
1
 40
1
 40
1
 40
1
 10
351.935997
 20
474.492640
 30
0.0
 10
351.496260
 20
475.131794
 30
0.0
 10
350.528334
 20
476.905561
 30
0.0
 10
349.785040
 20
478.434350
 30
0.0
  0
SPLINE
  5
3a7
100
AcDbEntity
  8
0
 62
7
100
AcDbSpline
 70
8
 71
3
 72
8
 73
4
 74
0
 40
0
 40
0
 40
0
 40
0
 40
1
 40
1
 40
1
 40
1
 10
349.785040
 20
478.434350
 30
0.0
 10
348.296495
 20
481.495976
 30
0.0
 10
348.014793
 20
482.975658
 30
0.0
 10
347.987302
 20
487.877197
 30
0.0
  0
SPLINE
  5
3a8
100
AcDbEntity
  8
0
 62
7
100
AcDbSpline
 70
8
 71
3
 72
8
 73
4
 74
0
 40
0
 40
0
 40
0
 40
0
 40
1
 40
1
 40
1
 40
1
 10
347.987302
 20
487.877197
 30
0.0
 10
347.964548
 20
491.954876
 30
0.0
 10
349.461587
 20
498.844890
 30
0.0
 10
351.025486
 20
501.859209
 30
0.0
  0
SPLINE
  5
3a9
100
AcDbEntity
  8
0
 62
7
100
AcDbSpline
 70
8
 71
3
 72
8
 73
4
 74
0
 40
0
 40
0
 40
0
 40
0
 40
1
 40
1
 40
1
 40
1
 10
351.025486
 20
501.859209
 30
0.0
 10
352.657675
 20
505.005210
 30
0.0
 10
355.035247
 20
507.654933
 30
0.0
 10
357.498041
 20
509.072729
 30
0.0
  0
SPLINE
  5
3aa
100
AcDbEntity
  8
0
 62
7
100
AcDbSpline
 70
8
 71
3
 72
8
 73
4
 74
0
 40
0
 40
0
 40
0
 40
0
 40
1
 40
1
 40
1
 40
1
 10
357.498041
 20
509.072729
 30
0.0
 10
358.152885
 20
509.449734
 30
0.0
 10
359.403041
 20
510.402578
 30
0.0
 10
360.276166
 20
511.190190
 30
0.0
  0
SPLINE
  5
3ab
100
AcDbEntity
  8
0
 62
7
100
AcDbSpline
 70
8
 71
3
 72
8
 73
4
 74
0
 40
0
 40
0
 40
0
 40
0
 40
1
 40
1
 40
1
 40
1
 10
360.276166
 20
511.190190
 30
0.0
 10
362.916867
 20
513.572286
 30
0.0
 10
364.825518
 20
514.703962
 30
0.0
 10
367.693363
 20
515.587962
 30
0.0
  0
SPLINE
  5
3ac
100
AcDbEntity
  8
0
 62
7
100
AcDbSpline
 70
8
 71
3
 72
8
 73
4
 74
0
 40
0
 40
0
 40
0
 40
0
 40
1
 40
1
 40
1
 40
1
 10
367.693363
 20
515.587962
 30
0.0
 10
370.596213
 20
516.482782
 30
0.0
 10
372.623715
 20
516.637008
 30
0.0
 10
375.613480
 20
516.190471
 30
0.0
  0
SPLINE
  5
3ad
100
AcDbEntity
  8
0
 62
7
100
AcDbSpline
 70
8
 71
3
 72
8
 73
4
 74
0
 40
0
 40
0
 40
0
 40
0
 40
1
 40
1
 40
1
 40
1
 10
375.613480
 20
516.190471
 30
0.0
 10
376.911394
 20
515.996611
 30
0.0
 10
377.811956
 20
515.999468
 30
0.0
 10
378.656189
 20
516.199996
 30
0.0
  0
SPLINE
  5
3ae
100
AcDbEntity
  8
0
 62
7
100
AcDbSpline
 70
8
 71
3
 72
8
 73
4
 74
0
 40
0
 40
0
 40
0
 40
0
 40
1
 40
1
 40
1
 40
1
 10
378.656189
 20
516.199996
 30
0.0
 10
379.315715
 20
516.356708
 30
0.0
 10
381.105489
 20
516.485190
 30
0.0
 10
382.633458
 20
516.485481
 30
0.0
  0
SPLINE
  5
3af
100
AcDbEntity
  8
0
 62
7
100
AcDbSpline
 70
8
 71
3
 72
8
 73
4
 74
0
 40
0
 40
0
 40
0
 40
0
 40
1
 40
1
 40
1
 40
1
 10
382.633458
 20
516.485481
 30
0.0
 10
385.090855
 20
516.485481
 30
0.0
 10
385.686485
 20
516.387903
 30
0.0
 10
387.792833
 20
515.636407
 30
0.0
  0
SPLINE
  5
3b0
100
AcDbEntity
  8
0
 62
7
100
AcDbSpline
 70
8
 71
3
 72
8
 73
4
 74
0
 40
0
 40
0
 40
0
 40
0
 40
1
 40
1
 40
1
 40
1
 10
387.792833
 20
515.636407
 30
0.0
 10
396.521887
 20
512.521943
 30
0.0
 10
403.358879
 20
505.238732
 30
0.0
 10
406.926468
 20
495.253939
 30
0.0
  0
SPLINE
  5
3b1
100
AcDbEntity
  8
0
 62
7
100
AcDbSpline
 70
8
 71
3
 72
8
 73
4
 74
0
 40
0
 40
0
 40
0
 40
0
 40
1
 40
1
 40
1
 40
1
 10
406.926468
 20
495.253939
 30
0.0
 10
407.942415
 20
492.410515
 30
0.0
 10
408.829140
 20
486.545311
 30
0.0
 10
408.826467
 20
482.686230
 30
0.0
  0
SPLINE
  5
3b2
100
AcDbEntity
  8
0
 62
7
100
AcDbSpline
 70
8
 71
3
 72
8
 73
4
 74
0
 40
0
 40
0
 40
0
 40
0
 40
1
 40
1
 40
1
 40
1
 10
408.826467
 20
482.686230
 30
0.0
 10
408.823821
 20
479.104936
 30
0.0
 10
408.539818
 20
474.599056
 30
0.0
 10
408.324844
 20
474.732908
 30
0.0
  0
SPLINE
  5
3b3
100
AcDbEntity
  8
0
 62
7
100
AcDbSpline
 70
8
 71
3
 72
8
 73
4
 74
0
 40
0
 40
0
 40
0
 40
0
 40
1
 40
1
 40
1
 40
1
 10
408.324844
 20
474.732908
 30
0.0
 10
408.237346
 20
474.787412
 30
0.0
 10
408.205543
 20
474.139395
 30
0.0
 10
408.254200
 20
473.292887
 30
0.0
  0
SPLINE
  5
3b4
100
AcDbEntity
  8
0
 62
7
100
AcDbSpline
 70
8
 71
3
 72
8
 73
4
 74
0
 40
0
 40
0
 40
0
 40
0
 40
1
 40
1
 40
1
 40
1
 10
408.254200
 20
473.292887
 30
0.0
 10
408.327172
 20
472.022728
 30
0.0
 10
408.465893
 20
471.643183
 30
0.0
 10
409.047950
 20
471.120949
 30
0.0
  0
SPLINE
  5
3b5
100
AcDbEntity
  8
0
 62
7
100
AcDbSpline
 70
8
 71
3
 72
8
 73
4
 74
0
 40
0
 40
0
 40
0
 40
0
 40
1
 40
1
 40
1
 40
1
 10
409.047950
 20
471.120949
 30
0.0
 10
409.435856
 20
470.772890
 30
0.0
 10
410.141367
 20
469.958476
 30
0.0
 10
410.615765
 20
469.311146
 30
0.0
  0
SPLINE
  5
3b6
100
AcDbEntity
  8
0
 62
7
100
AcDbSpline
 70
8
 71
3
 72
8
 73
4
 74
0
 40
0
 40
0
 40
0
 40
0
 40
1
 40
1
 40
1
 40
1
 10
410.615765
 20
469.311146
 30
0.0
 10
411.090136
 20
468.663790
 30
0.0
 10
412.145401
 20
467.241178
 30
0.0
 10
412.960767
 20
466.149772
 30
0.0
  0
SPLINE
  5
3b7
100
AcDbEntity
  8
0
 62
7
100
AcDbSpline
 70
8
 71
3
 72
8
 73
4
 74
0
 40
0
 40
0
 40
0
 40
0
 40
1
 40
1
 40
1
 40
1
 10
412.960767
 20
466.149772
 30
0.0
 10
414.671166
 20
463.860385
 30
0.0
 10
416.500125
 20
460.289331
 30
0.0
 10
416.500125
 20
459.239173
 30
0.0
  0
SPLINE
  5
3b8
100
AcDbEntity
  8
0
 62
7
100
AcDbSpline
 70
8
 71
3
 72
8
 73
4
 74
0
 40
0
 40
0
 40
0
 40
0
 40
1
 40
1
 40
1
 40
1
 10
416.500125
 20
459.239173
 30
0.0
 10
416.500125
 20
458.824200
 30
0.0
 10
415.994850
 20
457.764782
 30
0.0
 10
415.309500
 20
456.742750
 30
0.0
  0
SPLINE
  5
3b9
100
AcDbEntity
  8
0
 62
7
100
AcDbSpline
 70
8
 71
3
 72
8
 73
4
 74
0
 40
0
 40
0
 40
0
 40
0
 40
1
 40
1
 40
1
 40
1
 10
415.309500
 20
456.742750
 30
0.0
 10
414.367239
 20
455.337601
 30
0.0
 10
414.118875
 20
454.734430
 30
0.0
 10
414.118875
 20
453.851304
 30
0.0
  0
SPLINE
  5
3ba
100
AcDbEntity
  8
0
 62
7
100
AcDbSpline
 70
8
 71
3
 72
8
 73
4
 74
0
 40
0
 40
0
 40
0
 40
0
 40
1
 40
1
 40
1
 40
1
 10
414.118875
 20
453.851304
 30
0.0
 10
414.118875
 20
453.045224
 30
0.0
 10
413.910754
 20
452.448959
 30
0.0
 10
413.369231
 20
451.703548
 30
0.0
  0
SPLINE
  5
3bb
100
AcDbEntity
  8
0
 62
7
100
AcDbSpline
 70
8
 71
3
 72
8
 73
4
 74
0
 40
0
 40
0
 40
0
 40
0
 40
1
 40
1
 40
1
 40
1
 10
413.369231
 20
451.703548
 30
0.0
 10
412.244752
 20
450.155657
 30
0.0
 10
411.802315
 20
449.890253
 30
0.0
 10
410.105542
 20
449.745605
 30
0.0
  0
LWPOLYLINE
  5
3bc
100
AcDbEntity
  8
0
 62
7
100
AcDbPolyline
 90
3
 70
0
 10
328.673725
 20
435.871543
 30
0.0
 10
328.240707
 20
432.708846
 30
0.0
 10
327.771601
 20
433.937227
 30
0.0
  0
SPLINE
  5
3bd
100
AcDbEntity
  8
0
 62
7
100
AcDbSpline
 70
8
 71
3
 72
8
 73
4
 74
0
 40
0
 40
0
 40
0
 40
0
 40
1
 40
1
 40
1
 40
1
 10
412.935394
 20
444.852348
 30
0.0
 10
415.345351
 20
442.233820
 30
0.0
 10
417.542080
 20
440.008171
 30
0.0
 10
417.816982
 20
439.906492
 30
0.0
  0
SPLINE
  5
3be
100
AcDbEntity
  8
0
 62
7
100
AcDbSpline
 70
8
 71
3
 72
8
 73
4
 74
0
 40
0
 40
0
 40
0
 40
0
 40
1
 40
1
 40
1
 40
1
 10
417.816982
 20
439.906492
 30
0.0
 10
418.388430
 20
439.695090
 30
0.0
 10
423.925550
 20
439.257416
 30
0.0
 10
430.126166
 20
438.933513
 30
0.0
  0
SPLINE
  5
3bf
100
AcDbEntity
  8
0
 62
7
100
AcDbSpline
 70
8
 71
3
 72
8
 73
4
 74
0
 40
0
 40
0
 40
0
 40
0
 40
1
 40
1
 40
1
 40
1
 10
430.126166
 20
438.933513
 30
0.0
 10
434.300445
 20
438.715444
 30
0.0
 10
434.396409
 20
438.696685
 30
0.0
 10
437.005333
 20
437.587287
 30
0.0
  0
SPLINE
  5
3c0
100
AcDbEntity
  8
0
 62
7
100
AcDbSpline
 70
8
 71
3
 72
8
 73
4
 74
0
 40
0
 40
0
 40
0
 40
0
 40
1
 40
1
 40
1
 40
1
 10
437.005333
 20
437.587287
 30
0.0
 10
438.460541
 20
436.968506
 30
0.0
 10
440.306010
 20
436.123744
 30
0.0
 10
441.106375
 20
435.710015
 30
0.0
  0
SPLINE
  5
3c1
100
AcDbEntity
  8
0
 62
7
100
AcDbSpline
 70
8
 71
3
 72
8
 73
4
 74
0
 40
0
 40
0
 40
0
 40
0
 40
1
 40
1
 40
1
 40
1
 10
441.106375
 20
435.710015
 30
0.0
 10
443.563984
 20
434.439698
 30
0.0
 10
445.838236
 20
433.607795
 30
0.0
 10
449.837625
 20
432.516230
 30
0.0
  0
SPLINE
  5
3c2
100
AcDbEntity
  8
0
 62
7
100
AcDbSpline
 70
8
 71
3
 72
8
 73
4
 74
0
 40
0
 40
0
 40
0
 40
0
 40
1
 40
1
 40
1
 40
1
 10
449.837625
 20
432.516230
 30
0.0
 10
452.064834
 20
431.908350
 30
0.0
 10
454.118027
 20
431.177941
 30
0.0
 10
454.732416
 20
430.774954
 30
0.0
  0
SPLINE
  5
3c3
100
AcDbEntity
  8
0
 62
7
100
AcDbSpline
 70
8
 71
3
 72
8
 73
4
 74
0
 40
0
 40
0
 40
0
 40
0
 40
1
 40
1
 40
1
 40
1
 10
454.732416
 20
430.774954
 30
0.0
 10
457.726971
 20
428.810846
 30
0.0
 10
461.802480
 20
423.465654
 30
0.0
 10
463.498803
 20
419.277512
 30
0.0
  0
SPLINE
  5
3c4
100
AcDbEntity
  8
0
 62
7
100
AcDbSpline
 70
8
 71
3
 72
8
 73
4
 74
0
 40
0
 40
0
 40
0
 40
0
 40
1
 40
1
 40
1
 40
1
 10
463.498803
 20
419.277512
 30
0.0
 10
463.872792
 20
418.354195
 30
0.0
 10
464.724406
 20
416.824824
 30
0.0
 10
465.391341
 20
415.878939
 30
0.0
  0
SPLINE
  5
3c5
100
AcDbEntity
  8
0
 62
7
100
AcDbSpline
 70
8
 71
3
 72
8
 73
4
 74
0
 40
0
 40
0
 40
0
 40
0
 40
1
 40
1
 40
1
 40
1
 10
465.391341
 20
415.878939
 30
0.0
 10
468.025797
 20
412.142466
 30
0.0
 10
471.995024
 20
406.898398
 30
0.0
 10
473.867903
 20
404.679814
 30
0.0
  0
SPLINE
  5
3c6
100
AcDbEntity
  8
0
 62
7
100
AcDbSpline
 70
8
 71
3
 72
8
 73
4
 74
0
 40
0
 40
0
 40
0
 40
0
 40
1
 40
1
 40
1
 40
1
 10
473.867903
 20
404.679814
 30
0.0
 10
477.959790
 20
399.832700
 30
0.0
 10
483.494847
 20
390.887535
 30
0.0
 10
488.958255
 20
380.292480
 30
0.0
  0
SPLINE
  5
3c7
100
AcDbEntity
  8
0
 62
7
100
AcDbSpline
 70
8
 71
3
 72
8
 73
4
 74
0
 40
0
 40
0
 40
0
 40
0
 40
1
 40
1
 40
1
 40
1
 10
488.958255
 20
380.292480
 30
0.0
 10
489.970630
 20
378.329193
 30
0.0
 10
491.204911
 20
376.410646
 30
0.0
 10
492.192416
 20
375.265397
 30
0.0
  0
SPLINE
  5
3c8
100
AcDbEntity
  8
0
 62
7
100
AcDbSpline
 70
8
 71
3
 72
8
 73
4
 74
0
 40
0
 40
0
 40
0
 40
0
 40
1
 40
1
 40
1
 40
1
 10
492.192416
 20
375.265397
 30
0.0
 10
493.070753
 20
374.246751
 30
0.0
 10
494.393908
 20
372.520345
 30
0.0
 10
495.132783
 20
371.428939
 30
0.0
  0
SPLINE
  5
3c9
100
AcDbEntity
  8
0
 62
7
100
AcDbSpline
 70
8
 71
3
 72
8
 73
4
 74
0
 40
0
 40
0
 40
0
 40
0
 40
1
 40
1
 40
1
 40
1
 10
495.132783
 20
371.428939
 30
0.0
 10
495.871659
 20
370.337530
 30
0.0
 10
496.735232
 20
369.146905
 30
0.0
 10
497.051833
 20
368.783103
 30
0.0
  0
SPLINE
  5
3ca
100
AcDbEntity
  8
0
 62
7
100
AcDbSpline
 70
8
 71
3
 72
8
 73
4
 74
0
 40
0
 40
0
 40
0
 40
0
 40
1
 40
1
 40
1
 40
1
 10
497.051833
 20
368.783103
 30
0.0
 10
497.845080
 20
367.871613
 30
0.0
 10
499.472267
 20
364.220760
 30
0.0
 10
499.940950
 20
362.300838
 30
0.0
  0
SPLINE
  5
3cb
100
AcDbEntity
  8
0
 62
7
100
AcDbSpline
 70
8
 71
3
 72
8
 73
4
 74
0
 40
0
 40
0
 40
0
 40
0
 40
1
 40
1
 40
1
 40
1
 10
499.940950
 20
362.300838
 30
0.0
 10
501.460426
 20
356.076488
 30
0.0
 10
502.252483
 20
344.607039
 30
0.0
 10
501.343136
 20
341.996104
 30
0.0
  0
SPLINE
  5
3cc
100
AcDbEntity
  8
0
 62
7
100
AcDbSpline
 70
8
 71
3
 72
8
 73
4
 74
0
 40
0
 40
0
 40
0
 40
0
 40
1
 40
1
 40
1
 40
1
 10
501.343136
 20
341.996104
 30
0.0
 10
500.151506
 20
338.574645
 30
0.0
 10
496.246071
 20
337.365472
 30
0.0
 10
484.462296
 20
336.769551
 30
0.0
  0
SPLINE
  5
3cd
100
AcDbEntity
  8
0
 62
7
100
AcDbSpline
 70
8
 71
3
 72
8
 73
4
 74
0
 40
0
 40
0
 40
0
 40
0
 40
1
 40
1
 40
1
 40
1
 10
484.462296
 20
336.769551
 30
0.0
 10
480.672907
 20
336.577914
 30
0.0
 10
479.233812
 20
336.402892
 30
0.0
 10
478.244588
 20
336.013372
 30
0.0
  0
SPLINE
  5
3ce
100
AcDbEntity
  8
0
 62
7
100
AcDbSpline
 70
8
 71
3
 72
8
 73
4
 74
0
 40
0
 40
0
 40
0
 40
0
 40
1
 40
1
 40
1
 40
1
 10
478.244588
 20
336.013372
 30
0.0
 10
477.536642
 20
335.734607
 30
0.0
 10
475.956471
 20
335.302569
 30
0.0
 10
474.733091
 20
335.053305
 30
0.0
  0
SPLINE
  5
3cf
100
AcDbEntity
  8
0
 62
7
100
AcDbSpline
 70
8
 71
3
 72
8
 73
4
 74
0
 40
0
 40
0
 40
0
 40
0
 40
1
 40
1
 40
1
 40
1
 10
474.733091
 20
335.053305
 30
0.0
 10
472.805813
 20
334.660637
 30
0.0
 10
472.222830
 20
334.643730
 30
0.0
 10
470.367466
 20
334.926808
 30
0.0
  0
SPLINE
  5
3d0
100
AcDbEntity
  8
0
 62
7
100
AcDbSpline
 70
8
 71
3
 72
8
 73
4
 74
0
 40
0
 40
0
 40
0
 40
0
 40
1
 40
1
 40
1
 40
1
 10
470.367466
 20
334.926808
 30
0.0
 10
469.189752
 20
335.106513
 30
0.0
 10
467.749916
 20
335.489603
 30
0.0
 10
467.167833
 20
335.778131
 30
0.0
  0
SPLINE
  5
3d1
100
AcDbEntity
  8
0
 62
7
100
AcDbSpline
 70
8
 71
3
 72
8
 73
4
 74
0
 40
0
 40
0
 40
0
 40
0
 40
1
 40
1
 40
1
 40
1
 10
467.167833
 20
335.778131
 30
0.0
 10
465.012061
 20
336.846704
 30
0.0
 10
461.004470
 20
339.981884
 30
0.0
 10
457.252679
 20
343.534894
 30
0.0
  0
SPLINE
  5
3d2
100
AcDbEntity
  8
0
 62
7
100
AcDbSpline
 70
8
 71
3
 72
8
 73
4
 74
0
 40
0
 40
0
 40
0
 40
0
 40
1
 40
1
 40
1
 40
1
 10
457.252679
 20
343.534894
 30
0.0
 10
455.250180
 20
345.431295
 30
0.0
 10
450.613066
 20
349.571019
 30
0.0
 10
447.679471
 20
352.081253
 30
0.0
  0
LWPOLYLINE
  5
3d3
100
AcDbEntity
  8
0
 62
7
100
AcDbPolyline
 90
3
 70
0
 10
410.105542
 20
449.745605
 30
0.0
 10
408.553655
 20
449.613314
 30
0.0
 10
412.935394
 20
444.852348
 30
0.0
  0
SPLINE
  5
3d4
100
AcDbEntity
  8
0
 62
7
100
AcDbSpline
 70
8
 71
3
 72
8
 73
4
 74
0
 40
0
 40
0
 40
0
 40
0
 40
1
 40
1
 40
1
 40
1
 10
446.806717
 20
352.213545
 30
0.0
 10
446.900617
 20
351.795186
 30
0.0
 10
447.143717
 20
350.976671
 30
0.0
 10
447.346917
 20
350.394588
 30
0.0
  0
SPLINE
  5
3d5
100
AcDbEntity
  8
0
 62
7
100
AcDbSpline
 70
8
 71
3
 72
8
 73
4
 74
0
 40
0
 40
0
 40
0
 40
0
 40
1
 40
1
 40
1
 40
1
 10
447.346917
 20
350.394588
 30
0.0
 10
447.550117
 20
349.812504
 30
0.0
 10
457.425319
 20
316.832192
 30
0.0
 10
469.291776
 20
277.105004
 30
0.0
  0
SPLINE
  5
3d6
100
AcDbEntity
  8
0
 62
7
100
AcDbSpline
 70
8
 71
3
 72
8
 73
4
 74
0
 40
0
 40
0
 40
0
 40
0
 40
1
 40
1
 40
1
 40
1
 10
469.291776
 20
277.105004
 30
0.0
 10
481.158232
 20
237.377817
 30
0.0
 10
491.054496
 20
204.297730
 30
0.0
 10
491.283466
 20
203.593700
 30
0.0
  0
SPLINE
  5
3d7
100
AcDbEntity
  8
0
 62
7
100
AcDbSpline
 70
8
 71
3
 72
8
 73
4
 74
0
 40
0
 40
0
 40
0
 40
0
 40
1
 40
1
 40
1
 40
1
 10
491.283466
 20
203.593700
 30
0.0
 10
491.598559
 20
202.624875
 30
0.0
 10
491.805304
 20
202.346084
 30
0.0
 10
492.133811
 20
202.446969
 30
0.0
  0
SPLINE
  5
3d8
100
AcDbEntity
  8
0
 62
7
100
AcDbSpline
 70
8
 71
3
 72
8
 73
4
 74
0
 40
0
 40
0
 40
0
 40
0
 40
1
 40
1
 40
1
 40
1
 10
492.133811
 20
202.446969
 30
0.0
 10
492.372518
 20
202.520285
 30
0.0
 10
495.187208
 20
203.551711
 30
0.0
 10
498.388666
 20
204.739028
 30
0.0
  0
LWPOLYLINE
  5
3d9
100
AcDbEntity
  8
0
 62
7
100
AcDbPolyline
 90
3
 70
0
 10
447.679471
 20
352.081253
 30
0.0
 10
446.635981
 20
352.974143
 30
0.0
 10
446.806717
 20
352.213545
 30
0.0
  0
SPLINE
  5
3da
100
AcDbEntity
  8
0
 62
7
100
AcDbSpline
 70
8
 71
3
 72
8
 73
4
 74
0
 40
0
 40
0
 40
0
 40
0
 40
1
 40
1
 40
1
 40
1
 10
586.827286
 20
225.880057
 30
0.0
 10
589.700423
 20
226.737677
 30
0.0
 10
593.450151
 20
227.829877
 30
0.0
 10
595.160021
 20
228.307186
 30
0.0
  0
LWPOLYLINE
  5
3db
100
AcDbEntity
  8
0
 62
7
100
AcDbPolyline
 90
1
 70
1
 10
498.388666
 20
204.739028
 30
0.0
  0
SPLINE
  5
3dc
100
AcDbEntity
  8
0
 62
7
100
AcDbSpline
 70
8
 71
3
 72
8
 73
4
 74
0
 40
0
 40
0
 40
0
 40
0
 40
1
 40
1
 40
1
 40
1
 10
596.599910
 20
353.047565
 30
0.0
 10
594.812438
 20
355.306948
 30
0.0
 10
593.195807
 20
356.774856
 30
0.0
 10
590.846677
 20
358.271577
 30
0.0
  0
LWPOLYLINE
  5
3dd
100
AcDbEntity
  8
0
 62
7
100
AcDbPolyline
 90
5
 70
0
 10
595.160021
 20
228.307186
 30
0.0
 10
598.268875
 20
229.174966
 30
0.0
 10
598.268875
 20
290.056464
 30
0.0
 10
598.268875
 20
350.937962
 30
0.0
 10
596.599910
 20
353.047565
 30
0.0
  0
SPLINE
  5
3de
100
AcDbEntity
  8
0
 62
7
100
AcDbSpline
 70
8
 71
3
 72
8
 73
4
 74
0
 40
0
 40
0
 40
0
 40
0
 40
1
 40
1
 40
1
 40
1
 10
585.224281
 20
359.400660
 30
0.0
 10
581.771019
 20
359.561183
 30
0.0
 10
581.070508
 20
359.532026
 30
0.0
 10
581.068259
 20
359.227543
 30
0.0
  0
SPLINE
  5
3df
100
AcDbEntity
  8
0
 62
7
100
AcDbSpline
 70
8
 71
3
 72
8
 73
4
 74
0
 40
0
 40
0
 40
0
 40
0
 40
1
 40
1
 40
1
 40
1
 10
581.068259
 20
359.227543
 30
0.0
 10
581.065614
 20
359.026116
 30
0.0
 10
580.885988
 20
355.944302
 30
0.0
 10
580.666516
 20
352.379042
 30
0.0
  0
SPLINE
  5
3e0
100
AcDbEntity
  8
0
 62
7
100
AcDbSpline
 70
8
 71
3
 72
8
 73
4
 74
0
 40
0
 40
0
 40
0
 40
0
 40
1
 40
1
 40
1
 40
1
 10
580.666516
 20
352.379042
 30
0.0
 10
579.766086
 20
337.751367
 30
0.0
 10
579.717641
 20
311.579128
 30
0.0
 10
580.529171
 20
278.163417
 30
0.0
  0
SPLINE
  5
3e1
100
AcDbEntity
  8
0
 62
7
100
AcDbSpline
 70
8
 71
3
 72
8
 73
4
 74
0
 40
0
 40
0
 40
0
 40
0
 40
1
 40
1
 40
1
 40
1
 10
580.529171
 20
278.163417
 30
0.0
 10
580.674057
 20
272.197063
 30
0.0
 10
580.876278
 20
261.421906
 30
0.0
 10
580.978513
 20
254.218625
 30
0.0
  0
LWPOLYLINE
  5
3e2
100
AcDbEntity
  8
0
 62
7
100
AcDbPolyline
 90
3
 70
0
 10
590.846677
 20
358.271577
 30
0.0
 10
589.377631
 20
359.207567
 30
0.0
 10
585.224281
 20
359.400660
 30
0.0
  0
SPLINE
  5
3e3
100
AcDbEntity
  8
0
 62
7
100
AcDbSpline
 70
8
 71
3
 72
8
 73
4
 74
0
 40
0
 40
0
 40
0
 40
0
 40
1
 40
1
 40
1
 40
1
 10
585.875342
 20
236.888417
 30
0.0
 10
588.466327
 20
234.560084
 30
0.0
 10
590.951320
 20
232.324249
 30
0.0
 10
591.397513
 20
231.919886
 30
0.0
  0
LWPOLYLINE
  5
3e4
100
AcDbEntity
  8
0
 62
7
100
AcDbPolyline
 90
3
 70
0
 10
580.978513
 20
254.218625
 30
0.0
 10
581.164409
 20
241.121750
 30
0.0
 10
585.875342
 20
236.888417
 30
0.0
  0
SPLINE
  5
3e5
100
AcDbEntity
  8
0
 62
7
100
AcDbSpline
 70
8
 71
3
 72
8
 73
4
 74
0
 40
0
 40
0
 40
0
 40
0
 40
1
 40
1
 40
1
 40
1
 10
591.623626
 20
230.143526
 30
0.0
 10
590.970317
 20
228.981132
 30
0.0
 10
589.706932
 20
228.241966
 30
0.0
 10
588.728238
 20
228.449558
 30
0.0
  0
SPLINE
  5
3e6
100
AcDbEntity
  8
0
 62
7
100
AcDbSpline
 70
8
 71
3
 72
8
 73
4
 74
0
 40
0
 40
0
 40
0
 40
0
 40
1
 40
1
 40
1
 40
1
 10
588.728238
 20
228.449558
 30
0.0
 10
588.373035
 20
228.524911
 30
0.0
 10
587.118381
 20
228.898873
 30
0.0
 10
585.940085
 20
229.280614
 30
0.0
  0
SPLINE
  5
3e7
100
AcDbEntity
  8
0
 62
7
100
AcDbSpline
 70
8
 71
3
 72
8
 73
4
 74
0
 40
0
 40
0
 40
0
 40
0
 40
1
 40
1
 40
1
 40
1
 10
585.940085
 20
229.280614
 30
0.0
 10
583.362488
 20
230.115719
 30
0.0
 10
582.502989
 20
229.923208
 30
0.0
 10
581.745037
 20
228.340894
 30
0.0
  0
SPLINE
  5
3e8
100
AcDbEntity
  8
0
 62
7
100
AcDbSpline
 70
8
 71
3
 72
8
 73
4
 74
0
 40
0
 40
0
 40
0
 40
0
 40
1
 40
1
 40
1
 40
1
 10
581.745037
 20
228.340894
 30
0.0
 10
581.169489
 20
227.139368
 30
0.0
 10
580.857757
 20
224.320709
 30
0.0
 10
581.300431
 20
224.320709
 30
0.0
  0
SPLINE
  5
3e9
100
AcDbEntity
  8
0
 62
7
100
AcDbSpline
 70
8
 71
3
 72
8
 73
4
 74
0
 40
0
 40
0
 40
0
 40
0
 40
1
 40
1
 40
1
 40
1
 10
581.300431
 20
224.320709
 30
0.0
 10
581.467039
 20
224.320709
 30
0.0
 10
583.954123
 20
225.022410
 30
0.0
 10
586.827286
 20
225.880057
 30
0.0
  0
LWPOLYLINE
  5
3ea
100
AcDbEntity
  8
0
 62
7
100
AcDbPolyline
 90
3
 70
0
 10
591.397513
 20
231.919886
 30
0.0
 10
592.208779
 20
231.184715
 30
0.0
 10
591.623626
 20
230.143526
 30
0.0
  0
SPLINE
  5
3eb
100
AcDbEntity
  8
0
 62
7
100
AcDbSpline
 70
8
 71
3
 72
8
 73
4
 74
0
 40
0
 40
0
 40
0
 40
0
 40
1
 40
1
 40
1
 40
1
 10
69.102203
 20
238.608209
 30
0.0
 10
69.102203
 20
239.842940
 30
0.0
 10
69.058123
 20
239.931125
 30
0.0
 10
68.440744
 20
239.931125
 30
0.0
  0
SPLINE
  5
3ec
100
AcDbEntity
  8
0
 62
7
100
AcDbSpline
 70
8
 71
3
 72
8
 73
4
 74
0
 40
0
 40
0
 40
0
 40
0
 40
1
 40
1
 40
1
 40
1
 10
68.440744
 20
239.931125
 30
0.0
 10
67.673479
 20
239.931125
 30
0.0
 10
67.697530
 20
240.000949
 30
0.0
 10
68.067179
 20
238.846122
 30
0.0
  0
SPLINE
  5
3ed
100
AcDbEntity
  8
0
 62
7
100
AcDbSpline
 70
8
 71
3
 72
8
 73
4
 74
0
 40
0
 40
0
 40
0
 40
0
 40
1
 40
1
 40
1
 40
1
 10
68.067179
 20
238.846122
 30
0.0
 10
68.225532
 20
238.351483
 30
0.0
 10
68.400369
 20
237.797922
 30
0.0
 10
68.455746
 20
237.616021
 30
0.0
  0
SPLINE
  5
3ee
100
AcDbEntity
  8
0
 62
7
100
AcDbSpline
 70
8
 71
3
 72
8
 73
4
 74
0
 40
0
 40
0
 40
0
 40
0
 40
1
 40
1
 40
1
 40
1
 10
68.455746
 20
237.616021
 30
0.0
 10
68.705143
 20
236.796845
 30
0.0
 10
69.102203
 20
237.406286
 30
0.0
 10
69.102203
 20
238.608209
 30
0.0
  0
LWPOLYLINE
  5
3ef
100
AcDbEntity
  8
0
 62
7
100
AcDbPolyline
 90
1
 70
1
 10
586.827286
 20
225.880057
 30
0.0
  0
SPLINE
  5
3f0
100
AcDbEntity
  8
0
 62
7
100
AcDbSpline
 70
8
 71
3
 72
8
 73
4
 74
0
 40
0
 40
0
 40
0
 40
0
 40
1
 40
1
 40
1
 40
1
 10
79.420953
 20
266.057301
 30
0.0
 10
79.420953
 20
268.005692
 30
0.0
 10
78.905333
 20
268.546501
 30
0.0
 10
76.183511
 20
269.452963
 30
0.0
  0
SPLINE
  5
3f1
100
AcDbEntity
  8
0
 62
7
100
AcDbSpline
 70
8
 71
3
 72
8
 73
4
 74
0
 40
0
 40
0
 40
0
 40
0
 40
1
 40
1
 40
1
 40
1
 10
76.183511
 20
269.452963
 30
0.0
 10
74.062558
 20
270.159295
 30
0.0
 10
72.443388
 20
271.269910
 30
0.0
 10
72.139752
 20
272.226590
 30
0.0
  0
SPLINE
  5
3f2
100
AcDbEntity
  8
0
 62
7
100
AcDbSpline
 70
8
 71
3
 72
8
 73
4
 74
0
 40
0
 40
0
 40
0
 40
0
 40
1
 40
1
 40
1
 40
1
 10
72.139752
 20
272.226590
 30
0.0
 10
72.050217
 20
272.508663
 30
0.0
 10
71.800477
 20
272.739459
 30
0.0
 10
71.584788
 20
272.739459
 30
0.0
  0
SPLINE
  5
3f3
100
AcDbEntity
  8
0
 62
7
100
AcDbSpline
 70
8
 71
3
 72
8
 73
4
 74
0
 40
0
 40
0
 40
0
 40
0
 40
1
 40
1
 40
1
 40
1
 10
71.584788
 20
272.739459
 30
0.0
 10
70.711796
 20
272.739459
 30
0.0
 10
69.573796
 20
273.634782
 30
0.0
 10
68.135759
 20
275.452972
 30
0.0
  0
SPLINE
  5
3f4
100
AcDbEntity
  8
0
 62
7
100
AcDbSpline
 70
8
 71
3
 72
8
 73
4
 74
0
 40
0
 40
0
 40
0
 40
0
 40
1
 40
1
 40
1
 40
1
 10
68.135759
 20
275.452972
 30
0.0
 10
65.866402
 20
278.322273
 30
0.0
 10
65.089373
 20
279.089459
 30
0.0
 10
64.452495
 20
279.089459
 30
0.0
  0
SPLINE
  5
3f5
100
AcDbEntity
  8
0
 62
7
100
AcDbSpline
 70
8
 71
3
 72
8
 73
4
 74
0
 40
0
 40
0
 40
0
 40
0
 40
1
 40
1
 40
1
 40
1
 10
64.452495
 20
279.089459
 30
0.0
 10
63.303965
 20
279.089459
 30
0.0
 10
63.217737
 20
278.493458
 30
0.0
 10
64.114675
 20
276.754299
 30
0.0
  0
SPLINE
  5
3f6
100
AcDbEntity
  8
0
 62
7
100
AcDbSpline
 70
8
 71
3
 72
8
 73
4
 74
0
 40
0
 40
0
 40
0
 40
0
 40
1
 40
1
 40
1
 40
1
 10
64.114675
 20
276.754299
 30
0.0
 10
65.738290
 20
273.606207
 30
0.0
 10
67.982274
 20
271.551691
 30
0.0
 10
73.225364
 20
268.412886
 30
0.0
  0
SPLINE
  5
3f7
100
AcDbEntity
  8
0
 62
7
100
AcDbSpline
 70
8
 71
3
 72
8
 73
4
 74
0
 40
0
 40
0
 40
0
 40
0
 40
1
 40
1
 40
1
 40
1
 10
73.225364
 20
268.412886
 30
0.0
 10
74.813948
 20
267.461894
 30
0.0
 10
76.768505
 20
266.152974
 30
0.0
 10
77.568869
 20
265.504189
 30
0.0
  0
SPLINE
  5
3f8
100
AcDbEntity
  8
0
 62
7
100
AcDbSpline
 70
8
 71
3
 72
8
 73
4
 74
0
 40
0
 40
0
 40
0
 40
0
 40
1
 40
1
 40
1
 40
1
 10
77.568869
 20
265.504189
 30
0.0
 10
78.369234
 20
264.855378
 30
0.0
 10
79.113375
 20
264.379472
 30
0.0
 10
79.222515
 20
264.446570
 30
0.0
  0
SPLINE
  5
3f9
100
AcDbEntity
  8
0
 62
7
100
AcDbSpline
 70
8
 71
3
 72
8
 73
4
 74
0
 40
0
 40
0
 40
0
 40
0
 40
1
 40
1
 40
1
 40
1
 10
79.222515
 20
264.446570
 30
0.0
 10
79.331656
 20
264.513695
 30
0.0
 10
79.420953
 20
265.238521
 30
0.0
 10
79.420953
 20
266.057301
 30
0.0
  0
LWPOLYLINE
  5
3fa
100
AcDbEntity
  8
0
 62
7
100
AcDbPolyline
 90
1
 70
1
 10
69.102203
 20
238.608209
 30
0.0
  0
SPLINE
  5
3fb
100
AcDbEntity
  8
0
 62
7
100
AcDbSpline
 70
8
 71
3
 72
8
 73
4
 74
0
 40
0
 40
0
 40
0
 40
0
 40
1
 40
1
 40
1
 40
1
 10
107.315233
 20
284.361572
 30
0.0
 10
108.963269
 20
286.034745
 30
0.0
 10
111.140737
 20
287.015978
 30
0.0
 10
114.065971
 20
287.403646
 30
0.0
  0
SPLINE
  5
3fc
100
AcDbEntity
  8
0
 62
7
100
AcDbSpline
 70
8
 71
3
 72
8
 73
4
 74
0
 40
0
 40
0
 40
0
 40
0
 40
1
 40
1
 40
1
 40
1
 10
114.065971
 20
287.403646
 30
0.0
 10
117.255708
 20
287.826371
 30
0.0
 10
117.229647
 20
287.989830
 30
0.0
 10
113.371360
 20
291.759905
 30
0.0
  0
SPLINE
  5
3fd
100
AcDbEntity
  8
0
 62
7
100
AcDbSpline
 70
8
 71
3
 72
8
 73
4
 74
0
 40
0
 40
0
 40
0
 40
0
 40
1
 40
1
 40
1
 40
1
 10
113.371360
 20
291.759905
 30
0.0
 10
109.882458
 20
295.169034
 30
0.0
 10
107.492318
 20
298.172187
 30
0.0
 10
106.736457
 20
300.096423
 30
0.0
  0
LWPOLYLINE
  5
3fe
100
AcDbEntity
  8
0
 62
7
100
AcDbPolyline
 90
1
 70
1
 10
79.420953
 20
266.057301
 30
0.0
  0
SPLINE
  5
3ff
100
AcDbEntity
  8
0
 62
7
100
AcDbSpline
 70
8
 71
3
 72
8
 73
4
 74
0
 40
0
 40
0
 40
0
 40
0
 40
1
 40
1
 40
1
 40
1
 10
105.769987
 20
300.650936
 30
0.0
 10
105.328238
 20
299.976752
 30
0.0
 10
105.222008
 20
299.946589
 30
0.0
 10
103.880333
 20
300.114203
 30
0.0
  0
SPLINE
  5
400
100
AcDbEntity
  8
0
 62
7
100
AcDbSpline
 70
8
 71
3
 72
8
 73
4
 74
0
 40
0
 40
0
 40
0
 40
0
 40
1
 40
1
 40
1
 40
1
 10
103.880333
 20
300.114203
 30
0.0
 10
102.542202
 20
300.281393
 30
0.0
 10
102.449625
 20
300.255437
 30
0.0
 10
102.303231
 20
299.672216
 30
0.0
  0
SPLINE
  5
401
100
AcDbEntity
  8
0
 62
7
100
AcDbSpline
 70
8
 71
3
 72
8
 73
4
 74
0
 40
0
 40
0
 40
0
 40
0
 40
1
 40
1
 40
1
 40
1
 10
102.303231
 20
299.672216
 30
0.0
 10
102.217717
 20
299.331433
 30
0.0
 10
102.183666
 20
298.400655
 30
0.0
 10
102.227586
 20
297.603836
 30
0.0
  0
SPLINE
  5
402
100
AcDbEntity
  8
0
 62
7
100
AcDbSpline
 70
8
 71
3
 72
8
 73
4
 74
0
 40
0
 40
0
 40
0
 40
0
 40
1
 40
1
 40
1
 40
1
 10
102.227586
 20
297.603836
 30
0.0
 10
102.304580
 20
296.206492
 30
0.0
 10
102.283943
 20
296.156221
 30
0.0
 10
101.645953
 20
296.187045
 30
0.0
  0
SPLINE
  5
403
100
AcDbEntity
  8
0
 62
7
100
AcDbSpline
 70
8
 71
3
 72
8
 73
4
 74
0
 40
0
 40
0
 40
0
 40
0
 40
1
 40
1
 40
1
 40
1
 10
101.645953
 20
296.187045
 30
0.0
 10
101.282151
 20
296.204508
 30
0.0
 10
100.597541
 20
296.308806
 30
0.0
 10
100.124599
 20
296.418556
 30
0.0
  0
LWPOLYLINE
  5
404
100
AcDbEntity
  8
0
 62
7
100
AcDbPolyline
 90
3
 70
0
 10
106.736457
 20
300.096423
 30
0.0
 10
106.238035
 20
301.365285
 30
0.0
 10
105.769987
 20
300.650936
 30
0.0
  0
SPLINE
  5
405
100
AcDbEntity
  8
0
 62
7
100
AcDbSpline
 70
8
 71
3
 72
8
 73
4
 74
0
 40
0
 40
0
 40
0
 40
0
 40
1
 40
1
 40
1
 40
1
 10
98.498496
 20
290.731125
 30
0.0
 10
97.913291
 20
290.731125
 30
0.0
 10
97.475617
 20
291.028014
 30
0.0
 10
96.645831
 20
291.987896
 30
0.0
  0
LWPOLYLINE
  5
406
100
AcDbEntity
  8
0
 62
7
100
AcDbPolyline
 90
5
 70
0
 10
100.124599
 20
296.418556
 30
0.0
 10
99.264703
 20
296.618104
 30
0.0
 10
99.264703
 20
293.674615
 30
0.0
 10
99.264703
 20
290.731125
 30
0.0
 10
98.498496
 20
290.731125
 30
0.0
  0
SPLINE
  5
407
100
AcDbEntity
  8
0
 62
7
100
AcDbSpline
 70
8
 71
3
 72
8
 73
4
 74
0
 40
0
 40
0
 40
0
 40
0
 40
1
 40
1
 40
1
 40
1
 10
94.894236
 20
292.450917
 30
0.0
 10
93.994388
 20
291.377052
 30
0.0
 10
93.447336
 20
289.465253
 30
0.0
 10
93.261916
 20
286.746341
 30
0.0
  0
LWPOLYLINE
  5
408
100
AcDbEntity
  8
0
 62
7
100
AcDbPolyline
 90
3
 70
0
 10
96.645831
 20
291.987896
 30
0.0
 10
95.559372
 20
293.244667
 30
0.0
 10
94.894236
 20
292.450917
 30
0.0
  0
SPLINE
  5
409
100
AcDbEntity
  8
0
 62
7
100
AcDbSpline
 70
8
 71
3
 72
8
 73
4
 74
0
 40
0
 40
0
 40
0
 40
0
 40
1
 40
1
 40
1
 40
1
 10
98.898070
 20
283.807270
 30
0.0
 10
102.082912
 20
283.436510
 30
0.0
 10
104.990815
 20
283.116285
 30
0.0
 10
105.360068
 20
283.095674
 30
0.0
  0
SPLINE
  5
40a
100
AcDbEntity
  8
0
 62
7
100
AcDbSpline
 70
8
 71
3
 72
8
 73
4
 74
0
 40
0
 40
0
 40
0
 40
0
 40
1
 40
1
 40
1
 40
1
 10
105.360068
 20
283.095674
 30
0.0
 10
105.842086
 20
283.068792
 30
0.0
 10
106.393610
 20
283.425874
 30
0.0
 10
107.315233
 20
284.361572
 30
0.0
  0
LWPOLYLINE
  5
40b
100
AcDbEntity
  8
0
 62
7
100
AcDbPolyline
 90
3
 70
0
 10
93.261916
 20
286.746341
 30
0.0
 10
93.107452
 20
284.481376
 30
0.0
 10
98.898070
 20
283.807270
 30
0.0
  0
SPLINE
  5
40c
100
AcDbEntity
  8
0
 62
7
100
AcDbSpline
 70
8
 71
3
 72
8
 73
4
 74
0
 40
0
 40
0
 40
0
 40
0
 40
1
 40
1
 40
1
 40
1
 10
92.006229
 20
304.506127
 30
0.0
 10
94.959112
 20
305.035109
 30
0.0
 10
99.978681
 20
307.947007
 30
0.0
 10
104.184789
 20
311.571005
 30
0.0
  0
SPLINE
  5
40d
100
AcDbEntity
  8
0
 62
7
100
AcDbSpline
 70
8
 71
3
 72
8
 73
4
 74
0
 40
0
 40
0
 40
0
 40
0
 40
1
 40
1
 40
1
 40
1
 10
104.184789
 20
311.571005
 30
0.0
 10
104.702552
 20
312.017119
 30
0.0
 10
104.752558
 20
312.424260
 30
0.0
 10
104.940756
 20
317.727939
 30
0.0
  0
SPLINE
  5
40e
100
AcDbEntity
  8
0
 62
7
100
AcDbSpline
 70
8
 71
3
 72
8
 73
4
 74
0
 40
0
 40
0
 40
0
 40
0
 40
1
 40
1
 40
1
 40
1
 10
104.940756
 20
317.727939
 30
0.0
 10
105.051590
 20
320.851504
 30
0.0
 10
105.218807
 20
324.696614
 30
0.0
 10
105.312363
 20
326.272578
 30
0.0
  0
LWPOLYLINE
  5
40f
100
AcDbEntity
  8
0
 62
7
100
AcDbPolyline
 90
1
 70
1
 10
107.315233
 20
284.361572
 30
0.0
  0
SPLINE
  5
410
100
AcDbEntity
  8
0
 62
7
100
AcDbSpline
 70
8
 71
3
 72
8
 73
4
 74
0
 40
0
 40
0
 40
0
 40
0
 40
1
 40
1
 40
1
 40
1
 10
104.233975
 20
329.675014
 30
0.0
 10
103.547328
 20
329.970395
 30
0.0
 10
102.848140
 20
330.377588
 30
0.0
 10
102.680236
 20
330.579915
 30
0.0
  0
SPLINE
  5
411
100
AcDbEntity
  8
0
 62
7
100
AcDbSpline
 70
8
 71
3
 72
8
 73
4
 74
0
 40
0
 40
0
 40
0
 40
0
 40
1
 40
1
 40
1
 40
1
 10
102.680236
 20
330.579915
 30
0.0
 10
101.976629
 20
331.427693
 30
0.0
 10
101.835871
 20
330.933134
 30
0.0
 10
102.013089
 20
328.235813
 30
0.0
  0
SPLINE
  5
412
100
AcDbEntity
  8
0
 62
7
100
AcDbSpline
 70
8
 71
3
 72
8
 73
4
 74
0
 40
0
 40
0
 40
0
 40
0
 40
1
 40
1
 40
1
 40
1
 10
102.013089
 20
328.235813
 30
0.0
 10
102.111090
 20
326.744224
 30
0.0
 10
102.262644
 20
324.789112
 30
0.0
 10
102.349877
 20
323.891116
 30
0.0
  0
LWPOLYLINE
  5
413
100
AcDbEntity
  8
0
 62
7
100
AcDbPolyline
 90
3
 70
0
 10
105.312363
 20
326.272578
 30
0.0
 10
105.482411
 20
329.138015
 30
0.0
 10
104.233975
 20
329.675014
 30
0.0
  0
SPLINE
  5
414
100
AcDbEntity
  8
0
 62
7
100
AcDbSpline
 70
8
 71
3
 72
8
 73
4
 74
0
 40
0
 40
0
 40
0
 40
0
 40
1
 40
1
 40
1
 40
1
 10
101.441298
 20
321.938650
 30
0.0
 10
99.092406
 20
321.234911
 30
0.0
 10
96.693403
 20
322.671757
 30
0.0
 10
96.054381
 20
325.165059
 30
0.0
  0
LWPOLYLINE
  5
415
100
AcDbEntity
  8
0
 62
7
100
AcDbPolyline
 90
3
 70
0
 10
102.349877
 20
323.891116
 30
0.0
 10
102.508494
 20
322.258399
 30
0.0
 10
101.441298
 20
321.938650
 30
0.0
  0
SPLINE
  5
416
100
AcDbEntity
  8
0
 62
7
100
AcDbSpline
 70
8
 71
3
 72
8
 73
4
 74
0
 40
0
 40
0
 40
0
 40
0
 40
1
 40
1
 40
1
 40
1
 10
93.624342
 20
325.854298
 30
0.0
 10
93.283188
 20
326.400134
 30
0.0
 10
92.255361
 20
328.132281
 30
0.0
 10
91.340273
 20
329.703509
 30
0.0
  0
SPLINE
  5
417
100
AcDbEntity
  8
0
 62
7
100
AcDbSpline
 70
8
 71
3
 72
8
 73
4
 74
0
 40
0
 40
0
 40
0
 40
0
 40
1
 40
1
 40
1
 40
1
 10
91.340273
 20
329.703509
 30
0.0
 10
90.425185
 20
331.274711
 30
0.0
 10
89.644003
 20
332.524867
 30
0.0
 10
89.604316
 20
332.481634
 30
0.0
  0
SPLINE
  5
418
100
AcDbEntity
  8
0
 62
7
100
AcDbSpline
 70
8
 71
3
 72
8
 73
4
 74
0
 40
0
 40
0
 40
0
 40
0
 40
1
 40
1
 40
1
 40
1
 10
89.604316
 20
332.481634
 30
0.0
 10
89.564628
 20
332.438375
 30
0.0
 10
88.970718
 20
328.533469
 30
0.0
 10
88.284494
 20
323.804042
 30
0.0
  0
SPLINE
  5
419
100
AcDbEntity
  8
0
 62
7
100
AcDbSpline
 70
8
 71
3
 72
8
 73
4
 74
0
 40
0
 40
0
 40
0
 40
0
 40
1
 40
1
 40
1
 40
1
 10
88.284494
 20
323.804042
 30
0.0
 10
87.598298
 20
319.074615
 30
0.0
 10
86.993037
 20
315.158358
 30
0.0
 10
86.939459
 20
315.101235
 30
0.0
  0
SPLINE
  5
41a
100
AcDbEntity
  8
0
 62
7
100
AcDbSpline
 70
8
 71
3
 72
8
 73
4
 74
0
 40
0
 40
0
 40
0
 40
0
 40
1
 40
1
 40
1
 40
1
 10
86.939459
 20
315.101235
 30
0.0
 10
86.885907
 20
315.044111
 30
0.0
 10
86.641273
 20
315.163174
 30
0.0
 10
86.395819
 20
315.365818
 30
0.0
  0
SPLINE
  5
41b
100
AcDbEntity
  8
0
 62
7
100
AcDbSpline
 70
8
 71
3
 72
8
 73
4
 74
0
 40
0
 40
0
 40
0
 40
0
 40
1
 40
1
 40
1
 40
1
 10
86.395819
 20
315.365818
 30
0.0
 10
85.628766
 20
315.999098
 30
0.0
 10
84.945400
 20
317.933440
 30
0.0
 10
84.551144
 20
320.587476
 30
0.0
  0
SPLINE
  5
41c
100
AcDbEntity
  8
0
 62
7
100
AcDbSpline
 70
8
 71
3
 72
8
 73
4
 74
0
 40
0
 40
0
 40
0
 40
0
 40
1
 40
1
 40
1
 40
1
 10
84.551144
 20
320.587476
 30
0.0
 10
84.034466
 20
324.065582
 30
0.0
 10
83.760146
 20
324.825730
 30
0.0
 10
82.948219
 20
325.029512
 30
0.0
  0
SPLINE
  5
41d
100
AcDbEntity
  8
0
 62
7
100
AcDbSpline
 70
8
 71
3
 72
8
 73
4
 74
0
 40
0
 40
0
 40
0
 40
0
 40
1
 40
1
 40
1
 40
1
 10
82.948219
 20
325.029512
 30
0.0
 10
82.000482
 20
325.267373
 30
0.0
 10
81.422288
 20
324.554612
 30
0.0
 10
80.773529
 20
322.348834
 30
0.0
  0
SPLINE
  5
41e
100
AcDbEntity
  8
0
 62
7
100
AcDbSpline
 70
8
 71
3
 72
8
 73
4
 74
0
 40
0
 40
0
 40
0
 40
0
 40
1
 40
1
 40
1
 40
1
 10
80.773529
 20
322.348834
 30
0.0
 10
80.473942
 20
321.330188
 30
0.0
 10
80.029653
 20
320.213620
 30
0.0
 10
79.786184
 20
319.867571
 30
0.0
  0
LWPOLYLINE
  5
41f
100
AcDbEntity
  8
0
 62
7
100
AcDbPolyline
 90
5
 70
0
 10
96.054381
 20
325.165059
 30
0.0
 10
95.711375
 20
326.503427
 30
0.0
 10
94.977977
 20
325.682636
 30
0.0
 10
94.244604
 20
324.861846
 30
0.0
 10
93.624342
 20
325.854298
 30
0.0
  0
SPLINE
  5
420
100
AcDbEntity
  8
0
 62
7
100
AcDbSpline
 70
8
 71
3
 72
8
 73
4
 74
0
 40
0
 40
0
 40
0
 40
0
 40
1
 40
1
 40
1
 40
1
 10
79.020400
 20
319.842171
 30
0.0
 10
78.703218
 20
320.434838
 30
0.0
 10
78.684459
 20
320.424069
 30
0.0
 10
78.000775
 20
319.257468
 30
0.0
  0
SPLINE
  5
421
100
AcDbEntity
  8
0
 62
7
100
AcDbSpline
 70
8
 71
3
 72
8
 73
4
 74
0
 40
0
 40
0
 40
0
 40
0
 40
1
 40
1
 40
1
 40
1
 10
78.000775
 20
319.257468
 30
0.0
 10
77.453114
 20
318.322960
 30
0.0
 10
77.304286
 20
317.721774
 30
0.0
 10
77.304286
 20
316.443969
 30
0.0
  0
SPLINE
  5
422
100
AcDbEntity
  8
0
 62
7
100
AcDbSpline
 70
8
 71
3
 72
8
 73
4
 74
0
 40
0
 40
0
 40
0
 40
0
 40
1
 40
1
 40
1
 40
1
 10
77.304286
 20
316.443969
 30
0.0
 10
77.304286
 20
314.421150
 30
0.0
 10
77.773789
 20
313.200071
 30
0.0
 10
79.713556
 20
310.178000
 30
0.0
  0
SPLINE
  5
423
100
AcDbEntity
  8
0
 62
7
100
AcDbSpline
 70
8
 71
3
 72
8
 73
4
 74
0
 40
0
 40
0
 40
0
 40
0
 40
1
 40
1
 40
1
 40
1
 10
79.713556
 20
310.178000
 30
0.0
 10
80.972046
 20
308.217305
 30
0.0
 10
81.536773
 20
307.604054
 30
0.0
 10
82.911177
 20
306.705714
 30
0.0
  0
SPLINE
  5
424
100
AcDbEntity
  8
0
 62
7
100
AcDbSpline
 70
8
 71
3
 72
8
 73
4
 74
0
 40
0
 40
0
 40
0
 40
0
 40
1
 40
1
 40
1
 40
1
 10
82.911177
 20
306.705714
 30
0.0
 10
83.829202
 20
306.105639
 30
0.0
 10
85.294703
 20
305.365494
 30
0.0
 10
86.167828
 20
305.060959
 30
0.0
  0
SPLINE
  5
425
100
AcDbEntity
  8
0
 62
7
100
AcDbSpline
 70
8
 71
3
 72
8
 73
4
 74
0
 40
0
 40
0
 40
0
 40
0
 40
1
 40
1
 40
1
 40
1
 10
86.167828
 20
305.060959
 30
0.0
 10
88.666077
 20
304.189606
 30
0.0
 10
89.694089
 20
304.091922
 30
0.0
 10
92.006229
 20
304.506127
 30
0.0
  0
LWPOLYLINE
  5
426
100
AcDbEntity
  8
0
 62
7
100
AcDbPolyline
 90
3
 70
0
 10
79.786184
 20
319.867571
 30
0.0
 10
79.343536
 20
319.238418
 30
0.0
 10
79.020400
 20
319.842171
 30
0.0
  0
SPLINE
  5
427
100
AcDbEntity
  8
0
 62
7
100
AcDbSpline
 70
8
 71
3
 72
8
 73
4
 74
0
 40
0
 40
0
 40
0
 40
0
 40
1
 40
1
 40
1
 40
1
 10
72.128481
 20
329.955604
 30
0.0
 10
71.879984
 20
331.519953
 30
0.0
 10
71.584471
 20
332.799875
 30
0.0
 10
71.471811
 20
332.799875
 30
0.0
  0
SPLINE
  5
428
100
AcDbEntity
  8
0
 62
7
100
AcDbSpline
 70
8
 71
3
 72
8
 73
4
 74
0
 40
0
 40
0
 40
0
 40
0
 40
1
 40
1
 40
1
 40
1
 10
71.471811
 20
332.799875
 30
0.0
 10
71.103987
 20
332.799875
 30
0.0
 10
70.621467
 20
329.246600
 30
0.0
 10
70.729549
 20
327.333795
 30
0.0
  0
SPLINE
  5
429
100
AcDbEntity
  8
0
 62
7
100
AcDbSpline
 70
8
 71
3
 72
8
 73
4
 74
0
 40
0
 40
0
 40
0
 40
0
 40
1
 40
1
 40
1
 40
1
 10
70.729549
 20
327.333795
 30
0.0
 10
70.818502
 20
325.759683
 30
0.0
 10
70.959102
 20
325.303356
 30
0.0
 10
71.622306
 20
324.436290
 30
0.0
  0
LWPOLYLINE
  5
42a
100
AcDbEntity
  8
0
 62
7
100
AcDbPolyline
 90
1
 70
1
 10
92.006229
 20
304.506127
 30
0.0
  0
SPLINE
  5
42b
100
AcDbEntity
  8
0
 62
7
100
AcDbSpline
 70
8
 71
3
 72
8
 73
4
 74
0
 40
0
 40
0
 40
0
 40
0
 40
1
 40
1
 40
1
 40
1
 10
72.494902
 20
325.259250
 30
0.0
 10
72.541866
 20
326.277896
 30
0.0
 10
72.376977
 20
328.391255
 30
0.0
 10
72.128481
 20
329.955604
 30
0.0
  0
LWPOLYLINE
  5
42c
100
AcDbEntity
  8
0
 62
7
100
AcDbPolyline
 90
3
 70
0
 10
71.622306
 20
324.436290
 30
0.0
 10
72.409494
 20
323.407167
 30
0.0
 10
72.494902
 20
325.259250
 30
0.0
  0
SPLINE
  5
42d
100
AcDbEntity
  8
0
 62
7
100
AcDbSpline
 70
8
 71
3
 72
8
 73
4
 74
0
 40
0
 40
0
 40
0
 40
0
 40
1
 40
1
 40
1
 40
1
 10
79.420953
 20
334.392191
 30
0.0
 10
79.420953
 20
336.647605
 30
0.0
 10
78.911339
 20
340.208209
 30
0.0
 10
78.588494
 20
340.208209
 30
0.0
  0
SPLINE
  5
42e
100
AcDbEntity
  8
0
 62
7
100
AcDbSpline
 70
8
 71
3
 72
8
 73
4
 74
0
 40
0
 40
0
 40
0
 40
0
 40
1
 40
1
 40
1
 40
1
 10
78.588494
 20
340.208209
 30
0.0
 10
78.457076
 20
340.208209
 30
0.0
 10
78.220935
 20
339.880787
 30
0.0
 10
78.063746
 20
339.480604
 30
0.0
  0
SPLINE
  5
42f
100
AcDbEntity
  8
0
 62
7
100
AcDbSpline
 70
8
 71
3
 72
8
 73
4
 74
0
 40
0
 40
0
 40
0
 40
0
 40
1
 40
1
 40
1
 40
1
 10
78.063746
 20
339.480604
 30
0.0
 10
77.840941
 20
338.913311
 30
0.0
 10
77.910843
 20
338.041694
 30
0.0
 10
78.380982
 20
335.524740
 30
0.0
  0
SPLINE
  5
430
100
AcDbEntity
  8
0
 62
7
100
AcDbSpline
 70
8
 71
3
 72
8
 73
4
 74
0
 40
0
 40
0
 40
0
 40
0
 40
1
 40
1
 40
1
 40
1
 10
78.380982
 20
335.524740
 30
0.0
 10
78.712663
 20
333.749200
 30
0.0
 10
79.082339
 20
332.357227
 30
0.0
 10
79.202486
 20
332.431496
 30
0.0
  0
SPLINE
  5
431
100
AcDbEntity
  8
0
 62
7
100
AcDbSpline
 70
8
 71
3
 72
8
 73
4
 74
0
 40
0
 40
0
 40
0
 40
0
 40
1
 40
1
 40
1
 40
1
 10
79.202486
 20
332.431496
 30
0.0
 10
79.322660
 20
332.505764
 30
0.0
 10
79.420953
 20
333.388070
 30
0.0
 10
79.420953
 20
334.392191
 30
0.0
  0
LWPOLYLINE
  5
432
100
AcDbEntity
  8
0
 62
7
100
AcDbPolyline
 90
1
 70
1
 10
72.128481
 20
329.955604
 30
0.0
  0
SPLINE
  5
433
100
AcDbEntity
  8
0
 62
7
100
AcDbSpline
 70
8
 71
3
 72
8
 73
4
 74
0
 40
0
 40
0
 40
0
 40
0
 40
1
 40
1
 40
1
 40
1
 10
71.434531
 20
337.139597
 30
0.0
 10
71.388679
 20
338.071222
 30
0.0
 10
71.261864
 20
338.778559
 30
0.0
 10
71.152724
 20
338.711487
 30
0.0
  0
SPLINE
  5
434
100
AcDbEntity
  8
0
 62
7
100
AcDbSpline
 70
8
 71
3
 72
8
 73
4
 74
0
 40
0
 40
0
 40
0
 40
0
 40
1
 40
1
 40
1
 40
1
 10
71.152724
 20
338.711487
 30
0.0
 10
71.043583
 20
338.644389
 30
0.0
 10
70.954286
 20
338.794937
 30
0.0
 10
70.954286
 20
339.046053
 30
0.0
  0
SPLINE
  5
435
100
AcDbEntity
  8
0
 62
7
100
AcDbSpline
 70
8
 71
3
 72
8
 73
4
 74
0
 40
0
 40
0
 40
0
 40
0
 40
1
 40
1
 40
1
 40
1
 10
70.954286
 20
339.046053
 30
0.0
 10
70.954286
 20
339.297195
 30
0.0
 10
70.900682
 20
339.449040
 30
0.0
 10
70.835171
 20
339.383529
 30
0.0
  0
SPLINE
  5
436
100
AcDbEntity
  8
0
 62
7
100
AcDbSpline
 70
8
 71
3
 72
8
 73
4
 74
0
 40
0
 40
0
 40
0
 40
0
 40
1
 40
1
 40
1
 40
1
 10
70.835171
 20
339.383529
 30
0.0
 10
70.690206
 20
339.238564
 30
0.0
 10
71.234586
 20
335.445709
 30
0.0
 10
71.400374
 20
335.445709
 30
0.0
  0
SPLINE
  5
437
100
AcDbEntity
  8
0
 62
7
100
AcDbSpline
 70
8
 71
3
 72
8
 73
4
 74
0
 40
0
 40
0
 40
0
 40
0
 40
1
 40
1
 40
1
 40
1
 10
71.400374
 20
335.445709
 30
0.0
 10
71.465011
 20
335.445709
 30
0.0
 10
71.480384
 20
336.207947
 30
0.0
 10
71.434531
 20
337.139597
 30
0.0
  0
LWPOLYLINE
  5
438
100
AcDbEntity
  8
0
 62
7
100
AcDbPolyline
 90
1
 70
1
 10
79.420953
 20
334.392191
 30
0.0
  0
SPLINE
  5
439
100
AcDbEntity
  8
0
 62
7
100
AcDbSpline
 70
8
 71
3
 72
8
 73
4
 74
0
 40
0
 40
0
 40
0
 40
0
 40
1
 40
1
 40
1
 40
1
 10
104.097000
 20
351.832704
 30
0.0
 10
103.953358
 20
354.439537
 30
0.0
 10
103.960157
 20
354.478246
 30
0.0
 10
104.916229
 20
356.491434
 30
0.0
  0
SPLINE
  5
43a
100
AcDbEntity
  8
0
 62
7
100
AcDbSpline
 70
8
 71
3
 72
8
 73
4
 74
0
 40
0
 40
0
 40
0
 40
0
 40
1
 40
1
 40
1
 40
1
 10
104.916229
 20
356.491434
 30
0.0
 10
105.446481
 20
357.607976
 30
0.0
 10
106.256079
 20
359.074217
 30
0.0
 10
106.715370
 20
359.749751
 30
0.0
  0
SPLINE
  5
43b
100
AcDbEntity
  8
0
 62
7
100
AcDbSpline
 70
8
 71
3
 72
8
 73
4
 74
0
 40
0
 40
0
 40
0
 40
0
 40
1
 40
1
 40
1
 40
1
 10
106.715370
 20
359.749751
 30
0.0
 10
107.430671
 20
360.801867
 30
0.0
 10
107.712134
 20
361.769131
 30
0.0
 10
108.678102
 20
366.494907
 30
0.0
  0
SPLINE
  5
43c
100
AcDbEntity
  8
0
 62
7
100
AcDbSpline
 70
8
 71
3
 72
8
 73
4
 74
0
 40
0
 40
0
 40
0
 40
0
 40
1
 40
1
 40
1
 40
1
 10
108.678102
 20
366.494907
 30
0.0
 10
109.298311
 20
369.529175
 30
0.0
 10
109.886427
 20
372.624802
 30
0.0
 10
109.985037
 20
373.374050
 30
0.0
  0
SPLINE
  5
43d
100
AcDbEntity
  8
0
 62
7
100
AcDbSpline
 70
8
 71
3
 72
8
 73
4
 74
0
 40
0
 40
0
 40
0
 40
0
 40
1
 40
1
 40
1
 40
1
 10
109.985037
 20
373.374050
 30
0.0
 10
110.083648
 20
374.123297
 30
0.0
 10
110.335954
 20
375.569774
 30
0.0
 10
110.545742
 20
376.588420
 30
0.0
  0
SPLINE
  5
43e
100
AcDbEntity
  8
0
 62
7
100
AcDbSpline
 70
8
 71
3
 72
8
 73
4
 74
0
 40
0
 40
0
 40
0
 40
0
 40
1
 40
1
 40
1
 40
1
 10
110.545742
 20
376.588420
 30
0.0
 10
111.260938
 20
380.061287
 30
0.0
 10
111.689139
 20
383.991223
 30
0.0
 10
111.958353
 20
389.553347
 30
0.0
  0
SPLINE
  5
43f
100
AcDbEntity
  8
0
 62
7
100
AcDbSpline
 70
8
 71
3
 72
8
 73
4
 74
0
 40
0
 40
0
 40
0
 40
0
 40
1
 40
1
 40
1
 40
1
 10
111.958353
 20
389.553347
 30
0.0
 10
112.196584
 20
394.474835
 30
0.0
 10
112.330569
 20
395.518140
 30
0.0
 10
113.130642
 20
398.681472
 30
0.0
  0
SPLINE
  5
440
100
AcDbEntity
  8
0
 62
7
100
AcDbSpline
 70
8
 71
3
 72
8
 73
4
 74
0
 40
0
 40
0
 40
0
 40
0
 40
1
 40
1
 40
1
 40
1
 10
113.130642
 20
398.681472
 30
0.0
 10
113.984849
 20
402.058746
 30
0.0
 10
114.551613
 20
403.763536
 30
0.0
 10
115.945333
 20
407.147795
 30
0.0
  0
SPLINE
  5
441
100
AcDbEntity
  8
0
 62
7
100
AcDbSpline
 70
8
 71
3
 72
8
 73
4
 74
0
 40
0
 40
0
 40
0
 40
0
 40
1
 40
1
 40
1
 40
1
 10
115.945333
 20
407.147795
 30
0.0
 10
116.478865
 20
408.443353
 30
0.0
 10
116.549747
 20
409.096398
 30
0.0
 10
116.591392
 20
413.100920
 30
0.0
  0
SPLINE
  5
442
100
AcDbEntity
  8
0
 62
7
100
AcDbSpline
 70
8
 71
3
 72
8
 73
4
 74
0
 40
0
 40
0
 40
0
 40
0
 40
1
 40
1
 40
1
 40
1
 10
116.591392
 20
413.100920
 30
0.0
 10
116.635551
 20
417.343275
 30
0.0
 10
116.686536
 20
417.756660
 30
0.0
 10
117.488647
 20
420.376961
 30
0.0
  0
SPLINE
  5
443
100
AcDbEntity
  8
0
 62
7
100
AcDbSpline
 70
8
 71
3
 72
8
 73
4
 74
0
 40
0
 40
0
 40
0
 40
0
 40
1
 40
1
 40
1
 40
1
 10
117.488647
 20
420.376961
 30
0.0
 10
119.477441
 20
426.873778
 30
0.0
 10
121.389743
 20
430.805090
 30
0.0
 10
125.112642
 20
436.050455
 30
0.0
  0
SPLINE
  5
444
100
AcDbEntity
  8
0
 62
7
100
AcDbSpline
 70
8
 71
3
 72
8
 73
4
 74
0
 40
0
 40
0
 40
0
 40
0
 40
1
 40
1
 40
1
 40
1
 10
125.112642
 20
436.050455
 30
0.0
 10
126.634870
 20
438.195193
 30
0.0
 10
128.003718
 20
440.026242
 30
0.0
 10
128.154504
 20
440.119429
 30
0.0
  0
SPLINE
  5
445
100
AcDbEntity
  8
0
 62
7
100
AcDbSpline
 70
8
 71
3
 72
8
 73
4
 74
0
 40
0
 40
0
 40
0
 40
0
 40
1
 40
1
 40
1
 40
1
 10
128.154504
 20
440.119429
 30
0.0
 10
128.305290
 20
440.212615
 30
0.0
 10
126.956682
 20
440.853118
 30
0.0
 10
125.157622
 20
441.542755
 30
0.0
  0
SPLINE
  5
446
100
AcDbEntity
  8
0
 62
7
100
AcDbSpline
 70
8
 71
3
 72
8
 73
4
 74
0
 40
0
 40
0
 40
0
 40
0
 40
1
 40
1
 40
1
 40
1
 10
125.157622
 20
441.542755
 30
0.0
 10
121.331270
 20
443.009525
 30
0.0
 10
113.484205
 20
446.429371
 30
0.0
 10
106.962596
 20
449.472397
 30
0.0
  0
SPLINE
  5
447
100
AcDbEntity
  8
0
 62
7
100
AcDbSpline
 70
8
 71
3
 72
8
 73
4
 74
0
 40
0
 40
0
 40
0
 40
0
 40
1
 40
1
 40
1
 40
1
 10
106.962596
 20
449.472397
 30
0.0
 10
104.429687
 20
450.654264
 30
0.0
 10
102.269443
 20
451.526648
 30
0.0
 10
102.162023
 20
451.411078
 30
0.0
  0
SPLINE
  5
448
100
AcDbEntity
  8
0
 62
7
100
AcDbSpline
 70
8
 71
3
 72
8
 73
4
 74
0
 40
0
 40
0
 40
0
 40
0
 40
1
 40
1
 40
1
 40
1
 10
102.162023
 20
451.411078
 30
0.0
 10
101.918923
 20
451.149485
 30
0.0
 10
100.587620
 20
446.770207
 30
0.0
 10
100.587620
 20
446.232097
 30
0.0
  0
SPLINE
  5
449
100
AcDbEntity
  8
0
 62
7
100
AcDbSpline
 70
8
 71
3
 72
8
 73
4
 74
0
 40
0
 40
0
 40
0
 40
0
 40
1
 40
1
 40
1
 40
1
 10
100.587620
 20
446.232097
 30
0.0
 10
100.587620
 20
445.409614
 30
0.0
 10
99.708832
 20
443.152453
 30
0.0
 10
99.450705
 20
443.311971
 30
0.0
  0
SPLINE
  5
44a
100
AcDbEntity
  8
0
 62
7
100
AcDbSpline
 70
8
 71
3
 72
8
 73
4
 74
0
 40
0
 40
0
 40
0
 40
0
 40
1
 40
1
 40
1
 40
1
 10
99.450705
 20
443.311971
 30
0.0
 10
99.303438
 20
443.402987
 30
0.0
 10
99.260337
 20
443.352240
 30
0.0
 10
99.354952
 20
443.199179
 30
0.0
  0
SPLINE
  5
44b
100
AcDbEntity
  8
0
 62
7
100
AcDbSpline
 70
8
 71
3
 72
8
 73
4
 74
0
 40
0
 40
0
 40
0
 40
0
 40
1
 40
1
 40
1
 40
1
 10
99.354952
 20
443.199179
 30
0.0
 10
99.449541
 20
443.046117
 30
0.0
 10
99.178105
 20
442.164526
 30
0.0
 10
98.751782
 20
441.240071
 30
0.0
  0
SPLINE
  5
44c
100
AcDbEntity
  8
0
 62
7
100
AcDbSpline
 70
8
 71
3
 72
8
 73
4
 74
0
 40
0
 40
0
 40
0
 40
0
 40
1
 40
1
 40
1
 40
1
 10
98.751782
 20
441.240071
 30
0.0
 10
97.643812
 20
438.837549
 30
0.0
 10
97.588012
 20
437.111698
 30
0.0
 10
98.571468
 20
435.662496
 30
0.0
  0
LWPOLYLINE
  5
44d
100
AcDbEntity
  8
0
 62
7
100
AcDbPolyline
 90
1
 70
1
 10
71.434531
 20
337.139597
 30
0.0
  0
SPLINE
  5
44e
100
AcDbEntity
  8
0
 62
7
100
AcDbSpline
 70
8
 71
3
 72
8
 73
4
 74
0
 40
0
 40
0
 40
0
 40
0
 40
1
 40
1
 40
1
 40
1
 10
97.116260
 20
433.873833
 30
0.0
 10
95.969582
 20
433.400388
 30
0.0
 10
95.031369
 20
432.854791
 30
0.0
 10
95.031369
 20
432.661354
 30
0.0
  0
SPLINE
  5
44f
100
AcDbEntity
  8
0
 62
7
100
AcDbSpline
 70
8
 71
3
 72
8
 73
4
 74
0
 40
0
 40
0
 40
0
 40
0
 40
1
 40
1
 40
1
 40
1
 10
95.031369
 20
432.661354
 30
0.0
 10
95.031369
 20
432.467917
 30
0.0
 10
95.507620
 20
431.211622
 30
0.0
 10
96.089703
 20
429.869550
 30
0.0
  0
SPLINE
  5
450
100
AcDbEntity
  8
0
 62
7
100
AcDbSpline
 70
8
 71
3
 72
8
 73
4
 74
0
 40
0
 40
0
 40
0
 40
0
 40
1
 40
1
 40
1
 40
1
 10
96.089703
 20
429.869550
 30
0.0
 10
96.671786
 20
428.527504
 30
0.0
 10
97.148036
 20
427.289836
 30
0.0
 10
97.148036
 20
427.119206
 30
0.0
  0
SPLINE
  5
451
100
AcDbEntity
  8
0
 62
7
100
AcDbSpline
 70
8
 71
3
 72
8
 73
4
 74
0
 40
0
 40
0
 40
0
 40
0
 40
1
 40
1
 40
1
 40
1
 10
97.148036
 20
427.119206
 30
0.0
 10
97.148036
 20
426.948576
 30
0.0
 10
96.914727
 20
426.597818
 30
0.0
 10
96.629532
 20
426.339717
 30
0.0
  0
SPLINE
  5
452
100
AcDbEntity
  8
0
 62
7
100
AcDbSpline
 70
8
 71
3
 72
8
 73
4
 74
0
 40
0
 40
0
 40
0
 40
0
 40
1
 40
1
 40
1
 40
1
 10
96.629532
 20
426.339717
 30
0.0
 10
95.982547
 20
425.754194
 30
0.0
 10
95.129133
 20
425.934349
 30
0.0
 10
93.335628
 20
427.035068
 30
0.0
  0
SPLINE
  5
453
100
AcDbEntity
  8
0
 62
7
100
AcDbSpline
 70
8
 71
3
 72
8
 73
4
 74
0
 40
0
 40
0
 40
0
 40
0
 40
1
 40
1
 40
1
 40
1
 10
93.335628
 20
427.035068
 30
0.0
 10
91.604274
 20
428.097635
 30
0.0
 10
90.541893
 20
428.260910
 30
0.0
 10
89.909089
 20
427.561669
 30
0.0
  0
SPLINE
  5
454
100
AcDbEntity
  8
0
 62
7
100
AcDbSpline
 70
8
 71
3
 72
8
 73
4
 74
0
 40
0
 40
0
 40
0
 40
0
 40
1
 40
1
 40
1
 40
1
 10
89.909089
 20
427.561669
 30
0.0
 10
89.482687
 20
427.090499
 30
0.0
 10
89.462763
 20
426.904655
 30
0.0
 10
89.746529
 20
426.044839
 30
0.0
  0
SPLINE
  5
455
100
AcDbEntity
  8
0
 62
7
100
AcDbSpline
 70
8
 71
3
 72
8
 73
4
 74
0
 40
0
 40
0
 40
0
 40
0
 40
1
 40
1
 40
1
 40
1
 10
89.746529
 20
426.044839
 30
0.0
 10
89.924382
 20
425.505909
 30
0.0
 10
90.059134
 20
424.528115
 30
0.0
 10
90.045958
 20
423.871922
 30
0.0
  0
SPLINE
  5
456
100
AcDbEntity
  8
0
 62
7
100
AcDbSpline
 70
8
 71
3
 72
8
 73
4
 74
0
 40
0
 40
0
 40
0
 40
0
 40
1
 40
1
 40
1
 40
1
 10
90.045958
 20
423.871922
 30
0.0
 10
90.016563
 20
422.406845
 30
0.0
 10
89.409953
 20
421.684453
 30
0.0
 10
87.319189
 20
420.624770
 30
0.0
  0
SPLINE
  5
457
100
AcDbEntity
  8
0
 62
7
100
AcDbSpline
 70
8
 71
3
 72
8
 73
4
 74
0
 40
0
 40
0
 40
0
 40
0
 40
1
 40
1
 40
1
 40
1
 10
87.319189
 20
420.624770
 30
0.0
 10
85.063325
 20
419.481400
 30
0.0
 10
84.656581
 20
418.822693
 30
0.0
 10
84.759953
 20
416.480257
 30
0.0
  0
SPLINE
  5
458
100
AcDbEntity
  8
0
 62
7
100
AcDbSpline
 70
8
 71
3
 72
8
 73
4
 74
0
 40
0
 40
0
 40
0
 40
0
 40
1
 40
1
 40
1
 40
1
 10
84.759953
 20
416.480257
 30
0.0
 10
84.806679
 20
415.421315
 30
0.0
 10
84.777945
 20
414.555149
 30
0.0
 10
84.696374
 20
414.555493
 30
0.0
  0
SPLINE
  5
459
100
AcDbEntity
  8
0
 62
7
100
AcDbSpline
 70
8
 71
3
 72
8
 73
4
 74
0
 40
0
 40
0
 40
0
 40
0
 40
1
 40
1
 40
1
 40
1
 10
84.696374
 20
414.555493
 30
0.0
 10
84.348235
 20
414.558139
 30
0.0
 10
83.302576
 20
415.763792
 30
0.0
 10
82.201882
 20
417.434530
 30
0.0
  0
SPLINE
  5
45a
100
AcDbEntity
  8
0
 62
7
100
AcDbSpline
 70
8
 71
3
 72
8
 73
4
 74
0
 40
0
 40
0
 40
0
 40
0
 40
1
 40
1
 40
1
 40
1
 10
82.201882
 20
417.434530
 30
0.0
 10
80.879045
 20
419.442479
 30
0.0
 10
80.114558
 20
419.963708
 30
0.0
 10
79.205741
 20
419.477325
 30
0.0
  0
SPLINE
  5
45b
100
AcDbEntity
  8
0
 62
7
100
AcDbSpline
 70
8
 71
3
 72
8
 73
4
 74
0
 40
0
 40
0
 40
0
 40
0
 40
1
 40
1
 40
1
 40
1
 10
79.205741
 20
419.477325
 30
0.0
 10
78.317746
 20
419.002080
 30
0.0
 10
77.908780
 20
418.257993
 30
0.0
 10
77.591121
 20
416.539603
 30
0.0
  0
SPLINE
  5
45c
100
AcDbEntity
  8
0
 62
7
100
AcDbSpline
 70
8
 71
3
 72
8
 73
4
 74
0
 40
0
 40
0
 40
0
 40
0
 40
1
 40
1
 40
1
 40
1
 10
77.591121
 20
416.539603
 30
0.0
 10
77.431842
 20
415.678120
 30
0.0
 10
77.004222
 20
414.551974
 30
0.0
 10
76.640843
 20
414.037095
 30
0.0
  0
SPLINE
  5
45d
100
AcDbEntity
  8
0
 62
7
100
AcDbSpline
 70
8
 71
3
 72
8
 73
4
 74
0
 40
0
 40
0
 40
0
 40
0
 40
1
 40
1
 40
1
 40
1
 10
76.640843
 20
414.037095
 30
0.0
 10
74.467053
 20
410.957054
 30
0.0
 10
74.536215
 20
411.111967
 30
0.0
 10
74.434430
 20
409.095895
 30
0.0
  0
SPLINE
  5
45e
100
AcDbEntity
  8
0
 62
7
100
AcDbSpline
 70
8
 71
3
 72
8
 73
4
 74
0
 40
0
 40
0
 40
0
 40
0
 40
1
 40
1
 40
1
 40
1
 10
74.434430
 20
409.095895
 30
0.0
 10
74.337143
 20
407.169755
 30
0.0
 10
74.334127
 20
407.162849
 30
0.0
 10
73.845309
 20
407.749113
 30
0.0
  0
SPLINE
  5
45f
100
AcDbEntity
  8
0
 62
7
100
AcDbSpline
 70
8
 71
3
 72
8
 73
4
 74
0
 40
0
 40
0
 40
0
 40
0
 40
1
 40
1
 40
1
 40
1
 10
73.845309
 20
407.749113
 30
0.0
 10
73.575063
 20
408.073228
 30
0.0
 10
73.044389
 20
409.255121
 30
0.0
 10
72.666034
 20
410.375552
 30
0.0
  0
LWPOLYLINE
  5
460
100
AcDbEntity
  8
0
 62
7
100
AcDbPolyline
 90
3
 70
0
 10
98.571468
 20
435.662496
 30
0.0
 10
99.201150
 20
434.734629
 30
0.0
 10
97.116260
 20
433.873833
 30
0.0
  0
SPLINE
  5
461
100
AcDbEntity
  8
0
 62
7
100
AcDbSpline
 70
8
 71
3
 72
8
 73
4
 74
0
 40
0
 40
0
 40
0
 40
0
 40
1
 40
1
 40
1
 40
1
 10
70.850093
 20
411.235448
 30
0.0
 10
68.867121
 20
409.165904
 30
0.0
 10
67.781667
 20
409.730816
 30
0.0
 10
64.725545
 20
414.422937
 30
0.0
  0
SPLINE
  5
462
100
AcDbEntity
  8
0
 62
7
100
AcDbSpline
 70
8
 71
3
 72
8
 73
4
 74
0
 40
0
 40
0
 40
0
 40
0
 40
1
 40
1
 40
1
 40
1
 10
64.725545
 20
414.422937
 30
0.0
 10
60.908242
 20
420.283722
 30
0.0
 10
59.985058
 20
420.231943
 30
0.0
 10
60.025248
 20
414.159253
 30
0.0
  0
SPLINE
  5
463
100
AcDbEntity
  8
0
 62
7
100
AcDbSpline
 70
8
 71
3
 72
8
 73
4
 74
0
 40
0
 40
0
 40
0
 40
0
 40
1
 40
1
 40
1
 40
1
 10
60.025248
 20
414.159253
 30
0.0
 10
60.036890
 20
412.413003
 30
0.0
 10
60.226596
 20
410.091284
 30
0.0
 10
60.447021
 20
408.999878
 30
0.0
  0
SPLINE
  5
464
100
AcDbEntity
  8
0
 62
7
100
AcDbSpline
 70
8
 71
3
 72
8
 73
4
 74
0
 40
0
 40
0
 40
0
 40
0
 40
1
 40
1
 40
1
 40
1
 10
60.447021
 20
408.999878
 30
0.0
 10
60.667445
 20
407.908472
 30
0.0
 10
60.810373
 20
406.976212
 30
0.0
 10
60.764626
 20
406.928217
 30
0.0
  0
SPLINE
  5
465
100
AcDbEntity
  8
0
 62
7
100
AcDbSpline
 70
8
 71
3
 72
8
 73
4
 74
0
 40
0
 40
0
 40
0
 40
0
 40
1
 40
1
 40
1
 40
1
 10
60.764626
 20
406.928217
 30
0.0
 10
60.718880
 20
406.880195
 30
0.0
 10
60.377276
 20
407.040241
 30
0.0
 10
60.005484
 20
407.283843
 30
0.0
  0
SPLINE
  5
466
100
AcDbEntity
  8
0
 62
7
100
AcDbSpline
 70
8
 71
3
 72
8
 73
4
 74
0
 40
0
 40
0
 40
0
 40
0
 40
1
 40
1
 40
1
 40
1
 10
60.005484
 20
407.283843
 30
0.0
 10
58.927889
 20
407.989910
 30
0.0
 10
57.879980
 20
409.812096
 30
0.0
 10
56.390860
 20
413.569206
 30
0.0
  0
SPLINE
  5
467
100
AcDbEntity
  8
0
 62
7
100
AcDbSpline
 70
8
 71
3
 72
8
 73
4
 74
0
 40
0
 40
0
 40
0
 40
0
 40
1
 40
1
 40
1
 40
1
 10
56.390860
 20
413.569206
 30
0.0
 10
55.627797
 20
415.494446
 30
0.0
 10
54.819182
 20
417.218498
 30
0.0
 10
54.593940
 20
417.400399
 30
0.0
  0
SPLINE
  5
468
100
AcDbEntity
  8
0
 62
7
100
AcDbSpline
 70
8
 71
3
 72
8
 73
4
 74
0
 40
0
 40
0
 40
0
 40
0
 40
1
 40
1
 40
1
 40
1
 10
54.593940
 20
417.400399
 30
0.0
 10
53.503462
 20
418.281038
 30
0.0
 10
52.168883
 20
417.221223
 30
0.0
 10
52.168883
 20
415.474602
 30
0.0
  0
SPLINE
  5
469
100
AcDbEntity
  8
0
 62
7
100
AcDbSpline
 70
8
 71
3
 72
8
 73
4
 74
0
 40
0
 40
0
 40
0
 40
0
 40
1
 40
1
 40
1
 40
1
 10
52.168883
 20
415.474602
 30
0.0
 10
52.168883
 20
414.078661
 30
0.0
 10
53.058123
 20
410.574519
 30
0.0
 10
53.657892
 20
409.607017
 30
0.0
  0
SPLINE
  5
46a
100
AcDbEntity
  8
0
 62
7
100
AcDbSpline
 70
8
 71
3
 72
8
 73
4
 74
0
 40
0
 40
0
 40
0
 40
0
 40
1
 40
1
 40
1
 40
1
 10
53.657892
 20
409.607017
 30
0.0
 10
55.211758
 20
407.100381
 30
0.0
 10
56.807433
 20
406.192384
 30
0.0
 10
61.857620
 20
404.941170
 30
0.0
  0
SPLINE
  5
46b
100
AcDbEntity
  8
0
 62
7
100
AcDbSpline
 70
8
 71
3
 72
8
 73
4
 74
0
 40
0
 40
0
 40
0
 40
0
 40
1
 40
1
 40
1
 40
1
 10
61.857620
 20
404.941170
 30
0.0
 10
66.090557
 20
403.892414
 30
0.0
 10
66.985536
 20
403.578512
 30
0.0
 10
66.985536
 20
403.142691
 30
0.0
  0
SPLINE
  5
46c
100
AcDbEntity
  8
0
 62
7
100
AcDbSpline
 70
8
 71
3
 72
8
 73
4
 74
0
 40
0
 40
0
 40
0
 40
0
 40
1
 40
1
 40
1
 40
1
 10
66.985536
 20
403.142691
 30
0.0
 10
66.985536
 20
402.969971
 30
0.0
 10
66.685869
 20
402.317297
 30
0.0
 10
66.319606
 20
401.692298
 30
0.0
  0
SPLINE
  5
46d
100
AcDbEntity
  8
0
 62
7
100
AcDbSpline
 70
8
 71
3
 72
8
 73
4
 74
0
 40
0
 40
0
 40
0
 40
0
 40
1
 40
1
 40
1
 40
1
 10
66.319606
 20
401.692298
 30
0.0
 10
65.797001
 20
400.800520
 30
0.0
 10
65.290562
 20
400.382663
 30
0.0
 10
63.966667
 20
399.750812
 30
0.0
  0
SPLINE
  5
46e
100
AcDbEntity
  8
0
 62
7
100
AcDbSpline
 70
8
 71
3
 72
8
 73
4
 74
0
 40
0
 40
0
 40
0
 40
0
 40
1
 40
1
 40
1
 40
1
 10
63.966667
 20
399.750812
 30
0.0
 10
63.038826
 20
399.308005
 30
0.0
 10
62.201102
 20
398.945711
 30
0.0
 10
62.105032
 20
398.945711
 30
0.0
  0
SPLINE
  5
46f
100
AcDbEntity
  8
0
 62
7
100
AcDbSpline
 70
8
 71
3
 72
8
 73
4
 74
0
 40
0
 40
0
 40
0
 40
0
 40
1
 40
1
 40
1
 40
1
 10
62.105032
 20
398.945711
 30
0.0
 10
61.694161
 20
398.945711
 30
0.0
 10
59.993339
 20
397.595966
 30
0.0
 10
59.542410
 20
396.912097
 30
0.0
  0
SPLINE
  5
470
100
AcDbEntity
  8
0
 62
7
100
AcDbSpline
 70
8
 71
3
 72
8
 73
4
 74
0
 40
0
 40
0
 40
0
 40
0
 40
1
 40
1
 40
1
 40
1
 10
59.542410
 20
396.912097
 30
0.0
 10
58.615389
 20
395.506101
 30
0.0
 10
59.021948
 20
393.881904
 30
0.0
 10
60.893611
 20
391.514068
 30
0.0
  0
SPLINE
  5
471
100
AcDbEntity
  8
0
 62
7
100
AcDbSpline
 70
8
 71
3
 72
8
 73
4
 74
0
 40
0
 40
0
 40
0
 40
0
 40
1
 40
1
 40
1
 40
1
 10
60.893611
 20
391.514068
 30
0.0
 10
61.496014
 20
390.751962
 30
0.0
 10
62.052168
 20
389.812083
 30
0.0
 10
62.129506
 20
389.425447
 30
0.0
  0
SPLINE
  5
472
100
AcDbEntity
  8
0
 62
7
100
AcDbSpline
 70
8
 71
3
 72
8
 73
4
 74
0
 40
0
 40
0
 40
0
 40
0
 40
1
 40
1
 40
1
 40
1
 10
62.129506
 20
389.425447
 30
0.0
 10
62.370224
 20
388.221805
 30
0.0
 10
66.559954
 20
386.126966
 30
0.0
 10
70.104709
 20
385.437912
 30
0.0
  0
SPLINE
  5
473
100
AcDbEntity
  8
0
 62
7
100
AcDbSpline
 70
8
 71
3
 72
8
 73
4
 74
0
 40
0
 40
0
 40
0
 40
0
 40
1
 40
1
 40
1
 40
1
 10
70.104709
 20
385.437912
 30
0.0
 10
72.403039
 20
384.991136
 30
0.0
 10
77.160697
 20
385.257810
 30
0.0
 10
79.685536
 20
385.974937
 30
0.0
  0
SPLINE
  5
474
100
AcDbEntity
  8
0
 62
7
100
AcDbSpline
 70
8
 71
3
 72
8
 73
4
 74
0
 40
0
 40
0
 40
0
 40
0
 40
1
 40
1
 40
1
 40
1
 10
79.685536
 20
385.974937
 30
0.0
 10
83.904317
 20
387.173182
 30
0.0
 10
89.855908
 20
390.565034
 30
0.0
 10
94.677939
 20
394.519206
 30
0.0
  0
SPLINE
  5
475
100
AcDbEntity
  8
0
 62
7
100
AcDbSpline
 70
8
 71
3
 72
8
 73
4
 74
0
 40
0
 40
0
 40
0
 40
0
 40
1
 40
1
 40
1
 40
1
 10
94.677939
 20
394.519206
 30
0.0
 10
97.026619
 20
396.445187
 30
0.0
 10
97.661778
 20
397.354851
 30
0.0
 10
98.877062
 20
400.533211
 30
0.0
  0
SPLINE
  5
476
100
AcDbEntity
  8
0
 62
7
100
AcDbSpline
 70
8
 71
3
 72
8
 73
4
 74
0
 40
0
 40
0
 40
0
 40
0
 40
1
 40
1
 40
1
 40
1
 10
98.877062
 20
400.533211
 30
0.0
 10
100.003314
 20
403.478712
 30
0.0
 10
100.927583
 20
405.166489
 30
0.0
 10
101.543929
 20
405.403000
 30
0.0
  0
SPLINE
  5
477
100
AcDbEntity
  8
0
 62
7
100
AcDbSpline
 70
8
 71
3
 72
8
 73
4
 74
0
 40
0
 40
0
 40
0
 40
0
 40
1
 40
1
 40
1
 40
1
 10
101.543929
 20
405.403000
 30
0.0
 10
102.255659
 20
405.676103
 30
0.0
 10
103.034751
 20
405.315714
 30
0.0
 10
102.828561
 20
404.808772
 30
0.0
  0
SPLINE
  5
478
100
AcDbEntity
  8
0
 62
7
100
AcDbSpline
 70
8
 71
3
 72
8
 73
4
 74
0
 40
0
 40
0
 40
0
 40
0
 40
1
 40
1
 40
1
 40
1
 10
102.828561
 20
404.808772
 30
0.0
 10
101.065404
 20
400.473733
 30
0.0
 10
99.664594
 20
392.876778
 30
0.0
 10
99.348946
 20
385.938239
 30
0.0
  0
LWPOLYLINE
  5
479
100
AcDbEntity
  8
0
 62
7
100
AcDbPolyline
 90
3
 70
0
 10
72.666034
 20
410.375552
 30
0.0
 10
71.978091
 20
412.412685
 30
0.0
 10
70.850093
 20
411.235448
 30
0.0
  0
SPLINE
  5
47a
100
AcDbEntity
  8
0
 62
7
100
AcDbSpline
 70
8
 71
3
 72
8
 73
4
 74
0
 40
0
 40
0
 40
0
 40
0
 40
1
 40
1
 40
1
 40
1
 10
97.778909
 20
382.468520
 30
0.0
 10
95.954607
 20
382.656823
 30
0.0
 10
94.928605
 20
382.226293
 30
0.0
 10
94.363482
 20
381.035351
 30
0.0
  0
SPLINE
  5
47b
100
AcDbEntity
  8
0
 62
7
100
AcDbSpline
 70
8
 71
3
 72
8
 73
4
 74
0
 40
0
 40
0
 40
0
 40
0
 40
1
 40
1
 40
1
 40
1
 10
94.363482
 20
381.035351
 30
0.0
 10
93.981185
 20
380.229748
 30
0.0
 10
93.947980
 20
379.523257
 30
0.0
 10
94.111995
 20
375.685688
 30
0.0
  0
SPLINE
  5
47c
100
AcDbEntity
  8
0
 62
7
100
AcDbSpline
 70
8
 71
3
 72
8
 73
4
 74
0
 40
0
 40
0
 40
0
 40
0
 40
1
 40
1
 40
1
 40
1
 10
94.111995
 20
375.685688
 30
0.0
 10
94.215950
 20
373.253849
 30
0.0
 10
94.215421
 20
370.757664
 30
0.0
 10
94.111995
 20
370.138616
 30
0.0
  0
SPLINE
  5
47d
100
AcDbEntity
  8
0
 62
7
100
AcDbSpline
 70
8
 71
3
 72
8
 73
4
 74
0
 40
0
 40
0
 40
0
 40
0
 40
1
 40
1
 40
1
 40
1
 10
94.111995
 20
370.138616
 30
0.0
 10
93.762692
 20
368.071003
 30
0.0
 10
91.297728
 20
366.352138
 30
0.0
 10
90.207698
 20
367.416054
 30
0.0
  0
SPLINE
  5
47e
100
AcDbEntity
  8
0
 62
7
100
AcDbSpline
 70
8
 71
3
 72
8
 73
4
 74
0
 40
0
 40
0
 40
0
 40
0
 40
1
 40
1
 40
1
 40
1
 10
90.207698
 20
367.416054
 30
0.0
 10
89.955127
 20
367.662566
 30
0.0
 10
89.277846
 20
369.160795
 30
0.0
 10
88.702616
 20
370.745467
 30
0.0
  0
SPLINE
  5
47f
100
AcDbEntity
  8
0
 62
7
100
AcDbSpline
 70
8
 71
3
 72
8
 73
4
 74
0
 40
0
 40
0
 40
0
 40
0
 40
1
 40
1
 40
1
 40
1
 10
88.702616
 20
370.745467
 30
0.0
 10
87.618935
 20
373.730787
 30
0.0
 10
87.368084
 20
374.096732
 30
0.0
 10
86.551712
 20
373.883240
 30
0.0
  0
SPLINE
  5
480
100
AcDbEntity
  8
0
 62
7
100
AcDbSpline
 70
8
 71
3
 72
8
 73
4
 74
0
 40
0
 40
0
 40
0
 40
0
 40
1
 40
1
 40
1
 40
1
 10
86.551712
 20
373.883240
 30
0.0
 10
85.898297
 20
373.712372
 30
0.0
 10
85.669829
 20
372.493357
 30
0.0
 10
86.052126
 20
371.217378
 30
0.0
  0
SPLINE
  5
481
100
AcDbEntity
  8
0
 62
7
100
AcDbSpline
 70
8
 71
3
 72
8
 73
4
 74
0
 40
0
 40
0
 40
0
 40
0
 40
1
 40
1
 40
1
 40
1
 10
86.052126
 20
371.217378
 30
0.0
 10
86.359042
 20
370.192988
 30
0.0
 10
86.345787
 20
370.153962
 30
0.0
 10
85.393101
 20
369.279117
 30
0.0
  0
SPLINE
  5
482
100
AcDbEntity
  8
0
 62
7
100
AcDbSpline
 70
8
 71
3
 72
8
 73
4
 74
0
 40
0
 40
0
 40
0
 40
0
 40
1
 40
1
 40
1
 40
1
 10
85.393101
 20
369.279117
 30
0.0
 10
83.604386
 20
367.636610
 30
0.0
 10
83.566392
 20
365.986272
 30
0.0
 10
85.169608
 20
359.571978
 30
0.0
  0
SPLINE
  5
483
100
AcDbEntity
  8
0
 62
7
100
AcDbSpline
 70
8
 71
3
 72
8
 73
4
 74
0
 40
0
 40
0
 40
0
 40
0
 40
1
 40
1
 40
1
 40
1
 10
85.169608
 20
359.571978
 30
0.0
 10
86.217569
 20
355.379258
 30
0.0
 10
86.201589
 20
355.262868
 30
0.0
 10
84.511457
 20
354.778151
 30
0.0
  0
SPLINE
  5
484
100
AcDbEntity
  8
0
 62
7
100
AcDbSpline
 70
8
 71
3
 72
8
 73
4
 74
0
 40
0
 40
0
 40
0
 40
0
 40
1
 40
1
 40
1
 40
1
 10
84.511457
 20
354.778151
 30
0.0
 10
83.741361
 20
354.557277
 30
0.0
 10
83.631479
 20
354.606225
 30
0.0
 10
83.168247
 20
355.376559
 30
0.0
  0
SPLINE
  5
485
100
AcDbEntity
  8
0
 62
7
100
AcDbSpline
 70
8
 71
3
 72
8
 73
4
 74
0
 40
0
 40
0
 40
0
 40
0
 40
1
 40
1
 40
1
 40
1
 10
83.168247
 20
355.376559
 30
0.0
 10
82.888688
 20
355.841432
 30
0.0
 10
82.411485
 20
357.669359
 30
0.0
 10
82.097954
 20
359.476199
 30
0.0
  0
SPLINE
  5
486
100
AcDbEntity
  8
0
 62
7
100
AcDbSpline
 70
8
 71
3
 72
8
 73
4
 74
0
 40
0
 40
0
 40
0
 40
0
 40
1
 40
1
 40
1
 40
1
 10
82.097954
 20
359.476199
 30
0.0
 10
81.581196
 20
362.454375
 30
0.0
 10
80.908731
 20
364.537175
 30
0.0
 10
80.572525
 20
364.200969
 30
0.0
  0
SPLINE
  5
487
100
AcDbEntity
  8
0
 62
7
100
AcDbSpline
 70
8
 71
3
 72
8
 73
4
 74
0
 40
0
 40
0
 40
0
 40
0
 40
1
 40
1
 40
1
 40
1
 10
80.572525
 20
364.200969
 30
0.0
 10
80.499103
 20
364.127521
 30
0.0
 10
80.230128
 20
363.677967
 30
0.0
 10
79.974832
 20
363.201929
 30
0.0
  0
SPLINE
  5
488
100
AcDbEntity
  8
0
 62
7
100
AcDbSpline
 70
8
 71
3
 72
8
 73
4
 74
0
 40
0
 40
0
 40
0
 40
0
 40
1
 40
1
 40
1
 40
1
 10
79.974832
 20
363.201929
 30
0.0
 10
78.828789
 20
361.065022
 30
0.0
 10
77.900181
 20
361.374558
 30
0.0
 10
76.208144
 20
364.457536
 30
0.0
  0
SPLINE
  5
489
100
AcDbEntity
  8
0
 62
7
100
AcDbSpline
 70
8
 71
3
 72
8
 73
4
 74
0
 40
0
 40
0
 40
0
 40
0
 40
1
 40
1
 40
1
 40
1
 10
76.208144
 20
364.457536
 30
0.0
 10
74.994950
 20
366.668050
 30
0.0
 10
73.982681
 20
367.989459
 30
0.0
 10
73.502541
 20
367.989459
 30
0.0
  0
SPLINE
  5
48a
100
AcDbEntity
  8
0
 62
7
100
AcDbSpline
 70
8
 71
3
 72
8
 73
4
 74
0
 40
0
 40
0
 40
0
 40
0
 40
1
 40
1
 40
1
 40
1
 10
73.502541
 20
367.989459
 30
0.0
 10
73.147682
 20
367.989459
 30
0.0
 10
72.308318
 20
366.681703
 30
0.0
 10
72.050508
 20
365.727192
 30
0.0
  0
LWPOLYLINE
  5
48b
100
AcDbEntity
  8
0
 62
7
100
AcDbPolyline
 90
3
 70
0
 10
99.348946
 20
385.938239
 30
0.0
 10
99.184508
 20
382.323448
 30
0.0
 10
97.778909
 20
382.468520
 30
0.0
  0
SPLINE
  5
48c
100
AcDbEntity
  8
0
 62
7
100
AcDbSpline
 70
8
 71
3
 72
8
 73
4
 74
0
 40
0
 40
0
 40
0
 40
0
 40
1
 40
1
 40
1
 40
1
 10
70.717219
 20
365.883984
 30
0.0
 10
69.262646
 20
366.861646
 30
0.0
 10
68.967398
 20
366.860164
 30
0.0
 10
68.042917
 20
365.870490
 30
0.0
  0
LWPOLYLINE
  5
48d
100
AcDbEntity
  8
0
 62
7
100
AcDbPolyline
 90
3
 70
0
 10
72.050508
 20
365.727192
 30
0.0
 10
71.881518
 20
365.101452
 30
0.0
 10
70.717219
 20
365.883984
 30
0.0
  0
SPLINE
  5
48e
100
AcDbEntity
  8
0
 62
7
100
AcDbSpline
 70
8
 71
3
 72
8
 73
4
 74
0
 40
0
 40
0
 40
0
 40
0
 40
1
 40
1
 40
1
 40
1
 10
66.584243
 20
366.945757
 30
0.0
 10
66.009144
 20
368.450760
 30
0.0
 10
65.784328
 20
368.780536
 30
0.0
 10
65.435766
 20
368.630412
 30
0.0
  0
SPLINE
  5
48f
100
AcDbEntity
  8
0
 62
7
100
AcDbSpline
 70
8
 71
3
 72
8
 73
4
 74
0
 40
0
 40
0
 40
0
 40
0
 40
1
 40
1
 40
1
 40
1
 10
65.435766
 20
368.630412
 30
0.0
 10
64.686228
 20
368.307620
 30
0.0
 10
63.578655
 20
368.188743
 30
0.0
 10
62.902301
 20
368.358473
 30
0.0
  0
SPLINE
  5
490
100
AcDbEntity
  8
0
 62
7
100
AcDbSpline
 70
8
 71
3
 72
8
 73
4
 74
0
 40
0
 40
0
 40
0
 40
0
 40
1
 40
1
 40
1
 40
1
 10
62.902301
 20
368.358473
 30
0.0
 10
62.102201
 20
368.559292
 30
0.0
 10
58.993744
 20
371.389780
 30
0.0
 10
59.202447
 20
371.727468
 30
0.0
  0
SPLINE
  5
491
100
AcDbEntity
  8
0
 62
7
100
AcDbSpline
 70
8
 71
3
 72
8
 73
4
 74
0
 40
0
 40
0
 40
0
 40
0
 40
1
 40
1
 40
1
 40
1
 10
59.202447
 20
371.727468
 30
0.0
 10
59.285341
 20
371.861559
 30
0.0
 10
59.254993
 20
371.941860
 30
0.0
 10
59.135031
 20
371.905877
 30
0.0
  0
SPLINE
  5
492
100
AcDbEntity
  8
0
 62
7
100
AcDbSpline
 70
8
 71
3
 72
8
 73
4
 74
0
 40
0
 40
0
 40
0
 40
0
 40
1
 40
1
 40
1
 40
1
 10
59.135031
 20
371.905877
 30
0.0
 10
59.015069
 20
371.869920
 30
0.0
 10
58.590042
 20
372.058912
 30
0.0
 10
58.190495
 20
372.325876
 30
0.0
  0
SPLINE
  5
493
100
AcDbEntity
  8
0
 62
7
100
AcDbSpline
 70
8
 71
3
 72
8
 73
4
 74
0
 40
0
 40
0
 40
0
 40
0
 40
1
 40
1
 40
1
 40
1
 10
58.190495
 20
372.325876
 30
0.0
 10
57.057766
 20
373.082717
 30
0.0
 10
55.745380
 20
372.725397
 30
0.0
 10
55.094825
 20
371.483020
 30
0.0
  0
SPLINE
  5
494
100
AcDbEntity
  8
0
 62
7
100
AcDbSpline
 70
8
 71
3
 72
8
 73
4
 74
0
 40
0
 40
0
 40
0
 40
0
 40
1
 40
1
 40
1
 40
1
 10
55.094825
 20
371.483020
 30
0.0
 10
54.778783
 20
370.879452
 30
0.0
 10
53.916718
 20
370.045589
 30
0.0
 10
52.850762
 20
369.312349
 30
0.0
  0
SPLINE
  5
495
100
AcDbEntity
  8
0
 62
7
100
AcDbSpline
 70
8
 71
3
 72
8
 73
4
 74
0
 40
0
 40
0
 40
0
 40
0
 40
1
 40
1
 40
1
 40
1
 10
52.850762
 20
369.312349
 30
0.0
 10
51.898778
 20
368.657505
 30
0.0
 10
51.118048
 20
368.025389
 30
0.0
 10
51.115804
 20
367.907676
 30
0.0
  0
SPLINE
  5
496
100
AcDbEntity
  8
0
 62
7
100
AcDbSpline
 70
8
 71
3
 72
8
 73
4
 74
0
 40
0
 40
0
 40
0
 40
0
 40
1
 40
1
 40
1
 40
1
 10
51.115804
 20
367.907676
 30
0.0
 10
51.113687
 20
367.789936
 30
0.0
 10
51.009071
 20
367.757075
 30
0.0
 10
50.883600
 20
367.834598
 30
0.0
  0
SPLINE
  5
497
100
AcDbEntity
  8
0
 62
7
100
AcDbSpline
 70
8
 71
3
 72
8
 73
4
 74
0
 40
0
 40
0
 40
0
 40
0
 40
1
 40
1
 40
1
 40
1
 10
50.883600
 20
367.834598
 30
0.0
 10
50.758130
 20
367.912147
 30
0.0
 10
50.668833
 20
367.766865
 30
0.0
 10
50.685163
 20
367.511780
 30
0.0
  0
SPLINE
  5
498
100
AcDbEntity
  8
0
 62
7
100
AcDbSpline
 70
8
 71
3
 72
8
 73
4
 74
0
 40
0
 40
0
 40
0
 40
0
 40
1
 40
1
 40
1
 40
1
 10
50.685163
 20
367.511780
 30
0.0
 10
50.701488
 20
367.256669
 30
0.0
 10
51.223770
 20
366.588463
 30
0.0
 10
51.845781
 20
366.026859
 30
0.0
  0
SPLINE
  5
499
100
AcDbEntity
  8
0
 62
7
100
AcDbSpline
 70
8
 71
3
 72
8
 73
4
 74
0
 40
0
 40
0
 40
0
 40
0
 40
1
 40
1
 40
1
 40
1
 10
51.845781
 20
366.026859
 30
0.0
 10
52.467790
 20
365.465281
 30
0.0
 10
53.981210
 20
363.479927
 30
0.0
 10
55.208929
 20
361.614958
 30
0.0
  0
SPLINE
  5
49a
100
AcDbEntity
  8
0
 62
7
100
AcDbSpline
 70
8
 71
3
 72
8
 73
4
 74
0
 40
0
 40
0
 40
0
 40
0
 40
1
 40
1
 40
1
 40
1
 10
55.208929
 20
361.614958
 30
0.0
 10
57.880218
 20
357.557202
 30
0.0
 10
58.963713
 20
356.309507
 30
0.0
 10
60.296684
 20
355.756289
 30
0.0
  0
SPLINE
  5
49b
100
AcDbEntity
  8
0
 62
7
100
AcDbSpline
 70
8
 71
3
 72
8
 73
4
 74
0
 40
0
 40
0
 40
0
 40
0
 40
1
 40
1
 40
1
 40
1
 10
60.296684
 20
355.756289
 30
0.0
 10
70.550664
 20
351.500678
 30
0.0
 10
74.868320
 20
350.723332
 30
0.0
 10
92.386727
 20
349.978715
 30
0.0
  0
SPLINE
  5
49c
100
AcDbEntity
  8
0
 62
7
100
AcDbSpline
 70
8
 71
3
 72
8
 73
4
 74
0
 40
0
 40
0
 40
0
 40
0
 40
1
 40
1
 40
1
 40
1
 10
92.386727
 20
349.978715
 30
0.0
 10
96.243029
 20
349.814806
 30
0.0
 10
100.172091
 20
349.589725
 30
0.0
 10
101.117977
 20
349.478547
 30
0.0
  0
SPLINE
  5
49d
100
AcDbEntity
  8
0
 62
7
100
AcDbSpline
 70
8
 71
3
 72
8
 73
4
 74
0
 40
0
 40
0
 40
0
 40
0
 40
1
 40
1
 40
1
 40
1
 10
101.117977
 20
349.478547
 30
0.0
 10
102.063862
 20
349.367369
 30
0.0
 10
103.153946
 20
349.260134
 30
0.0
 10
103.540396
 20
349.240210
 30
0.0
  0
LWPOLYLINE
  5
49e
100
AcDbEntity
  8
0
 62
7
100
AcDbPolyline
 90
3
 70
0
 10
68.042917
 20
365.870490
 30
0.0
 10
67.299306
 20
365.074438
 30
0.0
 10
66.584243
 20
366.945757
 30
0.0
  0
SPLINE
  5
49f
100
AcDbEntity
  8
0
 62
7
100
AcDbSpline
 70
8
 71
3
 72
8
 73
4
 74
0
 40
0
 40
0
 40
0
 40
0
 40
1
 40
1
 40
1
 40
1
 10
598.268875
 20
366.005084
 30
0.0
 10
598.268875
 20
375.550935
 30
0.0
 10
598.239612
 20
376.191545
 30
0.0
 10
597.803340
 20
376.191545
 30
0.0
  0
SPLINE
  5
4a0
100
AcDbEntity
  8
0
 62
7
100
AcDbSpline
 70
8
 71
3
 72
8
 73
4
 74
0
 40
0
 40
0
 40
0
 40
0
 40
1
 40
1
 40
1
 40
1
 10
597.803340
 20
376.191545
 30
0.0
 10
597.547303
 20
376.191545
 30
0.0
 10
597.189110
 20
376.429670
 30
0.0
 10
597.007368
 20
376.720711
 30
0.0
  0
SPLINE
  5
4a1
100
AcDbEntity
  8
0
 62
7
100
AcDbSpline
 70
8
 71
3
 72
8
 73
4
 74
0
 40
0
 40
0
 40
0
 40
0
 40
1
 40
1
 40
1
 40
1
 10
597.007368
 20
376.720711
 30
0.0
 10
596.796521
 20
377.058293
 30
0.0
 10
596.390333
 20
377.249878
 30
0.0
 10
595.885376
 20
377.249878
 30
0.0
  0
SPLINE
  5
4a2
100
AcDbEntity
  8
0
 62
7
100
AcDbSpline
 70
8
 71
3
 72
8
 73
4
 74
0
 40
0
 40
0
 40
0
 40
0
 40
1
 40
1
 40
1
 40
1
 10
595.885376
 20
377.249878
 30
0.0
 10
595.450057
 20
377.249878
 30
0.0
 10
595.093875
 20
377.351055
 30
0.0
 10
595.093875
 20
377.474747
 30
0.0
  0
SPLINE
  5
4a3
100
AcDbEntity
  8
0
 62
7
100
AcDbSpline
 70
8
 71
3
 72
8
 73
4
 74
0
 40
0
 40
0
 40
0
 40
0
 40
1
 40
1
 40
1
 40
1
 10
595.093875
 20
377.474747
 30
0.0
 10
595.093875
 20
377.816986
 30
0.0
 10
596.509554
 20
379.666079
 30
0.0
 10
597.441046
 20
380.540501
 30
0.0
  0
LWPOLYLINE
  5
4a4
100
AcDbEntity
  8
0
 62
7
100
AcDbPolyline
 90
4
 70
0
 10
103.540396
 20
349.240210
 30
0.0
 10
104.243023
 20
349.204015
 30
0.0
 10
104.098191
 20
351.832677
 30
0.0
 10
104.097000
 20
351.832704
 30
0.0
  0
SPLINE
  5
4a5
100
AcDbEntity
  8
0
 62
7
100
AcDbSpline
 70
8
 71
3
 72
8
 73
4
 74
0
 40
0
 40
0
 40
0
 40
0
 40
1
 40
1
 40
1
 40
1
 10
598.268875
 20
384.707688
 30
0.0
 10
598.268875
 20
386.572233
 30
0.0
 10
598.223896
 20
388.097795
 30
0.0
 10
598.168889
 20
388.097795
 30
0.0
  0
SPLINE
  5
4a6
100
AcDbEntity
  8
0
 62
7
100
AcDbSpline
 70
8
 71
3
 72
8
 73
4
 74
0
 40
0
 40
0
 40
0
 40
0
 40
1
 40
1
 40
1
 40
1
 10
598.168889
 20
388.097795
 30
0.0
 10
598.113908
 20
388.097795
 30
0.0
 10
597.616095
 20
387.908591
 30
0.0
 10
597.062666
 20
387.677345
 30
0.0
  0
SPLINE
  5
4a7
100
AcDbEntity
  8
0
 62
7
100
AcDbSpline
 70
8
 71
3
 72
8
 73
4
 74
0
 40
0
 40
0
 40
0
 40
0
 40
1
 40
1
 40
1
 40
1
 10
597.062666
 20
387.677345
 30
0.0
 10
595.632090
 20
387.079625
 30
0.0
 10
593.035602
 20
387.175060
 30
0.0
 10
589.411736
 20
387.958571
 30
0.0
  0
SPLINE
  5
4a8
100
AcDbEntity
  8
0
 62
7
100
AcDbSpline
 70
8
 71
3
 72
8
 73
4
 74
0
 40
0
 40
0
 40
0
 40
0
 40
1
 40
1
 40
1
 40
1
 10
589.411736
 20
387.958571
 30
0.0
 10
582.186838
 20
389.520618
 30
0.0
 10
579.218928
 20
388.409183
 30
0.0
 10
577.652515
 20
383.554899
 30
0.0
  0
SPLINE
  5
4a9
100
AcDbEntity
  8
0
 62
7
100
AcDbSpline
 70
8
 71
3
 72
8
 73
4
 74
0
 40
0
 40
0
 40
0
 40
0
 40
1
 40
1
 40
1
 40
1
 10
577.652515
 20
383.554899
 30
0.0
 10
576.580847
 20
380.233822
 30
0.0
 10
576.266363
 20
378.527657
 30
0.0
 10
576.246493
 20
375.926961
 30
0.0
  0
SPLINE
  5
4aa
100
AcDbEntity
  8
0
 62
7
100
AcDbSpline
 70
8
 71
3
 72
8
 73
4
 74
0
 40
0
 40
0
 40
0
 40
0
 40
1
 40
1
 40
1
 40
1
 10
576.246493
 20
375.926961
 30
0.0
 10
576.216859
 20
372.046212
 30
0.0
 10
577.099589
 20
369.694725
 30
0.0
 10
579.599795
 20
366.994228
 30
0.0
  0
SPLINE
  5
4ab
100
AcDbEntity
  8
0
 62
7
100
AcDbSpline
 70
8
 71
3
 72
8
 73
4
 74
0
 40
0
 40
0
 40
0
 40
0
 40
1
 40
1
 40
1
 40
1
 10
579.599795
 20
366.994228
 30
0.0
 10
581.582504
 20
364.852664
 30
0.0
 10
583.919118
 20
363.349990
 30
0.0
 10
590.164581
 20
360.200072
 30
0.0
  0
SPLINE
  5
4ac
100
AcDbEntity
  8
0
 62
7
100
AcDbSpline
 70
8
 71
3
 72
8
 73
4
 74
0
 40
0
 40
0
 40
0
 40
0
 40
1
 40
1
 40
1
 40
1
 10
590.164581
 20
360.200072
 30
0.0
 10
593.093969
 20
358.722612
 30
0.0
 10
596.086062
 20
357.134636
 30
0.0
 10
596.813666
 20
356.671219
 30
0.0
  0
SPLINE
  5
4ad
100
AcDbEntity
  8
0
 62
7
100
AcDbSpline
 70
8
 71
3
 72
8
 73
4
 74
0
 40
0
 40
0
 40
0
 40
0
 40
1
 40
1
 40
1
 40
1
 10
596.813666
 20
356.671219
 30
0.0
 10
597.541271
 20
356.207827
 30
0.0
 10
598.166349
 20
355.826430
 30
0.0
 10
598.202729
 20
355.823652
 30
0.0
  0
SPLINE
  5
4ae
100
AcDbEntity
  8
0
 62
7
100
AcDbSpline
 70
8
 71
3
 72
8
 73
4
 74
0
 40
0
 40
0
 40
0
 40
0
 40
1
 40
1
 40
1
 40
1
 10
598.202729
 20
355.823652
 30
0.0
 10
598.239109
 20
355.821006
 30
0.0
 10
598.268875
 20
360.402531
 30
0.0
 10
598.268875
 20
366.005084
 30
0.0
  0
LWPOLYLINE
  5
4af
100
AcDbEntity
  8
0
 62
7
100
AcDbPolyline
 90
3
 70
0
 10
597.441046
 20
380.540501
 30
0.0
 10
598.268875
 20
381.317608
 30
0.0
 10
598.268875
 20
384.707688
 30
0.0
  0
LWPOLYLINE
  5
4b0
100
AcDbEntity
  8
0
 62
7
100
AcDbPolyline
 90
1
 70
1
 10
598.268875
 20
366.005084
 30
0.0
  0
SPLINE
  5
4b1
100
AcDbEntity
  8
0
 62
7
100
AcDbSpline
 70
8
 71
3
 72
8
 73
4
 74
0
 40
0
 40
0
 40
0
 40
0
 40
1
 40
1
 40
1
 40
1
 10
594.895437
 20
402.388999
 30
0.0
 10
591.001617
 20
402.393232
 30
0.0
 10
590.225171
 20
402.526291
 30
0.0
 10
590.470493
 20
403.147744
 30
0.0
  0
SPLINE
  5
4b2
100
AcDbEntity
  8
0
 62
7
100
AcDbSpline
 70
8
 71
3
 72
8
 73
4
 74
0
 40
0
 40
0
 40
0
 40
0
 40
1
 40
1
 40
1
 40
1
 10
590.470493
 20
403.147744
 30
0.0
 10
590.563467
 20
403.383276
 30
0.0
 10
590.704861
 20
404.190891
 30
0.0
 10
590.784712
 20
404.942413
 30
0.0
  0
SPLINE
  5
4b3
100
AcDbEntity
  8
0
 62
7
100
AcDbSpline
 70
8
 71
3
 72
8
 73
4
 74
0
 40
0
 40
0
 40
0
 40
0
 40
1
 40
1
 40
1
 40
1
 10
590.784712
 20
404.942413
 30
0.0
 10
590.912373
 20
406.143833
 30
0.0
 10
590.851943
 20
406.386800
 30
0.0
 10
590.284173
 20
406.954543
 30
0.0
  0
SPLINE
  5
4b4
100
AcDbEntity
  8
0
 62
7
100
AcDbSpline
 70
8
 71
3
 72
8
 73
4
 74
0
 40
0
 40
0
 40
0
 40
0
 40
1
 40
1
 40
1
 40
1
 10
590.284173
 20
406.954543
 30
0.0
 10
589.689787
 20
407.548956
 30
0.0
 10
589.386786
 20
407.610604
 30
0.0
 10
586.470813
 20
407.730698
 30
0.0
  0
SPLINE
  5
4b5
100
AcDbEntity
  8
0
 62
7
100
AcDbSpline
 70
8
 71
3
 72
8
 73
4
 74
0
 40
0
 40
0
 40
0
 40
0
 40
1
 40
1
 40
1
 40
1
 10
586.470813
 20
407.730698
 30
0.0
 10
581.413885
 20
407.938978
 30
0.0
 10
580.614896
 20
408.795170
 30
0.0
 10
581.788402
 20
412.748283
 30
0.0
  0
SPLINE
  5
4b6
100
AcDbEntity
  8
0
 62
7
100
AcDbSpline
 70
8
 71
3
 72
8
 73
4
 74
0
 40
0
 40
0
 40
0
 40
0
 40
1
 40
1
 40
1
 40
1
 10
581.788402
 20
412.748283
 30
0.0
 10
582.155035
 20
413.983252
 30
0.0
 10
582.388530
 20
414.334804
 30
0.0
 10
583.014429
 20
414.594069
 30
0.0
  0
SPLINE
  5
4b7
100
AcDbEntity
  8
0
 62
7
100
AcDbSpline
 70
8
 71
3
 72
8
 73
4
 74
0
 40
0
 40
0
 40
0
 40
0
 40
1
 40
1
 40
1
 40
1
 10
583.014429
 20
414.594069
 30
0.0
 10
584.549038
 20
415.229731
 30
0.0
 10
586.388845
 20
416.993575
 30
0.0
 10
588.700668
 20
420.045597
 30
0.0
  0
SPLINE
  5
4b8
100
AcDbEntity
  8
0
 62
7
100
AcDbSpline
 70
8
 71
3
 72
8
 73
4
 74
0
 40
0
 40
0
 40
0
 40
0
 40
1
 40
1
 40
1
 40
1
 10
588.700668
 20
420.045597
 30
0.0
 10
589.996121
 20
421.755864
 30
0.0
 10
591.571503
 20
423.661340
 30
0.0
 10
592.201503
 20
424.279989
 30
0.0
  0
SPLINE
  5
4b9
100
AcDbEntity
  8
0
 62
7
100
AcDbSpline
 70
8
 71
3
 72
8
 73
4
 74
0
 40
0
 40
0
 40
0
 40
0
 40
1
 40
1
 40
1
 40
1
 10
592.201503
 20
424.279989
 30
0.0
 10
592.882884
 20
424.949146
 30
0.0
 10
593.245231
 20
425.494188
 30
0.0
 10
593.095927
 20
425.625421
 30
0.0
  0
SPLINE
  5
4ba
100
AcDbEntity
  8
0
 62
7
100
AcDbSpline
 70
8
 71
3
 72
8
 73
4
 74
0
 40
0
 40
0
 40
0
 40
0
 40
1
 40
1
 40
1
 40
1
 10
593.095927
 20
425.625421
 30
0.0
 10
592.130806
 20
426.473623
 30
0.0
 10
581.247911
 20
432.828332
 30
0.0
 10
581.073948
 20
432.645241
 30
0.0
  0
SPLINE
  5
4bb
100
AcDbEntity
  8
0
 62
7
100
AcDbSpline
 70
8
 71
3
 72
8
 73
4
 74
0
 40
0
 40
0
 40
0
 40
0
 40
1
 40
1
 40
1
 40
1
 10
581.073948
 20
432.645241
 30
0.0
 10
580.953933
 20
432.518928
 30
0.0
 10
580.614922
 20
431.582145
 30
0.0
 10
580.320573
 20
430.563499
 30
0.0
  0
SPLINE
  5
4bc
100
AcDbEntity
  8
0
 62
7
100
AcDbSpline
 70
8
 71
3
 72
8
 73
4
 74
0
 40
0
 40
0
 40
0
 40
0
 40
1
 40
1
 40
1
 40
1
 10
580.320573
 20
430.563499
 30
0.0
 10
578.105693
 20
422.897858
 30
0.0
 10
578.053994
 20
409.803444
 30
0.0
 10
580.192303
 20
398.059727
 30
0.0
  0
SPLINE
  5
4bd
100
AcDbEntity
  8
0
 62
7
100
AcDbSpline
 70
8
 71
3
 72
8
 73
4
 74
0
 40
0
 40
0
 40
0
 40
0
 40
1
 40
1
 40
1
 40
1
 10
580.192303
 20
398.059727
 30
0.0
 10
580.602434
 20
395.807197
 30
0.0
 10
580.659743
 20
395.688558
 30
0.0
 10
581.704662
 20
394.928939
 30
0.0
  0
SPLINE
  5
4be
100
AcDbEntity
  8
0
 62
7
100
AcDbSpline
 70
8
 71
3
 72
8
 73
4
 74
0
 40
0
 40
0
 40
0
 40
0
 40
1
 40
1
 40
1
 40
1
 10
581.704662
 20
394.928939
 30
0.0
 10
583.876653
 20
393.350012
 30
0.0
 10
585.750300
 20
392.954486
 30
0.0
 10
592.051166
 20
392.744883
 30
0.0
  0
SPLINE
  5
4bf
100
AcDbEntity
  8
0
 62
7
100
AcDbSpline
 70
8
 71
3
 72
8
 73
4
 74
0
 40
0
 40
0
 40
0
 40
0
 40
1
 40
1
 40
1
 40
1
 10
592.051166
 20
392.744883
 30
0.0
 10
595.480272
 20
392.630795
 30
0.0
 10
597.382865
 20
392.429394
 30
0.0
 10
598.202729
 20
392.093717
 30
0.0
  0
SPLINE
  5
4c0
100
AcDbEntity
  8
0
 62
7
100
AcDbSpline
 70
8
 71
3
 72
8
 73
4
 74
0
 40
0
 40
0
 40
0
 40
0
 40
1
 40
1
 40
1
 40
1
 10
598.202729
 20
392.093717
 30
0.0
 10
598.239109
 20
392.078901
 30
0.0
 10
598.268875
 20
394.388343
 30
0.0
 10
598.268875
 20
397.225999
 30
0.0
  0
LWPOLYLINE
  5
4c1
100
AcDbEntity
  8
0
 62
7
100
AcDbPolyline
 90
3
 70
0
 10
598.268875
 20
397.225920
 30
0.0
 10
598.268875
 20
402.385295
 30
0.0
 10
594.895437
 20
402.388999
 30
0.0
  0
SPLINE
  5
4c2
100
AcDbEntity
  8
0
 62
7
100
AcDbSpline
 70
8
 71
3
 72
8
 73
4
 74
0
 40
0
 40
0
 40
0
 40
0
 40
1
 40
1
 40
1
 40
1
 10
595.755492
 20
455.732465
 30
0.0
 10
591.777534
 20
461.529803
 30
0.0
 10
589.915159
 20
464.052076
 30
0.0
 10
588.276224
 20
465.861879
 30
0.0
  0
LWPOLYLINE
  5
4c3
100
AcDbEntity
  8
0
 62
7
100
AcDbPolyline
 90
1
 70
1
 10
598.268875
 20
397.225999
 30
0.0
  0
SPLINE
  5
4c4
100
AcDbEntity
  8
0
 62
7
100
AcDbSpline
 70
8
 71
3
 72
8
 73
4
 74
0
 40
0
 40
0
 40
0
 40
0
 40
1
 40
1
 40
1
 40
1
 10
585.197241
 20
466.715054
 30
0.0
 10
582.895842
 20
465.486938
 30
0.0
 10
581.864708
 20
465.637459
 30
0.0
 10
581.864708
 20
467.201544
 30
0.0
  0
SPLINE
  5
4c5
100
AcDbEntity
  8
0
 62
7
100
AcDbSpline
 70
8
 71
3
 72
8
 73
4
 74
0
 40
0
 40
0
 40
0
 40
0
 40
1
 40
1
 40
1
 40
1
 10
581.864708
 20
467.201544
 30
0.0
 10
581.864708
 20
467.831887
 30
0.0
 10
582.375248
 20
468.001961
 30
0.0
 10
584.267601
 20
468.001961
 30
0.0
  0
SPLINE
  5
4c6
100
AcDbEntity
  8
0
 62
7
100
AcDbSpline
 70
8
 71
3
 72
8
 73
4
 74
0
 40
0
 40
0
 40
0
 40
0
 40
1
 40
1
 40
1
 40
1
 10
584.267601
 20
468.001961
 30
0.0
 10
585.128820
 20
468.001961
 30
0.0
 10
585.833458
 20
468.092819
 30
0.0
 10
585.833458
 20
468.203865
 30
0.0
  0
SPLINE
  5
4c7
100
AcDbEntity
  8
0
 62
7
100
AcDbSpline
 70
8
 71
3
 72
8
 73
4
 74
0
 40
0
 40
0
 40
0
 40
0
 40
1
 40
1
 40
1
 40
1
 10
585.833458
 20
468.203865
 30
0.0
 10
585.833458
 20
468.669611
 30
0.0
 10
580.694668
 20
472.213361
 30
0.0
 10
580.420480
 20
471.936686
 30
0.0
  0
SPLINE
  5
4c8
100
AcDbEntity
  8
0
 62
7
100
AcDbSpline
 70
8
 71
3
 72
8
 73
4
 74
0
 40
0
 40
0
 40
0
 40
0
 40
1
 40
1
 40
1
 40
1
 10
580.420480
 20
471.936686
 30
0.0
 10
580.226990
 20
471.741450
 30
0.0
 10
578.368054
 20
467.566986
 30
0.0
 10
577.748982
 20
465.937497
 30
0.0
  0
SPLINE
  5
4c9
100
AcDbEntity
  8
0
 62
7
100
AcDbSpline
 70
8
 71
3
 72
8
 73
4
 74
0
 40
0
 40
0
 40
0
 40
0
 40
1
 40
1
 40
1
 40
1
 10
577.748982
 20
465.937497
 30
0.0
 10
576.164207
 20
461.766155
 30
0.0
 10
575.461474
 20
456.450782
 30
0.0
 10
576.027682
 20
452.917933
 30
0.0
  0
SPLINE
  5
4ca
100
AcDbEntity
  8
0
 62
7
100
AcDbSpline
 70
8
 71
3
 72
8
 73
4
 74
0
 40
0
 40
0
 40
0
 40
0
 40
1
 40
1
 40
1
 40
1
 10
576.027682
 20
452.917933
 30
0.0
 10
577.409654
 20
444.295400
 30
0.0
 10
582.642795
 20
437.831074
 30
0.0
 10
594.686046
 20
429.869920
 30
0.0
  0
LWPOLYLINE
  5
4cb
100
AcDbEntity
  8
0
 62
7
100
AcDbPolyline
 90
3
 70
0
 10
588.276224
 20
465.861879
 30
0.0
 10
586.752197
 20
467.544814
 30
0.0
 10
585.197241
 20
466.715054
 30
0.0
  0
SPLINE
  5
4cc
100
AcDbEntity
  8
0
 62
7
100
AcDbSpline
 70
8
 71
3
 72
8
 73
4
 74
0
 40
0
 40
0
 40
0
 40
0
 40
1
 40
1
 40
1
 40
1
 10
67.514703
 20
438.046312
 30
0.0
 10
68.315067
 20
438.329417
 30
0.0
 10
70.755849
 20
439.400820
 30
0.0
 10
72.938661
 20
440.427218
 30
0.0
  0
SPLINE
  5
4cd
100
AcDbEntity
  8
0
 62
7
100
AcDbSpline
 70
8
 71
3
 72
8
 73
4
 74
0
 40
0
 40
0
 40
0
 40
0
 40
1
 40
1
 40
1
 40
1
 10
72.938661
 20
440.427218
 30
0.0
 10
78.797727
 20
443.182272
 30
0.0
 10
79.841773
 20
443.501465
 30
0.0
 10
82.992828
 20
443.501148
 30
0.0
  0
SPLINE
  5
4ce
100
AcDbEntity
  8
0
 62
7
100
AcDbSpline
 70
8
 71
3
 72
8
 73
4
 74
0
 40
0
 40
0
 40
0
 40
0
 40
1
 40
1
 40
1
 40
1
 10
82.992828
 20
443.501148
 30
0.0
 10
84.448036
 20
443.500989
 30
0.0
 10
86.123960
 20
443.404786
 30
0.0
 10
86.717103
 20
443.287338
 30
0.0
  0
SPLINE
  5
4cf
100
AcDbEntity
  8
0
 62
7
100
AcDbSpline
 70
8
 71
3
 72
8
 73
4
 74
0
 40
0
 40
0
 40
0
 40
0
 40
1
 40
1
 40
1
 40
1
 10
86.717103
 20
443.287338
 30
0.0
 10
87.767737
 20
443.079296
 30
0.0
 10
87.836714
 20
443.111893
 30
0.0
 10
89.392199
 20
444.552020
 30
0.0
  0
SPLINE
  5
4d0
100
AcDbEntity
  8
0
 62
7
100
AcDbSpline
 70
8
 71
3
 72
8
 73
4
 74
0
 40
0
 40
0
 40
0
 40
0
 40
1
 40
1
 40
1
 40
1
 10
89.392199
 20
444.552020
 30
0.0
 10
90.772768
 20
445.830169
 30
0.0
 10
96.852735
 20
454.127555
 30
0.0
 10
96.577780
 20
454.358245
 30
0.0
  0
SPLINE
  5
4d1
100
AcDbEntity
  8
0
 62
7
100
AcDbSpline
 70
8
 71
3
 72
8
 73
4
 74
0
 40
0
 40
0
 40
0
 40
0
 40
1
 40
1
 40
1
 40
1
 10
96.577780
 20
454.358245
 30
0.0
 10
96.449351
 20
454.466010
 30
0.0
 10
88.301243
 20
458.189438
 30
0.0
 10
85.028188
 20
459.636048
 30
0.0
  0
SPLINE
  5
4d2
100
AcDbEntity
  8
0
 62
7
100
AcDbSpline
 70
8
 71
3
 72
8
 73
4
 74
0
 40
0
 40
0
 40
0
 40
0
 40
1
 40
1
 40
1
 40
1
 10
85.028188
 20
459.636048
 30
0.0
 10
82.671042
 20
460.677871
 30
0.0
 10
82.323485
 20
460.770740
 30
0.0
 10
82.466333
 20
460.320631
 30
0.0
  0
SPLINE
  5
4d3
100
AcDbEntity
  8
0
 62
7
100
AcDbSpline
 70
8
 71
3
 72
8
 73
4
 74
0
 40
0
 40
0
 40
0
 40
0
 40
1
 40
1
 40
1
 40
1
 10
82.466333
 20
460.320631
 30
0.0
 10
82.590635
 20
459.928968
 30
0.0
 10
82.508561
 20
459.799878
 30
0.0
 10
82.135207
 20
459.799878
 30
0.0
  0
SPLINE
  5
4d4
100
AcDbEntity
  8
0
 62
7
100
AcDbSpline
 70
8
 71
3
 72
8
 73
4
 74
0
 40
0
 40
0
 40
0
 40
0
 40
1
 40
1
 40
1
 40
1
 10
82.135207
 20
459.799878
 30
0.0
 10
80.625442
 20
459.799878
 30
0.0
 10
80.121305
 20
458.180205
 30
0.0
 10
80.639306
 20
454.994013
 30
0.0
  0
SPLINE
  5
4d5
100
AcDbEntity
  8
0
 62
7
100
AcDbSpline
 70
8
 71
3
 72
8
 73
4
 74
0
 40
0
 40
0
 40
0
 40
0
 40
1
 40
1
 40
1
 40
1
 10
80.639306
 20
454.994013
 30
0.0
 10
81.069598
 20
452.347333
 30
0.0
 10
81.103094
 20
450.558247
 30
0.0
 10
80.740271
 20
449.603895
 30
0.0
  0
SPLINE
  5
4d6
100
AcDbEntity
  8
0
 62
7
100
AcDbSpline
 70
8
 71
3
 72
8
 73
4
 74
0
 40
0
 40
0
 40
0
 40
0
 40
1
 40
1
 40
1
 40
1
 10
80.740271
 20
449.603895
 30
0.0
 10
80.480477
 20
448.920608
 30
0.0
 10
80.380147
 20
449.023901
 30
0.0
 10
77.545216
 20
452.893962
 30
0.0
  0
SPLINE
  5
4d7
100
AcDbEntity
  8
0
 62
7
100
AcDbSpline
 70
8
 71
3
 72
8
 73
4
 74
0
 40
0
 40
0
 40
0
 40
0
 40
1
 40
1
 40
1
 40
1
 10
77.545216
 20
452.893962
 30
0.0
 10
75.935464
 20
455.091485
 30
0.0
 10
74.508355
 20
456.889461
 30
0.0
 10
74.373841
 20
456.889461
 30
0.0
  0
SPLINE
  5
4d8
100
AcDbEntity
  8
0
 62
7
100
AcDbSpline
 70
8
 71
3
 72
8
 73
4
 74
0
 40
0
 40
0
 40
0
 40
0
 40
1
 40
1
 40
1
 40
1
 10
74.373841
 20
456.889461
 30
0.0
 10
74.239353
 20
456.889461
 30
0.0
 10
74.129286
 20
456.703830
 30
0.0
 10
74.129286
 20
456.476949
 30
0.0
  0
SPLINE
  5
4d9
100
AcDbEntity
  8
0
 62
7
100
AcDbSpline
 70
8
 71
3
 72
8
 73
4
 74
0
 40
0
 40
0
 40
0
 40
0
 40
1
 40
1
 40
1
 40
1
 10
74.129286
 20
456.476949
 30
0.0
 10
74.129286
 20
456.232527
 30
0.0
 10
74.004826
 20
456.141378
 30
0.0
 10
73.823825
 20
456.253244
 30
0.0
  0
SPLINE
  5
4da
100
AcDbEntity
  8
0
 62
7
100
AcDbSpline
 70
8
 71
3
 72
8
 73
4
 74
0
 40
0
 40
0
 40
0
 40
0
 40
1
 40
1
 40
1
 40
1
 10
73.823825
 20
456.253244
 30
0.0
 10
73.637823
 20
456.368232
 30
0.0
 10
73.590065
 20
456.326031
 30
0.0
 10
73.701720
 20
456.145373
 30
0.0
  0
SPLINE
  5
4db
100
AcDbEntity
  8
0
 62
7
100
AcDbSpline
 70
8
 71
3
 72
8
 73
4
 74
0
 40
0
 40
0
 40
0
 40
0
 40
1
 40
1
 40
1
 40
1
 10
73.701720
 20
456.145373
 30
0.0
 10
73.912778
 20
455.803876
 30
0.0
 10
73.227454
 20
451.783347
 30
0.0
 10
72.651985
 20
449.986852
 30
0.0
  0
SPLINE
  5
4dc
100
AcDbEntity
  8
0
 62
7
100
AcDbSpline
 70
8
 71
3
 72
8
 73
4
 74
0
 40
0
 40
0
 40
0
 40
0
 40
1
 40
1
 40
1
 40
1
 10
72.651985
 20
449.986852
 30
0.0
 10
72.196558
 20
448.565220
 30
0.0
 10
71.124307
 20
447.437751
 30
0.0
 10
70.018693
 20
447.217988
 30
0.0
  0
LWPOLYLINE
  5
4dd
100
AcDbEntity
  8
0
 62
7
100
AcDbPolyline
 90
5
 70
0
 10
594.686046
 20
429.869920
 30
0.0
 10
598.136583
 20
427.588947
 30
0.0
 10
598.205322
 20
439.825450
 30
0.0
 10
598.274061
 20
452.061953
 30
0.0
 10
595.755492
 20
455.732465
 30
0.0
  0
SPLINE
  5
4de
100
AcDbEntity
  8
0
 62
7
100
AcDbSpline
 70
8
 71
3
 72
8
 73
4
 74
0
 40
0
 40
0
 40
0
 40
0
 40
1
 40
1
 40
1
 40
1
 10
66.031978
 20
448.483702
 30
0.0
 10
64.764280
 20
444.854068
 30
0.0
 10
64.621881
 20
444.580462
 30
0.0
 10
63.959258
 20
444.500982
 30
0.0
  0
SPLINE
  5
4df
100
AcDbEntity
  8
0
 62
7
100
AcDbSpline
 70
8
 71
3
 72
8
 73
4
 74
0
 40
0
 40
0
 40
0
 40
0
 40
1
 40
1
 40
1
 40
1
 10
63.959258
 20
444.500982
 30
0.0
 10
63.421175
 20
444.436450
 30
0.0
 10
63.025597
 20
444.651212
 30
0.0
 10
62.336146
 20
445.382256
 30
0.0
  0
SPLINE
  5
4e0
100
AcDbEntity
  8
0
 62
7
100
AcDbSpline
 70
8
 71
3
 72
8
 73
4
 74
0
 40
0
 40
0
 40
0
 40
0
 40
1
 40
1
 40
1
 40
1
 10
62.336146
 20
445.382256
 30
0.0
 10
61.834734
 20
445.913910
 30
0.0
 10
61.503502
 20
446.476731
 30
0.0
 10
61.600075
 20
446.632968
 30
0.0
  0
SPLINE
  5
4e1
100
AcDbEntity
  8
0
 62
7
100
AcDbSpline
 70
8
 71
3
 72
8
 73
4
 74
0
 40
0
 40
0
 40
0
 40
0
 40
1
 40
1
 40
1
 40
1
 10
61.600075
 20
446.632968
 30
0.0
 10
61.696648
 20
446.789204
 30
0.0
 10
61.667887
 20
446.850455
 30
0.0
 10
61.536178
 20
446.769043
 30
0.0
  0
SPLINE
  5
4e2
100
AcDbEntity
  8
0
 62
7
100
AcDbSpline
 70
8
 71
3
 72
8
 73
4
 74
0
 40
0
 40
0
 40
0
 40
0
 40
1
 40
1
 40
1
 40
1
 10
61.536178
 20
446.769043
 30
0.0
 10
61.404495
 20
446.687657
 30
0.0
 10
60.942003
 20
447.209653
 30
0.0
 10
60.508404
 20
447.929029
 30
0.0
  0
SPLINE
  5
4e3
100
AcDbEntity
  8
0
 62
7
100
AcDbSpline
 70
8
 71
3
 72
8
 73
4
 74
0
 40
0
 40
0
 40
0
 40
0
 40
1
 40
1
 40
1
 40
1
 10
60.508404
 20
447.929029
 30
0.0
 10
59.571276
 20
449.483932
 30
0.0
 10
58.675582
 20
449.861228
 30
0.0
 10
58.011531
 20
448.980880
 30
0.0
  0
SPLINE
  5
4e4
100
AcDbEntity
  8
0
 62
7
100
AcDbSpline
 70
8
 71
3
 72
8
 73
4
 74
0
 40
0
 40
0
 40
0
 40
0
 40
1
 40
1
 40
1
 40
1
 10
58.011531
 20
448.980880
 30
0.0
 10
57.642490
 20
448.491639
 30
0.0
 10
57.608809
 20
448.037932
 30
0.0
 10
57.787614
 20
445.966482
 30
0.0
  0
SPLINE
  5
4e5
100
AcDbEntity
  8
0
 62
7
100
AcDbSpline
 70
8
 71
3
 72
8
 73
4
 74
0
 40
0
 40
0
 40
0
 40
0
 40
1
 40
1
 40
1
 40
1
 10
57.787614
 20
445.966482
 30
0.0
 10
58.044260
 20
442.993571
 30
0.0
 10
57.870852
 20
441.535637
 30
0.0
 10
57.151889
 20
440.621634
 30
0.0
  0
SPLINE
  5
4e6
100
AcDbEntity
  8
0
 62
7
100
AcDbSpline
 70
8
 71
3
 72
8
 73
4
 74
0
 40
0
 40
0
 40
0
 40
0
 40
1
 40
1
 40
1
 40
1
 10
57.151889
 20
440.621634
 30
0.0
 10
56.620929
 20
439.946629
 30
0.0
 10
56.619439
 20
439.916546
 30
0.0
 10
57.099163
 20
439.557718
 30
0.0
  0
SPLINE
  5
4e7
100
AcDbEntity
  8
0
 62
7
100
AcDbSpline
 70
8
 71
3
 72
8
 73
4
 74
0
 40
0
 40
0
 40
0
 40
0
 40
1
 40
1
 40
1
 40
1
 10
57.099163
 20
439.557718
 30
0.0
 10
57.997614
 20
438.885703
 30
0.0
 10
60.192994
 20
437.755615
 30
0.0
 10
61.016033
 20
437.541514
 30
0.0
  0
SPLINE
  5
4e8
100
AcDbEntity
  8
0
 62
7
100
AcDbSpline
 70
8
 71
3
 72
8
 73
4
 74
0
 40
0
 40
0
 40
0
 40
0
 40
1
 40
1
 40
1
 40
1
 10
61.016033
 20
437.541514
 30
0.0
 10
62.310269
 20
437.204832
 30
0.0
 10
65.930775
 20
437.486084
 30
0.0
 10
67.514703
 20
438.046312
 30
0.0
  0
LWPOLYLINE
  5
4e9
100
AcDbEntity
  8
0
 62
7
100
AcDbPolyline
 90
5
 70
0
 10
70.018693
 20
447.217988
 30
0.0
 10
69.234495
 20
447.062095
 30
0.0
 10
68.313850
 20
449.721581
 30
0.0
 10
67.393206
 20
452.381067
 30
0.0
 10
66.031978
 20
448.483702
 30
0.0
  0
SPLINE
  5
4ea
100
AcDbEntity
  8
0
 62
7
100
AcDbSpline
 70
8
 71
3
 72
8
 73
4
 74
0
 40
0
 40
0
 40
0
 40
0
 40
1
 40
1
 40
1
 40
1
 10
405.315949
 20
450.203361
 30
0.0
 10
404.279179
 20
450.311549
 30
0.0
 10
404.187263
 20
450.806055
 30
0.0
 10
405.204798
 20
450.801346
 30
0.0
  0
SPLINE
  5
4eb
100
AcDbEntity
  8
0
 62
7
100
AcDbSpline
 70
8
 71
3
 72
8
 73
4
 74
0
 40
0
 40
0
 40
0
 40
0
 40
1
 40
1
 40
1
 40
1
 10
405.204798
 20
450.801346
 30
0.0
 10
405.523647
 20
450.798700
 30
0.0
 10
406.525730
 20
451.058997
 30
0.0
 10
407.431663
 20
451.377158
 30
0.0
  0
SPLINE
  5
4ec
100
AcDbEntity
  8
0
 62
7
100
AcDbSpline
 70
8
 71
3
 72
8
 73
4
 74
0
 40
0
 40
0
 40
0
 40
0
 40
1
 40
1
 40
1
 40
1
 10
407.431663
 20
451.377158
 30
0.0
 10
408.872928
 20
451.883333
 30
0.0
 10
409.192968
 20
452.127570
 30
0.0
 10
409.992169
 20
453.331292
 30
0.0
  0
SPLINE
  5
4ed
100
AcDbEntity
  8
0
 62
7
100
AcDbSpline
 70
8
 71
3
 72
8
 73
4
 74
0
 40
0
 40
0
 40
0
 40
0
 40
1
 40
1
 40
1
 40
1
 10
409.992169
 20
453.331292
 30
0.0
 10
411.100429
 20
455.000442
 30
0.0
 10
411.140566
 20
455.172368
 30
0.0
 10
410.713608
 20
456.422789
 30
0.0
  0
SPLINE
  5
4ee
100
AcDbEntity
  8
0
 62
7
100
AcDbSpline
 70
8
 71
3
 72
8
 73
4
 74
0
 40
0
 40
0
 40
0
 40
0
 40
1
 40
1
 40
1
 40
1
 10
410.713608
 20
456.422789
 30
0.0
 10
410.390975
 20
457.367696
 30
0.0
 10
409.117985
 20
458.793615
 30
0.0
 10
406.281520
 20
461.387378
 30
0.0
  0
SPLINE
  5
4ef
100
AcDbEntity
  8
0
 62
7
100
AcDbSpline
 70
8
 71
3
 72
8
 73
4
 74
0
 40
0
 40
0
 40
0
 40
0
 40
1
 40
1
 40
1
 40
1
 10
406.281520
 20
461.387378
 30
0.0
 10
405.565398
 20
462.042222
 30
0.0
 10
404.586123
 20
463.173315
 30
0.0
 10
404.105348
 20
463.900920
 30
0.0
  0
LWPOLYLINE
  5
4f0
100
AcDbEntity
  8
0
 62
7
100
AcDbPolyline
 90
1
 70
1
 10
67.514703
 20
438.046312
 30
0.0
  0
SPLINE
  5
4f1
100
AcDbEntity
  8
0
 62
7
100
AcDbSpline
 70
8
 71
3
 72
8
 73
4
 74
0
 40
0
 40
0
 40
0
 40
0
 40
1
 40
1
 40
1
 40
1
 10
403.426904
 20
460.593628
 30
0.0
 10
403.534536
 20
458.047013
 30
0.0
 10
403.632802
 20
454.623993
 30
0.0
 10
403.645238
 20
452.986936
 30
0.0
  0
LWPOLYLINE
  5
4f2
100
AcDbEntity
  8
0
 62
7
100
AcDbPolyline
 90
3
 70
0
 10
404.105348
 20
463.900920
 30
0.0
 10
403.231191
 20
465.223836
 30
0.0
 10
403.426904
 20
460.593628
 30
0.0
  0
SPLINE
  5
4f3
100
AcDbEntity
  8
0
 62
7
100
AcDbSpline
 70
8
 71
3
 72
8
 73
4
 74
0
 40
0
 40
0
 40
0
 40
0
 40
1
 40
1
 40
1
 40
1
 10
404.990644
 20
450.054850
 30
0.0
 10
406.147296
 20
450.093665
 30
0.0
 10
406.188175
 20
450.112318
 30
0.0
 10
405.315843
 20
450.203361
 30
0.0
  0
LWPOLYLINE
  5
4f4
100
AcDbEntity
  8
0
 62
7
100
AcDbPolyline
 90
3
 70
0
 10
403.645238
 20
452.986936
 30
0.0
 10
403.667727
 20
450.010453
 30
0.0
 10
404.990644
 20
450.054850
 30
0.0
  0
LWPOLYLINE
  5
4f5
100
AcDbEntity
  8
0
 62
7
100
AcDbPolyline
 90
2
 70
0
 10
405.315843
 20
450.203361
 30
0.0
 10
405.315949
 20
450.203361
 30
0.0
  0
SPLINE
  5
4f6
100
AcDbEntity
  8
0
 62
7
100
AcDbSpline
 70
8
 71
3
 72
8
 73
4
 74
0
 40
0
 40
0
 40
0
 40
0
 40
1
 40
1
 40
1
 40
1
 10
593.824245
 20
463.999133
 30
0.0
 10
593.685736
 20
461.243180
 30
0.0
 10
594.858713
 20
457.783673
 30
0.0
 10
597.021100
 20
454.570441
 30
0.0
  0
LWPOLYLINE
  5
4f7
100
AcDbEntity
  8
0
 62
7
100
AcDbPolyline
 90
3
 70
0
 10
596.097942
 20
463.545584
 30
0.0
 10
593.903250
 20
465.571499
 30
0.0
 10
593.824245
 20
463.999133
 30
0.0
  0
LWPOLYLINE
  5
4f8
100
AcDbEntity
  8
0
 62
7
100
AcDbPolyline
 90
5
 70
0
 10
597.021100
 20
454.570441
 30
0.0
 10
598.136583
 20
452.912906
 30
0.0
 10
598.214609
 20
457.216275
 30
0.0
 10
598.292661
 20
461.519670
 30
0.0
 10
596.097942
 20
463.545584
 30
0.0
  0
SPLINE
  5
4f9
100
AcDbEntity
  8
0
 62
7
100
AcDbSpline
 70
8
 71
3
 72
8
 73
4
 74
0
 40
0
 40
0
 40
0
 40
0
 40
1
 40
1
 40
1
 40
1
 10
595.695458
 20
469.737628
 30
0.0
 10
594.280096
 20
469.633726
 30
0.0
 10
592.966413
 20
469.461641
 30
0.0
 10
592.776204
 20
469.355199
 30
0.0
  0
SPLINE
  5
4fa
100
AcDbEntity
  8
0
 62
7
100
AcDbSpline
 70
8
 71
3
 72
8
 73
4
 74
0
 40
0
 40
0
 40
0
 40
0
 40
1
 40
1
 40
1
 40
1
 10
592.776204
 20
469.355199
 30
0.0
 10
592.540011
 20
469.223013
 30
0.0
 10
593.292935
 20
468.439079
 30
0.0
 10
595.151184
 20
466.882350
 30
0.0
  0
SPLINE
  5
4fb
100
AcDbEntity
  8
0
 62
7
100
AcDbSpline
 70
8
 71
3
 72
8
 73
4
 74
0
 40
0
 40
0
 40
0
 40
0
 40
1
 40
1
 40
1
 40
1
 10
595.151184
 20
466.882350
 30
0.0
 10
596.647640
 20
465.628728
 30
0.0
 10
597.961297
 20
464.593890
 30
0.0
 10
598.070437
 20
464.582698
 30
0.0
  0
SPLINE
  5
4fc
100
AcDbEntity
  8
0
 62
7
100
AcDbSpline
 70
8
 71
3
 72
8
 73
4
 74
0
 40
0
 40
0
 40
0
 40
0
 40
1
 40
1
 40
1
 40
1
 10
598.070437
 20
464.582698
 30
0.0
 10
598.179578
 20
464.571585
 30
0.0
 10
598.268875
 20
465.769301
 30
0.0
 10
598.268875
 20
467.244459
 30
0.0
  0
LWPOLYLINE
  5
4fd
100
AcDbEntity
  8
0
 62
7
100
AcDbPolyline
 90
3
 70
0
 10
598.268875
 20
467.244459
 30
0.0
 10
598.268875
 20
469.926540
 30
0.0
 10
595.695458
 20
469.737628
 30
0.0
  0
SPLINE
  5
4fe
100
AcDbEntity
  8
0
 62
7
100
AcDbSpline
 70
8
 71
3
 72
8
 73
4
 74
0
 40
0
 40
0
 40
0
 40
0
 40
1
 40
1
 40
1
 40
1
 10
522.271175
 20
471.062846
 30
0.0
 10
522.232281
 20
471.101740
 30
0.0
 10
521.063723
 20
471.422203
 30
0.0
 10
519.674422
 20
471.774999
 30
0.0
  0
LWPOLYLINE
  5
4ff
100
AcDbEntity
  8
0
 62
7
100
AcDbPolyline
 90
1
 70
1
 10
598.268875
 20
467.244459
 30
0.0
  0
SPLINE
  5
500
100
AcDbEntity
  8
0
 62
7
100
AcDbSpline
 70
8
 71
3
 72
8
 73
4
 74
0
 40
0
 40
0
 40
0
 40
0
 40
1
 40
1
 40
1
 40
1
 10
519.217301
 20
468.067922
 30
0.0
 10
520.935823
 20
469.676218
 30
0.0
 10
522.310069
 20
471.023953
 30
0.0
 10
522.271175
 20
471.062846
 30
0.0
  0
LWPOLYLINE
  5
501
100
AcDbEntity
  8
0
 62
7
100
AcDbPolyline
 90
5
 70
0
 10
519.674422
 20
471.774999
 30
0.0
 10
517.148366
 20
472.416428
 30
0.0
 10
516.620522
 20
468.780048
 30
0.0
 10
516.092705
 20
465.143694
 30
0.0
 10
519.217301
 20
468.067922
 30
0.0
  0
SPLINE
  5
502
100
AcDbEntity
  8
0
 62
7
100
AcDbSpline
 70
8
 71
3
 72
8
 73
4
 74
0
 40
0
 40
0
 40
0
 40
0
 40
1
 40
1
 40
1
 40
1
 10
494.816791
 20
473.983026
 30
0.0
 10
494.816791
 20
476.788721
 30
0.0
 10
496.533408
 20
480.508948
 30
0.0
 10
498.937174
 20
482.912714
 30
0.0
  0
SPLINE
  5
503
100
AcDbEntity
  8
0
 62
7
100
AcDbSpline
 70
8
 71
3
 72
8
 73
4
 74
0
 40
0
 40
0
 40
0
 40
0
 40
1
 40
1
 40
1
 40
1
 10
498.937174
 20
482.912714
 30
0.0
 10
501.060059
 20
485.035625
 30
0.0
 10
503.685598
 20
486.570314
 30
0.0
 10
509.186841
 20
488.903939
 30
0.0
  0
SPLINE
  5
504
100
AcDbEntity
  8
0
 62
7
100
AcDbSpline
 70
8
 71
3
 72
8
 73
4
 74
0
 40
0
 40
0
 40
0
 40
0
 40
1
 40
1
 40
1
 40
1
 10
509.186841
 20
488.903939
 30
0.0
 10
511.833574
 20
490.026672
 30
0.0
 10
514.892052
 20
491.362182
 30
0.0
 10
515.983458
 20
491.871717
 30
0.0
  0
SPLINE
  5
505
100
AcDbEntity
  8
0
 62
7
100
AcDbSpline
 70
8
 71
3
 72
8
 73
4
 74
0
 40
0
 40
0
 40
0
 40
0
 40
1
 40
1
 40
1
 40
1
 10
515.983458
 20
491.871717
 30
0.0
 10
519.425820
 20
493.478823
 30
0.0
 10
522.031119
 20
495.732517
 30
0.0
 10
523.563771
 20
498.429045
 30
0.0
  0
LWPOLYLINE
  5
506
100
AcDbEntity
  8
0
 62
7
100
AcDbPolyline
 90
1
 70
1
 10
522.271175
 20
471.062846
 30
0.0
  0
SPLINE
  5
507
100
AcDbEntity
  8
0
 62
7
100
AcDbSpline
 70
8
 71
3
 72
8
 73
4
 74
0
 40
0
 40
0
 40
0
 40
0
 40
1
 40
1
 40
1
 40
1
 10
521.558150
 20
500.736370
 30
0.0
 10
520.165568
 20
501.496095
 30
0.0
 10
518.881757
 20
502.121173
 30
0.0
 10
518.705253
 20
502.125432
 30
0.0
  0
SPLINE
  5
508
100
AcDbEntity
  8
0
 62
7
100
AcDbSpline
 70
8
 71
3
 72
8
 73
4
 74
0
 40
0
 40
0
 40
0
 40
0
 40
1
 40
1
 40
1
 40
1
 10
518.705253
 20
502.125432
 30
0.0
 10
518.396458
 20
502.132841
 30
0.0
 10
491.112625
 20
476.579621
 30
0.0
 10
491.112625
 20
476.282943
 30
0.0
  0
SPLINE
  5
509
100
AcDbEntity
  8
0
 62
7
100
AcDbSpline
 70
8
 71
3
 72
8
 73
4
 74
0
 40
0
 40
0
 40
0
 40
0
 40
1
 40
1
 40
1
 40
1
 10
491.112625
 20
476.282943
 30
0.0
 10
491.112625
 20
476.075933
 30
0.0
 10
494.379250
 20
473.054868
 30
0.0
 10
494.618354
 20
473.040739
 30
0.0
  0
SPLINE
  5
50a
100
AcDbEntity
  8
0
 62
7
100
AcDbSpline
 70
8
 71
3
 72
8
 73
4
 74
0
 40
0
 40
0
 40
0
 40
0
 40
1
 40
1
 40
1
 40
1
 10
494.618354
 20
473.040739
 30
0.0
 10
494.727495
 20
473.034389
 30
0.0
 10
494.816791
 20
473.458331
 30
0.0
 10
494.816791
 20
473.983026
 30
0.0
  0
LWPOLYLINE
  5
50b
100
AcDbEntity
  8
0
 62
7
100
AcDbPolyline
 90
3
 70
0
 10
523.563771
 20
498.429045
 30
0.0
 10
524.090133
 20
499.355086
 30
0.0
 10
521.558150
 20
500.736370
 30
0.0
  0
SPLINE
  5
50c
100
AcDbEntity
  8
0
 62
7
100
AcDbSpline
 70
8
 71
3
 72
8
 73
4
 74
0
 40
0
 40
0
 40
0
 40
0
 40
1
 40
1
 40
1
 40
1
 10
584.956629
 20
476.534774
 30
0.0
 10
584.575867
 20
480.480320
 30
0.0
 10
583.353122
 20
482.486232
 30
0.0
 10
580.803570
 20
483.347927
 30
0.0
  0
SPLINE
  5
50d
100
AcDbEntity
  8
0
 62
7
100
AcDbSpline
 70
8
 71
3
 72
8
 73
4
 74
0
 40
0
 40
0
 40
0
 40
0
 40
1
 40
1
 40
1
 40
1
 10
580.803570
 20
483.347927
 30
0.0
 10
579.351193
 20
483.838782
 30
0.0
 10
579.351166
 20
483.838835
 30
0.0
 10
579.187389
 20
485.133388
 30
0.0
  0
SPLINE
  5
50e
100
AcDbEntity
  8
0
 62
7
100
AcDbSpline
 70
8
 71
3
 72
8
 73
4
 74
0
 40
0
 40
0
 40
0
 40
0
 40
1
 40
1
 40
1
 40
1
 10
579.187389
 20
485.133388
 30
0.0
 10
579.097325
 20
485.845435
 30
0.0
 10
578.859200
 20
486.717210
 30
0.0
 10
578.658223
 20
487.070694
 30
0.0
  0
SPLINE
  5
50f
100
AcDbEntity
  8
0
 62
7
100
AcDbSpline
 70
8
 71
3
 72
8
 73
4
 74
0
 40
0
 40
0
 40
0
 40
0
 40
1
 40
1
 40
1
 40
1
 10
578.658223
 20
487.070694
 30
0.0
 10
578.325456
 20
487.656031
 30
0.0
 10
578.286113
 20
487.485587
 30
0.0
 10
578.217427
 20
485.160905
 30
0.0
  0
SPLINE
  5
510
100
AcDbEntity
  8
0
 62
7
100
AcDbSpline
 70
8
 71
3
 72
8
 73
4
 74
0
 40
0
 40
0
 40
0
 40
0
 40
1
 40
1
 40
1
 40
1
 10
578.217427
 20
485.160905
 30
0.0
 10
578.132469
 20
482.284805
 30
0.0
 10
578.555802
 20
480.758503
 30
0.0
 10
580.042946
 20
478.579209
 30
0.0
  0
SPLINE
  5
511
100
AcDbEntity
  8
0
 62
7
100
AcDbSpline
 70
8
 71
3
 72
8
 73
4
 74
0
 40
0
 40
0
 40
0
 40
0
 40
1
 40
1
 40
1
 40
1
 10
580.042946
 20
478.579209
 30
0.0
 10
580.775551
 20
477.505662
 30
0.0
 10
584.109274
 20
474.971245
 30
0.0
 10
584.879529
 20
474.902295
 30
0.0
  0
SPLINE
  5
512
100
AcDbEntity
  8
0
 62
7
100
AcDbSpline
 70
8
 71
3
 72
8
 73
4
 74
0
 40
0
 40
0
 40
0
 40
0
 40
1
 40
1
 40
1
 40
1
 10
584.879529
 20
474.902295
 30
0.0
 10
585.011186
 20
474.890653
 30
0.0
 10
585.045397
 20
475.614976
 30
0.0
 10
584.956629
 20
476.534774
 30
0.0
  0
LWPOLYLINE
  5
513
100
AcDbEntity
  8
0
 62
7
100
AcDbPolyline
 90
1
 70
1
 10
494.816791
 20
473.983026
 30
0.0
  0
SPLINE
  5
514
100
AcDbEntity
  8
0
 62
7
100
AcDbSpline
 70
8
 71
3
 72
8
 73
4
 74
0
 40
0
 40
0
 40
0
 40
0
 40
1
 40
1
 40
1
 40
1
 10
166.924191
 20
479.445190
 30
0.0
 10
167.073601
 20
480.500216
 30
0.0
 10
167.746648
 20
482.879535
 30
0.0
 10
168.419854
 20
484.732597
 30
0.0
  0
SPLINE
  5
515
100
AcDbEntity
  8
0
 62
7
100
AcDbSpline
 70
8
 71
3
 72
8
 73
4
 74
0
 40
0
 40
0
 40
0
 40
0
 40
1
 40
1
 40
1
 40
1
 10
168.419854
 20
484.732597
 30
0.0
 10
169.093060
 20
486.585660
 30
0.0
 10
169.643870
 20
488.287380
 30
0.0
 10
169.643870
 20
488.514181
 30
0.0
  0
SPLINE
  5
516
100
AcDbEntity
  8
0
 62
7
100
AcDbSpline
 70
8
 71
3
 72
8
 73
4
 74
0
 40
0
 40
0
 40
0
 40
0
 40
1
 40
1
 40
1
 40
1
 10
169.643870
 20
488.514181
 30
0.0
 10
169.643870
 20
488.740982
 30
0.0
 10
170.110277
 20
490.380023
 30
0.0
 10
170.680295
 20
492.156435
 30
0.0
  0
SPLINE
  5
517
100
AcDbEntity
  8
0
 62
7
100
AcDbSpline
 70
8
 71
3
 72
8
 73
4
 74
0
 40
0
 40
0
 40
0
 40
0
 40
1
 40
1
 40
1
 40
1
 10
170.680295
 20
492.156435
 30
0.0
 10
171.250314
 20
493.932874
 30
0.0
 10
171.798848
 20
495.803055
 30
0.0
 10
171.899231
 20
496.312378
 30
0.0
  0
SPLINE
  5
518
100
AcDbEntity
  8
0
 62
7
100
AcDbSpline
 70
8
 71
3
 72
8
 73
4
 74
0
 40
0
 40
0
 40
0
 40
0
 40
1
 40
1
 40
1
 40
1
 10
171.899231
 20
496.312378
 30
0.0
 10
172.076766
 20
497.213020
 30
0.0
 10
173.332849
 20
500.843658
 30
0.0
 10
174.439707
 20
503.655386
 30
0.0
  0
LWPOLYLINE
  5
519
100
AcDbEntity
  8
0
 62
7
100
AcDbPolyline
 90
1
 70
1
 10
584.956629
 20
476.534774
 30
0.0
  0
SPLINE
  5
51a
100
AcDbEntity
  8
0
 62
7
100
AcDbSpline
 70
8
 71
3
 72
8
 73
4
 74
0
 40
0
 40
0
 40
0
 40
0
 40
1
 40
1
 40
1
 40
1
 10
174.425287
 20
505.997027
 30
0.0
 10
174.116439
 20
506.520479
 30
0.0
 10
173.273662
 20
508.689031
 30
0.0
 10
172.552434
 20
510.816042
 30
0.0
  0
LWPOLYLINE
  5
51b
100
AcDbEntity
  8
0
 62
7
100
AcDbPolyline
 90
3
 70
0
 10
174.439707
 20
503.655386
 30
0.0
 10
174.986839
 20
505.045295
 30
0.0
 10
174.425287
 20
505.997027
 30
0.0
  0
SPLINE
  5
51c
100
AcDbEntity
  8
0
 62
7
100
AcDbSpline
 70
8
 71
3
 72
8
 73
4
 74
0
 40
0
 40
0
 40
0
 40
0
 40
1
 40
1
 40
1
 40
1
 10
171.342468
 20
523.158778
 30
0.0
 10
171.398216
 20
527.820284
 30
0.0
 10
171.579006
 20
532.408149
 30
0.0
 10
171.744238
 20
533.354034
 30
0.0
  0
SPLINE
  5
51d
100
AcDbEntity
  8
0
 62
7
100
AcDbSpline
 70
8
 71
3
 72
8
 73
4
 74
0
 40
0
 40
0
 40
0
 40
0
 40
1
 40
1
 40
1
 40
1
 10
171.744238
 20
533.354034
 30
0.0
 10
172.111347
 20
535.455725
 30
0.0
 10
172.932905
 20
537.550386
 30
0.0
 10
174.078207
 20
539.304709
 30
0.0
  0
SPLINE
  5
51e
100
AcDbEntity
  8
0
 62
7
100
AcDbSpline
 70
8
 71
3
 72
8
 73
4
 74
0
 40
0
 40
0
 40
0
 40
0
 40
1
 40
1
 40
1
 40
1
 10
174.078207
 20
539.304709
 30
0.0
 10
174.552552
 20
540.031294
 30
0.0
 10
175.130402
 20
541.162523
 30
0.0
 10
175.362309
 20
541.818550
 30
0.0
  0
SPLINE
  5
51f
100
AcDbEntity
  8
0
 62
7
100
AcDbSpline
 70
8
 71
3
 72
8
 73
4
 74
0
 40
0
 40
0
 40
0
 40
0
 40
1
 40
1
 40
1
 40
1
 10
175.362309
 20
541.818550
 30
0.0
 10
176.012628
 20
543.658197
 30
0.0
 10
177.002435
 20
545.581279
 30
0.0
 10
177.717074
 20
546.393598
 30
0.0
  0
SPLINE
  5
520
100
AcDbEntity
  8
0
 62
7
100
AcDbSpline
 70
8
 71
3
 72
8
 73
4
 74
0
 40
0
 40
0
 40
0
 40
0
 40
1
 40
1
 40
1
 40
1
 10
177.717074
 20
546.393598
 30
0.0
 10
178.073389
 20
546.798638
 30
0.0
 10
179.409032
 20
547.770063
 30
0.0
 10
180.685144
 20
548.552320
 30
0.0
  0
SPLINE
  5
521
100
AcDbEntity
  8
0
 62
7
100
AcDbSpline
 70
8
 71
3
 72
8
 73
4
 74
0
 40
0
 40
0
 40
0
 40
0
 40
1
 40
1
 40
1
 40
1
 10
180.685144
 20
548.552320
 30
0.0
 10
182.596176
 20
549.723781
 30
0.0
 10
183.052000
 20
550.132102
 30
0.0
 10
183.269911
 20
550.867686
 30
0.0
  0
SPLINE
  5
522
100
AcDbEntity
  8
0
 62
7
100
AcDbSpline
 70
8
 71
3
 72
8
 73
4
 74
0
 40
0
 40
0
 40
0
 40
0
 40
1
 40
1
 40
1
 40
1
 10
183.269911
 20
550.867686
 30
0.0
 10
184.279164
 20
554.274334
 30
0.0
 10
187.282635
 20
556.138419
 30
0.0
 10
194.646995
 20
557.928841
 30
0.0
  0
SPLINE
  5
523
100
AcDbEntity
  8
0
 62
7
100
AcDbSpline
 70
8
 71
3
 72
8
 73
4
 74
0
 40
0
 40
0
 40
0
 40
0
 40
1
 40
1
 40
1
 40
1
 10
194.646995
 20
557.928841
 30
0.0
 10
201.389001
 20
559.567948
 30
0.0
 10
203.542498
 20
559.491166
 30
0.0
 10
209.595953
 20
557.395843
 30
0.0
  0
SPLINE
  5
524
100
AcDbEntity
  8
0
 62
7
100
AcDbSpline
 70
8
 71
3
 72
8
 73
4
 74
0
 40
0
 40
0
 40
0
 40
0
 40
1
 40
1
 40
1
 40
1
 10
209.595953
 20
557.395843
 30
0.0
 10
214.461852
 20
555.711585
 30
0.0
 10
219.589345
 20
552.657727
 30
0.0
 10
224.280487
 20
548.649975
 30
0.0
  0
SPLINE
  5
525
100
AcDbEntity
  8
0
 62
7
100
AcDbSpline
 70
8
 71
3
 72
8
 73
4
 74
0
 40
0
 40
0
 40
0
 40
0
 40
1
 40
1
 40
1
 40
1
 10
224.280487
 20
548.649975
 30
0.0
 10
228.173169
 20
545.324369
 30
0.0
 10
230.045678
 20
542.838164
 30
0.0
 10
231.117876
 20
539.571742
 30
0.0
  0
SPLINE
  5
526
100
AcDbEntity
  8
0
 62
7
100
AcDbSpline
 70
8
 71
3
 72
8
 73
4
 74
0
 40
0
 40
0
 40
0
 40
0
 40
1
 40
1
 40
1
 40
1
 10
231.117876
 20
539.571742
 30
0.0
 10
231.654874
 20
537.935715
 30
0.0
 10
232.346468
 20
533.435203
 30
0.0
 10
232.348558
 20
531.563056
 30
0.0
  0
SPLINE
  5
527
100
AcDbEntity
  8
0
 62
7
100
AcDbSpline
 70
8
 71
3
 72
8
 73
4
 74
0
 40
0
 40
0
 40
0
 40
0
 40
1
 40
1
 40
1
 40
1
 10
232.348558
 20
531.563056
 30
0.0
 10
232.351204
 20
530.255287
 30
0.0
 10
232.387002
 20
530.177052
 30
0.0
 10
232.945432
 20
530.299729
 30
0.0
  0
SPLINE
  5
528
100
AcDbEntity
  8
0
 62
7
100
AcDbSpline
 70
8
 71
3
 72
8
 73
4
 74
0
 40
0
 40
0
 40
0
 40
0
 40
1
 40
1
 40
1
 40
1
 10
232.945432
 20
530.299729
 30
0.0
 10
233.272854
 20
530.371656
 30
0.0
 10
237.053088
 20
530.914724
 30
0.0
 10
241.345953
 20
531.506546
 30
0.0
  0
SPLINE
  5
529
100
AcDbEntity
  8
0
 62
7
100
AcDbSpline
 70
8
 71
3
 72
8
 73
4
 74
0
 40
0
 40
0
 40
0
 40
0
 40
1
 40
1
 40
1
 40
1
 10
241.345953
 20
531.506546
 30
0.0
 10
261.213039
 20
534.245458
 30
0.0
 10
271.711685
 20
536.556339
 30
0.0
 10
281.040258
 20
540.243765
 30
0.0
  0
SPLINE
  5
52a
100
AcDbEntity
  8
0
 62
7
100
AcDbSpline
 70
8
 71
3
 72
8
 73
4
 74
0
 40
0
 40
0
 40
0
 40
0
 40
1
 40
1
 40
1
 40
1
 10
281.040258
 20
540.243765
 30
0.0
 10
286.023341
 20
542.213488
 30
0.0
 10
290.962847
 20
544.824182
 30
0.0
 10
294.791791
 20
547.511917
 30
0.0
  0
SPLINE
  5
52b
100
AcDbEntity
  8
0
 62
7
100
AcDbSpline
 70
8
 71
3
 72
8
 73
4
 74
0
 40
0
 40
0
 40
0
 40
0
 40
1
 40
1
 40
1
 40
1
 10
294.791791
 20
547.511917
 30
0.0
 10
295.883198
 20
548.278031
 30
0.0
 10
298.264448
 20
549.766426
 30
0.0
 10
300.083458
 20
550.819466
 30
0.0
  0
SPLINE
  5
52c
100
AcDbEntity
  8
0
 62
7
100
AcDbSpline
 70
8
 71
3
 72
8
 73
4
 74
0
 40
0
 40
0
 40
0
 40
0
 40
1
 40
1
 40
1
 40
1
 10
300.083458
 20
550.819466
 30
0.0
 10
309.483786
 20
556.261373
 30
0.0
 10
318.977407
 20
562.114147
 30
0.0
 10
321.117833
 20
563.787033
 30
0.0
  0
SPLINE
  5
52d
100
AcDbEntity
  8
0
 62
7
100
AcDbSpline
 70
8
 71
3
 72
8
 73
4
 74
0
 40
0
 40
0
 40
0
 40
0
 40
1
 40
1
 40
1
 40
1
 10
321.117833
 20
563.787033
 30
0.0
 10
323.718634
 20
565.819750
 30
0.0
 10
327.142184
 20
568.022581
 30
0.0
 10
333.024083
 20
571.447943
 30
0.0
  0
SPLINE
  5
52e
100
AcDbEntity
  8
0
 62
7
100
AcDbSpline
 70
8
 71
3
 72
8
 73
4
 74
0
 40
0
 40
0
 40
0
 40
0
 40
1
 40
1
 40
1
 40
1
 10
333.024083
 20
571.447943
 30
0.0
 10
336.080021
 20
573.227592
 30
0.0
 10
339.728440
 20
575.434225
 30
0.0
 10
341.131657
 20
576.351575
 30
0.0
  0
SPLINE
  5
52f
100
AcDbEntity
  8
0
 62
7
100
AcDbSpline
 70
8
 71
3
 72
8
 73
4
 74
0
 40
0
 40
0
 40
0
 40
0
 40
1
 40
1
 40
1
 40
1
 10
341.131657
 20
576.351575
 30
0.0
 10
342.534901
 20
577.268927
 30
0.0
 10
343.785058
 20
577.921977
 30
0.0
 10
343.909782
 20
577.802798
 30
0.0
  0
SPLINE
  5
530
100
AcDbEntity
  8
0
 62
7
100
AcDbSpline
 70
8
 71
3
 72
8
 73
4
 74
0
 40
0
 40
0
 40
0
 40
0
 40
1
 40
1
 40
1
 40
1
 10
343.909782
 20
577.802798
 30
0.0
 10
344.034533
 20
577.683622
 30
0.0
 10
345.835340
 20
576.558431
 30
0.0
 10
347.911605
 20
575.302377
 30
0.0
  0
SPLINE
  5
531
100
AcDbEntity
  8
0
 62
7
100
AcDbSpline
 70
8
 71
3
 72
8
 73
4
 74
0
 40
0
 40
0
 40
0
 40
0
 40
1
 40
1
 40
1
 40
1
 10
347.911605
 20
575.302377
 30
0.0
 10
359.018972
 20
568.582860
 30
0.0
 10
372.706688
 20
562.513885
 30
0.0
 10
386.679440
 20
558.113155
 30
0.0
  0
SPLINE
  5
532
100
AcDbEntity
  8
0
 62
7
100
AcDbSpline
 70
8
 71
3
 72
8
 73
4
 74
0
 40
0
 40
0
 40
0
 40
0
 40
1
 40
1
 40
1
 40
1
 10
386.679440
 20
558.113155
 30
0.0
 10
390.034754
 20
557.056396
 30
0.0
 10
394.024564
 20
555.462657
 30
0.0
 10
400.570065
 20
552.564530
 30
0.0
  0
SPLINE
  5
533
100
AcDbEntity
  8
0
 62
7
100
AcDbSpline
 70
8
 71
3
 72
8
 73
4
 74
0
 40
0
 40
0
 40
0
 40
0
 40
1
 40
1
 40
1
 40
1
 10
400.570065
 20
552.564530
 30
0.0
 10
429.331464
 20
539.829928
 30
0.0
 10
448.204378
 20
530.311077
 30
0.0
 10
462.084050
 20
521.538986
 30
0.0
  0
SPLINE
  5
534
100
AcDbEntity
  8
0
 62
7
100
AcDbSpline
 70
8
 71
3
 72
8
 73
4
 74
0
 40
0
 40
0
 40
0
 40
0
 40
1
 40
1
 40
1
 40
1
 10
462.084050
 20
521.538986
 30
0.0
 10
464.235668
 20
520.179144
 30
0.0
 10
466.091693
 20
519.066545
 30
0.0
 10
466.208533
 20
519.066545
 30
0.0
  0
SPLINE
  5
535
100
AcDbEntity
  8
0
 62
7
100
AcDbSpline
 70
8
 71
3
 72
8
 73
4
 74
0
 40
0
 40
0
 40
0
 40
0
 40
1
 40
1
 40
1
 40
1
 10
466.208533
 20
519.066545
 30
0.0
 10
466.325373
 20
519.066545
 30
0.0
 10
467.202494
 20
520.052726
 30
0.0
 10
468.157692
 20
521.258035
 30
0.0
  0
SPLINE
  5
536
100
AcDbEntity
  8
0
 62
7
100
AcDbSpline
 70
8
 71
3
 72
8
 73
4
 74
0
 40
0
 40
0
 40
0
 40
0
 40
1
 40
1
 40
1
 40
1
 10
468.157692
 20
521.258035
 30
0.0
 10
470.081795
 20
523.686000
 30
0.0
 10
471.731314
 20
525.298300
 30
0.0
 10
473.312093
 20
526.296207
 30
0.0
  0
SPLINE
  5
537
100
AcDbEntity
  8
0
 62
7
100
AcDbSpline
 70
8
 71
3
 72
8
 73
4
 74
0
 40
0
 40
0
 40
0
 40
0
 40
1
 40
1
 40
1
 40
1
 10
473.312093
 20
526.296207
 30
0.0
 10
475.510595
 20
527.684066
 30
0.0
 10
479.299588
 20
528.400910
 30
0.0
 10
481.796884
 20
527.901456
 30
0.0
  0
SPLINE
  5
538
100
AcDbEntity
  8
0
 62
7
100
AcDbSpline
 70
8
 71
3
 72
8
 73
4
 74
0
 40
0
 40
0
 40
0
 40
0
 40
1
 40
1
 40
1
 40
1
 10
481.796884
 20
527.901456
 30
0.0
 10
482.543855
 20
527.752061
 30
0.0
 10
482.652202
 20
527.576870
 30
0.0
 10
483.310539
 20
525.454060
 30
0.0
  0
SPLINE
  5
539
100
AcDbEntity
  8
0
 62
7
100
AcDbSpline
 70
8
 71
3
 72
8
 73
4
 74
0
 40
0
 40
0
 40
0
 40
0
 40
1
 40
1
 40
1
 40
1
 10
483.310539
 20
525.454060
 30
0.0
 10
484.722752
 20
520.900504
 30
0.0
 10
487.107071
 20
517.394907
 30
0.0
 10
489.908665
 20
515.753062
 30
0.0
  0
SPLINE
  5
53a
100
AcDbEntity
  8
0
 62
7
100
AcDbSpline
 70
8
 71
3
 72
8
 73
4
 74
0
 40
0
 40
0
 40
0
 40
0
 40
1
 40
1
 40
1
 40
1
 10
489.908665
 20
515.753062
 30
0.0
 10
490.779276
 20
515.242839
 30
0.0
 10
491.557045
 20
515.060462
 30
0.0
 10
493.428681
 20
514.927615
 30
0.0
  0
LWPOLYLINE
  5
53b
100
AcDbEntity
  8
0
 62
7
100
AcDbPolyline
 90
3
 70
0
 10
172.552434
 20
510.816042
 30
0.0
 10
171.241106
 20
514.683298
 30
0.0
 10
171.342468
 20
523.158778
 30
0.0
  0
SPLINE
  5
53c
100
AcDbEntity
  8
0
 62
7
100
AcDbSpline
 70
8
 71
3
 72
8
 73
4
 74
0
 40
0
 40
0
 40
0
 40
0
 40
1
 40
1
 40
1
 40
1
 10
499.954180
 20
518.805745
 30
0.0
 10
502.221844
 20
521.032505
 30
0.0
 10
504.077208
 20
522.942465
 30
0.0
 10
504.077208
 20
523.050095
 30
0.0
  0
SPLINE
  5
53d
100
AcDbEntity
  8
0
 62
7
100
AcDbSpline
 70
8
 71
3
 72
8
 73
4
 74
0
 40
0
 40
0
 40
0
 40
0
 40
1
 40
1
 40
1
 40
1
 10
504.077208
 20
523.050095
 30
0.0
 10
504.077208
 20
523.157723
 30
0.0
 10
503.605430
 20
524.022354
 30
0.0
 10
503.028797
 20
524.971497
 30
0.0
  0
SPLINE
  5
53e
100
AcDbEntity
  8
0
 62
7
100
AcDbSpline
 70
8
 71
3
 72
8
 73
4
 74
0
 40
0
 40
0
 40
0
 40
0
 40
1
 40
1
 40
1
 40
1
 10
503.028797
 20
524.971497
 30
0.0
 10
500.491204
 20
529.148469
 30
0.0
 10
500.134943
 20
533.243144
 30
0.0
 10
502.029677
 20
536.454506
 30
0.0
  0
SPLINE
  5
53f
100
AcDbEntity
  8
0
 62
7
100
AcDbSpline
 70
8
 71
3
 72
8
 73
4
 74
0
 40
0
 40
0
 40
0
 40
0
 40
1
 40
1
 40
1
 40
1
 10
502.029677
 20
536.454506
 30
0.0
 10
503.025622
 20
538.142497
 30
0.0
 10
507.223289
 20
540.521448
 30
0.0
 10
511.664294
 20
541.914736
 30
0.0
  0
SPLINE
  5
540
100
AcDbEntity
  8
0
 62
7
100
AcDbSpline
 70
8
 71
3
 72
8
 73
4
 74
0
 40
0
 40
0
 40
0
 40
0
 40
1
 40
1
 40
1
 40
1
 10
511.664294
 20
541.914736
 30
0.0
 10
512.853993
 20
542.287989
 30
0.0
 10
516.068680
 20
543.017998
 30
0.0
 10
518.808044
 20
543.536979
 30
0.0
  0
SPLINE
  5
541
100
AcDbEntity
  8
0
 62
7
100
AcDbSpline
 70
8
 71
3
 72
8
 73
4
 74
0
 40
0
 40
0
 40
0
 40
0
 40
1
 40
1
 40
1
 40
1
 10
518.808044
 20
543.536979
 30
0.0
 10
521.547381
 20
544.055959
 30
0.0
 10
525.288245
 20
544.771186
 30
0.0
 10
527.121094
 20
545.126370
 30
0.0
  0
SPLINE
  5
542
100
AcDbEntity
  8
0
 62
7
100
AcDbSpline
 70
8
 71
3
 72
8
 73
4
 74
0
 40
0
 40
0
 40
0
 40
0
 40
1
 40
1
 40
1
 40
1
 10
527.121094
 20
545.126370
 30
0.0
 10
536.159604
 20
546.877954
 30
0.0
 10
541.376473
 20
549.720519
 30
0.0
 10
545.836078
 20
555.323782
 30
0.0
  0
SPLINE
  5
543
100
AcDbEntity
  8
0
 62
7
100
AcDbSpline
 70
8
 71
3
 72
8
 73
4
 74
0
 40
0
 40
0
 40
0
 40
0
 40
1
 40
1
 40
1
 40
1
 10
545.836078
 20
555.323782
 30
0.0
 10
547.048108
 20
556.846618
 30
0.0
 10
549.429358
 20
559.680875
 30
0.0
 10
551.127745
 20
561.622128
 30
0.0
  0
SPLINE
  5
544
100
AcDbEntity
  8
0
 62
7
100
AcDbSpline
 70
8
 71
3
 72
8
 73
4
 74
0
 40
0
 40
0
 40
0
 40
0
 40
1
 40
1
 40
1
 40
1
 10
551.127745
 20
561.622128
 30
0.0
 10
558.988674
 20
570.607092
 30
0.0
 10
561.080550
 20
574.727856
 30
0.0
 10
561.021336
 20
581.111326
 30
0.0
  0
SPLINE
  5
545
100
AcDbEntity
  8
0
 62
7
100
AcDbSpline
 70
8
 71
3
 72
8
 73
4
 74
0
 40
0
 40
0
 40
0
 40
0
 40
1
 40
1
 40
1
 40
1
 10
561.021336
 20
581.111326
 30
0.0
 10
561.006519
 20
582.712055
 30
0.0
 10
560.832185
 20
584.610856
 30
0.0
 10
560.633986
 20
585.330885
 30
0.0
  0
SPLINE
  5
546
100
AcDbEntity
  8
0
 62
7
100
AcDbSpline
 70
8
 71
3
 72
8
 73
4
 74
0
 40
0
 40
0
 40
0
 40
0
 40
1
 40
1
 40
1
 40
1
 10
560.633986
 20
585.330885
 30
0.0
 10
560.286006
 20
586.594990
 30
0.0
 10
560.228591
 20
586.651701
 30
0.0
 10
558.964465
 20
586.979427
 30
0.0
  0
SPLINE
  5
547
100
AcDbEntity
  8
0
 62
7
100
AcDbSpline
 70
8
 71
3
 72
8
 73
4
 74
0
 40
0
 40
0
 40
0
 40
0
 40
1
 40
1
 40
1
 40
1
 10
558.964465
 20
586.979427
 30
0.0
 10
557.202896
 20
587.436124
 30
0.0
 10
554.264724
 20
587.416206
 30
0.0
 10
552.417430
 20
586.935046
 30
0.0
  0
SPLINE
  5
548
100
AcDbEntity
  8
0
 62
7
100
AcDbSpline
 70
8
 71
3
 72
8
 73
4
 74
0
 40
0
 40
0
 40
0
 40
0
 40
1
 40
1
 40
1
 40
1
 10
552.417430
 20
586.935046
 30
0.0
 10
549.212982
 20
586.100391
 30
0.0
 10
546.683062
 20
584.443316
 30
0.0
 10
541.206293
 20
579.591794
 30
0.0
  0
SPLINE
  5
549
100
AcDbEntity
  8
0
 62
7
100
AcDbSpline
 70
8
 71
3
 72
8
 73
4
 74
0
 40
0
 40
0
 40
0
 40
0
 40
1
 40
1
 40
1
 40
1
 10
541.206293
 20
579.591794
 30
0.0
 10
539.339208
 20
577.937863
 30
0.0
 10
537.037677
 20
575.957885
 30
0.0
 10
536.091791
 20
575.191845
 30
0.0
  0
SPLINE
  5
54a
100
AcDbEntity
  8
0
 62
7
100
AcDbSpline
 70
8
 71
3
 72
8
 73
4
 74
0
 40
0
 40
0
 40
0
 40
0
 40
1
 40
1
 40
1
 40
1
 10
536.091791
 20
575.191845
 30
0.0
 10
534.489448
 20
573.894164
 30
0.0
 10
531.417160
 20
571.983201
 30
0.0
 10
530.933184
 20
571.983201
 30
0.0
  0
SPLINE
  5
54b
100
AcDbEntity
  8
0
 62
7
100
AcDbSpline
 70
8
 71
3
 72
8
 73
4
 74
0
 40
0
 40
0
 40
0
 40
0
 40
1
 40
1
 40
1
 40
1
 10
530.933184
 20
571.983201
 30
0.0
 10
530.816053
 20
571.983201
 30
0.0
 10
531.666027
 20
572.687312
 30
0.0
 10
532.822018
 20
573.547894
 30
0.0
  0
SPLINE
  5
54c
100
AcDbEntity
  8
0
 62
7
100
AcDbSpline
 70
8
 71
3
 72
8
 73
4
 74
0
 40
0
 40
0
 40
0
 40
0
 40
1
 40
1
 40
1
 40
1
 10
532.822018
 20
573.547894
 30
0.0
 10
536.754599
 20
576.475513
 30
0.0
 10
539.777596
 20
580.166620
 30
0.0
 10
539.485390
 20
581.683929
 30
0.0
  0
SPLINE
  5
54d
100
AcDbEntity
  8
0
 62
7
100
AcDbSpline
 70
8
 71
3
 72
8
 73
4
 74
0
 40
0
 40
0
 40
0
 40
0
 40
1
 40
1
 40
1
 40
1
 10
539.485390
 20
581.683929
 30
0.0
 10
539.313914
 20
582.574313
 30
0.0
 10
536.985025
 20
582.915726
 30
0.0
 10
531.064708
 20
582.918390
 30
0.0
  0
SPLINE
  5
54e
100
AcDbEntity
  8
0
 62
7
100
AcDbSpline
 70
8
 71
3
 72
8
 73
4
 74
0
 40
0
 40
0
 40
0
 40
0
 40
1
 40
1
 40
1
 40
1
 10
531.064708
 20
582.918390
 30
0.0
 10
526.144173
 20
582.920507
 30
0.0
 10
525.063667
 20
582.831866
 30
0.0
 10
519.423041
 20
581.962260
 30
0.0
  0
SPLINE
  5
54f
100
AcDbEntity
  8
0
 62
7
100
AcDbSpline
 70
8
 71
3
 72
8
 73
4
 74
0
 40
0
 40
0
 40
0
 40
0
 40
1
 40
1
 40
1
 40
1
 10
519.423041
 20
581.962260
 30
0.0
 10
508.048948
 20
580.208739
 30
0.0
 10
504.458446
 20
580.056821
 30
0.0
 10
499.045468
 20
581.100062
 30
0.0
  0
SPLINE
  5
550
100
AcDbEntity
  8
0
 62
7
100
AcDbSpline
 70
8
 71
3
 72
8
 73
4
 74
0
 40
0
 40
0
 40
0
 40
0
 40
1
 40
1
 40
1
 40
1
 10
499.045468
 20
581.100062
 30
0.0
 10
498.238463
 20
581.255600
 30
0.0
 10
497.945251
 20
581.149968
 30
0.0
 10
496.838684
 20
580.305053
 30
0.0
  0
LWPOLYLINE
  5
551
100
AcDbEntity
  8
0
 62
7
100
AcDbPolyline
 90
3
 70
0
 10
493.428681
 20
514.927615
 30
0.0
 10
495.831178
 20
514.757091
 30
0.0
 10
499.954180
 20
518.805745
 30
0.0
  0
SPLINE
  5
552
100
AcDbEntity
  8
0
 62
7
100
AcDbSpline
 70
8
 71
3
 72
8
 73
4
 74
0
 40
0
 40
0
 40
0
 40
0
 40
1
 40
1
 40
1
 40
1
 10
496.578758
 20
578.268730
 30
0.0
 10
500.091128
 20
574.598149
 30
0.0
 10
505.828935
 20
571.658901
 30
0.0
 10
511.485541
 20
570.632603
 30
0.0
  0
SPLINE
  5
553
100
AcDbEntity
  8
0
 62
7
100
AcDbSpline
 70
8
 71
3
 72
8
 73
4
 74
0
 40
0
 40
0
 40
0
 40
0
 40
1
 40
1
 40
1
 40
1
 10
511.485541
 20
570.632603
 30
0.0
 10
514.218687
 20
570.136718
 30
0.0
 10
520.062725
 20
570.210797
 30
0.0
 10
522.805078
 20
570.776084
 30
0.0
  0
SPLINE
  5
554
100
AcDbEntity
  8
0
 62
7
100
AcDbSpline
 70
8
 71
3
 72
8
 73
4
 74
0
 40
0
 40
0
 40
0
 40
0
 40
1
 40
1
 40
1
 40
1
 10
522.805078
 20
570.776084
 30
0.0
 10
524.010361
 20
571.024533
 30
0.0
 10
525.128966
 20
571.183654
 30
0.0
 10
525.290865
 20
571.129692
 30
0.0
  0
SPLINE
  5
555
100
AcDbEntity
  8
0
 62
7
100
AcDbSpline
 70
8
 71
3
 72
8
 73
4
 74
0
 40
0
 40
0
 40
0
 40
0
 40
1
 40
1
 40
1
 40
1
 10
525.290865
 20
571.129692
 30
0.0
 10
525.790663
 20
570.963092
 30
0.0
 10
522.442149
 20
569.597323
 30
0.0
 10
520.551780
 20
569.196741
 30
0.0
  0
SPLINE
  5
556
100
AcDbEntity
  8
0
 62
7
100
AcDbSpline
 70
8
 71
3
 72
8
 73
4
 74
0
 40
0
 40
0
 40
0
 40
0
 40
1
 40
1
 40
1
 40
1
 10
520.551780
 20
569.196741
 30
0.0
 10
516.249973
 20
568.285167
 30
0.0
 10
512.064503
 20
568.925863
 30
0.0
 10
502.927964
 20
571.894531
 30
0.0
  0
LWPOLYLINE
  5
557
100
AcDbEntity
  8
0
 62
7
100
AcDbPolyline
 90
3
 70
0
 10
496.838684
 20
580.305053
 30
0.0
 10
495.562573
 20
579.330672
 30
0.0
 10
496.578758
 20
578.268730
 30
0.0
  0
SPLINE
  5
558
100
AcDbEntity
  8
0
 62
7
100
AcDbSpline
 70
8
 71
3
 72
8
 73
4
 74
0
 40
0
 40
0
 40
0
 40
0
 40
1
 40
1
 40
1
 40
1
 10
496.513194
 20
575.273413
 30
0.0
 10
493.341078
 20
578.493729
 30
0.0
 10
490.071463
 20
580.369376
 30
0.0
 10
485.564815
 20
581.554061
 30
0.0
  0
SPLINE
  5
559
100
AcDbEntity
  8
0
 62
7
100
AcDbSpline
 70
8
 71
3
 72
8
 73
4
 74
0
 40
0
 40
0
 40
0
 40
0
 40
1
 40
1
 40
1
 40
1
 10
485.564815
 20
581.554061
 30
0.0
 10
482.948059
 20
582.241946
 30
0.0
 10
475.873604
 20
582.490561
 30
0.0
 10
470.990956
 20
582.066225
 30
0.0
  0
LWPOLYLINE
  5
55a
100
AcDbEntity
  8
0
 62
7
100
AcDbPolyline
 90
3
 70
0
 10
502.927964
 20
571.894531
 30
0.0
 10
498.388666
 20
573.369451
 30
0.0
 10
496.513194
 20
575.273413
 30
0.0
  0
SPLINE
  5
55b
100
AcDbEntity
  8
0
 62
7
100
AcDbSpline
 70
8
 71
3
 72
8
 73
4
 74
0
 40
0
 40
0
 40
0
 40
0
 40
1
 40
1
 40
1
 40
1
 10
464.210903
 20
580.147086
 30
0.0
 10
461.003888
 20
578.544452
 30
0.0
 10
458.836316
 20
577.951021
 30
0.0
 10
458.453278
 20
578.570791
 30
0.0
  0
SPLINE
  5
55c
100
AcDbEntity
  8
0
 62
7
100
AcDbSpline
 70
8
 71
3
 72
8
 73
4
 74
0
 40
0
 40
0
 40
0
 40
0
 40
1
 40
1
 40
1
 40
1
 10
458.453278
 20
578.570791
 30
0.0
 10
458.122734
 20
579.105607
 30
0.0
 10
458.213037
 20
580.494394
 30
0.0
 10
458.594037
 20
580.735601
 30
0.0
  0
SPLINE
  5
55d
100
AcDbEntity
  8
0
 62
7
100
AcDbSpline
 70
8
 71
3
 72
8
 73
4
 74
0
 40
0
 40
0
 40
0
 40
0
 40
1
 40
1
 40
1
 40
1
 10
458.594037
 20
580.735601
 30
0.0
 10
458.798480
 20
580.865033
 30
0.0
 10
460.112031
 20
580.972755
 30
0.0
 10
461.513052
 20
580.974983
 30
0.0
  0
SPLINE
  5
55e
100
AcDbEntity
  8
0
 62
7
100
AcDbSpline
 70
8
 71
3
 72
8
 73
4
 74
0
 40
0
 40
0
 40
0
 40
0
 40
1
 40
1
 40
1
 40
1
 10
461.513052
 20
580.974983
 30
0.0
 10
464.707420
 20
580.980063
 30
0.0
 10
465.005023
 20
581.212349
 30
0.0
 10
464.004581
 20
582.919517
 30
0.0
  0
SPLINE
  5
55f
100
AcDbEntity
  8
0
 62
7
100
AcDbSpline
 70
8
 71
3
 72
8
 73
4
 74
0
 40
0
 40
0
 40
0
 40
0
 40
1
 40
1
 40
1
 40
1
 10
464.004581
 20
582.919517
 30
0.0
 10
463.197575
 20
584.296554
 30
0.0
 10
462.654227
 20
586.751681
 30
0.0
 10
462.399248
 20
590.173305
 30
0.0
  0
LWPOLYLINE
  5
560
100
AcDbEntity
  8
0
 62
7
100
AcDbPolyline
 90
3
 70
0
 10
470.990956
 20
582.066225
 30
0.0
 10
467.432416
 20
581.756962
 30
0.0
 10
464.210903
 20
580.147086
 30
0.0
  0
SPLINE
  5
561
100
AcDbEntity
  8
0
 62
7
100
AcDbSpline
 70
8
 71
3
 72
8
 73
4
 74
0
 40
0
 40
0
 40
0
 40
0
 40
1
 40
1
 40
1
 40
1
 10
50.845966
 20
592.018115
 30
0.0
 10
50.845966
 20
591.070557
 30
0.0
 10
50.118724
 20
590.239451
 30
0.0
 10
49.289589
 20
590.239451
 30
0.0
  0
SPLINE
  5
562
100
AcDbEntity
  8
0
 62
7
100
AcDbSpline
 70
8
 71
3
 72
8
 73
4
 74
0
 40
0
 40
0
 40
0
 40
0
 40
1
 40
1
 40
1
 40
1
 10
49.289589
 20
590.239451
 30
0.0
 10
48.886647
 20
590.239451
 30
0.0
 10
47.691910
 20
590.541684
 30
0.0
 10
46.634620
 20
590.911077
 30
0.0
  0
SPLINE
  5
563
100
AcDbEntity
  8
0
 62
7
100
AcDbSpline
 70
8
 71
3
 72
8
 73
4
 74
0
 40
0
 40
0
 40
0
 40
0
 40
1
 40
1
 40
1
 40
1
 10
46.634620
 20
590.911077
 30
0.0
 10
44.754385
 20
591.567992
 30
0.0
 10
43.702216
 20
591.580153
 30
0.0
 10
43.702216
 20
590.944965
 30
0.0
  0
SPLINE
  5
564
100
AcDbEntity
  8
0
 62
7
100
AcDbSpline
 70
8
 71
3
 72
8
 73
4
 74
0
 40
0
 40
0
 40
0
 40
0
 40
1
 40
1
 40
1
 40
1
 10
43.702216
 20
590.944965
 30
0.0
 10
43.702216
 20
590.501084
 30
0.0
 10
46.168027
 20
583.671180
 30
0.0
 10
46.691762
 20
582.664398
 30
0.0
  0
SPLINE
  5
565
100
AcDbEntity
  8
0
 62
7
100
AcDbSpline
 70
8
 71
3
 72
8
 73
4
 74
0
 40
0
 40
0
 40
0
 40
0
 40
1
 40
1
 40
1
 40
1
 10
46.691762
 20
582.664398
 30
0.0
 10
47.825554
 20
580.484890
 30
0.0
 10
50.143415
 20
578.862367
 30
0.0
 10
52.123165
 20
578.862367
 30
0.0
  0
SPLINE
  5
566
100
AcDbEntity
  8
0
 62
7
100
AcDbSpline
 70
8
 71
3
 72
8
 73
4
 74
0
 40
0
 40
0
 40
0
 40
0
 40
1
 40
1
 40
1
 40
1
 10
52.123165
 20
578.862367
 30
0.0
 10
53.126344
 20
578.862367
 30
0.0
 10
54.960882
 20
579.819691
 30
0.0
 10
55.399485
 20
580.572060
 30
0.0
  0
SPLINE
  5
567
100
AcDbEntity
  8
0
 62
7
100
AcDbSpline
 70
8
 71
3
 72
8
 73
4
 74
0
 40
0
 40
0
 40
0
 40
0
 40
1
 40
1
 40
1
 40
1
 10
55.399485
 20
580.572060
 30
0.0
 10
55.502829
 20
580.749333
 30
0.0
 10
55.809795
 20
581.169042
 30
0.0
 10
56.081636
 20
581.504750
 30
0.0
  0
LWPOLYLINE
  5
568
100
AcDbEntity
  8
0
 62
7
100
AcDbPolyline
 90
5
 70
0
 10
462.399248
 20
590.173305
 30
0.0
 10
462.216870
 20
592.620701
 30
0.0
 10
256.531422
 20
592.620701
 30
0.0
 10
50.845966
 20
592.620701
 30
0.0
 10
50.845966
 20
592.018115
 30
0.0
  0
SPLINE
  5
569
100
AcDbEntity
  8
0
 62
7
100
AcDbSpline
 70
8
 71
3
 72
8
 73
4
 74
0
 40
0
 40
0
 40
0
 40
0
 40
1
 40
1
 40
1
 40
1
 10
57.016785
 20
579.916917
 30
0.0
 10
57.259278
 20
578.707901
 30
0.0
 10
57.520808
 20
577.655584
 30
0.0
 10
57.597961
 20
577.578437
 30
0.0
  0
SPLINE
  5
56a
100
AcDbEntity
  8
0
 62
7
100
AcDbSpline
 70
8
 71
3
 72
8
 73
4
 74
0
 40
0
 40
0
 40
0
 40
0
 40
1
 40
1
 40
1
 40
1
 10
57.597961
 20
577.578437
 30
0.0
 10
57.856617
 20
577.319780
 30
0.0
 10
60.643738
 20
580.296901
 30
0.0
 10
62.020021
 20
582.301951
 30
0.0
  0
SPLINE
  5
56b
100
AcDbEntity
  8
0
 62
7
100
AcDbSpline
 70
8
 71
3
 72
8
 73
4
 74
0
 40
0
 40
0
 40
0
 40
0
 40
1
 40
1
 40
1
 40
1
 10
62.020021
 20
582.301951
 30
0.0
 10
62.769189
 20
583.393357
 30
0.0
 10
63.776167
 20
584.809462
 30
0.0
 10
64.257788
 20
585.448852
 30
0.0
  0
LWPOLYLINE
  5
56c
100
AcDbEntity
  8
0
 62
7
100
AcDbPolyline
 90
3
 70
0
 10
56.081636
 20
581.504750
 30
0.0
 10
56.575889
 20
582.115128
 30
0.0
 10
57.016785
 20
579.916917
 30
0.0
  0
SPLINE
  5
56d
100
AcDbEntity
  8
0
 62
7
100
AcDbSpline
 70
8
 71
3
 72
8
 73
4
 74
0
 40
0
 40
0
 40
0
 40
0
 40
1
 40
1
 40
1
 40
1
 10
65.133453
 20
585.131675
 30
0.0
 10
65.133453
 20
582.999974
 30
0.0
 10
64.438922
 20
578.017830
 30
0.0
 10
63.798418
 20
575.555076
 30
0.0
  0
SPLINE
  5
56e
100
AcDbEntity
  8
0
 62
7
100
AcDbSpline
 70
8
 71
3
 72
8
 73
4
 74
0
 40
0
 40
0
 40
0
 40
0
 40
1
 40
1
 40
1
 40
1
 10
63.798418
 20
575.555076
 30
0.0
 10
63.358496
 20
573.863547
 30
0.0
 10
62.134348
 20
570.516785
 30
0.0
 10
61.275272
 20
568.656891
 30
0.0
  0
SPLINE
  5
56f
100
AcDbEntity
  8
0
 62
7
100
AcDbSpline
 70
8
 71
3
 72
8
 73
4
 74
0
 40
0
 40
0
 40
0
 40
0
 40
1
 40
1
 40
1
 40
1
 10
61.275272
 20
568.656891
 30
0.0
 10
60.934436
 20
567.919026
 30
0.0
 10
64.032813
 20
567.438998
 30
0.0
 10
65.217008
 20
568.046198
 30
0.0
  0
SPLINE
  5
570
100
AcDbEntity
  8
0
 62
7
100
AcDbSpline
 70
8
 71
3
 72
8
 73
4
 74
0
 40
0
 40
0
 40
0
 40
0
 40
1
 40
1
 40
1
 40
1
 10
65.217008
 20
568.046198
 30
0.0
 10
66.430414
 20
568.668379
 30
0.0
 10
67.620880
 20
570.115282
 30
0.0
 10
69.653542
 20
573.438409
 30
0.0
  0
SPLINE
  5
571
100
AcDbEntity
  8
0
 62
7
100
AcDbSpline
 70
8
 71
3
 72
8
 73
4
 74
0
 40
0
 40
0
 40
0
 40
0
 40
1
 40
1
 40
1
 40
1
 10
69.653542
 20
573.438409
 30
0.0
 10
70.810670
 20
575.330180
 30
0.0
 10
72.059345
 20
577.219458
 30
0.0
 10
72.428359
 20
577.636807
 30
0.0
  0
SPLINE
  5
572
100
AcDbEntity
  8
0
 62
7
100
AcDbSpline
 70
8
 71
3
 72
8
 73
4
 74
0
 40
0
 40
0
 40
0
 40
0
 40
1
 40
1
 40
1
 40
1
 10
72.428359
 20
577.636807
 30
0.0
 10
73.071138
 20
578.363784
 30
0.0
 10
73.114980
 20
578.374886
 30
0.0
 10
73.473569
 20
577.901390
 30
0.0
  0
SPLINE
  5
573
100
AcDbEntity
  8
0
 62
7
100
AcDbSpline
 70
8
 71
3
 72
8
 73
4
 74
0
 40
0
 40
0
 40
0
 40
0
 40
1
 40
1
 40
1
 40
1
 10
73.473569
 20
577.901390
 30
0.0
 10
73.926933
 20
577.302797
 30
0.0
 10
73.978421
 20
575.597676
 30
0.0
 10
73.563237
 20
574.932855
 30
0.0
  0
SPLINE
  5
574
100
AcDbEntity
  8
0
 62
7
100
AcDbSpline
 70
8
 71
3
 72
8
 73
4
 74
0
 40
0
 40
0
 40
0
 40
0
 40
1
 40
1
 40
1
 40
1
 10
73.563237
 20
574.932855
 30
0.0
 10
73.316301
 20
574.537435
 30
0.0
 10
73.433538
 20
574.142915
 30
0.0
 10
74.211386
 20
572.752008
 30
0.0
  0
SPLINE
  5
575
100
AcDbEntity
  8
0
 62
7
100
AcDbSpline
 70
8
 71
3
 72
8
 73
4
 74
0
 40
0
 40
0
 40
0
 40
0
 40
1
 40
1
 40
1
 40
1
 10
74.211386
 20
572.752008
 30
0.0
 10
75.049798
 20
571.252763
 30
0.0
 10
75.134412
 20
570.935956
 30
0.0
 10
74.933831
 20
570.046623
 30
0.0
  0
SPLINE
  5
576
100
AcDbEntity
  8
0
 62
7
100
AcDbSpline
 70
8
 71
3
 72
8
 73
4
 74
0
 40
0
 40
0
 40
0
 40
0
 40
1
 40
1
 40
1
 40
1
 10
74.933831
 20
570.046623
 30
0.0
 10
74.617733
 20
568.645098
 30
0.0
 10
73.640548
 20
567.273472
 30
0.0
 10
72.072310
 20
566.030076
 30
0.0
  0
SPLINE
  5
577
100
AcDbEntity
  8
0
 62
7
100
AcDbSpline
 70
8
 71
3
 72
8
 73
4
 74
0
 40
0
 40
0
 40
0
 40
0
 40
1
 40
1
 40
1
 40
1
 10
72.072310
 20
566.030076
 30
0.0
 10
70.342596
 20
564.658658
 30
0.0
 10
69.366786
 20
563.167631
 30
0.0
 10
69.366786
 20
561.896064
 30
0.0
  0
SPLINE
  5
578
100
AcDbEntity
  8
0
 62
7
100
AcDbSpline
 70
8
 71
3
 72
8
 73
4
 74
0
 40
0
 40
0
 40
0
 40
0
 40
1
 40
1
 40
1
 40
1
 10
69.366786
 20
561.896064
 30
0.0
 10
69.366786
 20
561.354105
 30
0.0
 10
69.728921
 20
560.006307
 30
0.0
 10
70.171543
 20
558.900957
 30
0.0
  0
SPLINE
  5
579
100
AcDbEntity
  8
0
 62
7
100
AcDbSpline
 70
8
 71
3
 72
8
 73
4
 74
0
 40
0
 40
0
 40
0
 40
0
 40
1
 40
1
 40
1
 40
1
 10
70.171543
 20
558.900957
 30
0.0
 10
71.173970
 20
556.397496
 30
0.0
 10
71.080678
 20
555.194208
 30
0.0
 10
69.865341
 20
554.951138
 30
0.0
  0
SPLINE
  5
57a
100
AcDbEntity
  8
0
 62
7
100
AcDbSpline
 70
8
 71
3
 72
8
 73
4
 74
0
 40
0
 40
0
 40
0
 40
0
 40
1
 40
1
 40
1
 40
1
 10
69.865341
 20
554.951138
 30
0.0
 10
69.384619
 20
554.854994
 30
0.0
 10
68.613412
 20
554.268529
 30
0.0
 10
67.838976
 20
553.410176
 30
0.0
  0
SPLINE
  5
57b
100
AcDbEntity
  8
0
 62
7
100
AcDbSpline
 70
8
 71
3
 72
8
 73
4
 74
0
 40
0
 40
0
 40
0
 40
0
 40
1
 40
1
 40
1
 40
1
 10
67.838976
 20
553.410176
 30
0.0
 10
65.530460
 20
550.851583
 30
0.0
 10
64.333670
 20
549.758201
 30
0.0
 10
63.841572
 20
549.758201
 30
0.0
  0
SPLINE
  5
57c
100
AcDbEntity
  8
0
 62
7
100
AcDbSpline
 70
8
 71
3
 72
8
 73
4
 74
0
 40
0
 40
0
 40
0
 40
0
 40
1
 40
1
 40
1
 40
1
 10
63.841572
 20
549.758201
 30
0.0
 10
63.204746
 20
549.758201
 30
0.0
 10
62.022958
 20
550.697707
 30
0.0
 10
61.426905
 20
551.677816
 30
0.0
  0
LWPOLYLINE
  5
57d
100
AcDbEntity
  8
0
 62
7
100
AcDbPolyline
 90
3
 70
0
 10
64.257788
 20
585.448852
 30
0.0
 10
65.133453
 20
586.611378
 30
0.0
 10
65.133453
 20
585.131675
 30
0.0
  0
SPLINE
  5
57e
100
AcDbEntity
  8
0
 62
7
100
AcDbSpline
 70
8
 71
3
 72
8
 73
4
 74
0
 40
0
 40
0
 40
0
 40
0
 40
1
 40
1
 40
1
 40
1
 10
60.779549
 20
551.414929
 30
0.0
 10
60.683002
 20
550.843582
 30
0.0
 10
60.742454
 20
549.335854
 30
0.0
 10
60.911655
 20
548.064417
 30
0.0
  0
SPLINE
  5
57f
100
AcDbEntity
  8
0
 62
7
100
AcDbSpline
 70
8
 71
3
 72
8
 73
4
 74
0
 40
0
 40
0
 40
0
 40
0
 40
1
 40
1
 40
1
 40
1
 10
60.911655
 20
548.064417
 30
0.0
 10
61.258630
 20
545.457044
 30
0.0
 10
61.089323
 20
543.700473
 30
0.0
 10
60.410191
 20
542.861786
 30
0.0
  0
LWPOLYLINE
  5
580
100
AcDbEntity
  8
0
 62
7
100
AcDbPolyline
 90
3
 70
0
 10
61.426905
 20
551.677816
 30
0.0
 10
60.955047
 20
552.453741
 30
0.0
 10
60.779549
 20
551.414929
 30
0.0
  0
SPLINE
  5
581
100
AcDbEntity
  8
0
 62
7
100
AcDbSpline
 70
8
 71
3
 72
8
 73
4
 74
0
 40
0
 40
0
 40
0
 40
0
 40
1
 40
1
 40
1
 40
1
 10
59.300211
 20
543.245450
 30
0.0
 10
58.943235
 20
543.769537
 30
0.0
 10
58.591630
 20
544.198395
 30
0.0
 10
58.518870
 20
544.198469
 30
0.0
  0
SPLINE
  5
582
100
AcDbEntity
  8
0
 62
7
100
AcDbSpline
 70
8
 71
3
 72
8
 73
4
 74
0
 40
0
 40
0
 40
0
 40
0
 40
1
 40
1
 40
1
 40
1
 10
58.518870
 20
544.198469
 30
0.0
 10
58.446109
 20
544.198545
 30
0.0
 10
58.183775
 20
543.842170
 30
0.0
 10
57.935887
 20
543.406528
 30
0.0
  0
SPLINE
  5
583
100
AcDbEntity
  8
0
 62
7
100
AcDbSpline
 70
8
 71
3
 72
8
 73
4
 74
0
 40
0
 40
0
 40
0
 40
0
 40
1
 40
1
 40
1
 40
1
 10
57.935887
 20
543.406528
 30
0.0
 10
57.687972
 20
542.970884
 30
0.0
 10
57.271264
 20
542.611149
 30
0.0
 10
57.009834
 20
542.607111
 30
0.0
  0
SPLINE
  5
584
100
AcDbEntity
  8
0
 62
7
100
AcDbSpline
 70
8
 71
3
 72
8
 73
4
 74
0
 40
0
 40
0
 40
0
 40
0
 40
1
 40
1
 40
1
 40
1
 10
57.009834
 20
542.607111
 30
0.0
 10
56.748405
 20
542.603089
 30
0.0
 10
55.927659
 20
543.276213
 30
0.0
 10
55.185958
 20
544.102973
 30
0.0
  0
SPLINE
  5
585
100
AcDbEntity
  8
0
 62
7
100
AcDbSpline
 70
8
 71
3
 72
8
 73
4
 74
0
 40
0
 40
0
 40
0
 40
0
 40
1
 40
1
 40
1
 40
1
 10
55.185958
 20
544.102973
 30
0.0
 10
54.444257
 20
544.929735
 30
0.0
 10
53.709507
 20
545.527124
 30
0.0
 10
53.553177
 20
545.430509
 30
0.0
  0
SPLINE
  5
586
100
AcDbEntity
  8
0
 62
7
100
AcDbSpline
 70
8
 71
3
 72
8
 73
4
 74
0
 40
0
 40
0
 40
0
 40
0
 40
1
 40
1
 40
1
 40
1
 10
53.553177
 20
545.430509
 30
0.0
 10
53.396851
 20
545.333894
 30
0.0
 10
52.884618
 20
544.180429
 30
0.0
 10
52.414882
 20
542.867252
 30
0.0
  0
LWPOLYLINE
  5
587
100
AcDbEntity
  8
0
 62
7
100
AcDbPolyline
 90
3
 70
0
 10
60.410191
 20
542.861786
 30
0.0
 10
59.949286
 20
542.292564
 30
0.0
 10
59.300211
 20
543.245450
 30
0.0
  0
SPLINE
  5
588
100
AcDbEntity
  8
0
 62
7
100
AcDbSpline
 70
8
 71
3
 72
8
 73
4
 74
0
 40
0
 40
0
 40
0
 40
0
 40
1
 40
1
 40
1
 40
1
 10
50.960084
 20
541.044024
 30
0.0
 10
50.292725
 20
541.670973
 30
0.0
 10
50.076145
 20
542.166860
 30
0.0
 10
49.291957
 20
544.863409
 30
0.0
  0
SPLINE
  5
589
100
AcDbEntity
  8
0
 62
7
100
AcDbSpline
 70
8
 71
3
 72
8
 73
4
 74
0
 40
0
 40
0
 40
0
 40
0
 40
1
 40
1
 40
1
 40
1
 10
49.291957
 20
544.863409
 30
0.0
 10
48.995722
 20
545.882055
 30
0.0
 10
48.573129
 20
546.953617
 30
0.0
 10
48.352863
 20
547.244659
 30
0.0
  0
SPLINE
  5
58a
100
AcDbEntity
  8
0
 62
7
100
AcDbSpline
 70
8
 71
3
 72
8
 73
4
 74
0
 40
0
 40
0
 40
0
 40
0
 40
1
 40
1
 40
1
 40
1
 10
48.352863
 20
547.244659
 30
0.0
 10
47.976824
 20
547.741525
 30
0.0
 10
47.949152
 20
547.693075
 30
0.0
 10
47.899516
 20
546.450909
 30
0.0
  0
SPLINE
  5
58b
100
AcDbEntity
  8
0
 62
7
100
AcDbSpline
 70
8
 71
3
 72
8
 73
4
 74
0
 40
0
 40
0
 40
0
 40
0
 40
1
 40
1
 40
1
 40
1
 10
47.899516
 20
546.450909
 30
0.0
 10
47.870441
 20
545.723305
 30
0.0
 10
47.879619
 20
543.988956
 30
0.0
 10
47.919915
 20
542.596800
 30
0.0
  0
SPLINE
  5
58c
100
AcDbEntity
  8
0
 62
7
100
AcDbSpline
 70
8
 71
3
 72
8
 73
4
 74
0
 40
0
 40
0
 40
0
 40
0
 40
1
 40
1
 40
1
 40
1
 10
47.919915
 20
542.596800
 30
0.0
 10
48.007143
 20
539.583627
 30
0.0
 10
47.610916
 20
537.433456
 30
0.0
 10
46.728930
 20
536.133778
 30
0.0
  0
SPLINE
  5
58d
100
AcDbEntity
  8
0
 62
7
100
AcDbSpline
 70
8
 71
3
 72
8
 73
4
 74
0
 40
0
 40
0
 40
0
 40
0
 40
1
 40
1
 40
1
 40
1
 10
46.728930
 20
536.133778
 30
0.0
 10
46.373920
 20
535.610641
 30
0.0
 10
46.083455
 20
535.142818
 30
0.0
 10
46.083455
 20
535.094175
 30
0.0
  0
SPLINE
  5
58e
100
AcDbEntity
  8
0
 62
7
100
AcDbSpline
 70
8
 71
3
 72
8
 73
4
 74
0
 40
0
 40
0
 40
0
 40
0
 40
1
 40
1
 40
1
 40
1
 10
46.083455
 20
535.094175
 30
0.0
 10
46.083455
 20
534.730219
 30
0.0
 10
47.907379
 20
534.362737
 30
0.0
 10
49.101904
 20
534.486022
 30
0.0
  0
SPLINE
  5
58f
100
AcDbEntity
  8
0
 62
7
100
AcDbSpline
 70
8
 71
3
 72
8
 73
4
 74
0
 40
0
 40
0
 40
0
 40
0
 40
1
 40
1
 40
1
 40
1
 10
49.101904
 20
534.486022
 30
0.0
 10
50.905227
 20
534.672140
 30
0.0
 10
52.355369
 20
535.407497
 30
0.0
 10
54.728869
 20
537.339408
 30
0.0
  0
LWPOLYLINE
  5
590
100
AcDbEntity
  8
0
 62
7
100
AcDbPolyline
 90
3
 70
0
 10
52.414882
 20
542.867252
 30
0.0
 10
51.560820
 20
540.479663
 30
0.0
 10
50.960084
 20
541.044024
 30
0.0
  0
SPLINE
  5
591
100
AcDbEntity
  8
0
 62
7
100
AcDbSpline
 70
8
 71
3
 72
8
 73
4
 74
0
 40
0
 40
0
 40
0
 40
0
 40
1
 40
1
 40
1
 40
1
 10
56.809711
 20
537.182388
 30
0.0
 10
57.054038
 20
534.900910
 30
0.0
 10
56.832386
 20
533.874268
 30
0.0
 10
55.554777
 20
531.369659
 30
0.0
  0
SPLINE
  5
592
100
AcDbEntity
  8
0
 62
7
100
AcDbSpline
 70
8
 71
3
 72
8
 73
4
 74
0
 40
0
 40
0
 40
0
 40
0
 40
1
 40
1
 40
1
 40
1
 10
55.554777
 20
531.369659
 30
0.0
 10
54.960927
 20
530.205492
 30
0.0
 10
54.336423
 20
528.721476
 30
0.0
 10
54.166987
 20
528.071847
 30
0.0
  0
LWPOLYLINE
  5
593
100
AcDbEntity
  8
0
 62
7
100
AcDbPolyline
 90
3
 70
0
 10
54.728869
 20
537.339408
 30
0.0
 10
56.627408
 20
538.884725
 30
0.0
 10
56.809711
 20
537.182388
 30
0.0
  0
SPLINE
  5
594
100
AcDbEntity
  8
0
 62
7
100
AcDbSpline
 70
8
 71
3
 72
8
 73
4
 74
0
 40
0
 40
0
 40
0
 40
0
 40
1
 40
1
 40
1
 40
1
 10
50.779810
 20
516.051644
 30
0.0
 10
51.325513
 20
516.421955
 30
0.0
 10
52.094884
 20
516.789540
 30
0.0
 10
52.489521
 20
516.868466
 30
0.0
  0
SPLINE
  5
595
100
AcDbEntity
  8
0
 62
7
100
AcDbSpline
 70
8
 71
3
 72
8
 73
4
 74
0
 40
0
 40
0
 40
0
 40
0
 40
1
 40
1
 40
1
 40
1
 10
52.489521
 20
516.868466
 30
0.0
 10
52.884160
 20
516.947391
 30
0.0
 10
53.395703
 20
517.299895
 30
0.0
 10
53.626282
 20
517.651817
 30
0.0
  0
SPLINE
  5
596
100
AcDbEntity
  8
0
 62
7
100
AcDbSpline
 70
8
 71
3
 72
8
 73
4
 74
0
 40
0
 40
0
 40
0
 40
0
 40
1
 40
1
 40
1
 40
1
 10
53.626282
 20
517.651817
 30
0.0
 10
55.458770
 20
520.448543
 30
0.0
 10
58.660157
 20
521.662739
 30
0.0
 10
63.254117
 20
521.303358
 30
0.0
  0
SPLINE
  5
597
100
AcDbEntity
  8
0
 62
7
100
AcDbSpline
 70
8
 71
3
 72
8
 73
4
 74
0
 40
0
 40
0
 40
0
 40
0
 40
1
 40
1
 40
1
 40
1
 10
63.254117
 20
521.303358
 30
0.0
 10
67.443424
 20
520.975646
 30
0.0
 10
70.484227
 20
521.797449
 30
0.0
 10
72.351180
 20
523.761944
 30
0.0
  0
SPLINE
  5
598
100
AcDbEntity
  8
0
 62
7
100
AcDbSpline
 70
8
 71
3
 72
8
 73
4
 74
0
 40
0
 40
0
 40
0
 40
0
 40
1
 40
1
 40
1
 40
1
 10
72.351180
 20
523.761944
 30
0.0
 10
72.755675
 20
524.187571
 30
0.0
 10
74.221017
 20
527.016602
 30
0.0
 10
75.607513
 20
530.048679
 30
0.0
  0
SPLINE
  5
599
100
AcDbEntity
  8
0
 62
7
100
AcDbSpline
 70
8
 71
3
 72
8
 73
4
 74
0
 40
0
 40
0
 40
0
 40
0
 40
1
 40
1
 40
1
 40
1
 10
75.607513
 20
530.048679
 30
0.0
 10
78.699778
 20
536.811133
 30
0.0
 10
79.868760
 20
538.812581
 30
0.0
 10
82.018949
 20
541.025784
 30
0.0
  0
LWPOLYLINE
  5
59a
100
AcDbEntity
  8
0
 62
7
100
AcDbPolyline
 90
7
 70
0
 10
54.166987
 20
528.071847
 30
0.0
 10
53.858922
 20
526.890702
 30
0.0
 10
51.823271
 20
526.388560
 30
0.0
 10
49.787622
 20
525.886418
 30
0.0
 10
49.787622
 20
520.632375
 30
0.0
 10
49.787622
 20
515.378306
 30
0.0
 10
50.779810
 20
516.051644
 30
0.0
  0
SPLINE
  5
59b
100
AcDbEntity
  8
0
 62
7
100
AcDbSpline
 70
8
 71
3
 72
8
 73
4
 74
0
 40
0
 40
0
 40
0
 40
0
 40
1
 40
1
 40
1
 40
1
 10
83.569196
 20
541.026951
 30
0.0
 10
83.498050
 20
540.021793
 30
0.0
 10
83.050666
 20
538.163058
 30
0.0
 10
82.492554
 20
536.553844
 30
0.0
  0
SPLINE
  5
59c
100
AcDbEntity
  8
0
 62
7
100
AcDbSpline
 70
8
 71
3
 72
8
 73
4
 74
0
 40
0
 40
0
 40
0
 40
0
 40
1
 40
1
 40
1
 40
1
 10
82.492554
 20
536.553844
 30
0.0
 10
81.309337
 20
533.142351
 30
0.0
 10
81.255679
 20
531.694697
 30
0.0
 10
82.245062
 20
529.876896
 30
0.0
  0
LWPOLYLINE
  5
59d
100
AcDbEntity
  8
0
 62
7
100
AcDbPolyline
 90
3
 70
0
 10
82.018949
 20
541.025784
 30
0.0
 10
83.690904
 20
542.746742
 30
0.0
 10
83.569196
 20
541.026951
 30
0.0
  0
SPLINE
  5
59e
100
AcDbEntity
  8
0
 62
7
100
AcDbSpline
 70
8
 71
3
 72
8
 73
4
 74
0
 40
0
 40
0
 40
0
 40
0
 40
1
 40
1
 40
1
 40
1
 10
82.437732
 20
527.327551
 30
0.0
 10
82.154628
 20
526.640293
 30
0.0
 10
81.670864
 20
525.966129
 30
0.0
 10
81.362677
 20
525.829406
 30
0.0
  0
SPLINE
  5
59f
100
AcDbEntity
  8
0
 62
7
100
AcDbSpline
 70
8
 71
3
 72
8
 73
4
 74
0
 40
0
 40
0
 40
0
 40
0
 40
1
 40
1
 40
1
 40
1
 10
81.362677
 20
525.829406
 30
0.0
 10
80.902408
 20
525.625200
 30
0.0
 10
80.771174
 20
525.264377
 30
0.0
 10
80.627717
 20
523.808325
 30
0.0
  0
SPLINE
  5
5a0
100
AcDbEntity
  8
0
 62
7
100
AcDbSpline
 70
8
 71
3
 72
8
 73
4
 74
0
 40
0
 40
0
 40
0
 40
0
 40
1
 40
1
 40
1
 40
1
 10
80.627717
 20
523.808325
 30
0.0
 10
80.379247
 20
521.286981
 30
0.0
 10
79.641351
 20
520.021320
 30
0.0
 10
77.337756
 20
518.165321
 30
0.0
  0
SPLINE
  5
5a1
100
AcDbEntity
  8
0
 62
7
100
AcDbSpline
 70
8
 71
3
 72
8
 73
4
 74
0
 40
0
 40
0
 40
0
 40
0
 40
1
 40
1
 40
1
 40
1
 10
77.337756
 20
518.165321
 30
0.0
 10
74.823077
 20
516.139274
 30
0.0
 10
74.548413
 20
515.507158
 30
0.0
 10
74.740209
 20
512.187378
 30
0.0
  0
SPLINE
  5
5a2
100
AcDbEntity
  8
0
 62
7
100
AcDbSpline
 70
8
 71
3
 72
8
 73
4
 74
0
 40
0
 40
0
 40
0
 40
0
 40
1
 40
1
 40
1
 40
1
 10
74.740209
 20
512.187378
 30
0.0
 10
74.820087
 20
510.804930
 30
0.0
 10
74.967327
 20
509.405946
 30
0.0
 10
75.067393
 20
509.078524
 30
0.0
  0
SPLINE
  5
5a3
100
AcDbEntity
  8
0
 62
7
100
AcDbSpline
 70
8
 71
3
 72
8
 73
4
 74
0
 40
0
 40
0
 40
0
 40
0
 40
1
 40
1
 40
1
 40
1
 10
75.067393
 20
509.078524
 30
0.0
 10
75.222439
 20
508.571265
 30
0.0
 10
75.151398
 20
508.483211
 30
0.0
 10
74.587121
 20
508.483211
 30
0.0
  0
SPLINE
  5
5a4
100
AcDbEntity
  8
0
 62
7
100
AcDbSpline
 70
8
 71
3
 72
8
 73
4
 74
0
 40
0
 40
0
 40
0
 40
0
 40
1
 40
1
 40
1
 40
1
 10
74.587121
 20
508.483211
 30
0.0
 10
73.929737
 20
508.483211
 30
0.0
 10
73.922435
 20
508.457017
 30
0.0
 10
73.590489
 20
504.911336
 30
0.0
  0
SPLINE
  5
5a5
100
AcDbEntity
  8
0
 62
7
100
AcDbSpline
 70
8
 71
3
 72
8
 73
4
 74
0
 40
0
 40
0
 40
0
 40
0
 40
1
 40
1
 40
1
 40
1
 10
73.590489
 20
504.911336
 30
0.0
 10
73.406550
 20
502.946805
 30
0.0
 10
73.169457
 20
501.339461
 30
0.0
 10
73.063624
 20
501.339461
 30
0.0
  0
SPLINE
  5
5a6
100
AcDbEntity
  8
0
 62
7
100
AcDbSpline
 70
8
 71
3
 72
8
 73
4
 74
0
 40
0
 40
0
 40
0
 40
0
 40
1
 40
1
 40
1
 40
1
 10
73.063624
 20
501.339461
 30
0.0
 10
72.773932
 20
501.339461
 30
0.0
 10
72.348005
 20
501.919163
 30
0.0
 10
71.504699
 20
503.461287
 30
0.0
  0
LWPOLYLINE
  5
5a7
100
AcDbEntity
  8
0
 62
7
100
AcDbPolyline
 90
3
 70
0
 10
82.245062
 20
529.876896
 30
0.0
 10
82.952479
 20
528.577106
 30
0.0
 10
82.437732
 20
527.327551
 30
0.0
  0
SPLINE
  5
5a8
100
AcDbEntity
  8
0
 62
7
100
AcDbSpline
 70
8
 71
3
 72
8
 73
4
 74
0
 40
0
 40
0
 40
0
 40
0
 40
1
 40
1
 40
1
 40
1
 10
70.325424
 20
504.048318
 30
0.0
 10
69.293391
 20
502.052593
 30
0.0
 10
68.398649
 20
501.931175
 30
0.0
 10
66.448723
 20
503.522274
 30
0.0
  0
SPLINE
  5
5a9
100
AcDbEntity
  8
0
 62
7
100
AcDbSpline
 70
8
 71
3
 72
8
 73
4
 74
0
 40
0
 40
0
 40
0
 40
0
 40
1
 40
1
 40
1
 40
1
 10
66.448723
 20
503.522274
 30
0.0
 10
64.809047
 20
504.860166
 30
0.0
 10
63.767012
 20
505.569487
 30
0.0
 10
63.438347
 20
505.571392
 30
0.0
  0
SPLINE
  5
5aa
100
AcDbEntity
  8
0
 62
7
100
AcDbSpline
 70
8
 71
3
 72
8
 73
4
 74
0
 40
0
 40
0
 40
0
 40
0
 40
1
 40
1
 40
1
 40
1
 10
63.438347
 20
505.571392
 30
0.0
 10
63.296768
 20
505.571392
 30
0.0
 10
63.272321
 20
503.349289
 30
0.0
 10
63.378683
 20
500.148836
 30
0.0
  0
SPLINE
  5
5ab
100
AcDbEntity
  8
0
 62
7
100
AcDbSpline
 70
8
 71
3
 72
8
 73
4
 74
0
 40
0
 40
0
 40
0
 40
0
 40
1
 40
1
 40
1
 40
1
 10
63.378683
 20
500.148836
 30
0.0
 10
63.493168
 20
496.704464
 30
0.0
 10
63.465493
 20
494.724878
 30
0.0
 10
63.302827
 20
494.724878
 30
0.0
  0
SPLINE
  5
5ac
100
AcDbEntity
  8
0
 62
7
100
AcDbSpline
 70
8
 71
3
 72
8
 73
4
 74
0
 40
0
 40
0
 40
0
 40
0
 40
1
 40
1
 40
1
 40
1
 10
63.302827
 20
494.724878
 30
0.0
 10
63.161963
 20
494.724878
 30
0.0
 10
62.832821
 20
495.086960
 30
0.0
 10
62.571387
 20
495.529502
 30
0.0
  0
SPLINE
  5
5ad
100
AcDbEntity
  8
0
 62
7
100
AcDbSpline
 70
8
 71
3
 72
8
 73
4
 74
0
 40
0
 40
0
 40
0
 40
0
 40
1
 40
1
 40
1
 40
1
 10
62.571387
 20
495.529502
 30
0.0
 10
62.309978
 20
495.972071
 30
0.0
 10
61.839814
 20
496.398473
 30
0.0
 10
61.526600
 20
496.477081
 30
0.0
  0
SPLINE
  5
5ae
100
AcDbEntity
  8
0
 62
7
100
AcDbSpline
 70
8
 71
3
 72
8
 73
4
 74
0
 40
0
 40
0
 40
0
 40
0
 40
1
 40
1
 40
1
 40
1
 10
61.526600
 20
496.477081
 30
0.0
 10
60.855908
 20
496.645409
 30
0.0
 10
59.449224
 20
495.980299
 30
0.0
 10
59.079786
 20
495.320190
 30
0.0
  0
SPLINE
  5
5af
100
AcDbEntity
  8
0
 62
7
100
AcDbSpline
 70
8
 71
3
 72
8
 73
4
 74
0
 40
0
 40
0
 40
0
 40
0
 40
1
 40
1
 40
1
 40
1
 10
59.079786
 20
495.320190
 30
0.0
 10
58.847191
 20
494.904530
 30
0.0
 10
58.796285
 20
494.924850
 30
0.0
 10
58.582502
 20
495.518628
 30
0.0
  0
SPLINE
  5
5b0
100
AcDbEntity
  8
0
 62
7
100
AcDbSpline
 70
8
 71
3
 72
8
 73
4
 74
0
 40
0
 40
0
 40
0
 40
0
 40
1
 40
1
 40
1
 40
1
 10
58.582502
 20
495.518628
 30
0.0
 10
58.451533
 20
495.882430
 30
0.0
 10
57.709906
 20
497.966024
 30
0.0
 10
56.934441
 20
500.148836
 30
0.0
  0
SPLINE
  5
5b1
100
AcDbEntity
  8
0
 62
7
100
AcDbSpline
 70
8
 71
3
 72
8
 73
4
 74
0
 40
0
 40
0
 40
0
 40
0
 40
1
 40
1
 40
1
 40
1
 10
56.934441
 20
500.148836
 30
0.0
 10
55.411238
 20
504.436462
 30
0.0
 10
55.096185
 20
505.053153
 30
0.0
 10
55.048822
 20
503.839774
 30
0.0
  0
SPLINE
  5
5b2
100
AcDbEntity
  8
0
 62
7
100
AcDbSpline
 70
8
 71
3
 72
8
 73
4
 74
0
 40
0
 40
0
 40
0
 40
0
 40
1
 40
1
 40
1
 40
1
 10
55.048822
 20
503.839774
 30
0.0
 10
54.998480
 20
502.550115
 30
0.0
 10
55.091761
 20
502.142022
 30
0.0
 10
55.895997
 20
500.133543
 30
0.0
  0
SPLINE
  5
5b3
100
AcDbEntity
  8
0
 62
7
100
AcDbSpline
 70
8
 71
3
 72
8
 73
4
 74
0
 40
0
 40
0
 40
0
 40
0
 40
1
 40
1
 40
1
 40
1
 10
55.895997
 20
500.133543
 30
0.0
 10
56.679796
 20
498.176103
 30
0.0
 10
56.883435
 20
496.841545
 30
0.0
 10
56.398316
 20
496.841545
 30
0.0
  0
SPLINE
  5
5b4
100
AcDbEntity
  8
0
 62
7
100
AcDbSpline
 70
8
 71
3
 72
8
 73
4
 74
0
 40
0
 40
0
 40
0
 40
0
 40
1
 40
1
 40
1
 40
1
 10
56.398316
 20
496.841545
 30
0.0
 10
55.917695
 20
496.841545
 30
0.0
 10
55.081292
 20
495.145618
 30
0.0
 10
55.080278
 20
494.169041
 30
0.0
  0
SPLINE
  5
5b5
100
AcDbEntity
  8
0
 62
7
100
AcDbSpline
 70
8
 71
3
 72
8
 73
4
 74
0
 40
0
 40
0
 40
0
 40
0
 40
1
 40
1
 40
1
 40
1
 10
55.080278
 20
494.169041
 30
0.0
 10
55.079220
 20
493.152830
 30
0.0
 10
55.542955
 20
491.549878
 30
0.0
 10
55.837997
 20
491.549878
 30
0.0
  0
SPLINE
  5
5b6
100
AcDbEntity
  8
0
 62
7
100
AcDbSpline
 70
8
 71
3
 72
8
 73
4
 74
0
 40
0
 40
0
 40
0
 40
0
 40
1
 40
1
 40
1
 40
1
 10
55.837997
 20
491.549878
 30
0.0
 10
55.935774
 20
491.549878
 30
0.0
 10
59.347174
 20
492.657450
 30
0.0
 10
63.418873
 20
494.011138
 30
0.0
  0
LWPOLYLINE
  5
5b7
100
AcDbEntity
  8
0
 62
7
100
AcDbPolyline
 90
3
 70
0
 10
71.504699
 20
503.461287
 30
0.0
 10
70.742567
 20
504.854980
 30
0.0
 10
70.325424
 20
504.048318
 30
0.0
  0
SPLINE
  5
5b8
100
AcDbEntity
  8
0
 62
7
100
AcDbSpline
 70
8
 71
3
 72
8
 73
4
 74
0
 40
0
 40
0
 40
0
 40
0
 40
1
 40
1
 40
1
 40
1
 10
73.335536
 20
495.716801
 30
0.0
 10
82.566055
 20
492.941930
 30
0.0
 10
91.550061
 20
491.635682
 30
0.0
 10
112.890744
 20
489.965632
 30
0.0
  0
SPLINE
  5
5b9
100
AcDbEntity
  8
0
 62
7
100
AcDbSpline
 70
8
 71
3
 72
8
 73
4
 74
0
 40
0
 40
0
 40
0
 40
0
 40
1
 40
1
 40
1
 40
1
 10
112.890744
 20
489.965632
 30
0.0
 10
129.848896
 20
488.638535
 30
0.0
 10
137.289164
 20
487.606581
 30
0.0
 10
146.360536
 20
485.323359
 30
0.0
  0
SPLINE
  5
5ba
100
AcDbEntity
  8
0
 62
7
100
AcDbSpline
 70
8
 71
3
 72
8
 73
4
 74
0
 40
0
 40
0
 40
0
 40
0
 40
1
 40
1
 40
1
 40
1
 10
146.360536
 20
485.323359
 30
0.0
 10
152.537737
 20
483.768614
 30
0.0
 10
158.324624
 20
481.592866
 30
0.0
 10
163.558453
 20
478.857366
 30
0.0
  0
SPLINE
  5
5bb
100
AcDbEntity
  8
0
 62
7
100
AcDbSpline
 70
8
 71
3
 72
8
 73
4
 74
0
 40
0
 40
0
 40
0
 40
0
 40
1
 40
1
 40
1
 40
1
 10
163.558453
 20
478.857366
 30
0.0
 10
164.940901
 20
478.134841
 30
0.0
 10
166.202619
 20
477.539899
 30
0.0
 10
166.362269
 20
477.535296
 30
0.0
  0
SPLINE
  5
5bc
100
AcDbEntity
  8
0
 62
7
100
AcDbSpline
 70
8
 71
3
 72
8
 73
4
 74
0
 40
0
 40
0
 40
0
 40
0
 40
1
 40
1
 40
1
 40
1
 10
166.362269
 20
477.535296
 30
0.0
 10
166.522924
 20
477.530798
 30
0.0
 10
166.773828
 20
478.383470
 30
0.0
 10
166.924164
 20
479.445190
 30
0.0
  0
LWPOLYLINE
  5
5bd
100
AcDbEntity
  8
0
 62
7
100
AcDbPolyline
 90
3
 70
0
 10
63.418873
 20
494.011138
 30
0.0
 10
70.821994
 20
496.472424
 30
0.0
 10
73.335536
 20
495.716801
 30
0.0
  0
SPLINE
  5
5be
100
AcDbEntity
  8
0
 62
7
100
AcDbSpline
 70
8
 71
3
 72
8
 73
4
 74
0
 40
0
 40
0
 40
0
 40
0
 40
1
 40
1
 40
1
 40
1
 10
592.663571
 20
483.961972
 30
0.0
 10
592.735247
 20
484.832530
 30
0.0
 10
592.562791
 20
485.211440
 30
0.0
 10
591.422543
 20
486.688450
 30
0.0
  0
SPLINE
  5
5bf
100
AcDbEntity
  8
0
 62
7
100
AcDbSpline
 70
8
 71
3
 72
8
 73
4
 74
0
 40
0
 40
0
 40
0
 40
0
 40
1
 40
1
 40
1
 40
1
 10
591.422543
 20
486.688450
 30
0.0
 10
589.757123
 20
488.845783
 30
0.0
 10
589.409275
 20
489.826065
 30
0.0
 10
589.797578
 20
491.268070
 30
0.0
  0
LWPOLYLINE
  5
5c0
100
AcDbEntity
  8
0
 62
7
100
AcDbPolyline
 90
1
 70
1
 10
166.924164
 20
479.445190
 30
0.0
  0
SPLINE
  5
5c1
100
AcDbEntity
  8
0
 62
7
100
AcDbSpline
 70
8
 71
3
 72
8
 73
4
 74
0
 40
0
 40
0
 40
0
 40
0
 40
1
 40
1
 40
1
 40
1
 10
592.458228
 20
492.343628
 30
0.0
 10
593.762306
 20
492.343628
 30
0.0
 10
594.829291
 20
492.444805
 30
0.0
 10
594.829291
 20
492.568497
 30
0.0
  0
SPLINE
  5
5c2
100
AcDbEntity
  8
0
 62
7
100
AcDbSpline
 70
8
 71
3
 72
8
 73
4
 74
0
 40
0
 40
0
 40
0
 40
0
 40
1
 40
1
 40
1
 40
1
 10
594.829291
 20
492.568497
 30
0.0
 10
594.829291
 20
492.898142
 30
0.0
 10
591.728243
 20
494.160627
 30
0.0
 10
589.491667
 20
494.741547
 30
0.0
  0
SPLINE
  5
5c3
100
AcDbEntity
  8
0
 62
7
100
AcDbSpline
 70
8
 71
3
 72
8
 73
4
 74
0
 40
0
 40
0
 40
0
 40
0
 40
1
 40
1
 40
1
 40
1
 10
589.491667
 20
494.741547
 30
0.0
 10
587.469641
 20
495.266745
 30
0.0
 10
583.940391
 20
495.439015
 30
0.0
 10
581.794646
 20
495.117255
 30
0.0
  0
SPLINE
  5
5c4
100
AcDbEntity
  8
0
 62
7
100
AcDbSpline
 70
8
 71
3
 72
8
 73
4
 74
0
 40
0
 40
0
 40
0
 40
0
 40
1
 40
1
 40
1
 40
1
 10
581.794646
 20
495.117255
 30
0.0
 10
580.585712
 20
494.935962
 30
0.0
 10
580.546184
 20
494.899556
 30
0.0
 10
580.014450
 20
493.478346
 30
0.0
  0
SPLINE
  5
5c5
100
AcDbEntity
  8
0
 62
7
100
AcDbSpline
 70
8
 71
3
 72
8
 73
4
 74
0
 40
0
 40
0
 40
0
 40
0
 40
1
 40
1
 40
1
 40
1
 10
580.014450
 20
493.478346
 30
0.0
 10
579.715339
 20
492.678934
 30
0.0
 10
579.277268
 20
491.329453
 30
0.0
 10
579.040969
 20
490.479506
 30
0.0
  0
LWPOLYLINE
  5
5c6
100
AcDbEntity
  8
0
 62
7
100
AcDbPolyline
 90
3
 70
0
 10
589.797578
 20
491.268070
 30
0.0
 10
590.087191
 20
492.343628
 30
0.0
 10
592.458228
 20
492.343628
 30
0.0
  0
SPLINE
  5
5c7
100
AcDbEntity
  8
0
 62
7
100
AcDbSpline
 70
8
 71
3
 72
8
 73
4
 74
0
 40
0
 40
0
 40
0
 40
0
 40
1
 40
1
 40
1
 40
1
 10
581.250293
 20
488.342096
 30
0.0
 10
582.930767
 20
490.047838
 30
0.0
 10
583.439085
 20
489.869006
 30
0.0
 10
586.784900
 20
486.394816
 30
0.0
  0
SPLINE
  5
5c8
100
AcDbEntity
  8
0
 62
7
100
AcDbSpline
 70
8
 71
3
 72
8
 73
4
 74
0
 40
0
 40
0
 40
0
 40
0
 40
1
 40
1
 40
1
 40
1
 10
586.784900
 20
486.394816
 30
0.0
 10
589.466637
 20
483.610182
 30
0.0
 10
590.690520
 20
482.774442
 30
0.0
 10
591.918875
 20
482.889139
 30
0.0
  0
SPLINE
  5
5c9
100
AcDbEntity
  8
0
 62
7
100
AcDbSpline
 70
8
 71
3
 72
8
 73
4
 74
0
 40
0
 40
0
 40
0
 40
0
 40
1
 40
1
 40
1
 40
1
 10
591.918875
 20
482.889139
 30
0.0
 10
592.481273
 20
482.941659
 30
0.0
 10
592.592795
 20
483.102314
 30
0.0
 10
592.663571
 20
483.961972
 30
0.0
  0
LWPOLYLINE
  5
5ca
100
AcDbEntity
  8
0
 62
7
100
AcDbPolyline
 90
5
 70
0
 10
579.040969
 20
490.479506
 30
0.0
 10
578.611312
 20
488.934101
 30
0.0
 10
579.360453
 20
488.059177
 30
0.0
 10
580.109595
 20
487.184253
 30
0.0
 10
581.250293
 20
488.342096
 30
0.0
  0
SPLINE
  5
5cb
100
AcDbEntity
  8
0
 62
7
100
AcDbSpline
 70
8
 71
3
 72
8
 73
4
 74
0
 40
0
 40
0
 40
0
 40
0
 40
1
 40
1
 40
1
 40
1
 10
598.268875
 20
485.547249
 30
0.0
 10
598.268875
 20
485.883826
 30
0.0
 10
597.917402
 20
486.495939
 30
0.0
 10
597.487798
 20
486.907499
 30
0.0
  0
SPLINE
  5
5cc
100
AcDbEntity
  8
0
 62
7
100
AcDbSpline
 70
8
 71
3
 72
8
 73
4
 74
0
 40
0
 40
0
 40
0
 40
0
 40
1
 40
1
 40
1
 40
1
 10
597.487798
 20
486.907499
 30
0.0
 10
596.766465
 20
487.598590
 30
0.0
 10
596.645339
 20
487.630393
 30
0.0
 10
595.903659
 20
487.323186
 30
0.0
  0
SPLINE
  5
5cd
100
AcDbEntity
  8
0
 62
7
100
AcDbSpline
 70
8
 71
3
 72
8
 73
4
 74
0
 40
0
 40
0
 40
0
 40
0
 40
1
 40
1
 40
1
 40
1
 10
595.903659
 20
487.323186
 30
0.0
 10
594.945364
 20
486.926231
 30
0.0
 10
595.041752
 20
486.711972
 30
0.0
 10
596.632480
 20
485.703168
 30
0.0
  0
SPLINE
  5
5ce
100
AcDbEntity
  8
0
 62
7
100
AcDbSpline
 70
8
 71
3
 72
8
 73
4
 74
0
 40
0
 40
0
 40
0
 40
0
 40
1
 40
1
 40
1
 40
1
 10
596.632480
 20
485.703168
 30
0.0
 10
598.094779
 20
484.775804
 30
0.0
 10
598.268875
 20
484.759214
 30
0.0
 10
598.268875
 20
485.547249
 30
0.0
  0
LWPOLYLINE
  5
5cf
100
AcDbEntity
  8
0
 62
7
100
AcDbPolyline
 90
1
 70
1
 10
592.663571
 20
483.961972
 30
0.0
  0
SPLINE
  5
5d0
100
AcDbEntity
  8
0
 62
7
100
AcDbSpline
 70
8
 71
3
 72
8
 73
4
 74
0
 40
0
 40
0
 40
0
 40
0
 40
1
 40
1
 40
1
 40
1
 10
524.163184
 20
489.747113
 30
0.0
 10
526.034370
 20
491.863965
 30
0.0
 10
529.658871
 20
493.238475
 30
0.0
 10
531.049495
 20
492.358630
 30
0.0
  0
SPLINE
  5
5d1
100
AcDbEntity
  8
0
 62
7
100
AcDbSpline
 70
8
 71
3
 72
8
 73
4
 74
0
 40
0
 40
0
 40
0
 40
0
 40
1
 40
1
 40
1
 40
1
 10
531.049495
 20
492.358630
 30
0.0
 10
531.341965
 20
492.173580
 30
0.0
 10
531.546753
 20
492.375563
 30
0.0
 10
531.925821
 20
493.222574
 30
0.0
  0
SPLINE
  5
5d2
100
AcDbEntity
  8
0
 62
7
100
AcDbSpline
 70
8
 71
3
 72
8
 73
4
 74
0
 40
0
 40
0
 40
0
 40
0
 40
1
 40
1
 40
1
 40
1
 10
531.925821
 20
493.222574
 30
0.0
 10
532.197866
 20
493.830560
 30
0.0
 10
532.671523
 20
494.595417
 30
0.0
 10
532.978360
 20
494.922257
 30
0.0
  0
SPLINE
  5
5d3
100
AcDbEntity
  8
0
 62
7
100
AcDbSpline
 70
8
 71
3
 72
8
 73
4
 74
0
 40
0
 40
0
 40
0
 40
0
 40
1
 40
1
 40
1
 40
1
 10
532.978360
 20
494.922257
 30
0.0
 10
533.285197
 20
495.249097
 30
0.0
 10
533.486148
 20
495.551727
 30
0.0
 10
533.424950
 20
495.594748
 30
0.0
  0
SPLINE
  5
5d4
100
AcDbEntity
  8
0
 62
7
100
AcDbSpline
 70
8
 71
3
 72
8
 73
4
 74
0
 40
0
 40
0
 40
0
 40
0
 40
1
 40
1
 40
1
 40
1
 10
533.424950
 20
495.594748
 30
0.0
 10
533.363752
 20
495.637743
 30
0.0
 10
532.421571
 20
495.952042
 30
0.0
 10
531.331249
 20
496.293169
 30
0.0
  0
SPLINE
  5
5d5
100
AcDbEntity
  8
0
 62
7
100
AcDbSpline
 70
8
 71
3
 72
8
 73
4
 74
0
 40
0
 40
0
 40
0
 40
0
 40
1
 40
1
 40
1
 40
1
 10
531.331249
 20
496.293169
 30
0.0
 10
530.240928
 20
496.634296
 30
0.0
 10
528.471897
 20
497.313032
 30
0.0
 10
527.400097
 20
497.801479
 30
0.0
  0
SPLINE
  5
5d6
100
AcDbEntity
  8
0
 62
7
100
AcDbSpline
 70
8
 71
3
 72
8
 73
4
 74
0
 40
0
 40
0
 40
0
 40
0
 40
1
 40
1
 40
1
 40
1
 10
527.400097
 20
497.801479
 30
0.0
 10
526.328270
 20
498.289900
 30
0.0
 10
525.342459
 20
498.622243
 30
0.0
 10
525.209400
 20
498.540011
 30
0.0
  0
SPLINE
  5
5d7
100
AcDbEntity
  8
0
 62
7
100
AcDbSpline
 70
8
 71
3
 72
8
 73
4
 74
0
 40
0
 40
0
 40
0
 40
0
 40
1
 40
1
 40
1
 40
1
 10
525.209400
 20
498.540011
 30
0.0
 10
524.731985
 20
498.244974
 30
0.0
 10
523.379356
 20
495.227427
 30
0.0
 10
522.996398
 20
493.603097
 30
0.0
  0
SPLINE
  5
5d8
100
AcDbEntity
  8
0
 62
7
100
AcDbSpline
 70
8
 71
3
 72
8
 73
4
 74
0
 40
0
 40
0
 40
0
 40
0
 40
1
 40
1
 40
1
 40
1
 10
522.996398
 20
493.603097
 30
0.0
 10
522.584812
 20
491.857430
 30
0.0
 10
522.458580
 20
487.028440
 30
0.0
 10
522.849343
 20
487.978003
 30
0.0
  0
SPLINE
  5
5d9
100
AcDbEntity
  8
0
 62
7
100
AcDbSpline
 70
8
 71
3
 72
8
 73
4
 74
0
 40
0
 40
0
 40
0
 40
0
 40
1
 40
1
 40
1
 40
1
 10
522.849343
 20
487.978003
 30
0.0
 10
522.969120
 20
488.269045
 30
0.0
 10
523.560358
 20
489.065149
 30
0.0
 10
524.163184
 20
489.747113
 30
0.0
  0
LWPOLYLINE
  5
5da
100
AcDbEntity
  8
0
 62
7
100
AcDbPolyline
 90
1
 70
1
 10
598.268875
 20
485.547249
 30
0.0
  0
SPLINE
  5
5db
100
AcDbEntity
  8
0
 62
7
100
AcDbSpline
 70
8
 71
3
 72
8
 73
4
 74
0
 40
0
 40
0
 40
0
 40
0
 40
1
 40
1
 40
1
 40
1
 10
545.583057
 20
491.135540
 30
0.0
 10
545.986600
 20
491.344244
 30
0.0
 10
546.462850
 20
491.690954
 30
0.0
 10
546.641364
 20
491.906060
 30
0.0
  0
SPLINE
  5
5dc
100
AcDbEntity
  8
0
 62
7
100
AcDbSpline
 70
8
 71
3
 72
8
 73
4
 74
0
 40
0
 40
0
 40
0
 40
0
 40
1
 40
1
 40
1
 40
1
 10
546.641364
 20
491.906060
 30
0.0
 10
546.819852
 20
492.121140
 30
0.0
 10
547.585106
 20
492.440227
 30
0.0
 10
548.341868
 20
492.615117
 30
0.0
  0
SPLINE
  5
5dd
100
AcDbEntity
  8
0
 62
7
100
AcDbSpline
 70
8
 71
3
 72
8
 73
4
 74
0
 40
0
 40
0
 40
0
 40
0
 40
1
 40
1
 40
1
 40
1
 10
548.341868
 20
492.615117
 30
0.0
 10
553.981911
 20
493.918640
 30
0.0
 10
558.412915
 20
498.870422
 30
0.0
 10
559.749166
 20
505.363192
 30
0.0
  0
SPLINE
  5
5de
100
AcDbEntity
  8
0
 62
7
100
AcDbSpline
 70
8
 71
3
 72
8
 73
4
 74
0
 40
0
 40
0
 40
0
 40
0
 40
1
 40
1
 40
1
 40
1
 10
559.749166
 20
505.363192
 30
0.0
 10
560.462668
 20
508.830053
 30
0.0
 10
560.512780
 20
508.823439
 30
0.0
 10
557.081716
 20
505.715246
 30
0.0
  0
SPLINE
  5
5df
100
AcDbEntity
  8
0
 62
7
100
AcDbSpline
 70
8
 71
3
 72
8
 73
4
 74
0
 40
0
 40
0
 40
0
 40
0
 40
1
 40
1
 40
1
 40
1
 10
557.081716
 20
505.715246
 30
0.0
 10
551.814391
 20
500.943539
 30
0.0
 10
548.331999
 20
498.556124
 30
0.0
 10
542.970958
 20
496.041312
 30
0.0
  0
SPLINE
  5
5e0
100
AcDbEntity
  8
0
 62
7
100
AcDbSpline
 70
8
 71
3
 72
8
 73
4
 74
0
 40
0
 40
0
 40
0
 40
0
 40
1
 40
1
 40
1
 40
1
 10
542.970958
 20
496.041312
 30
0.0
 10
540.863129
 20
495.052564
 30
0.0
 10
540.197649
 20
494.861826
 30
0.0
 10
538.848009
 20
494.859710
 30
0.0
  0
LWPOLYLINE
  5
5e1
100
AcDbEntity
  8
0
 62
7
100
AcDbPolyline
 90
1
 70
1
 10
524.163184
 20
489.747113
 30
0.0
  0
SPLINE
  5
5e2
100
AcDbEntity
  8
0
 62
7
100
AcDbSpline
 70
8
 71
3
 72
8
 73
4
 74
0
 40
0
 40
0
 40
0
 40
0
 40
1
 40
1
 40
1
 40
1
 10
539.109603
 20
493.332111
 30
0.0
 10
542.165858
 20
490.841112
 30
0.0
 10
543.885464
 20
490.257573
 30
0.0
 10
545.583057
 20
491.135435
 30
0.0
  0
LWPOLYLINE
  5
5e3
100
AcDbEntity
  8
0
 62
7
100
AcDbPolyline
 90
3
 70
0
 10
538.848009
 20
494.859710
 30
0.0
 10
537.238601
 20
494.857064
 30
0.0
 10
539.109603
 20
493.332111
 30
0.0
  0
LWPOLYLINE
  5
5e4
100
AcDbEntity
  8
0
 62
7
100
AcDbPolyline
 90
2
 70
0
 10
545.583057
 20
491.135435
 30
0.0
 10
545.583057
 20
491.135540
 30
0.0
  0
SPLINE
  5
5e5
100
AcDbEntity
  8
0
 62
7
100
AcDbSpline
 70
8
 71
3
 72
8
 73
4
 74
0
 40
0
 40
0
 40
0
 40
0
 40
1
 40
1
 40
1
 40
1
 10
595.694003
 20
503.509230
 30
0.0
 10
594.277847
 20
504.571426
 30
0.0
 10
592.971864
 20
505.533636
 30
0.0
 10
592.791841
 20
505.647460
 30
0.0
  0
SPLINE
  5
5e6
100
AcDbEntity
  8
0
 62
7
100
AcDbSpline
 70
8
 71
3
 72
8
 73
4
 74
0
 40
0
 40
0
 40
0
 40
0
 40
1
 40
1
 40
1
 40
1
 10
592.791841
 20
505.647460
 30
0.0
 10
592.457249
 20
505.859047
 30
0.0
 10
590.699490
 20
504.904536
 30
0.0
 10
589.628536
 20
503.929758
 30
0.0
  0
SPLINE
  5
5e7
100
AcDbEntity
  8
0
 62
7
100
AcDbSpline
 70
8
 71
3
 72
8
 73
4
 74
0
 40
0
 40
0
 40
0
 40
0
 40
1
 40
1
 40
1
 40
1
 10
589.628536
 20
503.929758
 30
0.0
 10
589.252642
 20
503.587599
 30
0.0
 10
588.524800
 20
503.362068
 30
0.0
 10
587.495015
 20
503.268697
 30
0.0
  0
SPLINE
  5
5e8
100
AcDbEntity
  8
0
 62
7
100
AcDbSpline
 70
8
 71
3
 72
8
 73
4
 74
0
 40
0
 40
0
 40
0
 40
0
 40
1
 40
1
 40
1
 40
1
 10
587.495015
 20
503.268697
 30
0.0
 10
584.739909
 20
503.018877
 30
0.0
 10
583.707187
 20
503.993206
 30
0.0
 10
582.669015
 20
507.821753
 30
0.0
  0
SPLINE
  5
5e9
100
AcDbEntity
  8
0
 62
7
100
AcDbSpline
 70
8
 71
3
 72
8
 73
4
 74
0
 40
0
 40
0
 40
0
 40
0
 40
1
 40
1
 40
1
 40
1
 10
582.669015
 20
507.821753
 30
0.0
 10
581.837800
 20
510.887110
 30
0.0
 10
581.235741
 20
512.094932
 30
0.0
 10
580.235933
 20
512.702945
 30
0.0
  0
SPLINE
  5
5ea
100
AcDbEntity
  8
0
 62
7
100
AcDbSpline
 70
8
 71
3
 72
8
 73
4
 74
0
 40
0
 40
0
 40
0
 40
0
 40
1
 40
1
 40
1
 40
1
 10
580.235933
 20
512.702945
 30
0.0
 10
579.500894
 20
513.149958
 30
0.0
 10
579.331640
 20
513.173242
 30
0.0
 10
579.151882
 20
512.852011
 30
0.0
  0
SPLINE
  5
5eb
100
AcDbEntity
  8
0
 62
7
100
AcDbSpline
 70
8
 71
3
 72
8
 73
4
 74
0
 40
0
 40
0
 40
0
 40
0
 40
1
 40
1
 40
1
 40
1
 10
579.151882
 20
512.852011
 30
0.0
 10
578.864571
 20
512.338640
 30
0.0
 10
578.376600
 20
505.584066
 30
0.0
 10
578.476983
 20
503.509759
 30
0.0
  0
LWPOLYLINE
  5
5ec
100
AcDbEntity
  8
0
 62
7
100
AcDbPolyline
 90
3
 70
0
 10
598.268875
 20
497.093084
 30
0.0
 10
598.268875
 20
501.577983
 30
0.0
 10
595.694003
 20
503.509230
 30
0.0
  0
SPLINE
  5
5ed
100
AcDbEntity
  8
0
 62
7
100
AcDbSpline
 70
8
 71
3
 72
8
 73
4
 74
0
 40
0
 40
0
 40
0
 40
0
 40
1
 40
1
 40
1
 40
1
 10
581.265453
 20
500.939782
 30
0.0
 10
584.871327
 20
499.731430
 30
0.0
 10
589.621154
 20
497.562613
 30
0.0
 10
593.405039
 20
495.396708
 30
0.0
  0
SPLINE
  5
5ee
100
AcDbEntity
  8
0
 62
7
100
AcDbSpline
 70
8
 71
3
 72
8
 73
4
 74
0
 40
0
 40
0
 40
0
 40
0
 40
1
 40
1
 40
1
 40
1
 10
593.405039
 20
495.396708
 30
0.0
 10
596.649678
 20
493.539492
 30
0.0
 10
596.907011
 20
493.510017
 30
0.0
 10
596.962786
 20
494.989461
 30
0.0
  0
SPLINE
  5
5ef
100
AcDbEntity
  8
0
 62
7
100
AcDbSpline
 70
8
 71
3
 72
8
 73
4
 74
0
 40
0
 40
0
 40
0
 40
0
 40
1
 40
1
 40
1
 40
1
 10
596.962786
 20
494.989461
 30
0.0
 10
596.986069
 20
495.604961
 30
0.0
 10
597.207949
 20
495.111302
 30
0.0
 10
597.884647
 20
492.938940
 30
0.0
  0
SPLINE
  5
5f0
100
AcDbEntity
  8
0
 62
7
100
AcDbSpline
 70
8
 71
3
 72
8
 73
4
 74
0
 40
0
 40
0
 40
0
 40
0
 40
1
 40
1
 40
1
 40
1
 10
597.884647
 20
492.938940
 30
0.0
 10
598.175503
 20
492.005226
 30
0.0
 10
598.268875
 20
493.014664
 30
0.0
 10
598.268875
 20
497.093084
 30
0.0
  0
LWPOLYLINE
  5
5f1
100
AcDbEntity
  8
0
 62
7
100
AcDbPolyline
 90
3
 70
0
 10
578.476983
 20
503.509759
 30
0.0
 10
578.557416
 20
501.847250
 30
0.0
 10
581.265453
 20
500.939782
 30
0.0
  0
LWPOLYLINE
  5
5f2
100
AcDbEntity
  8
0
 62
7
100
AcDbPolyline
 90
1
 70
1
 10
598.268875
 20
497.093084
 30
0.0
  0
SPLINE
  5
5f3
100
AcDbEntity
  8
0
 62
7
100
AcDbSpline
 70
8
 71
3
 72
8
 73
4
 74
0
 40
0
 40
0
 40
0
 40
0
 40
1
 40
1
 40
1
 40
1
 10
596.416791
 20
506.631128
 30
0.0
 10
595.398146
 20
506.631128
 30
0.0
 10
594.564708
 20
506.522596
 30
0.0
 10
594.564708
 20
506.389960
 30
0.0
  0
SPLINE
  5
5f4
100
AcDbEntity
  8
0
 62
7
100
AcDbSpline
 70
8
 71
3
 72
8
 73
4
 74
0
 40
0
 40
0
 40
0
 40
0
 40
1
 40
1
 40
1
 40
1
 10
594.564708
 20
506.389960
 30
0.0
 10
594.564708
 20
506.172896
 30
0.0
 10
597.948570
 20
502.926961
 30
0.0
 10
598.174842
 20
502.926961
 30
0.0
  0
SPLINE
  5
5f5
100
AcDbEntity
  8
0
 62
7
100
AcDbSpline
 70
8
 71
3
 72
8
 73
4
 74
0
 40
0
 40
0
 40
0
 40
0
 40
1
 40
1
 40
1
 40
1
 10
598.174842
 20
502.926961
 30
0.0
 10
598.226568
 20
502.926961
 30
0.0
 10
598.268875
 20
503.760399
 30
0.0
 10
598.268875
 20
504.779045
 30
0.0
  0
LWPOLYLINE
  5
5f6
100
AcDbEntity
  8
0
 62
7
100
AcDbPolyline
 90
3
 70
0
 10
598.268875
 20
504.779045
 30
0.0
 10
598.268875
 20
506.631128
 30
0.0
 10
596.416791
 20
506.631128
 30
0.0
  0
SPLINE
  5
5f7
100
AcDbEntity
  8
0
 62
7
100
AcDbSpline
 70
8
 71
3
 72
8
 73
4
 74
0
 40
0
 40
0
 40
0
 40
0
 40
1
 40
1
 40
1
 40
1
 10
491.244916
 20
511.233528
 30
0.0
 10
491.731168
 20
511.608284
 30
0.0
 10
491.534450
 20
511.642045
 30
0.0
 10
488.819164
 20
511.649797
 30
0.0
  0
SPLINE
  5
5f8
100
AcDbEntity
  8
0
 62
7
100
AcDbSpline
 70
8
 71
3
 72
8
 73
4
 74
0
 40
0
 40
0
 40
0
 40
0
 40
1
 40
1
 40
1
 40
1
 10
488.819164
 20
511.649797
 30
0.0
 10
484.777177
 20
511.661175
 30
0.0
 10
484.280184
 20
511.380399
 30
0.0
 10
487.408458
 20
510.852476
 30
0.0
  0
SPLINE
  5
5f9
100
AcDbEntity
  8
0
 62
7
100
AcDbSpline
 70
8
 71
3
 72
8
 73
4
 74
0
 40
0
 40
0
 40
0
 40
0
 40
1
 40
1
 40
1
 40
1
 10
487.408458
 20
510.852476
 30
0.0
 10
489.915015
 20
510.429460
 30
0.0
 10
490.244077
 20
510.462136
 30
0.0
 10
491.244916
 20
511.233528
 30
0.0
  0
LWPOLYLINE
  5
5fa
100
AcDbEntity
  8
0
 62
7
100
AcDbPolyline
 90
1
 70
1
 10
598.268875
 20
504.779045
 30
0.0
  0
SPLINE
  5
5fb
100
AcDbEntity
  8
0
 62
7
100
AcDbSpline
 70
8
 71
3
 72
8
 73
4
 74
0
 40
0
 40
0
 40
0
 40
0
 40
1
 40
1
 40
1
 40
1
 10
531.331673
 20
533.783405
 30
0.0
 10
535.026129
 20
537.198723
 30
0.0
 10
540.655536
 20
542.073923
 30
0.0
 10
543.952509
 20
544.713316
 30
0.0
  0
SPLINE
  5
5fc
100
AcDbEntity
  8
0
 62
7
100
AcDbSpline
 70
8
 71
3
 72
8
 73
4
 74
0
 40
0
 40
0
 40
0
 40
0
 40
1
 40
1
 40
1
 40
1
 10
543.952509
 20
544.713316
 30
0.0
 10
546.198610
 20
546.511435
 30
0.0
 10
546.430518
 20
546.786197
 30
0.0
 10
546.916372
 20
548.224938
 30
0.0
  0
LWPOLYLINE
  5
5fd
100
AcDbEntity
  8
0
 62
7
100
AcDbPolyline
 90
1
 70
1
 10
491.244916
 20
511.233528
 30
0.0
  0
SPLINE
  5
5fe
100
AcDbEntity
  8
0
 62
7
100
AcDbSpline
 70
8
 71
3
 72
8
 73
4
 74
0
 40
0
 40
0
 40
0
 40
0
 40
1
 40
1
 40
1
 40
1
 10
546.860862
 20
549.609915
 30
0.0
 10
541.001453
 20
547.840982
 30
0.0
 10
533.384178
 20
543.950006
 30
0.0
 10
530.631426
 20
541.319746
 30
0.0
  0
SPLINE
  5
5ff
100
AcDbEntity
  8
0
 62
7
100
AcDbSpline
 70
8
 71
3
 72
8
 73
4
 74
0
 40
0
 40
0
 40
0
 40
0
 40
1
 40
1
 40
1
 40
1
 10
530.631426
 20
541.319746
 30
0.0
 10
530.174809
 20
540.883475
 30
0.0
 10
529.728324
 20
540.579590
 30
0.0
 10
529.639239
 20
540.644448
 30
0.0
  0
SPLINE
  5
600
100
AcDbEntity
  8
0
 62
7
100
AcDbSpline
 70
8
 71
3
 72
8
 73
4
 74
0
 40
0
 40
0
 40
0
 40
0
 40
1
 40
1
 40
1
 40
1
 10
529.639239
 20
540.644448
 30
0.0
 10
529.550127
 20
540.709302
 30
0.0
 10
529.538830
 20
540.680899
 30
0.0
 10
529.614104
 20
540.581326
 30
0.0
  0
SPLINE
  5
601
100
AcDbEntity
  8
0
 62
7
100
AcDbSpline
 70
8
 71
3
 72
8
 73
4
 74
0
 40
0
 40
0
 40
0
 40
0
 40
1
 40
1
 40
1
 40
1
 10
529.614104
 20
540.581326
 30
0.0
 10
529.689430
 20
540.481753
 30
0.0
 10
529.399447
 20
540.035268
 30
0.0
 10
528.969737
 20
539.589139
 30
0.0
  0
SPLINE
  5
602
100
AcDbEntity
  8
0
 62
7
100
AcDbSpline
 70
8
 71
3
 72
8
 73
4
 74
0
 40
0
 40
0
 40
0
 40
0
 40
1
 40
1
 40
1
 40
1
 10
528.969737
 20
539.589139
 30
0.0
 10
527.870261
 20
538.447681
 30
0.0
 10
526.371079
 20
535.868174
 30
0.0
 10
525.854269
 20
534.228635
 30
0.0
  0
SPLINE
  5
603
100
AcDbEntity
  8
0
 62
7
100
AcDbSpline
 70
8
 71
3
 72
8
 73
4
 74
0
 40
0
 40
0
 40
0
 40
0
 40
1
 40
1
 40
1
 40
1
 10
525.854269
 20
534.228635
 30
0.0
 10
525.509860
 20
533.136078
 30
0.0
 10
525.480545
 20
532.699592
 30
0.0
 10
525.716712
 20
532.181242
 30
0.0
  0
SPLINE
  5
604
100
AcDbEntity
  8
0
 62
7
100
AcDbSpline
 70
8
 71
3
 72
8
 73
4
 74
0
 40
0
 40
0
 40
0
 40
0
 40
1
 40
1
 40
1
 40
1
 10
525.716712
 20
532.181242
 30
0.0
 10
525.977115
 20
531.609744
 30
0.0
 10
526.991633
 20
531.088952
 30
0.0
 10
528.024328
 20
530.996647
 30
0.0
  0
SPLINE
  5
605
100
AcDbEntity
  8
0
 62
7
100
AcDbSpline
 70
8
 71
3
 72
8
 73
4
 74
0
 40
0
 40
0
 40
0
 40
0
 40
1
 40
1
 40
1
 40
1
 10
528.024328
 20
530.996647
 30
0.0
 10
528.171172
 20
530.983523
 30
0.0
 10
529.659453
 20
532.237564
 30
0.0
 10
531.331620
 20
533.783405
 30
0.0
  0
LWPOLYLINE
  5
606
100
AcDbEntity
  8
0
 62
7
100
AcDbPolyline
 90
3
 70
0
 10
546.916372
 20
548.224938
 30
0.0
 10
547.443501
 20
549.785805
 30
0.0
 10
546.860862
 20
549.609915
 30
0.0
  0
SPLINE
  5
607
100
AcDbEntity
  8
0
 62
7
100
AcDbSpline
 70
8
 71
3
 72
8
 73
4
 74
0
 40
0
 40
0
 40
0
 40
0
 40
1
 40
1
 40
1
 40
1
 10
552.459128
 20
552.304064
 30
0.0
 10
553.692166
 20
552.550671
 30
0.0
 10
554.612625
 20
553.529119
 30
0.0
 10
554.612625
 20
554.593226
 30
0.0
  0
SPLINE
  5
608
100
AcDbEntity
  8
0
 62
7
100
AcDbSpline
 70
8
 71
3
 72
8
 73
4
 74
0
 40
0
 40
0
 40
0
 40
0
 40
1
 40
1
 40
1
 40
1
 10
554.612625
 20
554.593226
 30
0.0
 10
554.612625
 20
555.968122
 30
0.0
 10
555.337927
 20
557.782151
 30
0.0
 10
556.313499
 20
558.847233
 30
0.0
  0
SPLINE
  5
609
100
AcDbEntity
  8
0
 62
7
100
AcDbSpline
 70
8
 71
3
 72
8
 73
4
 74
0
 40
0
 40
0
 40
0
 40
0
 40
1
 40
1
 40
1
 40
1
 10
556.313499
 20
558.847233
 30
0.0
 10
557.319206
 20
559.945204
 30
0.0
 10
557.163923
 20
560.044854
 30
0.0
 10
555.650426
 20
559.272728
 30
0.0
  0
SPLINE
  5
60a
100
AcDbEntity
  8
0
 62
7
100
AcDbSpline
 70
8
 71
3
 72
8
 73
4
 74
0
 40
0
 40
0
 40
0
 40
0
 40
1
 40
1
 40
1
 40
1
 10
555.650426
 20
559.272728
 30
0.0
 10
554.586087
 20
558.729735
 30
0.0
 10
553.606785
 20
557.442809
 30
0.0
 10
552.135014
 20
554.652992
 30
0.0
  0
SPLINE
  5
60b
100
AcDbEntity
  8
0
 62
7
100
AcDbSpline
 70
8
 71
3
 72
8
 73
4
 74
0
 40
0
 40
0
 40
0
 40
0
 40
1
 40
1
 40
1
 40
1
 10
552.135014
 20
554.652992
 30
0.0
 10
551.751156
 20
553.925388
 30
0.0
 10
551.244109
 20
553.062185
 30
0.0
 10
551.008206
 20
552.734763
 30
0.0
  0
SPLINE
  5
60c
100
AcDbEntity
  8
0
 62
7
100
AcDbSpline
 70
8
 71
3
 72
8
 73
4
 74
0
 40
0
 40
0
 40
0
 40
0
 40
1
 40
1
 40
1
 40
1
 10
551.008206
 20
552.734763
 30
0.0
 10
550.603473
 20
552.172960
 30
0.0
 10
550.609082
 20
552.139451
 30
0.0
 10
551.107689
 20
552.139451
 30
0.0
  0
SPLINE
  5
60d
100
AcDbEntity
  8
0
 62
7
100
AcDbSpline
 70
8
 71
3
 72
8
 73
4
 74
0
 40
0
 40
0
 40
0
 40
0
 40
1
 40
1
 40
1
 40
1
 10
551.107689
 20
552.139451
 30
0.0
 10
551.398308
 20
552.139451
 30
0.0
 10
552.006453
 20
552.213526
 30
0.0
 10
552.459128
 20
552.304064
 30
0.0
  0
LWPOLYLINE
  5
60e
100
AcDbEntity
  8
0
 62
7
100
AcDbPolyline
 90
1
 70
1
 10
531.331620
 20
533.783405
 30
0.0
  0
SPLINE
  5
60f
100
AcDbEntity
  8
0
 62
7
100
AcDbSpline
 70
8
 71
3
 72
8
 73
4
 74
0
 40
0
 40
0
 40
0
 40
0
 40
1
 40
1
 40
1
 40
1
 10
56.065976
 20
568.703471
 30
0.0
 10
55.978055
 20
568.791389
 30
0.0
 10
55.749851
 20
568.800787
 30
0.0
 10
55.558857
 20
568.724346
 30
0.0
  0
SPLINE
  5
610
100
AcDbEntity
  8
0
 62
7
100
AcDbSpline
 70
8
 71
3
 72
8
 73
4
 74
0
 40
0
 40
0
 40
0
 40
0
 40
1
 40
1
 40
1
 40
1
 10
55.558857
 20
568.724346
 30
0.0
 10
55.347791
 20
568.639886
 30
0.0
 10
55.410484
 20
568.577190
 30
0.0
 10
55.718710
 20
568.564496
 30
0.0
  0
SPLINE
  5
611
100
AcDbEntity
  8
0
 62
7
100
AcDbSpline
 70
8
 71
3
 72
8
 73
4
 74
0
 40
0
 40
0
 40
0
 40
0
 40
1
 40
1
 40
1
 40
1
 10
55.718710
 20
568.564496
 30
0.0
 10
55.997623
 20
568.553013
 30
0.0
 10
56.153894
 20
568.615542
 30
0.0
 10
56.065976
 20
568.703460
 30
0.0
  0
LWPOLYLINE
  5
612
100
AcDbEntity
  8
0
 62
7
100
AcDbPolyline
 90
1
 70
1
 10
552.459128
 20
552.304064
 30
0.0
  0
SPLINE
  5
613
100
AcDbEntity
  8
0
 62
7
100
AcDbSpline
 70
8
 71
3
 72
8
 73
4
 74
0
 40
0
 40
0
 40
0
 40
0
 40
1
 40
1
 40
1
 40
1
 10
578.954291
 20
569.176768
 30
0.0
 10
578.954291
 20
569.233960
 30
0.0
 10
578.775698
 20
569.349284
 30
0.0
 10
578.557416
 20
569.433049
 30
0.0
  0
SPLINE
  5
614
100
AcDbEntity
  8
0
 62
7
100
AcDbSpline
 70
8
 71
3
 72
8
 73
4
 74
0
 40
0
 40
0
 40
0
 40
0
 40
1
 40
1
 40
1
 40
1
 10
578.557416
 20
569.433049
 30
0.0
 10
578.339135
 20
569.516810
 30
0.0
 10
578.160541
 20
569.470016
 30
0.0
 10
578.160541
 20
569.329065
 30
0.0
  0
SPLINE
  5
615
100
AcDbEntity
  8
0
 62
7
100
AcDbSpline
 70
8
 71
3
 72
8
 73
4
 74
0
 40
0
 40
0
 40
0
 40
0
 40
1
 40
1
 40
1
 40
1
 10
578.160541
 20
569.329065
 30
0.0
 10
578.160541
 20
569.188111
 30
0.0
 10
578.339135
 20
569.072784
 30
0.0
 10
578.557416
 20
569.072784
 30
0.0
  0
SPLINE
  5
616
100
AcDbEntity
  8
0
 62
7
100
AcDbSpline
 70
8
 71
3
 72
8
 73
4
 74
0
 40
0
 40
0
 40
0
 40
0
 40
1
 40
1
 40
1
 40
1
 10
578.557416
 20
569.072784
 30
0.0
 10
578.775698
 20
569.072784
 30
0.0
 10
578.954291
 20
569.119578
 30
0.0
 10
578.954291
 20
569.176768
 30
0.0
  0
LWPOLYLINE
  5
617
100
AcDbEntity
  8
0
 62
7
100
AcDbPolyline
 90
1
 70
1
 10
56.065976
 20
568.703460
 30
0.0
  0
SPLINE
  5
618
100
AcDbEntity
  8
0
 62
7
100
AcDbSpline
 70
8
 71
3
 72
8
 73
4
 74
0
 40
0
 40
0
 40
0
 40
0
 40
1
 40
1
 40
1
 40
1
 10
591.522000
 20
576.219616
 30
0.0
 10
594.141375
 20
577.671208
 30
0.0
 10
596.401260
 20
578.898578
 30
0.0
 10
596.543950
 20
578.947108
 30
0.0
  0
SPLINE
  5
619
100
AcDbEntity
  8
0
 62
7
100
AcDbSpline
 70
8
 71
3
 72
8
 73
4
 74
0
 40
0
 40
0
 40
0
 40
0
 40
1
 40
1
 40
1
 40
1
 10
596.543950
 20
578.947108
 30
0.0
 10
596.689021
 20
578.996440
 30
0.0
 10
596.365198
 20
580.426108
 30
0.0
 10
595.809414
 20
582.189997
 30
0.0
  0
SPLINE
  5
61a
100
AcDbEntity
  8
0
 62
7
100
AcDbSpline
 70
8
 71
3
 72
8
 73
4
 74
0
 40
0
 40
0
 40
0
 40
0
 40
1
 40
1
 40
1
 40
1
 10
595.809414
 20
582.189997
 30
0.0
 10
595.262705
 20
583.925061
 30
0.0
 10
594.821142
 20
585.701846
 30
0.0
 10
594.828154
 20
586.138409
 30
0.0
  0
SPLINE
  5
61b
100
AcDbEntity
  8
0
 62
7
100
AcDbSpline
 70
8
 71
3
 72
8
 73
4
 74
0
 40
0
 40
0
 40
0
 40
0
 40
1
 40
1
 40
1
 40
1
 10
594.828154
 20
586.138409
 30
0.0
 10
594.849320
 20
587.452769
 30
0.0
 10
595.765467
 20
589.100922
 30
0.0
 10
596.918574
 20
589.898892
 30
0.0
  0
SPLINE
  5
61c
100
AcDbEntity
  8
0
 62
7
100
AcDbSpline
 70
8
 71
3
 72
8
 73
4
 74
0
 40
0
 40
0
 40
0
 40
0
 40
1
 40
1
 40
1
 40
1
 10
596.918574
 20
589.898892
 30
0.0
 10
597.504679
 20
590.304480
 30
0.0
 10
597.988734
 20
590.700617
 30
0.0
 10
597.994237
 20
590.779193
 30
0.0
  0
SPLINE
  5
61d
100
AcDbEntity
  8
0
 62
7
100
AcDbSpline
 70
8
 71
3
 72
8
 73
4
 74
0
 40
0
 40
0
 40
0
 40
0
 40
1
 40
1
 40
1
 40
1
 10
597.994237
 20
590.779193
 30
0.0
 10
597.999794
 20
590.857769
 30
0.0
 10
597.115477
 20
591.304253
 30
0.0
 10
596.029177
 20
591.771380
 30
0.0
  0
LWPOLYLINE
  5
61e
100
AcDbEntity
  8
0
 62
7
100
AcDbPolyline
 90
1
 70
1
 10
578.954291
 20
569.176768
 30
0.0
  0
SPLINE
  5
61f
100
AcDbEntity
  8
0
 62
7
100
AcDbSpline
 70
8
 71
3
 72
8
 73
4
 74
0
 40
0
 40
0
 40
0
 40
0
 40
1
 40
1
 40
1
 40
1
 10
576.691813
 20
591.148932
 30
0.0
 10
576.474537
 20
589.409897
 30
0.0
 10
576.709805
 20
586.598347
 30
0.0
 10
577.287866
 20
584.021742
 30
0.0
  0
SPLINE
  5
620
100
AcDbEntity
  8
0
 62
7
100
AcDbSpline
 70
8
 71
3
 72
8
 73
4
 74
0
 40
0
 40
0
 40
0
 40
0
 40
1
 40
1
 40
1
 40
1
 10
577.287866
 20
584.021742
 30
0.0
 10
577.607456
 20
582.597617
 30
0.0
 10
577.939985
 20
581.894543
 30
0.0
 10
578.726935
 20
580.979034
 30
0.0
  0
SPLINE
  5
621
100
AcDbEntity
  8
0
 62
7
100
AcDbSpline
 70
8
 71
3
 72
8
 73
4
 74
0
 40
0
 40
0
 40
0
 40
0
 40
1
 40
1
 40
1
 40
1
 10
578.726935
 20
580.979034
 30
0.0
 10
579.765636
 20
579.770679
 30
0.0
 10
586.384585
 20
573.568425
 30
0.0
 10
586.627208
 20
573.576148
 30
0.0
  0
SPLINE
  5
622
100
AcDbEntity
  8
0
 62
7
100
AcDbSpline
 70
8
 71
3
 72
8
 73
4
 74
0
 40
0
 40
0
 40
0
 40
0
 40
1
 40
1
 40
1
 40
1
 10
586.627208
 20
573.576148
 30
0.0
 10
586.699969
 20
573.578530
 30
0.0
 10
588.902625
 20
574.768025
 30
0.0
 10
591.522000
 20
576.219616
 30
0.0
  0
LWPOLYLINE
  5
623
100
AcDbEntity
  8
0
 62
7
100
AcDbPolyline
 90
5
 70
0
 10
596.029177
 20
591.771380
 30
0.0
 10
594.054036
 20
592.620701
 30
0.0
 10
585.464867
 20
592.620701
 30
0.0
 10
576.875698
 20
592.620701
 30
0.0
 10
576.691813
 20
591.148932
 30
0.0
  0
SPLINE
  5
624
100
AcDbEntity
  8
0
 62
7
100
AcDbSpline
 70
8
 71
3
 72
8
 73
4
 74
0
 40
0
 40
0
 40
0
 40
0
 40
1
 40
1
 40
1
 40
1
 10
523.722521
 20
586.284612
 30
0.0
 10
524.268224
 20
586.436163
 30
0.0
 10
524.708226
 20
586.643858
 30
0.0
 10
524.700288
 20
586.746157
 30
0.0
  0
SPLINE
  5
625
100
AcDbEntity
  8
0
 62
7
100
AcDbSpline
 70
8
 71
3
 72
8
 73
4
 74
0
 40
0
 40
0
 40
0
 40
0
 40
1
 40
1
 40
1
 40
1
 10
524.700288
 20
586.746157
 30
0.0
 10
524.692351
 20
586.848458
 30
0.0
 10
522.043210
 20
588.212803
 30
0.0
 10
518.813309
 20
589.778036
 30
0.0
  0
LWPOLYLINE
  5
626
100
AcDbEntity
  8
0
 62
7
100
AcDbPolyline
 90
1
 70
1
 10
591.522000
 20
576.219616
 30
0.0
  0
SPLINE
  5
627
100
AcDbEntity
  8
0
 62
7
100
AcDbSpline
 70
8
 71
3
 72
8
 73
4
 74
0
 40
0
 40
0
 40
0
 40
0
 40
1
 40
1
 40
1
 40
1
 10
509.154827
 20
592.622325
 30
0.0
 10
506.658774
 20
592.621267
 30
0.0
 10
505.425498
 20
592.529128
 30
0.0
 10
505.535036
 20
592.351892
 30
0.0
  0
SPLINE
  5
628
100
AcDbEntity
  8
0
 62
7
100
AcDbSpline
 70
8
 71
3
 72
8
 73
4
 74
0
 40
0
 40
0
 40
0
 40
0
 40
1
 40
1
 40
1
 40
1
 10
505.535036
 20
592.351892
 30
0.0
 10
505.879603
 20
591.794378
 30
0.0
 10
509.762442
 20
589.360566
 30
0.0
 10
512.144883
 20
588.208747
 30
0.0
  0
SPLINE
  5
629
100
AcDbEntity
  8
0
 62
7
100
AcDbSpline
 70
8
 71
3
 72
8
 73
4
 74
0
 40
0
 40
0
 40
0
 40
0
 40
1
 40
1
 40
1
 40
1
 10
512.144883
 20
588.208747
 30
0.0
 10
513.506985
 20
587.550231
 30
0.0
 10
515.433892
 20
586.792414
 30
0.0
 10
516.426926
 20
586.524709
 30
0.0
  0
SPLINE
  5
62a
100
AcDbEntity
  8
0
 62
7
100
AcDbSpline
 70
8
 71
3
 72
8
 73
4
 74
0
 40
0
 40
0
 40
0
 40
0
 40
1
 40
1
 40
1
 40
1
 10
516.426926
 20
586.524709
 30
0.0
 10
518.450724
 20
585.979119
 30
0.0
 10
522.180476
 20
585.856384
 30
0.0
 10
523.722521
 20
586.284631
 30
0.0
  0
LWPOLYLINE
  5
62b
100
AcDbEntity
  8
0
 62
7
100
AcDbPolyline
 90
3
 70
0
 10
518.813309
 20
589.778036
 30
0.0
 10
512.940750
 20
592.623913
 30
0.0
 10
509.154827
 20
592.622325
 30
0.0
  0
SPLINE
  5
62c
100
AcDbEntity
  8
0
 62
7
100
AcDbSpline
 70
8
 71
3
 72
8
 73
4
 74
0
 40
0
 40
0
 40
0
 40
0
 40
1
 40
1
 40
1
 40
1
 10
500.099012
 20
587.414777
 30
0.0
 10
499.780242
 20
587.703022
 30
0.0
 10
496.990291
 20
589.973346
 30
0.0
 10
494.697464
 20
591.810271
 30
0.0
  0
SPLINE
  5
62d
100
AcDbEntity
  8
0
 62
7
100
AcDbSpline
 70
8
 71
3
 72
8
 73
4
 74
0
 40
0
 40
0
 40
0
 40
0
 40
1
 40
1
 40
1
 40
1
 10
494.697464
 20
591.810271
 30
0.0
 10
494.413566
 20
592.037726
 30
0.0
 10
494.718631
 20
591.449919
 30
0.0
 10
495.375591
 20
590.504034
 30
0.0
  0
SPLINE
  5
62e
100
AcDbEntity
  8
0
 62
7
100
AcDbSpline
 70
8
 71
3
 72
8
 73
4
 74
0
 40
0
 40
0
 40
0
 40
0
 40
1
 40
1
 40
1
 40
1
 10
495.375591
 20
590.504034
 30
0.0
 10
496.032473
 20
589.558149
 30
0.0
 10
496.838393
 20
588.397289
 30
0.0
 10
497.166583
 20
587.924346
 30
0.0
  0
SPLINE
  5
62f
100
AcDbEntity
  8
0
 62
7
100
AcDbSpline
 70
8
 71
3
 72
8
 73
4
 74
0
 40
0
 40
0
 40
0
 40
0
 40
1
 40
1
 40
1
 40
1
 10
497.166583
 20
587.924346
 30
0.0
 10
497.708820
 20
587.142900
 30
0.0
 10
497.887466
 20
587.064451
 30
0.0
 10
499.124843
 20
587.064451
 30
0.0
  0
SPLINE
  5
630
100
AcDbEntity
  8
0
 62
7
100
AcDbSpline
 70
8
 71
3
 72
8
 73
4
 74
0
 40
0
 40
0
 40
0
 40
0
 40
1
 40
1
 40
1
 40
1
 10
499.124843
 20
587.064451
 30
0.0
 10
500.273426
 20
587.064451
 30
0.0
 10
500.425826
 20
587.119259
 30
0.0
 10
500.099013
 20
587.414777
 30
0.0
  0
LWPOLYLINE
  5
631
100
AcDbEntity
  8
0
 62
7
100
AcDbPolyline
 90
1
 70
1
 10
523.722521
 20
586.284631
 30
0.0
  0
SPLINE
  5
632
100
AcDbEntity
  8
0
 62
7
100
AcDbSpline
 70
8
 71
3
 72
8
 73
4
 74
0
 40
0
 40
0
 40
0
 40
0
 40
1
 40
1
 40
1
 40
1
 10
545.394409
 20
589.334790
 30
0.0
 10
546.135534
 20
589.710353
 30
0.0
 10
548.423544
 20
590.376838
 30
0.0
 10
550.478828
 20
590.815869
 30
0.0
  0
SPLINE
  5
633
100
AcDbEntity
  8
0
 62
7
100
AcDbSpline
 70
8
 71
3
 72
8
 73
4
 74
0
 40
0
 40
0
 40
0
 40
0
 40
1
 40
1
 40
1
 40
1
 10
550.478828
 20
590.815869
 30
0.0
 10
552.534137
 20
591.254900
 30
0.0
 10
554.632469
 20
591.810824
 30
0.0
 10
555.141791
 20
592.051256
 30
0.0
  0
SPLINE
  5
634
100
AcDbEntity
  8
0
 62
7
100
AcDbSpline
 70
8
 71
3
 72
8
 73
4
 74
0
 40
0
 40
0
 40
0
 40
0
 40
1
 40
1
 40
1
 40
1
 10
555.141791
 20
592.051256
 30
0.0
 10
556.047566
 20
592.478836
 30
0.0
 10
555.966842
 20
592.489999
 30
0.0
 10
551.455881
 20
592.561008
 30
0.0
  0
LWPOLYLINE
  5
635
100
AcDbEntity
  8
0
 62
7
100
AcDbPolyline
 90
1
 70
1
 10
500.099013
 20
587.414777
 30
0.0
  0
SPLINE
  5
636
100
AcDbEntity
  8
0
 62
7
100
AcDbSpline
 70
8
 71
3
 72
8
 73
4
 74
0
 40
0
 40
0
 40
0
 40
0
 40
1
 40
1
 40
1
 40
1
 10
541.490641
 20
588.899680
 30
0.0
 10
542.668619
 20
588.817651
 30
0.0
 10
543.725682
 20
588.728354
 30
0.0
 10
543.839638
 20
588.701242
 30
0.0
  0
SPLINE
  5
637
100
AcDbEntity
  8
0
 62
7
100
AcDbSpline
 70
8
 71
3
 72
8
 73
4
 74
0
 40
0
 40
0
 40
0
 40
0
 40
1
 40
1
 40
1
 40
1
 10
543.839638
 20
588.701242
 30
0.0
 10
543.953621
 20
588.674133
 30
0.0
 10
544.653258
 20
588.959230
 30
0.0
 10
545.394409
 20
589.334790
 30
0.0
  0
LWPOLYLINE
  5
638
100
AcDbEntity
  8
0
 62
7
100
AcDbPolyline
 90
5
 70
0
 10
551.455881
 20
592.561008
 30
0.0
 10
546.843929
 20
592.633607
 30
0.0
 10
543.096397
 20
590.841216
 30
0.0
 10
539.348892
 20
589.048826
 30
0.0
 10
541.490641
 20
588.899680
 30
0.0
  0
SPLINE
  5
639
100
AcDbEntity
  8
0
 62
7
100
AcDbSpline
 70
8
 71
3
 72
8
 73
4
 74
0
 40
0
 40
0
 40
0
 40
0
 40
1
 40
1
 40
1
 40
1
 10
531.858458
 20
592.519267
 30
0.0
 10
531.858458
 20
592.575055
 30
0.0
 10
531.471505
 20
592.618878
 30
0.0
 10
530.998562
 20
592.616650
 30
0.0
  0
SPLINE
  5
63a
100
AcDbEntity
  8
0
 62
7
100
AcDbSpline
 70
8
 71
3
 72
8
 73
4
 74
0
 40
0
 40
0
 40
0
 40
0
 40
1
 40
1
 40
1
 40
1
 10
530.998562
 20
592.616650
 30
0.0
 10
530.413939
 20
592.613898
 30
0.0
 10
530.253919
 20
592.539579
 30
0.0
 10
530.498685
 20
592.384496
 30
0.0
  0
SPLINE
  5
63b
100
AcDbEntity
  8
0
 62
7
100
AcDbSpline
 70
8
 71
3
 72
8
 73
4
 74
0
 40
0
 40
0
 40
0
 40
0
 40
1
 40
1
 40
1
 40
1
 10
530.498685
 20
592.384496
 30
0.0
 10
530.827033
 20
592.176455
 30
0.0
 10
531.858458
 20
592.278684
 30
0.0
 10
531.858458
 20
592.519267
 30
0.0
  0
LWPOLYLINE
  5
63c
100
AcDbEntity
  8
0
 62
7
100
AcDbPolyline
 90
1
 70
1
 10
545.394409
 20
589.334790
 30
0.0
  0
LWPOLYLINE
  5
63d
100
AcDbEntity
  8
0
 62
7
100
AcDbPolyline
 90
1
 70
1
 10
531.858458
 20
592.519267
 30
0.0
  0
ENDSEC
  0
SECTION
  2
OBJECTS
  0
DICTIONARY
  5
C
330
0
100
AcDbDictionary
  3
ACAD_GROUP
350
D
  3
ACAD_MLINESTYLE
350
17
  0
DICTIONARY
  5
D
330
C
100
AcDbDictionary
  0
DICTIONARY
  5
1A
330
C
100
AcDbDictionary
  0
DICTIONARY
  5
17
330
C
100
AcDbDictionary
  3
STANDARD
350
18
  0
DICTIONARY
  5
19
330
C
100
AcDbDictionary
  0
ENDSEC
  0
EOF
