  0
SECTION
  2
HEADER
  9
$ACADVER
  1
AC1018
  9
$ACADMAINTVER
 70
     0
  9
$DWGCODEPAGE
  3
ANSI_1256
  9
$INSBASE
 10
0.0
 20
0.0
 30
0.0
  9
$EXTMIN
 10
0.0
 20
0.0
 30
0.0
  9
$EXTMAX
 10
89.916
 20
179.832
 30
0.0
  9
$LIMMIN
 10
0.0
 20
0.0
  9
$LIMMAX
 10
12.0
 20
9.0
  9
$ORTHOMODE
 70
     0
  9
$REGENMODE
 70
     1
  9
$FILLMODE
 70
     1
  9
$QTEXTMODE
 70
     0
  9
$MIRRTEXT
 70
     1
  9
$LTSCALE
 40
1.0
  9
$ATTMODE
 70
     1
  9
$TEXTSIZE
 40
0.2
  9
$TRACEWID
 40
0.05
  9
$TEXTSTYLE
  7
Standard
  9
$CLAYER
  8
0
  9
$CELTYPE
  6
ByBlock
  9
$CECOLOR
 62
   256
  9
$CELTSCALE
 40
1.0
  9
$DISPSILH
 70
     0
  9
$DIMSCALE
 40
1.0
  9
$DIMASZ
 40
0.18
  9
$DIMEXO
 40
0.0625
  9
$DIMDLI
 40
0.38
  9
$DIMRND
 40
0.0
  9
$DIMDLE
 40
0.0
  9
$DIMEXE
 40
0.18
  9
$DIMTP
 40
0.0
  9
$DIMTM
 40
0.0
  9
$DIMTXT
 40
0.18
  9
$DIMCEN
 40
0.09
  9
$DIMTSZ
 40
0.0
  9
$DIMTOL
 70
     0
  9
$DIMLIM
 70
     0
  9
$DIMTIH
 70
     1
  9
$DIMTOH
 70
     1
  9
$DIMSE1
 70
     0
  9
$DIMSE2
 70
     0
  9
$DIMTAD
 70
     0
  9
$DIMZIN
 70
     0
  9
$DIMBLK
  1

  9
$DIMASO
 70
     1
  9
$DIMSHO
 70
     1
  9
$DIMPOST
  1

  9
$DIMAPOST
  1

  9
$DIMALT
 70
     0
  9
$DIMALTD
 70
     2
  9
$DIMALTF
 40
25.4
  9
$DIMLFAC
 40
1.0
  9
$DIMTOFL
 70
     0
  9
$DIMTVP
 40
0.0
  9
$DIMTIX
 70
     0
  9
$DIMSOXD
 70
     0
  9
$DIMSAH
 70
     0
  9
$DIMBLK1
  1

  9
$DIMBLK2
  1

  9
$DIMSTYLE
  2
Standard
  9
$DIMCLRD
 70
     0
  9
$DIMCLRE
 70
     0
  9
$DIMCLRT
 70
     0
  9
$DIMTFAC
 40
1.0
  9
$DIMGAP
 40
0.09
  9
$DIMJUST
 70
     0
  9
$DIMSD1
 70
     0
  9
$DIMSD2
 70
     0
  9
$DIMTOLJ
 70
     1
  9
$DIMTZIN
 70
     0
  9
$DIMALTZ
 70
     0
  9
$DIMALTTZ
 70
     0
  9
$DIMUPT
 70
     0
  9
$DIMDEC
 70
     4
  9
$DIMTDEC
 70
     4
  9
$DIMALTU
 70
     2
  9
$DIMALTTD
 70
     2
  9
$DIMTXSTY
  7
Standard
  9
$DIMAUNIT
 70
     0
  9
$DIMADEC
 70
     0
  9
$DIMALTRND
 40
0.0
  9
$DIMAZIN
 70
     0
  9
$DIMDSEP
 70
    46
  9
$DIMATFIT
 70
     3
  9
$DIMFRAC
 70
     0
  9
$DIMLDRBLK
  1

  9
$DIMLUNIT
 70
     2
  9
$DIMLWD
 70
    -2
  9
$DIMLWE
 70
    -2
  9
$DIMTMOVE
 70
     2
  9
$LUNITS
 70
     2
  9
$LUPREC
 70
     4
  9
$SKETCHINC
 40
0.1
  9
$FILLETRAD
 40
0.5
  9
$AUNITS
 70
     0
  9
$AUPREC
 70
     0
  9
$MENU
  1
.
  9
$ELEVATION
 40
0.0
  9
$PELEVATION
 40
0.0
  9
$THICKNESS
 40
0.0
  9
$LIMCHECK
 70
     0
  9
$CHAMFERA
 40
0.0
  9
$CHAMFERB
 40
0.0
  9
$CHAMFERC
 40
0.0
  9
$CHAMFERD
 40
0.0
  9
$SKPOLY
 70
     0
  9
$TDCREATE
 40
2457944.551649595
  9
$TDUCREATE
 40
2457944.426649595
  9
$TDUPDATE
 40
2457944.551649919
  9
$TDUUPDATE
 40
2457944.426649919
  9
$TDINDWG
 40
0.0000000116
  9
$TDUSRTIMER
 40
0.0000000116
  9
$USRTIMER
 70
     1
  9
$ANGBASE
 50
0.0
  9
$ANGDIR
 70
     0
  9
$PDMODE
 70
     0
  9
$PDSIZE
 40
0.0
  9
$PLINEWID
 40
0.0
  9
$SPLFRAME
 70
     0
  9
$SPLINETYPE
 70
     6
  9
$SPLINESEGS
 70
     8
  9
$HANDSEED
  5
85C
  9
$SURFTAB1
 70
     6
  9
$SURFTAB2
 70
     6
  9
$SURFTYPE
 70
     6
  9
$SURFU
 70
     6
  9
$SURFV
 70
     6
  9
$UCSBASE
  2

  9
$UCSNAME
  2

  9
$UCSORG
 10
0.0
 20
0.0
 30
0.0
  9
$UCSXDIR
 10
1.0
 20
0.0
 30
0.0
  9
$UCSYDIR
 10
0.0
 20
1.0
 30
0.0
  9
$UCSORTHOREF
  2

  9
$UCSORTHOVIEW
 70
     0
  9
$UCSORGTOP
 10
0.0
 20
0.0
 30
0.0
  9
$UCSORGBOTTOM
 10
0.0
 20
0.0
 30
0.0
  9
$UCSORGLEFT
 10
0.0
 20
0.0
 30
0.0
  9
$UCSORGRIGHT
 10
0.0
 20
0.0
 30
0.0
  9
$UCSORGFRONT
 10
0.0
 20
0.0
 30
0.0
  9
$UCSORGBACK
 10
0.0
 20
0.0
 30
0.0
  9
$PUCSBASE
  2

  9
$PUCSNAME
  2

  9
$PUCSORG
 10
0.0
 20
0.0
 30
0.0
  9
$PUCSXDIR
 10
1.0
 20
0.0
 30
0.0
  9
$PUCSYDIR
 10
0.0
 20
1.0
 30
0.0
  9
$PUCSORTHOREF
  2

  9
$PUCSORTHOVIEW
 70
     0
  9
$PUCSORGTOP
 10
0.0
 20
0.0
 30
0.0
  9
$PUCSORGBOTTOM
 10
0.0
 20
0.0
 30
0.0
  9
$PUCSORGLEFT
 10
0.0
 20
0.0
 30
0.0
  9
$PUCSORGRIGHT
 10
0.0
 20
0.0
 30
0.0
  9
$PUCSORGFRONT
 10
0.0
 20
0.0
 30
0.0
  9
$PUCSORGBACK
 10
0.0
 20
0.0
 30
0.0
  9
$USERI1
 70
     0
  9
$USERI2
 70
     0
  9
$USERI3
 70
     0
  9
$USERI4
 70
     0
  9
$USERI5
 70
     0
  9
$USERR1
 40
0.0
  9
$USERR2
 40
0.0
  9
$USERR3
 40
0.0
  9
$USERR4
 40
0.0
  9
$USERR5
 40
0.0
  9
$WORLDVIEW
 70
     1
  9
$SHADEDGE
 70
     3
  9
$SHADEDIF
 70
    70
  9
$TILEMODE
 70
     1
  9
$MAXACTVP
 70
    64
  9
$PINSBASE
 10
0.0
 20
0.0
 30
0.0
  9
$PLIMCHECK
 70
     0
  9
$PEXTMIN
 10
1.000000000000000E+20
 20
1.000000000000000E+20
 30
1.000000000000000E+20
  9
$PEXTMAX
 10
-1.000000000000000E+20
 20
-1.000000000000000E+20
 30
-1.000000000000000E+20
  9
$PLIMMIN
 10
0.0
 20
0.0
  9
$PLIMMAX
 10
12.0
 20
9.0
  9
$UNITMODE
 70
     0
  9
$VISRETAIN
 70
     1
  9
$PLINEGEN
 70
     0
  9
$PSLTSCALE
 70
     1
  9
$TREEDEPTH
 70
  3020
  9
$CMLSTYLE
  2
Standard
  9
$CMLJUST
 70
     0
  9
$CMLSCALE
 40
1.0
  9
$PROXYGRAPHICS
 70
     1
  9
$MEASUREMENT
 70
     0
  9
$CELWEIGHT
370
    -1
  9
$ENDCAPS
280
     0
  9
$JOINSTYLE
280
     0
  9
$LWDISPLAY
290
     0
  9
$INSUNITS
 70
     0
  9
$HYPERLINKBASE
  1

  9
$STYLESHEET
  1

  9
$XEDIT
290
     1
  9
$CEPSNTYPE
380
     0
  9
$PSTYLEMODE
290
     1
  9
$FINGERPRINTGUID
  2
{062E3192-ADA5-408E-88E4-7E313A611B59}
  9
$VERSIONGUID
  2
{FAEB1C32-E019-11D5-929B-00C0DF256EC4}
  9
$EXTNAMES
290
     1
  9
$PSVPSCALE
 40
0.0
  9
$OLESTARTUP
290
     0
  9
$SORTENTS
280
   127
  9
$INDEXCTL
280
     0
  9
$HIDETEXT
280
     1
  9
$XCLIPFRAME
290
     0
  9
$HALOGAP
280
     0
  9
$OBSCOLOR
 70
   257
  9
$OBSLTYPE
280
     0
  9
$INTERSECTIONDISPLAY
280
     0
  9
$INTERSECTIONCOLOR
 70
   257
  9
$DIMASSOC
280
     2
  9
$PROJECTNAME
  1

  0
ENDSEC
  0
SECTION
  2
CLASSES
  0
CLASS
  1
ACDBDICTIONARYWDFLT
  2
AcDbDictionaryWithDefault
  3
ObjectDBX Classes
 90
        0
 91
        4
280
     0
281
     0
  0
CLASS
  1
SCALE
  2
AcDbScale
  3
ObjectDBX Classes
 90
     1153
 91
        4
280
     0
281
     0
  0
CLASS
  1
VISUALSTYLE
  2
AcDbVisualStyle
  3
ObjectDBX Classes
 90
     4095
 91
        4
280
     0
281
     0
  0
CLASS
  1
MATERIAL
  2
AcDbMaterial
  3
ObjectDBX Classes
 90
     1153
 91
        4
280
     0
281
     0
  0
CLASS
  1
TABLESTYLE
  2
AcDbTableStyle
  3
ObjectDBX Classes
 90
     4095
 91
        4
280
     0
281
     0
  0
CLASS
  1
MLEADERSTYLE
  2
AcDbMLeaderStyle
  3
ACDB_MLEADERSTYLE_CLASS
 90
     4095
 91
        4
280
     0
281
     0
  0
CLASS
  1
DICTIONARYVAR
  2
AcDbDictionaryVar
  3
ObjectDBX Classes
 90
        0
 91
        4
280
     0
281
     0
  0
CLASS
  1
CELLSTYLEMAP
  2
AcDbCellStyleMap
  3
ObjectDBX Classes
 90
     1152
 91
        4
280
     0
281
     0
  0
ENDSEC
  0
SECTION
  2
TABLES
  0
TABLE
  2
VPORT
  5
8
102
{ACAD_XDICTIONARY
360
815
102
}
330
0
100
AcDbSymbolTable
 70
     1
  0
VPORT
  5
21
330
8
100
AcDbSymbolTableRecord
100
AcDbViewportTableRecord
  2
*Active
 70
     0
 10
0.0
 20
0.0
 11
1.0
 21
1.0
 12
10.42990654205607
 22
4.5
 13
0.0
 23
0.0
 14
0.5
 24
0.5
 15
0.5
 25
0.5
 16
0.0
 26
0.0
 36
1.0
 17
0.0
 27
0.0
 37
0.0
 40
9.0
 41
1.972972972850329
 42
50.0
 43
0.0
 44
0.0
 50
0.0
 51
0.0
 71
     0
 72
   100
 73
     1
 74
     3
 75
     0
 76
     0
 77
     0
 78
     0
281
     0
 65
     1
110
0.0
120
0.0
130
0.0
111
1.0
121
0.0
131
0.0
112
0.0
122
1.0
132
0.0
 79
     0
146
0.0
  0
ENDTAB
  0
TABLE
  2
LTYPE
  5
5
330
0
100
AcDbSymbolTable
 70
     1
  0
LTYPE
  5
14
330
5
100
AcDbSymbolTableRecord
100
AcDbLinetypeTableRecord
  2
ByBlock
 70
     0
  3

 72
    65
 73
     0
 40
0.0
  0
LTYPE
  5
15
330
5
100
AcDbSymbolTableRecord
100
AcDbLinetypeTableRecord
  2
ByLayer
 70
     0
  3

 72
    65
 73
     0
 40
0.0
  0
LTYPE
  5
16
330
5
100
AcDbSymbolTableRecord
100
AcDbLinetypeTableRecord
  2
Continuous
 70
     0
  3
Solid line
 72
    65
 73
     0
 40
0.0
  0
ENDTAB
  0
TABLE
  2
LAYER
  5
2
330
0
100
AcDbSymbolTable
 70
     1
  0
LAYER
  5
10
330
2
100
AcDbSymbolTableRecord
100
AcDbLayerTableRecord
  2
0
 70
     0
 62
     7
  6
Continuous
370
    -3
390
F
  0
ENDTAB
  0
TABLE
  2
STYLE
  5
3
330
0
100
AcDbSymbolTable
 70
     1
  0
STYLE
  5
11
330
3
100
AcDbSymbolTableRecord
100
AcDbTextStyleTableRecord
  2
Standard
 70
     0
 40
0.0
 41
1.0
 50
0.0
 71
     0
 42
0.2
  3
txt
  4

  0
ENDTAB
  0
TABLE
  2
VIEW
  5
6
330
0
100
AcDbSymbolTable
 70
     0
  0
ENDTAB
  0
TABLE
  2
UCS
  5
7
330
0
100
AcDbSymbolTable
 70
     0
  0
ENDTAB
  0
TABLE
  2
APPID
  5
9
330
0
100
AcDbSymbolTable
 70
     2
  0
APPID
  5
12
330
9
100
AcDbSymbolTableRecord
100
AcDbRegAppTableRecord
  2
ACAD
 70
     0
  0
APPID
  5
853
330
9
100
AcDbSymbolTableRecord
100
AcDbRegAppTableRecord
  2
ACAD_MLEADERVER
 70
     0
  0
ENDTAB
  0
TABLE
  2
DIMSTYLE
  5
A
330
0
100
AcDbSymbolTable
 70
     1
100
AcDbDimStyleTable
  0
DIMSTYLE
105
20
330
A
100
AcDbSymbolTableRecord
100
AcDbDimStyleTableRecord
  2
Standard
 70
     0
178
     0
340
11
  0
ENDTAB
  0
TABLE
  2
BLOCK_RECORD
  5
1
330
0
100
AcDbSymbolTable
 70
     0
  0
BLOCK_RECORD
  5
1D
330
1
100
AcDbSymbolTableRecord
100
AcDbBlockTableRecord
  2
*Model_Space
340
1E
  0
BLOCK_RECORD
  5
1B
330
1
100
AcDbSymbolTableRecord
100
AcDbBlockTableRecord
  2
*Paper_Space
340
1C
  0
ENDTAB
  0
ENDSEC
  0
SECTION
  2
BLOCKS
  0
BLOCK
  5
7F0
330
1D
100
AcDbEntity
  8
0
100
AcDbBlockBegin
  2
*Model_Space
 70
     0
 10
0.0
 20
0.0
 30
0.0
  3
*Model_Space
  1

  0
ENDBLK
  5
7F1
330
1D
100
AcDbEntity
  8
0
100
AcDbBlockEnd
  0
BLOCK
  5
7F2
330
1B
100
AcDbEntity
 67
     1
  8
0
100
AcDbBlockBegin
  2
*Paper_Space
 70
     0
 10
0.0
 20
0.0
 30
0.0
  3
*Paper_Space
  1

  0
ENDBLK
  5
7F3
330
1B
100
AcDbEntity
 67
     1
  8
0
100
AcDbBlockEnd
  0
ENDSEC
  0
SECTION
  2
ENTITIES
  0
LWPOLYLINE
  5
22
330
1D
100
AcDbEntity
  8
0
100
AcDbPolyline
 90
        8
 70
     1
 43
0.0
 10
44.958
 20
179.832
 10
0.0
 20
179.832
 10
0.0
 20
89.916
 10
0.0
 20
0.0
 10
44.958
 20
0.0
 10
89.916
 20
0.0
 10
89.916
 20
89.916
 10
89.916
 20
179.832
  0
LWPOLYLINE
  5
2C
330
1D
100
AcDbEntity
  8
0
100
AcDbPolyline
 90
       14
 70
     1
 43
0.0
 10
14.9225
 20
171.898395
 10
22.225
 20
171.831
 10
22.296819
 20
168.9735
 10
22.368638
 20
166.116
 10
17.728967
 20
166.116
 10
13.089295
 20
166.116
 10
10.354648
 20
168.842168
 42
-0.003408
 10
9.306403
 20
169.901508
 42
-0.005381
 10
8.423303
 20
170.825901
 42
-0.001626
 10
7.671537
 20
171.635226
 42
-0.18851
 10
7.62
 20
171.767063
 42
-0.408107
 10
7.69872
 20
171.847446
 42
-0.000728
 10
9.765109
 20
171.887617
 42
-0.004253
 10
12.122362
 20
171.909957
 42
-0.00255
  0
LWPOLYLINE
  5
3C
330
1D
100
AcDbEntity
  8
0
100
AcDbPolyline
 90
       14
 70
     1
 43
0.0
 10
33.147
 20
171.958
 42
-0.002412
 10
35.922784
 20
171.944608
 42
-0.004022
 10
38.259544
 20
171.903259
 42
-0.000651
 10
40.312026
 20
171.847748
 42
-0.405937
 10
40.386
 20
171.771648
 42
-0.188475
 10
40.337445
 20
171.647413
 42
-0.001438
 10
39.585188
 20
170.836734
 42
-0.005047
 10
38.704847
 20
169.912361
 42
-0.003187
 10
37.659832
 20
168.850648
 10
34.933664
 20
166.116
 10
30.420832
 20
166.116
 10
25.908
 20
166.116
 10
25.908
 20
169.037
 10
25.908
 20
171.958
  0
LWPOLYLINE
  5
4C
330
1D
100
AcDbEntity
  8
0
100
AcDbPolyline
 90
       14
 70
     1
 43
0.0
 10
56.769
 20
171.958
 10
64.008
 20
171.958
 10
64.008
 20
169.037
 10
64.008
 20
166.116
 10
59.503648
 20
166.116
 10
54.999295
 20
166.116
 10
52.264648
 20
168.842168
 42
-0.003342
 10
51.216396
 20
169.901232
 42
-0.005281
 10
50.333303
 20
170.824756
 42
-0.001567
 10
49.580653
 20
171.633763
 42
-0.188742
 10
49.53
 20
171.763168
 42
-0.405526
 10
49.607197
 20
171.842696
 42
-0.000711
 10
51.656456
 20
171.900768
 42
-0.004205
 10
53.993218
 20
171.943998
 42
-0.002522
  0
LWPOLYLINE
  5
5C
330
1D
100
AcDbEntity
  8
0
100
AcDbPolyline
 90
       20
 70
     1
 43
0.0
 10
75.099333
 20
171.958
 42
-0.002426
 10
77.858884
 20
171.944608
 42
-0.004046
 10
80.181979
 20
171.903259
 42
-0.000659
 10
82.222044
 20
171.847744
 42
-0.405884
 10
82.296
 20
171.771648
 42
-0.188475
 10
82.247445
 20
171.647413
 42
-0.001438
 10
81.495188
 20
170.836734
 42
-0.005047
 10
80.614847
 20
169.912361
 42
-0.003187
 10
79.569832
 20
168.850648
 10
76.843664
 20
166.116
 10
72.203832
 20
166.116
 10
67.564
 20
166.116
 10
67.564
 20
168.867667
 42
-0.005745
 10
67.576258
 20
169.934462
 42
-0.008732
 10
67.613742
 20
170.860773
 42
-0.004165
 10
67.665476
 20
171.6407
 42
-0.179603
 10
67.733333
 20
171.788667
 42
-0.192206
 10
67.89396
 20
171.857645
 42
-0.000713
 10
69.966946
 20
171.908258
 42
-0.003544
 10
72.328179
 20
171.945796
 42
-0.002202
  0
LWPOLYLINE
  5
72
330
1D
100
AcDbEntity
  8
0
100
AcDbPolyline
 90
       14
 70
     1
 43
0.0
 10
43.112357
 20
169.164
 42
-0.411429
 10
43.140157
 20
169.136463
 42
-0.000083
 10
43.16013
 20
167.000238
 42
-0.001435
 10
43.175139
 20
164.622497
 42
-0.00086
 10
43.18
 20
161.798
 10
43.18
 20
154.432
 10
40.259
 20
154.432
 10
37.338
 20
154.432
 10
37.338
 20
158.936526
 10
37.338
 20
163.441051
 10
40.191357
 20
166.302526
 42
-0.00111
 10
41.290222
 20
167.399636
 42
-0.001819
 10
42.22641
 20
168.323442
 42
-0.000188
 10
43.065642
 20
169.144952
 42
-0.196043
  0
LWPOLYLINE
  5
82
330
1D
100
AcDbEntity
  8
0
100
AcDbPolyline
 90
        8
 70
     1
 43
0.0
 10
49.657
 20
166.37
 10
52.578
 20
163.457287
 10
52.578
 20
158.944643
 10
52.578
 20
154.432
 10
49.657
 20
154.432
 10
46.736
 20
154.432
 10
46.736
 20
161.857357
 10
46.736
 20
169.282713
  0
LWPOLYLINE
  5
8C
330
1D
100
AcDbEntity
  8
0
100
AcDbPolyline
 90
       14
 70
     1
 43
0.0
 10
5.008397
 20
168.91
 42
-0.188241
 10
5.135118
 20
168.860539
 42
-0.001495
 10
5.946104
 20
168.109188
 42
-0.005148
 10
6.871359
 20
167.22884
 42
-0.003254
 10
7.933352
 20
166.183832
 10
10.668
 20
163.457664
 10
10.668
 20
158.936513
 10
10.668
 20
154.415362
 10
7.8105
 20
154.487181
 10
4.953
 20
154.559
 10
4.885544
 20
161.7345
 42
-0.002485
 10
4.873355
 20
164.48594
 42
-0.004145
 10
4.893807
 20
166.802197
 42
-0.000691
 10
4.931413
 20
168.834532
 42
-0.408401
  0
LWPOLYLINE
  5
9C
330
1D
100
AcDbEntity
  8
0
100
AcDbPolyline
 90
       14
 70
     1
 43
0.0
 10
84.899124
 20
168.91
 42
-0.407984
 10
84.979503
 20
168.831317
 42
-0.000754
 10
85.019702
 20
166.802197
 42
-0.004329
 10
85.042036
 20
164.485939
 42
-0.002596
 10
85.030456
 20
161.7345
 10
84.963
 20
154.559
 10
82.1055
 20
154.487181
 10
79.248
 20
154.415362
 10
79.248
 20
158.928033
 10
79.248
 20
163.440705
 10
81.974168
 20
166.175352
 42
-0.003409
 10
83.033512
 20
167.223597
 42
-0.005382
 10
83.957918
 20
168.106697
 42
-0.001627
 10
84.767248
 20
168.85845
 42
-0.188506
  0
LWPOLYLINE
  5
AC
330
1D
100
AcDbEntity
  8
0
100
AcDbPolyline
 90
       18
 70
     1
 43
0.0
 10
18.288
 20
162.56
 42
-0.015525
 10
18.77486
 20
162.54488
 42
-0.025397
 10
19.184938
 20
162.498394
 42
-0.022981
 10
19.494464
 20
162.432545
 42
-0.341193
 10
19.558
 20
162.350276
 42
-0.148512
 10
19.523208
 20
162.235724
 42
-0.019347
 10
19.371469
 20
162.026921
 42
-0.021145
 10
19.166169
 20
161.787779
 42
-0.016233
 10
18.923
 20
161.544
 10
18.288
 20
160.947448
 10
17.653
 20
161.544
 42
-0.016233
 10
17.409831
 20
161.787779
 42
-0.021145
 10
17.204531
 20
162.026921
 42
-0.019347
 10
17.052792
 20
162.235724
 42
-0.148512
 10
17.018
 20
162.350276
 42
-0.341193
 10
17.081536
 20
162.432545
 42
-0.022981
 10
17.391063
 20
162.498394
 42
-0.025397
 10
17.80114
 20
162.54488
 42
-0.015525
  0
LWPOLYLINE
  5
C0
330
1D
100
AcDbEntity
  8
0
100
AcDbPolyline
 90
       14
 70
     1
 43
0.0
 10
27.906222
 20
162.56
 42
-0.005898
 10
29.087889
 20
162.54606
 42
-0.009811
 10
30.082728
 20
162.503041
 42
-0.003816
 10
30.91573
 20
162.444244
 42
-0.391519
 10
30.988
 20
162.366097
 42
-0.191136
 10
30.93622
 20
162.235591
 42
-0.000977
 10
29.960514
 20
161.203634
 42
-0.004156
 10
28.831067
 20
160.033372
 42
-0.002598
 10
27.490176
 20
158.681065
 10
23.992353
 20
155.189936
 10
22.346676
 20
156.85237
 10
20.701
 20
158.514805
 10
22.762722
 20
160.537402
 10
24.824445
 20
162.56
  0
LWPOLYLINE
  5
D0
330
1D
100
AcDbEntity
  8
0
100
AcDbPolyline
 90
       14
 70
     1
 43
0.0
 10
62.009778
 20
162.56
 10
65.091555
 20
162.56
 10
67.153278
 20
160.537402
 10
69.215
 20
158.514805
 10
67.569324
 20
156.85237
 10
65.923647
 20
155.189936
 10
62.425824
 20
158.681065
 42
-0.002598
 10
61.084933
 20
160.033372
 42
-0.004156
 10
59.955486
 20
161.203634
 42
-0.000977
 10
58.97978
 20
162.235591
 42
-0.191136
 10
58.928
 20
162.366097
 42
-0.391519
 10
59.00027
 20
162.444244
 42
-0.003816
 10
59.833272
 20
162.503041
 42
-0.009811
 10
60.828111
 20
162.54606
 42
-0.005898
  0
LWPOLYLINE
  5
E0
330
1D
100
AcDbEntity
  8
0
100
AcDbPolyline
 90
       18
 70
     1
 43
0.0
 10
71.628
 20
162.56
 42
-0.015525
 10
72.11486
 20
162.54488
 42
-0.025397
 10
72.524937
 20
162.498394
 42
-0.022981
 10
72.834464
 20
162.432545
 42
-0.341193
 10
72.898
 20
162.350276
 42
-0.148512
 10
72.863208
 20
162.235724
 42
-0.019347
 10
72.711469
 20
162.026921
 42
-0.021145
 10
72.506169
 20
161.787779
 42
-0.016233
 10
72.263
 20
161.544
 10
71.628
 20
160.947448
 10
70.993
 20
161.544
 42
-0.016233
 10
70.749831
 20
161.787779
 42
-0.021145
 10
70.544531
 20
162.026921
 42
-0.019347
 10
70.392792
 20
162.235724
 42
-0.148512
 10
70.358
 20
162.350276
 42
-0.341193
 10
70.421536
 20
162.432545
 42
-0.022981
 10
70.731063
 20
162.498394
 42
-0.025397
 10
71.14114
 20
162.54488
 42
-0.015525
  0
LWPOLYLINE
  5
F4
330
1D
100
AcDbEntity
  8
0
100
AcDbPolyline
 90
       12
 70
     1
 43
0.0
 10
14.985806
 20
159.131186
 10
15.747613
 20
158.401329
 10
15.195531
 20
157.813664
 42
-0.017515
 10
14.968782
 20
157.58864
 42
-0.022377
 10
14.744016
 20
157.398626
 42
-0.021083
 10
14.546686
 20
157.259263
 42
-0.144173
 10
14.433724
 20
157.226
 42
-0.344373
 10
14.351355
 20
157.290365
 42
-0.021585
 10
14.285606
 20
157.613022
 42
-0.024509
 10
14.239117
 20
158.038435
 42
-0.014961
 10
14.224
 20
158.543521
 10
14.224
 20
159.861042
  0
LWPOLYLINE
  5
102
330
1D
100
AcDbEntity
  8
0
100
AcDbPolyline
 90
        8
 70
     1
 43
0.0
 10
33.726746
 20
156.668832
 10
33.798492
 20
153.56334
 10
31.758554
 20
151.523402
 10
29.718616
 20
149.483464
 10
28.13378
 20
151.0683
 10
26.548944
 20
152.653136
 10
30.101972
 20
156.213731
 10
33.655
 20
159.774325
  0
LWPOLYLINE
  5
10C
330
1D
100
AcDbEntity
  8
0
100
AcDbPolyline
 90
        8
 70
     1
 43
0.0
 10
59.751673
 20
156.273099
 10
63.369346
 20
152.655426
 10
61.785387
 20
151.071467
 10
60.201429
 20
149.487509
 10
58.167714
 20
151.509296
 10
56.134
 20
153.531082
 10
56.134
 20
156.710927
 10
56.134
 20
159.890772
  0
LWPOLYLINE
  5
116
330
1D
100
AcDbEntity
  8
0
100
AcDbPolyline
 90
       12
 70
     1
 43
0.0
 10
75.643532
 20
158.614929
 42
-0.011871
 10
75.663204
 20
158.148838
 42
-0.016703
 10
75.656979
 20
157.732806
 42
-0.012938
 10
75.631745
 20
157.393541
 42
-0.173017
 10
75.57903
 20
157.282364
 42
-0.298523
 10
75.485196
 20
157.262835
 42
-0.038349
 10
75.290987
 20
157.357048
 42
-0.03467
 10
75.053669
 20
157.518585
 42
-0.021813
 10
74.799313
 20
157.737464
 10
74.162629
 20
158.335597
 10
74.863815
 20
159.070028
 10
75.565
 20
159.80446
  0
LWPOLYLINE
  5
124
330
1D
100
AcDbEntity
  8
0
100
AcDbPolyline
 90
       14
 70
     1
 43
0.0
 10
19.804898
 20
154.307398
 10
21.457118
 20
152.655178
 10
18.034588
 20
149.225589
 42
-0.002652
 10
16.708576
 20
147.910863
 42
-0.004238
 10
15.56043
 20
146.803442
 42
-0.001016
 10
14.548493
 20
145.847717
 42
-0.190974
 10
14.418029
 20
145.796
 42
-0.391709
 10
14.33982
 20
145.868375
 42
-0.003763
 10
14.280996
 20
146.708352
 42
-0.009742
 10
14.237949
 20
147.710972
 42
-0.005856
 10
14.224
 20
148.901881
 10
14.224
 20
152.007761
 10
16.188339
 20
153.983689
 10
18.152679
 20
155.959618
  0
LWPOLYLINE
  5
134
330
1D
100
AcDbEntity
  8
0
100
AcDbPolyline
 90
       14
 70
     1
 43
0.0
 10
73.717015
 20
153.994319
 10
75.692
 20
152.030918
 10
75.692
 20
148.913459
 42
-0.005835
 10
75.678051
 20
147.71811
 42
-0.009706
 10
75.635004
 20
146.711754
 42
-0.003736
 10
75.576186
 20
145.868406
 42
-0.391807
 10
75.497971
 20
145.796
 42
-0.190967
 10
75.367511
 20
145.847713
 42
-0.001017
 10
74.356304
 20
146.802706
 42
-0.004241
 10
73.208965
 20
147.909319
 42
-0.002654
 10
71.883911
 20
149.223085
 10
68.46388
 20
152.65017
 10
70.102955
 20
154.303946
 10
71.74203
 20
155.957721
  0
LWPOLYLINE
  5
144
330
1D
100
AcDbEntity
  8
0
100
AcDbPolyline
 90
       14
 70
     1
 43
0.0
 10
7.747
 20
150.876
 10
10.668
 20
150.876
 10
10.668
 20
146.371648
 10
10.668
 20
141.867295
 10
7.941832
 20
139.132648
 42
-0.003342
 10
6.882768
 20
138.084396
 42
-0.005281
 10
5.959244
 20
137.201303
 42
-0.001567
 10
5.150237
 20
136.448653
 42
-0.188742
 10
5.020832
 20
136.398
 42
-0.405526
 10
4.941304
 20
136.475197
 42
-0.000711
 10
4.883232
 20
138.524456
 42
-0.004205
 10
4.840002
 20
140.861218
 42
-0.002522
 10
4.826
 20
143.637
 10
4.826
 20
150.876
  0
LWPOLYLINE
  5
154
330
1D
100
AcDbEntity
  8
0
100
AcDbPolyline
 90
        8
 70
     1
 43
0.0
 10
40.259
 20
150.876
 10
43.18
 20
150.876
 10
43.18
 20
143.450643
 10
43.18
 20
136.025287
 10
40.259
 20
138.938
 10
37.338
 20
141.850713
 10
37.338
 20
146.363357
 10
37.338
 20
150.876
  0
LWPOLYLINE
  5
15E
330
1D
100
AcDbEntity
  8
0
100
AcDbPolyline
 90
        8
 70
     1
 43
0.0
 10
49.657
 20
150.876
 10
52.578
 20
150.876
 10
52.578
 20
146.363357
 10
52.578
 20
141.850713
 10
49.657
 20
138.938
 10
46.736
 20
136.025287
 10
46.736
 20
143.450643
 10
46.736
 20
150.876
  0
LWPOLYLINE
  5
168
330
1D
100
AcDbEntity
  8
0
100
AcDbPolyline
 90
       14
 70
     1
 43
0.0
 10
82.159311
 20
150.876
 10
85.070622
 20
150.876
 10
85.073627
 20
143.637
 42
-0.002326
 10
85.061867
 20
140.861215
 42
-0.003878
 10
85.022971
 20
138.524456
 42
-0.000605
 10
84.97033
 20
136.469425
 42
-0.40638
 10
84.896963
 20
136.398
 42
-0.188869
 10
84.776943
 20
136.445013
 42
-0.001343
 10
83.96677
 20
137.198812
 42
-0.004875
 10
83.043889
 20
138.079141
 42
-0.003073
 10
81.982648
 20
139.124168
 10
79.248
 20
141.850336
 10
79.248
 20
146.363168
 10
79.248
 20
150.876
  0
LWPOLYLINE
  5
178
330
1D
100
AcDbEntity
  8
0
100
AcDbPolyline
 90
        8
 70
     1
 43
0.0
 10
25.586251
 20
148.531275
 10
27.179721
 20
146.95197
 10
25.216319
 20
144.976985
 10
23.252918
 20
143.002
 10
20.075362
 20
143.002
 10
16.897806
 20
143.002
 10
20.445294
 20
146.55629
 10
23.992782
 20
150.110581
  0
LWPOLYLINE
  5
182
330
1D
100
AcDbEntity
  8
0
100
AcDbPolyline
 90
        8
 70
     1
 43
0.0
 10
69.404339
 20
146.623532
 10
72.906325
 20
143.129
 10
69.804546
 20
143.057284
 10
66.702768
 20
142.985568
 10
64.720821
 20
144.955891
 10
62.738874
 20
146.926214
 10
64.320613
 20
148.522139
 10
65.902353
 20
150.118064
  0
LWPOLYLINE
  5
18C
330
1D
100
AcDbEntity
  8
0
100
AcDbPolyline
 90
       12
 70
     1
 43
0.0
 10
56.895806
 20
147.701186
 10
57.657613
 20
146.971329
 10
57.105531
 20
146.383664
 42
-0.017515
 10
56.878782
 20
146.15864
 42
-0.022377
 10
56.654016
 20
145.968626
 42
-0.021083
 10
56.456686
 20
145.829263
 42
-0.144173
 10
56.343724
 20
145.796
 42
-0.344373
 10
56.261355
 20
145.860365
 42
-0.021585
 10
56.195606
 20
146.183022
 42
-0.024509
 10
56.149117
 20
146.608435
 42
-0.014961
 10
56.134
 20
147.113521
 10
56.134
 20
148.431042
  0
LWPOLYLINE
  5
19A
330
1D
100
AcDbEntity
  8
0
100
AcDbPolyline
 90
       24
 70
     1
 43
0.0
 10
33.567367
 20
148.082
 42
-0.329021
 10
33.651207
 20
148.020132
 42
-0.028437
 10
33.718952
 20
147.746244
 42
-0.028744
 10
33.766511
 20
147.377143
 42
-0.01767
 10
33.782
 20
146.939
 42
-0.014015
 10
33.769715
 20
146.500806
 42
-0.023009
 10
33.731916
 20
146.131756
 42
-0.019288
 10
33.678607
 20
145.849471
 42
-0.349685
 10
33.6115
 20
145.796
 42
-0.127166
 10
33.51856
 20
145.820026
 42
-0.019706
 10
33.354638
 20
145.919483
 42
-0.02089
 10
33.166841
 20
146.055414
 42
-0.016815
 10
32.9765
 20
146.216367
 42
-0.02788
 10
32.798719
 20
146.396262
 42
-0.030866
 10
32.648447
 20
146.589077
 42
-0.032423
 10
32.542508
 20
146.767631
 42
-0.118213
 10
32.512
 20
146.894867
 42
-0.104102
 10
32.539343
 20
147.024773
 42
-0.027996
 10
32.635483
 20
147.21362
 42
-0.027094
 10
32.771473
 20
147.420715
 42
-0.025093
 10
32.932367
 20
147.6175
 42
-0.02333
 10
33.109051
 20
147.795313
 42
-0.027601
 10
33.292299
 20
147.945553
 42
-0.028185
 10
33.457981
 20
148.052969
 42
-0.130443
  0
LWPOLYLINE
  5
1B4
330
1D
100
AcDbEntity
  8
0
100
AcDbPolyline
 90
       12
 70
     1
 43
0.0
 10
29.718
 20
144.272
 42
-0.160602
 10
29.812137
 20
144.240962
 42
-0.014444
 10
30.010085
 20
144.085469
 42
-0.01762
 10
30.239442
 20
143.880224
 42
-0.01285
 10
30.48
 20
143.637
 10
31.076552
 20
143.002
 10
29.718
 20
143.002
 10
28.359448
 20
143.002
 10
28.956
 20
143.637
 42
-0.01285
 10
29.196558
 20
143.880224
 42
-0.01762
 10
29.425915
 20
144.085469
 42
-0.014444
 10
29.623863
 20
144.240962
 42
-0.160602
  0
LWPOLYLINE
  5
1C2
330
1D
100
AcDbEntity
  8
0
100
AcDbPolyline
 90
       12
 70
     1
 43
0.0
 10
60.198
 20
144.272
 42
-0.160602
 10
60.292137
 20
144.240962
 42
-0.014444
 10
60.490085
 20
144.085469
 42
-0.01762
 10
60.719442
 20
143.880224
 42
-0.01285
 10
60.96
 20
143.637
 10
61.556552
 20
143.002
 10
60.198
 20
143.002
 10
58.839448
 20
143.002
 10
59.436
 20
143.637
 42
-0.01285
 10
59.676558
 20
143.880224
 42
-0.01762
 10
59.905915
 20
144.085469
 42
-0.014444
 10
60.103863
 20
144.240962
 42
-0.160602
  0
LWPOLYLINE
  5
1D0
330
1D
100
AcDbEntity
  8
0
100
AcDbPolyline
 90
        8
 70
     1
 43
0.0
 10
17.78
 20
139.387621
 10
22.225
 20
139.319
 10
22.296819
 20
136.4615
 10
22.368638
 20
133.604
 10
14.934962
 20
133.604
 10
7.501287
 20
133.604
 10
10.418143
 20
136.530121
 10
13.335
 20
139.456242
  0
LWPOLYLINE
  5
1DA
330
1D
100
AcDbEntity
  8
0
100
AcDbPolyline
 90
        8
 70
     1
 43
0.0
 10
30.293643
 20
139.446
 10
34.679287
 20
139.446
 10
37.592
 20
136.525
 10
40.504713
 20
133.604
 10
33.206357
 20
133.604
 10
25.908
 20
133.604
 10
25.908
 20
136.525
 10
25.908
 20
139.446
  0
LWPOLYLINE
  5
1E4
330
1D
100
AcDbEntity
  8
0
100
AcDbPolyline
 90
        8
 70
     1
 43
0.0
 10
59.622357
 20
139.446
 10
64.008
 20
139.446
 10
64.008
 20
136.525
 10
64.008
 20
133.604
 10
56.709643
 20
133.604
 10
49.411287
 20
133.604
 10
52.324
 20
136.525
 10
55.236713
 20
139.446
  0
LWPOLYLINE
  5
1EE
330
1D
100
AcDbEntity
  8
0
100
AcDbPolyline
 90
       14
 70
     1
 43
0.0
 10
72.245977
 20
139.446
 10
76.589287
 20
139.446
 10
79.502
 20
136.525
 10
82.414713
 20
133.604
 10
74.989357
 20
133.604
 10
67.564
 20
133.604
 10
67.564
 20
136.355667
 42
-0.005745
 10
67.576258
 20
137.422462
 42
-0.008732
 10
67.613742
 20
138.348773
 42
-0.004165
 10
67.665476
 20
139.1287
 42
-0.179603
 10
67.733333
 20
139.276667
 42
-0.187274
 10
67.888704
 20
139.345147
 42
-0.001843
 10
69.128772
 20
139.396258
 42
-0.005732
 10
70.568912
 20
139.433773
 42
-0.003645
  0
LWPOLYLINE
  5
1FE
330
1D
100
AcDbEntity
  8
0
100
AcDbPolyline
 90
       14
 70
     1
 43
0.0
 10
14.9225
 20
129.988395
 10
22.225
 20
129.921
 10
22.296819
 20
127.0635
 10
22.368638
 20
124.206
 10
17.728967
 20
124.206
 10
13.089295
 20
124.206
 10
10.354648
 20
126.932168
 42
-0.003408
 10
9.306403
 20
127.991508
 42
-0.005381
 10
8.423303
 20
128.915901
 42
-0.001626
 10
7.671537
 20
129.725226
 42
-0.18851
 10
7.62
 20
129.857063
 42
-0.408107
 10
7.69872
 20
129.937446
 42
-0.000728
 10
9.765109
 20
129.977617
 42
-0.004253
 10
12.122362
 20
129.999957
 42
-0.00255
  0
LWPOLYLINE
  5
20E
330
1D
100
AcDbEntity
  8
0
100
AcDbPolyline
 90
       14
 70
     1
 43
0.0
 10
33.147
 20
130.048
 42
-0.002412
 10
35.922784
 20
130.034608
 42
-0.004022
 10
38.259544
 20
129.993259
 42
-0.000651
 10
40.312026
 20
129.937748
 42
-0.405937
 10
40.386
 20
129.861648
 42
-0.188475
 10
40.337445
 20
129.737413
 42
-0.001438
 10
39.585188
 20
128.926734
 42
-0.005047
 10
38.704847
 20
128.002361
 42
-0.003187
 10
37.659832
 20
126.940648
 10
34.933664
 20
124.206
 10
30.420832
 20
124.206
 10
25.908
 20
124.206
 10
25.908
 20
127.127
 10
25.908
 20
130.048
  0
LWPOLYLINE
  5
21E
330
1D
100
AcDbEntity
  8
0
100
AcDbPolyline
 90
       14
 70
     1
 43
0.0
 10
56.769
 20
130.048
 10
64.008
 20
130.048
 10
64.008
 20
127.127
 10
64.008
 20
124.206
 10
59.503648
 20
124.206
 10
54.999295
 20
124.206
 10
52.264648
 20
126.932168
 42
-0.003342
 10
51.216396
 20
127.991232
 42
-0.005281
 10
50.333303
 20
128.914756
 42
-0.001567
 10
49.580653
 20
129.723763
 42
-0.188742
 10
49.53
 20
129.853168
 42
-0.405526
 10
49.607197
 20
129.932696
 42
-0.000711
 10
51.656456
 20
129.990768
 42
-0.004205
 10
53.993218
 20
130.033998
 42
-0.002522
  0
LWPOLYLINE
  5
22E
330
1D
100
AcDbEntity
  8
0
100
AcDbPolyline
 90
       20
 70
     1
 43
0.0
 10
75.099333
 20
130.048
 42
-0.002426
 10
77.858884
 20
130.034608
 42
-0.004046
 10
80.181979
 20
129.993259
 42
-0.000659
 10
82.222044
 20
129.937744
 42
-0.405884
 10
82.296
 20
129.861648
 42
-0.188475
 10
82.247445
 20
129.737413
 42
-0.001438
 10
81.495188
 20
128.926734
 42
-0.005047
 10
80.614847
 20
128.002361
 42
-0.003187
 10
79.569832
 20
126.940648
 10
76.843664
 20
124.206
 10
72.203832
 20
124.206
 10
67.564
 20
124.206
 10
67.564
 20
126.957667
 42
-0.005745
 10
67.576258
 20
128.024462
 42
-0.008732
 10
67.613742
 20
128.950773
 42
-0.004165
 10
67.665476
 20
129.7307
 42
-0.179603
 10
67.733333
 20
129.878667
 42
-0.192206
 10
67.89396
 20
129.947645
 42
-0.000713
 10
69.966946
 20
129.998258
 42
-0.003544
 10
72.328179
 20
130.035796
 42
-0.002202
  0
LWPOLYLINE
  5
244
330
1D
100
AcDbEntity
  8
0
100
AcDbPolyline
 90
       14
 70
     1
 43
0.0
 10
7.884657
 20
124.576376
 10
10.668
 20
121.801664
 10
10.668
 20
117.153513
 10
10.668
 20
112.505362
 10
7.8105
 20
112.577181
 10
4.953
 20
112.649
 10
4.885309
 20
119.630395
 42
-0.001945
 10
4.86962
 20
122.332892
 42
-0.003001
 10
4.87917
 20
124.66959
 42
-0.000971
 10
4.903484
 20
126.690655
 42
-0.088337
 10
4.959465
 20
126.98144
 42
-0.482182
 10
5.143809
 20
127.039639
 42
-0.023842
 10
5.729856
 20
126.602889
 42
-0.018704
 10
6.593062
 20
125.837315
 42
-0.005228
  0
LWPOLYLINE
  5
254
330
1D
100
AcDbEntity
  8
0
100
AcDbPolyline
 90
       14
 70
     1
 43
0.0
 10
43.112357
 20
127.254
 42
-0.411429
 10
43.140157
 20
127.226463
 42
-0.000083
 10
43.16013
 20
125.090238
 42
-0.001435
 10
43.175139
 20
122.712497
 42
-0.00086
 10
43.18
 20
119.888
 10
43.18
 20
112.522
 10
40.259
 20
112.522
 10
37.338
 20
112.522
 10
37.338
 20
117.026526
 10
37.338
 20
121.531051
 10
40.191357
 20
124.392526
 42
-0.00111
 10
41.290222
 20
125.489636
 42
-0.001819
 10
42.22641
 20
126.413442
 42
-0.000188
 10
43.065642
 20
127.234952
 42
-0.196043
  0
LWPOLYLINE
  5
264
330
1D
100
AcDbEntity
  8
0
100
AcDbPolyline
 90
        8
 70
     1
 43
0.0
 10
49.657
 20
124.46
 10
52.578
 20
121.547287
 10
52.578
 20
117.034643
 10
52.578
 20
112.522
 10
49.657
 20
112.522
 10
46.736
 20
112.522
 10
46.736
 20
119.947357
 10
46.736
 20
127.372713
  0
LWPOLYLINE
  5
26E
330
1D
100
AcDbEntity
  8
0
100
AcDbPolyline
 90
       14
 70
     1
 43
0.0
 10
84.899063
 20
127.254
 42
-0.408107
 10
84.979446
 20
127.17528
 42
-0.000728
 10
85.019617
 20
125.108891
 42
-0.004253
 10
85.041957
 20
122.751638
 42
-0.00255
 10
85.030395
 20
119.9515
 10
84.963
 20
112.649
 10
82.1055
 20
112.577181
 10
79.248
 20
112.505362
 10
79.248
 20
117.145033
 10
79.248
 20
121.784705
 10
81.974168
 20
124.519352
 42
-0.003408
 10
83.033508
 20
125.567597
 42
-0.005381
 10
83.957901
 20
126.450697
 42
-0.001626
 10
84.767226
 20
127.202463
 42
-0.18851
  0
LWPOLYLINE
  5
27E
330
1D
100
AcDbEntity
  8
0
100
AcDbPolyline
 90
       20
 70
     1
 43
0.0
 10
20.135459
 20
120.65
 10
23.252918
 20
120.65
 10
25.272002
 20
118.619004
 10
27.291085
 20
116.588009
 10
25.781994
 20
115.063004
 42
-0.008196
 10
25.184506
 20
114.47869
 42
-0.011989
 10
24.638213
 20
113.98597
 42
-0.007496
 10
24.169687
 20
113.595392
 42
-0.171637
 10
24.007422
 20
113.538
 42
-0.187378
 10
23.832144
 20
113.606077
 42
-0.001885
 10
22.832348
 20
114.527616
 42
-0.005801
 10
21.687816
 20
115.615572
 42
-0.003691
 10
20.379971
 20
116.906905
 42
-0.002598
 10
19.09116
 20
118.211865
 42
-0.004154
 10
18.005579
 20
119.341154
 42
-0.000978
 10
17.067851
 20
120.336896
 42
-0.190621
 10
17.018
 20
120.462905
 42
-0.392743
 10
17.088098
 20
120.538381
 42
-0.003479
 10
17.933754
 20
120.595041
 42
-0.00936
 10
18.940107
 20
120.63655
 42
-0.005626
  0
LWPOLYLINE
  5
294
330
1D
100
AcDbEntity
  8
0
100
AcDbPolyline
 90
       12
 70
     1
 43
0.0
 10
29.670479
 20
120.65
 42
-0.014961
 10
30.175565
 20
120.634883
 42
-0.024509
 10
30.600978
 20
120.588394
 42
-0.021585
 10
30.923635
 20
120.522645
 42
-0.344373
 10
30.988
 20
120.440276
 42
-0.144173
 10
30.954737
 20
120.327314
 42
-0.021083
 10
30.815374
 20
120.129984
 42
-0.022377
 10
30.62536
 20
119.905218
 42
-0.017515
 10
30.400336
 20
119.678469
 10
29.812671
 20
119.126387
 10
29.082814
 20
119.888194
 10
28.352958
 20
120.65
  0
LWPOLYLINE
  5
2A2
330
1D
100
AcDbEntity
  8
0
100
AcDbPolyline
 90
       12
 70
     1
 43
0.0
 10
60.245521
 20
120.65
 10
61.563042
 20
120.65
 10
60.833186
 20
119.888194
 10
60.103329
 20
119.126387
 10
59.515664
 20
119.678469
 42
-0.017515
 10
59.29064
 20
119.905218
 42
-0.022377
 10
59.100626
 20
120.129984
 42
-0.021083
 10
58.961263
 20
120.327314
 42
-0.144173
 10
58.928
 20
120.440276
 42
-0.344373
 10
58.992365
 20
120.522645
 42
-0.021585
 10
59.315022
 20
120.588394
 42
-0.024509
 10
59.740435
 20
120.634883
 42
-0.014961
  0
LWPOLYLINE
  5
2B0
330
1D
100
AcDbEntity
  8
0
100
AcDbPolyline
 90
       20
 70
     1
 43
0.0
 10
69.780541
 20
120.65
 42
-0.005626
 10
70.975893
 20
120.63655
 42
-0.00936
 10
71.982246
 20
120.595041
 42
-0.003479
 10
72.827902
 20
120.538381
 42
-0.392743
 10
72.898
 20
120.462905
 42
-0.190621
 10
72.848149
 20
120.336896
 42
-0.000978
 10
71.910421
 20
119.341154
 42
-0.004154
 10
70.82484
 20
118.211865
 42
-0.002598
 10
69.536029
 20
116.906905
 42
-0.003691
 10
68.228184
 20
115.615572
 42
-0.005801
 10
67.083652
 20
114.527616
 42
-0.001885
 10
66.083856
 20
113.606077
 42
-0.187378
 10
65.908578
 20
113.538
 42
-0.171637
 10
65.746313
 20
113.595392
 42
-0.007496
 10
65.277787
 20
113.98597
 42
-0.011989
 10
64.731494
 20
114.47869
 42
-0.008196
 10
64.134006
 20
115.063004
 10
62.624915
 20
116.588009
 10
64.643998
 20
118.619004
 10
66.663082
 20
120.65
  0
LWPOLYLINE
  5
2C6
330
1D
100
AcDbEntity
  8
0
100
AcDbPolyline
 90
       20
 70
     1
 43
0.0
 10
14.411095
 20
117.856
 42
-0.190621
 10
14.537104
 20
117.806149
 42
-0.000978
 10
15.532846
 20
116.868421
 42
-0.004154
 10
16.662135
 20
115.78284
 42
-0.002598
 10
17.967095
 20
114.494029
 42
-0.003691
 10
19.258428
 20
113.186184
 42
-0.005801
 10
20.346384
 20
112.041652
 42
-0.001885
 10
21.267923
 20
111.041856
 42
-0.187378
 10
21.336
 20
110.866578
 42
-0.171637
 10
21.278608
 20
110.704313
 42
-0.007496
 10
20.88803
 20
110.235787
 42
-0.011989
 10
20.39531
 20
109.689494
 42
-0.008196
 10
19.810996
 20
109.092006
 10
18.285991
 20
107.582915
 10
16.254996
 20
109.601998
 10
14.224
 20
111.621082
 10
14.224
 20
114.738541
 42
-0.005626
 10
14.23745
 20
115.933893
 42
-0.00936
 10
14.278959
 20
116.940246
 42
-0.003479
 10
14.335619
 20
117.785902
 42
-0.392743
  0
LWPOLYLINE
  5
2DC
330
1D
100
AcDbEntity
  8
0
100
AcDbPolyline
 90
       12
 70
     1
 43
0.0
 10
33.699276
 20
117.856
 42
-0.391779
 10
33.732622
 20
117.825133
 42
-0.003743
 10
33.7577
 20
117.46598
 42
-0.009716
 10
33.776053
 20
117.037372
 42
-0.005841
 10
33.782
 20
116.528273
 10
33.782
 20
115.200545
 10
33.096208
 20
115.886337
 10
32.410417
 20
116.572129
 10
33.013484
 20
117.214064
 42
-0.00639
 10
33.250585
 20
117.46007
 42
-0.009668
 10
33.463701
 20
117.667431
 42
-0.004919
 10
33.647538
 20
117.83615
 42
-0.185252
  0
LWPOLYLINE
  5
2EA
330
1D
100
AcDbEntity
  8
0
100
AcDbPolyline
 90
        6
 70
     1
 43
0.0
 10
56.826727
 20
117.278727
 10
57.519455
 20
116.586
 10
56.826727
 20
115.893273
 10
56.134
 20
115.200545
 10
56.134
 20
116.586
 10
56.134
 20
117.971455
  0
LWPOLYLINE
  5
2F2
330
1D
100
AcDbEntity
  8
0
100
AcDbPolyline
 90
       20
 70
     1
 43
0.0
 10
75.497971
 20
117.856
 42
-0.391807
 10
75.576186
 20
117.783594
 42
-0.003736
 10
75.635004
 20
116.940246
 42
-0.009706
 10
75.678051
 20
115.93389
 42
-0.005835
 10
75.692
 20
114.738541
 10
75.692
 20
111.621082
 10
73.661004
 20
109.601998
 10
71.630009
 20
107.582915
 10
70.105004
 20
109.092006
 42
-0.007983
 10
69.52068
 20
109.688997
 42
-0.011718
 10
69.02797
 20
110.23375
 42
-0.007189
 10
68.636366
 20
110.701079
 42
-0.172451
 10
68.58
 20
110.859644
 42
-0.187209
 10
68.646398
 20
111.030764
 42
-0.001791
 10
69.567579
 20
112.031858
 42
-0.005646
 10
70.653285
 20
113.177083
 42
-0.003588
 10
71.941971
 20
114.487095
 42
-0.0027
 10
73.244763
 20
115.778552
 42
-0.004311
 10
74.373359
 20
116.866384
 42
-0.00105
 10
75.367616
 20
117.804373
 42
-0.190813
  0
LWPOLYLINE
  5
308
330
1D
100
AcDbEntity
  8
0
100
AcDbPolyline
 90
       14
 70
     1
 43
0.0
 10
31.807015
 20
112.084319
 10
33.782
 20
110.120918
 10
33.782
 20
107.003459
 42
-0.005835
 10
33.768051
 20
105.80811
 42
-0.009706
 10
33.725004
 20
104.801754
 42
-0.003736
 10
33.666186
 20
103.958406
 42
-0.391807
 10
33.587971
 20
103.886
 42
-0.190967
 10
33.457511
 20
103.937713
 42
-0.001017
 10
32.446304
 20
104.892706
 42
-0.004241
 10
31.298965
 20
105.999319
 42
-0.002654
 10
29.973911
 20
107.313085
 10
26.55388
 20
110.74017
 10
28.192955
 20
112.393946
 10
29.83203
 20
114.047721
  0
LWPOLYLINE
  5
318
330
1D
100
AcDbEntity
  8
0
100
AcDbPolyline
 90
       14
 70
     1
 43
0.0
 10
61.714898
 20
112.397398
 10
63.367118
 20
110.745178
 10
59.944588
 20
107.315589
 42
-0.002652
 10
58.618576
 20
106.000863
 42
-0.004238
 10
57.47043
 20
104.893442
 42
-0.001016
 10
56.458493
 20
103.937717
 42
-0.190974
 10
56.328029
 20
103.886
 42
-0.391709
 10
56.24982
 20
103.958375
 42
-0.003763
 10
56.190996
 20
104.798352
 42
-0.009742
 10
56.147949
 20
105.800972
 42
-0.005856
 10
56.134
 20
106.991881
 10
56.134
 20
110.097761
 10
58.098339
 20
112.073689
 10
60.062679
 20
114.049618
  0
LWPOLYLINE
  5
328
330
1D
100
AcDbEntity
  8
0
100
AcDbPolyline
 90
       14
 70
     1
 43
0.0
 10
7.747
 20
108.966
 10
10.668
 20
108.966
 10
10.668
 20
104.461648
 10
10.668
 20
99.957295
 10
7.941832
 20
97.222648
 42
-0.003342
 10
6.882768
 20
96.174396
 42
-0.005281
 10
5.959244
 20
95.291303
 42
-0.001567
 10
5.150237
 20
94.538653
 42
-0.188742
 10
5.020832
 20
94.488
 42
-0.405526
 10
4.941304
 20
94.565197
 42
-0.000711
 10
4.883232
 20
96.614456
 42
-0.004205
 10
4.840002
 20
98.951218
 42
-0.002522
 10
4.826
 20
101.727
 10
4.826
 20
108.966
  0
LWPOLYLINE
  5
338
330
1D
100
AcDbEntity
  8
0
100
AcDbPolyline
 90
       14
 70
     1
 43
0.0
 10
40.259
 20
108.966
 10
43.18
 20
108.966
 10
43.18
 20
101.727
 42
-0.002412
 10
43.166608
 20
98.951216
 42
-0.004022
 10
43.125259
 20
96.614456
 42
-0.000651
 10
43.069748
 20
94.561974
 42
-0.405937
 10
42.993648
 20
94.488
 42
-0.188475
 10
42.869413
 20
94.536555
 42
-0.001438
 10
42.058734
 20
95.288812
 42
-0.005047
 10
41.134361
 20
96.169153
 42
-0.003187
 10
40.072648
 20
97.214168
 10
37.338
 20
99.940336
 10
37.338
 20
104.453168
 10
37.338
 20
108.966
  0
LWPOLYLINE
  5
348
330
1D
100
AcDbEntity
  8
0
100
AcDbPolyline
 90
       14
 70
     1
 43
0.0
 10
49.657
 20
108.966
 10
52.578
 20
108.966
 10
52.578
 20
104.461648
 10
52.578
 20
99.957295
 10
49.851832
 20
97.222648
 42
-0.003342
 10
48.792768
 20
96.174396
 42
-0.005281
 10
47.869244
 20
95.291303
 42
-0.001567
 10
47.060237
 20
94.538653
 42
-0.188742
 10
46.930832
 20
94.488
 42
-0.405526
 10
46.851304
 20
94.565197
 42
-0.000711
 10
46.793232
 20
96.614456
 42
-0.004205
 10
46.750002
 20
98.951218
 42
-0.002522
 10
46.736
 20
101.727
 10
46.736
 20
108.966
  0
LWPOLYLINE
  5
358
330
1D
100
AcDbEntity
  8
0
100
AcDbPolyline
 90
       14
 70
     1
 43
0.0
 10
82.169
 20
108.966
 10
85.09
 20
108.966
 10
85.09
 20
102.128774
 42
-0.002226
 10
85.078198
 20
99.477697
 42
-0.003387
 10
85.042096
 20
97.175147
 42
-0.001259
 10
84.992666
 20
95.196063
 42
-0.084933
 10
84.926922
 20
94.866572
 42
-0.4438
 10
84.714435
 20
94.784397
 42
-0.051493
 10
84.230462
 20
95.094097
 42
-0.023683
 10
83.427698
 20
95.797471
 42
-0.004246
 10
82.005922
 20
97.190967
 10
79.248
 20
99.940336
 10
79.248
 20
104.453168
 10
79.248
 20
108.966
  0
LWPOLYLINE
  5
368
330
1D
100
AcDbEntity
  8
0
100
AcDbPolyline
 90
       20
 70
     1
 43
0.0
 10
24.119257
 20
108.204
 42
-0.193184
 10
24.208655
 20
108.16812
 42
-0.000494
 10
25.201344
 20
107.216421
 42
-0.002946
 10
26.318094
 20
106.13094
 42
-0.001819
 10
27.619095
 20
104.842029
 42
-0.0027
 10
28.910552
 20
103.539237
 42
-0.004311
 10
29.998384
 20
102.410641
 42
-0.00105
 10
30.936373
 20
101.416384
 42
-0.190813
 10
30.988
 20
101.286029
 42
-0.391709
 10
30.915625
 20
101.20782
 42
-0.003763
 10
30.075648
 20
101.148996
 42
-0.009742
 10
29.073028
 20
101.105949
 42
-0.005856
 10
27.882119
 20
101.092
 10
24.776239
 20
101.092
 10
22.802556
 20
103.054107
 10
20.828874
 20
105.016214
 10
22.408599
 20
106.610107
 42
-0.003874
 10
23.02357
 20
107.221052
 42
-0.006072
 10
23.562742
 20
107.735794
 42
-0.002055
 10
24.033178
 20
108.170521
 42
-0.187621
  0
LWPOLYLINE
  5
37E
330
1D
100
AcDbEntity
  8
0
100
AcDbPolyline
 90
       20
 70
     1
 43
0.0
 10
65.775637
 20
108.204
 42
-0.186188
 10
65.857539
 20
108.172407
 42
-0.00183
 10
66.331585
 20
107.739577
 42
-0.005698
 10
66.87414
 20
107.229005
 42
-0.003625
 10
67.494526
 20
106.622985
 10
69.089721
 20
105.04197
 10
67.126319
 20
103.066985
 10
65.162918
 20
101.092
 10
62.045459
 20
101.092
 42
-0.005626
 10
60.850107
 20
101.10545
 42
-0.00936
 10
59.843754
 20
101.146959
 42
-0.003479
 10
58.998098
 20
101.203619
 42
-0.392743
 10
58.928
 20
101.279095
 42
-0.190621
 10
58.977851
 20
101.405104
 42
-0.000978
 10
59.915579
 20
102.400846
 42
-0.004154
 10
61.00116
 20
103.530135
 42
-0.002598
 10
62.289971
 20
104.835095
 42
-0.001722
 10
63.587804
 20
106.126677
 42
-0.002794
 10
64.700698
 20
107.214384
 42
-0.000444
 10
65.691101
 20
108.169912
 42
-0.194029
  0
LWPOLYLINE
  5
394
330
1D
100
AcDbEntity
  8
0
100
AcDbPolyline
 90
       12
 70
     1
 43
0.0
 10
14.985806
 20
105.791186
 10
15.747613
 20
105.061329
 10
15.195531
 20
104.473664
 42
-0.017515
 10
14.968782
 20
104.24864
 42
-0.022377
 10
14.744016
 20
104.058626
 42
-0.021083
 10
14.546686
 20
103.919263
 42
-0.144173
 10
14.433724
 20
103.886
 42
-0.344373
 10
14.351355
 20
103.950365
 42
-0.021585
 10
14.285606
 20
104.273022
 42
-0.024509
 10
14.239117
 20
104.698435
 42
-0.014961
 10
14.224
 20
105.203521
 10
14.224
 20
106.521042
  0
LWPOLYLINE
  5
3A2
330
1D
100
AcDbEntity
  8
0
100
AcDbPolyline
 90
       12
 70
     1
 43
0.0
 10
75.643532
 20
105.274929
 42
-0.011871
 10
75.663204
 20
104.808838
 42
-0.016703
 10
75.656979
 20
104.392806
 42
-0.012938
 10
75.631745
 20
104.053541
 42
-0.173017
 10
75.57903
 20
103.942364
 42
-0.298523
 10
75.485196
 20
103.922835
 42
-0.038349
 10
75.290987
 20
104.017048
 42
-0.03467
 10
75.053669
 20
104.178585
 42
-0.021813
 10
74.799313
 20
104.397464
 10
74.162629
 20
104.995597
 10
74.863815
 20
105.730028
 10
75.565
 20
106.46446
  0
LWPOLYLINE
  5
3B0
330
1D
100
AcDbEntity
  8
0
100
AcDbPolyline
 90
       12
 70
     1
 43
0.0
 10
18.288
 20
102.362
 42
-0.160602
 10
18.382137
 20
102.330962
 42
-0.014444
 10
18.580085
 20
102.175469
 42
-0.01762
 10
18.809442
 20
101.970224
 42
-0.01285
 10
19.05
 20
101.727
 10
19.646552
 20
101.092
 10
18.288
 20
101.092
 10
16.929448
 20
101.092
 10
17.526
 20
101.727
 42
-0.01285
 10
17.766558
 20
101.970224
 42
-0.01762
 10
17.995915
 20
102.175469
 42
-0.014444
 10
18.193863
 20
102.330962
 42
-0.160602
  0
LWPOLYLINE
  5
3BE
330
1D
100
AcDbEntity
  8
0
100
AcDbPolyline
 90
       12
 70
     1
 43
0.0
 10
71.628
 20
102.362
 42
-0.160602
 10
71.722137
 20
102.330962
 42
-0.014444
 10
71.920085
 20
102.175469
 42
-0.01762
 10
72.149442
 20
101.970224
 42
-0.01285
 10
72.39
 20
101.727
 10
72.986552
 20
101.092
 10
71.628
 20
101.092
 10
70.269448
 20
101.092
 10
70.866
 20
101.727
 42
-0.01285
 10
71.106558
 20
101.970224
 42
-0.01762
 10
71.335915
 20
102.175469
 42
-0.014444
 10
71.533863
 20
102.330962
 42
-0.160602
  0
LWPOLYLINE
  5
3CC
330
1D
100
AcDbEntity
  8
0
100
AcDbPolyline
 90
        8
 70
     1
 43
0.0
 10
17.847676
 20
97.536
 10
22.368638
 20
97.536
 10
22.296819
 20
94.6785
 10
22.225
 20
91.821
 10
14.859155
 20
91.753501
 10
7.493311
 20
91.686001
 10
10.410012
 20
94.611001
 10
13.326713
 20
97.536
  0
LWPOLYLINE
  5
3D6
330
1D
100
AcDbEntity
  8
0
100
AcDbPolyline
 90
       14
 70
     1
 43
0.0
 10
30.394019
 20
97.536
 10
34.880037
 20
97.536
 10
37.633019
 20
94.817014
 42
-0.003474
 10
38.688288
 20
93.760193
 42
-0.005481
 10
39.577312
 20
92.837388
 42
-0.001678
 10
40.333456
 20
92.029681
 42
-0.189491
 10
40.386
 20
91.896014
 42
-0.405175
 10
40.306084
 20
91.813585
 42
-0.000764
 10
38.259544
 20
91.753342
 42
-0.00436
 10
35.922781
 20
91.708518
 42
-0.002615
 10
33.147
 20
91.694
 10
25.908
 20
91.694
 10
25.908
 20
94.615
 10
25.908
 20
97.536
  0
LWPOLYLINE
  5
3E6
330
1D
100
AcDbEntity
  8
0
100
AcDbPolyline
 90
       14
 70
     1
 43
0.0
 10
59.495168
 20
97.536
 10
64.008
 20
97.536
 10
64.008
 20
94.615
 10
64.008
 20
91.694
 10
56.769
 20
91.694
 42
-0.002412
 10
53.993216
 20
91.707392
 42
-0.004022
 10
51.656456
 20
91.748741
 42
-0.000651
 10
49.603974
 20
91.804252
 42
-0.405937
 10
49.53
 20
91.880352
 42
-0.188475
 10
49.578555
 20
92.004587
 42
-0.001438
 10
50.330812
 20
92.815266
 42
-0.005047
 10
51.211153
 20
93.739639
 42
-0.003187
 10
52.256168
 20
94.801352
 10
54.982336
 20
97.536
  0
LWPOLYLINE
  5
3F6
330
1D
100
AcDbEntity
  8
0
100
AcDbPolyline
 90
        8
 70
     1
 43
0.0
 10
72.068324
 20
97.536
 10
76.589287
 20
97.536
 10
79.505988
 20
94.611001
 10
82.422689
 20
91.686001
 10
75.056845
 20
91.753501
 10
67.691
 20
91.821
 10
67.619181
 20
94.6785
 10
67.547362
 20
97.536
  0
LWPOLYLINE
  5
400
330
1D
100
AcDbEntity
  8
0
100
AcDbPolyline
 90
        8
 70
     1
 43
0.0
 10
14.859155
 20
88.078499
 10
22.225
 20
88.011
 10
22.296819
 20
85.1535
 10
22.368638
 20
82.296
 10
17.847676
 20
82.296
 10
13.326713
 20
82.296
 10
10.410012
 20
85.220999
 10
7.493311
 20
88.145999
  0
LWPOLYLINE
  5
40A
330
1D
100
AcDbEntity
  8
0
100
AcDbPolyline
 90
       14
 70
     1
 43
0.0
 10
33.147
 20
88.138
 42
-0.002412
 10
35.922784
 20
88.124608
 42
-0.004022
 10
38.259544
 20
88.083259
 42
-0.000651
 10
40.312026
 20
88.027748
 42
-0.405937
 10
40.386
 20
87.951648
 42
-0.188475
 10
40.337445
 20
87.827413
 42
-0.001438
 10
39.585188
 20
87.016734
 42
-0.005047
 10
38.704847
 20
86.092361
 42
-0.003187
 10
37.659832
 20
85.030648
 10
34.933664
 20
82.296
 10
30.420832
 20
82.296
 10
25.908
 20
82.296
 10
25.908
 20
85.217
 10
25.908
 20
88.138
  0
LWPOLYLINE
  5
41A
330
1D
100
AcDbEntity
  8
0
100
AcDbPolyline
 90
       14
 70
     1
 43
0.0
 10
56.769
 20
88.138
 10
64.008
 20
88.138
 10
64.008
 20
85.217
 10
64.008
 20
82.296
 10
59.503648
 20
82.296
 10
54.999295
 20
82.296
 10
52.264648
 20
85.022168
 42
-0.003342
 10
51.216396
 20
86.081232
 42
-0.005281
 10
50.333303
 20
87.004756
 42
-0.001567
 10
49.580653
 20
87.813763
 42
-0.188742
 10
49.53
 20
87.943168
 42
-0.405526
 10
49.607197
 20
88.022696
 42
-0.000711
 10
51.656456
 20
88.080768
 42
-0.004205
 10
53.993218
 20
88.123998
 42
-0.002522
  0
LWPOLYLINE
  5
42A
330
1D
100
AcDbEntity
  8
0
100
AcDbPolyline
 90
       14
 70
     1
 43
0.0
 10
75.15869
 20
88.138
 10
82.414713
 20
88.138
 10
79.502
 20
85.217
 10
76.589287
 20
82.296
 10
72.076643
 20
82.296
 10
67.564
 20
82.296
 10
67.564
 20
85.047667
 42
-0.005745
 10
67.576258
 20
86.114462
 42
-0.008732
 10
67.613742
 20
87.040773
 42
-0.004165
 10
67.665476
 20
87.8207
 42
-0.179603
 10
67.733333
 20
87.968667
 42
-0.192265
 10
67.894026
 20
88.037651
 42
-0.000702
 10
69.984382
 20
88.088258
 42
-0.003516
 10
72.364776
 20
88.125796
 42
-0.002184
  0
LWPOLYLINE
  5
43A
330
1D
100
AcDbEntity
  8
0
100
AcDbPolyline
 90
       14
 70
     1
 43
0.0
 10
5.012352
 20
85.344
 42
-0.188475
 10
5.136587
 20
85.295445
 42
-0.001438
 10
5.947266
 20
84.543188
 42
-0.005047
 10
6.871639
 20
83.662847
 42
-0.003187
 10
7.933352
 20
82.617832
 10
10.668
 20
79.891664
 10
10.668
 20
75.378832
 10
10.668
 20
70.866
 10
7.747
 20
70.866
 10
4.826
 20
70.866
 10
4.826
 20
78.105
 42
-0.002412
 10
4.839392
 20
80.880784
 42
-0.004022
 10
4.880741
 20
83.217544
 42
-0.000651
 10
4.936252
 20
85.270026
 42
-0.405937
  0
LWPOLYLINE
  5
44A
330
1D
100
AcDbEntity
  8
0
100
AcDbPolyline
 90
       14
 70
     1
 43
0.0
 10
42.985168
 20
85.344
 42
-0.405526
 10
43.064696
 20
85.266803
 42
-0.000711
 10
43.122768
 20
83.217544
 42
-0.004205
 10
43.165998
 20
80.880782
 42
-0.002522
 10
43.18
 20
78.105
 10
43.18
 20
70.866
 10
40.259
 20
70.866
 10
37.338
 20
70.866
 10
37.338
 20
75.370352
 10
37.338
 20
79.874705
 10
40.064168
 20
82.609352
 42
-0.003342
 10
41.123232
 20
83.657604
 42
-0.005281
 10
42.046756
 20
84.540697
 42
-0.001567
 10
42.855763
 20
85.293347
 42
-0.188742
  0
LWPOLYLINE
  5
45A
330
1D
100
AcDbEntity
  8
0
100
AcDbPolyline
 90
       14
 70
     1
 43
0.0
 10
46.922352
 20
85.344
 42
-0.188475
 10
47.046587
 20
85.295445
 42
-0.001438
 10
47.857266
 20
84.543188
 42
-0.005047
 10
48.781639
 20
83.662847
 42
-0.003187
 10
49.843352
 20
82.617832
 10
52.578
 20
79.891664
 10
52.578
 20
75.378832
 10
52.578
 20
70.866
 10
49.657
 20
70.866
 10
46.736
 20
70.866
 10
46.736
 20
78.105
 42
-0.002412
 10
46.749392
 20
80.880784
 42
-0.004022
 10
46.790741
 20
83.217544
 42
-0.000651
 10
46.846252
 20
85.270026
 42
-0.405937
  0
LWPOLYLINE
  5
46A
330
1D
100
AcDbEntity
  8
0
100
AcDbPolyline
 90
       14
 70
     1
 43
0.0
 10
84.883266
 20
85.344
 42
-0.405472
 10
84.958139
 20
85.271335
 42
-0.000627
 10
85.017067
 20
83.217544
 42
-0.003948
 10
85.062721
 20
80.880783
 42
-0.002368
 10
85.081882
 20
78.105
 10
85.097569
 20
70.866
 10
82.172784
 20
70.866
 10
79.248
 20
70.866
 10
79.248
 20
75.370352
 10
79.248
 20
79.874705
 10
81.974168
 20
82.609352
 42
-0.003138
 10
83.03239
 20
83.657625
 42
-0.004975
 10
83.95326
 20
84.540697
 42
-0.001394
 10
84.761331
 20
85.296079
 42
-0.18945
  0
LWPOLYLINE
  5
47A
330
1D
100
AcDbEntity
  8
0
100
AcDbPolyline
 90
        6
 70
     1
 43
0.0
 10
18.288
 20
78.74
 10
19.673455
 20
78.74
 10
18.980727
 20
78.047273
 10
18.288
 20
77.354545
 10
17.595273
 20
78.047273
 10
16.902545
 20
78.74
  0
LWPOLYLINE
  5
482
330
1D
100
AcDbEntity
  8
0
100
AcDbPolyline
 90
       14
 70
     1
 43
0.0
 10
27.870541
 20
78.74
 42
-0.005835
 10
29.06589
 20
78.726051
 42
-0.009706
 10
30.072246
 20
78.683004
 42
-0.003736
 10
30.915594
 20
78.624186
 42
-0.391807
 10
30.988
 20
78.545971
 42
-0.190967
 10
30.936287
 20
78.415511
 42
-0.001017
 10
29.981294
 20
77.404304
 42
-0.004241
 10
28.874681
 20
76.256965
 42
-0.002654
 10
27.560915
 20
74.931911
 10
24.13383
 20
71.51188
 10
22.480054
 20
73.150955
 10
20.826279
 20
74.79003
 10
22.789681
 20
76.765015
 10
24.753082
 20
78.74
  0
LWPOLYLINE
  5
492
330
1D
100
AcDbEntity
  8
0
100
AcDbPolyline
 90
       14
 70
     1
 43
0.0
 10
62.045459
 20
78.74
 10
65.162918
 20
78.74
 10
67.126319
 20
76.765015
 10
69.089721
 20
74.79003
 10
67.435946
 20
73.150955
 10
65.78217
 20
71.51188
 10
62.355085
 20
74.931911
 42
-0.002654
 10
61.041319
 20
76.256965
 42
-0.004241
 10
59.934706
 20
77.404304
 42
-0.001017
 10
58.979713
 20
78.415511
 42
-0.190967
 10
58.928
 20
78.545971
 42
-0.391807
 10
59.000406
 20
78.624186
 42
-0.003736
 10
59.843754
 20
78.683004
 42
-0.009706
 10
60.85011
 20
78.726051
 42
-0.005835
  0
LWPOLYLINE
  5
4A2
330
1D
100
AcDbEntity
  8
0
100
AcDbPolyline
 90
        6
 70
     1
 43
0.0
 10
71.628
 20
78.74
 10
73.013455
 20
78.74
 10
72.320727
 20
78.047273
 10
71.628
 20
77.354545
 10
70.935273
 20
78.047273
 10
70.242545
 20
78.74
  0
LWPOLYLINE
  5
4AA
330
1D
100
AcDbEntity
  8
0
100
AcDbPolyline
 90
       12
 70
     1
 43
0.0
 10
14.433724
 20
75.946
 42
-0.144173
 10
14.546686
 20
75.912737
 42
-0.021083
 10
14.744016
 20
75.773374
 42
-0.022377
 10
14.968782
 20
75.58336
 42
-0.017515
 10
15.195531
 20
75.358336
 10
15.747613
 20
74.770671
 10
14.985806
 20
74.040814
 10
14.224
 20
73.310958
 10
14.224
 20
74.628479
 42
-0.014961
 10
14.239117
 20
75.133565
 42
-0.024509
 10
14.285606
 20
75.558978
 42
-0.021585
 10
14.351355
 20
75.881635
 42
-0.344373
  0
LWPOLYLINE
  5
4B8
330
1D
100
AcDbEntity
  8
0
100
AcDbPolyline
 90
       14
 70
     1
 43
0.0
 10
33.587971
 20
75.946
 42
-0.391807
 10
33.666186
 20
75.873594
 42
-0.003736
 10
33.725004
 20
75.030246
 42
-0.009706
 10
33.768051
 20
74.02389
 42
-0.005835
 10
33.782
 20
72.828541
 10
33.782
 20
69.711082
 10
31.807015
 20
67.747681
 10
29.83203
 20
65.784279
 10
28.192955
 20
67.438054
 10
26.55388
 20
69.09183
 10
29.973911
 20
72.518915
 42
-0.002654
 10
31.298965
 20
73.832681
 42
-0.004241
 10
32.446304
 20
74.939294
 42
-0.001017
 10
33.457511
 20
75.894287
 42
-0.190967
  0
LWPOLYLINE
  5
4C8
330
1D
100
AcDbEntity
  8
0
100
AcDbPolyline
 90
       14
 70
     1
 43
0.0
 10
56.328029
 20
75.946
 42
-0.190967
 10
56.458489
 20
75.894287
 42
-0.001017
 10
57.469696
 20
74.939294
 42
-0.004241
 10
58.617035
 20
73.832681
 42
-0.002654
 10
59.942089
 20
72.518915
 10
63.36212
 20
69.09183
 10
61.723045
 20
67.438054
 10
60.08397
 20
65.784279
 10
58.108985
 20
67.747681
 10
56.134
 20
69.711082
 10
56.134
 20
72.828541
 42
-0.005835
 10
56.147949
 20
74.02389
 42
-0.009706
 10
56.190996
 20
75.030246
 42
-0.003736
 10
56.249814
 20
75.873594
 42
-0.391807
  0
LWPOLYLINE
  5
4D8
330
1D
100
AcDbEntity
  8
0
100
AcDbPolyline
 90
       12
 70
     1
 43
0.0
 10
75.482276
 20
75.946
 42
-0.344373
 10
75.564645
 20
75.881635
 42
-0.021585
 10
75.630394
 20
75.558978
 42
-0.024509
 10
75.676883
 20
75.133565
 42
-0.014961
 10
75.692
 20
74.628479
 10
75.692
 20
73.310958
 10
74.930194
 20
74.040814
 10
74.168387
 20
74.770671
 10
74.720469
 20
75.358336
 42
-0.017515
 10
74.947218
 20
75.58336
 42
-0.022377
 10
75.171984
 20
75.773374
 42
-0.021083
 10
75.369314
 20
75.912737
 42
-0.144173
  0
LWPOLYLINE
  5
4E6
330
1D
100
AcDbEntity
  8
0
100
AcDbPolyline
 90
       26
 70
     1
 43
0.0
 10
18.274676
 20
72.136
 42
-0.184657
 10
18.357306
 20
72.104406
 42
-0.002193
 10
18.794562
 20
71.709314
 42
-0.006247
 10
19.296434
 20
71.240208
 42
-0.003999
 10
19.868135
 20
70.683451
 42
-0.008513
 10
20.43054
 20
70.107636
 42
-0.01239
 10
20.904815
 20
69.579604
 42
-0.007958
 10
21.279323
 20
69.126874
 42
-0.170424
 10
21.336
 20
68.965422
 42
-0.187378
 10
21.267923
 20
68.790144
 42
-0.001885
 10
20.346384
 20
67.790348
 42
-0.005801
 10
19.258428
 20
66.645816
 42
-0.003691
 10
17.967095
 20
65.337971
 42
-0.002598
 10
16.662135
 20
64.04916
 42
-0.004154
 10
15.532846
 20
62.963579
 42
-0.000978
 10
14.537104
 20
62.025851
 42
-0.190621
 10
14.411095
 20
61.976
 42
-0.392649
 10
14.335624
 20
62.046069
 42
-0.003504
 10
14.278959
 20
62.888352
 42
-0.009395
 10
14.23745
 20
63.890969
 42
-0.005647
 10
14.224
 20
65.081881
 10
14.224
 20
68.187761
 10
16.186541
 20
70.161881
 42
-0.002993
 10
16.947914
 20
70.918631
 42
-0.004757
 10
17.609479
 20
71.556102
 42
-0.001274
 10
18.190784
 20
72.102869
 42
-0.19031
  0
LWPOLYLINE
  5
502
330
1D
100
AcDbEntity
  8
0
100
AcDbPolyline
 90
       26
 70
     1
 43
0.0
 10
71.614429
 20
72.136
 42
-0.188539
 10
71.700877
 20
72.102201
 42
-0.001337
 10
72.285668
 20
71.559504
 42
-0.004861
 10
72.951806
 20
70.925763
 42
-0.003064
 10
73.717881
 20
70.173459
 10
75.692
 20
68.210918
 10
75.692
 20
65.093459
 42
-0.005626
 10
75.67855
 20
63.898107
 42
-0.00936
 10
75.637041
 20
62.891754
 42
-0.003479
 10
75.580381
 20
62.046098
 42
-0.392743
 10
75.504905
 20
61.976
 42
-0.190621
 10
75.378896
 20
62.025851
 42
-0.000978
 10
74.383154
 20
62.963579
 42
-0.004154
 10
73.253865
 20
64.04916
 42
-0.002598
 10
71.948905
 20
65.337971
 42
-0.003479
 10
70.657546
 20
66.644732
 42
-0.005485
 10
69.569616
 20
67.785849
 42
-0.00169
 10
68.644665
 20
68.784322
 42
-0.188127
 10
68.58
 20
68.950106
 42
-0.169918
 10
68.633838
 20
69.103956
 42
-0.007155
 10
69.006686
 20
69.557969
 42
-0.011634
 10
69.475991
 20
70.087552
 42
-0.00794
 10
70.032549
 20
70.668135
 42
-0.004161
 10
70.598645
 20
71.230758
 42
-0.006492
 10
71.096403
 20
71.704815
 42
-0.00234
 10
71.529846
 20
72.103258
 42
-0.186796
  0
LWPOLYLINE
  5
51E
330
1D
100
AcDbEntity
  8
0
100
AcDbPolyline
 90
       20
 70
     1
 43
0.0
 10
7.916333
 20
67.31
 10
10.668
 20
67.31
 10
10.668
 20
62.670168
 10
10.668
 20
58.030336
 10
7.910078
 20
55.280967
 42
-0.004246
 10
6.488302
 20
53.887471
 42
-0.023683
 10
5.685538
 20
53.184097
 42
-0.051493
 10
5.201565
 20
52.874397
 42
-0.4438
 10
4.989078
 20
52.956572
 42
-0.084886
 10
4.923341
 20
53.285863
 42
-0.001273
 10
4.873904
 20
55.252711
 42
-0.003406
 10
4.837803
 20
57.541594
 42
-0.00224
 10
4.826
 20
60.176441
 42
-0.002332
 10
4.838206
 20
62.793537
 42
-0.003746
 10
4.875742
 20
65.025075
 42
-0.000796
 10
4.926402
 20
66.980515
 42
-0.191777
 10
4.995333
 20
67.140667
 42
-0.179603
 10
5.1433
 20
67.208524
 42
-0.004165
 10
5.923227
 20
67.260258
 42
-0.008732
 10
6.849538
 20
67.297742
 42
-0.005745
  0
LWPOLYLINE
  5
534
330
1D
100
AcDbEntity
  8
0
100
AcDbPolyline
 90
        8
 70
     1
 43
0.0
 10
40.259
 20
67.31
 10
43.18
 20
67.31
 10
43.18
 20
59.884643
 10
43.18
 20
52.459287
 10
40.259
 20
55.372
 10
37.338
 20
58.284713
 10
37.338
 20
62.797357
 10
37.338
 20
67.31
  0
LWPOLYLINE
  5
53E
330
1D
100
AcDbEntity
  8
0
100
AcDbPolyline
 90
        8
 70
     1
 43
0.0
 10
49.657
 20
67.31
 10
52.578
 20
67.31
 10
52.578
 20
62.797357
 10
52.578
 20
58.284713
 10
49.657
 20
55.372
 10
46.736
 20
52.459287
 10
46.736
 20
59.884643
 10
46.736
 20
67.31
  0
LWPOLYLINE
  5
548
330
1D
100
AcDbEntity
  8
0
100
AcDbPolyline
 90
       14
 70
     1
 43
0.0
 10
82.1055
 20
67.254819
 10
84.963
 20
67.183
 10
85.030691
 20
60.201605
 42
-0.001945
 10
85.04638
 20
57.499108
 42
-0.003001
 10
85.03683
 20
55.16241
 42
-0.000971
 10
85.012516
 20
53.141345
 42
-0.088337
 10
84.956535
 20
52.85056
 42
-0.482182
 10
84.772191
 20
52.792361
 42
-0.023842
 10
84.186144
 20
53.229111
 42
-0.018704
 10
83.322938
 20
53.994685
 42
-0.005228
 10
82.031343
 20
55.255624
 10
79.248
 20
58.030336
 10
79.248
 20
62.678487
 10
79.248
 20
67.326638
  0
LWPOLYLINE
  5
558
330
1D
100
AcDbEntity
  8
0
100
AcDbPolyline
 90
       20
 70
     1
 43
0.0
 10
24.007422
 20
66.294
 42
-0.171637
 10
24.169687
 20
66.236608
 42
-0.007496
 10
24.638213
 20
65.84603
 42
-0.011989
 10
25.184506
 20
65.35331
 42
-0.008196
 10
25.781994
 20
64.768996
 10
27.291085
 20
63.243991
 10
25.272002
 20
61.212996
 10
23.252918
 20
59.182
 10
20.135459
 20
59.182
 42
-0.005626
 10
18.940107
 20
59.19545
 42
-0.00936
 10
17.933754
 20
59.236959
 42
-0.003479
 10
17.088098
 20
59.293619
 42
-0.392743
 10
17.018
 20
59.369095
 42
-0.190621
 10
17.067851
 20
59.495104
 42
-0.000978
 10
18.005579
 20
60.490846
 42
-0.004154
 10
19.09116
 20
61.620135
 42
-0.002598
 10
20.379971
 20
62.925095
 42
-0.003691
 10
21.687816
 20
64.216428
 42
-0.005801
 10
22.832348
 20
65.304384
 42
-0.001885
 10
23.832144
 20
66.225923
 42
-0.187378
  0
LWPOLYLINE
  5
56E
330
1D
100
AcDbEntity
  8
0
100
AcDbPolyline
 90
       20
 70
     1
 43
0.0
 10
65.901644
 20
66.294
 42
-0.187209
 10
66.072764
 20
66.227602
 42
-0.001791
 10
67.073858
 20
65.306421
 42
-0.005646
 10
68.219083
 20
64.220715
 42
-0.003588
 10
69.529095
 20
62.932029
 42
-0.0027
 10
70.820552
 20
61.629237
 42
-0.004311
 10
71.908384
 20
60.500641
 42
-0.00105
 10
72.846373
 20
59.506384
 42
-0.190813
 10
72.898
 20
59.376029
 42
-0.391807
 10
72.825594
 20
59.297814
 42
-0.003736
 10
71.982246
 20
59.238996
 42
-0.009706
 10
70.97589
 20
59.195949
 42
-0.005835
 10
69.780541
 20
59.182
 10
66.663082
 20
59.182
 10
64.643998
 20
61.212996
 10
62.624915
 20
63.243991
 10
64.134006
 20
64.768996
 42
-0.007983
 10
64.730997
 20
65.35332
 42
-0.011718
 10
65.27575
 20
65.84603
 42
-0.007189
 10
65.743079
 20
66.237634
 42
-0.172451
  0
LWPOLYLINE
  5
584
330
1D
100
AcDbEntity
  8
0
100
AcDbPolyline
 90
       12
 70
     1
 43
0.0
 10
33.699276
 20
64.516
 42
-0.391779
 10
33.732622
 20
64.485133
 42
-0.003743
 10
33.7577
 20
64.12598
 42
-0.009716
 10
33.776053
 20
63.697372
 42
-0.005841
 10
33.782
 20
63.188273
 10
33.782
 20
61.860545
 10
33.096208
 20
62.546337
 10
32.410417
 20
63.232129
 10
33.013484
 20
63.874064
 42
-0.00639
 10
33.250585
 20
64.12007
 42
-0.009668
 10
33.463701
 20
64.327431
 42
-0.004919
 10
33.647538
 20
64.49615
 42
-0.185252
  0
LWPOLYLINE
  5
592
330
1D
100
AcDbEntity
  8
0
100
AcDbPolyline
 90
        6
 70
     1
 43
0.0
 10
56.826727
 20
63.938727
 10
57.519455
 20
63.246
 10
56.826727
 20
62.553273
 10
56.134
 20
61.860545
 10
56.134
 20
63.246
 10
56.134
 20
64.631455
  0
LWPOLYLINE
  5
59A
330
1D
100
AcDbEntity
  8
0
100
AcDbPolyline
 90
       12
 70
     1
 43
0.0
 10
30.400336
 20
60.153531
 42
-0.017515
 10
30.62536
 20
59.926782
 42
-0.022377
 10
30.815374
 20
59.702016
 42
-0.021083
 10
30.954737
 20
59.504686
 42
-0.144173
 10
30.988
 20
59.391724
 42
-0.344373
 10
30.923635
 20
59.309355
 42
-0.021585
 10
30.600978
 20
59.243606
 42
-0.024509
 10
30.175565
 20
59.197117
 42
-0.014961
 10
29.670479
 20
59.182
 10
28.352958
 20
59.182
 10
29.082814
 20
59.943806
 10
29.812671
 20
60.705613
  0
LWPOLYLINE
  5
5A8
330
1D
100
AcDbEntity
  8
0
100
AcDbPolyline
 90
       12
 70
     1
 43
0.0
 10
60.772028
 20
60.010185
 10
61.50646
 20
59.309
 10
60.316929
 20
59.230468
 42
-0.011871
 10
59.850838
 20
59.210796
 42
-0.016703
 10
59.434806
 20
59.217021
 42
-0.012938
 10
59.095541
 20
59.242255
 42
-0.173017
 10
58.984364
 20
59.29497
 42
-0.298523
 10
58.964835
 20
59.388804
 42
-0.038349
 10
59.059048
 20
59.583013
 42
-0.03467
 10
59.220585
 20
59.820331
 42
-0.021813
 10
59.439464
 20
60.074687
 10
60.037597
 20
60.711371
  0
LWPOLYLINE
  5
5B6
330
1D
100
AcDbEntity
  8
0
100
AcDbPolyline
 90
       14
 70
     1
 43
0.0
 10
17.720487
 20
55.626
 10
22.368638
 20
55.626
 10
22.296819
 20
52.7685
 10
22.225
 20
49.911
 10
14.9225
 20
49.843605
 42
-0.002441
 10
12.122361
 20
49.831434
 42
-0.004072
 10
9.765109
 20
49.851892
 42
-0.000667
 10
7.695499
 20
49.889472
 42
-0.408517
 10
7.62
 20
49.966457
 42
-0.188245
 10
7.669447
 20
50.09314
 42
-0.001494
 10
8.420812
 20
50.904122
 42
-0.005147
 10
9.30116
 20
51.829363
 42
-0.003253
 10
10.346168
 20
52.891352
 10
13.072336
 20
55.626
  0
LWPOLYLINE
  5
5C6
330
1D
100
AcDbEntity
  8
0
100
AcDbPolyline
 90
       14
 70
     1
 43
0.0
 10
30.412352
 20
55.626
 10
34.916705
 20
55.626
 10
37.651352
 20
52.899832
 42
-0.003342
 10
38.699604
 20
51.840768
 42
-0.005281
 10
39.582697
 20
50.917244
 42
-0.001567
 10
40.335347
 20
50.108237
 42
-0.188742
 10
40.386
 20
49.978832
 42
-0.405526
 10
40.308803
 20
49.899304
 42
-0.000711
 10
38.259544
 20
49.841232
 42
-0.004205
 10
35.922782
 20
49.798002
 42
-0.002522
 10
33.147
 20
49.784
 10
25.908
 20
49.784
 10
25.908
 20
52.705
 10
25.908
 20
55.626
  0
LWPOLYLINE
  5
5D6
330
1D
100
AcDbEntity
  8
0
100
AcDbPolyline
 90
       14
 70
     1
 43
0.0
 10
59.495168
 20
55.626
 10
64.008
 20
55.626
 10
64.008
 20
52.705
 10
64.008
 20
49.784
 10
56.769
 20
49.784
 42
-0.002412
 10
53.993216
 20
49.797392
 42
-0.004022
 10
51.656456
 20
49.838741
 42
-0.000651
 10
49.603974
 20
49.894252
 42
-0.405937
 10
49.53
 20
49.970352
 42
-0.188475
 10
49.578555
 20
50.094587
 42
-0.001438
 10
50.330812
 20
50.905266
 42
-0.005047
 10
51.211153
 20
51.829639
 42
-0.003187
 10
52.256168
 20
52.891352
 10
54.982336
 20
55.626
  0
LWPOLYLINE
  5
5E6
330
1D
100
AcDbEntity
  8
0
100
AcDbPolyline
 90
       14
 70
     1
 43
0.0
 10
72.187033
 20
55.626
 10
76.826705
 20
55.626
 10
79.561352
 20
52.899832
 42
-0.003408
 10
80.609597
 20
51.840492
 42
-0.005381
 10
81.492697
 20
50.916099
 42
-0.001626
 10
82.244463
 20
50.106774
 42
-0.18851
 10
82.296
 20
49.974937
 42
-0.408107
 10
82.21728
 20
49.894554
 42
-0.000728
 10
80.150891
 20
49.854383
 42
-0.004253
 10
77.793638
 20
49.832043
 42
-0.00255
 10
74.9935
 20
49.843605
 10
67.691
 20
49.911
 10
67.619181
 20
52.7685
 10
67.547362
 20
55.626
  0
LWPOLYLINE
  5
5F6
330
1D
100
AcDbEntity
  8
0
100
AcDbPolyline
 90
        8
 70
     1
 43
0.0
 10
14.934962
 20
46.228
 10
22.368638
 20
46.228
 10
22.296819
 20
43.3705
 10
22.225
 20
40.513
 10
17.78
 20
40.444379
 10
13.335
 20
40.375758
 10
10.418143
 20
43.301879
 10
7.501287
 20
46.228
  0
LWPOLYLINE
  5
600
330
1D
100
AcDbEntity
  8
0
100
AcDbPolyline
 90
        8
 70
     1
 43
0.0
 10
33.206357
 20
46.228
 10
40.504713
 20
46.228
 10
37.592
 20
43.307
 10
34.679287
 20
40.386
 10
30.293643
 20
40.386
 10
25.908
 20
40.386
 10
25.908
 20
43.307
 10
25.908
 20
46.228
  0
LWPOLYLINE
  5
60A
330
1D
100
AcDbEntity
  8
0
100
AcDbPolyline
 90
        8
 70
     1
 43
0.0
 10
56.709643
 20
46.228
 10
64.008
 20
46.228
 10
64.008
 20
43.307
 10
64.008
 20
40.386
 10
59.622357
 20
40.386
 10
55.236713
 20
40.386
 10
52.324
 20
43.307
 10
49.411287
 20
46.228
  0
LWPOLYLINE
  5
614
330
1D
100
AcDbEntity
  8
0
100
AcDbPolyline
 90
        8
 70
     1
 43
0.0
 10
74.981038
 20
46.228
 10
82.414713
 20
46.228
 10
79.497857
 20
43.301879
 10
76.581
 20
40.375758
 10
72.136
 20
40.444379
 10
67.691
 20
40.513
 10
67.619181
 20
43.3705
 10
67.547362
 20
46.228
  0
LWPOLYLINE
  5
61E
330
1D
100
AcDbEntity
  8
0
100
AcDbPolyline
 90
       14
 70
     1
 43
0.0
 10
43.112357
 20
43.688
 42
-0.411429
 10
43.140157
 20
43.660463
 42
-0.000083
 10
43.16013
 20
41.524237
 42
-0.001435
 10
43.175139
 20
39.146497
 42
-0.00086
 10
43.18
 20
36.322
 10
43.18
 20
28.956
 10
40.259
 20
28.956
 10
37.338
 20
28.956
 10
37.338
 20
33.460526
 10
37.338
 20
37.965051
 10
40.191357
 20
40.826526
 42
-0.00111
 10
41.290222
 20
41.923636
 42
-0.001819
 10
42.22641
 20
42.847442
 42
-0.000188
 10
43.065642
 20
43.668952
 42
-0.196043
  0
LWPOLYLINE
  5
62E
330
1D
100
AcDbEntity
  8
0
100
AcDbPolyline
 90
        8
 70
     1
 43
0.0
 10
49.657
 20
40.894
 10
52.578
 20
37.981287
 10
52.578
 20
33.468643
 10
52.578
 20
28.956
 10
49.657
 20
28.956
 10
46.736
 20
28.956
 10
46.736
 20
36.381357
 10
46.736
 20
43.806713
  0
LWPOLYLINE
  5
638
330
1D
100
AcDbEntity
  8
0
100
AcDbPolyline
 90
       14
 70
     1
 43
0.0
 10
5.012352
 20
43.434
 42
-0.188475
 10
5.136587
 20
43.385445
 42
-0.001438
 10
5.947266
 20
42.633188
 42
-0.005047
 10
6.871639
 20
41.752847
 42
-0.003187
 10
7.933352
 20
40.707832
 10
10.668
 20
37.981664
 10
10.668
 20
33.468832
 10
10.668
 20
28.956
 10
7.747
 20
28.956
 10
4.826
 20
28.956
 10
4.826
 20
36.195
 42
-0.002412
 10
4.839392
 20
38.970784
 42
-0.004022
 10
4.880741
 20
41.307544
 42
-0.000651
 10
4.936252
 20
43.360026
 42
-0.405937
  0
LWPOLYLINE
  5
648
330
1D
100
AcDbEntity
  8
0
100
AcDbPolyline
 90
       14
 70
     1
 43
0.0
 10
84.895168
 20
43.434
 42
-0.405526
 10
84.974696
 20
43.356803
 42
-0.000711
 10
85.032768
 20
41.307544
 42
-0.004205
 10
85.075998
 20
38.970782
 42
-0.002522
 10
85.09
 20
36.195
 10
85.09
 20
28.956
 10
82.169
 20
28.956
 10
79.248
 20
28.956
 10
79.248
 20
33.460352
 10
79.248
 20
37.964705
 10
81.974168
 20
40.699352
 42
-0.003342
 10
83.033232
 20
41.747604
 42
-0.005281
 10
83.956756
 20
42.630697
 42
-0.001567
 10
84.765763
 20
43.383347
 42
-0.188742
  0
LWPOLYLINE
  5
658
330
1D
100
AcDbEntity
  8
0
100
AcDbPolyline
 90
        8
 70
     1
 43
0.0
 10
20.075362
 20
36.83
 10
23.252918
 20
36.83
 10
25.216319
 20
34.855015
 10
27.179721
 20
32.88003
 10
25.586251
 20
31.300725
 10
23.992782
 20
29.721419
 10
20.445294
 20
33.27571
 10
16.897806
 20
36.83
  0
LWPOLYLINE
  5
662
330
1D
100
AcDbEntity
  8
0
100
AcDbPolyline
 90
        6
 70
     1
 43
0.0
 10
29.718
 20
36.83
 10
31.103455
 20
36.83
 10
30.410727
 20
36.137273
 10
29.718
 20
35.444545
 10
29.025273
 20
36.137273
 10
28.332545
 20
36.83
  0
LWPOLYLINE
  5
66A
330
1D
100
AcDbEntity
  8
0
100
AcDbPolyline
 90
        6
 70
     1
 43
0.0
 10
60.198
 20
36.83
 10
61.583455
 20
36.83
 10
60.890727
 20
36.137273
 10
60.198
 20
35.444545
 10
59.505273
 20
36.137273
 10
58.812545
 20
36.83
  0
LWPOLYLINE
  5
672
330
1D
100
AcDbEntity
  8
0
100
AcDbPolyline
 90
        8
 70
     1
 43
0.0
 10
69.840638
 20
36.83
 10
73.018194
 20
36.83
 10
69.470706
 20
33.27571
 10
65.923218
 20
29.721419
 10
64.329749
 20
31.300725
 10
62.736279
 20
32.88003
 10
64.699681
 20
34.855015
 10
66.663082
 20
36.83
  0
LWPOLYLINE
  5
67C
330
1D
100
AcDbEntity
  8
0
100
AcDbPolyline
 90
       14
 70
     1
 43
0.0
 10
14.418029
 20
34.036
 42
-0.190967
 10
14.548489
 20
33.984287
 42
-0.001017
 10
15.559696
 20
33.029294
 42
-0.004241
 10
16.707035
 20
31.922681
 42
-0.002654
 10
18.032089
 20
30.608915
 10
21.45212
 20
27.18183
 10
19.813045
 20
25.528054
 10
18.17397
 20
23.874279
 10
16.198985
 20
25.837681
 10
14.224
 20
27.801082
 10
14.224
 20
30.918541
 42
-0.005835
 10
14.237949
 20
32.11389
 42
-0.009706
 10
14.280996
 20
33.120246
 42
-0.003736
 10
14.339814
 20
33.963594
 42
-0.391807
  0
LWPOLYLINE
  5
68C
330
1D
100
AcDbEntity
  8
0
100
AcDbPolyline
 90
       12
 70
     1
 43
0.0
 10
33.572276
 20
34.036
 42
-0.344373
 10
33.654645
 20
33.971635
 42
-0.021585
 10
33.720394
 20
33.648978
 42
-0.024509
 10
33.766883
 20
33.223565
 42
-0.014961
 10
33.782
 20
32.718479
 10
33.782
 20
31.400958
 10
33.020194
 20
32.130814
 10
32.258387
 20
32.860671
 10
32.810469
 20
33.448336
 42
-0.017515
 10
33.037218
 20
33.67336
 42
-0.022377
 10
33.261984
 20
33.863374
 42
-0.021083
 10
33.459314
 20
34.002737
 42
-0.144173
  0
LWPOLYLINE
  5
69A
330
1D
100
AcDbEntity
  8
0
100
AcDbPolyline
 90
       12
 70
     1
 43
0.0
 10
56.343724
 20
34.036
 42
-0.144173
 10
56.456686
 20
34.002737
 42
-0.021083
 10
56.654016
 20
33.863374
 42
-0.022377
 10
56.878782
 20
33.67336
 42
-0.017515
 10
57.105531
 20
33.448336
 10
57.657613
 20
32.860671
 10
56.895806
 20
32.130814
 10
56.134
 20
31.400958
 10
56.134
 20
32.718479
 42
-0.014961
 10
56.149117
 20
33.223565
 42
-0.024509
 10
56.195606
 20
33.648978
 42
-0.021585
 10
56.261355
 20
33.971635
 42
-0.344373
  0
LWPOLYLINE
  5
6A8
330
1D
100
AcDbEntity
  8
0
100
AcDbPolyline
 90
       14
 70
     1
 43
0.0
 10
75.497971
 20
34.036
 42
-0.391807
 10
75.576186
 20
33.963594
 42
-0.003736
 10
75.635004
 20
33.120246
 42
-0.009706
 10
75.678051
 20
32.11389
 42
-0.005835
 10
75.692
 20
30.918541
 10
75.692
 20
27.801082
 10
73.717015
 20
25.837681
 10
71.74203
 20
23.874279
 10
70.102955
 20
25.528054
 10
68.46388
 20
27.18183
 10
71.883911
 20
30.608915
 42
-0.002654
 10
73.208965
 20
31.922681
 42
-0.004241
 10
74.356304
 20
33.029294
 42
-0.001017
 10
75.367511
 20
33.984287
 42
-0.190967
  0
LWPOLYLINE
  5
6B8
330
1D
100
AcDbEntity
  8
0
100
AcDbPolyline
 90
       14
 70
     1
 43
0.0
 10
29.704429
 20
30.226
 42
-0.188539
 10
29.790877
 20
30.192201
 42
-0.001337
 10
30.375668
 20
29.649504
 42
-0.004861
 10
31.041806
 20
29.015763
 42
-0.003064
 10
31.807881
 20
28.263459
 10
33.782
 20
26.300918
 10
33.782
 20
23.121073
 10
33.782
 20
19.941228
 10
30.16705
 20
23.556178
 10
26.552101
 20
27.171127
 10
28.063599
 20
28.698564
 42
-0.003999
 10
28.652298
 20
29.284029
 42
-0.006256
 10
29.169086
 20
29.777316
 42
-0.002177
 10
29.619608
 20
30.193056
 42
-0.187377
  0
LWPOLYLINE
  5
6C8
330
1D
100
AcDbEntity
  8
0
100
AcDbPolyline
 90
       14
 70
     1
 43
0.0
 10
60.199992
 20
30.226
 42
-0.186091
 10
60.291837
 20
30.190591
 42
-0.002543
 10
60.743513
 20
29.777316
 42
-0.006776
 10
61.262881
 20
29.284009
 42
-0.004356
 10
61.852401
 20
28.698564
 10
63.363899
 20
27.171127
 10
59.74895
 20
23.556178
 10
56.134
 20
19.941228
 10
56.134
 20
23.109495
 10
56.134
 20
26.277761
 10
58.096541
 20
28.251881
 42
-0.003357
 10
58.858997
 20
29.008604
 42
-0.005305
 10
59.523978
 20
29.646102
 42
-0.001579
 10
60.106468
 20
30.189328
 42
-0.189049
  0
LWPOLYLINE
  5
6D8
330
1D
100
AcDbEntity
  8
0
100
AcDbPolyline
 90
       20
 70
     1
 43
0.0
 10
7.916333
 20
25.4
 10
10.668
 20
25.4
 10
10.668
 20
20.895648
 10
10.668
 20
16.391295
 10
7.941832
 20
13.656648
 42
-0.003427
 10
6.882415
 20
12.608404
 42
-0.005408
 10
5.95778
 20
11.725303
 42
-0.001642
 10
5.148365
 20
10.973783
 42
-0.188444
 10
5.015849
 20
10.922
 42
-0.405807
 10
4.934528
 20
11.001013
 42
-0.000781
 10
4.880027
 20
13.002547
 42
-0.004408
 10
4.841511
 20
15.288859
 42
-0.002644
 10
4.834064
 20
18.004713
 42
-0.00206
 10
4.852238
 20
20.731275
 42
-0.003323
 10
4.892707
 20
23.052789
 42
-0.000629
 10
4.944454
 20
25.095005
 42
-0.192011
 10
5.00838
 20
25.243713
 42
-0.181249
 10
5.146349
 20
25.306454
 42
-0.003624
 10
5.92706
 20
25.354091
 42
-0.008119
 10
6.850446
 20
25.388692
 42
-0.005304
  0
LWPOLYLINE
  5
6EE
330
1D
100
AcDbEntity
  8
0
100
AcDbPolyline
 90
        8
 70
     1
 43
0.0
 10
40.259
 20
25.4
 10
43.18
 20
25.4
 10
43.18
 20
17.974643
 10
43.18
 20
10.549287
 10
40.259
 20
13.462
 10
37.338
 20
16.374713
 10
37.338
 20
20.887357
 10
37.338
 20
25.4
  0
LWPOLYLINE
  5
6F8
330
1D
100
AcDbEntity
  8
0
100
AcDbPolyline
 90
        8
 70
     1
 43
0.0
 10
49.657
 20
25.4
 10
52.578
 20
25.4
 10
52.578
 20
20.887357
 10
52.578
 20
16.374713
 10
49.657
 20
13.462
 10
46.736
 20
10.549287
 10
46.736
 20
17.974643
 10
46.736
 20
25.4
  0
LWPOLYLINE
  5
702
330
1D
100
AcDbEntity
  8
0
100
AcDbPolyline
 90
       14
 70
     1
 43
0.0
 10
82.1055
 20
25.344819
 10
84.963
 20
25.273
 10
85.038997
 20
18.0975
 42
-0.002597
 10
85.053849
 20
15.34606
 42
-0.004331
 10
85.034258
 20
13.029803
 42
-0.000755
 10
84.996455
 20
11.000709
 42
-0.408328
 10
84.916145
 20
10.922
 42
-0.187733
 10
84.784076
 20
10.973399
 42
-0.001622
 10
83.972405
 20
11.722812
 42
-0.005366
 10
83.045245
 20
12.603175
 42
-0.0034
 10
81.982648
 20
13.648168
 10
79.248
 20
16.374336
 10
79.248
 20
20.895487
 10
79.248
 20
25.416638
  0
LWPOLYLINE
  5
712
330
1D
100
AcDbEntity
  8
0
100
AcDbPolyline
 90
       14
 70
     1
 43
0.0
 10
27.490176
 20
21.150935
 42
-0.002598
 10
28.831067
 20
19.798628
 42
-0.004156
 10
29.960514
 20
18.628366
 42
-0.000977
 10
30.93622
 20
17.596409
 42
-0.191136
 10
30.988
 20
17.465903
 42
-0.391519
 10
30.91573
 20
17.387756
 42
-0.003816
 10
30.082728
 20
17.328959
 42
-0.009811
 10
29.087889
 20
17.28594
 42
-0.005898
 10
27.906222
 20
17.272
 10
24.824445
 20
17.272
 10
22.762722
 20
19.294598
 10
20.701
 20
21.317195
 10
22.346676
 20
22.97963
 10
23.992353
 20
24.642064
  0
LWPOLYLINE
  5
722
330
1D
100
AcDbEntity
  8
0
100
AcDbPolyline
 90
       14
 70
     1
 43
0.0
 10
67.561122
 20
22.980633
 10
69.215
 20
21.322214
 10
67.153278
 20
19.297107
 10
65.091555
 20
17.272
 10
62.009778
 20
17.272
 42
-0.005695
 10
60.828108
 20
17.285459
 42
-0.009474
 10
59.833272
 20
17.326994
 42
-0.003563
 10
58.99805
 20
17.383708
 42
-0.392435
 10
58.928
 20
17.459212
 42
-0.190952
 10
58.978057
 20
17.585504
 42
-0.000913
 10
59.953077
 20
18.618473
 42
-0.004012
 10
61.079864
 20
19.788917
 42
-0.002505
 10
62.417622
 20
21.142738
 10
65.907244
 20
24.639052
  0
LWPOLYLINE
  5
732
330
1D
100
AcDbEntity
  8
0
100
AcDbPolyline
 90
       12
 70
     1
 43
0.0
 10
14.433724
 20
22.606
 42
-0.144173
 10
14.546686
 20
22.572737
 42
-0.021083
 10
14.744016
 20
22.433374
 42
-0.022377
 10
14.968782
 20
22.24336
 42
-0.017515
 10
15.195531
 20
22.018336
 10
15.747613
 20
21.430671
 10
14.985806
 20
20.700814
 10
14.224
 20
19.970958
 10
14.224
 20
21.288479
 42
-0.014961
 10
14.239117
 20
21.793565
 42
-0.024509
 10
14.285606
 20
22.218978
 42
-0.021585
 10
14.351355
 20
22.541635
 42
-0.344373
  0
LWPOLYLINE
  5
740
330
1D
100
AcDbEntity
  8
0
100
AcDbPolyline
 90
       12
 70
     1
 43
0.0
 10
75.482276
 20
22.606
 42
-0.344373
 10
75.564645
 20
22.541635
 42
-0.021585
 10
75.630394
 20
22.218978
 42
-0.024509
 10
75.676883
 20
21.793565
 42
-0.014961
 10
75.692
 20
21.288479
 10
75.692
 20
19.970958
 10
74.930194
 20
20.700814
 10
74.168387
 20
21.430671
 10
74.720469
 20
22.018336
 42
-0.017515
 10
74.947218
 20
22.24336
 42
-0.022377
 10
75.171984
 20
22.433374
 42
-0.021083
 10
75.369314
 20
22.572737
 42
-0.144173
  0
LWPOLYLINE
  5
74E
330
1D
100
AcDbEntity
  8
0
100
AcDbPolyline
 90
       24
 70
     1
 43
0.0
 10
18.252405
 20
18.796
 42
-0.154569
 10
18.3297
 20
18.77152
 42
-0.010609
 10
18.516801
 20
18.633769
 42
-0.014342
 10
18.73548
 20
18.455286
 42
-0.010244
 10
18.970129
 20
18.243724
 42
-0.017509
 10
19.195233
 20
18.016901
 42
-0.022371
 10
19.385313
 20
17.792073
 42
-0.021075
 10
19.52473
 20
17.594693
 42
-0.144193
 10
19.558
 20
17.481724
 42
-0.341193
 10
19.494464
 20
17.399455
 42
-0.022981
 10
19.184938
 20
17.333606
 42
-0.025397
 10
18.77486
 20
17.28712
 42
-0.015525
 10
18.288
 20
17.272
 42
-0.012877
 10
17.801102
 20
17.284541
 42
-0.021192
 10
17.391063
 20
17.323151
 42
-0.01662
 10
17.074033
 20
17.377407
 42
-0.356006
 10
17.018
 20
17.446129
 42
-0.142117
 10
17.046615
 20
17.54477
 42
-0.015619
 10
17.180231
 20
17.741795
 42
-0.018079
 10
17.358769
 20
17.970272
 42
-0.013682
 10
17.570276
 20
18.208129
 42
-0.010913
 10
17.791293
 20
18.433334
 42
-0.015411
 10
17.998465
 20
18.623313
 42
-0.011506
 10
18.176565
 20
18.769798
 42
-0.167874
  0
LWPOLYLINE
  5
768
330
1D
100
AcDbEntity
  8
0
100
AcDbPolyline
 90
       24
 70
     1
 43
0.0
 10
71.592405
 20
18.796
 42
-0.154569
 10
71.6697
 20
18.77152
 42
-0.010609
 10
71.856801
 20
18.633769
 42
-0.014342
 10
72.07548
 20
18.455286
 42
-0.010244
 10
72.310129
 20
18.243724
 42
-0.017509
 10
72.535233
 20
18.016901
 42
-0.022371
 10
72.725313
 20
17.792073
 42
-0.021075
 10
72.86473
 20
17.594693
 42
-0.144193
 10
72.898
 20
17.481724
 42
-0.341193
 10
72.834464
 20
17.399455
 42
-0.022981
 10
72.524937
 20
17.333606
 42
-0.025397
 10
72.11486
 20
17.28712
 42
-0.015525
 10
71.628
 20
17.272
 42
-0.012877
 10
71.141102
 20
17.284541
 42
-0.021192
 10
70.731063
 20
17.323151
 42
-0.01662
 10
70.414033
 20
17.377407
 42
-0.356006
 10
70.358
 20
17.446129
 42
-0.142117
 10
70.386615
 20
17.54477
 42
-0.015619
 10
70.520231
 20
17.741795
 42
-0.018079
 10
70.698769
 20
17.970272
 42
-0.013682
 10
70.910276
 20
18.208129
 42
-0.010913
 10
71.131293
 20
18.433334
 42
-0.015411
 10
71.338465
 20
18.623313
 42
-0.011506
 10
71.516565
 20
18.769798
 42
-0.167874
  0
LWPOLYLINE
  5
782
330
1D
100
AcDbEntity
  8
0
100
AcDbPolyline
 90
       20
 70
     1
 43
0.0
 10
22.042536
 20
13.749241
 42
-0.273856
 10
22.20102
 20
13.581075
 42
-0.033619
 10
22.28172
 20
13.061028
 42
-0.022582
 10
22.316649
 20
12.221497
 42
-0.005431
 10
22.296536
 20
10.828241
 10
22.225
 20
8.001
 10
14.9225
 20
7.933605
 42
-0.00255
 10
12.122362
 20
7.922043
 42
-0.004253
 10
9.765109
 20
7.944383
 42
-0.000728
 10
7.69872
 20
7.984554
 42
-0.408107
 10
7.62
 20
8.064937
 42
-0.188558
 10
7.67154
 20
8.196746
 42
-0.001632
 10
8.422084
 20
9.004436
 42
-0.005391
 10
9.303845
 20
9.927001
 42
-0.003415
 10
10.3505
 20
10.984169
 10
13.081
 20
13.704674
 10
17.399
 20
13.773837
 42
-0.002136
 10
19.077277
 20
13.793547
 42
-0.003192
 10
20.544214
 20
13.795142
 42
-0.001358
 10
21.797978
 20
13.785097
 42
-0.067527
  0
LWPOLYLINE
  5
798
330
1D
100
AcDbEntity
  8
0
100
AcDbPolyline
 90
       20
 70
     1
 43
0.0
 10
63.6905
 20
13.752325
 42
-0.276853
 10
63.84478
 20
13.587523
 42
-0.026575
 10
63.935543
 20
13.021943
 42
-0.020745
 10
63.992143
 20
12.145652
 42
-0.005754
 10
64.008
 20
10.767825
 10
64.008
 20
7.874
 10
56.769
 20
7.874
 42
-0.002522
 10
53.993218
 20
7.888002
 42
-0.004205
 10
51.656456
 20
7.931232
 42
-0.000711
 10
49.607197
 20
7.989304
 42
-0.405526
 10
49.53
 20
8.068832
 42
-0.188796
 10
49.580657
 20
8.198208
 42
-0.001573
 10
50.332084
 20
9.005547
 42
-0.005292
 10
51.213839
 20
9.927208
 42
-0.003349
 10
52.2605
 20
10.984058
 10
54.991
 20
13.704452
 10
59.182
 20
13.773726
 42
-0.002133
 10
60.811024
 20
13.793701
 42
-0.003186
 10
62.235159
 20
13.796015
 42
-0.001359
 10
63.452168
 20
13.786929
 42
-0.067101
  0
LWPOLYLINE
  5
7AE
330
1D
100
AcDbEntity
  8
0
100
AcDbPolyline
 90
       14
 70
     1
 43
0.0
 10
30.412352
 20
13.716
 10
34.916705
 20
13.716
 10
37.651352
 20
10.989832
 42
-0.003342
 10
38.699604
 20
9.930768
 42
-0.005281
 10
39.582697
 20
9.007244
 42
-0.001567
 10
40.335347
 20
8.198237
 42
-0.188742
 10
40.386
 20
8.068832
 42
-0.405526
 10
40.308803
 20
7.989304
 42
-0.000711
 10
38.259544
 20
7.931232
 42
-0.004205
 10
35.922782
 20
7.888002
 42
-0.002522
 10
33.147
 20
7.874
 10
25.908
 20
7.874
 10
25.908
 20
10.795
 10
25.908
 20
13.716
  0
LWPOLYLINE
  5
7BE
330
1D
100
AcDbEntity
  8
0
100
AcDbPolyline
 90
       14
 70
     1
 43
0.0
 10
72.187033
 20
13.716
 10
76.826705
 20
13.716
 10
79.561352
 20
10.989832
 42
-0.003408
 10
80.609597
 20
9.930492
 42
-0.005381
 10
81.492697
 20
9.006099
 42
-0.001626
 10
82.244463
 20
8.196774
 42
-0.18851
 10
82.296
 20
8.064937
 42
-0.408107
 10
82.21728
 20
7.984554
 42
-0.000728
 10
80.150891
 20
7.944383
 42
-0.004253
 10
77.793638
 20
7.922043
 42
-0.00255
 10
74.9935
 20
7.933605
 10
67.691
 20
8.001
 10
67.619181
 20
10.8585
 10
67.547362
 20
13.716
  0
ENDSEC
  0
SECTION
  2
OBJECTS
  0
DICTIONARY
  5
C
330
0
100
AcDbDictionary
281
     1
  3
ACAD_DETAILVIEWSTYLE
350
85A
  3
ACAD_GROUP
350
D
  3
ACAD_LAYOUT
350
1A
  3
ACAD_MATERIAL
350
80D
  3
ACAD_MLEADERSTYLE
350
813
  3
ACAD_MLINESTYLE
350
17
  3
ACAD_PLOTSETTINGS
350
19
  3
ACAD_PLOTSTYLENAME
350
E
  3
ACAD_SCALELIST
350
7CE
  3
ACAD_SECTIONVIEWSTYLE
350
85B
  3
ACAD_TABLESTYLE
350
811
  3
ACAD_VISUALSTYLE
350
7F4
  3
ACDB_RECOMPOSE_DATA
350
856
  3
AcDbVariableDictionary
350
817
  0
DICTIONARY
  5
815
330
8
100
AcDbDictionary
280
     1
281
     1
  3
ACAD_XREC_ROUNDTRIP
360
816
  0
DICTIONARY
  5
85A
102
{ACAD_REACTORS
330
C
102
}
330
C
100
AcDbDictionary
281
     1
  0
DICTIONARY
  5
D
102
{ACAD_REACTORS
330
C
102
}
330
C
100
AcDbDictionary
281
     1
  0
DICTIONARY
  5
1A
102
{ACAD_REACTORS
330
C
102
}
330
C
100
AcDbDictionary
281
     1
  3
Layout1
350
1C
  3
Model
350
1E
  0
DICTIONARY
  5
80D
102
{ACAD_REACTORS
330
C
102
}
330
C
100
AcDbDictionary
281
     1
  3
ByBlock
350
80F
  3
ByLayer
350
80E
  3
Global
350
810
  0
DICTIONARY
  5
813
102
{ACAD_REACTORS
330
C
102
}
330
C
100
AcDbDictionary
281
     1
  3
Standard
350
814
  0
DICTIONARY
  5
17
102
{ACAD_REACTORS
330
C
102
}
330
C
100
AcDbDictionary
281
     1
  3
Standard
350
18
  0
DICTIONARY
  5
19
102
{ACAD_REACTORS
330
C
102
}
330
C
100
AcDbDictionary
281
     1
  0
ACDBDICTIONARYWDFLT
  5
E
102
{ACAD_REACTORS
330
C
102
}
330
C
100
AcDbDictionary
281
     1
  3
Normal
350
F
100
AcDbDictionaryWithDefault
340
F
  0
DICTIONARY
  5
7CE
102
{ACAD_REACTORS
330
C
102
}
330
C
100
AcDbDictionary
281
     1
  3
A0
350
7CF
  3
A1
350
7D0
  3
A2
350
7D1
  3
A3
350
7D2
  3
A4
350
7D3
  3
A5
350
7D4
  3
A6
350
7D5
  3
A7
350
7D6
  3
A8
350
7D7
  3
A9
350
7D8
  3
B0
350
7D9
  3
B1
350
7DA
  3
B2
350
7DB
  3
B3
350
7DC
  3
B4
350
7DD
  3
B5
350
7DE
  3
B6
350
7DF
  3
B7
350
7E0
  3
B8
350
7E1
  3
B9
350
7E2
  3
C0
350
7E3
  3
C1
350
7E4
  3
C2
350
7E5
  3
C3
350
7E6
  3
C4
350
7E7
  3
C5
350
7E8
  3
C6
350
7E9
  3
C7
350
7EA
  3
C8
350
7EB
  3
C9
350
7EC
  3
D0
350
7ED
  3
D1
350
7EE
  3
D2
350
7EF
  0
DICTIONARY
  5
85B
102
{ACAD_REACTORS
330
C
102
}
330
C
100
AcDbDictionary
281
     1
  0
DICTIONARY
  5
811
102
{ACAD_REACTORS
330
C
102
}
330
C
100
AcDbDictionary
281
     1
  3
Standard
350
812
  0
DICTIONARY
  5
7F4
102
{ACAD_REACTORS
330
C
102
}
330
C
100
AcDbDictionary
281
     1
  3
2dWireframe
350
7F9
  3
Basic
350
7FC
  3
Brighten
350
800
  3
ColorChange
350
804
  3
Conceptual
350
7FE
  3
Dim
350
7FF
  3
EdgeColorOff
350
807
  3
Facepattern
350
803
  3
Flat
350
7F5
  3
FlatWithEdges
350
7F6
  3
Gouraud
350
7F7
  3
GouraudWithEdges
350
7F8
  3
Hidden
350
7FB
  3
JitterOff
350
805
  3
Linepattern
350
802
  3
OverhangOff
350
806
  3
Realistic
350
7FD
  3
Shaded
350
80C
  3
Shaded with edges
350
80B
  3
Shades of Gray
350
808
  3
Sketchy
350
809
  3
Thicken
350
801
  3
Wireframe
350
7FA
  3
X-Ray
350
80A
  0
XRECORD
  5
856
102
{ACAD_REACTORS
330
C
102
}
330
C
100
AcDbXrecord
280
     1
 90
        1
330
812
  0
DICTIONARY
  5
817
102
{ACAD_REACTORS
330
C
102
}
330
C
100
AcDbDictionary
281
     1
  3
CANNOSCALE
350
818
  3
CMLEADERSTYLE
350
858
  3
CTABLESTYLE
350
857
  3
MSLTSCALE
350
859
  3
XCLIPFRAME
350
819
  0
XRECORD
  5
816
102
{ACAD_REACTORS
330
815
102
}
330
815
100
AcDbXrecord
280
     1
102
VTR_0.000_0.000_1.000_1.000_VISUALSTYLE
340
7F9
102
VTR_0.000_0.000_1.000_1.000_GRIDDISPLAY
 70
     3
102
VTR_0.000_0.000_1.000_1.000_GRIDMAJOR
 70
     5
102
VTR_0.000_0.000_1.000_1.000_DEFAULTLIGHTING
280
     1
102
VTR_0.000_0.000_1.000_1.000_DEFAULTLIGHTINGTYPE
 70
     1
102
VTR_0.000_0.000_1.000_1.000_BRIGHTNESS
141
0.0
102
VTR_0.000_0.000_1.000_1.000_CONTRAST
142
0.0
  0
LAYOUT
  5
1C
102
{ACAD_REACTORS
330
1A
102
}
330
1A
100
AcDbPlotSettings
  1

  2
none_device
  4

  6

 40
0.0
 41
0.0
 42
0.0
 43
0.0
 44
0.0
 45
0.0
 46
0.0
 47
0.0
 48
0.0
 49
0.0
140
0.0
141
0.0
142
1.0
143
1.0
 70
   688
 72
     0
 73
     0
 74
     5
  7

 75
    16
 76
     0
 77
     2
 78
   300
147
1.0
148
0.0
149
0.0
100
AcDbLayout
  1
Layout1
 70
     1
 71
     1
 10
0.0
 20
0.0
 11
12.0
 21
9.0
 12
0.0
 22
0.0
 32
0.0
 14
1.000000000000000E+20
 24
1.000000000000000E+20
 34
1.000000000000000E+20
 15
-1.000000000000000E+20
 25
-1.000000000000000E+20
 35
-1.000000000000000E+20
146
0.0
 13
0.0
 23
0.0
 33
0.0
 16
1.0
 26
0.0
 36
0.0
 17
0.0
 27
1.0
 37
0.0
 76
     0
330
1B
  0
LAYOUT
  5
1E
102
{ACAD_REACTORS
330
1A
102
}
330
1A
100
AcDbPlotSettings
  1

  2
none_device
  4
Letter_(8.50_x_11.00_Inches)
  6

 40
6.35
 41
6.35
 42
6.35000508
 43
6.35000508
 44
215.9
 45
279.4
 46
0.0
 47
0.0
 48
0.0
 49
0.0
140
0.0
141
0.0
142
1.0
143
1.0
 70
  1712
 72
     0
 73
     0
 74
     0
  7

 75
     0
 76
     0
 77
     2
 78
   300
147
1.0
148
0.0
149
0.0
100
AcDbLayout
  1
Model
 70
     1
 71
     0
 10
0.0
 20
0.0
 11
12.0
 21
9.0
 12
0.0
 22
0.0
 32
0.0
 14
0.0
 24
0.0
 34
0.0
 15
89.916
 25
179.832
 35
0.0
146
0.0
 13
0.0
 23
0.0
 33
0.0
 16
1.0
 26
0.0
 36
0.0
 17
0.0
 27
1.0
 37
0.0
 76
     0
330
1D
331
21
  0
MATERIAL
  5
80F
102
{ACAD_REACTORS
330
80D
102
}
102
{ACAD_XDICTIONARY
360
84C
102
}
330
80D
100
AcDbMaterial
  1
ByBlock
  0
MATERIAL
  5
80E
102
{ACAD_REACTORS
330
80D
102
}
102
{ACAD_XDICTIONARY
360
84A
102
}
330
80D
100
AcDbMaterial
  1
ByLayer
  0
MATERIAL
  5
810
102
{ACAD_REACTORS
330
80D
102
}
102
{ACAD_XDICTIONARY
360
84E
102
}
330
80D
100
AcDbMaterial
  1
Global
  0
MLEADERSTYLE
  5
814
102
{ACAD_REACTORS
330
813
102
}
102
{ACAD_XDICTIONARY
360
854
102
}
330
813
100
AcDbMLeaderStyle
170
     2
171
     1
172
     0
 90
        2
 40
0.0
 41
0.0
173
     1
 91
-1056964608
340
14
 92
       -2
290
     1
 42
0.09
291
     1
 43
0.36
  3
Standard
341
0
 44
0.18
300

342
11
174
     1
178
     6
175
     1
176
     0
 93
-1056964608
 45
0.18
292
     0
297
     0
 46
0.18
343
0
 94
-1056964608
 47
1.0
 49
1.0
140
1.0
293
     1
141
0.0
294
     1
177
     0
142
1.0
295
     0
296
     0
143
0.125
1001
ACAD_MLEADERVER
1070
     2
  0
MLINESTYLE
  5
18
102
{ACAD_REACTORS
330
17
102
}
330
17
100
AcDbMlineStyle
  2
Standard
 70
     0
  3

 62
   256
 51
90.0
 52
90.0
 71
     2
 49
0.5
 62
   256
  6
BYLAYER
 49
-0.5
 62
   256
  6
BYLAYER
  0
ACDBPLACEHOLDER
  5
F
102
{ACAD_REACTORS
330
E
102
}
330
E
  0
SCALE
  5
7CF
102
{ACAD_REACTORS
330
7CE
102
}
330
7CE
100
AcDbScale
 70
     0
300
1:1
140
1.0
141
1.0
290
     1
  0
SCALE
  5
7D0
102
{ACAD_REACTORS
330
7CE
102
}
330
7CE
100
AcDbScale
 70
     0
300
1:2
140
1.0
141
2.0
290
     0
  0
SCALE
  5
7D1
102
{ACAD_REACTORS
330
7CE
102
}
330
7CE
100
AcDbScale
 70
     0
300
1:4
140
1.0
141
4.0
290
     0
  0
SCALE
  5
7D2
102
{ACAD_REACTORS
330
7CE
102
}
330
7CE
100
AcDbScale
 70
     0
300
1:5
140
1.0
141
5.0
290
     0
  0
SCALE
  5
7D3
102
{ACAD_REACTORS
330
7CE
102
}
330
7CE
100
AcDbScale
 70
     0
300
1:8
140
1.0
141
8.0
290
     0
  0
SCALE
  5
7D4
102
{ACAD_REACTORS
330
7CE
102
}
330
7CE
100
AcDbScale
 70
     0
300
1:10
140
1.0
141
10.0
290
     0
  0
SCALE
  5
7D5
102
{ACAD_REACTORS
330
7CE
102
}
330
7CE
100
AcDbScale
 70
     0
300
1:16
140
1.0
141
16.0
290
     0
  0
SCALE
  5
7D6
102
{ACAD_REACTORS
330
7CE
102
}
330
7CE
100
AcDbScale
 70
     0
300
1:20
140
1.0
141
20.0
290
     0
  0
SCALE
  5
7D7
102
{ACAD_REACTORS
330
7CE
102
}
330
7CE
100
AcDbScale
 70
     0
300
1:30
140
1.0
141
30.0
290
     0
  0
SCALE
  5
7D8
102
{ACAD_REACTORS
330
7CE
102
}
330
7CE
100
AcDbScale
 70
     0
300
1:40
140
1.0
141
40.0
290
     0
  0
SCALE
  5
7D9
102
{ACAD_REACTORS
330
7CE
102
}
330
7CE
100
AcDbScale
 70
     0
300
1:50
140
1.0
141
50.0
290
     0
  0
SCALE
  5
7DA
102
{ACAD_REACTORS
330
7CE
102
}
330
7CE
100
AcDbScale
 70
     0
300
1:100
140
1.0
141
100.0
290
     0
  0
SCALE
  5
7DB
102
{ACAD_REACTORS
330
7CE
102
}
330
7CE
100
AcDbScale
 70
     0
300
2:1
140
2.0
141
1.0
290
     0
  0
SCALE
  5
7DC
102
{ACAD_REACTORS
330
7CE
102
}
330
7CE
100
AcDbScale
 70
     0
300
4:1
140
4.0
141
1.0
290
     0
  0
SCALE
  5
7DD
102
{ACAD_REACTORS
330
7CE
102
}
330
7CE
100
AcDbScale
 70
     0
300
8:1
140
8.0
141
1.0
290
     0
  0
SCALE
  5
7DE
102
{ACAD_REACTORS
330
7CE
102
}
330
7CE
100
AcDbScale
 70
     0
300
10:1
140
10.0
141
1.0
290
     0
  0
SCALE
  5
7DF
102
{ACAD_REACTORS
330
7CE
102
}
330
7CE
100
AcDbScale
 70
     0
300
100:1
140
100.0
141
1.0
290
     0
  0
SCALE
  5
7E0
102
{ACAD_REACTORS
330
7CE
102
}
330
7CE
100
AcDbScale
 70
     0
300
1/128\" = 1\'-0\"
140
0.0078125
141
12.0
290
     0
  0
SCALE
  5
7E1
102
{ACAD_REACTORS
330
7CE
102
}
330
7CE
100
AcDbScale
 70
     0
300
1/64\" = 1\'-0\"
140
0.015625
141
12.0
290
     0
  0
SCALE
  5
7E2
102
{ACAD_REACTORS
330
7CE
102
}
330
7CE
100
AcDbScale
 70
     0
300
1/32\" = 1\'-0\"
140
0.03125
141
12.0
290
     0
  0
SCALE
  5
7E3
102
{ACAD_REACTORS
330
7CE
102
}
330
7CE
100
AcDbScale
 70
     0
300
1/16\" = 1\'-0\"
140
0.0625
141
12.0
290
     0
  0
SCALE
  5
7E4
102
{ACAD_REACTORS
330
7CE
102
}
330
7CE
100
AcDbScale
 70
     0
300
3/32\" = 1\'-0\"
140
0.09375
141
12.0
290
     0
  0
SCALE
  5
7E5
102
{ACAD_REACTORS
330
7CE
102
}
330
7CE
100
AcDbScale
 70
     0
300
1/8\" = 1\'-0\"
140
0.125
141
12.0
290
     0
  0
SCALE
  5
7E6
102
{ACAD_REACTORS
330
7CE
102
}
330
7CE
100
AcDbScale
 70
     0
300
3/16\" = 1\'-0\"
140
0.1875
141
12.0
290
     0
  0
SCALE
  5
7E7
102
{ACAD_REACTORS
330
7CE
102
}
330
7CE
100
AcDbScale
 70
     0
300
1/4\" = 1\'-0\"
140
0.25
141
12.0
290
     0
  0
SCALE
  5
7E8
102
{ACAD_REACTORS
330
7CE
102
}
330
7CE
100
AcDbScale
 70
     0
300
3/8\" = 1\'-0\"
140
0.375
141
12.0
290
     0
  0
SCALE
  5
7E9
102
{ACAD_REACTORS
330
7CE
102
}
330
7CE
100
AcDbScale
 70
     0
300
1/2\" = 1\'-0\"
140
0.5
141
12.0
290
     0
  0
SCALE
  5
7EA
102
{ACAD_REACTORS
330
7CE
102
}
330
7CE
100
AcDbScale
 70
     0
300
3/4\" = 1\'-0\"
140
0.75
141
12.0
290
     0
  0
SCALE
  5
7EB
102
{ACAD_REACTORS
330
7CE
102
}
330
7CE
100
AcDbScale
 70
     0
300
1\" = 1\'-0\"
140
1.0
141
12.0
290
     0
  0
SCALE
  5
7EC
102
{ACAD_REACTORS
330
7CE
102
}
330
7CE
100
AcDbScale
 70
     0
300
1-1/2\" = 1\'-0\"
140
1.5
141
12.0
290
     0
  0
SCALE
  5
7ED
102
{ACAD_REACTORS
330
7CE
102
}
330
7CE
100
AcDbScale
 70
     0
300
3\" = 1\'-0\"
140
3.0
141
12.0
290
     0
  0
SCALE
  5
7EE
102
{ACAD_REACTORS
330
7CE
102
}
330
7CE
100
AcDbScale
 70
     0
300
6\" = 1\'-0\"
140
6.0
141
12.0
290
     0
  0
SCALE
  5
7EF
102
{ACAD_REACTORS
330
7CE
102
}
330
7CE
100
AcDbScale
 70
     0
300
1\'-0\" = 1\'-0\"
140
12.0
141
12.0
290
     0
  0
TABLESTYLE
  5
812
102
{ACAD_REACTORS
330
811
102
}
102
{ACAD_XDICTIONARY
360
850
102
}
330
811
100
AcDbTableStyle
  3
Standard
 70
     0
 71
     0
 40
0.06
 41
0.06
280
     0
281
     0
  7
Standard
140
0.18
170
     2
 62
     0
 63
   257
283
     0
274
    -2
284
     1
 64
     0
275
    -2
285
     1
 65
     0
276
    -2
286
     1
 66
     0
277
    -2
287
     1
 67
     0
278
    -2
288
     1
 68
     0
279
    -2
289
     1
 69
     0
  7
Standard
140
0.25
170
     5
 62
     0
 63
   257
283
     0
274
    -2
284
     1
 64
     0
275
    -2
285
     1
 65
     0
276
    -2
286
     1
 66
     0
277
    -2
287
     1
 67
     0
278
    -2
288
     1
 68
     0
279
    -2
289
     1
 69
     0
  7
Standard
140
0.18
170
     5
 62
     0
 63
   257
283
     0
274
    -2
284
     1
 64
     0
275
    -2
285
     1
 65
     0
276
    -2
286
     1
 66
     0
277
    -2
287
     1
 67
     0
278
    -2
288
     1
 68
     0
279
    -2
289
     1
 69
     0
  0
VISUALSTYLE
  5
7F9
102
{ACAD_REACTORS
330
7F4
102
}
102
{ACAD_XDICTIONARY
360
822
102
}
330
7F4
100
AcDbVisualStyle
  2
2dWireframe
 70
     4
 71
     0
 72
     2
 73
     0
 90
        0
 40
0.6
 41
30.0
 62
     5
 63
     7
421
 16777215
 74
     1
 91
        4
 64
     7
 65
   257
 75
     1
175
     1
 42
1.0
 92
        0
 66
   257
 43
1.0
 76
     1
 77
     6
 78
     2
 67
     7
 79
     5
170
     0
171
     0
290
     0
174
     0
 93
        1
 44
0.0
173
     0
291
     0
 45
0.0
1001
ACAD
1000
AcDbSavedByObjectVersion
1070
     0
  0
VISUALSTYLE
  5
7FC
102
{ACAD_REACTORS
330
7F4
102
}
102
{ACAD_XDICTIONARY
360
828
102
}
330
7F4
100
AcDbVisualStyle
  2
Basic
 70
     7
 71
     1
 72
     0
 73
     1
 90
        0
 40
0.6
 41
30.0
 62
     5
 63
     7
421
 16777215
 74
     0
 91
        4
 64
     7
 65
   257
 75
     1
175
     1
 42
1.0
 92
        8
 66
     7
 43
1.0
 76
     1
 77
     6
 78
     2
 67
     7
 79
     5
170
     0
171
     0
290
     0
174
     0
 93
        1
 44
0.0
173
     0
291
     1
 45
0.0
1001
ACAD
1000
AcDbSavedByObjectVersion
1070
     0
  0
VISUALSTYLE
  5
800
102
{ACAD_REACTORS
330
7F4
102
}
102
{ACAD_XDICTIONARY
360
830
102
}
330
7F4
100
AcDbVisualStyle
  2
Brighten
 70
    12
 71
     2
 72
     2
 73
     0
 90
        0
 40
0.6
 41
30.0
 62
     5
 63
     7
421
 16777215
 74
     1
 91
        4
 64
     7
 65
   257
 75
     1
175
     1
 42
1.0
 92
        8
 66
     7
 43
1.0
 76
     1
 77
     6
 78
     2
 67
     7
 79
     5
170
     0
171
     0
290
     0
174
     0
 93
        1
 44
50.0
173
     0
291
     1
 45
0.0
1001
ACAD
1000
AcDbSavedByObjectVersion
1070
     0
  0
VISUALSTYLE
  5
804
102
{ACAD_REACTORS
330
7F4
102
}
102
{ACAD_XDICTIONARY
360
838
102
}
330
7F4
100
AcDbVisualStyle
  2
ColorChange
 70
    16
 71
     2
 72
     2
 73
     3
 90
        0
 40
0.6
 41
30.0
 62
     5
 63
     8
421
  8421504
 74
     1
 91
        4
 64
     7
 65
   257
 75
     1
175
     1
 42
1.0
 92
        8
 66
     8
424
  8421504
 43
1.0
 76
     1
 77
     6
 78
     2
 67
     7
 79
     5
170
     0
171
     0
290
     0
174
     0
 93
        1
 44
0.0
173
     0
291
     1
 45
0.0
1001
ACAD
1000
AcDbSavedByObjectVersion
1070
     0
  0
VISUALSTYLE
  5
7FE
102
{ACAD_REACTORS
330
7F4
102
}
102
{ACAD_XDICTIONARY
360
82C
102
}
330
7F4
100
AcDbVisualStyle
  2
Conceptual
 70
     9
 71
     3
 72
     2
 73
     0
 90
        0
 40
0.6
 41
30.0
 62
     5
 63
     7
421
 16777215
 74
     2
 91
        2
 64
     7
 65
   257
 75
     1
175
     1
 42
179.0
 92
        8
 66
     7
 43
1.0
 76
     1
 77
     6
 78
     2
 67
     7
 79
     3
170
     0
171
     0
290
     0
174
     0
 93
        1
 44
0.0
173
     0
291
     0
 45
0.0
1001
ACAD
1000
AcDbSavedByObjectVersion
1070
     0
  0
VISUALSTYLE
  5
7FF
102
{ACAD_REACTORS
330
7F4
102
}
102
{ACAD_XDICTIONARY
360
82E
102
}
330
7F4
100
AcDbVisualStyle
  2
Dim
 70
    11
 71
     2
 72
     2
 73
     0
 90
        0
 40
0.6
 41
30.0
 62
     5
 63
     7
421
 16777215
 74
     1
 91
        4
 64
     7
 65
   257
 75
     1
175
     1
 42
1.0
 92
        8
 66
     7
 43
1.0
 76
     1
 77
     6
 78
     2
 67
     7
 79
     5
170
     0
171
     0
290
     0
174
     0
 93
        1
 44
-50.0
173
     0
291
     1
 45
0.0
1001
ACAD
1000
AcDbSavedByObjectVersion
1070
     0
  0
VISUALSTYLE
  5
807
102
{ACAD_REACTORS
330
7F4
102
}
102
{ACAD_XDICTIONARY
360
83E
102
}
330
7F4
100
AcDbVisualStyle
  2
EdgeColorOff
 70
    22
 71
     2
 72
     2
 73
     0
 90
        0
 40
0.6
 41
30.0
 62
     5
 63
     7
421
 16777215
 74
     1
 91
        4
 64
     7
 65
   257
 75
     1
175
     1
 42
1.0
 92
        8
 66
     7
 43
1.0
 76
     1
 77
     6
 78
     2
 67
     7
 79
     5
170
     0
171
     0
290
     0
174
     0
 93
        1
 44
0.0
173
     0
291
     1
 45
0.0
1001
ACAD
1000
AcDbSavedByObjectVersion
1070
     0
  0
VISUALSTYLE
  5
803
102
{ACAD_REACTORS
330
7F4
102
}
102
{ACAD_XDICTIONARY
360
836
102
}
330
7F4
100
AcDbVisualStyle
  2
Facepattern
 70
    15
 71
     2
 72
     2
 73
     0
 90
        0
 40
0.6
 41
30.0
 62
     5
 63
     7
421
 16777215
 74
     1
 91
        4
 64
     7
 65
   257
 75
     1
175
     1
 42
1.0
 92
        8
 66
     7
 43
1.0
 76
     1
 77
     6
 78
     2
 67
     7
 79
     5
170
     0
171
     0
290
     0
174
     0
 93
        1
 44
0.0
173
     0
291
     1
 45
0.0
1001
ACAD
1000
AcDbSavedByObjectVersion
1070
     0
  0
VISUALSTYLE
  5
7F5
102
{ACAD_REACTORS
330
7F4
102
}
102
{ACAD_XDICTIONARY
360
81A
102
}
330
7F4
100
AcDbVisualStyle
  2
Flat
 70
     0
 71
     2
 72
     1
 73
     1
 90
        2
 40
0.6
 41
30.0
 62
     5
 63
     7
421
 16777215
 74
     0
 91
        0
 64
     7
 65
   257
 75
     1
175
     1
 42
1.0
 92
        8
 66
     7
 43
1.0
 76
     1
 77
     6
 78
     2
 67
     7
 79
     5
170
     0
171
     0
290
     0
174
     0
 93
       13
 44
0.0
173
     0
291
     1
 45
0.0
1001
ACAD
1000
AcDbSavedByObjectVersion
1070
     0
  0
VISUALSTYLE
  5
7F6
102
{ACAD_REACTORS
330
7F4
102
}
102
{ACAD_XDICTIONARY
360
81C
102
}
330
7F4
100
AcDbVisualStyle
  2
FlatWithEdges
 70
     1
 71
     2
 72
     1
 73
     1
 90
        2
 40
0.6
 41
30.0
 62
     5
 63
     7
421
 16777215
 74
     1
 91
        0
 64
     7
 65
   257
 75
     1
175
     1
 42
1.0
 92
        0
 66
   257
 43
1.0
 76
     1
 77
     6
 78
     2
 67
     7
 79
     5
170
     0
171
     0
290
     0
174
     0
 93
       13
 44
0.0
173
     0
291
     1
 45
0.0
1001
ACAD
1000
AcDbSavedByObjectVersion
1070
     0
  0
VISUALSTYLE
  5
7F7
102
{ACAD_REACTORS
330
7F4
102
}
102
{ACAD_XDICTIONARY
360
81E
102
}
330
7F4
100
AcDbVisualStyle
  2
Gouraud
 70
     2
 71
     2
 72
     2
 73
     1
 90
        2
 40
0.6
 41
30.0
 62
     5
 63
     7
421
 16777215
 74
     0
 91
        0
 64
     7
 65
   257
 75
     1
175
     1
 42
1.0
 92
        0
 66
     7
 43
1.0
 76
     1
 77
     6
 78
     2
 67
     7
 79
     5
170
     0
171
     0
290
     0
174
     0
 93
       13
 44
0.0
173
     0
291
     1
 45
0.0
1001
ACAD
1000
AcDbSavedByObjectVersion
1070
     0
  0
VISUALSTYLE
  5
7F8
102
{ACAD_REACTORS
330
7F4
102
}
102
{ACAD_XDICTIONARY
360
820
102
}
330
7F4
100
AcDbVisualStyle
  2
GouraudWithEdges
 70
     3
 71
     2
 72
     2
 73
     1
 90
        2
 40
0.6
 41
30.0
 62
     5
 63
     7
421
 16777215
 74
     1
 91
        0
 64
     7
 65
   257
 75
     1
175
     1
 42
1.0
 92
        0
 66
   257
 43
1.0
 76
     1
 77
     6
 78
     2
 67
     7
 79
     5
170
     0
171
     0
290
     0
174
     0
 93
       13
 44
0.0
173
     0
291
     1
 45
0.0
1001
ACAD
1000
AcDbSavedByObjectVersion
1070
     0
  0
VISUALSTYLE
  5
7FB
102
{ACAD_REACTORS
330
7F4
102
}
102
{ACAD_XDICTIONARY
360
826
102
}
330
7F4
100
AcDbVisualStyle
  2
Hidden
 70
     6
 71
     1
 72
     2
 73
     2
 90
        0
 40
0.6
 41
30.0
 62
     5
 63
     7
421
 16777215
 74
     2
 91
        2
 64
     7
 65
   257
 75
     2
175
     1
 42
40.0
 92
        0
 66
   257
 43
1.0
 76
     1
 77
     6
 78
     2
 67
     7
 79
     3
170
     0
171
     0
290
     0
174
     0
 93
        1
 44
0.0
173
     0
291
     0
 45
0.0
1001
ACAD
1000
AcDbSavedByObjectVersion
1070
     0
  0
VISUALSTYLE
  5
805
102
{ACAD_REACTORS
330
7F4
102
}
102
{ACAD_XDICTIONARY
360
83A
102
}
330
7F4
100
AcDbVisualStyle
  2
JitterOff
 70
    20
 71
     2
 72
     2
 73
     0
 90
        0
 40
0.6
 41
30.0
 62
     5
 63
     7
421
 16777215
 74
     1
 91
        4
 64
     7
 65
   257
 75
     1
175
     1
 42
1.0
 92
       10
 66
     7
 43
1.0
 76
     1
 77
     6
 78
     2
 67
     7
 79
     5
170
     0
171
     0
290
     0
174
     0
 93
        1
 44
0.0
173
     0
291
     1
 45
0.0
1001
ACAD
1000
AcDbSavedByObjectVersion
1070
     0
  0
VISUALSTYLE
  5
802
102
{ACAD_REACTORS
330
7F4
102
}
102
{ACAD_XDICTIONARY
360
834
102
}
330
7F4
100
AcDbVisualStyle
  2
Linepattern
 70
    14
 71
     2
 72
     2
 73
     0
 90
        0
 40
0.6
 41
30.0
 62
     5
 63
     7
421
 16777215
 74
     1
 91
        4
 64
     7
 65
   257
 75
     7
175
     7
 42
1.0
 92
        8
 66
     7
 43
1.0
 76
     1
 77
     6
 78
     2
 67
     7
 79
     5
170
     0
171
     0
290
     0
174
     0
 93
        1
 44
0.0
173
     0
291
     1
 45
0.0
1001
ACAD
1000
AcDbSavedByObjectVersion
1070
     0
  0
VISUALSTYLE
  5
806
102
{ACAD_REACTORS
330
7F4
102
}
102
{ACAD_XDICTIONARY
360
83C
102
}
330
7F4
100
AcDbVisualStyle
  2
OverhangOff
 70
    21
 71
     2
 72
     2
 73
     0
 90
        0
 40
0.6
 41
30.0
 62
     5
 63
     7
421
 16777215
 74
     1
 91
        4
 64
     7
 65
   257
 75
     1
175
     1
 42
1.0
 92
        9
 66
     7
 43
1.0
 76
     1
 77
     6
 78
     2
 67
     7
 79
     5
170
     0
171
     0
290
     0
174
     0
 93
        1
 44
0.0
173
     0
291
     1
 45
0.0
1001
ACAD
1000
AcDbSavedByObjectVersion
1070
     0
  0
VISUALSTYLE
  5
7FD
102
{ACAD_REACTORS
330
7F4
102
}
102
{ACAD_XDICTIONARY
360
82A
102
}
330
7F4
100
AcDbVisualStyle
  2
Realistic
 70
     8
 71
     2
 72
     3
 73
     0
 90
        2
 40
0.6
 41
30.0
 62
     5
 63
     7
421
 16777215
 74
     0
 91
        0
 64
     7
 65
   257
 75
     1
175
     1
 42
1.0
 92
        8
 66
   257
 43
1.0
 76
     1
 77
     6
 78
     2
 67
     7
 79
     3
170
     0
171
     0
290
     0
174
     0
 93
       13
 44
0.0
173
     0
291
     0
 45
0.0
1001
ACAD
1000
AcDbSavedByObjectVersion
1070
     0
  0
VISUALSTYLE
  5
80C
102
{ACAD_REACTORS
330
7F4
102
}
102
{ACAD_XDICTIONARY
360
848
102
}
330
7F4
100
AcDbVisualStyle
  2
Shaded
 70
    27
 71
     2
 72
     2
 73
     1
 90
        2
 40
0.6
 41
30.0
 62
     5
 63
     7
421
 16777215
 74
     0
 91
        4
 64
     7
 65
   257
 75
     1
175
     1
 42
1.0
 92
        8
 66
   257
 43
1.0
 76
     1
 77
     6
 78
     2
 67
     8
425
  7895160
 79
     3
170
     0
171
     0
290
     0
174
     0
 93
        5
 44
0.0
173
     0
291
     0
 45
0.0
1001
ACAD
1000
AcDbSavedByObjectVersion
1070
     0
  0
VISUALSTYLE
  5
80B
102
{ACAD_REACTORS
330
7F4
102
}
102
{ACAD_XDICTIONARY
360
846
102
}
330
7F4
100
AcDbVisualStyle
  2
Shaded with edges
 70
    26
 71
     2
 72
     2
 73
     1
 90
        2
 40
0.6
 41
30.0
 62
     5
 63
     7
421
 16777215
 74
     1
 91
       10
 64
     7
 65
   257
 75
     2
175
     1
 42
1.0
 92
        8
 66
   257
 43
1.0
 76
     1
 77
     6
 78
     2
 67
     7
 79
     3
170
     0
171
     0
290
     0
174
     0
 93
        5
 44
0.0
173
     0
291
     0
 45
0.0
1001
ACAD
1000
AcDbSavedByObjectVersion
1070
     0
  0
VISUALSTYLE
  5
808
102
{ACAD_REACTORS
330
7F4
102
}
102
{ACAD_XDICTIONARY
360
840
102
}
330
7F4
100
AcDbVisualStyle
  2
Shades of Gray
 70
    23
 71
     2
 72
     2
 73
     3
 90
        0
 40
0.6
 41
30.0
 62
     5
 63
     7
421
 16777215
 74
     2
 91
        2
 64
     7
 65
     7
 75
     1
175
     1
 42
40.0
 92
        8
 66
     7
 43
1.0
 76
     1
 77
     6
 78
     2
 67
     7
 79
     3
170
     0
171
     0
290
     0
174
     0
 93
        1
 44
0.0
173
     0
291
     0
 45
0.0
1001
ACAD
1000
AcDbSavedByObjectVersion
1070
     0
  0
VISUALSTYLE
  5
809
102
{ACAD_REACTORS
330
7F4
102
}
102
{ACAD_XDICTIONARY
360
842
102
}
330
7F4
100
AcDbVisualStyle
  2
Sketchy
 70
    24
 71
     1
 72
     2
 73
     2
 90
        0
 40
0.6
 41
30.0
 62
     5
 63
     7
421
 16777215
 74
     2
 91
        2
 64
     7
 65
     7
 75
     1
175
     1
 42
40.0
 92
       11
 66
     7
 43
1.0
 76
     1
 77
     6
 78
     2
 67
     7
 79
     6
170
     0
171
     0
290
     0
174
     0
 93
        1
 44
0.0
173
     0
291
     0
 45
0.0
1001
ACAD
1000
AcDbSavedByObjectVersion
1070
     0
  0
VISUALSTYLE
  5
801
102
{ACAD_REACTORS
330
7F4
102
}
102
{ACAD_XDICTIONARY
360
832
102
}
330
7F4
100
AcDbVisualStyle
  2
Thicken
 70
    13
 71
     2
 72
     2
 73
     0
 90
        0
 40
0.6
 41
30.0
 62
     5
 63
     7
421
 16777215
 74
     1
 91
        4
 64
     7
 65
   257
 75
     1
175
     1
 42
1.0
 92
       12
 66
     7
 43
1.0
 76
     1
 77
     6
 78
     2
 67
     7
 79
     5
170
     0
171
     0
290
     0
174
     0
 93
        1
 44
0.0
173
     0
291
     1
 45
0.0
1001
ACAD
1000
AcDbSavedByObjectVersion
1070
     0
  0
VISUALSTYLE
  5
7FA
102
{ACAD_REACTORS
330
7F4
102
}
102
{ACAD_XDICTIONARY
360
824
102
}
330
7F4
100
AcDbVisualStyle
  2
Wireframe
 70
     5
 71
     0
 72
     2
 73
     0
 90
        0
 40
0.6
 41
30.0
 62
     5
 63
     7
421
 16777215
 74
     1
 91
        4
 64
     7
 65
   257
 75
     1
175
     1
 42
1.0
 92
        0
 66
   257
 43
1.0
 76
     1
 77
     6
 78
     2
 67
     7
 79
     3
170
     0
171
     0
290
     0
174
     0
 93
        1
 44
0.0
173
     0
291
     0
 45
0.0
1001
ACAD
1000
AcDbSavedByObjectVersion
1070
     0
  0
VISUALSTYLE
  5
80A
102
{ACAD_REACTORS
330
7F4
102
}
102
{ACAD_XDICTIONARY
360
844
102
}
330
7F4
100
AcDbVisualStyle
  2
X-Ray
 70
    25
 71
     2
 72
     2
 73
     1
 90
        1
 40
0.5
 41
30.0
 62
     5
 63
     7
421
 16777215
 74
     1
 91
        0
 64
     7
 65
   257
 75
     1
175
     1
 42
1.0
 92
        8
 66
     7
 43
1.0
 76
     1
 77
     6
 78
     2
 67
     7
 79
     3
170
     0
171
     0
290
     0
174
     0
 93
       13
 44
0.0
173
     0
291
     0
 45
0.0
1001
ACAD
1000
AcDbSavedByObjectVersion
1070
     0
  0
DICTIONARYVAR
  5
818
102
{ACAD_REACTORS
330
817
102
}
330
817
100
DictionaryVariables
280
     0
  1
1:1
  0
DICTIONARYVAR
  5
858
102
{ACAD_REACTORS
330
817
102
}
330
817
100
DictionaryVariables
280
     0
  1
Standard
  0
DICTIONARYVAR
  5
857
102
{ACAD_REACTORS
330
817
102
}
330
817
100
DictionaryVariables
280
     0
  1
Standard
  0
DICTIONARYVAR
  5
859
102
{ACAD_REACTORS
330
817
102
}
330
817
100
DictionaryVariables
280
     0
  1
0
  0
DICTIONARYVAR
  5
819
102
{ACAD_REACTORS
330
817
102
}
330
817
100
DictionaryVariables
280
     0
  1
2
  0
DICTIONARY
  5
84C
330
80F
100
AcDbDictionary
280
     1
281
     1
  3
ACAD_XREC_ROUNDTRIP
360
84D
  0
DICTIONARY
  5
84A
330
80E
100
AcDbDictionary
280
     1
281
     1
  3
ACAD_XREC_ROUNDTRIP
360
84B
  0
DICTIONARY
  5
84E
330
810
100
AcDbDictionary
280
     1
281
     1
  3
ACAD_XREC_ROUNDTRIP
360
84F
  0
DICTIONARY
  5
854
330
814
100
AcDbDictionary
280
     1
281
     1
  3
ACAD_XREC_ROUNDTRIP
360
855
  0
DICTIONARY
  5
850
330
812
100
AcDbDictionary
280
     1
281
     1
  3
ACAD_ROUNDTRIP_2008_TABLESTYLE_CELLSTYLEMAP
360
852
  3
ACAD_XREC_ROUNDTRIP
360
851
  0
DICTIONARY
  5
822
330
7F9
100
AcDbDictionary
280
     1
281
     1
  3
ACAD_XREC_ROUNDTRIP
360
823
  0
DICTIONARY
  5
828
330
7FC
100
AcDbDictionary
280
     1
281
     1
  3
ACAD_XREC_ROUNDTRIP
360
829
  0
DICTIONARY
  5
830
330
800
100
AcDbDictionary
280
     1
281
     1
  3
ACAD_XREC_ROUNDTRIP
360
831
  0
DICTIONARY
  5
838
330
804
100
AcDbDictionary
280
     1
281
     1
  3
ACAD_XREC_ROUNDTRIP
360
839
  0
DICTIONARY
  5
82C
330
7FE
100
AcDbDictionary
280
     1
281
     1
  3
ACAD_XREC_ROUNDTRIP
360
82D
  0
DICTIONARY
  5
82E
330
7FF
100
AcDbDictionary
280
     1
281
     1
  3
ACAD_XREC_ROUNDTRIP
360
82F
  0
DICTIONARY
  5
83E
330
807
100
AcDbDictionary
280
     1
281
     1
  3
ACAD_XREC_ROUNDTRIP
360
83F
  0
DICTIONARY
  5
836
330
803
100
AcDbDictionary
280
     1
281
     1
  3
ACAD_XREC_ROUNDTRIP
360
837
  0
DICTIONARY
  5
81A
330
7F5
100
AcDbDictionary
280
     1
281
     1
  3
ACAD_XREC_ROUNDTRIP
360
81B
  0
DICTIONARY
  5
81C
330
7F6
100
AcDbDictionary
280
     1
281
     1
  3
ACAD_XREC_ROUNDTRIP
360
81D
  0
DICTIONARY
  5
81E
330
7F7
100
AcDbDictionary
280
     1
281
     1
  3
ACAD_XREC_ROUNDTRIP
360
81F
  0
DICTIONARY
  5
820
330
7F8
100
AcDbDictionary
280
     1
281
     1
  3
ACAD_XREC_ROUNDTRIP
360
821
  0
DICTIONARY
  5
826
330
7FB
100
AcDbDictionary
280
     1
281
     1
  3
ACAD_XREC_ROUNDTRIP
360
827
  0
DICTIONARY
  5
83A
330
805
100
AcDbDictionary
280
     1
281
     1
  3
ACAD_XREC_ROUNDTRIP
360
83B
  0
DICTIONARY
  5
834
330
802
100
AcDbDictionary
280
     1
281
     1
  3
ACAD_XREC_ROUNDTRIP
360
835
  0
DICTIONARY
  5
83C
330
806
100
AcDbDictionary
280
     1
281
     1
  3
ACAD_XREC_ROUNDTRIP
360
83D
  0
DICTIONARY
  5
82A
330
7FD
100
AcDbDictionary
280
     1
281
     1
  3
ACAD_XREC_ROUNDTRIP
360
82B
  0
DICTIONARY
  5
848
330
80C
100
AcDbDictionary
280
     1
281
     1
  3
ACAD_XREC_ROUNDTRIP
360
849
  0
DICTIONARY
  5
846
330
80B
100
AcDbDictionary
280
     1
281
     1
  3
ACAD_XREC_ROUNDTRIP
360
847
  0
DICTIONARY
  5
840
330
808
100
AcDbDictionary
280
     1
281
     1
  3
ACAD_XREC_ROUNDTRIP
360
841
  0
DICTIONARY
  5
842
330
809
100
AcDbDictionary
280
     1
281
     1
  3
ACAD_XREC_ROUNDTRIP
360
843
  0
DICTIONARY
  5
832
330
801
100
AcDbDictionary
280
     1
281
     1
  3
ACAD_XREC_ROUNDTRIP
360
833
  0
DICTIONARY
  5
824
330
7FA
100
AcDbDictionary
280
     1
281
     1
  3
ACAD_XREC_ROUNDTRIP
360
825
  0
DICTIONARY
  5
844
330
80A
100
AcDbDictionary
280
     1
281
     1
  3
ACAD_XREC_ROUNDTRIP
360
845
  0
XRECORD
  5
84D
102
{ACAD_REACTORS
330
84C
102
}
330
84C
100
AcDbXrecord
280
     1
102
MATERIAL
148
0.0
149
0.0
149
0.0
 93
        0
 94
      127
282
     0
 72
     1
 77
     1
171
     1
175
     1
179
     1
273
     0
  0
XRECORD
  5
84B
102
{ACAD_REACTORS
330
84A
102
}
330
84A
100
AcDbXrecord
280
     1
102
MATERIAL
148
0.0
149
0.0
149
0.0
 93
        0
 94
      127
282
     0
 72
     1
 77
     1
171
     1
175
     1
179
     1
273
     0
  0
XRECORD
  5
84F
102
{ACAD_REACTORS
330
84E
102
}
330
84E
100
AcDbXrecord
280
     1
102
MATERIAL
148
0.0
149
0.0
149
0.0
 93
        0
 94
      127
282
     0
 72
     1
 77
     1
171
     1
175
     1
179
     1
273
     0
  0
XRECORD
  5
855
102
{ACAD_REACTORS
330
854
102
}
330
854
100
AcDbXrecord
280
     1
102
ACAD_ROUNDTRIP_2010_MLEADER_STYLE
  0
CELLSTYLEMAP
  5
852
102
{ACAD_REACTORS
330
850
102
}
330
850
100
AcDbCellStyleMap
 90
        3
300
CELLSTYLE
  1
TABLEFORMAT_BEGIN
 90
        5
170
     1
 91
        0
 92
    32768
 62
   257
 93
        1
300
CONTENTFORMAT
  1
CONTENTFORMAT_BEGIN
 90
        0
 91
        0
 92
        4
 93
        0
300

 40
0.0
140
1.0
 94
        5
 62
     0
340
11
144
0.25
309
CONTENTFORMAT_END
171
     1
301
MARGIN
  1
CELLMARGIN_BEGIN
 40
0.06
 40
0.06
 40
0.06
 40
0.06
 40
0.06
 40
0.06
309
CELLMARGIN_END
 94
        6
 95
        1
302
GRIDFORMAT
  1
GRIDFORMAT_BEGIN
 90
        0
 91
        1
 62
     0
 92
       -2
340
14
 93
        0
 40
0.045
309
GRIDFORMAT_END
 95
        2
302
GRIDFORMAT
  1
GRIDFORMAT_BEGIN
 90
        0
 91
        1
 62
     0
 92
       -2
340
14
 93
        0
 40
0.045
309
GRIDFORMAT_END
 95
        4
302
GRIDFORMAT
  1
GRIDFORMAT_BEGIN
 90
        0
 91
        1
 62
     0
 92
       -2
340
14
 93
        0
 40
0.045
309
GRIDFORMAT_END
 95
        8
302
GRIDFORMAT
  1
GRIDFORMAT_BEGIN
 90
        0
 91
        1
 62
     0
 92
       -2
340
14
 93
        0
 40
0.045
309
GRIDFORMAT_END
 95
       16
302
GRIDFORMAT
  1
GRIDFORMAT_BEGIN
 90
        0
 91
        1
 62
     0
 92
       -2
340
14
 93
        0
 40
0.045
309
GRIDFORMAT_END
 95
       32
302
GRIDFORMAT
  1
GRIDFORMAT_BEGIN
 90
        0
 91
        1
 62
     0
 92
       -2
340
14
 93
        0
 40
0.045
309
GRIDFORMAT_END
309
TABLEFORMAT_END
  1
CELLSTYLE_BEGIN
 90
        1
 91
        1
300
_TITLE
309
CELLSTYLE_END
300
CELLSTYLE
  1
TABLEFORMAT_BEGIN
 90
        5
170
     1
 91
        0
 92
        0
 62
   257
 93
        1
300
CONTENTFORMAT
  1
CONTENTFORMAT_BEGIN
 90
        0
 91
        0
 92
        4
 93
        0
300

 40
0.0
140
1.0
 94
        5
 62
     0
340
11
144
0.18
309
CONTENTFORMAT_END
171
     1
301
MARGIN
  1
CELLMARGIN_BEGIN
 40
0.06
 40
0.06
 40
0.06
 40
0.06
 40
0.06
 40
0.06
309
CELLMARGIN_END
 94
        6
 95
        1
302
GRIDFORMAT
  1
GRIDFORMAT_BEGIN
 90
        0
 91
        1
 62
     0
 92
       -2
340
14
 93
        0
 40
0.045
309
GRIDFORMAT_END
 95
        2
302
GRIDFORMAT
  1
GRIDFORMAT_BEGIN
 90
        0
 91
        1
 62
     0
 92
       -2
340
14
 93
        0
 40
0.045
309
GRIDFORMAT_END
 95
        4
302
GRIDFORMAT
  1
GRIDFORMAT_BEGIN
 90
        0
 91
        1
 62
     0
 92
       -2
340
14
 93
        0
 40
0.045
309
GRIDFORMAT_END
 95
        8
302
GRIDFORMAT
  1
GRIDFORMAT_BEGIN
 90
        0
 91
        1
 62
     0
 92
       -2
340
14
 93
        0
 40
0.045
309
GRIDFORMAT_END
 95
       16
302
GRIDFORMAT
  1
GRIDFORMAT_BEGIN
 90
        0
 91
        1
 62
     0
 92
       -2
340
14
 93
        0
 40
0.045
309
GRIDFORMAT_END
 95
       32
302
GRIDFORMAT
  1
GRIDFORMAT_BEGIN
 90
        0
 91
        1
 62
     0
 92
       -2
340
14
 93
        0
 40
0.045
309
GRIDFORMAT_END
309
TABLEFORMAT_END
  1
CELLSTYLE_BEGIN
 90
        2
 91
        1
300
_HEADER
309
CELLSTYLE_END
300
CELLSTYLE
  1
TABLEFORMAT_BEGIN
 90
        5
170
     1
 91
        0
 92
        0
 62
   257
 93
        1
300
CONTENTFORMAT
  1
CONTENTFORMAT_BEGIN
 90
        0
 91
        0
 92
        4
 93
        0
300

 40
0.0
140
1.0
 94
        2
 62
     0
340
11
144
0.18
309
CONTENTFORMAT_END
171
     1
301
MARGIN
  1
CELLMARGIN_BEGIN
 40
0.06
 40
0.06
 40
0.06
 40
0.06
 40
0.06
 40
0.06
309
CELLMARGIN_END
 94
        6
 95
        1
302
GRIDFORMAT
  1
GRIDFORMAT_BEGIN
 90
        0
 91
        1
 62
     0
 92
       -2
340
14
 93
        0
 40
0.045
309
GRIDFORMAT_END
 95
        2
302
GRIDFORMAT
  1
GRIDFORMAT_BEGIN
 90
        0
 91
        1
 62
     0
 92
       -2
340
14
 93
        0
 40
0.045
309
GRIDFORMAT_END
 95
        4
302
GRIDFORMAT
  1
GRIDFORMAT_BEGIN
 90
        0
 91
        1
 62
     0
 92
       -2
340
14
 93
        0
 40
0.045
309
GRIDFORMAT_END
 95
        8
302
GRIDFORMAT
  1
GRIDFORMAT_BEGIN
 90
        0
 91
        1
 62
     0
 92
       -2
340
14
 93
        0
 40
0.045
309
GRIDFORMAT_END
 95
       16
302
GRIDFORMAT
  1
GRIDFORMAT_BEGIN
 90
        0
 91
        1
 62
     0
 92
       -2
340
14
 93
        0
 40
0.045
309
GRIDFORMAT_END
 95
       32
302
GRIDFORMAT
  1
GRIDFORMAT_BEGIN
 90
        0
 91
        1
 62
     0
 92
       -2
340
14
 93
        0
 40
0.045
309
GRIDFORMAT_END
309
TABLEFORMAT_END
  1
CELLSTYLE_BEGIN
 90
        3
 91
        2
300
_DATA
309
CELLSTYLE_END
  0
XRECORD
  5
851
102
{ACAD_REACTORS
330
850
102
}
330
850
100
AcDbXrecord
280
     1
102
ACAD_ROUNDTRIP_PRE2007_TABLESTYLE
 90
        4
 91
        0
  1

 92
        4
 93
        0
  2

 94
        4
 95
        0
  3

  0
XRECORD
  5
823
102
{ACAD_REACTORS
330
822
102
}
330
822
100
AcDbXrecord
280
     1
102
RTVSPropertyOp0
 70
     1
102
RTVSPropertyOp1
 70
     1
102
RTVSPropertyOp2
 70
     1
102
RTVSPropertyOp3
 70
     1
102
RTVSPropertyOp4
 70
     1
102
RTVSPropertyOp5
 70
     1
102
RTVSPropertyOp6
 70
     1
102
RTVSPropertyOp7
 70
     1
102
RTVSPropertyOp8
 70
     1
102
RTVSPropertyOp9
 70
     1
102
RTVSPropertyOp10
 70
     1
102
RTVSPropertyOp11
 70
     1
102
RTVSPropertyOp12
 70
     1
102
RTVSPropertyOp13
 70
     1
102
RTVSPropertyOp14
 70
     1
102
RTVSPropertyOp15
 70
     1
102
RTVSPropertyOp16
 70
     1
102
RTVSPropertyOp17
 70
     1
102
RTVSPropertyOp18
 70
     1
102
RTVSPropertyOp19
 70
     1
102
RTVSPropertyOp20
 70
     1
102
RTVSPropertyOp21
 70
     1
102
RTVSPropertyOp22
 70
     1
102
RTVSPropertyOp23
 70
     1
102
RTVSPropertyOp24
 70
     1
102
RTVSPropertyOp25
 70
     1
102
RTVSPropertyOp26
 70
     1
102
RTVSPropertyOp27
 70
     1
102
RTVSPropertyOp28
 70
     1
102
RTVSPropertyOp29
 70
     1
102
RTVSPropertyOp30
 70
     1
102
RTVSPropertyOp31
 70
     1
102
RTVSPropertyOp32
 70
     1
102
RTVSPropertyOp33
 70
     1
102
RTVSPropertyOp34
 70
     1
102
RTVSPropertyOp35
 70
     1
102
RTVSPropertyOp36
 70
     1
102
RTVSPropertyOp37
 70
     1
102
RTVSPropertyOp38
 70
     1
102
RTVSPropertyOp39
 70
     1
102
RTVSPropertyOp40
 70
     1
102
RTVSPropertyOp41
 70
     1
102
RTVSPropertyOp42
 70
     1
102
RTVSPropertyOp43
 70
     1
102
RTVSPropertyOp44
 70
     1
102
RTVSPropertyOp45
 70
     1
102
RTVSPropertyOp46
 70
     1
102
RTVSPropertyOp47
 70
     1
102
RTVSPropertyOp48
 70
     1
102
RTVSPropertyOp49
 70
     1
102
RTVSPropertyOp50
 70
     1
102
RTVSPropertyOp51
 70
     0
102
RTVSPropertyOp52
 70
     0
102
RTVSPropertyOp53
 70
     1
102
RTVSPropertyOp54
 70
     1
102
RTVSPropertyOp55
 70
     1
102
RTVSPropertyOp56
 70
     1
102
RTVSPropertyOp57
 70
     1
102
RTVSPost2010Prop28
280
     1
102
RTVSPost2010PropOp28
 70
     1
102
RTVSPost2010Prop29
280
     1
102
RTVSPost2010PropOp29
 70
     1
102
RTVSPost2010Prop30
280
     0
102
RTVSPost2010PropOp30
 70
     1
102
RTVSPost2010Prop31
280
     0
102
RTVSPost2010PropOp31
 70
     1
102
RTVSPost2010Prop32
280
     0
102
RTVSPost2010PropOp32
 70
     1
102
RTVSPost2010Prop33
280
     0
102
RTVSPost2010PropOp33
 70
     1
102
RTVSPost2010Prop34
280
     0
102
RTVSPost2010PropOp34
 70
     1
102
RTVSPost2010Prop35
280
     0
102
RTVSPost2010PropOp35
 70
     1
102
RTVSPost2010Prop36
280
     0
102
RTVSPost2010PropOp36
 70
     1
102
RTVSPost2010Prop37
 90
       50
102
RTVSPost2010PropOp37
 70
     1
102
RTVSPost2010Prop38
140
0.0
102
RTVSPost2010PropOp38
 70
     1
102
RTVSPost2010Prop39
140
1.0
102
RTVSPost2010PropOp39
 70
     1
102
RTVSPost2010Prop40
 90
        0
102
RTVSPost2010PropOp40
 70
     1
102
RTVSPost2010Prop41ColorIndex
 90
       18
102
RTVSPost2010Prop41ColorRGB
 90
        0
102
RTVSPost2010PropOp41
 70
     1
102
RTVSPost2010Prop42
 90
       50
102
RTVSPost2010PropOp42
 70
     1
102
RTVSPost2010Prop43
 90
        3
102
RTVSPost2010PropOp43
 70
     1
102
RTVSPost2010Prop44ColorIndex
 90
        5
102
RTVSPost2010Prop44ColorRGB
 90
      255
102
RTVSPost2010PropOp44
 70
     1
102
RTVSPost2010Prop45
280
     0
102
RTVSPost2010PropOp45
 70
     1
102
RTVSPost2010Prop46
 90
       50
102
RTVSPost2010PropOp46
 70
     1
102
RTVSPost2010Prop47
 90
       50
102
RTVSPost2010PropOp47
 70
     1
102
RTVSPost2010Prop48
 90
       50
102
RTVSPost2010PropOp48
 70
     1
102
RTVSPost2010Prop49
280
     0
102
RTVSPost2010PropOp49
 70
     1
102
RTVSPost2010Prop50
 90
       50
102
RTVSPost2010PropOp50
 70
     1
102
RTVSPost2010Prop51ColorIndex
 90
      256
102
RTVSPost2010Prop51ColorRGB
 90
-16777216
102
RTVSPost2010PropOp51
 70
     0
102
RTVSPost2010Prop52
140
1.0
102
RTVSPost2010PropOp52
 70
     0
102
RTVSPost2010Prop53
 90
        2
102
RTVSPost2010PropOp53
 70
     1
102
RTVSPost2010Prop54
  1
strokes_ogs.tif
102
RTVSPost2010PropOp54
 70
     1
102
RTVSPost2010Prop55
280
     0
102
RTVSPost2010PropOp55
 70
     1
102
RTVSPost2010Prop56
140
1.0
102
RTVSPost2010PropOp56
 70
     1
102
RTVSPost2010Prop57
140
1.0
102
RTVSPost2010PropOp57
 70
     1
  0
XRECORD
  5
829
102
{ACAD_REACTORS
330
828
102
}
330
828
100
AcDbXrecord
280
     1
102
RTVSPropertyOp0
 70
     1
102
RTVSPropertyOp1
 70
     1
102
RTVSPropertyOp2
 70
     1
102
RTVSPropertyOp3
 70
     1
102
RTVSPropertyOp4
 70
     1
102
RTVSPropertyOp5
 70
     1
102
RTVSPropertyOp6
 70
     1
102
RTVSPropertyOp7
 70
     1
102
RTVSPropertyOp8
 70
     1
102
RTVSPropertyOp9
 70
     1
102
RTVSPropertyOp10
 70
     1
102
RTVSPropertyOp11
 70
     1
102
RTVSPropertyOp12
 70
     1
102
RTVSPropertyOp13
 70
     1
102
RTVSPropertyOp14
 70
     1
102
RTVSPropertyOp15
 70
     1
102
RTVSPropertyOp16
 70
     1
102
RTVSPropertyOp17
 70
     1
102
RTVSPropertyOp18
 70
     1
102
RTVSPropertyOp19
 70
     1
102
RTVSPropertyOp20
 70
     1
102
RTVSPropertyOp21
 70
     1
102
RTVSPropertyOp22
 70
     1
102
RTVSPropertyOp23
 70
     1
102
RTVSPropertyOp24
 70
     1
102
RTVSPropertyOp25
 70
     1
102
RTVSPropertyOp26
 70
     1
102
RTVSPropertyOp27
 70
     1
102
RTVSPropertyOp28
 70
     1
102
RTVSPropertyOp29
 70
     1
102
RTVSPropertyOp30
 70
     1
102
RTVSPropertyOp31
 70
     1
102
RTVSPropertyOp32
 70
     1
102
RTVSPropertyOp33
 70
     1
102
RTVSPropertyOp34
 70
     1
102
RTVSPropertyOp35
 70
     1
102
RTVSPropertyOp36
 70
     1
102
RTVSPropertyOp37
 70
     1
102
RTVSPropertyOp38
 70
     1
102
RTVSPropertyOp39
 70
     1
102
RTVSPropertyOp40
 70
     1
102
RTVSPropertyOp41
 70
     1
102
RTVSPropertyOp42
 70
     1
102
RTVSPropertyOp43
 70
     1
102
RTVSPropertyOp44
 70
     1
102
RTVSPropertyOp45
 70
     1
102
RTVSPropertyOp46
 70
     1
102
RTVSPropertyOp47
 70
     1
102
RTVSPropertyOp48
 70
     1
102
RTVSPropertyOp49
 70
     1
102
RTVSPropertyOp50
 70
     1
102
RTVSPropertyOp51
 70
     0
102
RTVSPropertyOp52
 70
     0
102
RTVSPropertyOp53
 70
     1
102
RTVSPropertyOp54
 70
     1
102
RTVSPropertyOp55
 70
     1
102
RTVSPropertyOp56
 70
     1
102
RTVSPropertyOp57
 70
     1
102
RTVSPost2010Prop28
280
     0
102
RTVSPost2010PropOp28
 70
     1
102
RTVSPost2010Prop29
280
     1
102
RTVSPost2010PropOp29
 70
     1
102
RTVSPost2010Prop30
280
     1
102
RTVSPost2010PropOp30
 70
     1
102
RTVSPost2010Prop31
280
     0
102
RTVSPost2010PropOp31
 70
     1
102
RTVSPost2010Prop32
280
     0
102
RTVSPost2010PropOp32
 70
     1
102
RTVSPost2010Prop33
280
     0
102
RTVSPost2010PropOp33
 70
     1
102
RTVSPost2010Prop34
280
     0
102
RTVSPost2010PropOp34
 70
     1
102
RTVSPost2010Prop35
280
     0
102
RTVSPost2010PropOp35
 70
     1
102
RTVSPost2010Prop36
280
     0
102
RTVSPost2010PropOp36
 70
     1
102
RTVSPost2010Prop37
 90
       50
102
RTVSPost2010PropOp37
 70
     1
102
RTVSPost2010Prop38
140
0.0
102
RTVSPost2010PropOp38
 70
     1
102
RTVSPost2010Prop39
140
1.0
102
RTVSPost2010PropOp39
 70
     1
102
RTVSPost2010Prop40
 90
        0
102
RTVSPost2010PropOp40
 70
     1
102
RTVSPost2010Prop41ColorIndex
 90
       18
102
RTVSPost2010Prop41ColorRGB
 90
        0
102
RTVSPost2010PropOp41
 70
     1
102
RTVSPost2010Prop42
 90
       50
102
RTVSPost2010PropOp42
 70
     1
102
RTVSPost2010Prop43
 90
        3
102
RTVSPost2010PropOp43
 70
     1
102
RTVSPost2010Prop44ColorIndex
 90
        5
102
RTVSPost2010Prop44ColorRGB
 90
      255
102
RTVSPost2010PropOp44
 70
     1
102
RTVSPost2010Prop45
280
     0
102
RTVSPost2010PropOp45
 70
     1
102
RTVSPost2010Prop46
 90
       50
102
RTVSPost2010PropOp46
 70
     1
102
RTVSPost2010Prop47
 90
       50
102
RTVSPost2010PropOp47
 70
     1
102
RTVSPost2010Prop48
 90
       50
102
RTVSPost2010PropOp48
 70
     1
102
RTVSPost2010Prop49
280
     0
102
RTVSPost2010PropOp49
 70
     1
102
RTVSPost2010Prop50
 90
       50
102
RTVSPost2010PropOp50
 70
     1
102
RTVSPost2010Prop51ColorIndex
 90
      256
102
RTVSPost2010Prop51ColorRGB
 90
-16777216
102
RTVSPost2010PropOp51
 70
     0
102
RTVSPost2010Prop52
140
1.0
102
RTVSPost2010PropOp52
 70
     0
102
RTVSPost2010Prop53
 90
        2
102
RTVSPost2010PropOp53
 70
     1
102
RTVSPost2010Prop54
  1
strokes_ogs.tif
102
RTVSPost2010PropOp54
 70
     1
102
RTVSPost2010Prop55
280
     0
102
RTVSPost2010PropOp55
 70
     1
102
RTVSPost2010Prop56
140
1.0
102
RTVSPost2010PropOp56
 70
     1
102
RTVSPost2010Prop57
140
1.0
102
RTVSPost2010PropOp57
 70
     1
  0
XRECORD
  5
831
102
{ACAD_REACTORS
330
830
102
}
330
830
100
AcDbXrecord
280
     1
102
RTVSPropertyOp0
 70
     1
102
RTVSPropertyOp1
 70
     1
102
RTVSPropertyOp2
 70
     1
102
RTVSPropertyOp3
 70
     1
102
RTVSPropertyOp4
 70
     1
102
RTVSPropertyOp5
 70
     1
102
RTVSPropertyOp6
 70
     1
102
RTVSPropertyOp7
 70
     1
102
RTVSPropertyOp8
 70
     1
102
RTVSPropertyOp9
 70
     1
102
RTVSPropertyOp10
 70
     1
102
RTVSPropertyOp11
 70
     1
102
RTVSPropertyOp12
 70
     1
102
RTVSPropertyOp13
 70
     1
102
RTVSPropertyOp14
 70
     1
102
RTVSPropertyOp15
 70
     1
102
RTVSPropertyOp16
 70
     1
102
RTVSPropertyOp17
 70
     1
102
RTVSPropertyOp18
 70
     1
102
RTVSPropertyOp19
 70
     1
102
RTVSPropertyOp20
 70
     1
102
RTVSPropertyOp21
 70
     1
102
RTVSPropertyOp22
 70
     1
102
RTVSPropertyOp23
 70
     1
102
RTVSPropertyOp24
 70
     1
102
RTVSPropertyOp25
 70
     1
102
RTVSPropertyOp26
 70
     1
102
RTVSPropertyOp27
 70
     1
102
RTVSPropertyOp28
 70
     1
102
RTVSPropertyOp29
 70
     1
102
RTVSPropertyOp30
 70
     1
102
RTVSPropertyOp31
 70
     1
102
RTVSPropertyOp32
 70
     1
102
RTVSPropertyOp33
 70
     1
102
RTVSPropertyOp34
 70
     1
102
RTVSPropertyOp35
 70
     1
102
RTVSPropertyOp36
 70
     1
102
RTVSPropertyOp37
 70
     1
102
RTVSPropertyOp38
 70
     1
102
RTVSPropertyOp39
 70
     1
102
RTVSPropertyOp40
 70
     1
102
RTVSPropertyOp41
 70
     1
102
RTVSPropertyOp42
 70
     1
102
RTVSPropertyOp43
 70
     1
102
RTVSPropertyOp44
 70
     1
102
RTVSPropertyOp45
 70
     1
102
RTVSPropertyOp46
 70
     1
102
RTVSPropertyOp47
 70
     1
102
RTVSPropertyOp48
 70
     1
102
RTVSPropertyOp49
 70
     1
102
RTVSPropertyOp50
 70
     1
102
RTVSPropertyOp51
 70
     0
102
RTVSPropertyOp52
 70
     0
102
RTVSPropertyOp53
 70
     1
102
RTVSPropertyOp54
 70
     1
102
RTVSPropertyOp55
 70
     1
102
RTVSPropertyOp56
 70
     1
102
RTVSPropertyOp57
 70
     1
102
RTVSPost2010Prop28
280
     0
102
RTVSPost2010PropOp28
 70
     1
102
RTVSPost2010Prop29
280
     1
102
RTVSPost2010PropOp29
 70
     1
102
RTVSPost2010Prop30
280
     1
102
RTVSPost2010PropOp30
 70
     1
102
RTVSPost2010Prop31
280
     0
102
RTVSPost2010PropOp31
 70
     1
102
RTVSPost2010Prop32
280
     0
102
RTVSPost2010PropOp32
 70
     1
102
RTVSPost2010Prop33
280
     0
102
RTVSPost2010PropOp33
 70
     1
102
RTVSPost2010Prop34
280
     0
102
RTVSPost2010PropOp34
 70
     1
102
RTVSPost2010Prop35
280
     0
102
RTVSPost2010PropOp35
 70
     1
102
RTVSPost2010Prop36
280
     0
102
RTVSPost2010PropOp36
 70
     1
102
RTVSPost2010Prop37
 90
       50
102
RTVSPost2010PropOp37
 70
     1
102
RTVSPost2010Prop38
140
0.0
102
RTVSPost2010PropOp38
 70
     1
102
RTVSPost2010Prop39
140
1.0
102
RTVSPost2010PropOp39
 70
     1
102
RTVSPost2010Prop40
 90
        0
102
RTVSPost2010PropOp40
 70
     1
102
RTVSPost2010Prop41ColorIndex
 90
       18
102
RTVSPost2010Prop41ColorRGB
 90
        0
102
RTVSPost2010PropOp41
 70
     1
102
RTVSPost2010Prop42
 90
       50
102
RTVSPost2010PropOp42
 70
     1
102
RTVSPost2010Prop43
 90
        3
102
RTVSPost2010PropOp43
 70
     1
102
RTVSPost2010Prop44ColorIndex
 90
        5
102
RTVSPost2010Prop44ColorRGB
 90
      255
102
RTVSPost2010PropOp44
 70
     1
102
RTVSPost2010Prop45
280
     0
102
RTVSPost2010PropOp45
 70
     1
102
RTVSPost2010Prop46
 90
       50
102
RTVSPost2010PropOp46
 70
     1
102
RTVSPost2010Prop47
 90
       50
102
RTVSPost2010PropOp47
 70
     1
102
RTVSPost2010Prop48
 90
       50
102
RTVSPost2010PropOp48
 70
     1
102
RTVSPost2010Prop49
280
     0
102
RTVSPost2010PropOp49
 70
     1
102
RTVSPost2010Prop50
 90
       50
102
RTVSPost2010PropOp50
 70
     1
102
RTVSPost2010Prop51ColorIndex
 90
      256
102
RTVSPost2010Prop51ColorRGB
 90
-16777216
102
RTVSPost2010PropOp51
 70
     0
102
RTVSPost2010Prop52
140
1.0
102
RTVSPost2010PropOp52
 70
     0
102
RTVSPost2010Prop53
 90
        2
102
RTVSPost2010PropOp53
 70
     1
102
RTVSPost2010Prop54
  1
strokes_ogs.tif
102
RTVSPost2010PropOp54
 70
     1
102
RTVSPost2010Prop55
280
     0
102
RTVSPost2010PropOp55
 70
     1
102
RTVSPost2010Prop56
140
1.0
102
RTVSPost2010PropOp56
 70
     1
102
RTVSPost2010Prop57
140
1.0
102
RTVSPost2010PropOp57
 70
     1
  0
XRECORD
  5
839
102
{ACAD_REACTORS
330
838
102
}
330
838
100
AcDbXrecord
280
     1
102
RTVSPropertyOp0
 70
     1
102
RTVSPropertyOp1
 70
     1
102
RTVSPropertyOp2
 70
     1
102
RTVSPropertyOp3
 70
     1
102
RTVSPropertyOp4
 70
     1
102
RTVSPropertyOp5
 70
     1
102
RTVSPropertyOp6
 70
     1
102
RTVSPropertyOp7
 70
     1
102
RTVSPropertyOp8
 70
     1
102
RTVSPropertyOp9
 70
     1
102
RTVSPropertyOp10
 70
     1
102
RTVSPropertyOp11
 70
     1
102
RTVSPropertyOp12
 70
     1
102
RTVSPropertyOp13
 70
     1
102
RTVSPropertyOp14
 70
     1
102
RTVSPropertyOp15
 70
     1
102
RTVSPropertyOp16
 70
     1
102
RTVSPropertyOp17
 70
     1
102
RTVSPropertyOp18
 70
     1
102
RTVSPropertyOp19
 70
     1
102
RTVSPropertyOp20
 70
     1
102
RTVSPropertyOp21
 70
     1
102
RTVSPropertyOp22
 70
     1
102
RTVSPropertyOp23
 70
     1
102
RTVSPropertyOp24
 70
     1
102
RTVSPropertyOp25
 70
     1
102
RTVSPropertyOp26
 70
     1
102
RTVSPropertyOp27
 70
     1
102
RTVSPropertyOp28
 70
     1
102
RTVSPropertyOp29
 70
     1
102
RTVSPropertyOp30
 70
     1
102
RTVSPropertyOp31
 70
     1
102
RTVSPropertyOp32
 70
     1
102
RTVSPropertyOp33
 70
     1
102
RTVSPropertyOp34
 70
     1
102
RTVSPropertyOp35
 70
     1
102
RTVSPropertyOp36
 70
     1
102
RTVSPropertyOp37
 70
     1
102
RTVSPropertyOp38
 70
     1
102
RTVSPropertyOp39
 70
     1
102
RTVSPropertyOp40
 70
     1
102
RTVSPropertyOp41
 70
     1
102
RTVSPropertyOp42
 70
     1
102
RTVSPropertyOp43
 70
     1
102
RTVSPropertyOp44
 70
     1
102
RTVSPropertyOp45
 70
     1
102
RTVSPropertyOp46
 70
     1
102
RTVSPropertyOp47
 70
     1
102
RTVSPropertyOp48
 70
     1
102
RTVSPropertyOp49
 70
     1
102
RTVSPropertyOp50
 70
     1
102
RTVSPropertyOp51
 70
     0
102
RTVSPropertyOp52
 70
     0
102
RTVSPropertyOp53
 70
     1
102
RTVSPropertyOp54
 70
     1
102
RTVSPropertyOp55
 70
     1
102
RTVSPropertyOp56
 70
     1
102
RTVSPropertyOp57
 70
     1
102
RTVSPost2010Prop28
280
     0
102
RTVSPost2010PropOp28
 70
     1
102
RTVSPost2010Prop29
280
     1
102
RTVSPost2010PropOp29
 70
     1
102
RTVSPost2010Prop30
280
     1
102
RTVSPost2010PropOp30
 70
     1
102
RTVSPost2010Prop31
280
     0
102
RTVSPost2010PropOp31
 70
     1
102
RTVSPost2010Prop32
280
     0
102
RTVSPost2010PropOp32
 70
     1
102
RTVSPost2010Prop33
280
     0
102
RTVSPost2010PropOp33
 70
     1
102
RTVSPost2010Prop34
280
     0
102
RTVSPost2010PropOp34
 70
     1
102
RTVSPost2010Prop35
280
     0
102
RTVSPost2010PropOp35
 70
     1
102
RTVSPost2010Prop36
280
     0
102
RTVSPost2010PropOp36
 70
     1
102
RTVSPost2010Prop37
 90
       50
102
RTVSPost2010PropOp37
 70
     1
102
RTVSPost2010Prop38
140
0.0
102
RTVSPost2010PropOp38
 70
     1
102
RTVSPost2010Prop39
140
1.0
102
RTVSPost2010PropOp39
 70
     1
102
RTVSPost2010Prop40
 90
        0
102
RTVSPost2010PropOp40
 70
     1
102
RTVSPost2010Prop41ColorIndex
 90
       18
102
RTVSPost2010Prop41ColorRGB
 90
        0
102
RTVSPost2010PropOp41
 70
     1
102
RTVSPost2010Prop42
 90
       50
102
RTVSPost2010PropOp42
 70
     1
102
RTVSPost2010Prop43
 90
        3
102
RTVSPost2010PropOp43
 70
     1
102
RTVSPost2010Prop44ColorIndex
 90
        5
102
RTVSPost2010Prop44ColorRGB
 90
      255
102
RTVSPost2010PropOp44
 70
     1
102
RTVSPost2010Prop45
280
     0
102
RTVSPost2010PropOp45
 70
     1
102
RTVSPost2010Prop46
 90
       50
102
RTVSPost2010PropOp46
 70
     1
102
RTVSPost2010Prop47
 90
       50
102
RTVSPost2010PropOp47
 70
     1
102
RTVSPost2010Prop48
 90
       50
102
RTVSPost2010PropOp48
 70
     1
102
RTVSPost2010Prop49
280
     0
102
RTVSPost2010PropOp49
 70
     1
102
RTVSPost2010Prop50
 90
       50
102
RTVSPost2010PropOp50
 70
     1
102
RTVSPost2010Prop51ColorIndex
 90
      256
102
RTVSPost2010Prop51ColorRGB
 90
-16777216
102
RTVSPost2010PropOp51
 70
     0
102
RTVSPost2010Prop52
140
1.0
102
RTVSPost2010PropOp52
 70
     0
102
RTVSPost2010Prop53
 90
        2
102
RTVSPost2010PropOp53
 70
     1
102
RTVSPost2010Prop54
  1
strokes_ogs.tif
102
RTVSPost2010PropOp54
 70
     1
102
RTVSPost2010Prop55
280
     0
102
RTVSPost2010PropOp55
 70
     1
102
RTVSPost2010Prop56
140
1.0
102
RTVSPost2010PropOp56
 70
     1
102
RTVSPost2010Prop57
140
1.0
102
RTVSPost2010PropOp57
 70
     1
  0
XRECORD
  5
82D
102
{ACAD_REACTORS
330
82C
102
}
330
82C
100
AcDbXrecord
280
     1
102
RTVSPropertyOp0
 70
     1
102
RTVSPropertyOp1
 70
     1
102
RTVSPropertyOp2
 70
     1
102
RTVSPropertyOp3
 70
     1
102
RTVSPropertyOp4
 70
     1
102
RTVSPropertyOp5
 70
     1
102
RTVSPropertyOp6
 70
     1
102
RTVSPropertyOp7
 70
     1
102
RTVSPropertyOp8
 70
     1
102
RTVSPropertyOp9
 70
     1
102
RTVSPropertyOp10
 70
     1
102
RTVSPropertyOp11
 70
     1
102
RTVSPropertyOp12
 70
     1
102
RTVSPropertyOp13
 70
     1
102
RTVSPropertyOp14
 70
     1
102
RTVSPropertyOp15
 70
     1
102
RTVSPropertyOp16
 70
     1
102
RTVSPropertyOp17
 70
     1
102
RTVSPropertyOp18
 70
     1
102
RTVSPropertyOp19
 70
     1
102
RTVSPropertyOp20
 70
     1
102
RTVSPropertyOp21
 70
     1
102
RTVSPropertyOp22
 70
     1
102
RTVSPropertyOp23
 70
     1
102
RTVSPropertyOp24
 70
     1
102
RTVSPropertyOp25
 70
     1
102
RTVSPropertyOp26
 70
     1
102
RTVSPropertyOp27
 70
     1
102
RTVSPropertyOp28
 70
     1
102
RTVSPropertyOp29
 70
     1
102
RTVSPropertyOp30
 70
     1
102
RTVSPropertyOp31
 70
     1
102
RTVSPropertyOp32
 70
     1
102
RTVSPropertyOp33
 70
     1
102
RTVSPropertyOp34
 70
     1
102
RTVSPropertyOp35
 70
     1
102
RTVSPropertyOp36
 70
     1
102
RTVSPropertyOp37
 70
     1
102
RTVSPropertyOp38
 70
     1
102
RTVSPropertyOp39
 70
     1
102
RTVSPropertyOp40
 70
     1
102
RTVSPropertyOp41
 70
     1
102
RTVSPropertyOp42
 70
     1
102
RTVSPropertyOp43
 70
     1
102
RTVSPropertyOp44
 70
     1
102
RTVSPropertyOp45
 70
     1
102
RTVSPropertyOp46
 70
     1
102
RTVSPropertyOp47
 70
     1
102
RTVSPropertyOp48
 70
     1
102
RTVSPropertyOp49
 70
     1
102
RTVSPropertyOp50
 70
     1
102
RTVSPropertyOp51
 70
     0
102
RTVSPropertyOp52
 70
     0
102
RTVSPropertyOp53
 70
     1
102
RTVSPropertyOp54
 70
     1
102
RTVSPropertyOp55
 70
     1
102
RTVSPropertyOp56
 70
     1
102
RTVSPropertyOp57
 70
     1
102
RTVSPost2010Prop28
280
     0
102
RTVSPost2010PropOp28
 70
     1
102
RTVSPost2010Prop29
280
     1
102
RTVSPost2010PropOp29
 70
     1
102
RTVSPost2010Prop30
280
     1
102
RTVSPost2010PropOp30
 70
     1
102
RTVSPost2010Prop31
280
     0
102
RTVSPost2010PropOp31
 70
     1
102
RTVSPost2010Prop32
280
     0
102
RTVSPost2010PropOp32
 70
     1
102
RTVSPost2010Prop33
280
     0
102
RTVSPost2010PropOp33
 70
     1
102
RTVSPost2010Prop34
280
     0
102
RTVSPost2010PropOp34
 70
     1
102
RTVSPost2010Prop35
280
     0
102
RTVSPost2010PropOp35
 70
     1
102
RTVSPost2010Prop36
280
     0
102
RTVSPost2010PropOp36
 70
     1
102
RTVSPost2010Prop37
 90
       50
102
RTVSPost2010PropOp37
 70
     1
102
RTVSPost2010Prop38
140
0.0
102
RTVSPost2010PropOp38
 70
     1
102
RTVSPost2010Prop39
140
1.0
102
RTVSPost2010PropOp39
 70
     1
102
RTVSPost2010Prop40
 90
        0
102
RTVSPost2010PropOp40
 70
     1
102
RTVSPost2010Prop41ColorIndex
 90
       18
102
RTVSPost2010Prop41ColorRGB
 90
        0
102
RTVSPost2010PropOp41
 70
     1
102
RTVSPost2010Prop42
 90
       50
102
RTVSPost2010PropOp42
 70
     1
102
RTVSPost2010Prop43
 90
        3
102
RTVSPost2010PropOp43
 70
     1
102
RTVSPost2010Prop44ColorIndex
 90
        5
102
RTVSPost2010Prop44ColorRGB
 90
      255
102
RTVSPost2010PropOp44
 70
     1
102
RTVSPost2010Prop45
280
     0
102
RTVSPost2010PropOp45
 70
     1
102
RTVSPost2010Prop46
 90
       50
102
RTVSPost2010PropOp46
 70
     1
102
RTVSPost2010Prop47
 90
       50
102
RTVSPost2010PropOp47
 70
     1
102
RTVSPost2010Prop48
 90
       50
102
RTVSPost2010PropOp48
 70
     1
102
RTVSPost2010Prop49
280
     0
102
RTVSPost2010PropOp49
 70
     1
102
RTVSPost2010Prop50
 90
       50
102
RTVSPost2010PropOp50
 70
     1
102
RTVSPost2010Prop51ColorIndex
 90
      256
102
RTVSPost2010Prop51ColorRGB
 90
-16777216
102
RTVSPost2010PropOp51
 70
     0
102
RTVSPost2010Prop52
140
1.0
102
RTVSPost2010PropOp52
 70
     0
102
RTVSPost2010Prop53
 90
        2
102
RTVSPost2010PropOp53
 70
     1
102
RTVSPost2010Prop54
  1
strokes_ogs.tif
102
RTVSPost2010PropOp54
 70
     1
102
RTVSPost2010Prop55
280
     0
102
RTVSPost2010PropOp55
 70
     1
102
RTVSPost2010Prop56
140
1.0
102
RTVSPost2010PropOp56
 70
     1
102
RTVSPost2010Prop57
140
1.0
102
RTVSPost2010PropOp57
 70
     1
  0
XRECORD
  5
82F
102
{ACAD_REACTORS
330
82E
102
}
330
82E
100
AcDbXrecord
280
     1
102
RTVSPropertyOp0
 70
     1
102
RTVSPropertyOp1
 70
     1
102
RTVSPropertyOp2
 70
     1
102
RTVSPropertyOp3
 70
     1
102
RTVSPropertyOp4
 70
     1
102
RTVSPropertyOp5
 70
     1
102
RTVSPropertyOp6
 70
     1
102
RTVSPropertyOp7
 70
     1
102
RTVSPropertyOp8
 70
     1
102
RTVSPropertyOp9
 70
     1
102
RTVSPropertyOp10
 70
     1
102
RTVSPropertyOp11
 70
     1
102
RTVSPropertyOp12
 70
     1
102
RTVSPropertyOp13
 70
     1
102
RTVSPropertyOp14
 70
     1
102
RTVSPropertyOp15
 70
     1
102
RTVSPropertyOp16
 70
     1
102
RTVSPropertyOp17
 70
     1
102
RTVSPropertyOp18
 70
     1
102
RTVSPropertyOp19
 70
     1
102
RTVSPropertyOp20
 70
     1
102
RTVSPropertyOp21
 70
     1
102
RTVSPropertyOp22
 70
     1
102
RTVSPropertyOp23
 70
     1
102
RTVSPropertyOp24
 70
     1
102
RTVSPropertyOp25
 70
     1
102
RTVSPropertyOp26
 70
     1
102
RTVSPropertyOp27
 70
     1
102
RTVSPropertyOp28
 70
     1
102
RTVSPropertyOp29
 70
     1
102
RTVSPropertyOp30
 70
     1
102
RTVSPropertyOp31
 70
     1
102
RTVSPropertyOp32
 70
     1
102
RTVSPropertyOp33
 70
     1
102
RTVSPropertyOp34
 70
     1
102
RTVSPropertyOp35
 70
     1
102
RTVSPropertyOp36
 70
     1
102
RTVSPropertyOp37
 70
     1
102
RTVSPropertyOp38
 70
     1
102
RTVSPropertyOp39
 70
     1
102
RTVSPropertyOp40
 70
     1
102
RTVSPropertyOp41
 70
     1
102
RTVSPropertyOp42
 70
     1
102
RTVSPropertyOp43
 70
     1
102
RTVSPropertyOp44
 70
     1
102
RTVSPropertyOp45
 70
     1
102
RTVSPropertyOp46
 70
     1
102
RTVSPropertyOp47
 70
     1
102
RTVSPropertyOp48
 70
     1
102
RTVSPropertyOp49
 70
     1
102
RTVSPropertyOp50
 70
     1
102
RTVSPropertyOp51
 70
     0
102
RTVSPropertyOp52
 70
     0
102
RTVSPropertyOp53
 70
     1
102
RTVSPropertyOp54
 70
     1
102
RTVSPropertyOp55
 70
     1
102
RTVSPropertyOp56
 70
     1
102
RTVSPropertyOp57
 70
     1
102
RTVSPost2010Prop28
280
     0
102
RTVSPost2010PropOp28
 70
     1
102
RTVSPost2010Prop29
280
     1
102
RTVSPost2010PropOp29
 70
     1
102
RTVSPost2010Prop30
280
     1
102
RTVSPost2010PropOp30
 70
     1
102
RTVSPost2010Prop31
280
     0
102
RTVSPost2010PropOp31
 70
     1
102
RTVSPost2010Prop32
280
     0
102
RTVSPost2010PropOp32
 70
     1
102
RTVSPost2010Prop33
280
     0
102
RTVSPost2010PropOp33
 70
     1
102
RTVSPost2010Prop34
280
     0
102
RTVSPost2010PropOp34
 70
     1
102
RTVSPost2010Prop35
280
     0
102
RTVSPost2010PropOp35
 70
     1
102
RTVSPost2010Prop36
280
     0
102
RTVSPost2010PropOp36
 70
     1
102
RTVSPost2010Prop37
 90
       50
102
RTVSPost2010PropOp37
 70
     1
102
RTVSPost2010Prop38
140
0.0
102
RTVSPost2010PropOp38
 70
     1
102
RTVSPost2010Prop39
140
1.0
102
RTVSPost2010PropOp39
 70
     1
102
RTVSPost2010Prop40
 90
        0
102
RTVSPost2010PropOp40
 70
     1
102
RTVSPost2010Prop41ColorIndex
 90
       18
102
RTVSPost2010Prop41ColorRGB
 90
        0
102
RTVSPost2010PropOp41
 70
     1
102
RTVSPost2010Prop42
 90
       50
102
RTVSPost2010PropOp42
 70
     1
102
RTVSPost2010Prop43
 90
        3
102
RTVSPost2010PropOp43
 70
     1
102
RTVSPost2010Prop44ColorIndex
 90
        5
102
RTVSPost2010Prop44ColorRGB
 90
      255
102
RTVSPost2010PropOp44
 70
     1
102
RTVSPost2010Prop45
280
     0
102
RTVSPost2010PropOp45
 70
     1
102
RTVSPost2010Prop46
 90
       50
102
RTVSPost2010PropOp46
 70
     1
102
RTVSPost2010Prop47
 90
       50
102
RTVSPost2010PropOp47
 70
     1
102
RTVSPost2010Prop48
 90
       50
102
RTVSPost2010PropOp48
 70
     1
102
RTVSPost2010Prop49
280
     0
102
RTVSPost2010PropOp49
 70
     1
102
RTVSPost2010Prop50
 90
       50
102
RTVSPost2010PropOp50
 70
     1
102
RTVSPost2010Prop51ColorIndex
 90
      256
102
RTVSPost2010Prop51ColorRGB
 90
-16777216
102
RTVSPost2010PropOp51
 70
     0
102
RTVSPost2010Prop52
140
1.0
102
RTVSPost2010PropOp52
 70
     0
102
RTVSPost2010Prop53
 90
        2
102
RTVSPost2010PropOp53
 70
     1
102
RTVSPost2010Prop54
  1
strokes_ogs.tif
102
RTVSPost2010PropOp54
 70
     1
102
RTVSPost2010Prop55
280
     0
102
RTVSPost2010PropOp55
 70
     1
102
RTVSPost2010Prop56
140
1.0
102
RTVSPost2010PropOp56
 70
     1
102
RTVSPost2010Prop57
140
1.0
102
RTVSPost2010PropOp57
 70
     1
  0
XRECORD
  5
83F
102
{ACAD_REACTORS
330
83E
102
}
330
83E
100
AcDbXrecord
280
     1
102
RTVSPropertyOp0
 70
     0
102
RTVSPropertyOp1
 70
     0
102
RTVSPropertyOp2
 70
     0
102
RTVSPropertyOp3
 70
     0
102
RTVSPropertyOp4
 70
     0
102
RTVSPropertyOp5
 70
     0
102
RTVSPropertyOp6
 70
     0
102
RTVSPropertyOp7
 70
     0
102
RTVSPropertyOp8
 70
     0
102
RTVSPropertyOp9
 70
     0
102
RTVSPropertyOp10
 70
     0
102
RTVSPropertyOp11
 70
     0
102
RTVSPropertyOp12
 70
     0
102
RTVSPropertyOp13
 70
     0
102
RTVSPropertyOp14
 70
     2
102
RTVSPropertyOp15
 70
     0
102
RTVSPropertyOp16
 70
     0
102
RTVSPropertyOp17
 70
     0
102
RTVSPropertyOp18
 70
     0
102
RTVSPropertyOp19
 70
     0
102
RTVSPropertyOp20
 70
     0
102
RTVSPropertyOp21
 70
     0
102
RTVSPropertyOp22
 70
     0
102
RTVSPropertyOp23
 70
     0
102
RTVSPropertyOp24
 70
     0
102
RTVSPropertyOp25
 70
     0
102
RTVSPropertyOp26
 70
     0
102
RTVSPropertyOp27
 70
     0
102
RTVSPropertyOp28
 70
     0
102
RTVSPropertyOp29
 70
     0
102
RTVSPropertyOp30
 70
     0
102
RTVSPropertyOp31
 70
     0
102
RTVSPropertyOp32
 70
     0
102
RTVSPropertyOp33
 70
     0
102
RTVSPropertyOp34
 70
     0
102
RTVSPropertyOp35
 70
     0
102
RTVSPropertyOp36
 70
     0
102
RTVSPropertyOp37
 70
     0
102
RTVSPropertyOp38
 70
     0
102
RTVSPropertyOp39
 70
     0
102
RTVSPropertyOp40
 70
     0
102
RTVSPropertyOp41
 70
     0
102
RTVSPropertyOp42
 70
     0
102
RTVSPropertyOp43
 70
     0
102
RTVSPropertyOp44
 70
     0
102
RTVSPropertyOp45
 70
     0
102
RTVSPropertyOp46
 70
     0
102
RTVSPropertyOp47
 70
     0
102
RTVSPropertyOp48
 70
     0
102
RTVSPropertyOp49
 70
     0
102
RTVSPropertyOp50
 70
     0
102
RTVSPropertyOp51
 70
     0
102
RTVSPropertyOp52
 70
     0
102
RTVSPropertyOp53
 70
     0
102
RTVSPropertyOp54
 70
     0
102
RTVSPropertyOp55
 70
     0
102
RTVSPropertyOp56
 70
     0
102
RTVSPropertyOp57
 70
     0
102
RTVSPost2010Prop28
280
     0
102
RTVSPost2010PropOp28
 70
     0
102
RTVSPost2010Prop29
280
     1
102
RTVSPost2010PropOp29
 70
     0
102
RTVSPost2010Prop30
280
     1
102
RTVSPost2010PropOp30
 70
     0
102
RTVSPost2010Prop31
280
     0
102
RTVSPost2010PropOp31
 70
     0
102
RTVSPost2010Prop32
280
     0
102
RTVSPost2010PropOp32
 70
     0
102
RTVSPost2010Prop33
280
     0
102
RTVSPost2010PropOp33
 70
     0
102
RTVSPost2010Prop34
280
     0
102
RTVSPost2010PropOp34
 70
     0
102
RTVSPost2010Prop35
280
     0
102
RTVSPost2010PropOp35
 70
     0
102
RTVSPost2010Prop36
280
     0
102
RTVSPost2010PropOp36
 70
     0
102
RTVSPost2010Prop37
 90
       50
102
RTVSPost2010PropOp37
 70
     0
102
RTVSPost2010Prop38
140
0.0
102
RTVSPost2010PropOp38
 70
     0
102
RTVSPost2010Prop39
140
1.0
102
RTVSPost2010PropOp39
 70
     0
102
RTVSPost2010Prop40
 90
        0
102
RTVSPost2010PropOp40
 70
     0
102
RTVSPost2010Prop41ColorIndex
 90
       18
102
RTVSPost2010Prop41ColorRGB
 90
        0
102
RTVSPost2010PropOp41
 70
     0
102
RTVSPost2010Prop42
 90
       50
102
RTVSPost2010PropOp42
 70
     0
102
RTVSPost2010Prop43
 90
        3
102
RTVSPost2010PropOp43
 70
     0
102
RTVSPost2010Prop44ColorIndex
 90
        5
102
RTVSPost2010Prop44ColorRGB
 90
      255
102
RTVSPost2010PropOp44
 70
     0
102
RTVSPost2010Prop45
280
     0
102
RTVSPost2010PropOp45
 70
     0
102
RTVSPost2010Prop46
 90
       50
102
RTVSPost2010PropOp46
 70
     0
102
RTVSPost2010Prop47
 90
       50
102
RTVSPost2010PropOp47
 70
     0
102
RTVSPost2010Prop48
 90
       50
102
RTVSPost2010PropOp48
 70
     0
102
RTVSPost2010Prop49
280
     0
102
RTVSPost2010PropOp49
 70
     0
102
RTVSPost2010Prop50
 90
       50
102
RTVSPost2010PropOp50
 70
     0
102
RTVSPost2010Prop51ColorIndex
 90
      256
102
RTVSPost2010Prop51ColorRGB
 90
-16777216
102
RTVSPost2010PropOp51
 70
     0
102
RTVSPost2010Prop52
140
1.0
102
RTVSPost2010PropOp52
 70
     0
102
RTVSPost2010Prop53
 90
        2
102
RTVSPost2010PropOp53
 70
     0
102
RTVSPost2010Prop54
  1
strokes_ogs.tif
102
RTVSPost2010PropOp54
 70
     0
102
RTVSPost2010Prop55
280
     0
102
RTVSPost2010PropOp55
 70
     0
102
RTVSPost2010Prop56
140
1.0
102
RTVSPost2010PropOp56
 70
     0
102
RTVSPost2010Prop57
140
1.0
102
RTVSPost2010PropOp57
 70
     0
  0
XRECORD
  5
837
102
{ACAD_REACTORS
330
836
102
}
330
836
100
AcDbXrecord
280
     1
102
RTVSPropertyOp0
 70
     1
102
RTVSPropertyOp1
 70
     1
102
RTVSPropertyOp2
 70
     1
102
RTVSPropertyOp3
 70
     1
102
RTVSPropertyOp4
 70
     1
102
RTVSPropertyOp5
 70
     1
102
RTVSPropertyOp6
 70
     1
102
RTVSPropertyOp7
 70
     1
102
RTVSPropertyOp8
 70
     1
102
RTVSPropertyOp9
 70
     1
102
RTVSPropertyOp10
 70
     1
102
RTVSPropertyOp11
 70
     1
102
RTVSPropertyOp12
 70
     1
102
RTVSPropertyOp13
 70
     1
102
RTVSPropertyOp14
 70
     1
102
RTVSPropertyOp15
 70
     1
102
RTVSPropertyOp16
 70
     1
102
RTVSPropertyOp17
 70
     1
102
RTVSPropertyOp18
 70
     1
102
RTVSPropertyOp19
 70
     1
102
RTVSPropertyOp20
 70
     1
102
RTVSPropertyOp21
 70
     1
102
RTVSPropertyOp22
 70
     1
102
RTVSPropertyOp23
 70
     1
102
RTVSPropertyOp24
 70
     1
102
RTVSPropertyOp25
 70
     1
102
RTVSPropertyOp26
 70
     1
102
RTVSPropertyOp27
 70
     1
102
RTVSPropertyOp28
 70
     1
102
RTVSPropertyOp29
 70
     1
102
RTVSPropertyOp30
 70
     1
102
RTVSPropertyOp31
 70
     1
102
RTVSPropertyOp32
 70
     1
102
RTVSPropertyOp33
 70
     1
102
RTVSPropertyOp34
 70
     1
102
RTVSPropertyOp35
 70
     1
102
RTVSPropertyOp36
 70
     1
102
RTVSPropertyOp37
 70
     1
102
RTVSPropertyOp38
 70
     1
102
RTVSPropertyOp39
 70
     1
102
RTVSPropertyOp40
 70
     1
102
RTVSPropertyOp41
 70
     1
102
RTVSPropertyOp42
 70
     1
102
RTVSPropertyOp43
 70
     1
102
RTVSPropertyOp44
 70
     1
102
RTVSPropertyOp45
 70
     1
102
RTVSPropertyOp46
 70
     1
102
RTVSPropertyOp47
 70
     1
102
RTVSPropertyOp48
 70
     1
102
RTVSPropertyOp49
 70
     1
102
RTVSPropertyOp50
 70
     1
102
RTVSPropertyOp51
 70
     0
102
RTVSPropertyOp52
 70
     0
102
RTVSPropertyOp53
 70
     1
102
RTVSPropertyOp54
 70
     1
102
RTVSPropertyOp55
 70
     1
102
RTVSPropertyOp56
 70
     1
102
RTVSPropertyOp57
 70
     1
102
RTVSPost2010Prop28
280
     0
102
RTVSPost2010PropOp28
 70
     1
102
RTVSPost2010Prop29
280
     1
102
RTVSPost2010PropOp29
 70
     1
102
RTVSPost2010Prop30
280
     1
102
RTVSPost2010PropOp30
 70
     1
102
RTVSPost2010Prop31
280
     0
102
RTVSPost2010PropOp31
 70
     1
102
RTVSPost2010Prop32
280
     0
102
RTVSPost2010PropOp32
 70
     1
102
RTVSPost2010Prop33
280
     0
102
RTVSPost2010PropOp33
 70
     1
102
RTVSPost2010Prop34
280
     0
102
RTVSPost2010PropOp34
 70
     1
102
RTVSPost2010Prop35
280
     0
102
RTVSPost2010PropOp35
 70
     1
102
RTVSPost2010Prop36
280
     0
102
RTVSPost2010PropOp36
 70
     1
102
RTVSPost2010Prop37
 90
       50
102
RTVSPost2010PropOp37
 70
     1
102
RTVSPost2010Prop38
140
0.0
102
RTVSPost2010PropOp38
 70
     1
102
RTVSPost2010Prop39
140
1.0
102
RTVSPost2010PropOp39
 70
     1
102
RTVSPost2010Prop40
 90
        0
102
RTVSPost2010PropOp40
 70
     1
102
RTVSPost2010Prop41ColorIndex
 90
       18
102
RTVSPost2010Prop41ColorRGB
 90
        0
102
RTVSPost2010PropOp41
 70
     1
102
RTVSPost2010Prop42
 90
       50
102
RTVSPost2010PropOp42
 70
     1
102
RTVSPost2010Prop43
 90
        3
102
RTVSPost2010PropOp43
 70
     1
102
RTVSPost2010Prop44ColorIndex
 90
        5
102
RTVSPost2010Prop44ColorRGB
 90
      255
102
RTVSPost2010PropOp44
 70
     1
102
RTVSPost2010Prop45
280
     0
102
RTVSPost2010PropOp45
 70
     1
102
RTVSPost2010Prop46
 90
       50
102
RTVSPost2010PropOp46
 70
     1
102
RTVSPost2010Prop47
 90
       50
102
RTVSPost2010PropOp47
 70
     1
102
RTVSPost2010Prop48
 90
       50
102
RTVSPost2010PropOp48
 70
     1
102
RTVSPost2010Prop49
280
     0
102
RTVSPost2010PropOp49
 70
     1
102
RTVSPost2010Prop50
 90
       50
102
RTVSPost2010PropOp50
 70
     1
102
RTVSPost2010Prop51ColorIndex
 90
      256
102
RTVSPost2010Prop51ColorRGB
 90
-16777216
102
RTVSPost2010PropOp51
 70
     0
102
RTVSPost2010Prop52
140
1.0
102
RTVSPost2010PropOp52
 70
     0
102
RTVSPost2010Prop53
 90
        2
102
RTVSPost2010PropOp53
 70
     1
102
RTVSPost2010Prop54
  1
strokes_ogs.tif
102
RTVSPost2010PropOp54
 70
     1
102
RTVSPost2010Prop55
280
     0
102
RTVSPost2010PropOp55
 70
     1
102
RTVSPost2010Prop56
140
1.0
102
RTVSPost2010PropOp56
 70
     1
102
RTVSPost2010Prop57
140
1.0
102
RTVSPost2010PropOp57
 70
     1
  0
XRECORD
  5
81B
102
{ACAD_REACTORS
330
81A
102
}
330
81A
100
AcDbXrecord
280
     1
102
RTVSPropertyOp0
 70
     1
102
RTVSPropertyOp1
 70
     1
102
RTVSPropertyOp2
 70
     1
102
RTVSPropertyOp3
 70
     1
102
RTVSPropertyOp4
 70
     1
102
RTVSPropertyOp5
 70
     1
102
RTVSPropertyOp6
 70
     1
102
RTVSPropertyOp7
 70
     1
102
RTVSPropertyOp8
 70
     1
102
RTVSPropertyOp9
 70
     1
102
RTVSPropertyOp10
 70
     1
102
RTVSPropertyOp11
 70
     1
102
RTVSPropertyOp12
 70
     1
102
RTVSPropertyOp13
 70
     1
102
RTVSPropertyOp14
 70
     1
102
RTVSPropertyOp15
 70
     1
102
RTVSPropertyOp16
 70
     1
102
RTVSPropertyOp17
 70
     1
102
RTVSPropertyOp18
 70
     1
102
RTVSPropertyOp19
 70
     1
102
RTVSPropertyOp20
 70
     1
102
RTVSPropertyOp21
 70
     1
102
RTVSPropertyOp22
 70
     1
102
RTVSPropertyOp23
 70
     1
102
RTVSPropertyOp24
 70
     1
102
RTVSPropertyOp25
 70
     1
102
RTVSPropertyOp26
 70
     1
102
RTVSPropertyOp27
 70
     1
102
RTVSPropertyOp28
 70
     1
102
RTVSPropertyOp29
 70
     1
102
RTVSPropertyOp30
 70
     1
102
RTVSPropertyOp31
 70
     1
102
RTVSPropertyOp32
 70
     1
102
RTVSPropertyOp33
 70
     1
102
RTVSPropertyOp34
 70
     1
102
RTVSPropertyOp35
 70
     1
102
RTVSPropertyOp36
 70
     1
102
RTVSPropertyOp37
 70
     1
102
RTVSPropertyOp38
 70
     1
102
RTVSPropertyOp39
 70
     1
102
RTVSPropertyOp40
 70
     1
102
RTVSPropertyOp41
 70
     1
102
RTVSPropertyOp42
 70
     1
102
RTVSPropertyOp43
 70
     1
102
RTVSPropertyOp44
 70
     1
102
RTVSPropertyOp45
 70
     1
102
RTVSPropertyOp46
 70
     1
102
RTVSPropertyOp47
 70
     1
102
RTVSPropertyOp48
 70
     1
102
RTVSPropertyOp49
 70
     1
102
RTVSPropertyOp50
 70
     1
102
RTVSPropertyOp51
 70
     0
102
RTVSPropertyOp52
 70
     0
102
RTVSPropertyOp53
 70
     1
102
RTVSPropertyOp54
 70
     1
102
RTVSPropertyOp55
 70
     1
102
RTVSPropertyOp56
 70
     1
102
RTVSPropertyOp57
 70
     1
102
RTVSPost2010Prop28
280
     0
102
RTVSPost2010PropOp28
 70
     1
102
RTVSPost2010Prop29
280
     1
102
RTVSPost2010PropOp29
 70
     1
102
RTVSPost2010Prop30
280
     1
102
RTVSPost2010PropOp30
 70
     1
102
RTVSPost2010Prop31
280
     0
102
RTVSPost2010PropOp31
 70
     1
102
RTVSPost2010Prop32
280
     0
102
RTVSPost2010PropOp32
 70
     1
102
RTVSPost2010Prop33
280
     0
102
RTVSPost2010PropOp33
 70
     1
102
RTVSPost2010Prop34
280
     0
102
RTVSPost2010PropOp34
 70
     1
102
RTVSPost2010Prop35
280
     0
102
RTVSPost2010PropOp35
 70
     1
102
RTVSPost2010Prop36
280
     0
102
RTVSPost2010PropOp36
 70
     1
102
RTVSPost2010Prop37
 90
       50
102
RTVSPost2010PropOp37
 70
     1
102
RTVSPost2010Prop38
140
0.0
102
RTVSPost2010PropOp38
 70
     1
102
RTVSPost2010Prop39
140
1.0
102
RTVSPost2010PropOp39
 70
     1
102
RTVSPost2010Prop40
 90
        0
102
RTVSPost2010PropOp40
 70
     1
102
RTVSPost2010Prop41ColorIndex
 90
       18
102
RTVSPost2010Prop41ColorRGB
 90
        0
102
RTVSPost2010PropOp41
 70
     1
102
RTVSPost2010Prop42
 90
       50
102
RTVSPost2010PropOp42
 70
     1
102
RTVSPost2010Prop43
 90
        3
102
RTVSPost2010PropOp43
 70
     1
102
RTVSPost2010Prop44ColorIndex
 90
        5
102
RTVSPost2010Prop44ColorRGB
 90
      255
102
RTVSPost2010PropOp44
 70
     1
102
RTVSPost2010Prop45
280
     0
102
RTVSPost2010PropOp45
 70
     1
102
RTVSPost2010Prop46
 90
       50
102
RTVSPost2010PropOp46
 70
     1
102
RTVSPost2010Prop47
 90
       50
102
RTVSPost2010PropOp47
 70
     1
102
RTVSPost2010Prop48
 90
       50
102
RTVSPost2010PropOp48
 70
     1
102
RTVSPost2010Prop49
280
     0
102
RTVSPost2010PropOp49
 70
     1
102
RTVSPost2010Prop50
 90
       50
102
RTVSPost2010PropOp50
 70
     1
102
RTVSPost2010Prop51ColorIndex
 90
      256
102
RTVSPost2010Prop51ColorRGB
 90
-16777216
102
RTVSPost2010PropOp51
 70
     0
102
RTVSPost2010Prop52
140
1.0
102
RTVSPost2010PropOp52
 70
     0
102
RTVSPost2010Prop53
 90
        2
102
RTVSPost2010PropOp53
 70
     1
102
RTVSPost2010Prop54
  1
strokes_ogs.tif
102
RTVSPost2010PropOp54
 70
     1
102
RTVSPost2010Prop55
280
     0
102
RTVSPost2010PropOp55
 70
     1
102
RTVSPost2010Prop56
140
1.0
102
RTVSPost2010PropOp56
 70
     1
102
RTVSPost2010Prop57
140
1.0
102
RTVSPost2010PropOp57
 70
     1
  0
XRECORD
  5
81D
102
{ACAD_REACTORS
330
81C
102
}
330
81C
100
AcDbXrecord
280
     1
102
RTVSPropertyOp0
 70
     1
102
RTVSPropertyOp1
 70
     1
102
RTVSPropertyOp2
 70
     1
102
RTVSPropertyOp3
 70
     1
102
RTVSPropertyOp4
 70
     1
102
RTVSPropertyOp5
 70
     1
102
RTVSPropertyOp6
 70
     1
102
RTVSPropertyOp7
 70
     1
102
RTVSPropertyOp8
 70
     1
102
RTVSPropertyOp9
 70
     1
102
RTVSPropertyOp10
 70
     1
102
RTVSPropertyOp11
 70
     1
102
RTVSPropertyOp12
 70
     1
102
RTVSPropertyOp13
 70
     1
102
RTVSPropertyOp14
 70
     1
102
RTVSPropertyOp15
 70
     1
102
RTVSPropertyOp16
 70
     1
102
RTVSPropertyOp17
 70
     1
102
RTVSPropertyOp18
 70
     1
102
RTVSPropertyOp19
 70
     1
102
RTVSPropertyOp20
 70
     1
102
RTVSPropertyOp21
 70
     1
102
RTVSPropertyOp22
 70
     1
102
RTVSPropertyOp23
 70
     1
102
RTVSPropertyOp24
 70
     1
102
RTVSPropertyOp25
 70
     1
102
RTVSPropertyOp26
 70
     1
102
RTVSPropertyOp27
 70
     1
102
RTVSPropertyOp28
 70
     1
102
RTVSPropertyOp29
 70
     1
102
RTVSPropertyOp30
 70
     1
102
RTVSPropertyOp31
 70
     1
102
RTVSPropertyOp32
 70
     1
102
RTVSPropertyOp33
 70
     1
102
RTVSPropertyOp34
 70
     1
102
RTVSPropertyOp35
 70
     1
102
RTVSPropertyOp36
 70
     1
102
RTVSPropertyOp37
 70
     1
102
RTVSPropertyOp38
 70
     1
102
RTVSPropertyOp39
 70
     1
102
RTVSPropertyOp40
 70
     1
102
RTVSPropertyOp41
 70
     1
102
RTVSPropertyOp42
 70
     1
102
RTVSPropertyOp43
 70
     1
102
RTVSPropertyOp44
 70
     1
102
RTVSPropertyOp45
 70
     1
102
RTVSPropertyOp46
 70
     1
102
RTVSPropertyOp47
 70
     1
102
RTVSPropertyOp48
 70
     1
102
RTVSPropertyOp49
 70
     1
102
RTVSPropertyOp50
 70
     1
102
RTVSPropertyOp51
 70
     0
102
RTVSPropertyOp52
 70
     0
102
RTVSPropertyOp53
 70
     1
102
RTVSPropertyOp54
 70
     1
102
RTVSPropertyOp55
 70
     1
102
RTVSPropertyOp56
 70
     1
102
RTVSPropertyOp57
 70
     1
102
RTVSPost2010Prop28
280
     0
102
RTVSPost2010PropOp28
 70
     1
102
RTVSPost2010Prop29
280
     1
102
RTVSPost2010PropOp29
 70
     1
102
RTVSPost2010Prop30
280
     1
102
RTVSPost2010PropOp30
 70
     1
102
RTVSPost2010Prop31
280
     0
102
RTVSPost2010PropOp31
 70
     1
102
RTVSPost2010Prop32
280
     0
102
RTVSPost2010PropOp32
 70
     1
102
RTVSPost2010Prop33
280
     0
102
RTVSPost2010PropOp33
 70
     1
102
RTVSPost2010Prop34
280
     0
102
RTVSPost2010PropOp34
 70
     1
102
RTVSPost2010Prop35
280
     0
102
RTVSPost2010PropOp35
 70
     1
102
RTVSPost2010Prop36
280
     0
102
RTVSPost2010PropOp36
 70
     1
102
RTVSPost2010Prop37
 90
       50
102
RTVSPost2010PropOp37
 70
     1
102
RTVSPost2010Prop38
140
0.0
102
RTVSPost2010PropOp38
 70
     1
102
RTVSPost2010Prop39
140
1.0
102
RTVSPost2010PropOp39
 70
     1
102
RTVSPost2010Prop40
 90
        0
102
RTVSPost2010PropOp40
 70
     1
102
RTVSPost2010Prop41ColorIndex
 90
       18
102
RTVSPost2010Prop41ColorRGB
 90
        0
102
RTVSPost2010PropOp41
 70
     1
102
RTVSPost2010Prop42
 90
       50
102
RTVSPost2010PropOp42
 70
     1
102
RTVSPost2010Prop43
 90
        3
102
RTVSPost2010PropOp43
 70
     1
102
RTVSPost2010Prop44ColorIndex
 90
        5
102
RTVSPost2010Prop44ColorRGB
 90
      255
102
RTVSPost2010PropOp44
 70
     1
102
RTVSPost2010Prop45
280
     0
102
RTVSPost2010PropOp45
 70
     1
102
RTVSPost2010Prop46
 90
       50
102
RTVSPost2010PropOp46
 70
     1
102
RTVSPost2010Prop47
 90
       50
102
RTVSPost2010PropOp47
 70
     1
102
RTVSPost2010Prop48
 90
       50
102
RTVSPost2010PropOp48
 70
     1
102
RTVSPost2010Prop49
280
     0
102
RTVSPost2010PropOp49
 70
     1
102
RTVSPost2010Prop50
 90
       50
102
RTVSPost2010PropOp50
 70
     1
102
RTVSPost2010Prop51ColorIndex
 90
      256
102
RTVSPost2010Prop51ColorRGB
 90
-16777216
102
RTVSPost2010PropOp51
 70
     0
102
RTVSPost2010Prop52
140
1.0
102
RTVSPost2010PropOp52
 70
     0
102
RTVSPost2010Prop53
 90
        2
102
RTVSPost2010PropOp53
 70
     1
102
RTVSPost2010Prop54
  1
strokes_ogs.tif
102
RTVSPost2010PropOp54
 70
     1
102
RTVSPost2010Prop55
280
     0
102
RTVSPost2010PropOp55
 70
     1
102
RTVSPost2010Prop56
140
1.0
102
RTVSPost2010PropOp56
 70
     1
102
RTVSPost2010Prop57
140
1.0
102
RTVSPost2010PropOp57
 70
     1
  0
XRECORD
  5
81F
102
{ACAD_REACTORS
330
81E
102
}
330
81E
100
AcDbXrecord
280
     1
102
RTVSPropertyOp0
 70
     1
102
RTVSPropertyOp1
 70
     1
102
RTVSPropertyOp2
 70
     1
102
RTVSPropertyOp3
 70
     1
102
RTVSPropertyOp4
 70
     1
102
RTVSPropertyOp5
 70
     1
102
RTVSPropertyOp6
 70
     1
102
RTVSPropertyOp7
 70
     1
102
RTVSPropertyOp8
 70
     1
102
RTVSPropertyOp9
 70
     1
102
RTVSPropertyOp10
 70
     1
102
RTVSPropertyOp11
 70
     1
102
RTVSPropertyOp12
 70
     1
102
RTVSPropertyOp13
 70
     1
102
RTVSPropertyOp14
 70
     1
102
RTVSPropertyOp15
 70
     1
102
RTVSPropertyOp16
 70
     1
102
RTVSPropertyOp17
 70
     1
102
RTVSPropertyOp18
 70
     1
102
RTVSPropertyOp19
 70
     1
102
RTVSPropertyOp20
 70
     1
102
RTVSPropertyOp21
 70
     1
102
RTVSPropertyOp22
 70
     1
102
RTVSPropertyOp23
 70
     1
102
RTVSPropertyOp24
 70
     1
102
RTVSPropertyOp25
 70
     1
102
RTVSPropertyOp26
 70
     1
102
RTVSPropertyOp27
 70
     1
102
RTVSPropertyOp28
 70
     1
102
RTVSPropertyOp29
 70
     1
102
RTVSPropertyOp30
 70
     1
102
RTVSPropertyOp31
 70
     1
102
RTVSPropertyOp32
 70
     1
102
RTVSPropertyOp33
 70
     1
102
RTVSPropertyOp34
 70
     1
102
RTVSPropertyOp35
 70
     1
102
RTVSPropertyOp36
 70
     1
102
RTVSPropertyOp37
 70
     1
102
RTVSPropertyOp38
 70
     1
102
RTVSPropertyOp39
 70
     1
102
RTVSPropertyOp40
 70
     1
102
RTVSPropertyOp41
 70
     1
102
RTVSPropertyOp42
 70
     1
102
RTVSPropertyOp43
 70
     1
102
RTVSPropertyOp44
 70
     1
102
RTVSPropertyOp45
 70
     1
102
RTVSPropertyOp46
 70
     1
102
RTVSPropertyOp47
 70
     1
102
RTVSPropertyOp48
 70
     1
102
RTVSPropertyOp49
 70
     1
102
RTVSPropertyOp50
 70
     1
102
RTVSPropertyOp51
 70
     0
102
RTVSPropertyOp52
 70
     0
102
RTVSPropertyOp53
 70
     1
102
RTVSPropertyOp54
 70
     1
102
RTVSPropertyOp55
 70
     1
102
RTVSPropertyOp56
 70
     1
102
RTVSPropertyOp57
 70
     1
102
RTVSPost2010Prop28
280
     0
102
RTVSPost2010PropOp28
 70
     1
102
RTVSPost2010Prop29
280
     1
102
RTVSPost2010PropOp29
 70
     1
102
RTVSPost2010Prop30
280
     1
102
RTVSPost2010PropOp30
 70
     1
102
RTVSPost2010Prop31
280
     0
102
RTVSPost2010PropOp31
 70
     1
102
RTVSPost2010Prop32
280
     0
102
RTVSPost2010PropOp32
 70
     1
102
RTVSPost2010Prop33
280
     0
102
RTVSPost2010PropOp33
 70
     1
102
RTVSPost2010Prop34
280
     0
102
RTVSPost2010PropOp34
 70
     1
102
RTVSPost2010Prop35
280
     0
102
RTVSPost2010PropOp35
 70
     1
102
RTVSPost2010Prop36
280
     0
102
RTVSPost2010PropOp36
 70
     1
102
RTVSPost2010Prop37
 90
       50
102
RTVSPost2010PropOp37
 70
     1
102
RTVSPost2010Prop38
140
0.0
102
RTVSPost2010PropOp38
 70
     1
102
RTVSPost2010Prop39
140
1.0
102
RTVSPost2010PropOp39
 70
     1
102
RTVSPost2010Prop40
 90
        0
102
RTVSPost2010PropOp40
 70
     1
102
RTVSPost2010Prop41ColorIndex
 90
       18
102
RTVSPost2010Prop41ColorRGB
 90
        0
102
RTVSPost2010PropOp41
 70
     1
102
RTVSPost2010Prop42
 90
       50
102
RTVSPost2010PropOp42
 70
     1
102
RTVSPost2010Prop43
 90
        3
102
RTVSPost2010PropOp43
 70
     1
102
RTVSPost2010Prop44ColorIndex
 90
        5
102
RTVSPost2010Prop44ColorRGB
 90
      255
102
RTVSPost2010PropOp44
 70
     1
102
RTVSPost2010Prop45
280
     0
102
RTVSPost2010PropOp45
 70
     1
102
RTVSPost2010Prop46
 90
       50
102
RTVSPost2010PropOp46
 70
     1
102
RTVSPost2010Prop47
 90
       50
102
RTVSPost2010PropOp47
 70
     1
102
RTVSPost2010Prop48
 90
       50
102
RTVSPost2010PropOp48
 70
     1
102
RTVSPost2010Prop49
280
     0
102
RTVSPost2010PropOp49
 70
     1
102
RTVSPost2010Prop50
 90
       50
102
RTVSPost2010PropOp50
 70
     1
102
RTVSPost2010Prop51ColorIndex
 90
      256
102
RTVSPost2010Prop51ColorRGB
 90
-16777216
102
RTVSPost2010PropOp51
 70
     0
102
RTVSPost2010Prop52
140
1.0
102
RTVSPost2010PropOp52
 70
     0
102
RTVSPost2010Prop53
 90
        2
102
RTVSPost2010PropOp53
 70
     1
102
RTVSPost2010Prop54
  1
strokes_ogs.tif
102
RTVSPost2010PropOp54
 70
     1
102
RTVSPost2010Prop55
280
     0
102
RTVSPost2010PropOp55
 70
     1
102
RTVSPost2010Prop56
140
1.0
102
RTVSPost2010PropOp56
 70
     1
102
RTVSPost2010Prop57
140
1.0
102
RTVSPost2010PropOp57
 70
     1
  0
XRECORD
  5
821
102
{ACAD_REACTORS
330
820
102
}
330
820
100
AcDbXrecord
280
     1
102
RTVSPropertyOp0
 70
     1
102
RTVSPropertyOp1
 70
     1
102
RTVSPropertyOp2
 70
     1
102
RTVSPropertyOp3
 70
     1
102
RTVSPropertyOp4
 70
     1
102
RTVSPropertyOp5
 70
     1
102
RTVSPropertyOp6
 70
     1
102
RTVSPropertyOp7
 70
     1
102
RTVSPropertyOp8
 70
     1
102
RTVSPropertyOp9
 70
     1
102
RTVSPropertyOp10
 70
     1
102
RTVSPropertyOp11
 70
     1
102
RTVSPropertyOp12
 70
     1
102
RTVSPropertyOp13
 70
     1
102
RTVSPropertyOp14
 70
     1
102
RTVSPropertyOp15
 70
     1
102
RTVSPropertyOp16
 70
     1
102
RTVSPropertyOp17
 70
     1
102
RTVSPropertyOp18
 70
     1
102
RTVSPropertyOp19
 70
     1
102
RTVSPropertyOp20
 70
     1
102
RTVSPropertyOp21
 70
     1
102
RTVSPropertyOp22
 70
     1
102
RTVSPropertyOp23
 70
     1
102
RTVSPropertyOp24
 70
     1
102
RTVSPropertyOp25
 70
     1
102
RTVSPropertyOp26
 70
     1
102
RTVSPropertyOp27
 70
     1
102
RTVSPropertyOp28
 70
     1
102
RTVSPropertyOp29
 70
     1
102
RTVSPropertyOp30
 70
     1
102
RTVSPropertyOp31
 70
     1
102
RTVSPropertyOp32
 70
     1
102
RTVSPropertyOp33
 70
     1
102
RTVSPropertyOp34
 70
     1
102
RTVSPropertyOp35
 70
     1
102
RTVSPropertyOp36
 70
     1
102
RTVSPropertyOp37
 70
     1
102
RTVSPropertyOp38
 70
     1
102
RTVSPropertyOp39
 70
     1
102
RTVSPropertyOp40
 70
     1
102
RTVSPropertyOp41
 70
     1
102
RTVSPropertyOp42
 70
     1
102
RTVSPropertyOp43
 70
     1
102
RTVSPropertyOp44
 70
     1
102
RTVSPropertyOp45
 70
     1
102
RTVSPropertyOp46
 70
     1
102
RTVSPropertyOp47
 70
     1
102
RTVSPropertyOp48
 70
     1
102
RTVSPropertyOp49
 70
     1
102
RTVSPropertyOp50
 70
     1
102
RTVSPropertyOp51
 70
     0
102
RTVSPropertyOp52
 70
     0
102
RTVSPropertyOp53
 70
     1
102
RTVSPropertyOp54
 70
     1
102
RTVSPropertyOp55
 70
     1
102
RTVSPropertyOp56
 70
     1
102
RTVSPropertyOp57
 70
     1
102
RTVSPost2010Prop28
280
     0
102
RTVSPost2010PropOp28
 70
     1
102
RTVSPost2010Prop29
280
     1
102
RTVSPost2010PropOp29
 70
     1
102
RTVSPost2010Prop30
280
     1
102
RTVSPost2010PropOp30
 70
     1
102
RTVSPost2010Prop31
280
     0
102
RTVSPost2010PropOp31
 70
     1
102
RTVSPost2010Prop32
280
     0
102
RTVSPost2010PropOp32
 70
     1
102
RTVSPost2010Prop33
280
     0
102
RTVSPost2010PropOp33
 70
     1
102
RTVSPost2010Prop34
280
     0
102
RTVSPost2010PropOp34
 70
     1
102
RTVSPost2010Prop35
280
     0
102
RTVSPost2010PropOp35
 70
     1
102
RTVSPost2010Prop36
280
     0
102
RTVSPost2010PropOp36
 70
     1
102
RTVSPost2010Prop37
 90
       50
102
RTVSPost2010PropOp37
 70
     1
102
RTVSPost2010Prop38
140
0.0
102
RTVSPost2010PropOp38
 70
     1
102
RTVSPost2010Prop39
140
1.0
102
RTVSPost2010PropOp39
 70
     1
102
RTVSPost2010Prop40
 90
        0
102
RTVSPost2010PropOp40
 70
     1
102
RTVSPost2010Prop41ColorIndex
 90
       18
102
RTVSPost2010Prop41ColorRGB
 90
        0
102
RTVSPost2010PropOp41
 70
     1
102
RTVSPost2010Prop42
 90
       50
102
RTVSPost2010PropOp42
 70
     1
102
RTVSPost2010Prop43
 90
        3
102
RTVSPost2010PropOp43
 70
     1
102
RTVSPost2010Prop44ColorIndex
 90
        5
102
RTVSPost2010Prop44ColorRGB
 90
      255
102
RTVSPost2010PropOp44
 70
     1
102
RTVSPost2010Prop45
280
     0
102
RTVSPost2010PropOp45
 70
     1
102
RTVSPost2010Prop46
 90
       50
102
RTVSPost2010PropOp46
 70
     1
102
RTVSPost2010Prop47
 90
       50
102
RTVSPost2010PropOp47
 70
     1
102
RTVSPost2010Prop48
 90
       50
102
RTVSPost2010PropOp48
 70
     1
102
RTVSPost2010Prop49
280
     0
102
RTVSPost2010PropOp49
 70
     1
102
RTVSPost2010Prop50
 90
       50
102
RTVSPost2010PropOp50
 70
     1
102
RTVSPost2010Prop51ColorIndex
 90
      256
102
RTVSPost2010Prop51ColorRGB
 90
-16777216
102
RTVSPost2010PropOp51
 70
     0
102
RTVSPost2010Prop52
140
1.0
102
RTVSPost2010PropOp52
 70
     0
102
RTVSPost2010Prop53
 90
        2
102
RTVSPost2010PropOp53
 70
     1
102
RTVSPost2010Prop54
  1
strokes_ogs.tif
102
RTVSPost2010PropOp54
 70
     1
102
RTVSPost2010Prop55
280
     0
102
RTVSPost2010PropOp55
 70
     1
102
RTVSPost2010Prop56
140
1.0
102
RTVSPost2010PropOp56
 70
     1
102
RTVSPost2010Prop57
140
1.0
102
RTVSPost2010PropOp57
 70
     1
  0
XRECORD
  5
827
102
{ACAD_REACTORS
330
826
102
}
330
826
100
AcDbXrecord
280
     1
102
RTVSPropertyOp0
 70
     1
102
RTVSPropertyOp1
 70
     1
102
RTVSPropertyOp2
 70
     1
102
RTVSPropertyOp3
 70
     1
102
RTVSPropertyOp4
 70
     1
102
RTVSPropertyOp5
 70
     1
102
RTVSPropertyOp6
 70
     1
102
RTVSPropertyOp7
 70
     1
102
RTVSPropertyOp8
 70
     1
102
RTVSPropertyOp9
 70
     1
102
RTVSPropertyOp10
 70
     1
102
RTVSPropertyOp11
 70
     1
102
RTVSPropertyOp12
 70
     1
102
RTVSPropertyOp13
 70
     1
102
RTVSPropertyOp14
 70
     1
102
RTVSPropertyOp15
 70
     1
102
RTVSPropertyOp16
 70
     1
102
RTVSPropertyOp17
 70
     1
102
RTVSPropertyOp18
 70
     1
102
RTVSPropertyOp19
 70
     1
102
RTVSPropertyOp20
 70
     1
102
RTVSPropertyOp21
 70
     1
102
RTVSPropertyOp22
 70
     1
102
RTVSPropertyOp23
 70
     1
102
RTVSPropertyOp24
 70
     1
102
RTVSPropertyOp25
 70
     1
102
RTVSPropertyOp26
 70
     1
102
RTVSPropertyOp27
 70
     1
102
RTVSPropertyOp28
 70
     1
102
RTVSPropertyOp29
 70
     1
102
RTVSPropertyOp30
 70
     1
102
RTVSPropertyOp31
 70
     1
102
RTVSPropertyOp32
 70
     1
102
RTVSPropertyOp33
 70
     1
102
RTVSPropertyOp34
 70
     1
102
RTVSPropertyOp35
 70
     1
102
RTVSPropertyOp36
 70
     1
102
RTVSPropertyOp37
 70
     1
102
RTVSPropertyOp38
 70
     1
102
RTVSPropertyOp39
 70
     1
102
RTVSPropertyOp40
 70
     1
102
RTVSPropertyOp41
 70
     1
102
RTVSPropertyOp42
 70
     1
102
RTVSPropertyOp43
 70
     1
102
RTVSPropertyOp44
 70
     1
102
RTVSPropertyOp45
 70
     1
102
RTVSPropertyOp46
 70
     1
102
RTVSPropertyOp47
 70
     1
102
RTVSPropertyOp48
 70
     1
102
RTVSPropertyOp49
 70
     1
102
RTVSPropertyOp50
 70
     1
102
RTVSPropertyOp51
 70
     0
102
RTVSPropertyOp52
 70
     0
102
RTVSPropertyOp53
 70
     1
102
RTVSPropertyOp54
 70
     1
102
RTVSPropertyOp55
 70
     1
102
RTVSPropertyOp56
 70
     1
102
RTVSPropertyOp57
 70
     1
102
RTVSPost2010Prop28
280
     0
102
RTVSPost2010PropOp28
 70
     1
102
RTVSPost2010Prop29
280
     1
102
RTVSPost2010PropOp29
 70
     1
102
RTVSPost2010Prop30
280
     1
102
RTVSPost2010PropOp30
 70
     1
102
RTVSPost2010Prop31
280
     0
102
RTVSPost2010PropOp31
 70
     1
102
RTVSPost2010Prop32
280
     0
102
RTVSPost2010PropOp32
 70
     1
102
RTVSPost2010Prop33
280
     0
102
RTVSPost2010PropOp33
 70
     1
102
RTVSPost2010Prop34
280
     0
102
RTVSPost2010PropOp34
 70
     1
102
RTVSPost2010Prop35
280
     0
102
RTVSPost2010PropOp35
 70
     1
102
RTVSPost2010Prop36
280
     0
102
RTVSPost2010PropOp36
 70
     1
102
RTVSPost2010Prop37
 90
       50
102
RTVSPost2010PropOp37
 70
     1
102
RTVSPost2010Prop38
140
0.0
102
RTVSPost2010PropOp38
 70
     1
102
RTVSPost2010Prop39
140
1.0
102
RTVSPost2010PropOp39
 70
     1
102
RTVSPost2010Prop40
 90
        0
102
RTVSPost2010PropOp40
 70
     1
102
RTVSPost2010Prop41ColorIndex
 90
       18
102
RTVSPost2010Prop41ColorRGB
 90
        0
102
RTVSPost2010PropOp41
 70
     1
102
RTVSPost2010Prop42
 90
       50
102
RTVSPost2010PropOp42
 70
     1
102
RTVSPost2010Prop43
 90
        3
102
RTVSPost2010PropOp43
 70
     1
102
RTVSPost2010Prop44ColorIndex
 90
        5
102
RTVSPost2010Prop44ColorRGB
 90
      255
102
RTVSPost2010PropOp44
 70
     1
102
RTVSPost2010Prop45
280
     0
102
RTVSPost2010PropOp45
 70
     1
102
RTVSPost2010Prop46
 90
       50
102
RTVSPost2010PropOp46
 70
     1
102
RTVSPost2010Prop47
 90
       50
102
RTVSPost2010PropOp47
 70
     1
102
RTVSPost2010Prop48
 90
       50
102
RTVSPost2010PropOp48
 70
     1
102
RTVSPost2010Prop49
280
     0
102
RTVSPost2010PropOp49
 70
     1
102
RTVSPost2010Prop50
 90
       50
102
RTVSPost2010PropOp50
 70
     1
102
RTVSPost2010Prop51ColorIndex
 90
      256
102
RTVSPost2010Prop51ColorRGB
 90
-16777216
102
RTVSPost2010PropOp51
 70
     0
102
RTVSPost2010Prop52
140
1.0
102
RTVSPost2010PropOp52
 70
     0
102
RTVSPost2010Prop53
 90
        2
102
RTVSPost2010PropOp53
 70
     1
102
RTVSPost2010Prop54
  1
strokes_ogs.tif
102
RTVSPost2010PropOp54
 70
     1
102
RTVSPost2010Prop55
280
     0
102
RTVSPost2010PropOp55
 70
     1
102
RTVSPost2010Prop56
140
1.0
102
RTVSPost2010PropOp56
 70
     1
102
RTVSPost2010Prop57
140
1.0
102
RTVSPost2010PropOp57
 70
     1
  0
XRECORD
  5
83B
102
{ACAD_REACTORS
330
83A
102
}
330
83A
100
AcDbXrecord
280
     1
102
RTVSPropertyOp0
 70
     0
102
RTVSPropertyOp1
 70
     0
102
RTVSPropertyOp2
 70
     0
102
RTVSPropertyOp3
 70
     0
102
RTVSPropertyOp4
 70
     0
102
RTVSPropertyOp5
 70
     0
102
RTVSPropertyOp6
 70
     0
102
RTVSPropertyOp7
 70
     0
102
RTVSPropertyOp8
 70
     0
102
RTVSPropertyOp9
 70
     0
102
RTVSPropertyOp10
 70
     0
102
RTVSPropertyOp11
 70
     0
102
RTVSPropertyOp12
 70
     0
102
RTVSPropertyOp13
 70
     0
102
RTVSPropertyOp14
 70
     2
102
RTVSPropertyOp15
 70
     0
102
RTVSPropertyOp16
 70
     0
102
RTVSPropertyOp17
 70
     0
102
RTVSPropertyOp18
 70
     0
102
RTVSPropertyOp19
 70
     0
102
RTVSPropertyOp20
 70
     0
102
RTVSPropertyOp21
 70
     0
102
RTVSPropertyOp22
 70
     0
102
RTVSPropertyOp23
 70
     0
102
RTVSPropertyOp24
 70
     0
102
RTVSPropertyOp25
 70
     0
102
RTVSPropertyOp26
 70
     0
102
RTVSPropertyOp27
 70
     0
102
RTVSPropertyOp28
 70
     0
102
RTVSPropertyOp29
 70
     0
102
RTVSPropertyOp30
 70
     0
102
RTVSPropertyOp31
 70
     0
102
RTVSPropertyOp32
 70
     0
102
RTVSPropertyOp33
 70
     0
102
RTVSPropertyOp34
 70
     0
102
RTVSPropertyOp35
 70
     0
102
RTVSPropertyOp36
 70
     0
102
RTVSPropertyOp37
 70
     0
102
RTVSPropertyOp38
 70
     0
102
RTVSPropertyOp39
 70
     0
102
RTVSPropertyOp40
 70
     0
102
RTVSPropertyOp41
 70
     0
102
RTVSPropertyOp42
 70
     0
102
RTVSPropertyOp43
 70
     0
102
RTVSPropertyOp44
 70
     0
102
RTVSPropertyOp45
 70
     0
102
RTVSPropertyOp46
 70
     0
102
RTVSPropertyOp47
 70
     0
102
RTVSPropertyOp48
 70
     0
102
RTVSPropertyOp49
 70
     0
102
RTVSPropertyOp50
 70
     0
102
RTVSPropertyOp51
 70
     0
102
RTVSPropertyOp52
 70
     0
102
RTVSPropertyOp53
 70
     0
102
RTVSPropertyOp54
 70
     0
102
RTVSPropertyOp55
 70
     0
102
RTVSPropertyOp56
 70
     0
102
RTVSPropertyOp57
 70
     0
102
RTVSPost2010Prop28
280
     0
102
RTVSPost2010PropOp28
 70
     0
102
RTVSPost2010Prop29
280
     1
102
RTVSPost2010PropOp29
 70
     0
102
RTVSPost2010Prop30
280
     1
102
RTVSPost2010PropOp30
 70
     0
102
RTVSPost2010Prop31
280
     0
102
RTVSPost2010PropOp31
 70
     0
102
RTVSPost2010Prop32
280
     0
102
RTVSPost2010PropOp32
 70
     0
102
RTVSPost2010Prop33
280
     0
102
RTVSPost2010PropOp33
 70
     0
102
RTVSPost2010Prop34
280
     0
102
RTVSPost2010PropOp34
 70
     0
102
RTVSPost2010Prop35
280
     0
102
RTVSPost2010PropOp35
 70
     0
102
RTVSPost2010Prop36
280
     0
102
RTVSPost2010PropOp36
 70
     0
102
RTVSPost2010Prop37
 90
       50
102
RTVSPost2010PropOp37
 70
     0
102
RTVSPost2010Prop38
140
0.0
102
RTVSPost2010PropOp38
 70
     0
102
RTVSPost2010Prop39
140
1.0
102
RTVSPost2010PropOp39
 70
     0
102
RTVSPost2010Prop40
 90
        0
102
RTVSPost2010PropOp40
 70
     0
102
RTVSPost2010Prop41ColorIndex
 90
       18
102
RTVSPost2010Prop41ColorRGB
 90
        0
102
RTVSPost2010PropOp41
 70
     0
102
RTVSPost2010Prop42
 90
       50
102
RTVSPost2010PropOp42
 70
     0
102
RTVSPost2010Prop43
 90
        3
102
RTVSPost2010PropOp43
 70
     0
102
RTVSPost2010Prop44ColorIndex
 90
        5
102
RTVSPost2010Prop44ColorRGB
 90
      255
102
RTVSPost2010PropOp44
 70
     0
102
RTVSPost2010Prop45
280
     0
102
RTVSPost2010PropOp45
 70
     0
102
RTVSPost2010Prop46
 90
       50
102
RTVSPost2010PropOp46
 70
     0
102
RTVSPost2010Prop47
 90
       50
102
RTVSPost2010PropOp47
 70
     0
102
RTVSPost2010Prop48
 90
       50
102
RTVSPost2010PropOp48
 70
     0
102
RTVSPost2010Prop49
280
     0
102
RTVSPost2010PropOp49
 70
     0
102
RTVSPost2010Prop50
 90
       50
102
RTVSPost2010PropOp50
 70
     0
102
RTVSPost2010Prop51ColorIndex
 90
      256
102
RTVSPost2010Prop51ColorRGB
 90
-16777216
102
RTVSPost2010PropOp51
 70
     0
102
RTVSPost2010Prop52
140
1.0
102
RTVSPost2010PropOp52
 70
     0
102
RTVSPost2010Prop53
 90
        2
102
RTVSPost2010PropOp53
 70
     0
102
RTVSPost2010Prop54
  1
strokes_ogs.tif
102
RTVSPost2010PropOp54
 70
     0
102
RTVSPost2010Prop55
280
     0
102
RTVSPost2010PropOp55
 70
     0
102
RTVSPost2010Prop56
140
1.0
102
RTVSPost2010PropOp56
 70
     0
102
RTVSPost2010Prop57
140
1.0
102
RTVSPost2010PropOp57
 70
     0
  0
XRECORD
  5
835
102
{ACAD_REACTORS
330
834
102
}
330
834
100
AcDbXrecord
280
     1
102
RTVSPropertyOp0
 70
     1
102
RTVSPropertyOp1
 70
     1
102
RTVSPropertyOp2
 70
     1
102
RTVSPropertyOp3
 70
     1
102
RTVSPropertyOp4
 70
     1
102
RTVSPropertyOp5
 70
     1
102
RTVSPropertyOp6
 70
     1
102
RTVSPropertyOp7
 70
     1
102
RTVSPropertyOp8
 70
     1
102
RTVSPropertyOp9
 70
     1
102
RTVSPropertyOp10
 70
     1
102
RTVSPropertyOp11
 70
     1
102
RTVSPropertyOp12
 70
     1
102
RTVSPropertyOp13
 70
     1
102
RTVSPropertyOp14
 70
     1
102
RTVSPropertyOp15
 70
     1
102
RTVSPropertyOp16
 70
     1
102
RTVSPropertyOp17
 70
     1
102
RTVSPropertyOp18
 70
     1
102
RTVSPropertyOp19
 70
     1
102
RTVSPropertyOp20
 70
     1
102
RTVSPropertyOp21
 70
     1
102
RTVSPropertyOp22
 70
     1
102
RTVSPropertyOp23
 70
     1
102
RTVSPropertyOp24
 70
     1
102
RTVSPropertyOp25
 70
     1
102
RTVSPropertyOp26
 70
     1
102
RTVSPropertyOp27
 70
     1
102
RTVSPropertyOp28
 70
     1
102
RTVSPropertyOp29
 70
     1
102
RTVSPropertyOp30
 70
     1
102
RTVSPropertyOp31
 70
     1
102
RTVSPropertyOp32
 70
     1
102
RTVSPropertyOp33
 70
     1
102
RTVSPropertyOp34
 70
     1
102
RTVSPropertyOp35
 70
     1
102
RTVSPropertyOp36
 70
     1
102
RTVSPropertyOp37
 70
     1
102
RTVSPropertyOp38
 70
     1
102
RTVSPropertyOp39
 70
     1
102
RTVSPropertyOp40
 70
     1
102
RTVSPropertyOp41
 70
     1
102
RTVSPropertyOp42
 70
     1
102
RTVSPropertyOp43
 70
     1
102
RTVSPropertyOp44
 70
     1
102
RTVSPropertyOp45
 70
     1
102
RTVSPropertyOp46
 70
     1
102
RTVSPropertyOp47
 70
     1
102
RTVSPropertyOp48
 70
     1
102
RTVSPropertyOp49
 70
     1
102
RTVSPropertyOp50
 70
     1
102
RTVSPropertyOp51
 70
     0
102
RTVSPropertyOp52
 70
     0
102
RTVSPropertyOp53
 70
     1
102
RTVSPropertyOp54
 70
     1
102
RTVSPropertyOp55
 70
     1
102
RTVSPropertyOp56
 70
     1
102
RTVSPropertyOp57
 70
     1
102
RTVSPost2010Prop28
280
     0
102
RTVSPost2010PropOp28
 70
     1
102
RTVSPost2010Prop29
280
     1
102
RTVSPost2010PropOp29
 70
     1
102
RTVSPost2010Prop30
280
     1
102
RTVSPost2010PropOp30
 70
     1
102
RTVSPost2010Prop31
280
     0
102
RTVSPost2010PropOp31
 70
     1
102
RTVSPost2010Prop32
280
     0
102
RTVSPost2010PropOp32
 70
     1
102
RTVSPost2010Prop33
280
     0
102
RTVSPost2010PropOp33
 70
     1
102
RTVSPost2010Prop34
280
     0
102
RTVSPost2010PropOp34
 70
     1
102
RTVSPost2010Prop35
280
     0
102
RTVSPost2010PropOp35
 70
     1
102
RTVSPost2010Prop36
280
     0
102
RTVSPost2010PropOp36
 70
     1
102
RTVSPost2010Prop37
 90
       50
102
RTVSPost2010PropOp37
 70
     1
102
RTVSPost2010Prop38
140
0.0
102
RTVSPost2010PropOp38
 70
     1
102
RTVSPost2010Prop39
140
1.0
102
RTVSPost2010PropOp39
 70
     1
102
RTVSPost2010Prop40
 90
        0
102
RTVSPost2010PropOp40
 70
     1
102
RTVSPost2010Prop41ColorIndex
 90
       18
102
RTVSPost2010Prop41ColorRGB
 90
        0
102
RTVSPost2010PropOp41
 70
     1
102
RTVSPost2010Prop42
 90
       50
102
RTVSPost2010PropOp42
 70
     1
102
RTVSPost2010Prop43
 90
        3
102
RTVSPost2010PropOp43
 70
     1
102
RTVSPost2010Prop44ColorIndex
 90
        5
102
RTVSPost2010Prop44ColorRGB
 90
      255
102
RTVSPost2010PropOp44
 70
     1
102
RTVSPost2010Prop45
280
     0
102
RTVSPost2010PropOp45
 70
     1
102
RTVSPost2010Prop46
 90
       50
102
RTVSPost2010PropOp46
 70
     1
102
RTVSPost2010Prop47
 90
       50
102
RTVSPost2010PropOp47
 70
     1
102
RTVSPost2010Prop48
 90
       50
102
RTVSPost2010PropOp48
 70
     1
102
RTVSPost2010Prop49
280
     0
102
RTVSPost2010PropOp49
 70
     1
102
RTVSPost2010Prop50
 90
       50
102
RTVSPost2010PropOp50
 70
     1
102
RTVSPost2010Prop51ColorIndex
 90
      256
102
RTVSPost2010Prop51ColorRGB
 90
-16777216
102
RTVSPost2010PropOp51
 70
     0
102
RTVSPost2010Prop52
140
1.0
102
RTVSPost2010PropOp52
 70
     0
102
RTVSPost2010Prop53
 90
        2
102
RTVSPost2010PropOp53
 70
     1
102
RTVSPost2010Prop54
  1
strokes_ogs.tif
102
RTVSPost2010PropOp54
 70
     1
102
RTVSPost2010Prop55
280
     0
102
RTVSPost2010PropOp55
 70
     1
102
RTVSPost2010Prop56
140
1.0
102
RTVSPost2010PropOp56
 70
     1
102
RTVSPost2010Prop57
140
1.0
102
RTVSPost2010PropOp57
 70
     1
  0
XRECORD
  5
83D
102
{ACAD_REACTORS
330
83C
102
}
330
83C
100
AcDbXrecord
280
     1
102
RTVSPropertyOp0
 70
     0
102
RTVSPropertyOp1
 70
     0
102
RTVSPropertyOp2
 70
     0
102
RTVSPropertyOp3
 70
     0
102
RTVSPropertyOp4
 70
     0
102
RTVSPropertyOp5
 70
     0
102
RTVSPropertyOp6
 70
     0
102
RTVSPropertyOp7
 70
     0
102
RTVSPropertyOp8
 70
     0
102
RTVSPropertyOp9
 70
     0
102
RTVSPropertyOp10
 70
     0
102
RTVSPropertyOp11
 70
     0
102
RTVSPropertyOp12
 70
     0
102
RTVSPropertyOp13
 70
     0
102
RTVSPropertyOp14
 70
     2
102
RTVSPropertyOp15
 70
     0
102
RTVSPropertyOp16
 70
     0
102
RTVSPropertyOp17
 70
     0
102
RTVSPropertyOp18
 70
     0
102
RTVSPropertyOp19
 70
     0
102
RTVSPropertyOp20
 70
     0
102
RTVSPropertyOp21
 70
     0
102
RTVSPropertyOp22
 70
     0
102
RTVSPropertyOp23
 70
     0
102
RTVSPropertyOp24
 70
     0
102
RTVSPropertyOp25
 70
     0
102
RTVSPropertyOp26
 70
     0
102
RTVSPropertyOp27
 70
     0
102
RTVSPropertyOp28
 70
     0
102
RTVSPropertyOp29
 70
     0
102
RTVSPropertyOp30
 70
     0
102
RTVSPropertyOp31
 70
     0
102
RTVSPropertyOp32
 70
     0
102
RTVSPropertyOp33
 70
     0
102
RTVSPropertyOp34
 70
     0
102
RTVSPropertyOp35
 70
     0
102
RTVSPropertyOp36
 70
     0
102
RTVSPropertyOp37
 70
     0
102
RTVSPropertyOp38
 70
     0
102
RTVSPropertyOp39
 70
     0
102
RTVSPropertyOp40
 70
     0
102
RTVSPropertyOp41
 70
     0
102
RTVSPropertyOp42
 70
     0
102
RTVSPropertyOp43
 70
     0
102
RTVSPropertyOp44
 70
     0
102
RTVSPropertyOp45
 70
     0
102
RTVSPropertyOp46
 70
     0
102
RTVSPropertyOp47
 70
     0
102
RTVSPropertyOp48
 70
     0
102
RTVSPropertyOp49
 70
     0
102
RTVSPropertyOp50
 70
     0
102
RTVSPropertyOp51
 70
     0
102
RTVSPropertyOp52
 70
     0
102
RTVSPropertyOp53
 70
     0
102
RTVSPropertyOp54
 70
     0
102
RTVSPropertyOp55
 70
     0
102
RTVSPropertyOp56
 70
     0
102
RTVSPropertyOp57
 70
     0
102
RTVSPost2010Prop28
280
     0
102
RTVSPost2010PropOp28
 70
     0
102
RTVSPost2010Prop29
280
     1
102
RTVSPost2010PropOp29
 70
     0
102
RTVSPost2010Prop30
280
     1
102
RTVSPost2010PropOp30
 70
     0
102
RTVSPost2010Prop31
280
     0
102
RTVSPost2010PropOp31
 70
     0
102
RTVSPost2010Prop32
280
     0
102
RTVSPost2010PropOp32
 70
     0
102
RTVSPost2010Prop33
280
     0
102
RTVSPost2010PropOp33
 70
     0
102
RTVSPost2010Prop34
280
     0
102
RTVSPost2010PropOp34
 70
     0
102
RTVSPost2010Prop35
280
     0
102
RTVSPost2010PropOp35
 70
     0
102
RTVSPost2010Prop36
280
     0
102
RTVSPost2010PropOp36
 70
     0
102
RTVSPost2010Prop37
 90
       50
102
RTVSPost2010PropOp37
 70
     0
102
RTVSPost2010Prop38
140
0.0
102
RTVSPost2010PropOp38
 70
     0
102
RTVSPost2010Prop39
140
1.0
102
RTVSPost2010PropOp39
 70
     0
102
RTVSPost2010Prop40
 90
        0
102
RTVSPost2010PropOp40
 70
     0
102
RTVSPost2010Prop41ColorIndex
 90
       18
102
RTVSPost2010Prop41ColorRGB
 90
        0
102
RTVSPost2010PropOp41
 70
     0
102
RTVSPost2010Prop42
 90
       50
102
RTVSPost2010PropOp42
 70
     0
102
RTVSPost2010Prop43
 90
        3
102
RTVSPost2010PropOp43
 70
     0
102
RTVSPost2010Prop44ColorIndex
 90
        5
102
RTVSPost2010Prop44ColorRGB
 90
      255
102
RTVSPost2010PropOp44
 70
     0
102
RTVSPost2010Prop45
280
     0
102
RTVSPost2010PropOp45
 70
     0
102
RTVSPost2010Prop46
 90
       50
102
RTVSPost2010PropOp46
 70
     0
102
RTVSPost2010Prop47
 90
       50
102
RTVSPost2010PropOp47
 70
     0
102
RTVSPost2010Prop48
 90
       50
102
RTVSPost2010PropOp48
 70
     0
102
RTVSPost2010Prop49
280
     0
102
RTVSPost2010PropOp49
 70
     0
102
RTVSPost2010Prop50
 90
       50
102
RTVSPost2010PropOp50
 70
     0
102
RTVSPost2010Prop51ColorIndex
 90
      256
102
RTVSPost2010Prop51ColorRGB
 90
-16777216
102
RTVSPost2010PropOp51
 70
     0
102
RTVSPost2010Prop52
140
1.0
102
RTVSPost2010PropOp52
 70
     0
102
RTVSPost2010Prop53
 90
        2
102
RTVSPost2010PropOp53
 70
     0
102
RTVSPost2010Prop54
  1
strokes_ogs.tif
102
RTVSPost2010PropOp54
 70
     0
102
RTVSPost2010Prop55
280
     0
102
RTVSPost2010PropOp55
 70
     0
102
RTVSPost2010Prop56
140
1.0
102
RTVSPost2010PropOp56
 70
     0
102
RTVSPost2010Prop57
140
1.0
102
RTVSPost2010PropOp57
 70
     0
  0
XRECORD
  5
82B
102
{ACAD_REACTORS
330
82A
102
}
330
82A
100
AcDbXrecord
280
     1
102
RTVSPropertyOp0
 70
     1
102
RTVSPropertyOp1
 70
     1
102
RTVSPropertyOp2
 70
     1
102
RTVSPropertyOp3
 70
     1
102
RTVSPropertyOp4
 70
     1
102
RTVSPropertyOp5
 70
     1
102
RTVSPropertyOp6
 70
     1
102
RTVSPropertyOp7
 70
     1
102
RTVSPropertyOp8
 70
     1
102
RTVSPropertyOp9
 70
     1
102
RTVSPropertyOp10
 70
     1
102
RTVSPropertyOp11
 70
     1
102
RTVSPropertyOp12
 70
     1
102
RTVSPropertyOp13
 70
     1
102
RTVSPropertyOp14
 70
     1
102
RTVSPropertyOp15
 70
     1
102
RTVSPropertyOp16
 70
     1
102
RTVSPropertyOp17
 70
     1
102
RTVSPropertyOp18
 70
     1
102
RTVSPropertyOp19
 70
     1
102
RTVSPropertyOp20
 70
     1
102
RTVSPropertyOp21
 70
     1
102
RTVSPropertyOp22
 70
     1
102
RTVSPropertyOp23
 70
     1
102
RTVSPropertyOp24
 70
     1
102
RTVSPropertyOp25
 70
     1
102
RTVSPropertyOp26
 70
     1
102
RTVSPropertyOp27
 70
     1
102
RTVSPropertyOp28
 70
     1
102
RTVSPropertyOp29
 70
     1
102
RTVSPropertyOp30
 70
     1
102
RTVSPropertyOp31
 70
     1
102
RTVSPropertyOp32
 70
     1
102
RTVSPropertyOp33
 70
     1
102
RTVSPropertyOp34
 70
     1
102
RTVSPropertyOp35
 70
     1
102
RTVSPropertyOp36
 70
     1
102
RTVSPropertyOp37
 70
     1
102
RTVSPropertyOp38
 70
     1
102
RTVSPropertyOp39
 70
     1
102
RTVSPropertyOp40
 70
     1
102
RTVSPropertyOp41
 70
     1
102
RTVSPropertyOp42
 70
     1
102
RTVSPropertyOp43
 70
     1
102
RTVSPropertyOp44
 70
     1
102
RTVSPropertyOp45
 70
     1
102
RTVSPropertyOp46
 70
     1
102
RTVSPropertyOp47
 70
     1
102
RTVSPropertyOp48
 70
     1
102
RTVSPropertyOp49
 70
     1
102
RTVSPropertyOp50
 70
     1
102
RTVSPropertyOp51
 70
     0
102
RTVSPropertyOp52
 70
     0
102
RTVSPropertyOp53
 70
     1
102
RTVSPropertyOp54
 70
     1
102
RTVSPropertyOp55
 70
     1
102
RTVSPropertyOp56
 70
     1
102
RTVSPropertyOp57
 70
     1
102
RTVSPost2010Prop28
280
     0
102
RTVSPost2010PropOp28
 70
     1
102
RTVSPost2010Prop29
280
     1
102
RTVSPost2010PropOp29
 70
     1
102
RTVSPost2010Prop30
280
     1
102
RTVSPost2010PropOp30
 70
     1
102
RTVSPost2010Prop31
280
     0
102
RTVSPost2010PropOp31
 70
     1
102
RTVSPost2010Prop32
280
     0
102
RTVSPost2010PropOp32
 70
     1
102
RTVSPost2010Prop33
280
     0
102
RTVSPost2010PropOp33
 70
     1
102
RTVSPost2010Prop34
280
     0
102
RTVSPost2010PropOp34
 70
     1
102
RTVSPost2010Prop35
280
     0
102
RTVSPost2010PropOp35
 70
     1
102
RTVSPost2010Prop36
280
     0
102
RTVSPost2010PropOp36
 70
     1
102
RTVSPost2010Prop37
 90
       50
102
RTVSPost2010PropOp37
 70
     1
102
RTVSPost2010Prop38
140
0.0
102
RTVSPost2010PropOp38
 70
     1
102
RTVSPost2010Prop39
140
1.0
102
RTVSPost2010PropOp39
 70
     1
102
RTVSPost2010Prop40
 90
        0
102
RTVSPost2010PropOp40
 70
     1
102
RTVSPost2010Prop41ColorIndex
 90
       18
102
RTVSPost2010Prop41ColorRGB
 90
        0
102
RTVSPost2010PropOp41
 70
     1
102
RTVSPost2010Prop42
 90
       50
102
RTVSPost2010PropOp42
 70
     1
102
RTVSPost2010Prop43
 90
        3
102
RTVSPost2010PropOp43
 70
     1
102
RTVSPost2010Prop44ColorIndex
 90
        5
102
RTVSPost2010Prop44ColorRGB
 90
      255
102
RTVSPost2010PropOp44
 70
     1
102
RTVSPost2010Prop45
280
     0
102
RTVSPost2010PropOp45
 70
     1
102
RTVSPost2010Prop46
 90
       50
102
RTVSPost2010PropOp46
 70
     1
102
RTVSPost2010Prop47
 90
       50
102
RTVSPost2010PropOp47
 70
     1
102
RTVSPost2010Prop48
 90
       50
102
RTVSPost2010PropOp48
 70
     1
102
RTVSPost2010Prop49
280
     0
102
RTVSPost2010PropOp49
 70
     1
102
RTVSPost2010Prop50
 90
       50
102
RTVSPost2010PropOp50
 70
     1
102
RTVSPost2010Prop51ColorIndex
 90
      256
102
RTVSPost2010Prop51ColorRGB
 90
-16777216
102
RTVSPost2010PropOp51
 70
     0
102
RTVSPost2010Prop52
140
1.0
102
RTVSPost2010PropOp52
 70
     0
102
RTVSPost2010Prop53
 90
        2
102
RTVSPost2010PropOp53
 70
     1
102
RTVSPost2010Prop54
  1
strokes_ogs.tif
102
RTVSPost2010PropOp54
 70
     1
102
RTVSPost2010Prop55
280
     0
102
RTVSPost2010PropOp55
 70
     1
102
RTVSPost2010Prop56
140
1.0
102
RTVSPost2010PropOp56
 70
     1
102
RTVSPost2010Prop57
140
1.0
102
RTVSPost2010PropOp57
 70
     1
  0
XRECORD
  5
849
102
{ACAD_REACTORS
330
848
102
}
330
848
100
AcDbXrecord
280
     1
102
RTVSPropertyOp0
 70
     1
102
RTVSPropertyOp1
 70
     1
102
RTVSPropertyOp2
 70
     1
102
RTVSPropertyOp3
 70
     1
102
RTVSPropertyOp4
 70
     1
102
RTVSPropertyOp5
 70
     1
102
RTVSPropertyOp6
 70
     1
102
RTVSPropertyOp7
 70
     1
102
RTVSPropertyOp8
 70
     1
102
RTVSPropertyOp9
 70
     1
102
RTVSPropertyOp10
 70
     1
102
RTVSPropertyOp11
 70
     1
102
RTVSPropertyOp12
 70
     1
102
RTVSPropertyOp13
 70
     1
102
RTVSPropertyOp14
 70
     1
102
RTVSPropertyOp15
 70
     1
102
RTVSPropertyOp16
 70
     1
102
RTVSPropertyOp17
 70
     1
102
RTVSPropertyOp18
 70
     1
102
RTVSPropertyOp19
 70
     1
102
RTVSPropertyOp20
 70
     1
102
RTVSPropertyOp21
 70
     1
102
RTVSPropertyOp22
 70
     1
102
RTVSPropertyOp23
 70
     1
102
RTVSPropertyOp24
 70
     1
102
RTVSPropertyOp25
 70
     1
102
RTVSPropertyOp26
 70
     1
102
RTVSPropertyOp27
 70
     1
102
RTVSPropertyOp28
 70
     1
102
RTVSPropertyOp29
 70
     1
102
RTVSPropertyOp30
 70
     1
102
RTVSPropertyOp31
 70
     1
102
RTVSPropertyOp32
 70
     1
102
RTVSPropertyOp33
 70
     1
102
RTVSPropertyOp34
 70
     1
102
RTVSPropertyOp35
 70
     1
102
RTVSPropertyOp36
 70
     1
102
RTVSPropertyOp37
 70
     1
102
RTVSPropertyOp38
 70
     1
102
RTVSPropertyOp39
 70
     1
102
RTVSPropertyOp40
 70
     1
102
RTVSPropertyOp41
 70
     1
102
RTVSPropertyOp42
 70
     1
102
RTVSPropertyOp43
 70
     1
102
RTVSPropertyOp44
 70
     1
102
RTVSPropertyOp45
 70
     1
102
RTVSPropertyOp46
 70
     1
102
RTVSPropertyOp47
 70
     1
102
RTVSPropertyOp48
 70
     1
102
RTVSPropertyOp49
 70
     1
102
RTVSPropertyOp50
 70
     1
102
RTVSPropertyOp51
 70
     0
102
RTVSPropertyOp52
 70
     0
102
RTVSPropertyOp53
 70
     1
102
RTVSPropertyOp54
 70
     1
102
RTVSPropertyOp55
 70
     1
102
RTVSPropertyOp56
 70
     1
102
RTVSPropertyOp57
 70
     1
102
RTVSPost2010Prop28
280
     0
102
RTVSPost2010PropOp28
 70
     1
102
RTVSPost2010Prop29
280
     1
102
RTVSPost2010PropOp29
 70
     1
102
RTVSPost2010Prop30
280
     1
102
RTVSPost2010PropOp30
 70
     1
102
RTVSPost2010Prop31
280
     0
102
RTVSPost2010PropOp31
 70
     1
102
RTVSPost2010Prop32
280
     0
102
RTVSPost2010PropOp32
 70
     1
102
RTVSPost2010Prop33
280
     0
102
RTVSPost2010PropOp33
 70
     1
102
RTVSPost2010Prop34
280
     0
102
RTVSPost2010PropOp34
 70
     1
102
RTVSPost2010Prop35
280
     0
102
RTVSPost2010PropOp35
 70
     1
102
RTVSPost2010Prop36
280
     0
102
RTVSPost2010PropOp36
 70
     1
102
RTVSPost2010Prop37
 90
       50
102
RTVSPost2010PropOp37
 70
     1
102
RTVSPost2010Prop38
140
0.0
102
RTVSPost2010PropOp38
 70
     1
102
RTVSPost2010Prop39
140
1.0
102
RTVSPost2010PropOp39
 70
     1
102
RTVSPost2010Prop40
 90
        0
102
RTVSPost2010PropOp40
 70
     1
102
RTVSPost2010Prop41ColorIndex
 90
       18
102
RTVSPost2010Prop41ColorRGB
 90
        0
102
RTVSPost2010PropOp41
 70
     1
102
RTVSPost2010Prop42
 90
       50
102
RTVSPost2010PropOp42
 70
     1
102
RTVSPost2010Prop43
 90
        3
102
RTVSPost2010PropOp43
 70
     1
102
RTVSPost2010Prop44ColorIndex
 90
        5
102
RTVSPost2010Prop44ColorRGB
 90
      255
102
RTVSPost2010PropOp44
 70
     1
102
RTVSPost2010Prop45
280
     0
102
RTVSPost2010PropOp45
 70
     1
102
RTVSPost2010Prop46
 90
       50
102
RTVSPost2010PropOp46
 70
     1
102
RTVSPost2010Prop47
 90
       50
102
RTVSPost2010PropOp47
 70
     1
102
RTVSPost2010Prop48
 90
       50
102
RTVSPost2010PropOp48
 70
     1
102
RTVSPost2010Prop49
280
     0
102
RTVSPost2010PropOp49
 70
     1
102
RTVSPost2010Prop50
 90
       50
102
RTVSPost2010PropOp50
 70
     1
102
RTVSPost2010Prop51ColorIndex
 90
      256
102
RTVSPost2010Prop51ColorRGB
 90
-16777216
102
RTVSPost2010PropOp51
 70
     0
102
RTVSPost2010Prop52
140
1.0
102
RTVSPost2010PropOp52
 70
     0
102
RTVSPost2010Prop53
 90
        2
102
RTVSPost2010PropOp53
 70
     1
102
RTVSPost2010Prop54
  1
strokes_ogs.tif
102
RTVSPost2010PropOp54
 70
     1
102
RTVSPost2010Prop55
280
     0
102
RTVSPost2010PropOp55
 70
     1
102
RTVSPost2010Prop56
140
1.0
102
RTVSPost2010PropOp56
 70
     1
102
RTVSPost2010Prop57
140
1.0
102
RTVSPost2010PropOp57
 70
     1
  0
XRECORD
  5
847
102
{ACAD_REACTORS
330
846
102
}
330
846
100
AcDbXrecord
280
     1
102
RTVSPropertyOp0
 70
     1
102
RTVSPropertyOp1
 70
     1
102
RTVSPropertyOp2
 70
     1
102
RTVSPropertyOp3
 70
     1
102
RTVSPropertyOp4
 70
     1
102
RTVSPropertyOp5
 70
     1
102
RTVSPropertyOp6
 70
     1
102
RTVSPropertyOp7
 70
     1
102
RTVSPropertyOp8
 70
     1
102
RTVSPropertyOp9
 70
     1
102
RTVSPropertyOp10
 70
     1
102
RTVSPropertyOp11
 70
     1
102
RTVSPropertyOp12
 70
     1
102
RTVSPropertyOp13
 70
     1
102
RTVSPropertyOp14
 70
     1
102
RTVSPropertyOp15
 70
     1
102
RTVSPropertyOp16
 70
     1
102
RTVSPropertyOp17
 70
     1
102
RTVSPropertyOp18
 70
     1
102
RTVSPropertyOp19
 70
     1
102
RTVSPropertyOp20
 70
     1
102
RTVSPropertyOp21
 70
     1
102
RTVSPropertyOp22
 70
     1
102
RTVSPropertyOp23
 70
     1
102
RTVSPropertyOp24
 70
     1
102
RTVSPropertyOp25
 70
     1
102
RTVSPropertyOp26
 70
     1
102
RTVSPropertyOp27
 70
     1
102
RTVSPropertyOp28
 70
     1
102
RTVSPropertyOp29
 70
     1
102
RTVSPropertyOp30
 70
     1
102
RTVSPropertyOp31
 70
     1
102
RTVSPropertyOp32
 70
     1
102
RTVSPropertyOp33
 70
     1
102
RTVSPropertyOp34
 70
     1
102
RTVSPropertyOp35
 70
     1
102
RTVSPropertyOp36
 70
     1
102
RTVSPropertyOp37
 70
     1
102
RTVSPropertyOp38
 70
     1
102
RTVSPropertyOp39
 70
     1
102
RTVSPropertyOp40
 70
     1
102
RTVSPropertyOp41
 70
     1
102
RTVSPropertyOp42
 70
     1
102
RTVSPropertyOp43
 70
     1
102
RTVSPropertyOp44
 70
     1
102
RTVSPropertyOp45
 70
     1
102
RTVSPropertyOp46
 70
     1
102
RTVSPropertyOp47
 70
     1
102
RTVSPropertyOp48
 70
     1
102
RTVSPropertyOp49
 70
     1
102
RTVSPropertyOp50
 70
     1
102
RTVSPropertyOp51
 70
     0
102
RTVSPropertyOp52
 70
     0
102
RTVSPropertyOp53
 70
     1
102
RTVSPropertyOp54
 70
     1
102
RTVSPropertyOp55
 70
     1
102
RTVSPropertyOp56
 70
     1
102
RTVSPropertyOp57
 70
     1
102
RTVSPost2010Prop28
280
     0
102
RTVSPost2010PropOp28
 70
     1
102
RTVSPost2010Prop29
280
     1
102
RTVSPost2010PropOp29
 70
     1
102
RTVSPost2010Prop30
280
     1
102
RTVSPost2010PropOp30
 70
     1
102
RTVSPost2010Prop31
280
     0
102
RTVSPost2010PropOp31
 70
     1
102
RTVSPost2010Prop32
280
     0
102
RTVSPost2010PropOp32
 70
     1
102
RTVSPost2010Prop33
280
     0
102
RTVSPost2010PropOp33
 70
     1
102
RTVSPost2010Prop34
280
     0
102
RTVSPost2010PropOp34
 70
     1
102
RTVSPost2010Prop35
280
     0
102
RTVSPost2010PropOp35
 70
     1
102
RTVSPost2010Prop36
280
     0
102
RTVSPost2010PropOp36
 70
     1
102
RTVSPost2010Prop37
 90
       50
102
RTVSPost2010PropOp37
 70
     1
102
RTVSPost2010Prop38
140
0.0
102
RTVSPost2010PropOp38
 70
     1
102
RTVSPost2010Prop39
140
1.0
102
RTVSPost2010PropOp39
 70
     1
102
RTVSPost2010Prop40
 90
        0
102
RTVSPost2010PropOp40
 70
     1
102
RTVSPost2010Prop41ColorIndex
 90
       18
102
RTVSPost2010Prop41ColorRGB
 90
        0
102
RTVSPost2010PropOp41
 70
     1
102
RTVSPost2010Prop42
 90
       50
102
RTVSPost2010PropOp42
 70
     1
102
RTVSPost2010Prop43
 90
        3
102
RTVSPost2010PropOp43
 70
     1
102
RTVSPost2010Prop44ColorIndex
 90
        5
102
RTVSPost2010Prop44ColorRGB
 90
      255
102
RTVSPost2010PropOp44
 70
     1
102
RTVSPost2010Prop45
280
     0
102
RTVSPost2010PropOp45
 70
     1
102
RTVSPost2010Prop46
 90
       50
102
RTVSPost2010PropOp46
 70
     1
102
RTVSPost2010Prop47
 90
       50
102
RTVSPost2010PropOp47
 70
     1
102
RTVSPost2010Prop48
 90
       50
102
RTVSPost2010PropOp48
 70
     1
102
RTVSPost2010Prop49
280
     0
102
RTVSPost2010PropOp49
 70
     1
102
RTVSPost2010Prop50
 90
       50
102
RTVSPost2010PropOp50
 70
     1
102
RTVSPost2010Prop51ColorIndex
 90
      256
102
RTVSPost2010Prop51ColorRGB
 90
-16777216
102
RTVSPost2010PropOp51
 70
     0
102
RTVSPost2010Prop52
140
1.0
102
RTVSPost2010PropOp52
 70
     0
102
RTVSPost2010Prop53
 90
        2
102
RTVSPost2010PropOp53
 70
     1
102
RTVSPost2010Prop54
  1
strokes_ogs.tif
102
RTVSPost2010PropOp54
 70
     1
102
RTVSPost2010Prop55
280
     0
102
RTVSPost2010PropOp55
 70
     1
102
RTVSPost2010Prop56
140
1.0
102
RTVSPost2010PropOp56
 70
     1
102
RTVSPost2010Prop57
140
1.0
102
RTVSPost2010PropOp57
 70
     1
  0
XRECORD
  5
841
102
{ACAD_REACTORS
330
840
102
}
330
840
100
AcDbXrecord
280
     1
102
RTVSPropertyOp0
 70
     1
102
RTVSPropertyOp1
 70
     1
102
RTVSPropertyOp2
 70
     1
102
RTVSPropertyOp3
 70
     1
102
RTVSPropertyOp4
 70
     1
102
RTVSPropertyOp5
 70
     1
102
RTVSPropertyOp6
 70
     1
102
RTVSPropertyOp7
 70
     1
102
RTVSPropertyOp8
 70
     1
102
RTVSPropertyOp9
 70
     1
102
RTVSPropertyOp10
 70
     1
102
RTVSPropertyOp11
 70
     1
102
RTVSPropertyOp12
 70
     1
102
RTVSPropertyOp13
 70
     1
102
RTVSPropertyOp14
 70
     1
102
RTVSPropertyOp15
 70
     1
102
RTVSPropertyOp16
 70
     1
102
RTVSPropertyOp17
 70
     1
102
RTVSPropertyOp18
 70
     1
102
RTVSPropertyOp19
 70
     1
102
RTVSPropertyOp20
 70
     1
102
RTVSPropertyOp21
 70
     1
102
RTVSPropertyOp22
 70
     1
102
RTVSPropertyOp23
 70
     1
102
RTVSPropertyOp24
 70
     1
102
RTVSPropertyOp25
 70
     1
102
RTVSPropertyOp26
 70
     1
102
RTVSPropertyOp27
 70
     1
102
RTVSPropertyOp28
 70
     1
102
RTVSPropertyOp29
 70
     1
102
RTVSPropertyOp30
 70
     1
102
RTVSPropertyOp31
 70
     1
102
RTVSPropertyOp32
 70
     1
102
RTVSPropertyOp33
 70
     1
102
RTVSPropertyOp34
 70
     1
102
RTVSPropertyOp35
 70
     1
102
RTVSPropertyOp36
 70
     1
102
RTVSPropertyOp37
 70
     1
102
RTVSPropertyOp38
 70
     1
102
RTVSPropertyOp39
 70
     1
102
RTVSPropertyOp40
 70
     1
102
RTVSPropertyOp41
 70
     1
102
RTVSPropertyOp42
 70
     1
102
RTVSPropertyOp43
 70
     1
102
RTVSPropertyOp44
 70
     1
102
RTVSPropertyOp45
 70
     1
102
RTVSPropertyOp46
 70
     1
102
RTVSPropertyOp47
 70
     1
102
RTVSPropertyOp48
 70
     1
102
RTVSPropertyOp49
 70
     1
102
RTVSPropertyOp50
 70
     1
102
RTVSPropertyOp51
 70
     0
102
RTVSPropertyOp52
 70
     0
102
RTVSPropertyOp53
 70
     1
102
RTVSPropertyOp54
 70
     1
102
RTVSPropertyOp55
 70
     1
102
RTVSPropertyOp56
 70
     1
102
RTVSPropertyOp57
 70
     1
102
RTVSPost2010Prop28
280
     0
102
RTVSPost2010PropOp28
 70
     1
102
RTVSPost2010Prop29
280
     1
102
RTVSPost2010PropOp29
 70
     1
102
RTVSPost2010Prop30
280
     1
102
RTVSPost2010PropOp30
 70
     1
102
RTVSPost2010Prop31
280
     0
102
RTVSPost2010PropOp31
 70
     1
102
RTVSPost2010Prop32
280
     0
102
RTVSPost2010PropOp32
 70
     1
102
RTVSPost2010Prop33
280
     0
102
RTVSPost2010PropOp33
 70
     1
102
RTVSPost2010Prop34
280
     0
102
RTVSPost2010PropOp34
 70
     1
102
RTVSPost2010Prop35
280
     0
102
RTVSPost2010PropOp35
 70
     1
102
RTVSPost2010Prop36
280
     0
102
RTVSPost2010PropOp36
 70
     1
102
RTVSPost2010Prop37
 90
       50
102
RTVSPost2010PropOp37
 70
     1
102
RTVSPost2010Prop38
140
0.0
102
RTVSPost2010PropOp38
 70
     1
102
RTVSPost2010Prop39
140
1.0
102
RTVSPost2010PropOp39
 70
     1
102
RTVSPost2010Prop40
 90
        0
102
RTVSPost2010PropOp40
 70
     1
102
RTVSPost2010Prop41ColorIndex
 90
       18
102
RTVSPost2010Prop41ColorRGB
 90
        0
102
RTVSPost2010PropOp41
 70
     1
102
RTVSPost2010Prop42
 90
       50
102
RTVSPost2010PropOp42
 70
     1
102
RTVSPost2010Prop43
 90
        3
102
RTVSPost2010PropOp43
 70
     1
102
RTVSPost2010Prop44ColorIndex
 90
        5
102
RTVSPost2010Prop44ColorRGB
 90
      255
102
RTVSPost2010PropOp44
 70
     1
102
RTVSPost2010Prop45
280
     0
102
RTVSPost2010PropOp45
 70
     1
102
RTVSPost2010Prop46
 90
       50
102
RTVSPost2010PropOp46
 70
     1
102
RTVSPost2010Prop47
 90
       50
102
RTVSPost2010PropOp47
 70
     1
102
RTVSPost2010Prop48
 90
       50
102
RTVSPost2010PropOp48
 70
     1
102
RTVSPost2010Prop49
280
     0
102
RTVSPost2010PropOp49
 70
     1
102
RTVSPost2010Prop50
 90
       50
102
RTVSPost2010PropOp50
 70
     1
102
RTVSPost2010Prop51ColorIndex
 90
      256
102
RTVSPost2010Prop51ColorRGB
 90
-16777216
102
RTVSPost2010PropOp51
 70
     0
102
RTVSPost2010Prop52
140
1.0
102
RTVSPost2010PropOp52
 70
     0
102
RTVSPost2010Prop53
 90
        2
102
RTVSPost2010PropOp53
 70
     1
102
RTVSPost2010Prop54
  1
strokes_ogs.tif
102
RTVSPost2010PropOp54
 70
     1
102
RTVSPost2010Prop55
280
     0
102
RTVSPost2010PropOp55
 70
     1
102
RTVSPost2010Prop56
140
1.0
102
RTVSPost2010PropOp56
 70
     1
102
RTVSPost2010Prop57
140
1.0
102
RTVSPost2010PropOp57
 70
     1
  0
XRECORD
  5
843
102
{ACAD_REACTORS
330
842
102
}
330
842
100
AcDbXrecord
280
     1
102
RTVSPropertyOp0
 70
     1
102
RTVSPropertyOp1
 70
     1
102
RTVSPropertyOp2
 70
     1
102
RTVSPropertyOp3
 70
     1
102
RTVSPropertyOp4
 70
     1
102
RTVSPropertyOp5
 70
     1
102
RTVSPropertyOp6
 70
     1
102
RTVSPropertyOp7
 70
     1
102
RTVSPropertyOp8
 70
     1
102
RTVSPropertyOp9
 70
     1
102
RTVSPropertyOp10
 70
     1
102
RTVSPropertyOp11
 70
     1
102
RTVSPropertyOp12
 70
     1
102
RTVSPropertyOp13
 70
     1
102
RTVSPropertyOp14
 70
     1
102
RTVSPropertyOp15
 70
     1
102
RTVSPropertyOp16
 70
     1
102
RTVSPropertyOp17
 70
     1
102
RTVSPropertyOp18
 70
     1
102
RTVSPropertyOp19
 70
     1
102
RTVSPropertyOp20
 70
     1
102
RTVSPropertyOp21
 70
     1
102
RTVSPropertyOp22
 70
     1
102
RTVSPropertyOp23
 70
     1
102
RTVSPropertyOp24
 70
     1
102
RTVSPropertyOp25
 70
     1
102
RTVSPropertyOp26
 70
     1
102
RTVSPropertyOp27
 70
     1
102
RTVSPropertyOp28
 70
     1
102
RTVSPropertyOp29
 70
     1
102
RTVSPropertyOp30
 70
     1
102
RTVSPropertyOp31
 70
     1
102
RTVSPropertyOp32
 70
     1
102
RTVSPropertyOp33
 70
     1
102
RTVSPropertyOp34
 70
     1
102
RTVSPropertyOp35
 70
     1
102
RTVSPropertyOp36
 70
     1
102
RTVSPropertyOp37
 70
     1
102
RTVSPropertyOp38
 70
     1
102
RTVSPropertyOp39
 70
     1
102
RTVSPropertyOp40
 70
     1
102
RTVSPropertyOp41
 70
     1
102
RTVSPropertyOp42
 70
     1
102
RTVSPropertyOp43
 70
     1
102
RTVSPropertyOp44
 70
     1
102
RTVSPropertyOp45
 70
     1
102
RTVSPropertyOp46
 70
     1
102
RTVSPropertyOp47
 70
     1
102
RTVSPropertyOp48
 70
     1
102
RTVSPropertyOp49
 70
     1
102
RTVSPropertyOp50
 70
     1
102
RTVSPropertyOp51
 70
     0
102
RTVSPropertyOp52
 70
     0
102
RTVSPropertyOp53
 70
     1
102
RTVSPropertyOp54
 70
     1
102
RTVSPropertyOp55
 70
     1
102
RTVSPropertyOp56
 70
     1
102
RTVSPropertyOp57
 70
     1
102
RTVSPost2010Prop28
280
     0
102
RTVSPost2010PropOp28
 70
     1
102
RTVSPost2010Prop29
280
     1
102
RTVSPost2010PropOp29
 70
     1
102
RTVSPost2010Prop30
280
     1
102
RTVSPost2010PropOp30
 70
     1
102
RTVSPost2010Prop31
280
     0
102
RTVSPost2010PropOp31
 70
     1
102
RTVSPost2010Prop32
280
     0
102
RTVSPost2010PropOp32
 70
     1
102
RTVSPost2010Prop33
280
     0
102
RTVSPost2010PropOp33
 70
     1
102
RTVSPost2010Prop34
280
     0
102
RTVSPost2010PropOp34
 70
     1
102
RTVSPost2010Prop35
280
     0
102
RTVSPost2010PropOp35
 70
     1
102
RTVSPost2010Prop36
280
     0
102
RTVSPost2010PropOp36
 70
     1
102
RTVSPost2010Prop37
 90
       50
102
RTVSPost2010PropOp37
 70
     1
102
RTVSPost2010Prop38
140
0.0
102
RTVSPost2010PropOp38
 70
     1
102
RTVSPost2010Prop39
140
1.0
102
RTVSPost2010PropOp39
 70
     1
102
RTVSPost2010Prop40
 90
        0
102
RTVSPost2010PropOp40
 70
     1
102
RTVSPost2010Prop41ColorIndex
 90
       18
102
RTVSPost2010Prop41ColorRGB
 90
        0
102
RTVSPost2010PropOp41
 70
     1
102
RTVSPost2010Prop42
 90
       50
102
RTVSPost2010PropOp42
 70
     1
102
RTVSPost2010Prop43
 90
        3
102
RTVSPost2010PropOp43
 70
     1
102
RTVSPost2010Prop44ColorIndex
 90
        5
102
RTVSPost2010Prop44ColorRGB
 90
      255
102
RTVSPost2010PropOp44
 70
     1
102
RTVSPost2010Prop45
280
     0
102
RTVSPost2010PropOp45
 70
     1
102
RTVSPost2010Prop46
 90
       50
102
RTVSPost2010PropOp46
 70
     1
102
RTVSPost2010Prop47
 90
       50
102
RTVSPost2010PropOp47
 70
     1
102
RTVSPost2010Prop48
 90
       50
102
RTVSPost2010PropOp48
 70
     1
102
RTVSPost2010Prop49
280
     0
102
RTVSPost2010PropOp49
 70
     1
102
RTVSPost2010Prop50
 90
       50
102
RTVSPost2010PropOp50
 70
     1
102
RTVSPost2010Prop51ColorIndex
 90
      256
102
RTVSPost2010Prop51ColorRGB
 90
-16777216
102
RTVSPost2010PropOp51
 70
     0
102
RTVSPost2010Prop52
140
1.0
102
RTVSPost2010PropOp52
 70
     0
102
RTVSPost2010Prop53
 90
        2
102
RTVSPost2010PropOp53
 70
     1
102
RTVSPost2010Prop54
  1
strokes_ogs.tif
102
RTVSPost2010PropOp54
 70
     1
102
RTVSPost2010Prop55
280
     0
102
RTVSPost2010PropOp55
 70
     1
102
RTVSPost2010Prop56
140
1.0
102
RTVSPost2010PropOp56
 70
     1
102
RTVSPost2010Prop57
140
1.0
102
RTVSPost2010PropOp57
 70
     1
  0
XRECORD
  5
833
102
{ACAD_REACTORS
330
832
102
}
330
832
100
AcDbXrecord
280
     1
102
RTVSPropertyOp0
 70
     1
102
RTVSPropertyOp1
 70
     1
102
RTVSPropertyOp2
 70
     1
102
RTVSPropertyOp3
 70
     1
102
RTVSPropertyOp4
 70
     1
102
RTVSPropertyOp5
 70
     1
102
RTVSPropertyOp6
 70
     1
102
RTVSPropertyOp7
 70
     1
102
RTVSPropertyOp8
 70
     1
102
RTVSPropertyOp9
 70
     1
102
RTVSPropertyOp10
 70
     1
102
RTVSPropertyOp11
 70
     1
102
RTVSPropertyOp12
 70
     1
102
RTVSPropertyOp13
 70
     1
102
RTVSPropertyOp14
 70
     1
102
RTVSPropertyOp15
 70
     1
102
RTVSPropertyOp16
 70
     1
102
RTVSPropertyOp17
 70
     1
102
RTVSPropertyOp18
 70
     1
102
RTVSPropertyOp19
 70
     1
102
RTVSPropertyOp20
 70
     1
102
RTVSPropertyOp21
 70
     1
102
RTVSPropertyOp22
 70
     1
102
RTVSPropertyOp23
 70
     1
102
RTVSPropertyOp24
 70
     1
102
RTVSPropertyOp25
 70
     1
102
RTVSPropertyOp26
 70
     1
102
RTVSPropertyOp27
 70
     1
102
RTVSPropertyOp28
 70
     1
102
RTVSPropertyOp29
 70
     1
102
RTVSPropertyOp30
 70
     1
102
RTVSPropertyOp31
 70
     1
102
RTVSPropertyOp32
 70
     1
102
RTVSPropertyOp33
 70
     1
102
RTVSPropertyOp34
 70
     1
102
RTVSPropertyOp35
 70
     1
102
RTVSPropertyOp36
 70
     1
102
RTVSPropertyOp37
 70
     1
102
RTVSPropertyOp38
 70
     1
102
RTVSPropertyOp39
 70
     1
102
RTVSPropertyOp40
 70
     1
102
RTVSPropertyOp41
 70
     1
102
RTVSPropertyOp42
 70
     1
102
RTVSPropertyOp43
 70
     1
102
RTVSPropertyOp44
 70
     1
102
RTVSPropertyOp45
 70
     1
102
RTVSPropertyOp46
 70
     1
102
RTVSPropertyOp47
 70
     1
102
RTVSPropertyOp48
 70
     1
102
RTVSPropertyOp49
 70
     1
102
RTVSPropertyOp50
 70
     1
102
RTVSPropertyOp51
 70
     0
102
RTVSPropertyOp52
 70
     0
102
RTVSPropertyOp53
 70
     1
102
RTVSPropertyOp54
 70
     1
102
RTVSPropertyOp55
 70
     1
102
RTVSPropertyOp56
 70
     1
102
RTVSPropertyOp57
 70
     1
102
RTVSPost2010Prop28
280
     0
102
RTVSPost2010PropOp28
 70
     1
102
RTVSPost2010Prop29
280
     1
102
RTVSPost2010PropOp29
 70
     1
102
RTVSPost2010Prop30
280
     1
102
RTVSPost2010PropOp30
 70
     1
102
RTVSPost2010Prop31
280
     0
102
RTVSPost2010PropOp31
 70
     1
102
RTVSPost2010Prop32
280
     0
102
RTVSPost2010PropOp32
 70
     1
102
RTVSPost2010Prop33
280
     0
102
RTVSPost2010PropOp33
 70
     1
102
RTVSPost2010Prop34
280
     0
102
RTVSPost2010PropOp34
 70
     1
102
RTVSPost2010Prop35
280
     0
102
RTVSPost2010PropOp35
 70
     1
102
RTVSPost2010Prop36
280
     0
102
RTVSPost2010PropOp36
 70
     1
102
RTVSPost2010Prop37
 90
       50
102
RTVSPost2010PropOp37
 70
     1
102
RTVSPost2010Prop38
140
0.0
102
RTVSPost2010PropOp38
 70
     1
102
RTVSPost2010Prop39
140
1.0
102
RTVSPost2010PropOp39
 70
     1
102
RTVSPost2010Prop40
 90
        0
102
RTVSPost2010PropOp40
 70
     1
102
RTVSPost2010Prop41ColorIndex
 90
       18
102
RTVSPost2010Prop41ColorRGB
 90
        0
102
RTVSPost2010PropOp41
 70
     1
102
RTVSPost2010Prop42
 90
       50
102
RTVSPost2010PropOp42
 70
     1
102
RTVSPost2010Prop43
 90
        3
102
RTVSPost2010PropOp43
 70
     1
102
RTVSPost2010Prop44ColorIndex
 90
        5
102
RTVSPost2010Prop44ColorRGB
 90
      255
102
RTVSPost2010PropOp44
 70
     1
102
RTVSPost2010Prop45
280
     0
102
RTVSPost2010PropOp45
 70
     1
102
RTVSPost2010Prop46
 90
       50
102
RTVSPost2010PropOp46
 70
     1
102
RTVSPost2010Prop47
 90
       50
102
RTVSPost2010PropOp47
 70
     1
102
RTVSPost2010Prop48
 90
       50
102
RTVSPost2010PropOp48
 70
     1
102
RTVSPost2010Prop49
280
     0
102
RTVSPost2010PropOp49
 70
     1
102
RTVSPost2010Prop50
 90
       50
102
RTVSPost2010PropOp50
 70
     1
102
RTVSPost2010Prop51ColorIndex
 90
      256
102
RTVSPost2010Prop51ColorRGB
 90
-16777216
102
RTVSPost2010PropOp51
 70
     0
102
RTVSPost2010Prop52
140
1.0
102
RTVSPost2010PropOp52
 70
     0
102
RTVSPost2010Prop53
 90
        2
102
RTVSPost2010PropOp53
 70
     1
102
RTVSPost2010Prop54
  1
strokes_ogs.tif
102
RTVSPost2010PropOp54
 70
     1
102
RTVSPost2010Prop55
280
     0
102
RTVSPost2010PropOp55
 70
     1
102
RTVSPost2010Prop56
140
1.0
102
RTVSPost2010PropOp56
 70
     1
102
RTVSPost2010Prop57
140
1.0
102
RTVSPost2010PropOp57
 70
     1
  0
XRECORD
  5
825
102
{ACAD_REACTORS
330
824
102
}
330
824
100
AcDbXrecord
280
     1
102
RTVSPropertyOp0
 70
     1
102
RTVSPropertyOp1
 70
     1
102
RTVSPropertyOp2
 70
     1
102
RTVSPropertyOp3
 70
     1
102
RTVSPropertyOp4
 70
     1
102
RTVSPropertyOp5
 70
     1
102
RTVSPropertyOp6
 70
     1
102
RTVSPropertyOp7
 70
     1
102
RTVSPropertyOp8
 70
     1
102
RTVSPropertyOp9
 70
     1
102
RTVSPropertyOp10
 70
     1
102
RTVSPropertyOp11
 70
     1
102
RTVSPropertyOp12
 70
     1
102
RTVSPropertyOp13
 70
     1
102
RTVSPropertyOp14
 70
     1
102
RTVSPropertyOp15
 70
     1
102
RTVSPropertyOp16
 70
     1
102
RTVSPropertyOp17
 70
     1
102
RTVSPropertyOp18
 70
     1
102
RTVSPropertyOp19
 70
     1
102
RTVSPropertyOp20
 70
     1
102
RTVSPropertyOp21
 70
     1
102
RTVSPropertyOp22
 70
     1
102
RTVSPropertyOp23
 70
     1
102
RTVSPropertyOp24
 70
     1
102
RTVSPropertyOp25
 70
     1
102
RTVSPropertyOp26
 70
     1
102
RTVSPropertyOp27
 70
     1
102
RTVSPropertyOp28
 70
     1
102
RTVSPropertyOp29
 70
     1
102
RTVSPropertyOp30
 70
     1
102
RTVSPropertyOp31
 70
     1
102
RTVSPropertyOp32
 70
     1
102
RTVSPropertyOp33
 70
     1
102
RTVSPropertyOp34
 70
     1
102
RTVSPropertyOp35
 70
     1
102
RTVSPropertyOp36
 70
     1
102
RTVSPropertyOp37
 70
     1
102
RTVSPropertyOp38
 70
     1
102
RTVSPropertyOp39
 70
     1
102
RTVSPropertyOp40
 70
     1
102
RTVSPropertyOp41
 70
     1
102
RTVSPropertyOp42
 70
     1
102
RTVSPropertyOp43
 70
     1
102
RTVSPropertyOp44
 70
     1
102
RTVSPropertyOp45
 70
     1
102
RTVSPropertyOp46
 70
     1
102
RTVSPropertyOp47
 70
     1
102
RTVSPropertyOp48
 70
     1
102
RTVSPropertyOp49
 70
     1
102
RTVSPropertyOp50
 70
     1
102
RTVSPropertyOp51
 70
     0
102
RTVSPropertyOp52
 70
     0
102
RTVSPropertyOp53
 70
     1
102
RTVSPropertyOp54
 70
     1
102
RTVSPropertyOp55
 70
     1
102
RTVSPropertyOp56
 70
     1
102
RTVSPropertyOp57
 70
     1
102
RTVSPost2010Prop28
280
     0
102
RTVSPost2010PropOp28
 70
     1
102
RTVSPost2010Prop29
280
     1
102
RTVSPost2010PropOp29
 70
     1
102
RTVSPost2010Prop30
280
     1
102
RTVSPost2010PropOp30
 70
     1
102
RTVSPost2010Prop31
280
     0
102
RTVSPost2010PropOp31
 70
     1
102
RTVSPost2010Prop32
280
     0
102
RTVSPost2010PropOp32
 70
     1
102
RTVSPost2010Prop33
280
     0
102
RTVSPost2010PropOp33
 70
     1
102
RTVSPost2010Prop34
280
     0
102
RTVSPost2010PropOp34
 70
     1
102
RTVSPost2010Prop35
280
     0
102
RTVSPost2010PropOp35
 70
     1
102
RTVSPost2010Prop36
280
     0
102
RTVSPost2010PropOp36
 70
     1
102
RTVSPost2010Prop37
 90
       50
102
RTVSPost2010PropOp37
 70
     1
102
RTVSPost2010Prop38
140
0.0
102
RTVSPost2010PropOp38
 70
     1
102
RTVSPost2010Prop39
140
1.0
102
RTVSPost2010PropOp39
 70
     1
102
RTVSPost2010Prop40
 90
        0
102
RTVSPost2010PropOp40
 70
     1
102
RTVSPost2010Prop41ColorIndex
 90
       18
102
RTVSPost2010Prop41ColorRGB
 90
        0
102
RTVSPost2010PropOp41
 70
     1
102
RTVSPost2010Prop42
 90
       50
102
RTVSPost2010PropOp42
 70
     1
102
RTVSPost2010Prop43
 90
        3
102
RTVSPost2010PropOp43
 70
     1
102
RTVSPost2010Prop44ColorIndex
 90
        5
102
RTVSPost2010Prop44ColorRGB
 90
      255
102
RTVSPost2010PropOp44
 70
     1
102
RTVSPost2010Prop45
280
     0
102
RTVSPost2010PropOp45
 70
     1
102
RTVSPost2010Prop46
 90
       50
102
RTVSPost2010PropOp46
 70
     1
102
RTVSPost2010Prop47
 90
       50
102
RTVSPost2010PropOp47
 70
     1
102
RTVSPost2010Prop48
 90
       50
102
RTVSPost2010PropOp48
 70
     1
102
RTVSPost2010Prop49
280
     0
102
RTVSPost2010PropOp49
 70
     1
102
RTVSPost2010Prop50
 90
       50
102
RTVSPost2010PropOp50
 70
     1
102
RTVSPost2010Prop51ColorIndex
 90
      256
102
RTVSPost2010Prop51ColorRGB
 90
-16777216
102
RTVSPost2010PropOp51
 70
     0
102
RTVSPost2010Prop52
140
1.0
102
RTVSPost2010PropOp52
 70
     0
102
RTVSPost2010Prop53
 90
        2
102
RTVSPost2010PropOp53
 70
     1
102
RTVSPost2010Prop54
  1
strokes_ogs.tif
102
RTVSPost2010PropOp54
 70
     1
102
RTVSPost2010Prop55
280
     0
102
RTVSPost2010PropOp55
 70
     1
102
RTVSPost2010Prop56
140
1.0
102
RTVSPost2010PropOp56
 70
     1
102
RTVSPost2010Prop57
140
1.0
102
RTVSPost2010PropOp57
 70
     1
  0
XRECORD
  5
845
102
{ACAD_REACTORS
330
844
102
}
330
844
100
AcDbXrecord
280
     1
102
RTVSPropertyOp0
 70
     1
102
RTVSPropertyOp1
 70
     1
102
RTVSPropertyOp2
 70
     1
102
RTVSPropertyOp3
 70
     1
102
RTVSPropertyOp4
 70
     1
102
RTVSPropertyOp5
 70
     1
102
RTVSPropertyOp6
 70
     1
102
RTVSPropertyOp7
 70
     1
102
RTVSPropertyOp8
 70
     1
102
RTVSPropertyOp9
 70
     1
102
RTVSPropertyOp10
 70
     1
102
RTVSPropertyOp11
 70
     1
102
RTVSPropertyOp12
 70
     1
102
RTVSPropertyOp13
 70
     1
102
RTVSPropertyOp14
 70
     1
102
RTVSPropertyOp15
 70
     1
102
RTVSPropertyOp16
 70
     1
102
RTVSPropertyOp17
 70
     1
102
RTVSPropertyOp18
 70
     1
102
RTVSPropertyOp19
 70
     1
102
RTVSPropertyOp20
 70
     1
102
RTVSPropertyOp21
 70
     1
102
RTVSPropertyOp22
 70
     1
102
RTVSPropertyOp23
 70
     1
102
RTVSPropertyOp24
 70
     1
102
RTVSPropertyOp25
 70
     1
102
RTVSPropertyOp26
 70
     1
102
RTVSPropertyOp27
 70
     1
102
RTVSPropertyOp28
 70
     1
102
RTVSPropertyOp29
 70
     1
102
RTVSPropertyOp30
 70
     1
102
RTVSPropertyOp31
 70
     1
102
RTVSPropertyOp32
 70
     1
102
RTVSPropertyOp33
 70
     1
102
RTVSPropertyOp34
 70
     1
102
RTVSPropertyOp35
 70
     1
102
RTVSPropertyOp36
 70
     1
102
RTVSPropertyOp37
 70
     1
102
RTVSPropertyOp38
 70
     1
102
RTVSPropertyOp39
 70
     1
102
RTVSPropertyOp40
 70
     1
102
RTVSPropertyOp41
 70
     1
102
RTVSPropertyOp42
 70
     1
102
RTVSPropertyOp43
 70
     1
102
RTVSPropertyOp44
 70
     1
102
RTVSPropertyOp45
 70
     1
102
RTVSPropertyOp46
 70
     1
102
RTVSPropertyOp47
 70
     1
102
RTVSPropertyOp48
 70
     1
102
RTVSPropertyOp49
 70
     1
102
RTVSPropertyOp50
 70
     1
102
RTVSPropertyOp51
 70
     0
102
RTVSPropertyOp52
 70
     0
102
RTVSPropertyOp53
 70
     1
102
RTVSPropertyOp54
 70
     1
102
RTVSPropertyOp55
 70
     1
102
RTVSPropertyOp56
 70
     1
102
RTVSPropertyOp57
 70
     1
102
RTVSPost2010Prop28
280
     0
102
RTVSPost2010PropOp28
 70
     1
102
RTVSPost2010Prop29
280
     1
102
RTVSPost2010PropOp29
 70
     1
102
RTVSPost2010Prop30
280
     1
102
RTVSPost2010PropOp30
 70
     1
102
RTVSPost2010Prop31
280
     0
102
RTVSPost2010PropOp31
 70
     1
102
RTVSPost2010Prop32
280
     0
102
RTVSPost2010PropOp32
 70
     1
102
RTVSPost2010Prop33
280
     0
102
RTVSPost2010PropOp33
 70
     1
102
RTVSPost2010Prop34
280
     0
102
RTVSPost2010PropOp34
 70
     1
102
RTVSPost2010Prop35
280
     0
102
RTVSPost2010PropOp35
 70
     1
102
RTVSPost2010Prop36
280
     0
102
RTVSPost2010PropOp36
 70
     1
102
RTVSPost2010Prop37
 90
       50
102
RTVSPost2010PropOp37
 70
     1
102
RTVSPost2010Prop38
140
0.0
102
RTVSPost2010PropOp38
 70
     1
102
RTVSPost2010Prop39
140
1.0
102
RTVSPost2010PropOp39
 70
     1
102
RTVSPost2010Prop40
 90
        0
102
RTVSPost2010PropOp40
 70
     1
102
RTVSPost2010Prop41ColorIndex
 90
       18
102
RTVSPost2010Prop41ColorRGB
 90
        0
102
RTVSPost2010PropOp41
 70
     1
102
RTVSPost2010Prop42
 90
       50
102
RTVSPost2010PropOp42
 70
     1
102
RTVSPost2010Prop43
 90
        3
102
RTVSPost2010PropOp43
 70
     1
102
RTVSPost2010Prop44ColorIndex
 90
        5
102
RTVSPost2010Prop44ColorRGB
 90
      255
102
RTVSPost2010PropOp44
 70
     1
102
RTVSPost2010Prop45
280
     0
102
RTVSPost2010PropOp45
 70
     1
102
RTVSPost2010Prop46
 90
       50
102
RTVSPost2010PropOp46
 70
     1
102
RTVSPost2010Prop47
 90
       50
102
RTVSPost2010PropOp47
 70
     1
102
RTVSPost2010Prop48
 90
       50
102
RTVSPost2010PropOp48
 70
     1
102
RTVSPost2010Prop49
280
     0
102
RTVSPost2010PropOp49
 70
     1
102
RTVSPost2010Prop50
 90
       50
102
RTVSPost2010PropOp50
 70
     1
102
RTVSPost2010Prop51ColorIndex
 90
      256
102
RTVSPost2010Prop51ColorRGB
 90
-16777216
102
RTVSPost2010PropOp51
 70
     0
102
RTVSPost2010Prop52
140
1.0
102
RTVSPost2010PropOp52
 70
     0
102
RTVSPost2010Prop53
 90
        2
102
RTVSPost2010PropOp53
 70
     1
102
RTVSPost2010Prop54
  1
strokes_ogs.tif
102
RTVSPost2010PropOp54
 70
     1
102
RTVSPost2010Prop55
280
     0
102
RTVSPost2010PropOp55
 70
     1
102
RTVSPost2010Prop56
140
1.0
102
RTVSPost2010PropOp56
 70
     1
102
RTVSPost2010Prop57
140
1.0
102
RTVSPost2010PropOp57
 70
     1
  0
ENDSEC
  0
EOF
