  0
SECTION
  2
HEADER
  9
$ACADVER
  1
AC1021
  9
$ACADMAINTVER
 70
    25
  9
$DWGCODEPAGE
  3
ANSI_936
  9
$INSBASE
 10
0.0
 20
0.0
 30
0.0
  9
$EXTMIN
 10
-10.6119
 20
-8.14135
 30
0.0
  9
$EXTMAX
 10
10.48959
 20
9.94674
 30
0.0
  9
$LIMMIN
 10
0.0
 20
0.0
  9
$LIMMAX
 10
12.0
 20
9.0
  9
$ORTHOMODE
 70
     0
  9
$REGENMODE
 70
     1
  9
$FILLMODE
 70
     1
  9
$QTEXTMODE
 70
     0
  9
$MIRRTEXT
 70
     1
  9
$LTSCALE
 40
1.0
  9
$ATTMODE
 70
     1
  9
$TEXTSIZE
 40
0.2
  9
$TRACEWID
 40
0.05
  9
$TEXTSTYLE
  7
Standard
  9
$CLAYER
  8
0
  9
$CELTYPE
  6
ByLayer
  9
$CECOLOR
 62
   256
  9
$CELTSCALE
 40
1.0
  9
$DISPSILH
 70
     0
  9
$DIMSCALE
 40
1.0
  9
$DIMASZ
 40
0.18
  9
$DIMEXO
 40
0.0625
  9
$DIMDLI
 40
0.38
  9
$DIMRND
 40
0.0
  9
$DIMDLE
 40
0.0
  9
$DIMEXE
 40
0.18
  9
$DIMTP
 40
0.0
  9
$DIMTM
 40
0.0
  9
$DIMTXT
 40
0.18
  9
$DIMCEN
 40
0.09
  9
$DIMTSZ
 40
0.0
  9
$DIMTOL
 70
     0
  9
$DIMLIM
 70
     0
  9
$DIMTIH
 70
     1
  9
$DIMTOH
 70
     1
  9
$DIMSE1
 70
     0
  9
$DIMSE2
 70
     0
  9
$DIMTAD
 70
     0
  9
$DIMZIN
 70
     0
  9
$DIMBLK
  1

  9
$DIMASO
 70
     1
  9
$DIMSHO
 70
     1
  9
$DIMPOST
  1

  9
$DIMAPOST
  1

  9
$DIMALT
 70
     0
  9
$DIMALTD
 70
     2
  9
$DIMALTF
 40
25.4
  9
$DIMLFAC
 40
1.0
  9
$DIMTOFL
 70
     0
  9
$DIMTVP
 40
0.0
  9
$DIMTIX
 70
     0
  9
$DIMSOXD
 70
     0
  9
$DIMSAH
 70
     0
  9
$DIMBLK1
  1

  9
$DIMBLK2
  1

  9
$DIMSTYLE
  2
Standard
  9
$DIMCLRD
 70
     0
  9
$DIMCLRE
 70
     0
  9
$DIMCLRT
 70
     0
  9
$DIMTFAC
 40
1.0
  9
$DIMGAP
 40
0.09
  9
$DIMJUST
 70
     0
  9
$DIMSD1
 70
     0
  9
$DIMSD2
 70
     0
  9
$DIMTOLJ
 70
     1
  9
$DIMTZIN
 70
     0
  9
$DIMALTZ
 70
     0
  9
$DIMALTTZ
 70
     0
  9
$DIMUPT
 70
     0
  9
$DIMDEC
 70
     4
  9
$DIMTDEC
 70
     4
  9
$DIMALTU
 70
     2
  9
$DIMALTTD
 70
     2
  9
$DIMTXSTY
  7
Standard
  9
$DIMAUNIT
 70
     0
  9
$DIMADEC
 70
     0
  9
$DIMALTRND
 40
0.0
  9
$DIMAZIN
 70
     0
  9
$DIMDSEP
 70
    46
  9
$DIMATFIT
 70
     3
  9
$DIMFRAC
 70
     0
  9
$DIMLDRBLK
  1

  9
$DIMLUNIT
 70
     2
  9
$DIMLWD
 70
    -2
  9
$DIMLWE
 70
    -2
  9
$DIMTMOVE
 70
     0
  9
$DIMFXL
 40
1.0
  9
$DIMFXLON
 70
     0
  9
$DIMJOGANG
 40
0.7853981633974483
  9
$DIMTFILL
 70
     0
  9
$DIMTFILLCLR
 70
     0
  9
$DIMARCSYM
 70
     0
  9
$DIMLTYPE
  6

  9
$DIMLTEX1
  6

  9
$DIMLTEX2
  6

  9
$LUNITS
 70
     2
  9
$LUPREC
 70
     4
  9
$SKETCHINC
 40
0.1
  9
$FILLETRAD
 40
0.5
  9
$AUNITS
 70
     0
  9
$AUPREC
 70
     0
  9
$MENU
  1
.
  9
$ELEVATION
 40
0.0
  9
$PELEVATION
 40
0.0
  9
$THICKNESS
 40
0.0
  9
$LIMCHECK
 70
     0
  9
$CHAMFERA
 40
0.5
  9
$CHAMFERB
 40
0.5
  9
$CHAMFERC
 40
1.0
  9
$CHAMFERD
 40
0.0
  9
$SKPOLY
 70
     0
  9
$TDCREATE
 40
2455663.620126227
  9
$TDUCREATE
 40
2455663.286792893
  9
$TDUPDATE
 40
2455663.620126239
  9
$TDUUPDATE
 40
2455663.286792905
  9
$TDINDWG
 40
0.0000000116
  9
$TDUSRTIMER
 40
0.0000000116
  9
$USRTIMER
 70
     1
  9
$ANGBASE
 50
0.0
  9
$ANGDIR
 70
     0
  9
$PDMODE
 70
     0
  9
$PDSIZE
 40
0.0
  9
$PLINEWID
 40
0.0
  9
$SPLFRAME
 70
     0
  9
$SPLINETYPE
 70
     6
  9
$SPLINESEGS
 70
     8
  9
$HANDSEED
  5
83
  9
$SURFTAB1
 70
     6
  9
$SURFTAB2
 70
     6
  9
$SURFTYPE
 70
     6
  9
$SURFU
 70
     6
  9
$SURFV
 70
     6
  9
$UCSBASE
  2

  9
$UCSNAME
  2

  9
$UCSORG
 10
0.0
 20
0.0
 30
0.0
  9
$UCSXDIR
 10
1.0
 20
0.0
 30
0.0
  9
$UCSYDIR
 10
0.0
 20
1.0
 30
0.0
  9
$UCSORTHOREF
  2

  9
$UCSORTHOVIEW
 70
     0
  9
$UCSORGTOP
 10
0.0
 20
0.0
 30
0.0
  9
$UCSORGBOTTOM
 10
0.0
 20
0.0
 30
0.0
  9
$UCSORGLEFT
 10
0.0
 20
0.0
 30
0.0
  9
$UCSORGRIGHT
 10
0.0
 20
0.0
 30
0.0
  9
$UCSORGFRONT
 10
0.0
 20
0.0
 30
0.0
  9
$UCSORGBACK
 10
0.0
 20
0.0
 30
0.0
  9
$PUCSBASE
  2

  9
$PUCSNAME
  2

  9
$PUCSORG
 10
0.0
 20
0.0
 30
0.0
  9
$PUCSXDIR
 10
1.0
 20
0.0
 30
0.0
  9
$PUCSYDIR
 10
0.0
 20
1.0
 30
0.0
  9
$PUCSORTHOREF
  2

  9
$PUCSORTHOVIEW
 70
     0
  9
$PUCSORGTOP
 10
0.0
 20
0.0
 30
0.0
  9
$PUCSORGBOTTOM
 10
0.0
 20
0.0
 30
0.0
  9
$PUCSORGLEFT
 10
0.0
 20
0.0
 30
0.0
  9
$PUCSORGRIGHT
 10
0.0
 20
0.0
 30
0.0
  9
$PUCSORGFRONT
 10
0.0
 20
0.0
 30
0.0
  9
$PUCSORGBACK
 10
0.0
 20
0.0
 30
0.0
  9
$USERI1
 70
     0
  9
$USERI2
 70
     0
  9
$USERI3
 70
     0
  9
$USERI4
 70
     0
  9
$USERI5
 70
     0
  9
$USERR1
 40
0.0
  9
$USERR2
 40
0.0
  9
$USERR3
 40
0.0
  9
$USERR4
 40
0.0
  9
$USERR5
 40
0.0
  9
$WORLDVIEW
 70
     1
  9
$SHADEDGE
 70
     3
  9
$SHADEDIF
 70
    70
  9
$TILEMODE
 70
     1
  9
$MAXACTVP
 70
    64
  9
$PINSBASE
 10
0.0
 20
0.0
 30
0.0
  9
$PLIMCHECK
 70
     0
  9
$PEXTMIN
 10
1.000000000000000E+20
 20
1.000000000000000E+20
 30
1.000000000000000E+20
  9
$PEXTMAX
 10
-1.000000000000000E+20
 20
-1.000000000000000E+20
 30
-1.000000000000000E+20
  9
$PLIMMIN
 10
0.0
 20
0.0
  9
$PLIMMAX
 10
12.0
 20
9.0
  9
$UNITMODE
 70
     0
  9
$VISRETAIN
 70
     1
  9
$PLINEGEN
 70
     0
  9
$PSLTSCALE
 70
     1
  9
$TREEDEPTH
 70
  3020
  9
$CMLSTYLE
  2
Standard
  9
$CMLJUST
 70
     0
  9
$CMLSCALE
 40
1.0
  9
$PROXYGRAPHICS
 70
     1
  9
$MEASUREMENT
 70
     0
  9
$CELWEIGHT
370
    -1
  9
$ENDCAPS
280
     0
  9
$JOINSTYLE
280
     0
  9
$LWDISPLAY
290
     0
  9
$INSUNITS
 70
     5
  9
$HYPERLINKBASE
  1

  9
$STYLESHEET
  1

  9
$XEDIT
290
     1
  9
$CEPSNTYPE
380
     0
  9
$PSTYLEMODE
290
     1
  9
$FINGERPRINTGUID
  2
{C85144E7-6DA0-4DB1-96B9-051CD3695C8B}
  9
$VERSIONGUID
  2
{FAEB1C32-E019-11D5-929B-00C0DF256EC4}
  9
$EXTNAMES
290
     1
  9
$PSVPSCALE
 40
0.0
  9
$OLESTARTUP
290
     0
  9
$SORTENTS
280
   127
  9
$INDEXCTL
280
     0
  9
$HIDETEXT
280
     1
  9
$XCLIPFRAME
290
     0
  9
$HALOGAP
280
     0
  9
$OBSCOLOR
 70
   257
  9
$OBSLTYPE
280
     0
  9
$INTERSECTIONDISPLAY
280
     0
  9
$INTERSECTIONCOLOR
 70
   257
  9
$DIMASSOC
280
     2
  9
$PROJECTNAME
  1

  9
$CAMERADISPLAY
290
     0
  9
$LENSLENGTH
 40
50.0
  9
$CAMERAHEIGHT
 40
0.0
  9
$STEPSPERSEC
 40
2.0
  9
$STEPSIZE
 40
6.0
  9
$3DDWFPREC
 40
2.0
  9
$PSOLWIDTH
 40
0.25
  9
$PSOLHEIGHT
 40
4.0
  9
$LOFTANG1
 40
1.570796326794897
  9
$LOFTANG2
 40
1.570796326794897
  9
$LOFTMAG1
 40
0.0
  9
$LOFTMAG2
 40
0.0
  9
$LOFTPARAM
 70
     7
  9
$LOFTNORMALS
280
     1
  9
$LATITUDE
 40
37.795
  9
$LONGITUDE
 40
-122.394
  9
$NORTHDIRECTION
 40
0.0
  9
$TIMEZONE
 70
 -8000
  9
$LIGHTGLYPHDISPLAY
280
     1
  9
$TILEMODELIGHTSYNCH
280
     1
  9
$SOLIDHIST
280
     1
  9
$SHOWHIST
280
     1
  9
$DWFFRAME
280
     2
  9
$DGNFRAME
280
     2
  9
$REALWORLDSCALE
290
     1
  9
$INTERFERECOLOR
 62
   256
  9
$CSHADOW
280
     0
  9
$SHADOWPLANELOCATION
 40
0.0
  0
ENDSEC
  0
SECTION
  2
CLASSES
  0
CLASS
  1
ACDBDICTIONARYWDFLT
  2
AcDbDictionaryWithDefault
  3
ObjectDBX Classes
 90
        0
 91
        3
280
     0
281
     0
  0
CLASS
  1
VISUALSTYLE
  2
AcDbVisualStyle
  3
ObjectDBX Classes
 90
     4095
 91
        3
280
     0
281
     0
  0
CLASS
  1
SCALE
  2
AcDbScale
  3
ObjectDBX Classes
 90
     1153
 91
        3
280
     0
281
     0
  0
ENDSEC
  0
SECTION
  2
TABLES
  0
TABLE
  2
VPORT
  5
8
330
0
100
AcDbSymbolTable
 70
     1
  0
VPORT
  5
29
330
8
100
AcDbSymbolTableRecord
100
AcDbViewportTableRecord
  2
*Active
 70
     0
 10
0.0
 20
0.0
 11
1.0
 21
1.0
 12
10.42990654205607
 22
4.5
 13
0.0
 23
0.0
 14
0.5
 24
0.5
 15
0.5
 25
0.5
 16
0.0
 26
0.0
 36
1.0
 17
0.0
 27
0.0
 37
0.0
 40
9.0
 41
1.972972972850329
 42
50.0
 43
0.0
 44
0.0
 50
0.0
 51
0.0
 71
     0
 72
   100
 73
     1
 74
     3
 75
     0
 76
     0
 77
     0
 78
     0
281
     0
 65
     1
110
0.0
120
0.0
130
0.0
111
1.0
121
0.0
131
0.0
112
0.0
122
1.0
132
0.0
 79
     0
146
0.0
 60
     3
 61
     5
292
     1
282
     1
141
0.0
142
0.0
 63
   256
  0
ENDTAB
  0
TABLE
  2
LTYPE
  5
5
330
0
100
AcDbSymbolTable
 70
     1
  0
LTYPE
  5
14
330
5
100
AcDbSymbolTableRecord
100
AcDbLinetypeTableRecord
  2
ByBlock
 70
     0
  3

 72
    65
 73
     0
 40
0.0
  0
LTYPE
  5
15
330
5
100
AcDbSymbolTableRecord
100
AcDbLinetypeTableRecord
  2
ByLayer
 70
     0
  3

 72
    65
 73
     0
 40
0.0
  0
LTYPE
  5
16
330
5
100
AcDbSymbolTableRecord
100
AcDbLinetypeTableRecord
  2
Continuous
 70
     0
  3
Solid line
 72
    65
 73
     0
 40
0.0
  0
ENDTAB
  0
TABLE
  2
LAYER
  5
2
330
0
100
AcDbSymbolTable
 70
     2
  0
LAYER
  5
10
330
2
100
AcDbSymbolTableRecord
100
AcDbLayerTableRecord
  2
0
 70
     0
 62
     7
  6
Continuous
370
    -3
390
F
347
0
  0
LAYER
  5
5E
330
2
100
AcDbSymbolTableRecord
100
AcDbLayerTableRecord
  2
layer 1
 70
     0
 62
     7
  6
Continuous
370
    -3
390
F
347
0
  0
ENDTAB
  0
TABLE
  2
STYLE
  5
3
330
0
100
AcDbSymbolTable
 70
     1
  0
STYLE
  5
11
330
3
100
AcDbSymbolTableRecord
100
AcDbTextStyleTableRecord
  2
Standard
 70
     0
 40
0.0
 41
1.0
 50
0.0
 71
     0
 42
0.2
  3
txt
  4

  0
ENDTAB
  0
TABLE
  2
VIEW
  5
6
330
0
100
AcDbSymbolTable
 70
     0
  0
ENDTAB
  0
TABLE
  2
UCS
  5
7
330
0
100
AcDbSymbolTable
 70
     0
  0
ENDTAB
  0
TABLE
  2
APPID
  5
9
330
0
100
AcDbSymbolTable
 70
     2
  0
APPID
  5
12
330
9
100
AcDbSymbolTableRecord
100
AcDbRegAppTableRecord
  2
ACAD
 70
     0
  0
APPID
  5
5D
330
9
100
AcDbSymbolTableRecord
100
AcDbRegAppTableRecord
  2
ODA
 70
     0
  0
ENDTAB
  0
TABLE
  2
DIMSTYLE
  5
A
330
0
100
AcDbSymbolTable
 70
     1
100
AcDbDimStyleTable
  0
DIMSTYLE
105
27
330
A
100
AcDbSymbolTableRecord
100
AcDbDimStyleTableRecord
  2
Standard
 70
     0
340
11
  0
ENDTAB
  0
TABLE
  2
BLOCK_RECORD
  5
1
330
0
100
AcDbSymbolTable
 70
     1
  0
BLOCK_RECORD
  5
1F
330
1
100
AcDbSymbolTableRecord
100
AcDbBlockTableRecord
  2
*Model_Space
340
22
 70
     0
280
     1
281
     0
  0
BLOCK_RECORD
  5
1B
330
1
100
AcDbSymbolTableRecord
100
AcDbBlockTableRecord
  2
*Paper_Space
340
1E
 70
     0
280
     1
281
     0
  0
BLOCK_RECORD
  5
23
330
1
100
AcDbSymbolTableRecord
100
AcDbBlockTableRecord
  2
*Paper_Space0
340
26
 70
     0
280
     1
281
     0
  0
ENDTAB
  0
ENDSEC
  0
SECTION
  2
BLOCKS
  0
BLOCK
  5
20
330
1F
100
AcDbEntity
  8
0
100
AcDbBlockBegin
  2
*Model_Space
 70
     0
 10
0.0
 20
0.0
 30
0.0
  3
*Model_Space
  1

  0
ENDBLK
  5
21
330
1F
100
AcDbEntity
  8
0
100
AcDbBlockEnd
  0
BLOCK
  5
1C
330
1B
100
AcDbEntity
 67
     1
  8
0
100
AcDbBlockBegin
  2
*Paper_Space
 70
     0
 10
0.0
 20
0.0
 30
0.0
  3
*Paper_Space
  1

  0
ENDBLK
  5
1D
330
1B
100
AcDbEntity
 67
     1
  8
0
100
AcDbBlockEnd
  0
BLOCK
  5
24
330
23
100
AcDbEntity
  8
0
100
AcDbBlockBegin
  2
*Paper_Space0
 70
     0
 10
0.0
 20
0.0
 30
0.0
  3
*Paper_Space0
  1

  0
ENDBLK
  5
25
330
23
100
AcDbEntity
  8
0
100
AcDbBlockEnd
  0
ENDSEC
  0
SECTION
  2
ENTITIES
  0
SPLINE
  5
5F
330
1F
100
AcDbEntity
  8
layer 1
 62
    22
370
     9
100
AcDbSpline
210
0.0
220
0.0
230
1.0
 70
    11
 71
     3
 72
    20
 73
    16
 74
     0
 42
0.0000000001
 43
0.0000000001
 40
0.0
 40
0.0
 40
0.0
 40
0.0
 40
0.25
 40
0.25
 40
0.25
 40
0.25
 40
0.5
 40
0.5
 40
0.5
 40
0.5
 40
0.75
 40
0.75
 40
0.75
 40
0.75
 40
1.0
 40
1.0
 40
1.0
 40
1.0
 10
-0.14501
 20
1.71616
 30
0.0
 10
0.32934
 20
1.71616
 30
0.0
 10
0.71618
 20
1.32932
 30
0.0
 10
0.71618
 20
0.85501
 30
0.0
 10
0.71618
 20
0.85501
 30
0.0
 10
0.71618
 20
0.38066
 30
0.0
 10
0.32934
 20
-0.00622
 30
0.0
 10
-0.14501
 20
-0.00622
 30
0.0
 10
-0.14501
 20
-0.00622
 30
0.0
 10
-0.61932
 20
-0.00622
 30
0.0
 10
-1.00616
 20
0.38066
 30
0.0
 10
-1.00616
 20
0.85501
 30
0.0
 10
-1.00616
 20
0.85501
 30
0.0
 10
-1.00616
 20
1.32932
 30
0.0
 10
-0.61932
 20
1.71616
 30
0.0
 10
-0.14501
 20
1.71616
 30
0.0
  0
SPLINE
  5
60
330
1F
100
AcDbEntity
  8
layer 1
 62
    22
370
     9
100
AcDbSpline
210
0.0
220
0.0
230
1.0
 70
    11
 71
     3
 72
    20
 73
    16
 74
     0
 42
0.0000000001
 43
0.0000000001
 40
0.0
 40
0.0
 40
0.0
 40
0.0
 40
0.25
 40
0.25
 40
0.25
 40
0.25
 40
0.5
 40
0.5
 40
0.5
 40
0.5
 40
0.75
 40
0.75
 40
0.75
 40
0.75
 40
1.0
 40
1.0
 40
1.0
 40
1.0
 10
1.8139
 20
-0.59119
 30
0.0
 10
1.60781
 20
-0.93925
 30
0.0
 10
1.10219
 20
-1.29153
 30
0.0
 10
0.69456
 20
-1.42123
 30
0.0
 10
0.69456
 20
-1.42123
 30
0.0
 10
0.50533
 20
-1.46001
 30
0.0
 10
0.31602
 20
-1.49864
 30
0.0
 10
0.12676
 20
-1.53739
 30
0.0
 10
0.12676
 20
-1.53739
 30
0.0
 10
0.29841
 20
-2.40714
 30
0.0
 10
1.71334
 20
-2.27404
 30
0.0
 10
1.9599
 20
-1.55403
 30
0.0
 10
1.9599
 20
-1.55403
 30
0.0
 10
2.0571
 20
-1.27026
 30
0.0
 10
2.12
 20
-0.70626
 30
0.0
 10
1.8139
 20
-0.59119
 30
0.0
  0
SPLINE
  5
61
330
1F
100
AcDbEntity
  8
layer 1
 62
    22
370
     9
100
AcDbSpline
210
0.0
220
0.0
230
1.0
 70
    11
 71
     3
 72
    28
 73
    24
 74
     0
 42
0.0000000001
 43
0.0000000001
 40
0.0
 40
0.0
 40
0.0
 40
0.0
 40
0.1666666666666667
 40
0.1666666666666667
 40
0.1666666666666667
 40
0.1666666666666667
 40
0.3333333333333333
 40
0.3333333333333333
 40
0.3333333333333333
 40
0.3333333333333333
 40
0.5
 40
0.5
 40
0.5
 40
0.5
 40
0.6666666666666666
 40
0.6666666666666666
 40
0.6666666666666666
 40
0.6666666666666666
 40
0.8333333333333333
 40
0.8333333333333333
 40
0.8333333333333333
 40
0.8333333333333333
 40
1.0
 40
1.0
 40
1.0
 40
1.0
 10
-2.04705
 20
-0.52489
 30
0.0
 10
-2.13156
 20
-0.76883
 30
0.0
 10
-2.19465
 20
-0.91042
 30
0.0
 10
-2.24174
 20
-1.17224
 30
0.0
 10
-2.24174
 20
-1.17224
 30
0.0
 10
-2.33766
 20
-1.70616
 30
0.0
 10
-1.51256
 20
-2.25082
 30
0.0
 10
-0.99251
 20
-2.11843
 30
0.0
 10
-0.99251
 20
-2.11843
 30
0.0
 10
-0.66334
 20
-2.03459
 30
0.0
 10
-0.51106
 20
-1.82082
 30
0.0
 10
-0.34367
 20
-1.57063
 30
0.0
 10
-0.34367
 20
-1.57063
 30
0.0
 10
-0.34902
 20
-1.54846
 30
0.0
 10
-0.35448
 20
-1.52632
 30
0.0
 10
-0.35986
 20
-1.50418
 30
0.0
 10
-0.35986
 20
-1.50418
 30
0.0
 10
-0.87879
 20
-1.51057
 30
0.0
 10
-1.4378
 20
-1.15391
 30
0.0
 10
-1.73878
 20
-0.85686
 30
0.0
 10
-1.73878
 20
-0.85686
 30
0.0
 10
-1.84517
 20
-0.75185
 30
0.0
 10
-1.89547
 20
-0.58338
 30
0.0
 10
-2.04705
 20
-0.52489
 30
0.0
  0
SPLINE
  5
62
330
1F
100
AcDbEntity
  8
layer 1
 62
    22
370
     9
100
AcDbSpline
210
0.0
220
0.0
230
1.0
 70
    11
 71
     3
 72
    28
 73
    24
 74
     0
 42
0.0000000001
 43
0.0000000001
 40
0.0
 40
0.0
 40
0.0
 40
0.0
 40
0.1666666666666667
 40
0.1666666666666667
 40
0.1666666666666667
 40
0.1666666666666667
 40
0.3333333333333333
 40
0.3333333333333333
 40
0.3333333333333333
 40
0.3333333333333333
 40
0.5
 40
0.5
 40
0.5
 40
0.5
 40
0.6666666666666666
 40
0.6666666666666666
 40
0.6666666666666666
 40
0.6666666666666666
 40
0.8333333333333333
 40
0.8333333333333333
 40
0.8333333333333333
 40
0.8333333333333333
 40
1.0
 40
1.0
 40
1.0
 40
1.0
 10
2.21948
 20
1.86541
 30
0.0
 10
2.18702
 20
1.85438
 30
0.0
 10
2.15456
 20
1.84331
 30
0.0
 10
2.12217
 20
1.83224
 30
0.0
 10
2.12217
 20
1.83224
 30
0.0
 10
2.12217
 20
1.82671
 30
0.0
 10
2.12217
 20
1.82121
 30
0.0
 10
2.12217
 20
1.81564
 30
0.0
 10
2.12217
 20
1.81564
 30
0.0
 10
2.26006
 20
1.41384
 30
0.0
 10
2.39439
 20
0.82075
 30
0.0
 10
2.26817
 20
0.33832
 30
0.0
 10
2.26817
 20
0.33832
 30
0.0
 10
2.21413
 20
0.16682
 30
0.0
 10
2.16002
 20
-0.0048
 30
0.0
 10
2.1059
 20
-0.1763
 30
0.0
 10
2.1059
 20
-0.1763
 30
0.0
 10
2.11136
 20
-0.18176
 30
0.0
 10
2.11671
 20
-0.18734
 30
0.0
 10
2.12217
 20
-0.19283
 30
0.0
 10
2.12217
 20
-0.19283
 30
0.0
 10
3.51582
 20
-0.24485
 30
0.0
 10
3.55262
 20
1.69376
 30
0.0
 10
2.21948
 20
1.86541
 30
0.0
  0
SPLINE
  5
63
330
1F
100
AcDbEntity
  8
layer 1
 62
    22
370
     9
100
AcDbSpline
210
0.0
220
0.0
230
1.0
 70
    11
 71
     3
 72
    36
 73
    32
 74
     0
 42
0.0000000001
 43
0.0000000001
 40
0.0
 40
0.0
 40
0.0
 40
0.0
 40
0.125
 40
0.125
 40
0.125
 40
0.125
 40
0.25
 40
0.25
 40
0.25
 40
0.25
 40
0.375
 40
0.375
 40
0.375
 40
0.375
 40
0.5
 40
0.5
 40
0.5
 40
0.5
 40
0.625
 40
0.625
 40
0.625
 40
0.625
 40
0.75
 40
0.75
 40
0.75
 40
0.75
 40
0.875
 40
0.875
 40
0.875
 40
0.875
 40
1.0
 40
1.0
 40
1.0
 40
1.0
 10
-2.37147
 20
1.93183
 30
0.0
 10
-2.48071
 20
1.86653
 30
0.0
 10
-2.57203
 20
1.90285
 30
0.0
 10
-2.69589
 20
1.86541
 30
0.0
 10
-2.69589
 20
1.86541
 30
0.0
 10
-2.98482
 20
1.77813
 30
0.0
 10
-3.23744
 20
1.44948
 30
0.0
 10
-3.31239
 20
1.13511
 30
0.0
 10
-3.31239
 20
1.13511
 30
0.0
 10
-3.46837
 20
0.48055
 30
0.0
 10
-2.81979
 20
-0.36684
 30
0.0
 10
-2.25789
 20
-0.09324
 30
0.0
 10
-2.25789
 20
-0.09324
 30
0.0
 10
-2.25789
 20
-0.08775
 30
0.0
 10
-2.25789
 20
-0.08221
 30
0.0
 10
-2.25789
 20
-0.07668
 30
0.0
 10
-2.25789
 20
-0.07668
 30
0.0
 10
-2.39163
 20
0.31746
 30
0.0
 10
-2.50034
 20
0.90733
 30
0.0
 10
-2.38774
 20
1.38407
 30
0.0
 10
-2.38774
 20
1.38407
 30
0.0
 10
-2.33905
 20
1.55
 30
0.0
 10
-2.29039
 20
1.71605
 30
0.0
 10
-2.24174
 20
1.88205
 30
0.0
 10
-2.24174
 20
1.88205
 30
0.0
 10
-2.25789
 20
1.89309
 30
0.0
 10
-2.27412
 20
1.90419
 30
0.0
 10
-2.29039
 20
1.91523
 30
0.0
 10
-2.29039
 20
1.91523
 30
0.0
 10
-2.31739
 20
1.9208
 30
0.0
 10
-2.34439
 20
1.9263
 30
0.0
 10
-2.37147
 20
1.93183
 30
0.0
  0
SPLINE
  5
64
330
1F
100
AcDbEntity
  8
layer 1
 62
    22
370
     9
100
AcDbSpline
210
0.0
220
0.0
230
1.0
 70
    11
 71
     3
 72
    28
 73
    24
 74
     0
 42
0.0000000001
 43
0.0000000001
 40
0.0
 40
0.0
 40
0.0
 40
0.0
 40
0.1666666666666667
 40
0.1666666666666667
 40
0.1666666666666667
 40
0.1666666666666667
 40
0.3333333333333333
 40
0.3333333333333333
 40
0.3333333333333333
 40
0.3333333333333333
 40
0.5
 40
0.5
 40
0.5
 40
0.5
 40
0.6666666666666666
 40
0.6666666666666666
 40
0.6666666666666666
 40
0.6666666666666666
 40
0.8333333333333333
 40
0.8333333333333333
 40
0.8333333333333333
 40
0.8333333333333333
 40
1.0
 40
1.0
 40
1.0
 40
1.0
 10
0.97029
 20
3.85732
 30
0.0
 10
0.8676
 20
3.82968
 30
0.0
 10
0.76483
 20
3.80197
 30
0.0
 10
0.6621
 20
3.77437
 30
0.0
 10
0.6621
 20
3.77437
 30
0.0
 10
0.44964
 20
3.67893
 30
0.0
 10
0.3376
 20
3.47657
 30
0.0
 10
0.22414
 20
3.27638
 30
0.0
 10
0.22414
 20
3.27638
 30
0.0
 10
0.22949
 20
3.26535
 30
0.0
 10
0.23491
 20
3.25428
 30
0.0
 10
0.24029
 20
3.24314
 30
0.0
 10
0.24029
 20
3.24314
 30
0.0
 10
1.05552
 20
3.22089
 30
0.0
 10
1.44745
 20
2.65192
 30
0.0
 10
1.89498
 20
2.24728
 30
0.0
 10
1.89498
 20
2.24728
 30
0.0
 10
2.00265
 20
2.31699
 30
0.0
 10
2.00979
 20
2.44747
 30
0.0
 10
2.05725
 20
2.57922
 30
0.0
 10
2.05725
 20
2.57922
 30
0.0
 10
2.3071
 20
3.27227
 30
0.0
 10
1.71708
 20
3.87538
 30
0.0
 10
0.97029
 20
3.85732
 30
0.0
  0
SPLINE
  5
65
330
1F
100
AcDbEntity
  8
layer 1
 62
    22
370
     9
100
AcDbSpline
210
0.0
220
0.0
230
1.0
 70
    11
 71
     3
 72
    28
 73
    24
 74
     0
 42
0.0000000001
 43
0.0000000001
 40
0.0
 40
0.0
 40
0.0
 40
0.0
 40
0.1666666666666667
 40
0.1666666666666667
 40
0.1666666666666667
 40
0.1666666666666667
 40
0.3333333333333333
 40
0.3333333333333333
 40
0.3333333333333333
 40
0.3333333333333333
 40
0.5
 40
0.5
 40
0.5
 40
0.5
 40
0.6666666666666666
 40
0.6666666666666666
 40
0.6666666666666666
 40
0.6666666666666666
 40
0.8333333333333333
 40
0.8333333333333333
 40
0.8333333333333333
 40
0.8333333333333333
 40
1.0
 40
1.0
 40
1.0
 40
1.0
 10
-1.30078
 20
3.89053
 30
0.0
 10
-1.44136
 20
3.84082
 30
0.0
 10
-1.58197
 20
3.79094
 30
0.0
 10
-1.72255
 20
3.74112
 30
0.0
 10
-1.72255
 20
3.74112
 30
0.0
 10
-2.0724
 20
3.42048
 30
0.0
 10
-2.42914
 20
2.80046
 30
0.0
 10
-1.98212
 20
2.29705
 30
0.0
 10
-1.98212
 20
2.29705
 30
0.0
 10
-1.9767
 20
2.29705
 30
0.0
 10
-1.97132
 20
2.29705
 30
0.0
 10
-1.96589
 20
2.29705
 30
0.0
 10
-1.96589
 20
2.29705
 30
0.0
 10
-1.4924
 20
2.89833
 30
0.0
 10
-1.12441
 20
3.02717
 30
0.0
 10
-0.27875
 20
3.25974
 30
0.0
 10
-0.27875
 20
3.25974
 30
0.0
 10
-0.27875
 20
3.27638
 30
0.0
 10
-0.27875
 20
3.29303
 30
0.0
 10
-0.27875
 20
3.30959
 30
0.0
 10
-0.27875
 20
3.30959
 30
0.0
 10
-0.59042
 20
3.64224
 30
0.0
 10
-0.62957
 20
3.89546
 30
0.0
 10
-1.30078
 20
3.89053
 30
0.0
  0
SPLINE
  5
66
330
1F
100
AcDbEntity
  8
layer 1
 62
    22
370
     9
100
AcDbSpline
210
0.0
220
0.0
230
1.0
 70
    11
 71
     3
 72
   148
 73
   144
 74
     0
 42
0.0000000001
 43
0.0000000001
 40
0.0
 40
0.0
 40
0.0
 40
0.0
 40
0.0277777777777778
 40
0.0277777777777778
 40
0.0277777777777778
 40
0.0277777777777778
 40
0.0555555555555556
 40
0.0555555555555556
 40
0.0555555555555556
 40
0.0555555555555556
 40
0.0833333333333333
 40
0.0833333333333333
 40
0.0833333333333333
 40
0.0833333333333333
 40
0.1111111111111111
 40
0.1111111111111111
 40
0.1111111111111111
 40
0.1111111111111111
 40
0.1388888888888889
 40
0.1388888888888889
 40
0.1388888888888889
 40
0.1388888888888889
 40
0.1666666666666667
 40
0.1666666666666667
 40
0.1666666666666667
 40
0.1666666666666667
 40
0.1944444444444445
 40
0.1944444444444445
 40
0.1944444444444445
 40
0.1944444444444445
 40
0.2222222222222223
 40
0.2222222222222223
 40
0.2222222222222223
 40
0.2222222222222223
 40
0.2500000000000001
 40
0.2500000000000001
 40
0.2500000000000001
 40
0.2500000000000001
 40
0.2777777777777778
 40
0.2777777777777778
 40
0.2777777777777778
 40
0.2777777777777778
 40
0.3055555555555556
 40
0.3055555555555556
 40
0.3055555555555556
 40
0.3055555555555556
 40
0.3333333333333334
 40
0.3333333333333334
 40
0.3333333333333334
 40
0.3333333333333334
 40
0.3611111111111112
 40
0.3611111111111112
 40
0.3611111111111112
 40
0.3611111111111112
 40
0.388888888888889
 40
0.388888888888889
 40
0.388888888888889
 40
0.388888888888889
 40
0.4166666666666668
 40
0.4166666666666668
 40
0.4166666666666668
 40
0.4166666666666668
 40
0.4444444444444446
 40
0.4444444444444446
 40
0.4444444444444446
 40
0.4444444444444446
 40
0.4722222222222224
 40
0.4722222222222224
 40
0.4722222222222224
 40
0.4722222222222224
 40
0.5000000000000001
 40
0.5000000000000001
 40
0.5000000000000001
 40
0.5000000000000001
 40
0.5277777777777779
 40
0.5277777777777779
 40
0.5277777777777779
 40
0.5277777777777779
 40
0.5555555555555557
 40
0.5555555555555557
 40
0.5555555555555557
 40
0.5555555555555557
 40
0.5833333333333335
 40
0.5833333333333335
 40
0.5833333333333335
 40
0.5833333333333335
 40
0.6111111111111113
 40
0.6111111111111113
 40
0.6111111111111113
 40
0.6111111111111113
 40
0.6388888888888891
 40
0.6388888888888891
 40
0.6388888888888891
 40
0.6388888888888891
 40
0.6666666666666669
 40
0.6666666666666669
 40
0.6666666666666669
 40
0.6666666666666669
 40
0.6944444444444446
 40
0.6944444444444446
 40
0.6944444444444446
 40
0.6944444444444446
 40
0.7222222222222224
 40
0.7222222222222224
 40
0.7222222222222224
 40
0.7222222222222224
 40
0.7500000000000002
 40
0.7500000000000002
 40
0.7500000000000002
 40
0.7500000000000002
 40
0.777777777777778
 40
0.777777777777778
 40
0.777777777777778
 40
0.777777777777778
 40
0.8055555555555558
 40
0.8055555555555558
 40
0.8055555555555558
 40
0.8055555555555558
 40
0.8333333333333336
 40
0.8333333333333336
 40
0.8333333333333336
 40
0.8333333333333336
 40
0.8611111111111114
 40
0.8611111111111114
 40
0.8611111111111114
 40
0.8611111111111114
 40
0.8888888888888892
 40
0.8888888888888892
 40
0.8888888888888892
 40
0.8888888888888892
 40
0.916666666666667
 40
0.916666666666667
 40
0.916666666666667
 40
0.916666666666667
 40
0.9444444444444448
 40
0.9444444444444448
 40
0.9444444444444448
 40
0.9444444444444448
 40
0.9722222222222225
 40
0.9722222222222225
 40
0.9722222222222225
 40
0.9722222222222225
 40
1.0
 40
1.0
 40
1.0
 40
1.0
 10
-0.03536
 20
5.79948
 30
0.0
 10
0.00779
 20
5.79391
 30
0.0
 10
0.05106
 20
5.78841
 30
0.0
 10
0.09426
 20
5.78284
 30
0.0
 10
0.09426
 20
5.78284
 30
0.0
 10
0.23906
 20
5.43467
 30
0.0
 10
0.36434
 20
5.08175
 30
0.0
 10
0.4836
 20
4.70392
 30
0.0
 10
0.4836
 20
4.70392
 30
0.0
 10
0.65705
 20
4.7393
 30
0.0
 10
0.67859
 20
4.8669
 30
0.0
 10
0.79187
 20
4.91974
 30
0.0
 10
0.79187
 20
4.91974
 30
0.0
 10
0.86483
 20
4.95377
 30
0.0
 10
1.06229
 20
4.96155
 30
0.0
 10
1.13256
 20
4.98608
 30
0.0
 10
1.13256
 20
4.98608
 30
0.0
 10
1.35313
 20
5.06327
 30
0.0
 10
1.58589
 20
4.95463
 30
0.0
 10
1.73279
 20
4.91974
 30
0.0
 10
1.73279
 20
4.91974
 30
0.0
 10
2.76986
 20
4.67333
 30
0.0
 10
2.92883
 20
4.2243
 30
0.0
 10
3.01436
 20
3.17679
 30
0.0
 10
3.01436
 20
3.17679
 30
0.0
 10
3.05767
 20
3.17679
 30
0.0
 10
3.10097
 20
3.17679
 30
0.0
 10
3.14421
 20
3.17679
 30
0.0
 10
3.14421
 20
3.17679
 30
0.0
 10
3.47813
 20
3.28801
 30
0.0
 10
3.92263
 20
3.28016
 30
0.0
 10
4.23105
 20
3.22661
 30
0.0
 10
4.23105
 20
3.22661
 30
0.0
 10
4.23105
 20
3.20439
 30
0.0
 10
4.23105
 20
3.18229
 30
0.0
 10
4.23105
 20
3.16019
 30
0.0
 10
4.23105
 20
3.16019
 30
0.0
 10
4.01639
 20
2.87477
 30
0.0
 10
3.7984
 20
2.54448
 30
0.0
 10
3.50105
 20
2.34687
 30
0.0
 10
3.50105
 20
2.34687
 30
0.0
 10
3.50647
 20
2.31919
 30
0.0
 10
3.5119
 20
2.29152
 30
0.0
 10
3.51728
 20
2.26385
 30
0.0
 10
3.51728
 20
2.26385
 30
0.0
 10
4.25981
 20
1.98153
 30
0.0
 10
4.6827
 20
0.84835
 30
0.0
 10
4.23105
 20
-0.0103
 30
0.0
 10
4.23105
 20
-0.0103
 30
0.0
 10
4.03965
 20
-0.37425
 30
0.0
 10
3.72768
 20
-0.41864
 30
0.0
 10
3.46859
 20
-0.67429
 30
0.0
 10
3.46859
 20
-0.67429
 30
0.0
 10
3.66657
 20
-0.99385
 30
0.0
 10
3.98748
 20
-1.37213
 30
0.0
 10
4.05263
 20
-1.80302
 30
0.0
 10
4.05263
 20
-1.80302
 30
0.0
 10
4.00943
 20
-1.80302
 30
0.0
 10
3.96613
 20
-1.80302
 30
0.0
 10
3.92286
 20
-1.80302
 30
0.0
 10
3.92286
 20
-1.80302
 30
0.0
 10
3.58766
 20
-1.69782
 30
0.0
 10
3.25232
 20
-1.59277
 30
0.0
 10
2.91702
 20
-1.48757
 30
0.0
 10
2.91702
 20
-1.48757
 30
0.0
 10
2.97165
 20
-2.58276
 30
0.0
 10
2.1145
 20
-3.45943
 30
0.0
 10
1.06764
 20
-3.31354
 30
0.0
 10
1.06764
 20
-3.31354
 30
0.0
 10
0.7544
 20
-3.2699
 30
0.0
 10
0.62661
 20
-3.03658
 30
0.0
 10
0.3701
 20
-2.965
 30
0.0
 10
0.3701
 20
-2.965
 30
0.0
 10
0.27062
 20
-3.27585
 30
0.0
 10
0.09901
 20
-3.80442
 30
0.0
 10
-0.13275
 20
-3.9941
 30
0.0
 10
-0.13275
 20
-3.9941
 30
0.0
 10
-0.14898
 20
-3.98307
 30
0.0
 10
-0.16513
 20
-3.97193
 30
0.0
 10
-0.1814
 20
-3.96093
 30
0.0
 10
-0.1814
 20
-3.96093
 30
0.0
 10
-0.26786
 20
-3.81706
 30
0.0
 10
-0.35448
 20
-3.67316
 30
0.0
 10
-0.44098
 20
-3.52933
 30
0.0
 10
-0.44098
 20
-3.52933
 30
0.0
 10
-0.51764
 20
-3.31822
 30
0.0
 10
-0.52878
 20
-3.10595
 30
0.0
 10
-0.66809
 20
-2.965
 30
0.0
 10
-0.66809
 20
-2.965
 30
0.0
 10
-1.48418
 20
-3.58718
 30
0.0
 10
-2.69982
 20
-3.11466
 30
0.0
 10
-3.05281
 20
-2.23455
 30
0.0
 10
-3.05281
 20
-2.23455
 30
0.0
 10
-3.14915
 20
-1.99431
 30
0.0
 10
-3.11358
 20
-1.6958
 30
0.0
 10
-3.13393
 20
-1.42123
 30
0.0
 10
-3.13393
 20
-1.42123
 30
0.0
 10
-3.32802
 20
-1.46955
 30
0.0
 10
-4.07713
 20
-1.73312
 30
0.0
 10
-4.25327
 20
-1.65362
 30
0.0
 10
-4.25327
 20
-1.65362
 30
0.0
 10
-4.25327
 20
-1.64805
 30
0.0
 10
-4.25327
 20
-1.64255
 30
0.0
 10
-4.25327
 20
-1.63698
 30
0.0
 10
-4.25327
 20
-1.63698
 30
0.0
 10
-4.13809
 20
-1.22254
 30
0.0
 10
-3.85304
 20
-0.8799
 30
0.0
 10
-3.63681
 20
-0.55806
 30
0.0
 10
-3.63681
 20
-0.55806
 30
0.0
 10
-3.88906
 20
-0.35226
 30
0.0
 10
-4.16198
 20
-0.27997
 30
0.0
 10
-4.33446
 20
0.00635
 30
0.0
 10
-4.33446
 20
0.00635
 30
0.0
 10
-4.71412
 20
0.63694
 30
0.0
 10
-4.5271
 20
1.62356
 30
0.0
 10
-4.09112
 20
2.06463
 30
0.0
 10
-4.09112
 20
2.06463
 30
0.0
 10
-3.91258
 20
2.18082
 30
0.0
 10
-3.73416
 20
2.29705
 30
0.0
 10
-3.55573
 20
2.41321
 30
0.0
 10
-3.55573
 20
2.41321
 30
0.0
 10
-3.75465
 20
2.66385
 30
0.0
 10
-4.22575
 20
2.95454
 30
0.0
 10
-4.26954
 20
3.3262
 30
0.0
 10
-4.26954
 20
3.3262
 30
0.0
 10
-3.91643
 20
3.39699
 30
0.0
 10
-3.42477
 20
3.2265
 30
0.0
 10
-3.06908
 20
3.25974
 30
0.0
 10
-3.06908
 20
3.25974
 30
0.0
 10
-3.09563
 20
4.36013
 30
0.0
 10
-2.64462
 20
4.75542
 30
0.0
 10
-1.70639
 20
4.98608
 30
0.0
 10
-1.70639
 20
4.98608
 30
0.0
 10
-1.5822
 20
5.0166
 30
0.0
 10
-1.40374
 20
5.08732
 30
0.0
 10
-1.20343
 20
5.0359
 30
0.0
 10
-1.20343
 20
5.0359
 30
0.0
 10
-0.94517
 20
4.96963
 30
0.0
 10
-0.75149
 20
4.78025
 30
0.0
 10
-0.52209
 20
4.72056
 30
0.0
 10
-0.52209
 20
4.72056
 30
0.0
 10
-0.41046
 20
5.07472
 30
0.0
 10
-0.25952
 20
5.54305
 30
0.0
 10
-0.03536
 20
5.79948
 30
0.0
  0
SPLINE
  5
67
330
1F
100
AcDbEntity
  8
layer 1
 62
    22
370
     9
100
AcDbSpline
210
0.0
220
0.0
230
1.0
 70
    11
 71
     3
 72
    12
 73
     8
 74
     0
 42
0.0000000001
 43
0.0000000001
 40
0.0
 40
0.0
 40
0.0
 40
0.0
 40
0.5
 40
0.5
 40
0.5
 40
0.5
 40
1.0
 40
1.0
 40
1.0
 40
1.0
 10
7.57091
 20
-5.19846
 30
0.0
 10
7.65246
 20
-4.88069
 30
0.0
 10
7.08961
 20
-4.22394
 30
0.0
 10
6.60319
 20
-4.21864
 30
0.0
 10
6.60319
 20
-4.21864
 30
0.0
 10
6.54308
 20
-4.72583
 30
0.0
 10
7.2888
 20
-5.31657
 30
0.0
 10
7.57091
 20
-5.19846
 30
0.0
  0
SPLINE
  5
68
330
1F
100
AcDbEntity
  8
layer 1
 62
    22
370
     9
100
AcDbSpline
210
0.0
220
0.0
230
1.0
 70
    11
 71
     3
 72
    12
 73
     8
 74
     0
 42
0.0000000001
 43
0.0000000001
 40
0.0
 40
0.0
 40
0.0
 40
0.0
 40
0.5
 40
0.5
 40
0.5
 40
0.5
 40
1.0
 40
1.0
 40
1.0
 40
1.0
 10
5.96567
 20
-5.2509
 30
0.0
 10
6.17111
 20
-4.85582
 30
0.0
 10
6.59522
 20
-4.81965
 30
0.0
 10
7.33905
 20
-5.30799
 30
0.0
 10
7.33905
 20
-5.30799
 30
0.0
 10
6.64119
 20
-5.56278
 30
0.0
 10
6.54972
 20
-5.16019
 30
0.0
 10
5.96567
 20
-5.2509
 30
0.0
  0
SPLINE
  5
69
330
1F
100
AcDbEntity
  8
layer 1
 62
    22
370
     9
100
AcDbSpline
210
0.0
220
0.0
230
1.0
 70
    11
 71
     3
 72
    12
 73
     8
 74
     0
 42
0.0000000001
 43
0.0000000001
 40
0.0
 40
0.0
 40
0.0
 40
0.0
 40
0.5
 40
0.5
 40
0.5
 40
0.5
 40
1.0
 40
1.0
 40
1.0
 40
1.0
 10
7.60115
 20
-3.60172
 30
0.0
 10
7.20749
 20
-3.80987
 30
0.0
 10
7.17423
 20
-4.23422
 30
0.0
 10
7.66768
 20
-4.97467
 30
0.0
 10
7.66768
 20
-4.97467
 30
0.0
 10
7.91767
 20
-4.27508
 30
0.0
 10
7.51445
 20
-4.18638
 30
0.0
 10
7.60115
 20
-3.60172
 30
0.0
  0
SPLINE
  5
6A
330
1F
100
AcDbEntity
  8
layer 1
 62
    22
370
     9
100
AcDbSpline
210
0.0
220
0.0
230
1.0
 70
    11
 71
     3
 72
    12
 73
     8
 74
     0
 42
0.0000000001
 43
0.0000000001
 40
0.0
 40
0.0
 40
0.0
 40
0.0
 40
0.5
 40
0.5
 40
0.5
 40
0.5
 40
1.0
 40
1.0
 40
1.0
 40
1.0
 10
6.6093
 20
-5.91495
 30
0.0
 10
6.98069
 20
-5.97
 30
0.0
 10
7.30318
 20
-5.70878
 30
0.0
 10
7.56006
 20
-5.35175
 30
0.0
 10
7.56006
 20
-5.35175
 30
0.0
 10
7.08854
 20
-5.42292
 30
0.0
 10
6.7404
 20
-5.55787
 30
0.0
 10
6.6093
 20
-5.91495
 30
0.0
  0
SPLINE
  5
6B
330
1F
100
AcDbEntity
  8
layer 1
 62
    22
370
     9
100
AcDbSpline
210
0.0
220
0.0
230
1.0
 70
    11
 71
     3
 72
    12
 73
     8
 74
     0
 42
0.0000000001
 43
0.0000000001
 40
0.0
 40
0.0
 40
0.0
 40
0.0
 40
0.5
 40
0.5
 40
0.5
 40
0.5
 40
1.0
 40
1.0
 40
1.0
 40
1.0
 10
8.26041
 20
-4.23679
 30
0.0
 10
7.91089
 20
-4.37387
 30
0.0
 10
7.76118
 20
-4.76094
 30
0.0
 10
7.71607
 20
-5.19846
 30
0.0
 10
7.71607
 20
-5.19846
 30
0.0
 10
8.08962
 20
-4.90205
 30
0.0
 10
8.32442
 20
-4.61174
 30
0.0
 10
8.26041
 20
-4.23679
 30
0.0
  0
SPLINE
  5
6C
330
1F
100
AcDbEntity
  8
layer 1
 62
    22
370
     9
100
AcDbSpline
210
0.0
220
0.0
230
1.0
 70
    11
 71
     3
 72
    36
 73
    32
 74
     0
 42
0.0000000001
 43
0.0000000001
 40
0.0
 40
0.0
 40
0.0
 40
0.0
 40
0.125
 40
0.125
 40
0.125
 40
0.125
 40
0.25
 40
0.25
 40
0.25
 40
0.25
 40
0.375
 40
0.375
 40
0.375
 40
0.375
 40
0.5
 40
0.5
 40
0.5
 40
0.5
 40
0.625
 40
0.625
 40
0.625
 40
0.625
 40
0.75
 40
0.75
 40
0.75
 40
0.75
 40
0.875
 40
0.875
 40
0.875
 40
0.875
 40
1.0
 40
1.0
 40
1.0
 40
1.0
 10
8.67775
 20
-5.17426
 30
0.0
 10
8.56081
 20
-5.10571
 30
0.0
 10
8.40357
 20
-5.14202
 30
0.0
 10
8.20598
 20
-5.28313
 30
0.0
 10
8.20598
 20
-5.28313
 30
0.0
 10
8.02659
 20
-5.42481
 30
0.0
 10
7.84715
 20
-5.36812
 30
0.0
 10
7.66768
 20
-5.28313
 30
0.0
 10
7.66768
 20
-5.28313
 30
0.0
 10
7.73249
 20
-5.46658
 30
0.0
 10
7.775
 20
-5.65003
 30
0.0
 10
7.66163
 20
-5.83352
 30
0.0
 10
7.66163
 20
-5.83352
 30
0.0
 10
7.4679
 20
-6.05633
 30
0.0
 10
7.47605
 20
-6.20349
 30
0.0
 10
7.54067
 20
-6.32948
 30
0.0
 10
7.54067
 20
-6.32948
 30
0.0
 10
7.5716
 20
-6.10105
 30
0.0
 10
7.68542
 20
-6.08813
 30
0.0
 10
7.80679
 20
-5.87586
 30
0.0
 10
7.80679
 20
-5.87586
 30
0.0
 10
7.86125
 20
-5.73873
 30
0.0
 10
7.86729
 20
-5.60165
 30
0.0
 10
7.82494
 20
-5.46458
 30
0.0
 10
7.82494
 20
-5.46458
 30
0.0
 10
8.03764
 20
-5.50237
 30
0.0
 10
8.22517
 20
-5.4916
 30
0.0
 10
8.35719
 20
-5.34966
 30
0.0
 10
8.35719
 20
-5.34966
 30
0.0
 10
8.4742
 20
-5.22031
 30
0.0
 10
8.56131
 20
-5.19964
 30
0.0
 10
8.67775
 20
-5.17426
 30
0.0
  0
SPLINE
  5
6D
330
1F
100
AcDbEntity
  8
layer 1
 62
    22
370
     9
100
AcDbSpline
210
0.0
220
0.0
230
1.0
 70
    11
 71
     3
 72
    12
 73
     8
 74
     0
 42
0.0000000001
 43
0.0000000001
 40
0.0
 40
0.0
 40
0.0
 40
0.0
 40
0.5
 40
0.5
 40
0.5
 40
0.5
 40
1.0
 40
1.0
 40
1.0
 40
1.0
 10
-7.69321
 20
-5.19846
 30
0.0
 10
-7.77476
 20
-4.88069
 30
0.0
 10
-7.21191
 20
-4.22394
 30
0.0
 10
-6.72549
 20
-4.21864
 30
0.0
 10
-6.72549
 20
-4.21864
 30
0.0
 10
-6.66538
 20
-4.72583
 30
0.0
 10
-7.41109
 20
-5.31657
 30
0.0
 10
-7.69321
 20
-5.19846
 30
0.0
  0
SPLINE
  5
6E
330
1F
100
AcDbEntity
  8
layer 1
 62
    22
370
     9
100
AcDbSpline
210
0.0
220
0.0
230
1.0
 70
    11
 71
     3
 72
    12
 73
     8
 74
     0
 42
0.0000000001
 43
0.0000000001
 40
0.0
 40
0.0
 40
0.0
 40
0.0
 40
0.5
 40
0.5
 40
0.5
 40
0.5
 40
1.0
 40
1.0
 40
1.0
 40
1.0
 10
-6.08797
 20
-5.2509
 30
0.0
 10
-6.2934
 20
-4.85582
 30
0.0
 10
-6.71752
 20
-4.81965
 30
0.0
 10
-7.46135
 20
-5.30799
 30
0.0
 10
-7.46135
 20
-5.30799
 30
0.0
 10
-6.76349
 20
-5.56278
 30
0.0
 10
-6.67202
 20
-5.16019
 30
0.0
 10
-6.08797
 20
-5.2509
 30
0.0
  0
SPLINE
  5
6F
330
1F
100
AcDbEntity
  8
layer 1
 62
    22
370
     9
100
AcDbSpline
210
0.0
220
0.0
230
1.0
 70
    11
 71
     3
 72
    12
 73
     8
 74
     0
 42
0.0000000001
 43
0.0000000001
 40
0.0
 40
0.0
 40
0.0
 40
0.0
 40
0.5
 40
0.5
 40
0.5
 40
0.5
 40
1.0
 40
1.0
 40
1.0
 40
1.0
 10
-7.72345
 20
-3.60172
 30
0.0
 10
-7.32979
 20
-3.80987
 30
0.0
 10
-7.29653
 20
-4.23422
 30
0.0
 10
-7.78998
 20
-4.97467
 30
0.0
 10
-7.78998
 20
-4.97467
 30
0.0
 10
-8.03996
 20
-4.27508
 30
0.0
 10
-7.63675
 20
-4.18638
 30
0.0
 10
-7.72345
 20
-3.60172
 30
0.0
  0
SPLINE
  5
70
330
1F
100
AcDbEntity
  8
layer 1
 62
    22
370
     9
100
AcDbSpline
210
0.0
220
0.0
230
1.0
 70
    11
 71
     3
 72
    12
 73
     8
 74
     0
 42
0.0000000001
 43
0.0000000001
 40
0.0
 40
0.0
 40
0.0
 40
0.0
 40
0.5
 40
0.5
 40
0.5
 40
0.5
 40
1.0
 40
1.0
 40
1.0
 40
1.0
 10
-6.7316
 20
-5.91495
 30
0.0
 10
-7.10299
 20
-5.97
 30
0.0
 10
-7.42548
 20
-5.70878
 30
0.0
 10
-7.68235
 20
-5.35175
 30
0.0
 10
-7.68235
 20
-5.35175
 30
0.0
 10
-7.21084
 20
-5.42292
 30
0.0
 10
-6.8627
 20
-5.55787
 30
0.0
 10
-6.7316
 20
-5.91495
 30
0.0
  0
SPLINE
  5
71
330
1F
100
AcDbEntity
  8
layer 1
 62
    22
370
     9
100
AcDbSpline
210
0.0
220
0.0
230
1.0
 70
    11
 71
     3
 72
    12
 73
     8
 74
     0
 42
0.0000000001
 43
0.0000000001
 40
0.0
 40
0.0
 40
0.0
 40
0.0
 40
0.5
 40
0.5
 40
0.5
 40
0.5
 40
1.0
 40
1.0
 40
1.0
 40
1.0
 10
-8.38271
 20
-4.23679
 30
0.0
 10
-8.03319
 20
-4.37387
 30
0.0
 10
-7.88348
 20
-4.76094
 30
0.0
 10
-7.83837
 20
-5.19846
 30
0.0
 10
-7.83837
 20
-5.19846
 30
0.0
 10
-8.21192
 20
-4.90205
 30
0.0
 10
-8.44672
 20
-4.61174
 30
0.0
 10
-8.38271
 20
-4.23679
 30
0.0
  0
SPLINE
  5
72
330
1F
100
AcDbEntity
  8
layer 1
 62
    22
370
     9
100
AcDbSpline
210
0.0
220
0.0
230
1.0
 70
    11
 71
     3
 72
    36
 73
    32
 74
     0
 42
0.0000000001
 43
0.0000000001
 40
0.0
 40
0.0
 40
0.0
 40
0.0
 40
0.125
 40
0.125
 40
0.125
 40
0.125
 40
0.25
 40
0.25
 40
0.25
 40
0.25
 40
0.375
 40
0.375
 40
0.375
 40
0.375
 40
0.5
 40
0.5
 40
0.5
 40
0.5
 40
0.625
 40
0.625
 40
0.625
 40
0.625
 40
0.75
 40
0.75
 40
0.75
 40
0.75
 40
0.875
 40
0.875
 40
0.875
 40
0.875
 40
1.0
 40
1.0
 40
1.0
 40
1.0
 10
-8.80004
 20
-5.17426
 30
0.0
 10
-8.6831
 20
-5.10571
 30
0.0
 10
-8.52587
 20
-5.14202
 30
0.0
 10
-8.32828
 20
-5.28313
 30
0.0
 10
-8.32828
 20
-5.28313
 30
0.0
 10
-8.14889
 20
-5.42481
 30
0.0
 10
-7.96945
 20
-5.36812
 30
0.0
 10
-7.78998
 20
-5.28313
 30
0.0
 10
-7.78998
 20
-5.28313
 30
0.0
 10
-7.85479
 20
-5.46658
 30
0.0
 10
-7.8973
 20
-5.65003
 30
0.0
 10
-7.78393
 20
-5.83352
 30
0.0
 10
-7.78393
 20
-5.83352
 30
0.0
 10
-7.5902
 20
-6.05633
 30
0.0
 10
-7.59835
 20
-6.20349
 30
0.0
 10
-7.66297
 20
-6.32948
 30
0.0
 10
-7.66297
 20
-6.32948
 30
0.0
 10
-7.6939
 20
-6.10105
 30
0.0
 10
-7.80771
 20
-6.08813
 30
0.0
 10
-7.92909
 20
-5.87586
 30
0.0
 10
-7.92909
 20
-5.87586
 30
0.0
 10
-7.98355
 20
-5.73873
 30
0.0
 10
-7.98959
 20
-5.60165
 30
0.0
 10
-7.94724
 20
-5.46458
 30
0.0
 10
-7.94724
 20
-5.46458
 30
0.0
 10
-8.15994
 20
-5.50237
 30
0.0
 10
-8.34747
 20
-5.4916
 30
0.0
 10
-8.47949
 20
-5.34966
 30
0.0
 10
-8.47949
 20
-5.34966
 30
0.0
 10
-8.5965
 20
-5.22031
 30
0.0
 10
-8.68361
 20
-5.19964
 30
0.0
 10
-8.80004
 20
-5.17426
 30
0.0
  0
SPLINE
  5
73
330
1F
100
AcDbEntity
  8
layer 1
 62
    22
370
     9
100
AcDbSpline
210
0.0
220
0.0
230
1.0
 70
    11
 71
     3
 72
    12
 73
     8
 74
     0
 42
0.0000000001
 43
0.0000000001
 40
0.0
 40
0.0
 40
0.0
 40
0.0
 40
0.5
 40
0.5
 40
0.5
 40
0.5
 40
1.0
 40
1.0
 40
1.0
 40
1.0
 10
7.57091
 20
7.00385
 30
0.0
 10
7.65246
 20
6.68608
 30
0.0
 10
7.08961
 20
6.02933
 30
0.0
 10
6.60319
 20
6.02403
 30
0.0
 10
6.60319
 20
6.02403
 30
0.0
 10
6.54308
 20
6.53122
 30
0.0
 10
7.2888
 20
7.12197
 30
0.0
 10
7.57091
 20
7.00385
 30
0.0
  0
SPLINE
  5
74
330
1F
100
AcDbEntity
  8
layer 1
 62
    22
370
     9
100
AcDbSpline
210
0.0
220
0.0
230
1.0
 70
    11
 71
     3
 72
    12
 73
     8
 74
     0
 42
0.0000000001
 43
0.0000000001
 40
0.0
 40
0.0
 40
0.0
 40
0.0
 40
0.5
 40
0.5
 40
0.5
 40
0.5
 40
1.0
 40
1.0
 40
1.0
 40
1.0
 10
5.96567
 20
7.0563
 30
0.0
 10
6.17111
 20
6.66121
 30
0.0
 10
6.59522
 20
6.62504
 30
0.0
 10
7.33905
 20
7.11338
 30
0.0
 10
7.33905
 20
7.11338
 30
0.0
 10
6.64119
 20
7.36817
 30
0.0
 10
6.54972
 20
6.96558
 30
0.0
 10
5.96567
 20
7.0563
 30
0.0
  0
SPLINE
  5
75
330
1F
100
AcDbEntity
  8
layer 1
 62
    22
370
     9
100
AcDbSpline
210
0.0
220
0.0
230
1.0
 70
    11
 71
     3
 72
    12
 73
     8
 74
     0
 42
0.0000000001
 43
0.0000000001
 40
0.0
 40
0.0
 40
0.0
 40
0.0
 40
0.5
 40
0.5
 40
0.5
 40
0.5
 40
1.0
 40
1.0
 40
1.0
 40
1.0
 10
7.60115
 20
5.40711
 30
0.0
 10
7.20749
 20
5.61526
 30
0.0
 10
7.17423
 20
6.03961
 30
0.0
 10
7.66768
 20
6.78006
 30
0.0
 10
7.66768
 20
6.78006
 30
0.0
 10
7.91767
 20
6.08047
 30
0.0
 10
7.51445
 20
5.99177
 30
0.0
 10
7.60115
 20
5.40711
 30
0.0
  0
SPLINE
  5
76
330
1F
100
AcDbEntity
  8
layer 1
 62
    22
370
     9
100
AcDbSpline
210
0.0
220
0.0
230
1.0
 70
    11
 71
     3
 72
    12
 73
     8
 74
     0
 42
0.0000000001
 43
0.0000000001
 40
0.0
 40
0.0
 40
0.0
 40
0.0
 40
0.5
 40
0.5
 40
0.5
 40
0.5
 40
1.0
 40
1.0
 40
1.0
 40
1.0
 10
6.6093
 20
7.72034
 30
0.0
 10
6.98069
 20
7.77539
 30
0.0
 10
7.30318
 20
7.51417
 30
0.0
 10
7.56006
 20
7.15714
 30
0.0
 10
7.56006
 20
7.15714
 30
0.0
 10
7.08854
 20
7.22832
 30
0.0
 10
6.7404
 20
7.36327
 30
0.0
 10
6.6093
 20
7.72034
 30
0.0
  0
SPLINE
  5
77
330
1F
100
AcDbEntity
  8
layer 1
 62
    22
370
     9
100
AcDbSpline
210
0.0
220
0.0
230
1.0
 70
    11
 71
     3
 72
    12
 73
     8
 74
     0
 42
0.0000000001
 43
0.0000000001
 40
0.0
 40
0.0
 40
0.0
 40
0.0
 40
0.5
 40
0.5
 40
0.5
 40
0.5
 40
1.0
 40
1.0
 40
1.0
 40
1.0
 10
8.26041
 20
6.04218
 30
0.0
 10
7.91089
 20
6.17927
 30
0.0
 10
7.76118
 20
6.56633
 30
0.0
 10
7.71607
 20
7.00385
 30
0.0
 10
7.71607
 20
7.00385
 30
0.0
 10
8.08962
 20
6.70745
 30
0.0
 10
8.32442
 20
6.41713
 30
0.0
 10
8.26041
 20
6.04218
 30
0.0
  0
SPLINE
  5
78
330
1F
100
AcDbEntity
  8
layer 1
 62
    22
370
     9
100
AcDbSpline
210
0.0
220
0.0
230
1.0
 70
    11
 71
     3
 72
    36
 73
    32
 74
     0
 42
0.0000000001
 43
0.0000000001
 40
0.0
 40
0.0
 40
0.0
 40
0.0
 40
0.125
 40
0.125
 40
0.125
 40
0.125
 40
0.25
 40
0.25
 40
0.25
 40
0.25
 40
0.375
 40
0.375
 40
0.375
 40
0.375
 40
0.5
 40
0.5
 40
0.5
 40
0.5
 40
0.625
 40
0.625
 40
0.625
 40
0.625
 40
0.75
 40
0.75
 40
0.75
 40
0.75
 40
0.875
 40
0.875
 40
0.875
 40
0.875
 40
1.0
 40
1.0
 40
1.0
 40
1.0
 10
8.67775
 20
6.97966
 30
0.0
 10
8.56081
 20
6.9111
 30
0.0
 10
8.40357
 20
6.94741
 30
0.0
 10
8.20598
 20
7.08852
 30
0.0
 10
8.20598
 20
7.08852
 30
0.0
 10
8.02659
 20
7.2302
 30
0.0
 10
7.84715
 20
7.17352
 30
0.0
 10
7.66768
 20
7.08852
 30
0.0
 10
7.66768
 20
7.08852
 30
0.0
 10
7.73249
 20
7.27197
 30
0.0
 10
7.775
 20
7.45543
 30
0.0
 10
7.66163
 20
7.63891
 30
0.0
 10
7.66163
 20
7.63891
 30
0.0
 10
7.4679
 20
7.86172
 30
0.0
 10
7.47605
 20
8.00889
 30
0.0
 10
7.54067
 20
8.13487
 30
0.0
 10
7.54067
 20
8.13487
 30
0.0
 10
7.5716
 20
7.90644
 30
0.0
 10
7.68542
 20
7.89352
 30
0.0
 10
7.80679
 20
7.68125
 30
0.0
 10
7.80679
 20
7.68125
 30
0.0
 10
7.86125
 20
7.54413
 30
0.0
 10
7.86729
 20
7.40704
 30
0.0
 10
7.82494
 20
7.26997
 30
0.0
 10
7.82494
 20
7.26997
 30
0.0
 10
8.03764
 20
7.30776
 30
0.0
 10
8.22517
 20
7.29699
 30
0.0
 10
8.35719
 20
7.15505
 30
0.0
 10
8.35719
 20
7.15505
 30
0.0
 10
8.4742
 20
7.0257
 30
0.0
 10
8.56131
 20
7.00503
 30
0.0
 10
8.67775
 20
6.97966
 30
0.0
  0
SPLINE
  5
79
330
1F
100
AcDbEntity
  8
layer 1
 62
    22
370
     9
100
AcDbSpline
210
0.0
220
0.0
230
1.0
 70
    11
 71
     3
 72
    20
 73
    16
 74
     0
 42
0.0000000001
 43
0.0000000001
 40
0.0
 40
0.0
 40
0.0
 40
0.0
 40
0.25
 40
0.25
 40
0.25
 40
0.25
 40
0.5
 40
0.5
 40
0.5
 40
0.5
 40
0.75
 40
0.75
 40
0.75
 40
0.75
 40
1.0
 40
1.0
 40
1.0
 40
1.0
 10
-9.40808
 20
8.74292
 30
0.0
 10
-9.40808
 20
8.74292
 30
0.0
 10
9.28579
 20
8.74292
 30
0.0
 10
9.28579
 20
8.74292
 30
0.0
 10
9.28579
 20
8.74292
 30
0.0
 10
9.28579
 20
8.74292
 30
0.0
 10
9.28579
 20
-6.93754
 30
0.0
 10
9.28579
 20
-6.93754
 30
0.0
 10
9.28579
 20
-6.93754
 30
0.0
 10
9.28579
 20
-6.93754
 30
0.0
 10
-9.40808
 20
-6.93754
 30
0.0
 10
-9.40808
 20
-6.93754
 30
0.0
 10
-9.40808
 20
-6.93754
 30
0.0
 10
-9.40808
 20
-6.93754
 30
0.0
 10
-9.40808
 20
8.74292
 30
0.0
 10
-9.40808
 20
8.74292
 30
0.0
  0
SPLINE
  5
7A
330
1F
100
AcDbEntity
  8
layer 1
 62
    22
370
     9
100
AcDbSpline
210
0.0
220
0.0
230
1.0
 70
    11
 71
     3
 72
    20
 73
    16
 74
     0
 42
0.0000000001
 43
0.0000000001
 40
0.0
 40
0.0
 40
0.0
 40
0.0
 40
0.25
 40
0.25
 40
0.25
 40
0.25
 40
0.5
 40
0.5
 40
0.5
 40
0.5
 40
0.75
 40
0.75
 40
0.75
 40
0.75
 40
1.0
 40
1.0
 40
1.0
 40
1.0
 10
-10.60809
 20
9.94293
 30
0.0
 10
-10.60809
 20
9.94293
 30
0.0
 10
10.48578
 20
9.94293
 30
0.0
 10
10.48578
 20
9.94293
 30
0.0
 10
10.48578
 20
9.94293
 30
0.0
 10
10.48578
 20
9.94293
 30
0.0
 10
10.48578
 20
-8.13754
 30
0.0
 10
10.48578
 20
-8.13754
 30
0.0
 10
10.48578
 20
-8.13754
 30
0.0
 10
10.48578
 20
-8.13754
 30
0.0
 10
-10.60809
 20
-8.13754
 30
0.0
 10
-10.60809
 20
-8.13754
 30
0.0
 10
-10.60809
 20
-8.13754
 30
0.0
 10
-10.60809
 20
-8.13754
 30
0.0
 10
-10.60809
 20
9.94293
 30
0.0
 10
-10.60809
 20
9.94293
 30
0.0
  0
SPLINE
  5
7B
330
1F
100
AcDbEntity
  8
layer 1
 62
    22
370
     9
100
AcDbSpline
210
0.0
220
0.0
230
1.0
 70
    11
 71
     3
 72
    12
 73
     8
 74
     0
 42
0.0000000001
 43
0.0000000001
 40
0.0
 40
0.0
 40
0.0
 40
0.0
 40
0.5
 40
0.5
 40
0.5
 40
0.5
 40
1.0
 40
1.0
 40
1.0
 40
1.0
 10
-7.69321
 20
7.00385
 30
0.0
 10
-7.77476
 20
6.68608
 30
0.0
 10
-7.21191
 20
6.02933
 30
0.0
 10
-6.72549
 20
6.02403
 30
0.0
 10
-6.72549
 20
6.02403
 30
0.0
 10
-6.66538
 20
6.53122
 30
0.0
 10
-7.41109
 20
7.12197
 30
0.0
 10
-7.69321
 20
7.00385
 30
0.0
  0
SPLINE
  5
7C
330
1F
100
AcDbEntity
  8
layer 1
 62
    22
370
     9
100
AcDbSpline
210
0.0
220
0.0
230
1.0
 70
    11
 71
     3
 72
    12
 73
     8
 74
     0
 42
0.0000000001
 43
0.0000000001
 40
0.0
 40
0.0
 40
0.0
 40
0.0
 40
0.5
 40
0.5
 40
0.5
 40
0.5
 40
1.0
 40
1.0
 40
1.0
 40
1.0
 10
-6.08797
 20
7.0563
 30
0.0
 10
-6.2934
 20
6.66121
 30
0.0
 10
-6.71752
 20
6.62504
 30
0.0
 10
-7.46135
 20
7.11338
 30
0.0
 10
-7.46135
 20
7.11338
 30
0.0
 10
-6.76349
 20
7.36817
 30
0.0
 10
-6.67202
 20
6.96558
 30
0.0
 10
-6.08797
 20
7.0563
 30
0.0
  0
SPLINE
  5
7D
330
1F
100
AcDbEntity
  8
layer 1
 62
    22
370
     9
100
AcDbSpline
210
0.0
220
0.0
230
1.0
 70
    11
 71
     3
 72
    12
 73
     8
 74
     0
 42
0.0000000001
 43
0.0000000001
 40
0.0
 40
0.0
 40
0.0
 40
0.0
 40
0.5
 40
0.5
 40
0.5
 40
0.5
 40
1.0
 40
1.0
 40
1.0
 40
1.0
 10
-7.72345
 20
5.40711
 30
0.0
 10
-7.32979
 20
5.61526
 30
0.0
 10
-7.29653
 20
6.03961
 30
0.0
 10
-7.78998
 20
6.78006
 30
0.0
 10
-7.78998
 20
6.78006
 30
0.0
 10
-8.03996
 20
6.08047
 30
0.0
 10
-7.63675
 20
5.99177
 30
0.0
 10
-7.72345
 20
5.40711
 30
0.0
  0
SPLINE
  5
7E
330
1F
100
AcDbEntity
  8
layer 1
 62
    22
370
     9
100
AcDbSpline
210
0.0
220
0.0
230
1.0
 70
    11
 71
     3
 72
    12
 73
     8
 74
     0
 42
0.0000000001
 43
0.0000000001
 40
0.0
 40
0.0
 40
0.0
 40
0.0
 40
0.5
 40
0.5
 40
0.5
 40
0.5
 40
1.0
 40
1.0
 40
1.0
 40
1.0
 10
-6.7316
 20
7.72034
 30
0.0
 10
-7.10299
 20
7.77539
 30
0.0
 10
-7.42548
 20
7.51417
 30
0.0
 10
-7.68235
 20
7.15714
 30
0.0
 10
-7.68235
 20
7.15714
 30
0.0
 10
-7.21084
 20
7.22832
 30
0.0
 10
-6.8627
 20
7.36327
 30
0.0
 10
-6.7316
 20
7.72034
 30
0.0
  0
SPLINE
  5
7F
330
1F
100
AcDbEntity
  8
layer 1
 62
    22
370
     9
100
AcDbSpline
210
0.0
220
0.0
230
1.0
 70
    11
 71
     3
 72
    12
 73
     8
 74
     0
 42
0.0000000001
 43
0.0000000001
 40
0.0
 40
0.0
 40
0.0
 40
0.0
 40
0.5
 40
0.5
 40
0.5
 40
0.5
 40
1.0
 40
1.0
 40
1.0
 40
1.0
 10
-8.38271
 20
6.04218
 30
0.0
 10
-8.03319
 20
6.17927
 30
0.0
 10
-7.88348
 20
6.56633
 30
0.0
 10
-7.83837
 20
7.00385
 30
0.0
 10
-7.83837
 20
7.00385
 30
0.0
 10
-8.21192
 20
6.70745
 30
0.0
 10
-8.44672
 20
6.41713
 30
0.0
 10
-8.38271
 20
6.04218
 30
0.0
  0
SPLINE
  5
80
330
1F
100
AcDbEntity
  8
layer 1
 62
    22
370
     9
100
AcDbSpline
210
0.0
220
0.0
230
1.0
 70
    11
 71
     3
 72
    36
 73
    32
 74
     0
 42
0.0000000001
 43
0.0000000001
 40
0.0
 40
0.0
 40
0.0
 40
0.0
 40
0.125
 40
0.125
 40
0.125
 40
0.125
 40
0.25
 40
0.25
 40
0.25
 40
0.25
 40
0.375
 40
0.375
 40
0.375
 40
0.375
 40
0.5
 40
0.5
 40
0.5
 40
0.5
 40
0.625
 40
0.625
 40
0.625
 40
0.625
 40
0.75
 40
0.75
 40
0.75
 40
0.75
 40
0.875
 40
0.875
 40
0.875
 40
0.875
 40
1.0
 40
1.0
 40
1.0
 40
1.0
 10
-8.80004
 20
6.97966
 30
0.0
 10
-8.6831
 20
6.9111
 30
0.0
 10
-8.52587
 20
6.94741
 30
0.0
 10
-8.32828
 20
7.08852
 30
0.0
 10
-8.32828
 20
7.08852
 30
0.0
 10
-8.14889
 20
7.2302
 30
0.0
 10
-7.96945
 20
7.17352
 30
0.0
 10
-7.78998
 20
7.08852
 30
0.0
 10
-7.78998
 20
7.08852
 30
0.0
 10
-7.85479
 20
7.27197
 30
0.0
 10
-7.8973
 20
7.45543
 30
0.0
 10
-7.78393
 20
7.63891
 30
0.0
 10
-7.78393
 20
7.63891
 30
0.0
 10
-7.5902
 20
7.86172
 30
0.0
 10
-7.59835
 20
8.00889
 30
0.0
 10
-7.66297
 20
8.13487
 30
0.0
 10
-7.66297
 20
8.13487
 30
0.0
 10
-7.6939
 20
7.90644
 30
0.0
 10
-7.80771
 20
7.89352
 30
0.0
 10
-7.92909
 20
7.68125
 30
0.0
 10
-7.92909
 20
7.68125
 30
0.0
 10
-7.98355
 20
7.54413
 30
0.0
 10
-7.98959
 20
7.40704
 30
0.0
 10
-7.94724
 20
7.26997
 30
0.0
 10
-7.94724
 20
7.26997
 30
0.0
 10
-8.15994
 20
7.30776
 30
0.0
 10
-8.34747
 20
7.29699
 30
0.0
 10
-8.47949
 20
7.15505
 30
0.0
 10
-8.47949
 20
7.15505
 30
0.0
 10
-8.5965
 20
7.0257
 30
0.0
 10
-8.68361
 20
7.00503
 30
0.0
 10
-8.80004
 20
6.97966
 30
0.0
  0
ENDSEC
  0
SECTION
  2
OBJECTS
  0
DICTIONARY
  5
C
330
0
100
AcDbDictionary
281
     1
  3
ACAD_GROUP
350
D
  3
ACAD_LAYOUT
350
1A
  3
ACAD_MLEADERSTYLE
350
82
  3
ACAD_MLINESTYLE
350
17
  3
ACAD_PLOTSETTINGS
350
19
  3
ACAD_PLOTSTYLENAME
350
E
  3
ACAD_SCALELIST
350
3B
  3
ACAD_TABLESTYLE
350
81
  3
ACAD_VISUALSTYLE
350
2A
  0
DICTIONARY
  5
D
102
{ACAD_REACTORS
330
C
102
}
330
C
100
AcDbDictionary
281
     1
  0
DICTIONARY
  5
1A
102
{ACAD_REACTORS
330
C
102
}
330
C
100
AcDbDictionary
281
     1
  3
Layout1
350
1E
  3
Layout2
350
26
  3
Model
350
22
  0
DICTIONARY
  5
82
102
{ACAD_REACTORS
330
C
102
}
330
C
100
AcDbDictionary
281
     1
  0
DICTIONARY
  5
17
102
{ACAD_REACTORS
330
C
102
}
330
C
100
AcDbDictionary
281
     1
  3
Standard
350
18
  0
DICTIONARY
  5
19
102
{ACAD_REACTORS
330
C
102
}
330
C
100
AcDbDictionary
281
     1
  0
ACDBDICTIONARYWDFLT
  5
E
102
{ACAD_REACTORS
330
C
102
}
330
C
100
AcDbDictionary
281
     1
  3
Normal
350
F
100
AcDbDictionaryWithDefault
340
F
  0
DICTIONARY
  5
3B
102
{ACAD_REACTORS
330
C
102
}
330
C
100
AcDbDictionary
281
     1
  3
A0
350
3C
  3
A1
350
3D
  3
A2
350
3E
  3
A3
350
3F
  3
A4
350
40
  3
A5
350
41
  3
A6
350
42
  3
A7
350
43
  3
A8
350
44
  3
A9
350
45
  3
B0
350
46
  3
B1
350
47
  3
B2
350
48
  3
B3
350
49
  3
B4
350
4A
  3
B5
350
4B
  3
B6
350
4C
  3
B7
350
4D
  3
B8
350
4E
  3
B9
350
4F
  3
C0
350
50
  3
C1
350
51
  3
C2
350
52
  3
C3
350
53
  3
C4
350
54
  3
C5
350
55
  3
C6
350
56
  3
C7
350
57
  3
C8
350
58
  3
C9
350
59
  3
D0
350
5A
  3
D1
350
5B
  3
D2
350
5C
  0
DICTIONARY
  5
81
102
{ACAD_REACTORS
330
C
102
}
330
C
100
AcDbDictionary
281
     1
  0
DICTIONARY
  5
2A
102
{ACAD_REACTORS
330
C
102
}
330
C
100
AcDbDictionary
281
     1
  3
2dWireframe
350
2F
  3
3D Hidden
350
31
  3
3dWireframe
350
30
  3
Basic
350
32
  3
Brighten
350
36
  3
ColorChange
350
3A
  3
Conceptual
350
34
  3
Dim
350
35
  3
Facepattern
350
39
  3
Flat
350
2B
  3
FlatWithEdges
350
2C
  3
Gouraud
350
2D
  3
GouraudWithEdges
350
2E
  3
Linepattern
350
38
  3
Realistic
350
33
  3
Thicken
350
37
  0
LAYOUT
  5
1E
102
{ACAD_REACTORS
330
1A
102
}
330
1A
100
AcDbPlotSettings
  1

  2
none_device
  4

  6

 40
0.0
 41
0.0
 42
0.0
 43
0.0
 44
0.0
 45
0.0
 46
0.0
 47
0.0
 48
0.0
 49
0.0
140
0.0
141
0.0
142
1.0
143
1.0
 70
   688
 72
     0
 73
     0
 74
     5
  7

 75
    16
 76
     0
 77
     2
 78
   300
147
1.0
148
0.0
149
0.0
100
AcDbLayout
  1
Layout1
 70
     1
 71
     1
 10
0.0
 20
0.0
 11
12.0
 21
9.0
 12
0.0
 22
0.0
 32
0.0
 14
1.000000000000000E+20
 24
1.000000000000000E+20
 34
1.000000000000000E+20
 15
-1.000000000000000E+20
 25
-1.000000000000000E+20
 35
-1.000000000000000E+20
146
0.0
 13
0.0
 23
0.0
 33
0.0
 16
1.0
 26
0.0
 36
0.0
 17
0.0
 27
1.0
 37
0.0
 76
     0
330
1B
  0
LAYOUT
  5
26
102
{ACAD_REACTORS
330
1A
102
}
330
1A
100
AcDbPlotSettings
  1

  2
none_device
  4

  6

 40
0.0
 41
0.0
 42
0.0
 43
0.0
 44
0.0
 45
0.0
 46
0.0
 47
0.0
 48
0.0
 49
0.0
140
0.0
141
0.0
142
1.0
143
1.0
 70
   688
 72
     0
 73
     0
 74
     5
  7

 75
    16
 76
     0
 77
     2
 78
   300
147
1.0
148
0.0
149
0.0
100
AcDbLayout
  1
Layout2
 70
     1
 71
     2
 10
0.0
 20
0.0
 11
0.0
 21
0.0
 12
0.0
 22
0.0
 32
0.0
 14
0.0
 24
0.0
 34
0.0
 15
0.0
 25
0.0
 35
0.0
146
0.0
 13
0.0
 23
0.0
 33
0.0
 16
1.0
 26
0.0
 36
0.0
 17
0.0
 27
1.0
 37
0.0
 76
     0
330
23
  0
LAYOUT
  5
22
102
{ACAD_REACTORS
330
1A
102
}
330
1A
100
AcDbPlotSettings
  1

  2
none_device
  4

  6

 40
0.0
 41
0.0
 42
0.0
 43
0.0
 44
0.0
 45
0.0
 46
0.0
 47
0.0
 48
0.0
 49
0.0
140
0.0
141
0.0
142
1.0
143
1.0
 70
  1712
 72
     0
 73
     0
 74
     0
  7

 75
     0
 76
     0
 77
     2
 78
   300
147
1.0
148
0.0
149
0.0
100
AcDbLayout
  1
Model
 70
     1
 71
     0
 10
0.0
 20
0.0
 11
12.0
 21
9.0
 12
0.0
 22
0.0
 32
0.0
 14
-10.6119
 24
-8.14135
 34
0.0
 15
10.48959
 25
9.94674
 35
0.0
146
0.0
 13
0.0
 23
0.0
 33
0.0
 16
1.0
 26
0.0
 36
0.0
 17
0.0
 27
1.0
 37
0.0
 76
     0
330
1F
331
29
  0
MLINESTYLE
  5
18
102
{ACAD_REACTORS
330
17
102
}
330
17
100
AcDbMlineStyle
  2
Standard
 70
     0
  3

 62
   256
 51
90.0
 52
90.0
 71
     2
 49
0.5
 62
   256
  6
BYLAYER
 49
-0.5
 62
   256
  6
BYLAYER
  0
ACDBPLACEHOLDER
  5
F
102
{ACAD_REACTORS
330
E
102
}
330
E
  0
SCALE
  5
3C
102
{ACAD_REACTORS
330
3B
102
}
330
3B
100
AcDbScale
 70
     0
300
1:1
140
1.0
141
1.0
290
     1
  0
SCALE
  5
3D
102
{ACAD_REACTORS
330
3B
102
}
330
3B
100
AcDbScale
 70
     0
300
1:2
140
1.0
141
2.0
290
     0
  0
SCALE
  5
3E
102
{ACAD_REACTORS
330
3B
102
}
330
3B
100
AcDbScale
 70
     0
300
1:4
140
1.0
141
4.0
290
     0
  0
SCALE
  5
3F
102
{ACAD_REACTORS
330
3B
102
}
330
3B
100
AcDbScale
 70
     0
300
1:5
140
1.0
141
5.0
290
     0
  0
SCALE
  5
40
102
{ACAD_REACTORS
330
3B
102
}
330
3B
100
AcDbScale
 70
     0
300
1:8
140
1.0
141
8.0
290
     0
  0
SCALE
  5
41
102
{ACAD_REACTORS
330
3B
102
}
330
3B
100
AcDbScale
 70
     0
300
1:10
140
1.0
141
10.0
290
     0
  0
SCALE
  5
42
102
{ACAD_REACTORS
330
3B
102
}
330
3B
100
AcDbScale
 70
     0
300
1:16
140
1.0
141
16.0
290
     0
  0
SCALE
  5
43
102
{ACAD_REACTORS
330
3B
102
}
330
3B
100
AcDbScale
 70
     0
300
1:20
140
1.0
141
20.0
290
     0
  0
SCALE
  5
44
102
{ACAD_REACTORS
330
3B
102
}
330
3B
100
AcDbScale
 70
     0
300
1:30
140
1.0
141
30.0
290
     0
  0
SCALE
  5
45
102
{ACAD_REACTORS
330
3B
102
}
330
3B
100
AcDbScale
 70
     0
300
1:40
140
1.0
141
40.0
290
     0
  0
SCALE
  5
46
102
{ACAD_REACTORS
330
3B
102
}
330
3B
100
AcDbScale
 70
     0
300
1:50
140
1.0
141
50.0
290
     0
  0
SCALE
  5
47
102
{ACAD_REACTORS
330
3B
102
}
330
3B
100
AcDbScale
 70
     0
300
1:100
140
1.0
141
100.0
290
     0
  0
SCALE
  5
48
102
{ACAD_REACTORS
330
3B
102
}
330
3B
100
AcDbScale
 70
     0
300
2:1
140
2.0
141
1.0
290
     0
  0
SCALE
  5
49
102
{ACAD_REACTORS
330
3B
102
}
330
3B
100
AcDbScale
 70
     0
300
4:1
140
4.0
141
1.0
290
     0
  0
SCALE
  5
4A
102
{ACAD_REACTORS
330
3B
102
}
330
3B
100
AcDbScale
 70
     0
300
8:1
140
8.0
141
1.0
290
     0
  0
SCALE
  5
4B
102
{ACAD_REACTORS
330
3B
102
}
330
3B
100
AcDbScale
 70
     0
300
10:1
140
10.0
141
1.0
290
     0
  0
SCALE
  5
4C
102
{ACAD_REACTORS
330
3B
102
}
330
3B
100
AcDbScale
 70
     0
300
100:1
140
100.0
141
1.0
290
     0
  0
SCALE
  5
4D
102
{ACAD_REACTORS
330
3B
102
}
330
3B
100
AcDbScale
 70
     0
300
1/128" = 1'-0"
140
0.0078125
141
12.0
290
     0
  0
SCALE
  5
4E
102
{ACAD_REACTORS
330
3B
102
}
330
3B
100
AcDbScale
 70
     0
300
1/64" = 1'-0"
140
0.015625
141
12.0
290
     0
  0
SCALE
  5
4F
102
{ACAD_REACTORS
330
3B
102
}
330
3B
100
AcDbScale
 70
     0
300
1/32" = 1'-0"
140
0.03125
141
12.0
290
     0
  0
SCALE
  5
50
102
{ACAD_REACTORS
330
3B
102
}
330
3B
100
AcDbScale
 70
     0
300
1/16" = 1'-0"
140
0.0625
141
12.0
290
     0
  0
SCALE
  5
51
102
{ACAD_REACTORS
330
3B
102
}
330
3B
100
AcDbScale
 70
     0
300
3/32" = 1'-0"
140
0.09375
141
12.0
290
     0
  0
SCALE
  5
52
102
{ACAD_REACTORS
330
3B
102
}
330
3B
100
AcDbScale
 70
     0
300
1/8" = 1'-0"
140
0.125
141
12.0
290
     0
  0
SCALE
  5
53
102
{ACAD_REACTORS
330
3B
102
}
330
3B
100
AcDbScale
 70
     0
300
3/16" = 1'-0"
140
0.1875
141
12.0
290
     0
  0
SCALE
  5
54
102
{ACAD_REACTORS
330
3B
102
}
330
3B
100
AcDbScale
 70
     0
300
1/4" = 1'-0"
140
0.25
141
12.0
290
     0
  0
SCALE
  5
55
102
{ACAD_REACTORS
330
3B
102
}
330
3B
100
AcDbScale
 70
     0
300
3/8" = 1'-0"
140
0.375
141
12.0
290
     0
  0
SCALE
  5
56
102
{ACAD_REACTORS
330
3B
102
}
330
3B
100
AcDbScale
 70
     0
300
1/2" = 1'-0"
140
0.5
141
12.0
290
     0
  0
SCALE
  5
57
102
{ACAD_REACTORS
330
3B
102
}
330
3B
100
AcDbScale
 70
     0
300
3/4" = 1'-0"
140
0.75
141
12.0
290
     0
  0
SCALE
  5
58
102
{ACAD_REACTORS
330
3B
102
}
330
3B
100
AcDbScale
 70
     0
300
1" = 1'-0"
140
1.0
141
12.0
290
     0
  0
SCALE
  5
59
102
{ACAD_REACTORS
330
3B
102
}
330
3B
100
AcDbScale
 70
     0
300
1-1/2" = 1'-0"
140
1.5
141
12.0
290
     0
  0
SCALE
  5
5A
102
{ACAD_REACTORS
330
3B
102
}
330
3B
100
AcDbScale
 70
     0
300
3" = 1'-0"
140
3.0
141
12.0
290
     0
  0
SCALE
  5
5B
102
{ACAD_REACTORS
330
3B
102
}
330
3B
100
AcDbScale
 70
     0
300
6" = 1'-0"
140
6.0
141
12.0
290
     0
  0
SCALE
  5
5C
102
{ACAD_REACTORS
330
3B
102
}
330
3B
100
AcDbScale
 70
     0
300
1'-0" = 1'-0"
140
12.0
141
12.0
290
     0
  0
VISUALSTYLE
  5
2F
102
{ACAD_REACTORS
330
2A
102
}
330
2A
100
AcDbVisualStyle
  2
2dWireframe
 70
     4
 71
     0
 72
     2
 73
     0
 90
        0
 40
-0.6
 41
-30.0
 62
     5
 63
     7
421
 16777215
 74
     1
 91
        4
 64
     7
 65
   257
 75
     1
175
     1
 42
1.0
 92
        0
 66
   257
 43
1.0
 76
     1
 77
     6
 78
     2
 67
     7
 79
     5
170
     0
171
     0
290
     0
174
     0
 93
        1
 44
0.0
173
     0
291
     0
 45
0.0
  0
VISUALSTYLE
  5
31
102
{ACAD_REACTORS
330
2A
102
}
330
2A
100
AcDbVisualStyle
  2
3D Hidden
 70
     6
 71
     1
 72
     2
 73
     2
 90
        0
 40
-0.6
 41
-30.0
 62
     5
 63
     7
421
 16777215
 74
     2
 91
        2
 64
     7
 65
   257
 75
     2
175
     1
 42
40.0
 92
        0
 66
   257
 43
1.0
 76
     1
 77
     6
 78
     2
 67
     7
 79
     3
170
     0
171
     0
290
     0
174
     0
 93
        1
 44
0.0
173
     0
291
     0
 45
0.0
  0
VISUALSTYLE
  5
30
102
{ACAD_REACTORS
330
2A
102
}
330
2A
100
AcDbVisualStyle
  2
3dWireframe
 70
     5
 71
     0
 72
     2
 73
     0
 90
        0
 40
-0.6
 41
-30.0
 62
     5
 63
     7
421
 16777215
 74
     1
 91
        4
 64
     7
 65
   257
 75
     1
175
     1
 42
1.0
 92
        0
 66
   257
 43
1.0
 76
     1
 77
     6
 78
     2
 67
     7
 79
     5
170
     0
171
     0
290
     0
174
     0
 93
        1
 44
0.0
173
     0
291
     0
 45
0.0
  0
VISUALSTYLE
  5
32
102
{ACAD_REACTORS
330
2A
102
}
330
2A
100
AcDbVisualStyle
  2
Basic
 70
     7
 71
     1
 72
     0
 73
     1
 90
        0
 40
-0.6
 41
-30.0
 62
     5
 63
     7
421
 16777215
 74
     0
 91
        4
 64
     7
 65
   257
 75
     1
175
     1
 42
1.0
 92
        8
 66
     7
 43
1.0
 76
     1
 77
     6
 78
     2
 67
     7
 79
     5
170
     0
171
     0
290
     0
174
     0
 93
        1
 44
0.0
173
     0
291
     1
 45
0.0
  0
VISUALSTYLE
  5
36
102
{ACAD_REACTORS
330
2A
102
}
330
2A
100
AcDbVisualStyle
  2
Brighten
 70
    12
 71
     2
 72
     2
 73
     0
 90
        0
 40
-0.6
 41
-30.0
 62
     5
 63
     7
421
 16777215
 74
     1
 91
        4
 64
     7
 65
   257
 75
     1
175
     1
 42
1.0
 92
        8
 66
     7
 43
1.0
 76
     1
 77
     6
 78
     2
 67
     7
 79
     5
170
     0
171
     0
290
     0
174
     0
 93
        1
 44
50.0
173
     0
291
     1
 45
0.0
  0
VISUALSTYLE
  5
3A
102
{ACAD_REACTORS
330
2A
102
}
330
2A
100
AcDbVisualStyle
  2
ColorChange
 70
    16
 71
     2
 72
     2
 73
     3
 90
        0
 40
-0.6
 41
-30.0
 62
     5
 63
     8
421
  8421504
 74
     1
 91
        4
 64
     7
 65
   257
 75
     1
175
     1
 42
1.0
 92
        8
 66
     8
424
  8421504
 43
1.0
 76
     1
 77
     6
 78
     2
 67
     7
 79
     5
170
     0
171
     0
290
     0
174
     0
 93
        1
 44
0.0
173
     0
291
     1
 45
0.0
  0
VISUALSTYLE
  5
34
102
{ACAD_REACTORS
330
2A
102
}
330
2A
100
AcDbVisualStyle
  2
Conceptual
 70
     9
 71
     3
 72
     2
 73
     0
 90
        0
 40
-0.6
 41
-30.0
 62
     5
 63
     7
421
 16777215
 74
     2
 91
        2
 64
     7
 65
   257
 75
     1
175
     1
 42
40.0
 92
        8
 66
     7
 43
1.0
 76
     1
 77
     6
 78
     2
 67
     7
 79
     3
170
     0
171
     0
290
     0
174
     0
 93
        1
 44
0.0
173
     0
291
     0
 45
0.0
  0
VISUALSTYLE
  5
35
102
{ACAD_REACTORS
330
2A
102
}
330
2A
100
AcDbVisualStyle
  2
Dim
 70
    11
 71
     2
 72
     2
 73
     0
 90
        0
 40
-0.6
 41
-30.0
 62
     5
 63
     7
421
 16777215
 74
     1
 91
        4
 64
     7
 65
   257
 75
     1
175
     1
 42
1.0
 92
        8
 66
     7
 43
1.0
 76
     1
 77
     6
 78
     2
 67
     7
 79
     5
170
     0
171
     0
290
     0
174
     0
 93
        1
 44
-50.0
173
     0
291
     1
 45
0.0
  0
VISUALSTYLE
  5
39
102
{ACAD_REACTORS
330
2A
102
}
330
2A
100
AcDbVisualStyle
  2
Facepattern
 70
    15
 71
     2
 72
     2
 73
     0
 90
        0
 40
-0.6
 41
-30.0
 62
     5
 63
     7
421
 16777215
 74
     1
 91
        4
 64
     7
 65
   257
 75
     1
175
     1
 42
1.0
 92
        8
 66
     7
 43
1.0
 76
     1
 77
     6
 78
     2
 67
     7
 79
     5
170
     0
171
     0
290
     0
174
     0
 93
        1
 44
0.0
173
     0
291
     1
 45
0.0
  0
VISUALSTYLE
  5
2B
102
{ACAD_REACTORS
330
2A
102
}
330
2A
100
AcDbVisualStyle
  2
Flat
 70
     0
 71
     2
 72
     1
 73
     1
 90
        2
 40
-0.6
 41
30.0
 62
     5
 63
     7
421
 16777215
 74
     0
 91
        4
 64
     7
 65
   257
 75
     1
175
     1
 42
1.0
 92
        8
 66
     7
 43
1.0
 76
     1
 77
     6
 78
     2
 67
     7
 79
     5
170
     0
171
     0
290
     0
174
     0
 93
       13
 44
0.0
173
     0
291
     1
 45
0.0
  0
VISUALSTYLE
  5
2C
102
{ACAD_REACTORS
330
2A
102
}
330
2A
100
AcDbVisualStyle
  2
FlatWithEdges
 70
     1
 71
     2
 72
     1
 73
     1
 90
        2
 40
-0.6
 41
30.0
 62
     5
 63
     7
421
 16777215
 74
     1
 91
        4
 64
     7
 65
   257
 75
     1
175
     1
 42
1.0
 92
        0
 66
   257
 43
1.0
 76
     1
 77
     6
 78
     2
 67
     7
 79
     5
170
     0
171
     0
290
     0
174
     0
 93
       13
 44
0.0
173
     0
291
     1
 45
0.0
  0
VISUALSTYLE
  5
2D
102
{ACAD_REACTORS
330
2A
102
}
330
2A
100
AcDbVisualStyle
  2
Gouraud
 70
     2
 71
     2
 72
     2
 73
     1
 90
        2
 40
-0.6
 41
30.0
 62
     5
 63
     7
421
 16777215
 74
     0
 91
        4
 64
     7
 65
   257
 75
     1
175
     1
 42
1.0
 92
        0
 66
     7
 43
1.0
 76
     1
 77
     6
 78
     2
 67
     7
 79
     5
170
     0
171
     0
290
     0
174
     0
 93
       13
 44
0.0
173
     0
291
     1
 45
0.0
  0
VISUALSTYLE
  5
2E
102
{ACAD_REACTORS
330
2A
102
}
330
2A
100
AcDbVisualStyle
  2
GouraudWithEdges
 70
     3
 71
     2
 72
     2
 73
     1
 90
        2
 40
-0.6
 41
30.0
 62
     5
 63
     7
421
 16777215
 74
     1
 91
        4
 64
     7
 65
   257
 75
     1
175
     1
 42
1.0
 92
        0
 66
   257
 43
1.0
 76
     1
 77
     6
 78
     2
 67
     7
 79
     5
170
     0
171
     0
290
     0
174
     0
 93
       13
 44
0.0
173
     0
291
     1
 45
0.0
  0
VISUALSTYLE
  5
38
102
{ACAD_REACTORS
330
2A
102
}
330
2A
100
AcDbVisualStyle
  2
Linepattern
 70
    14
 71
     2
 72
     2
 73
     0
 90
        0
 40
-0.6
 41
-30.0
 62
     5
 63
     7
421
 16777215
 74
     1
 91
        4
 64
     7
 65
   257
 75
     7
175
     7
 42
1.0
 92
        8
 66
     7
 43
1.0
 76
     1
 77
     6
 78
     2
 67
     7
 79
     5
170
     0
171
     0
290
     0
174
     0
 93
        1
 44
0.0
173
     0
291
     1
 45
0.0
  0
VISUALSTYLE
  5
33
102
{ACAD_REACTORS
330
2A
102
}
330
2A
100
AcDbVisualStyle
  2
Realistic
 70
     8
 71
     2
 72
     2
 73
     0
 90
        0
 40
-0.6
 41
-30.0
 62
     5
 63
     7
421
 16777215
 74
     1
 91
        0
 64
     7
 65
   257
 75
     1
175
     1
 42
1.0
 92
        8
 66
     8
424
  7895160
 43
1.0
 76
     1
 77
     6
 78
     2
 67
     7
 79
     5
170
     0
171
     0
290
     0
174
     0
 93
       13
 44
0.0
173
     0
291
     0
 45
0.0
  0
VISUALSTYLE
  5
37
102
{ACAD_REACTORS
330
2A
102
}
330
2A
100
AcDbVisualStyle
  2
Thicken
 70
    13
 71
     2
 72
     2
 73
     0
 90
        0
 40
-0.6
 41
-30.0
 62
     5
 63
     7
421
 16777215
 74
     1
 91
        4
 64
     7
 65
   257
 75
     1
175
     1
 42
1.0
 92
       12
 66
     7
 43
1.0
 76
     1
 77
     6
 78
     2
 67
     7
 79
     5
170
     0
171
     0
290
     0
174
     0
 93
        1
 44
0.0
173
     0
291
     1
 45
0.0
  0
ENDSEC
  0
EOF
