  0
SECTION
  2
HEADER
  9
$ACADVER
  1
AC1009
  9
$DWGCODEPAGE
  3
ansi_1252
  9
$INSBASE
 10
0.0
 20
0.0
 30
0.0
  9
$EXTMIN
 10
10.0
 20
10.0
 30
0.0
  9
$EXTMAX
 10
430.0
 20
290.0
 30
0.0
  9
$LIMMIN
 10
0.0
 20
0.0
  9
$LIMMAX
 10
12.0
 20
9.0
  9
$ORTHOMODE
 70
     0
  9
$REGENMODE
 70
     1
  9
$FILLMODE
 70
     1
  9
$QTEXTMODE
 70
     0
  9
$MIRRTEXT
 70
     1
  9
$DRAGMODE
 70
     2
  9
$LTSCALE
 40
1.0
  9
$OSMODE
 70
    37
  9
$ATTMODE
 70
     1
  9
$TEXTSIZE
 40
0.2
  9
$TRACEWID
 40
0.05
  9
$TEXTSTYLE
  7
STANDARD
  9
$CLAYER
  8
0
  9
$CELTYPE
  6
BYLAYER
  9
$CECOLOR
 62
   256
  9
$DIMSCALE
 40
1.0
  9
$DIMASZ
 40
0.18
  9
$DIMEXO
 40
0.0625
  9
$DIMDLI
 40
0.38
  9
$DIMRND
 40
0.0
  9
$DIMDLE
 40
0.0
  9
$DIMEXE
 40
0.18
  9
$DIMTP
 40
0.0
  9
$DIMTM
 40
0.0
  9
$DIMTXT
 40
0.18
  9
$DIMCEN
 40
0.09
  9
$DIMTSZ
 40
0.0
  9
$DIMTOL
 70
     0
  9
$DIMLIM
 70
     0
  9
$DIMTIH
 70
     1
  9
$DIMTOH
 70
     1
  9
$DIMSE1
 70
     0
  9
$DIMSE2
 70
     0
  9
$DIMTAD
 70
     0
  9
$DIMZIN
 70
     0
  9
$DIMBLK
  1

  9
$DIMASO
 70
     1
  9
$DIMSHO
 70
     1
  9
$DIMPOST
  1

  9
$DIMAPOST
  1

  9
$DIMALT
 70
     0
  9
$DIMALTD
 70
     2
  9
$DIMALTF
 40
25.4
  9
$DIMLFAC
 40
1.0
  9
$DIMTOFL
 70
     0
  9
$DIMTVP
 40
0.0
  9
$DIMTIX
 70
     0
  9
$DIMSOXD
 70
     0
  9
$DIMSAH
 70
     0
  9
$DIMBLK1
  1

  9
$DIMBLK2
  1

  9
$DIMSTYLE
  2
STANDARD
  9
$DIMCLRD
 70
     0
  9
$DIMCLRE
 70
     0
  9
$DIMCLRT
 70
     0
  9
$DIMTFAC
 40
1.0
  9
$DIMGAP
 40
0.09
  9
$LUNITS
 70
     2
  9
$LUPREC
 70
     4
  9
$SKETCHINC
 40
0.1
  9
$FILLETRAD
 40
0.5
  9
$AUNITS
 70
     0
  9
$AUPREC
 70
     0
  9
$MENU
  1
.
  9
$ELEVATION
 40
0.0
  9
$PELEVATION
 40
0.0
  9
$THICKNESS
 40
0.0
  9
$LIMCHECK
 70
     0
  9
$CHAMFERA
 40
0.5
  9
$CHAMFERB
 40
0.5
  9
$SKPOLY
 70
     0
  9
$TDCREATE
 40
2454910.5
  9
$TDUPDATE
 40
2455499.719741562
  9
$TDINDWG
 40
0.0000000116
  9
$TDUSRTIMER
 40
0.0000000116
  9
$USRTIMER
 70
     1
  9
$ANGBASE
 50
0.0
  9
$ANGDIR
 70
     0
  9
$PDMODE
 70
     0
  9
$PDSIZE
 40
0.0
  9
$PLINEWID
 40
0.0
  9
$COORDS
 70
     1
  9
$SPLFRAME
 70
     0
  9
$SPLINETYPE
 70
     6
  9
$SPLINESEGS
 70
     8
  9
$ATTDIA
 70
     0
  9
$ATTREQ
 70
     1
  9
$HANDLING
 70
     1
  9
$HANDSEED
  5
575
  9
$SURFTAB1
 70
     6
  9
$SURFTAB2
 70
     6
  9
$SURFTYPE
 70
     6
  9
$SURFU
 70
     6
  9
$SURFV
 70
     6
  9
$UCSNAME
  2

  9
$UCSORG
 10
0.0
 20
0.0
 30
0.0
  9
$UCSXDIR
 10
1.0
 20
0.0
 30
0.0
  9
$UCSYDIR
 10
0.0
 20
1.0
 30
0.0
  9
$PUCSNAME
  2

  9
$PUCSORG
 10
0.0
 20
0.0
 30
0.0
  9
$PUCSXDIR
 10
1.0
 20
0.0
 30
0.0
  9
$PUCSYDIR
 10
0.0
 20
1.0
 30
0.0
  9
$USERI1
 70
     0
  9
$USERI2
 70
     0
  9
$USERI3
 70
     0
  9
$USERI4
 70
     0
  9
$USERI5
 70
     0
  9
$USERR1
 40
0.0
  9
$USERR2
 40
0.0
  9
$USERR3
 40
0.0
  9
$USERR4
 40
0.0
  9
$USERR5
 40
0.0
  9
$WORLDVIEW
 70
     1
  9
$SHADEDGE
 70
     3
  9
$SHADEDIF
 70
    70
  9
$TILEMODE
 70
     1
  9
$MAXACTVP
 70
    64
  9
$PLIMCHECK
 70
     0
  9
$PEXTMIN
 10
1.000000000000000E 20
 20
1.000000000000000E 20
 30
1.000000000000000E 20
  9
$PEXTMAX
 10
-1.000000000000000E 20
 20
-1.000000000000000E 20
 30
-1.000000000000000E 20
  9
$PLIMMIN
 10
0.0
 20
0.0
  9
$PLIMMAX
 10
12.0
 20
9.0
  9
$UNITMODE
 70
     0
  9
$VISRETAIN
 70
     1
  9
$PLINEGEN
 70
     0
  9
$PSLTSCALE
 70
     1
  0
ENDSEC
  0
SECTION
  2
TABLES
  0
TABLE
  2
VPORT
 70
     1
  0
VPORT
  2
*ACTIVE
 70
     0
 10
0.0
 20
0.0
 11
1.0
 21
1.0
 12
10.42990654205607
 22
4.5
 13
0.0
 23
0.0
 14
0.5
 24
0.5
 15
0.5
 25
0.5
 16
0.0
 26
0.0
 36
1.0
 17
0.0
 27
0.0
 37
0.0
 40
9.0
 41
1.972972972850329
 42
50.0
 43
0.0
 44
0.0
 50
0.0
 51
0.0
 71
     0
 72
   100
 73
     1
 74
     3
 75
     0
 76
     0
 77
     0
 78
     0
  0
ENDTAB
  0
TABLE
  2
LTYPE
 70
     2
  0
LTYPE
  2
CONTINUOUS
 70
     0
  3
Solid line
 72
    65
 73
     0
 40
0.0
  0
LTYPE
  2
CONTINUOUS2
 70
     0
  3
Solid Line
 72
    65
 73
     0
 40
0.0
  0
ENDTAB
  0
TABLE
  2
LAYER
 70
     3
  0
LAYER
  2
0
 70
     0
 62
     7
  6
CONTINUOUS
  0
LAYER
  2
DEFPOINTS
 70
     0
 62
     1
  6
CONTINUOUS
  0
LAYER
  2
LAYER1
 70
     0
 62
     5
  6
CONTINUOUS
  0
ENDTAB
  0
TABLE
  2
STYLE
 70
     1
  0
STYLE
  2
STANDARD
 70
     0
 40
0.0
 41
1.0
 50
0.0
 71
     0
 42
0.2
  3
txt
  4

  0
ENDTAB
  0
TABLE
  2
VIEW
 70
     0
  0
ENDTAB
  0
TABLE
  2
UCS
 70
     0
  0
ENDTAB
  0
TABLE
  2
APPID
 70
     1
  0
APPID
  2
ACAD
 70
     0
  0
ENDTAB
  0
TABLE
  2
DIMSTYLE
 70
     1
  0
DIMSTYLE
  2
STANDARD
 70
     0
  3

  4

  5

  6

  7

 40
1.0
 41
0.18
 42
0.0625
 43
0.38
 44
0.18
 45
0.0
 46
0.0
 47
0.0
 48
0.0
140
0.18
141
0.09
142
0.0
143
25.4
144
1.0
145
0.0
146
1.0
147
0.09
 71
     0
 72
     0
 73
     1
 74
     1
 75
     0
 76
     0
 77
     0
 78
     0
170
     0
171
     2
172
     0
173
     0
174
     0
175
     0
176
     0
177
     0
178
     0
  0
ENDTAB
  0
ENDSEC
  0
SECTION
  2
BLOCKS
  0
BLOCK
  8
0
  2
$MODEL_SPACE
 70
     0
 10
0.0
 20
0.0
 30
0.0
  3
$MODEL_SPACE
  1

  0
ENDBLK
  5
21
  8
0
  0
BLOCK
 67
     1
  8
0
  2
$PAPER_SPACE
 70
     0
 10
0.0
 20
0.0
 30
0.0
  3
$PAPER_SPACE
  1

  0
ENDBLK
  5
1D
 67
     1
  8
0
  0
ENDSEC
  0
SECTION
  2
ENTITIES
  0
POLYLINE
  5
3D
  8
DEFPOINTS
 66
     1
 10
0.0
 20
0.0
 30
0.0
 70
     1
  0
VERTEX
  5
57
  8
DEFPOINTS
 10
337.129823122491
 20
76.24185237002813
 30
0.0
 42
-0.4142135623730951
  0
VERTEX
  5
58
  8
DEFPOINTS
 10
324.629823122491
 20
63.74185237002813
 30
0.0
 42
-0.4142135623730951
  0
VERTEX
  5
59
  8
DEFPOINTS
 10
312.129823122491
 20
76.24185237002813
 30
0.0
 42
-0.4142135623730951
  0
VERTEX
  5
5A
  8
DEFPOINTS
 10
324.629823122491
 20
88.74185237002813
 30
0.0
 42
-0.4142135623730951
  0
SEQEND
  5
5B
  8
DEFPOINTS
  0
POLYLINE
  5
3E
  8
DEFPOINTS
 66
     1
 10
0.0
 20
0.0
 30
0.0
 70
     1
  0
VERTEX
  5
5C
  8
DEFPOINTS
 10
337.870176877509
 20
43.75814762997187
 30
0.0
 42
-0.4142135623730951
  0
VERTEX
  5
5D
  8
DEFPOINTS
 10
325.370176877509
 20
31.25814762997187
 30
0.0
 42
-0.4142135623730951
  0
VERTEX
  5
5E
  8
DEFPOINTS
 10
312.870176877509
 20
43.75814762997187
 30
0.0
 42
-0.4142135623730951
  0
VERTEX
  5
5F
  8
DEFPOINTS
 10
325.370176877509
 20
56.25814762997187
 30
0.0
 42
-0.4142135623730951
  0
SEQEND
  5
60
  8
DEFPOINTS
  0
POLYLINE
  5
3F
  8
DEFPOINTS
 66
     1
 10
0.0
 20
0.0
 30
0.0
 70
     1
  0
VERTEX
  5
61
  8
DEFPOINTS
 10
58.04534221974563
 20
137.4764654487268
 30
0.0
  0
VERTEX
  5
62
  8
DEFPOINTS
 10
68.04534221974563
 20
137.4764654487267
 30
0.0
  0
VERTEX
  5
63
  8
DEFPOINTS
 10
68.04170962899764
 20
134.009899365792
 30
0.0
 42
0.4142268413633489
  0
VERTEX
  5
64
  8
DEFPOINTS
 10
69.15465655700723
 20
132.8931620007435
 30
0.0
  0
VERTEX
  5
65
  8
DEFPOINTS
 10
78.51958873952904
 20
132.8840463934919
 30
0.0
  0
VERTEX
  5
66
  8
DEFPOINTS
 10
78.54521796801967
 20
158.5237166494589
 30
0.0
  0
VERTEX
  5
67
  8
DEFPOINTS
 10
81.55520809367752
 20
158.5212412383308
 30
0.0
  0
VERTEX
  5
68
  8
DEFPOINTS
 10
81.52958388177925
 20
132.8804550685851
 30
0.0
  0
VERTEX
  5
69
  8
DEFPOINTS
 10
119.9673289316117
 20
132.8421544767008
 30
0.0
 42
0.3517749651060288
  0
VERTEX
  5
6A
  8
DEFPOINTS
 10
126.7887256418009
 20
139.9144759787633
 30
0.0
  0
VERTEX
  5
6B
  8
DEFPOINTS
 10
102.2940431195821
 20
139.9386648869751
 30
0.0
  0
VERTEX
  5
6C
  8
DEFPOINTS
 10
102.2976299852926
 20
142.9486600292294
 30
0.0
  0
VERTEX
  5
6D
  8
DEFPOINTS
 10
141.1367247679513
 20
142.9097195513029
 30
0.0
 42
0.0574900146128915
  0
VERTEX
  5
6E
  8
DEFPOINTS
 10
153.9251892070404
 20
144.4467269735023
 30
0.0
 42
0.0485240059754934
  0
VERTEX
  5
6F
  8
DEFPOINTS
 10
189.7542648622666
 20
155.0129614948021
 30
0.0
  0
VERTEX
  5
70
  8
DEFPOINTS
 10
195.2123302739415
 20
150.8826959816137
 30
0.0
 42
0.786680777146667
  0
VERTEX
  5
71
  8
DEFPOINTS
 10
205.0640608190012
 20
142.3472081442672
 30
0.0
 42
0.7866807771466711
  0
VERTEX
  5
72
  8
DEFPOINTS
 10
200.210545102775
 20
154.4449158835993
 30
0.0
  0
VERTEX
  5
73
  8
DEFPOINTS
 10
199.3391520915398
 20
157.4541673418119
 30
0.0
  0
VERTEX
  5
74
  8
DEFPOINTS
 10
208.0640694432799
 20
159.6763446866526
 30
0.0
 42
0.1612300296872527
  0
VERTEX
  5
75
  8
DEFPOINTS
 10
216.0833993160444
 20
164.0828556667474
 30
0.0
 42
0.0452969565410025
  0
VERTEX
  5
76
  8
DEFPOINTS
 10
218.4938603982258
 20
166.8223813298267
 30
0.0
 42
0.0567310104189382
  0
VERTEX
  5
77
  8
DEFPOINTS
 10
221.8148812658322
 20
171.8023860357017
 30
0.0
  0
VERTEX
  5
78
  8
DEFPOINTS
 10
165.011428492664
 20
171.8597809038279
 30
0.0
  0
VERTEX
  5
79
  8
DEFPOINTS
 10
165.0139094777874
 20
174.8697704720851
 30
0.0
  0
VERTEX
  5
7A
  8
DEFPOINTS
 10
222.9843743416264
 20
174.8112067374044
 30
0.0
  0
VERTEX
  5
7B
  8
DEFPOINTS
 10
222.9916667882841
 20
182.2470219032224
 30
0.0
 42
0.3358901431850919
  0
VERTEX
  5
7C
  8
DEFPOINTS
 10
204.745258704297
 20
208.1514527055076
 30
0.0
 42
0.3937983520107038
  0
VERTEX
  5
7D
  8
DEFPOINTS
 10
186.3072175214643
 20
197.2110368835505
 30
0.0
 42
-0.1732907895879222
  0
VERTEX
  5
7E
  8
DEFPOINTS
 10
175.7582155436981
 20
183.3865799281093
 30
0.0
  0
VERTEX
  5
7F
  8
DEFPOINTS
 10
120.0232329338066
 20
187.4423388049637
 30
0.0
  0
VERTEX
  5
80
  8
DEFPOINTS
 10
119.9908600248212
 20
156.1083189915684
 30
0.0
 42
-0.4140153205453145
  0
VERTEX
  5
81
  8
DEFPOINTS
 10
118.4858162948276
 20
154.6043889004536
 30
0.0
 42
-0.4146989766108957
  0
VERTEX
  5
82
  8
DEFPOINTS
 10
116.9808711499492
 20
156.1117343572165
 30
0.0
  0
VERTEX
  5
83
  8
DEFPOINTS
 10
116.9877725548214
 20
163.356930403148
 30
0.0
  0
VERTEX
  5
84
  8
DEFPOINTS
 10
89.00697316547317
 20
163.3848193291658
 30
0.0
  0
VERTEX
  5
85
  8
DEFPOINTS
 10
81.45327421957612
 20
179.3231510329814
 30
0.0
  0
VERTEX
  5
86
  8
DEFPOINTS
 10
80.22315487734912
 20
179.3243817950368
 30
0.0
  0
VERTEX
  5
87
  8
DEFPOINTS
 10
79.30695201128461
 20
172.852208642255
 30
0.0
  0
VERTEX
  5
88
  8
DEFPOINTS
 10
76.3266749055845
 20
173.2740968791793
 30
0.0
  0
VERTEX
  5
89
  8
DEFPOINTS
 10
77.18358417093137
 20
179.3274229538593
 30
0.0
  0
VERTEX
  5
8A
  8
DEFPOINTS
 10
34.17492546056485
 20
179.3604488589463
 30
0.0
 42
0.25532807306144
  0
VERTEX
  5
8B
  8
DEFPOINTS
 10
25.78488745842253
 20
173.4713225996068
 30
0.0
  0
VERTEX
  5
8C
  8
DEFPOINTS
 10
22.44155182007262
 20
173.4755392262918
 30
0.0
 42
0.414338113993845
  0
VERTEX
  5
8D
  8
DEFPOINTS
 10
20.20910750927328
 20
171.2477718474649
 30
0.0
  0
VERTEX
  5
8E
  8
DEFPOINTS
 10
20.20744066310601
 20
169.9655534993251
 30
0.0
  0
VERTEX
  5
8F
  8
DEFPOINTS
 10
25.78147568306861
 20
169.9596433925465
 30
0.0
  0
VERTEX
  5
90
  8
DEFPOINTS
 10
25.77898689435381
 20
166.9496538242874
 30
0.0
  0
VERTEX
  5
91
  8
DEFPOINTS
 10
20.2049128564247
 20
166.9555633736687
 30
0.0
  0
VERTEX
  5
92
  8
DEFPOINTS
 10
20.20319739909678
 20
165.6736786893684
 30
0.0
 42
0.4142354281747937
  0
VERTEX
  5
93
  8
DEFPOINTS
 10
22.43113295206251
 20
163.4421897572081
 30
0.0
  0
VERTEX
  5
94
  8
DEFPOINTS
 10
26.34437740234205
 20
163.4385253271743
 30
0.0
 42
0.2772580000976116
  0
SEQEND
  5
95
  8
DEFPOINTS
  0
POLYLINE
  5
40
  8
DEFPOINTS
 66
     1
 10
0.0
 20
0.0
 30
0.0
 70
     1
  0
VERTEX
  5
96
  8
DEFPOINTS
 10
158.7891553086635
 20
86.66299994020815
 30
0.0
  0
VERTEX
  5
97
  8
DEFPOINTS
 10
177.4214374594038
 20
86.6723954729816
 30
0.0
  0
VERTEX
  5
98
  8
DEFPOINTS
 10
177.3981287874816
 20
106.2795669995986
 30
0.0
  0
VERTEX
  5
99
  8
DEFPOINTS
 10
180.4080849117721
 20
106.2824966913112
 30
0.0
  0
VERTEX
  5
9A
  8
DEFPOINTS
 10
180.4313933958283
 20
86.67595548938016
 30
0.0
  0
VERTEX
  5
9B
  8
DEFPOINTS
 10
215.3595075016569
 20
86.71932571594347
 30
0.0
  0
VERTEX
  5
9C
  8
DEFPOINTS
 10
215.3350193437632
 20
106.3264881270266
 30
0.0
  0
VERTEX
  5
9D
  8
DEFPOINTS
 10
218.3446812460897
 20
106.3305255364727
 30
0.0
  0
VERTEX
  5
9E
  8
DEFPOINTS
 10
218.3694625111474
 20
86.72335738644668
 30
0.0
  0
VERTEX
  5
9F
  8
DEFPOINTS
 10
225.0864635366204
 20
86.73104392539591
 30
0.0
  0
VERTEX
  5
A0
  8
DEFPOINTS
 10
225.0569706917916
 20
114.5602142711556
 30
0.0
  0
VERTEX
  5
A1
  8
DEFPOINTS
 10
218.3460227276064
 20
114.5602142711556
 30
0.0
  0
VERTEX
  5
A2
  8
DEFPOINTS
 10
218.3460227276064
 20
127.520382426027
 30
0.0
  0
VERTEX
  5
A3
  8
DEFPOINTS
 10
215.6622702303432
 20
127.5203824260269
 30
0.0
 42
0.3227786937268767
  0
VERTEX
  5
A4
  8
DEFPOINTS
 10
215.2828171290292
 20
127.2469341700022
 30
0.0
 42
-0.204755537759805
  0
VERTEX
  5
A5
  8
DEFPOINTS
 10
201.9680226435759
 20
112.2435139891338
 30
0.0
 42
-0.1816819196410182
  0
VERTEX
  5
A6
  8
DEFPOINTS
 10
189.4158977985394
 20
111.0577565309354
 30
0.0
 42
-0.212567990766029
  0
VERTEX
  5
A7
  8
DEFPOINTS
 10
180.8662026062886
 20
120.1215207340445
 30
0.0
  0
VERTEX
  5
A8
  8
DEFPOINTS
 10
135.8829447079881
 20
120.1393531581381
 30
0.0
 42
0.5121344120281187
  0
VERTEX
  5
A9
  8
DEFPOINTS
 10
129.1016592385174
 20
110.7438629668692
 30
0.0
 42
0.2924658550975751
  0
SEQEND
  5
AA
  8
DEFPOINTS
  0
POLYLINE
  5
41
  8
DEFPOINTS
 66
     1
 10
0.0
 20
0.0
 30
0.0
 70
     1
  0
VERTEX
  5
AB
  8
DEFPOINTS
 10
71.79111299017728
 20
93.08725270401462
 30
0.0
  0
VERTEX
  5
AC
  8
DEFPOINTS
 10
71.79111299017728
 20
99.47150728481179
 30
0.0
  0
VERTEX
  5
AD
  8
DEFPOINTS
 10
71.79980526788256
 20
99.48145818549263
 30
0.0
  0
VERTEX
  5
AE
  8
DEFPOINTS
 10
71.82545140798524
 20
99.5103311913899
 30
0.0
  0
VERTEX
  5
AF
  8
DEFPOINTS
 10
71.86740547449722
 20
99.55665687823678
 30
0.0
  0
VERTEX
  5
B0
  8
DEFPOINTS
 10
71.92502153143042
 20
99.61896582176706
 30
0.0
  0
VERTEX
  5
B1
  8
DEFPOINTS
 10
71.99765364279673
 20
99.69578859771451
 30
0.0
  0
VERTEX
  5
B2
  8
DEFPOINTS
 10
72.08465587260807
 20
99.78565578181286
 30
0.0
  0
VERTEX
  5
B3
  8
DEFPOINTS
 10
72.18538228487637
 20
99.88709794979592
 30
0.0
  0
VERTEX
  5
B4
  8
DEFPOINTS
 10
72.2991869436135
 20
99.99864567739742
 30
0.0
  0
VERTEX
  5
B5
  8
DEFPOINTS
 10
72.4254239128314
 20
100.1188295403511
 30
0.0
  0
VERTEX
  5
B6
  8
DEFPOINTS
 10
72.56344725654199
 20
100.2461801143908
 30
0.0
  0
VERTEX
  5
B7
  8
DEFPOINTS
 10
72.71261103875716
 20
100.3792279752503
 30
0.0
  0
VERTEX
  5
B8
  8
DEFPOINTS
 10
72.87226932348884
 20
100.5165036986632
 30
0.0
  0
VERTEX
  5
B9
  8
DEFPOINTS
 10
73.04177617474892
 20
100.6565378603635
 30
0.0
  0
VERTEX
  5
BA
  8
DEFPOINTS
 10
73.2204856565493
 20
100.7978610360848
 30
0.0
  0
VERTEX
  5
BB
  8
DEFPOINTS
 10
73.40775183290194
 20
100.9390038015609
 30
0.0
  0
VERTEX
  5
BC
  8
DEFPOINTS
 10
73.6029287678187
 20
101.0784967325255
 30
0.0
  0
VERTEX
  5
BD
  8
DEFPOINTS
 10
73.80537052531153
 20
101.2148704047125
 30
0.0
  0
VERTEX
  5
BE
  8
DEFPOINTS
 10
74.01443116939231
 20
101.3466553938556
 30
0.0
  0
VERTEX
  5
BF
  8
DEFPOINTS
 10
74.22946476407296
 20
101.4723822756886
 30
0.0
  0
VERTEX
  5
C0
  8
DEFPOINTS
 10
74.4498253733654
 20
101.5905816259452
 30
0.0
  0
VERTEX
  5
C1
  8
DEFPOINTS
 10
74.65898020112803
 20
101.6927757293189
 30
0.0
  0
VERTEX
  5
C2
  8
DEFPOINTS
 10
74.87074746460632
 20
101.7874257412266
 30
0.0
  0
VERTEX
  5
C3
  8
DEFPOINTS
 10
75.08368484990757
 20
101.8747807320167
 30
0.0
  0
VERTEX
  5
C4
  8
DEFPOINTS
 10
75.29635004313903
 20
101.9550897720374
 30
0.0
  0
VERTEX
  5
C5
  8
DEFPOINTS
 10
75.50730073040802
 20
102.028601931637
 30
0.0
  0
VERTEX
  5
C6
  8
DEFPOINTS
 10
75.71509459782183
 20
102.0955662811637
 30
0.0
  0
VERTEX
  5
C7
  8
DEFPOINTS
 10
75.91828933148773
 20
102.1562318909657
 30
0.0
  0
VERTEX
  5
C8
  8
DEFPOINTS
 10
76.11544261751303
 20
102.2108478313914
 30
0.0
  0
VERTEX
  5
C9
  8
DEFPOINTS
 10
76.30511214200499
 20
102.2596631727889
 30
0.0
  0
VERTEX
  5
CA
  8
DEFPOINTS
 10
76.4858555910709
 20
102.3029269855066
 30
0.0
  0
VERTEX
  5
CB
  8
DEFPOINTS
 10
76.65623065081806
 20
102.3408883398927
 30
0.0
  0
VERTEX
  5
CC
  8
DEFPOINTS
 10
76.81479500735378
 20
102.3737963062954
 30
0.0
  0
VERTEX
  5
CD
  8
DEFPOINTS
 10
76.96010634678532
 20
102.401899955063
 30
0.0
  0
VERTEX
  5
CE
  8
DEFPOINTS
 10
77.09072235521995
 20
102.4254483565438
 30
0.0
  0
VERTEX
  5
CF
  8
DEFPOINTS
 10
77.20520071876501
 20
102.4446905810861
 30
0.0
  0
VERTEX
  5
D0
  8
DEFPOINTS
 10
77.30209912352777
 20
102.459875699038
 30
0.0
  0
VERTEX
  5
D1
  8
DEFPOINTS
 10
77.37997525561548
 20
102.4712527807478
 30
0.0
  0
VERTEX
  5
D2
  8
DEFPOINTS
 10
77.43738680113546
 20
102.4790708965639
 30
0.0
  0
VERTEX
  5
D3
  8
DEFPOINTS
 10
77.472891446195
 20
102.4835791168344
 30
0.0
  0
VERTEX
  5
D4
  8
DEFPOINTS
 10
77.48504687690141
 20
102.4850265119075
 30
0.0
 42
-0.9999999999999993
  0
VERTEX
  5
D5
  8
DEFPOINTS
 10
97.5971791034531
 20
102.4850265119075
 30
0.0
  0
VERTEX
  5
D6
  8
DEFPOINTS
 10
97.60933453415947
 20
102.4835791168344
 30
0.0
  0
VERTEX
  5
D7
  8
DEFPOINTS
 10
97.64483917921902
 20
102.4790708965639
 30
0.0
  0
VERTEX
  5
D8
  8
DEFPOINTS
 10
97.702250724739
 20
102.4712527807478
 30
0.0
  0
VERTEX
  5
D9
  8
DEFPOINTS
 10
97.78012685682671
 20
102.459875699038
 30
0.0
  0
VERTEX
  5
DA
  8
DEFPOINTS
 10
97.87702526158947
 20
102.4446905810861
 30
0.0
  0
VERTEX
  5
DB
  8
DEFPOINTS
 10
97.99150362513453
 20
102.4254483565438
 30
0.0
  0
VERTEX
  5
DC
  8
DEFPOINTS
 10
98.12211963356916
 20
102.401899955063
 30
0.0
  0
VERTEX
  5
DD
  8
DEFPOINTS
 10
98.2674309730007
 20
102.3737963062954
 30
0.0
  0
VERTEX
  5
DE
  8
DEFPOINTS
 10
98.42599532953642
 20
102.3408883398927
 30
0.0
  0
VERTEX
  5
DF
  8
DEFPOINTS
 10
98.59637038928358
 20
102.3029269855066
 30
0.0
  0
VERTEX
  5
E0
  8
DEFPOINTS
 10
98.77711383834949
 20
102.2596631727889
 30
0.0
  0
VERTEX
  5
E1
  8
DEFPOINTS
 10
98.96678336284145
 20
102.2108478313914
 30
0.0
  0
VERTEX
  5
E2
  8
DEFPOINTS
 10
99.16393664886675
 20
102.1562318909657
 30
0.0
  0
VERTEX
  5
E3
  8
DEFPOINTS
 10
99.36713138253265
 20
102.0955662811637
 30
0.0
  0
VERTEX
  5
E4
  8
DEFPOINTS
 10
99.57492524994646
 20
102.028601931637
 30
0.0
  0
VERTEX
  5
E5
  8
DEFPOINTS
 10
99.78587593721545
 20
101.9550897720374
 30
0.0
  0
VERTEX
  5
E6
  8
DEFPOINTS
 10
99.99854113044691
 20
101.8747807320167
 30
0.0
  0
VERTEX
  5
E7
  8
DEFPOINTS
 10
100.2114785157482
 20
101.7874257412266
 30
0.0
  0
VERTEX
  5
E8
  8
DEFPOINTS
 10
100.4232457792264
 20
101.6927757293189
 30
0.0
  0
VERTEX
  5
E9
  8
DEFPOINTS
 10
100.6324006069891
 20
101.5905816259452
 30
0.0
  0
VERTEX
  5
EA
  8
DEFPOINTS
 10
100.8527612162815
 20
101.4723822756886
 30
0.0
  0
VERTEX
  5
EB
  8
DEFPOINTS
 10
101.0677948109622
 20
101.3466553938556
 30
0.0
  0
VERTEX
  5
EC
  8
DEFPOINTS
 10
101.276855455043
 20
101.2148704047125
 30
0.0
  0
VERTEX
  5
ED
  8
DEFPOINTS
 10
101.4792972125358
 20
101.0784967325255
 30
0.0
  0
VERTEX
  5
EE
  8
DEFPOINTS
 10
101.6744741474526
 20
100.9390038015609
 30
0.0
  0
VERTEX
  5
EF
  8
DEFPOINTS
 10
101.8617403238052
 20
100.7978610360848
 30
0.0
  0
VERTEX
  5
F0
  8
DEFPOINTS
 10
102.0404498056056
 20
100.6565378603635
 30
0.0
  0
VERTEX
  5
F1
  8
DEFPOINTS
 10
102.2099566568657
 20
100.5165036986632
 30
0.0
  0
VERTEX
  5
F2
  8
DEFPOINTS
 10
102.3696149415974
 20
100.3792279752503
 30
0.0
  0
VERTEX
  5
F3
  8
DEFPOINTS
 10
102.5187787238125
 20
100.2461801143908
 30
0.0
  0
VERTEX
  5
F4
  8
DEFPOINTS
 10
102.6568020675231
 20
100.1188295403511
 30
0.0
  0
VERTEX
  5
F5
  8
DEFPOINTS
 10
102.783039036741
 20
99.99864567739742
 30
0.0
  0
VERTEX
  5
F6
  8
DEFPOINTS
 10
102.8968436954782
 20
99.88709794979592
 30
0.0
  0
VERTEX
  5
F7
  8
DEFPOINTS
 10
102.9975701077465
 20
99.78565578181286
 30
0.0
  0
VERTEX
  5
F8
  8
DEFPOINTS
 10
103.0845723375578
 20
99.69578859771451
 30
0.0
  0
VERTEX
  5
F9
  8
DEFPOINTS
 10
103.1572044489241
 20
99.61896582176706
 30
0.0
  0
VERTEX
  5
FA
  8
DEFPOINTS
 10
103.2148205058573
 20
99.55665687823678
 30
0.0
  0
VERTEX
  5
FB
  8
DEFPOINTS
 10
103.2567745723693
 20
99.5103311913899
 30
0.0
  0
VERTEX
  5
FC
  8
DEFPOINTS
 10
103.282420712472
 20
99.48145818549263
 30
0.0
  0
VERTEX
  5
FD
  8
DEFPOINTS
 10
103.2911129901773
 20
99.47150728481179
 30
0.0
  0
VERTEX
  5
FE
  8
DEFPOINTS
 10
103.2911129901773
 20
93.08725270401462
 30
0.0
  0
VERTEX
  5
FF
  8
DEFPOINTS
 10
89.04609160972228
 20
93.08725270401462
 30
0.0
  0
VERTEX
  5
100
  8
DEFPOINTS
 10
89.04609160972231
 20
98.42814104886818
 30
0.0
 42
1.0
  0
VERTEX
  5
101
  8
DEFPOINTS
 10
86.0361343706322
 20
98.42814104886818
 30
0.0
  0
VERTEX
  5
102
  8
DEFPOINTS
 10
86.0361343706322
 20
93.08725270401462
 30
0.0
  0
SEQEND
  5
103
  8
DEFPOINTS
  0
POLYLINE
  5
42
  8
DEFPOINTS
 66
     1
 10
0.0
 20
0.0
 30
0.0
 70
     1
  0
VERTEX
  5
104
  8
DEFPOINTS
 10
346.1104832275189
 20
50.04022356990096
 30
0.0
  0
VERTEX
  5
105
  8
DEFPOINTS
 10
353.9140760695994
 20
50.04022356990096
 30
0.0
  0
VERTEX
  5
106
  8
DEFPOINTS
 10
354.3599956605763
 20
47.81062561502193
 30
0.0
  0
VERTEX
  5
107
  8
DEFPOINTS
 10
356.3443304461007
 20
47.81056876024533
 30
0.0
  0
VERTEX
  5
108
  8
DEFPOINTS
 10
356.7618647088815
 20
47.83740811034612
 30
0.0
  0
VERTEX
  5
109
  8
DEFPOINTS
 10
357.160995356104
 20
47.91602186826096
 30
0.0
  0
VERTEX
  5
10A
  8
DEFPOINTS
 10
357.5413927556332
 20
48.04368134493205
 30
0.0
  0
VERTEX
  5
10B
  8
DEFPOINTS
 10
357.9027272753339
 20
48.21765785130161
 30
0.0
  0
VERTEX
  5
10C
  8
DEFPOINTS
 10
358.244669283071
 20
48.43522269831185
 30
0.0
  0
VERTEX
  5
10D
  8
DEFPOINTS
 10
358.5668891467095
 20
48.69364719690499
 30
0.0
  0
VERTEX
  5
10E
  8
DEFPOINTS
 10
358.8690572341143
 20
48.99020265802324
 30
0.0
  0
VERTEX
  5
10F
  8
DEFPOINTS
 10
359.1508439131503
 20
49.32216039260879
 30
0.0
  0
VERTEX
  5
110
  8
DEFPOINTS
 10
359.4119195516823
 20
49.68679171160389
 30
0.0
  0
VERTEX
  5
111
  8
DEFPOINTS
 10
359.6519545175755
 20
50.08136792595073
 30
0.0
  0
VERTEX
  5
112
  8
DEFPOINTS
 10
359.8706191786944
 20
50.50316034659153
 30
0.0
  0
VERTEX
  5
113
  8
DEFPOINTS
 10
360.0675839029043
 20
50.94944028446851
 30
0.0
  0
VERTEX
  5
114
  8
DEFPOINTS
 10
360.2425190580698
 20
51.41747905052382
 30
0.0
  0
VERTEX
  5
115
  8
DEFPOINTS
 10
360.3950950120561
 20
51.90454795569975
 30
0.0
  0
VERTEX
  5
116
  8
DEFPOINTS
 10
360.5249821327278
 20
52.40791831093851
 30
0.0
  0
VERTEX
  5
117
  8
DEFPOINTS
 10
360.63185078795
 20
52.92486142718228
 30
0.0
  0
VERTEX
  5
118
  8
DEFPOINTS
 10
360.7153713455877
 20
53.45264861537329
 30
0.0
  0
VERTEX
  5
119
  8
DEFPOINTS
 10
360.7752141735056
 20
53.98855118645371
 30
0.0
  0
VERTEX
  5
11A
  8
DEFPOINTS
 10
360.8110496395687
 20
54.52984045136579
 30
0.0
  0
VERTEX
  5
11B
  8
DEFPOINTS
 10
360.8225481116419
 20
55.07378772105177
 30
0.0
  0
VERTEX
  5
11C
  8
DEFPOINTS
 10
360.8095756639168
 20
55.61582331870115
 30
0.0
  0
VERTEX
  5
11D
  8
DEFPOINTS
 10
360.7724314751509
 20
56.15508333539402
 30
0.0
  0
VERTEX
  5
11E
  8
DEFPOINTS
 10
360.7114435004158
 20
56.6888623961059
 30
0.0
  0
VERTEX
  5
11F
  8
DEFPOINTS
 10
360.6269396947833
 20
57.21445512581217
 30
0.0
  0
VERTEX
  5
120
  8
DEFPOINTS
 10
360.5192480133249
 20
57.72915614948836
 30
0.0
  0
VERTEX
  5
121
  8
DEFPOINTS
 10
360.3886964111122
 20
58.23026009210999
 30
0.0
  0
VERTEX
  5
122
  8
DEFPOINTS
 10
360.2356128432169
 20
58.71506157865242
 30
0.0
  0
VERTEX
  5
123
  8
DEFPOINTS
 10
360.0603252647106
 20
59.18085523409123
 30
0.0
  0
VERTEX
  5
124
  8
DEFPOINTS
 10
359.8631616306649
 20
59.62493568340183
 30
0.0
  0
VERTEX
  5
125
  8
DEFPOINTS
 10
359.6444498961515
 20
60.04459755155973
 30
0.0
  0
VERTEX
  5
126
  8
DEFPOINTS
 10
359.404518016242
 20
60.43713546354037
 30
0.0
  0
VERTEX
  5
127
  8
DEFPOINTS
 10
359.1436939460079
 20
60.79984404431924
 30
0.0
  0
VERTEX
  5
128
  8
DEFPOINTS
 10
358.862305640521
 20
61.13001791887184
 30
0.0
  0
VERTEX
  5
129
  8
DEFPOINTS
 10
358.5606810548529
 20
61.42495171217361
 30
0.0
  0
VERTEX
  5
12A
  8
DEFPOINTS
 10
358.2391481440752
 20
61.68194004920004
 30
0.0
  0
VERTEX
  5
12B
  8
DEFPOINTS
 10
357.8980348632595
 20
61.89827755492662
 30
0.0
  0
VERTEX
  5
12C
  8
DEFPOINTS
 10
357.5376691674774
 20
62.07125885432874
 30
0.0
  0
VERTEX
  5
12D
  8
DEFPOINTS
 10
357.1583790118006
 20
62.19817857238201
 30
0.0
  0
VERTEX
  5
12E
  8
DEFPOINTS
 10
356.7604923513007
 20
62.27633133406182
 30
0.0
  0
VERTEX
  5
12F
  8
DEFPOINTS
 10
356.3443371410493
 20
62.30301176434364
 30
0.0
  0
VERTEX
  5
130
  8
DEFPOINTS
 10
354.3599956605763
 20
62.30301232174254
 30
0.0
  0
VERTEX
  5
131
  8
DEFPOINTS
 10
353.9140760695994
 20
60.07341436686285
 30
0.0
  0
VERTEX
  5
132
  8
DEFPOINTS
 10
346.1104832275189
 20
60.07341436686285
 30
0.0
  0
VERTEX
  5
133
  8
DEFPOINTS
 10
346.1104832275189
 20
56.56179758792565
 30
0.0
  0
VERTEX
  5
134
  8
DEFPOINTS
 10
353.9140760695994
 20
56.56179758792565
 30
0.0
 42
-0.9999999999999811
  0
VERTEX
  5
135
  8
DEFPOINTS
 10
353.9140760695994
 20
53.55184034883827
 30
0.0
  0
VERTEX
  5
136
  8
DEFPOINTS
 10
346.1104832275189
 20
53.55184034883634
 30
0.0
  0
SEQEND
  5
137
  8
DEFPOINTS
  0
POLYLINE
  5
43
  8
DEFPOINTS
 66
     1
 10
0.0
 20
0.0
 30
0.0
 70
     1
  0
VERTEX
  5
138
  8
DEFPOINTS
 10
265.3261497430177
 20
101.7675057040256
 30
0.0
  0
VERTEX
  5
139
  8
DEFPOINTS
 10
264.4343122332637
 20
101.7676188561224
 30
0.0
  0
VERTEX
  5
13A
  8
DEFPOINTS
 10
264.4343044296723
 20
106.2268147658795
 30
0.0
  0
VERTEX
  5
13B
  8
DEFPOINTS
 10
256.6307115875921
 20
106.2268002734949
 30
0.0
  0
VERTEX
  5
13C
  8
DEFPOINTS
 10
256.6307054561967
 20
109.7384315448174
 30
0.0
  0
VERTEX
  5
13D
  8
DEFPOINTS
 10
264.4342955112781
 20
109.7384315448174
 30
0.0
 42
1.0
  0
VERTEX
  5
13E
  8
DEFPOINTS
 10
264.4342955112781
 20
112.7483887839052
 30
0.0
  0
VERTEX
  5
13F
  8
DEFPOINTS
 10
256.6306998822018
 20
112.7483887839052
 30
0.0
  0
VERTEX
  5
140
  8
DEFPOINTS
 10
256.6306937508066
 20
116.2599910704553
 30
0.0
  0
VERTEX
  5
141
  8
DEFPOINTS
 10
260.2649384172616
 20
116.2599977592478
 30
0.0
  0
VERTEX
  5
142
  8
DEFPOINTS
 10
264.4342865928872
 20
116.26000556284
 30
0.0
  0
VERTEX
  5
143
  8
DEFPOINTS
 10
264.4342787892958
 20
120.7080534828285
 30
0.0
  0
VERTEX
  5
144
  8
DEFPOINTS
 10
265.3149823025017
 20
120.708054597642
 30
0.0
 42
-0.2338873961130096
  0
VERTEX
  5
145
  8
DEFPOINTS
 10
281.7386837358674
 20
112.7372407941334
 30
0.0
  0
VERTEX
  5
146
  8
DEFPOINTS
 10
273.369377486674
 20
112.7372407941334
 30
0.0
 42
1.0
  0
VERTEX
  5
147
  8
DEFPOINTS
 10
273.369377486674
 20
109.7272835550457
 30
0.0
  0
VERTEX
  5
148
  8
DEFPOINTS
 10
281.7232093401933
 20
109.7272835550457
 30
0.0
 42
-0.2363365015753528
  0
SEQEND
  5
149
  8
DEFPOINTS
  0
POLYLINE
  5
44
  8
DEFPOINTS
 66
     1
 10
0.0
 20
0.0
 30
0.0
 70
     1
  0
VERTEX
  5
14A
  8
DEFPOINTS
 10
260.2757769302228
 20
134.0203832777788
 30
0.0
  0
VERTEX
  5
14B
  8
DEFPOINTS
 10
260.2757646674352
 20
138.435089889334
 30
0.0
  0
VERTEX
  5
14C
  8
DEFPOINTS
 10
263.275769036966
 20
138.390600591132
 30
0.0
  0
VERTEX
  5
14D
  8
DEFPOINTS
 10
263.275762855809
 20
141.991195966474
 30
0.0
  0
VERTEX
  5
14E
  8
DEFPOINTS
 10
269.6476379435337
 20
141.991195966474
 30
0.0
 42
1.0
  0
VERTEX
  5
14F
  8
DEFPOINTS
 10
269.6476379435337
 20
145.0011532055617
 30
0.0
  0
VERTEX
  5
150
  8
DEFPOINTS
 10
263.2757575409936
 20
145.0011532055617
 30
0.0
  0
VERTEX
  5
151
  8
DEFPOINTS
 10
263.2757513795211
 20
148.5906005911319
 30
0.0
  0
VERTEX
  5
152
  8
DEFPOINTS
 10
260.2757557490427
 20
148.5516852878142
 30
0.0
  0
VERTEX
  5
153
  8
DEFPOINTS
 10
260.2757434862549
 20
152.9608179044849
 30
0.0
  0
VERTEX
  5
154
  8
DEFPOINTS
 10
261.1564469994609
 20
152.9608190192985
 30
0.0
 42
-0.2364101128401794
  0
VERTEX
  5
155
  8
DEFPOINTS
 10
277.6999757078514
 20
144.8338963684734
 30
0.0
 42
-0.333400294899277
  0
VERTEX
  5
156
  8
DEFPOINTS
 10
277.6997463770163
 20
142.1580144448052
 30
0.0
 42
-0.2392353421260797
  0
VERTEX
  5
157
  8
DEFPOINTS
 10
261.1676144399769
 20
134.0202701256821
 30
0.0
  0
SEQEND
  5
158
  8
DEFPOINTS
  0
POLYLINE
  5
45
  8
DEFPOINTS
 66
     1
 10
0.0
 20
0.0
 30
0.0
 70
     1
  0
VERTEX
  5
159
  8
DEFPOINTS
 10
357.2148919490202
 20
23.23779176849808
 30
0.0
  0
VERTEX
  5
15A
  8
DEFPOINTS
 10
357.632426211801
 20
23.26463111859888
 30
0.0
  0
VERTEX
  5
15B
  8
DEFPOINTS
 10
358.0315568590235
 20
23.34324487651372
 30
0.0
  0
VERTEX
  5
15C
  8
DEFPOINTS
 10
358.4119542585527
 20
23.47090435318481
 30
0.0
  0
VERTEX
  5
15D
  8
DEFPOINTS
 10
358.7732887782533
 20
23.64488085955438
 30
0.0
  0
VERTEX
  5
15E
  8
DEFPOINTS
 10
359.1152307859905
 20
23.86244570656461
 30
0.0
  0
VERTEX
  5
15F
  8
DEFPOINTS
 10
359.437450649629
 20
24.12087020515776
 30
0.0
  0
VERTEX
  5
160
  8
DEFPOINTS
 10
359.7396187370338
 20
24.41742566627599
 30
0.0
  0
VERTEX
  5
161
  8
DEFPOINTS
 10
360.0214054160697
 20
24.74938340086155
 30
0.0
  0
VERTEX
  5
162
  8
DEFPOINTS
 10
360.2824810546019
 20
25.11401471985664
 30
0.0
  0
VERTEX
  5
163
  8
DEFPOINTS
 10
360.5225160204949
 20
25.50859093420348
 30
0.0
  0
VERTEX
  5
164
  8
DEFPOINTS
 10
360.7411806816139
 20
25.93038335484428
 30
0.0
  0
VERTEX
  5
165
  8
DEFPOINTS
 10
360.9381454058237
 20
26.37666329272125
 30
0.0
  0
VERTEX
  5
166
  8
DEFPOINTS
 10
361.1130805609893
 20
26.84470205877659
 30
0.0
  0
VERTEX
  5
167
  8
DEFPOINTS
 10
361.2656565149755
 20
27.33177096395252
 30
0.0
  0
VERTEX
  5
168
  8
DEFPOINTS
 10
361.3955436356473
 20
27.83514131919125
 30
0.0
  0
VERTEX
  5
169
  8
DEFPOINTS
 10
361.5024122908696
 20
28.35208443543502
 30
0.0
  0
VERTEX
  5
16A
  8
DEFPOINTS
 10
361.5859328485072
 20
28.879871623626
 30
0.0
  0
VERTEX
  5
16B
  8
DEFPOINTS
 10
361.6457756764251
 20
29.41577419470644
 30
0.0
  0
VERTEX
  5
16C
  8
DEFPOINTS
 10
361.6816111424882
 20
29.95706345961852
 30
0.0
  0
VERTEX
  5
16D
  8
DEFPOINTS
 10
361.6931096145614
 20
30.50101072930448
 30
0.0
  0
VERTEX
  5
16E
  8
DEFPOINTS
 10
361.6801371668363
 20
31.04304632695388
 30
0.0
  0
VERTEX
  5
16F
  8
DEFPOINTS
 10
361.6429929780704
 20
31.58230634364676
 30
0.0
  0
VERTEX
  5
170
  8
DEFPOINTS
 10
361.5820050033354
 20
32.11608540435861
 30
0.0
  0
VERTEX
  5
171
  8
DEFPOINTS
 10
361.4975011977028
 20
32.6416781340649
 30
0.0
  0
VERTEX
  5
172
  8
DEFPOINTS
 10
361.3898095162444
 20
33.1563791577411
 30
0.0
  0
VERTEX
  5
173
  8
DEFPOINTS
 10
361.2592579140317
 20
33.6574831003627
 30
0.0
  0
VERTEX
  5
174
  8
DEFPOINTS
 10
361.1061743461364
 20
34.14228458690513
 30
0.0
  0
VERTEX
  5
175
  8
DEFPOINTS
 10
360.9308867676301
 20
34.60807824234394
 30
0.0
  0
VERTEX
  5
176
  8
DEFPOINTS
 10
360.7337231335844
 20
35.05215869165454
 30
0.0
  0
VERTEX
  5
177
  8
DEFPOINTS
 10
360.515011399071
 20
35.47182055981244
 30
0.0
  0
VERTEX
  5
178
  8
DEFPOINTS
 10
360.2750795191615
 20
35.86435847179308
 30
0.0
  0
VERTEX
  5
179
  8
DEFPOINTS
 10
360.0142554489274
 20
36.22706705257195
 30
0.0
  0
VERTEX
  5
17A
  8
DEFPOINTS
 10
359.7328671434405
 20
36.55724092712455
 30
0.0
  0
VERTEX
  5
17B
  8
DEFPOINTS
 10
359.4312425577724
 20
36.85217472042635
 30
0.0
  0
VERTEX
  5
17C
  8
DEFPOINTS
 10
359.1097096469946
 20
37.10916305745278
 30
0.0
  0
VERTEX
  5
17D
  8
DEFPOINTS
 10
358.7685963661789
 20
37.32550056317933
 30
0.0
  0
VERTEX
  5
17E
  8
DEFPOINTS
 10
358.4082306703969
 20
37.49848186258151
 30
0.0
  0
VERTEX
  5
17F
  8
DEFPOINTS
 10
358.0289405147201
 20
37.62540158063476
 30
0.0
  0
VERTEX
  5
180
  8
DEFPOINTS
 10
357.6310538542202
 20
37.70355434231456
 30
0.0
  0
VERTEX
  5
181
  8
DEFPOINTS
 10
357.2148986439688
 20
37.73023477259642
 30
0.0
  0
VERTEX
  5
182
  8
DEFPOINTS
 10
355.2305571634958
 20
37.73023532999539
 30
0.0
  0
VERTEX
  5
183
  8
DEFPOINTS
 10
354.7846375725189
 20
35.50063737511559
 30
0.0
  0
VERTEX
  5
184
  8
DEFPOINTS
 10
346.9810447304384
 20
35.50063737511559
 30
0.0
  0
VERTEX
  5
185
  8
DEFPOINTS
 10
346.9810447304384
 20
31.98902059617848
 30
0.0
  0
VERTEX
  5
186
  8
DEFPOINTS
 10
354.7846375725189
 20
31.98902059617848
 30
0.0
 42
-1.0
  0
VERTEX
  5
187
  8
DEFPOINTS
 10
354.7846375725189
 20
28.97906335709109
 30
0.0
  0
VERTEX
  5
188
  8
DEFPOINTS
 10
346.9810447304384
 20
28.97906335708919
 30
0.0
  0
VERTEX
  5
189
  8
DEFPOINTS
 10
346.9810447304384
 20
25.46744657815378
 30
0.0
  0
VERTEX
  5
18A
  8
DEFPOINTS
 10
354.7846375725189
 20
25.46744657815378
 30
0.0
  0
VERTEX
  5
18B
  8
DEFPOINTS
 10
355.2305571634958
 20
23.23784862327469
 30
0.0
  0
SEQEND
  5
18C
  8
DEFPOINTS
  0
POLYLINE
  5
46
  8
DEFPOINTS
 66
     1
 10
0.0
 20
0.0
 30
0.0
 70
     1
  0
VERTEX
  5
18D
  8
DEFPOINTS
 10
235.3154121769837
 20
145.5347956654384
 30
0.0
 42
0.2702605413720417
  0
VERTEX
  5
18E
  8
DEFPOINTS
 10
233.4862368594123
 20
149.1255648818035
 30
0.0
 42
-0.5611029678814372
  0
VERTEX
  5
18F
  8
DEFPOINTS
 10
233.884386069722
 20
166.1937582625999
 30
0.0
 42
0.3208605433208084
  0
VERTEX
  5
190
  8
DEFPOINTS
 10
235.7953257015133
 20
170.4330460873332
 30
0.0
  0
VERTEX
  5
191
  8
DEFPOINTS
 10
235.5767611773435
 20
171.5293679830108
 30
0.0
  0
VERTEX
  5
192
  8
DEFPOINTS
 10
235.5441890500261
 20
171.6928473222313
 30
0.0
  0
VERTEX
  5
193
  8
DEFPOINTS
 10
235.5087847692992
 20
171.8707028665816
 30
0.0
  0
VERTEX
  5
194
  8
DEFPOINTS
 10
235.4705484433971
 20
172.063019212387
 30
0.0
  0
VERTEX
  5
195
  8
DEFPOINTS
 10
235.4294801805537
 20
172.2698809559729
 30
0.0
  0
VERTEX
  5
196
  8
DEFPOINTS
 10
235.385580089003
 20
172.4913726936647
 30
0.0
  0
VERTEX
  5
197
  8
DEFPOINTS
 10
235.3388482769791
 20
172.7275790217879
 30
0.0
  0
VERTEX
  5
198
  8
DEFPOINTS
 10
235.289284852716
 20
172.9785845366679
 30
0.0
  0
VERTEX
  5
199
  8
DEFPOINTS
 10
235.2368899244478
 20
173.2444738346299
 30
0.0
  0
VERTEX
  5
19A
  8
DEFPOINTS
 10
235.1816636004084
 20
173.5253315119995
 30
0.0
  0
VERTEX
  5
19B
  8
DEFPOINTS
 10
235.123605988832
 20
173.821242165102
 30
0.0
  0
VERTEX
  5
19C
  8
DEFPOINTS
 10
235.0627171979525
 20
174.1322903902629
 30
0.0
  0
VERTEX
  5
19D
  8
DEFPOINTS
 10
234.9989973360041
 20
174.4585607838075
 30
0.0
  0
VERTEX
  5
19E
  8
DEFPOINTS
 10
234.9324465112207
 20
174.8001379420613
 30
0.0
  0
VERTEX
  5
19F
  8
DEFPOINTS
 10
234.8630648318363
 20
175.1571064613497
 30
0.0
  0
VERTEX
  5
1A0
  8
DEFPOINTS
 10
234.7908524060851
 20
175.5295509379979
 30
0.0
  0
VERTEX
  5
1A1
  8
DEFPOINTS
 10
234.715809342201
 20
175.9175559683316
 30
0.0
  0
VERTEX
  5
1A2
  8
DEFPOINTS
 10
234.6379357484181
 20
176.321206148676
 30
0.0
  0
VERTEX
  5
1A3
  8
DEFPOINTS
 10
234.5572317329704
 20
176.7405860753565
 30
0.0
  0
VERTEX
  5
1A4
  8
DEFPOINTS
 10
234.473697404092
 20
177.1757803446986
 30
0.0
  0
VERTEX
  5
1A5
  8
DEFPOINTS
 10
234.3873853154257
 20
177.6269560028285
 30
0.0
  0
VERTEX
  5
1A6
  8
DEFPOINTS
 10
234.2985578022507
 20
178.0946098950751
 30
0.0
  0
VERTEX
  5
1A7
  8
DEFPOINTS
 10
234.2075296452547
 20
178.5793213165684
 30
0.0
  0
VERTEX
  5
1A8
  8
DEFPOINTS
 10
234.1146156251257
 20
179.0816695624382
 30
0.0
  0
VERTEX
  5
1A9
  8
DEFPOINTS
 10
234.0201305225513
 20
179.6022339278143
 30
0.0
  0
VERTEX
  5
1AA
  8
DEFPOINTS
 10
233.9243891182197
 20
180.1415937078266
 30
0.0
  0
VERTEX
  5
1AB
  8
DEFPOINTS
 10
233.8277061928186
 20
180.700328197605
 30
0.0
  0
VERTEX
  5
1AC
  8
DEFPOINTS
 10
233.7303965270359
 20
181.2790166922793
 30
0.0
  0
VERTEX
  5
1AD
  8
DEFPOINTS
 10
233.6327749015594
 20
181.8782384869793
 30
0.0
  0
VERTEX
  5
1AE
  8
DEFPOINTS
 10
233.5351560970771
 20
182.4985728768348
 30
0.0
  0
VERTEX
  5
1AF
  8
DEFPOINTS
 10
233.4378548942769
 20
183.1405991569758
 30
0.0
  0
VERTEX
  5
1B0
  8
DEFPOINTS
 10
233.3411860738465
 20
183.8048966225321
 30
0.0
  0
VERTEX
  5
1B1
  8
DEFPOINTS
 10
233.2454644164739
 20
184.4920445686335
 30
0.0
  0
VERTEX
  5
1B2
  8
DEFPOINTS
 10
233.1510047028469
 20
185.2026222904099
 30
0.0
  0
VERTEX
  5
1B3
  8
DEFPOINTS
 10
233.0581217136535
 20
185.937209082991
 30
0.0
  0
VERTEX
  5
1B4
  8
DEFPOINTS
 10
232.9671302295814
 20
186.6963842415068
 30
0.0
  0
VERTEX
  5
1B5
  8
DEFPOINTS
 10
232.8783450313186
 20
187.4807270610872
 30
0.0
  0
VERTEX
  5
1B6
  8
DEFPOINTS
 10
232.7920808995529
 20
188.2908168368619
 30
0.0
  0
VERTEX
  5
1B7
  8
DEFPOINTS
 10
232.7086526149723
 20
189.1272328639607
 30
0.0
  0
VERTEX
  5
1B8
  8
DEFPOINTS
 10
232.6283749582645
 20
189.9905544375137
 30
0.0
  0
VERTEX
  5
1B9
  8
DEFPOINTS
 10
232.5517628111277
 20
190.8805361461902
 30
0.0
  0
VERTEX
  5
1BA
  8
DEFPOINTS
 10
232.4801314593006
 20
191.7936337528194
 30
0.0
  0
VERTEX
  5
1BB
  8
DEFPOINTS
 10
232.4149962895322
 20
192.7254783137697
 30
0.0
  0
VERTEX
  5
1BC
  8
DEFPOINTS
 10
232.3578726885716
 20
193.6717008854098
 30
0.0
  0
VERTEX
  5
1BD
  8
DEFPOINTS
 10
232.3102760431676
 20
194.6279325241085
 30
0.0
  0
VERTEX
  5
1BE
  8
DEFPOINTS
 10
232.2737217400694
 20
195.5898042862343
 30
0.0
  0
VERTEX
  5
1BF
  8
DEFPOINTS
 10
232.2497251660259
 20
196.5529472281558
 30
0.0
  0
VERTEX
  5
1C0
  8
DEFPOINTS
 10
232.2398017077859
 20
197.5129924062418
 30
0.0
  0
VERTEX
  5
1C1
  8
DEFPOINTS
 10
232.2454667520987
 20
198.4655708768608
 30
0.0
  0
VERTEX
  5
1C2
  8
DEFPOINTS
 10
232.2682356857131
 20
199.4063136963816
 30
0.0
  0
VERTEX
  5
1C3
  8
DEFPOINTS
 10
232.3096238953781
 20
200.3308519211727
 30
0.0
  0
VERTEX
  5
1C4
  8
DEFPOINTS
 10
232.3711467678427
 20
201.2348166076029
 30
0.0
  0
VERTEX
  5
1C5
  8
DEFPOINTS
 10
232.4543196898559
 20
202.1138388120407
 30
0.0
  0
VERTEX
  5
1C6
  8
DEFPOINTS
 10
232.5606580481667
 20
202.9635495908548
 30
0.0
  0
VERTEX
  5
1C7
  8
DEFPOINTS
 10
232.6916772295241
 20
203.7795800004138
 30
0.0
  0
VERTEX
  5
1C8
  8
DEFPOINTS
 10
232.848892620677
 20
204.5575610970865
 30
0.0
  0
VERTEX
  5
1C9
  8
DEFPOINTS
 10
233.0338196083745
 20
205.2931239372414
 30
0.0
  0
VERTEX
  5
1CA
  8
DEFPOINTS
 10
233.2479735793655
 20
205.9818995772473
 30
0.0
  0
VERTEX
  5
1CB
  8
DEFPOINTS
 10
233.492869920399
 20
206.6195190734726
 30
0.0
  0
VERTEX
  5
1CC
  8
DEFPOINTS
 10
233.7700240182241
 20
207.2016134822862
 30
0.0
  0
VERTEX
  5
1CD
  8
DEFPOINTS
 10
234.0801482151594
 20
207.7247201491183
 30
0.0
  0
VERTEX
  5
1CE
  8
DEFPOINTS
 10
234.4207426758022
 20
208.1890015756457
 30
0.0
  0
VERTEX
  5
1CF
  8
DEFPOINTS
 10
234.7885045203197
 20
208.5955265526069
 30
0.0
  0
VERTEX
  5
1D0
  8
DEFPOINTS
 10
235.1801308688789
 20
208.9453638707404
 30
0.0
  0
VERTEX
  5
1D1
  8
DEFPOINTS
 10
235.592318841647
 20
209.2395823207846
 30
0.0
  0
VERTEX
  5
1D2
  8
DEFPOINTS
 10
236.0217655587911
 20
209.4792506934782
 30
0.0
  0
VERTEX
  5
1D3
  8
DEFPOINTS
 10
236.4651681404781
 20
209.6654377795594
 30
0.0
  0
VERTEX
  5
1D4
  8
DEFPOINTS
 10
236.9192237068753
 20
209.7992123697669
 30
0.0
  0
VERTEX
  5
1D5
  8
DEFPOINTS
 10
237.3806293781497
 20
209.8816432548391
 30
0.0
  0
VERTEX
  5
1D6
  8
DEFPOINTS
 10
237.8460822744684
 20
209.9137992255145
 30
0.0
  0
VERTEX
  5
1D7
  8
DEFPOINTS
 10
238.3122795159984
 20
209.8967490725315
 30
0.0
  0
VERTEX
  5
1D8
  8
DEFPOINTS
 10
238.7759182229069
 20
209.8315615866287
 30
0.0
  0
VERTEX
  5
1D9
  8
DEFPOINTS
 10
239.2336955153611
 20
209.7193055585445
 30
0.0
  0
VERTEX
  5
1DA
  8
DEFPOINTS
 10
239.6823085135278
 20
209.5610497790174
 30
0.0
  0
VERTEX
  5
1DB
  8
DEFPOINTS
 10
240.1184543375743
 20
209.3578630387859
 30
0.0
  0
VERTEX
  5
1DC
  8
DEFPOINTS
 10
240.5388301076676
 20
209.1108141285885
 30
0.0
  0
VERTEX
  5
1DD
  8
DEFPOINTS
 10
240.9401329439748
 20
208.8209718391637
 30
0.0
  0
VERTEX
  5
1DE
  8
DEFPOINTS
 10
241.319059966663
 20
208.4894049612499
 30
0.0
  0
VERTEX
  5
1DF
  8
DEFPOINTS
 10
241.6723082958993
 20
208.1171822855856
 30
0.0
  0
VERTEX
  5
1E0
  8
DEFPOINTS
 10
241.9965750518508
 20
207.7053726029093
 30
0.0
  0
VERTEX
  5
1E1
  8
DEFPOINTS
 10
242.2893692301402
 20
207.2552880092998
 30
0.0
  0
VERTEX
  5
1E2
  8
DEFPOINTS
 10
242.5514473282129
 20
206.7692138221972
 30
0.0
  0
VERTEX
  5
1E3
  8
DEFPOINTS
 10
242.7843777189696
 20
206.2496786643818
 30
0.0
  0
VERTEX
  5
1E4
  8
DEFPOINTS
 10
242.9897287753115
 20
205.6992111586341
 30
0.0
  0
VERTEX
  5
1E5
  8
DEFPOINTS
 10
243.1690688701393
 20
205.1203399277342
 30
0.0
  0
VERTEX
  5
1E6
  8
DEFPOINTS
 10
243.3239663763542
 20
204.5155935944628
 30
0.0
  0
VERTEX
  5
1E7
  8
DEFPOINTS
 10
243.4559896668568
 20
203.8875007816001
 30
0.0
  0
VERTEX
  5
1E8
  8
DEFPOINTS
 10
243.5667071145483
 20
203.2385901119264
 30
0.0
  0
VERTEX
  5
1E9
  8
DEFPOINTS
 10
243.6576870923296
 20
202.5713902082223
 30
0.0
  0
VERTEX
  5
1EA
  8
DEFPOINTS
 10
243.7304979731016
 20
201.888429693268
 30
0.0
  0
VERTEX
  5
1EB
  8
DEFPOINTS
 10
243.7867081297652
 20
201.1922371898439
 30
0.0
  0
VERTEX
  5
1EC
  8
DEFPOINTS
 10
243.8278859352213
 20
200.4853413207304
 30
0.0
  0
VERTEX
  5
1ED
  8
DEFPOINTS
 10
243.855599762371
 20
199.7702707087078
 30
0.0
  0
VERTEX
  5
1EE
  8
DEFPOINTS
 10
243.8714179841151
 20
199.0495539765566
 30
0.0
  0
VERTEX
  5
1EF
  8
DEFPOINTS
 10
243.8769089733545
 20
198.3257197470571
 30
0.0
  0
VERTEX
  5
1F0
  8
DEFPOINTS
 10
243.8736411029903
 20
197.6012966429897
 30
0.0
  0
VERTEX
  5
1F1
  8
DEFPOINTS
 10
243.8631827459234
 20
196.8788132871347
 30
0.0
  0
VERTEX
  5
1F2
  8
DEFPOINTS
 10
243.8471022750545
 20
196.1607983022726
 30
0.0
  0
VERTEX
  5
1F3
  8
DEFPOINTS
 10
243.8269680632849
 20
195.4497803111837
 30
0.0
  0
VERTEX
  5
1F4
  8
DEFPOINTS
 10
243.8043484835152
 20
194.7482879366483
 30
0.0
  0
VERTEX
  5
1F5
  8
DEFPOINTS
 10
243.7805596342358
 20
194.0583552154571
 30
0.0
  0
VERTEX
  5
1F6
  8
DEFPOINTS
 10
243.7559085162942
 20
193.3800378404413
 30
0.0
  0
VERTEX
  5
1F7
  8
DEFPOINTS
 10
243.7304498561269
 20
192.7128969184424
 30
0.0
  0
VERTEX
  5
1F8
  8
DEFPOINTS
 10
243.7042383801707
 20
192.0564935563019
 30
0.0
  0
VERTEX
  5
1F9
  8
DEFPOINTS
 10
243.6773288148624
 20
191.4103888608612
 30
0.0
  0
VERTEX
  5
1FA
  8
DEFPOINTS
 10
243.6497758866385
 20
190.774143938962
 30
0.0
  0
VERTEX
  5
1FB
  8
DEFPOINTS
 10
243.6216343219359
 20
190.1473198974455
 30
0.0
  0
VERTEX
  5
1FC
  8
DEFPOINTS
 10
243.5929588471912
 20
189.5294778431534
 30
0.0
  0
VERTEX
  5
1FD
  8
DEFPOINTS
 10
243.5638041888411
 20
188.920178882927
 30
0.0
  0
VERTEX
  5
1FE
  8
DEFPOINTS
 10
243.5342250733224
 20
188.3189841236079
 30
0.0
  0
VERTEX
  5
1FF
  8
DEFPOINTS
 10
243.5042762270717
 20
187.7254546720376
 30
0.0
  0
VERTEX
  5
200
  8
DEFPOINTS
 10
243.4740123765257
 20
187.1391516350575
 30
0.0
  0
VERTEX
  5
201
  8
DEFPOINTS
 10
243.4434882481212
 20
186.5596361195092
 30
0.0
  0
VERTEX
  5
202
  8
DEFPOINTS
 10
243.4127585682948
 20
185.986469232234
 30
0.0
  0
VERTEX
  5
203
  8
DEFPOINTS
 10
243.3818780634832
 20
185.4192120800735
 30
0.0
  0
VERTEX
  5
204
  8
DEFPOINTS
 10
243.3509014601233
 20
184.8574257698692
 30
0.0
  0
VERTEX
  5
205
  8
DEFPOINTS
 10
243.3198834846516
 20
184.3006714084625
 30
0.0
  0
VERTEX
  5
206
  8
DEFPOINTS
 10
243.2888788635048
 20
183.748510102695
 30
0.0
  0
VERTEX
  5
207
  8
DEFPOINTS
 10
243.2579423231197
 20
183.200502959408
 30
0.0
  0
VERTEX
  5
208
  8
DEFPOINTS
 10
243.2271285899331
 20
182.6562110854432
 30
0.0
  0
VERTEX
  5
209
  8
DEFPOINTS
 10
243.1964906595316
 20
182.1153976035777
 30
0.0
  0
VERTEX
  5
20A
  8
DEFPOINTS
 10
243.166074604103
 20
181.5786337003322
 30
0.0
  0
VERTEX
  5
20B
  8
DEFPOINTS
 10
243.1359247649847
 20
181.0466925781633
 30
0.0
  0
VERTEX
  5
20C
  8
DEFPOINTS
 10
243.1060854835146
 20
180.5203474395272
 30
0.0
  0
VERTEX
  5
20D
  8
DEFPOINTS
 10
243.0766011010302
 20
180.0003714868806
 30
0.0
  0
VERTEX
  5
20E
  8
DEFPOINTS
 10
243.0475159588693
 20
179.4875379226798
 30
0.0
  0
VERTEX
  5
20F
  8
DEFPOINTS
 10
243.0188743983695
 20
178.9826199493813
 30
0.0
  0
VERTEX
  5
210
  8
DEFPOINTS
 10
242.9907207608686
 20
178.4863907694416
 30
0.0
  0
VERTEX
  5
211
  8
DEFPOINTS
 10
242.9630993877042
 20
177.999623585317
 30
0.0
  0
VERTEX
  5
212
  8
DEFPOINTS
 10
242.9360546202139
 20
177.5230915994642
 30
0.0
  0
VERTEX
  5
213
  8
DEFPOINTS
 10
242.9096307997355
 20
177.0575680143395
 30
0.0
  0
VERTEX
  5
214
  8
DEFPOINTS
 10
242.8838722676066
 20
176.6038260323994
 30
0.0
  0
VERTEX
  5
215
  8
DEFPOINTS
 10
242.858823365165
 20
176.1626388561002
 30
0.0
  0
VERTEX
  5
216
  8
DEFPOINTS
 10
242.8345284337481
 20
175.7347796878987
 30
0.0
  0
VERTEX
  5
217
  8
DEFPOINTS
 10
242.8110318146939
 20
175.321021730251
 30
0.0
  0
VERTEX
  5
218
  8
DEFPOINTS
 10
242.7883778493399
 20
174.9221381856138
 30
0.0
  0
VERTEX
  5
219
  8
DEFPOINTS
 10
242.7666108790238
 20
174.5389022564434
 30
0.0
  0
VERTEX
  5
21A
  8
DEFPOINTS
 10
242.7457752450833
 20
174.1720871451964
 30
0.0
  0
VERTEX
  5
21B
  8
DEFPOINTS
 10
242.725915288856
 20
173.8224660543291
 30
0.0
  0
VERTEX
  5
21C
  8
DEFPOINTS
 10
242.7070753516797
 20
173.4908121862981
 30
0.0
  0
VERTEX
  5
21D
  8
DEFPOINTS
 10
242.6892867114755
 20
173.1776699597185
 30
0.0
  0
VERTEX
  5
21E
  8
DEFPOINTS
 10
242.6725283924988
 20
172.8826686578408
 30
0.0
  0
VERTEX
  5
21F
  8
DEFPOINTS
 10
242.6567663555884
 20
172.6052087800743
 30
0.0
  0
VERTEX
  5
220
  8
DEFPOINTS
 10
242.6419665615833
 20
172.344690825828
 30
0.0
  0
VERTEX
  5
221
  8
DEFPOINTS
 10
242.6280949713223
 20
172.1005152945112
 30
0.0
  0
VERTEX
  5
222
  8
DEFPOINTS
 10
242.6151175456442
 20
171.8720826855331
 30
0.0
  0
VERTEX
  5
223
  8
DEFPOINTS
 10
242.6030002453878
 20
171.6587934983029
 30
0.0
  0
VERTEX
  5
224
  8
DEFPOINTS
 10
242.5917090313922
 20
171.4600482322298
 30
0.0
  0
VERTEX
  5
225
  8
DEFPOINTS
 10
242.5812098644962
 20
171.275247386723
 30
0.0
  0
VERTEX
  5
226
  8
DEFPOINTS
 10
242.5714687055385
 20
171.1037914611916
 30
0.0
  0
VERTEX
  5
227
  8
DEFPOINTS
 10
242.5624515153582
 20
170.945080955045
 30
0.0
  0
VERTEX
  5
228
  8
DEFPOINTS
 10
242.5541242547939
 20
170.7985163676922
 30
0.0
  0
VERTEX
  5
229
  8
DEFPOINTS
 10
242.5464528846847
 20
170.6634981985426
 30
0.0
  0
VERTEX
  5
22A
  8
DEFPOINTS
 10
242.5394033658693
 20
170.5394269470052
 30
0.0
  0
VERTEX
  5
22B
  8
DEFPOINTS
 10
242.5329416591867
 20
170.4257031124893
 30
0.0
  0
VERTEX
  5
22C
  8
DEFPOINTS
 10
242.5270337254758
 20
170.3217271944042
 30
0.0
  0
VERTEX
  5
22D
  8
DEFPOINTS
 10
242.5216455255752
 20
170.2268996921589
 30
0.0
  0
VERTEX
  5
22E
  8
DEFPOINTS
 10
242.5167430203241
 20
170.1406211051627
 30
0.0
  0
VERTEX
  5
22F
  8
DEFPOINTS
 10
242.5122921705611
 20
170.0622919328248
 30
0.0
  0
VERTEX
  5
230
  8
DEFPOINTS
 10
242.5082589371252
 20
169.9913126745544
 30
0.0
  0
VERTEX
  5
231
  8
DEFPOINTS
 10
242.4826871260624
 20
169.5412851094416
 30
0.0
 42
0.2702605413720447
  0
VERTEX
  5
232
  8
DEFPOINTS
 10
244.3096861919053
 20
165.9519181410725
 30
0.0
 42
-0.5609094753464288
  0
VERTEX
  5
233
  8
DEFPOINTS
 10
243.9184839829227
 20
148.8850987559993
 30
0.0
 42
0.3208605433208152
  0
VERTEX
  5
234
  8
DEFPOINTS
 10
242.0027736015329
 20
144.6430346875466
 30
0.0
  0
VERTEX
  5
235
  8
DEFPOINTS
 10
242.2213381257027
 20
143.5467127918691
 30
0.0
  0
VERTEX
  5
236
  8
DEFPOINTS
 10
242.2539102530201
 20
143.3832334526486
 30
0.0
  0
VERTEX
  5
237
  8
DEFPOINTS
 10
242.2893145337469
 20
143.2053779082983
 30
0.0
  0
VERTEX
  5
238
  8
DEFPOINTS
 10
242.3275508596491
 20
143.0130615624929
 30
0.0
  0
VERTEX
  5
239
  8
DEFPOINTS
 10
242.3686191224925
 20
142.806199818907
 30
0.0
  0
VERTEX
  5
23A
  8
DEFPOINTS
 10
242.4125192140432
 20
142.5847080812151
 30
0.0
  0
VERTEX
  5
23B
  8
DEFPOINTS
 10
242.4592510260671
 20
142.3485017530919
 30
0.0
  0
VERTEX
  5
23C
  8
DEFPOINTS
 10
242.5088144503302
 20
142.097496238212
 30
0.0
  0
VERTEX
  5
23D
  8
DEFPOINTS
 10
242.5612093785984
 20
141.8316069402499
 30
0.0
  0
VERTEX
  5
23E
  8
DEFPOINTS
 10
242.6164357026377
 20
141.5507492628803
 30
0.0
  0
VERTEX
  5
23F
  8
DEFPOINTS
 10
242.6744933142142
 20
141.2548386097778
 30
0.0
  0
VERTEX
  5
240
  8
DEFPOINTS
 10
242.7353821050936
 20
140.9437903846169
 30
0.0
  0
VERTEX
  5
241
  8
DEFPOINTS
 10
242.799101967042
 20
140.6175199910722
 30
0.0
  0
VERTEX
  5
242
  8
DEFPOINTS
 10
242.8656527918255
 20
140.2759428328185
 30
0.0
  0
VERTEX
  5
243
  8
DEFPOINTS
 10
242.9350344712098
 20
139.9189743135301
 30
0.0
  0
VERTEX
  5
244
  8
DEFPOINTS
 10
243.007246896961
 20
139.5465298368818
 30
0.0
  0
VERTEX
  5
245
  8
DEFPOINTS
 10
243.0822899608451
 20
139.1585248065482
 30
0.0
  0
VERTEX
  5
246
  8
DEFPOINTS
 10
243.1601635546281
 20
138.7548746262038
 30
0.0
  0
VERTEX
  5
247
  8
DEFPOINTS
 10
243.2408675700758
 20
138.3354946995233
 30
0.0
  0
VERTEX
  5
248
  8
DEFPOINTS
 10
243.3244018989542
 20
137.9003004301811
 30
0.0
  0
VERTEX
  5
249
  8
DEFPOINTS
 10
243.4107139876204
 20
137.4491247720513
 30
0.0
  0
VERTEX
  5
24A
  8
DEFPOINTS
 10
243.4995415007954
 20
136.9814708798047
 30
0.0
  0
VERTEX
  5
24B
  8
DEFPOINTS
 10
243.5905696577914
 20
136.4967594583114
 30
0.0
  0
VERTEX
  5
24C
  8
DEFPOINTS
 10
243.6834836779205
 20
135.9944112124416
 30
0.0
  0
VERTEX
  5
24D
  8
DEFPOINTS
 10
243.7779687804948
 20
135.4738468470655
 30
0.0
  0
VERTEX
  5
24E
  8
DEFPOINTS
 10
243.8737101848264
 20
134.9344870670531
 30
0.0
  0
VERTEX
  5
24F
  8
DEFPOINTS
 10
243.9703931102275
 20
134.3757525772747
 30
0.0
  0
VERTEX
  5
250
  8
DEFPOINTS
 10
244.0677027760102
 20
133.7970640826005
 30
0.0
  0
VERTEX
  5
251
  8
DEFPOINTS
 10
244.1653244014867
 20
133.1978422879005
 30
0.0
  0
VERTEX
  5
252
  8
DEFPOINTS
 10
244.262943205969
 20
132.5775078980449
 30
0.0
  0
VERTEX
  5
253
  8
DEFPOINTS
 10
244.3602444087693
 20
131.9354816179039
 30
0.0
  0
VERTEX
  5
254
  8
DEFPOINTS
 10
244.4569132291996
 20
131.2711841523476
 30
0.0
  0
VERTEX
  5
255
  8
DEFPOINTS
 10
244.5526348865722
 20
130.5840362062463
 30
0.0
  0
VERTEX
  5
256
  8
DEFPOINTS
 10
244.6470946001992
 20
129.8734584844699
 30
0.0
  0
VERTEX
  5
257
  8
DEFPOINTS
 10
244.7399775893927
 20
129.1388716918887
 30
0.0
  0
VERTEX
  5
258
  8
DEFPOINTS
 10
244.8309690734647
 20
128.3796965333729
 30
0.0
  0
VERTEX
  5
259
  8
DEFPOINTS
 10
244.9197542717275
 20
127.5953537137926
 30
0.0
  0
VERTEX
  5
25A
  8
DEFPOINTS
 10
245.0060184034932
 20
126.7852639380179
 30
0.0
  0
VERTEX
  5
25B
  8
DEFPOINTS
 10
245.0894466880738
 20
125.948847910919
 30
0.0
  0
VERTEX
  5
25C
  8
DEFPOINTS
 10
245.1697243447816
 20
125.0855263373661
 30
0.0
  0
VERTEX
  5
25D
  8
DEFPOINTS
 10
245.2463364919185
 20
124.1955446286895
 30
0.0
  0
VERTEX
  5
25E
  8
DEFPOINTS
 10
245.3179678437455
 20
123.2824470220604
 30
0.0
  0
VERTEX
  5
25F
  8
DEFPOINTS
 10
245.3831030135139
 20
122.35060246111
 30
0.0
  0
VERTEX
  5
260
  8
DEFPOINTS
 10
245.4402266144745
 20
121.4043798894699
 30
0.0
  0
VERTEX
  5
261
  8
DEFPOINTS
 10
245.4878232598785
 20
120.4481482507713
 30
0.0
  0
VERTEX
  5
262
  8
DEFPOINTS
 10
245.5243775629768
 20
119.4862764886455
 30
0.0
  0
VERTEX
  5
263
  8
DEFPOINTS
 10
245.5483741370203
 20
118.523133546724
 30
0.0
  0
VERTEX
  5
264
  8
DEFPOINTS
 10
245.5582975952603
 20
117.563088368638
 30
0.0
  0
VERTEX
  5
265
  8
DEFPOINTS
 10
245.5526325509475
 20
116.610509898019
 30
0.0
  0
VERTEX
  5
266
  8
DEFPOINTS
 10
245.5298636173331
 20
115.6697670784982
 30
0.0
  0
VERTEX
  5
267
  8
DEFPOINTS
 10
245.4884754076681
 20
114.7452288537071
 30
0.0
  0
VERTEX
  5
268
  8
DEFPOINTS
 10
245.4269525352035
 20
113.841264167277
 30
0.0
  0
VERTEX
  5
269
  8
DEFPOINTS
 10
245.3437796131903
 20
112.9622419628392
 30
0.0
  0
VERTEX
  5
26A
  8
DEFPOINTS
 10
245.2374412548795
 20
112.1125311840251
 30
0.0
  0
VERTEX
  5
26B
  8
DEFPOINTS
 10
245.1064220735221
 20
111.296500774466
 30
0.0
  0
VERTEX
  5
26C
  8
DEFPOINTS
 10
244.9492066823691
 20
110.5185196777933
 30
0.0
  0
VERTEX
  5
26D
  8
DEFPOINTS
 10
244.7642796946717
 20
109.7829568376384
 30
0.0
  0
VERTEX
  5
26E
  8
DEFPOINTS
 10
244.5501257236806
 20
109.0941811976326
 30
0.0
  0
VERTEX
  5
26F
  8
DEFPOINTS
 10
244.3052293826471
 20
108.4565617014072
 30
0.0
  0
VERTEX
  5
270
  8
DEFPOINTS
 10
244.0280752848221
 20
107.8744672925936
 30
0.0
  0
VERTEX
  5
271
  8
DEFPOINTS
 10
243.7179510878868
 20
107.3513606257616
 30
0.0
  0
VERTEX
  5
272
  8
DEFPOINTS
 10
243.377356627244
 20
106.8870791992342
 30
0.0
  0
VERTEX
  5
273
  8
DEFPOINTS
 10
243.0095947827265
 20
106.480554222273
 30
0.0
  0
VERTEX
  5
274
  8
DEFPOINTS
 10
242.6179684341673
 20
106.1307169041395
 30
0.0
  0
VERTEX
  5
275
  8
DEFPOINTS
 10
242.2057804613992
 20
105.8364984540953
 30
0.0
  0
VERTEX
  5
276
  8
DEFPOINTS
 10
241.7763337442551
 20
105.5968300814017
 30
0.0
  0
VERTEX
  5
277
  8
DEFPOINTS
 10
241.3329311625681
 20
105.4106429953205
 30
0.0
  0
VERTEX
  5
278
  8
DEFPOINTS
 10
240.8788755961709
 20
105.276868405113
 30
0.0
  0
VERTEX
  5
279
  8
DEFPOINTS
 10
240.4174699248965
 20
105.1944375200408
 30
0.0
  0
VERTEX
  5
27A
  8
DEFPOINTS
 10
239.9520170285778
 20
105.1622815493655
 30
0.0
  0
VERTEX
  5
27B
  8
DEFPOINTS
 10
239.4858197870478
 20
105.1793317023484
 30
0.0
  0
VERTEX
  5
27C
  8
DEFPOINTS
 10
239.0221810801392
 20
105.2445191882513
 30
0.0
  0
VERTEX
  5
27D
  8
DEFPOINTS
 10
238.5644037876852
 20
105.3567752163355
 30
0.0
  0
VERTEX
  5
27E
  8
DEFPOINTS
 10
238.1157907895184
 20
105.5150309958625
 30
0.0
  0
VERTEX
  5
27F
  8
DEFPOINTS
 10
237.6796449654719
 20
105.718217736094
 30
0.0
  0
VERTEX
  5
280
  8
DEFPOINTS
 10
237.2592691953786
 20
105.9652666462914
 30
0.0
  0
VERTEX
  5
281
  8
DEFPOINTS
 10
236.8579663590714
 20
106.2551089357163
 30
0.0
  0
VERTEX
  5
282
  8
DEFPOINTS
 10
236.4790393363832
 20
106.5866758136301
 30
0.0
  0
VERTEX
  5
283
  8
DEFPOINTS
 10
236.1257910071468
 20
106.9588984892944
 30
0.0
  0
VERTEX
  5
284
  8
DEFPOINTS
 10
235.8015242511953
 20
107.3707081719706
 30
0.0
  0
VERTEX
  5
285
  8
DEFPOINTS
 10
235.5087300729058
 20
107.8207927655801
 30
0.0
  0
VERTEX
  5
286
  8
DEFPOINTS
 10
235.2466519748332
 20
108.3068669526827
 30
0.0
  0
VERTEX
  5
287
  8
DEFPOINTS
 10
235.0137215840765
 20
108.8264021104981
 30
0.0
  0
VERTEX
  5
288
  8
DEFPOINTS
 10
234.8083705277346
 20
109.3768696162459
 30
0.0
  0
VERTEX
  5
289
  8
DEFPOINTS
 10
234.6290304329068
 20
109.9557408471457
 30
0.0
  0
VERTEX
  5
28A
  8
DEFPOINTS
 10
234.474132926692
 20
110.5604871804171
 30
0.0
  0
VERTEX
  5
28B
  8
DEFPOINTS
 10
234.3421096361892
 20
111.1885799932799
 30
0.0
  0
VERTEX
  5
28C
  8
DEFPOINTS
 10
234.2313921884977
 20
111.8374906629535
 30
0.0
  0
VERTEX
  5
28D
  8
DEFPOINTS
 10
234.1404122107164
 20
112.5046905666576
 30
0.0
  0
VERTEX
  5
28E
  8
DEFPOINTS
 10
234.0676013299445
 20
113.1876510816119
 30
0.0
  0
VERTEX
  5
28F
  8
DEFPOINTS
 10
234.0113911732809
 20
113.883843585036
 30
0.0
  0
VERTEX
  5
290
  8
DEFPOINTS
 10
233.9702133678248
 20
114.5907394541495
 30
0.0
  0
VERTEX
  5
291
  8
DEFPOINTS
 10
233.9424995406751
 20
115.3058100661721
 30
0.0
  0
VERTEX
  5
292
  8
DEFPOINTS
 10
233.926681318931
 20
116.0265267983233
 30
0.0
  0
VERTEX
  5
293
  8
DEFPOINTS
 10
233.9211903296915
 20
116.7503610278228
 30
0.0
  0
VERTEX
  5
294
  8
DEFPOINTS
 10
233.9244582000557
 20
117.4747841318902
 30
0.0
  0
VERTEX
  5
295
  8
DEFPOINTS
 10
233.9349165571227
 20
118.1972674877452
 30
0.0
  0
VERTEX
  5
296
  8
DEFPOINTS
 10
233.9509970279915
 20
118.9152824726073
 30
0.0
  0
VERTEX
  5
297
  8
DEFPOINTS
 10
233.9711312397612
 20
119.6263004636962
 30
0.0
  0
VERTEX
  5
298
  8
DEFPOINTS
 10
233.9937508195308
 20
120.3277928382316
 30
0.0
  0
VERTEX
  5
299
  8
DEFPOINTS
 10
234.0175396688102
 20
121.0177255594228
 30
0.0
  0
VERTEX
  5
29A
  8
DEFPOINTS
 10
234.0421907867519
 20
121.6960429344386
 30
0.0
  0
VERTEX
  5
29B
  8
DEFPOINTS
 10
234.0676494469191
 20
122.3631838564375
 30
0.0
  0
VERTEX
  5
29C
  8
DEFPOINTS
 10
234.0938609228753
 20
123.019587218578
 30
0.0
  0
VERTEX
  5
29D
  8
DEFPOINTS
 10
234.1207704881836
 20
123.6656919140186
 30
0.0
  0
VERTEX
  5
29E
  8
DEFPOINTS
 10
234.1483234164075
 20
124.3019368359179
 30
0.0
  0
VERTEX
  5
29F
  8
DEFPOINTS
 10
234.1764649811101
 20
124.9287608774343
 30
0.0
  0
VERTEX
  5
2A0
  8
DEFPOINTS
 10
234.2051404558548
 20
125.5466029317265
 30
0.0
  0
VERTEX
  5
2A1
  8
DEFPOINTS
 10
234.2342951142049
 20
126.1559018919528
 30
0.0
  0
VERTEX
  5
2A2
  8
DEFPOINTS
 10
234.2638742297237
 20
126.7570966512719
 30
0.0
  0
VERTEX
  5
2A3
  8
DEFPOINTS
 10
234.2938230759744
 20
127.3506261028422
 30
0.0
  0
VERTEX
  5
2A4
  8
DEFPOINTS
 10
234.3240869265204
 20
127.9369291398223
 30
0.0
  0
VERTEX
  5
2A5
  8
DEFPOINTS
 10
234.3546110549249
 20
128.5164446553706
 30
0.0
  0
VERTEX
  5
2A6
  8
DEFPOINTS
 10
234.3853407347513
 20
129.0896115426458
 30
0.0
  0
VERTEX
  5
2A7
  8
DEFPOINTS
 10
234.4162212395629
 20
129.6568686948063
 30
0.0
  0
VERTEX
  5
2A8
  8
DEFPOINTS
 10
234.4471978429228
 20
130.2186550050106
 30
0.0
  0
VERTEX
  5
2A9
  8
DEFPOINTS
 10
234.4782158183945
 20
130.7754093664173
 30
0.0
  0
VERTEX
  5
2AA
  8
DEFPOINTS
 10
234.5092204395413
 20
131.3275706721848
 30
0.0
  0
VERTEX
  5
2AB
  8
DEFPOINTS
 10
234.5401569799264
 20
131.8755778154718
 30
0.0
  0
VERTEX
  5
2AC
  8
DEFPOINTS
 10
234.570970713113
 20
132.4198696894366
 30
0.0
  0
VERTEX
  5
2AD
  8
DEFPOINTS
 10
234.6016086435145
 20
132.9606831713021
 30
0.0
  0
VERTEX
  5
2AE
  8
DEFPOINTS
 10
234.6320246989432
 20
133.4974470745475
 30
0.0
  0
VERTEX
  5
2AF
  8
DEFPOINTS
 10
234.6621745380615
 20
134.0293881967165
 30
0.0
  0
VERTEX
  5
2B0
  8
DEFPOINTS
 10
234.6920138195316
 20
134.5557333353525
 30
0.0
  0
VERTEX
  5
2B1
  8
DEFPOINTS
 10
234.721498202016
 20
135.0757092879992
 30
0.0
  0
VERTEX
  5
2B2
  8
DEFPOINTS
 10
234.7505833441769
 20
135.5885428521999
 30
0.0
  0
VERTEX
  5
2B3
  8
DEFPOINTS
 10
234.7792249046766
 20
136.0934608254984
 30
0.0
  0
VERTEX
  5
2B4
  8
DEFPOINTS
 10
234.8073785421775
 20
136.5896900054382
 30
0.0
  0
VERTEX
  5
2B5
  8
DEFPOINTS
 10
234.834999915342
 20
137.0764571895627
 30
0.0
  0
VERTEX
  5
2B6
  8
DEFPOINTS
 10
234.8620446828322
 20
137.5529891754155
 30
0.0
  0
VERTEX
  5
2B7
  8
DEFPOINTS
 10
234.8884685033106
 20
138.0185127605402
 30
0.0
  0
VERTEX
  5
2B8
  8
DEFPOINTS
 10
234.9142270354395
 20
138.4722547424804
 30
0.0
  0
VERTEX
  5
2B9
  8
DEFPOINTS
 10
234.9392759378812
 20
138.9134419187795
 30
0.0
  0
VERTEX
  5
2BA
  8
DEFPOINTS
 10
234.963570869298
 20
139.341301086981
 30
0.0
  0
VERTEX
  5
2BB
  8
DEFPOINTS
 10
234.9870674883522
 20
139.7550590446287
 30
0.0
  0
VERTEX
  5
2BC
  8
DEFPOINTS
 10
235.0097214537062
 20
140.1539425892659
 30
0.0
  0
VERTEX
  5
2BD
  8
DEFPOINTS
 10
235.0314884240223
 20
140.5371785184363
 30
0.0
  0
VERTEX
  5
2BE
  8
DEFPOINTS
 10
235.0523240579629
 20
140.9039936296833
 30
0.0
  0
VERTEX
  5
2BF
  8
DEFPOINTS
 10
235.0721840141901
 20
141.2536147205506
 30
0.0
  0
VERTEX
  5
2C0
  8
DEFPOINTS
 10
235.0910239513665
 20
141.5852685885816
 30
0.0
  0
VERTEX
  5
2C1
  8
DEFPOINTS
 10
235.1088125915706
 20
141.8984108151612
 30
0.0
  0
VERTEX
  5
2C2
  8
DEFPOINTS
 10
235.1255709105473
 20
142.1934121170389
 30
0.0
  0
VERTEX
  5
2C3
  8
DEFPOINTS
 10
235.1413329474576
 20
142.4708719948055
 30
0.0
  0
VERTEX
  5
2C4
  8
DEFPOINTS
 10
235.1561327414628
 20
142.7313899490517
 30
0.0
  0
VERTEX
  5
2C5
  8
DEFPOINTS
 10
235.1700043317238
 20
142.9755654803685
 30
0.0
  0
VERTEX
  5
2C6
  8
DEFPOINTS
 10
235.1829817574019
 20
143.2039980893466
 30
0.0
  0
VERTEX
  5
2C7
  8
DEFPOINTS
 10
235.1950990576582
 20
143.4172872765768
 30
0.0
  0
VERTEX
  5
2C8
  8
DEFPOINTS
 10
235.2063902716538
 20
143.6160325426499
 30
0.0
  0
VERTEX
  5
2C9
  8
DEFPOINTS
 10
235.2168894385498
 20
143.8008333881568
 30
0.0
  0
VERTEX
  5
2CA
  8
DEFPOINTS
 10
235.2266305975075
 20
143.9722893136881
 30
0.0
  0
VERTEX
  5
2CB
  8
DEFPOINTS
 10
235.2356477876879
 20
144.1309998198348
 30
0.0
  0
VERTEX
  5
2CC
  8
DEFPOINTS
 10
235.2439750482521
 20
144.2775644071875
 30
0.0
  0
VERTEX
  5
2CD
  8
DEFPOINTS
 10
235.2516464183613
 20
144.4125825763372
 30
0.0
  0
VERTEX
  5
2CE
  8
DEFPOINTS
 10
235.2586959371767
 20
144.5366538278745
 30
0.0
  0
VERTEX
  5
2CF
  8
DEFPOINTS
 10
235.2651576438593
 20
144.6503776623904
 30
0.0
  0
VERTEX
  5
2D0
  8
DEFPOINTS
 10
235.2710655775703
 20
144.7543535804756
 30
0.0
  0
VERTEX
  5
2D1
  8
DEFPOINTS
 10
235.2764537774708
 20
144.8491810827209
 30
0.0
  0
VERTEX
  5
2D2
  8
DEFPOINTS
 10
235.2813562827219
 20
144.9354596697171
 30
0.0
  0
VERTEX
  5
2D3
  8
DEFPOINTS
 10
235.2858071324849
 20
145.013788842055
 30
0.0
  0
VERTEX
  5
2D4
  8
DEFPOINTS
 10
235.2898403659208
 20
145.0847681003254
 30
0.0
  0
SEQEND
  5
2D5
  8
DEFPOINTS
  0
POLYLINE
  5
47
  8
DEFPOINTS
 66
     1
 10
0.0
 20
0.0
 30
0.0
 70
     1
  0
VERTEX
  5
2D6
  8
DEFPOINTS
 10
262.0846181744639
 20
222.2269328045641
 30
0.0
 42
-0.4926799975113724
  0
VERTEX
  5
2D7
  8
DEFPOINTS
 10
257.4716307472041
 20
227.989979252086
 30
0.0
  0
VERTEX
  5
2D8
  8
DEFPOINTS
 10
260.4514075909756
 20
244.087343161423
 30
0.0
  0
VERTEX
  5
2D9
  8
DEFPOINTS
 10
263.4313642848505
 20
260.1846614528083
 30
0.0
 42
-0.309879019931513
  0
VERTEX
  5
2DA
  8
DEFPOINTS
 10
273.9746955819822
 20
268.8785817926353
 30
0.0
 42
-0.0511875000283953
  0
VERTEX
  5
2DB
  8
DEFPOINTS
 10
275.5632351258902
 20
262.1758559640507
 30
0.0
  0
VERTEX
  5
2DC
  8
DEFPOINTS
 10
270.3605726535599
 20
252.3212798431009
 30
0.0
  0
VERTEX
  5
2DD
  8
DEFPOINTS
 10
266.900598268795
 20
242.7748462907235
 30
0.0
  0
VERTEX
  5
2DE
  8
DEFPOINTS
 10
266.9523207488277
 20
242.9325047888271
 30
0.0
 42
0.4384680575380494
  0
VERTEX
  5
2DF
  8
DEFPOINTS
 10
267.86098970404
 20
240.9478382247298
 30
0.0
 42
0.4385663485421986
  0
VERTEX
  5
2E0
  8
DEFPOINTS
 10
269.7662479305878
 20
242.021619668451
 30
0.0
  0
VERTEX
  5
2E1
  8
DEFPOINTS
 10
276.6344727147664
 20
257.2533273933021
 30
0.0
 42
-0.4485976212438931
  0
VERTEX
  5
2E2
  8
DEFPOINTS
 10
279.8083569772127
 20
256.2347368088035
 30
0.0
  0
VERTEX
  5
2E3
  8
DEFPOINTS
 10
282.2455375598423
 20
250.6988650718568
 30
0.0
  0
VERTEX
  5
2E4
  8
DEFPOINTS
 10
322.1938278229701
 20
253.4840245847032
 30
0.0
  0
VERTEX
  5
2E5
  8
DEFPOINTS
 10
332.0399995426796
 20
262.0443465429007
 30
0.0
 42
-0.5444843289757495
  0
VERTEX
  5
2E6
  8
DEFPOINTS
 10
335.7119171046061
 20
261.3198109314056
 30
0.0
  0
VERTEX
  5
2E7
  8
DEFPOINTS
 10
334.9571197164635
 20
259.1869018650555
 30
0.0
  0
VERTEX
  5
2E8
  8
DEFPOINTS
 10
328.6274236950094
 20
245.9118855235122
 30
0.0
 42
0.4162994915922533
  0
VERTEX
  5
2E9
  8
DEFPOINTS
 10
329.2647960988666
 20
243.8878012715414
 30
0.0
 42
0.4162914513817088
  0
VERTEX
  5
2EA
  8
DEFPOINTS
 10
331.2794128126984
 20
244.5301090264422
 30
0.0
  0
VERTEX
  5
2EB
  8
DEFPOINTS
 10
338.3342493255034
 20
258.1877481101847
 30
0.0
  0
VERTEX
  5
2EC
  8
DEFPOINTS
 10
340.7336947162181
 20
264.9681089946398
 30
0.0
 42
-0.0799490022675827
  0
VERTEX
  5
2ED
  8
DEFPOINTS
 10
344.0707630909888
 20
268.2051061918218
 30
0.0
 42
-0.375803062245406
  0
VERTEX
  5
2EE
  8
DEFPOINTS
 10
346.81886770655
 20
253.1129378006619
 30
0.0
 42
-0.0275270674620354
  0
VERTEX
  5
2EF
  8
DEFPOINTS
 10
345.9894274936996
 20
251.7391385091643
 30
0.0
 42
-0.0700959087797161
  0
VERTEX
  5
2F0
  8
DEFPOINTS
 10
342.3881496786562
 20
247.4437586536677
 30
0.0
  0
VERTEX
  5
2F1
  8
DEFPOINTS
 10
328.5258804138955
 20
228.9231684892872
 30
0.0
 42
-0.3791489457289146
  0
VERTEX
  5
2F2
  8
DEFPOINTS
 10
318.8871945458844
 20
225.3449700858243
 30
0.0
  0
VERTEX
  5
2F3
  8
DEFPOINTS
 10
322.4872330677026
 20
231.6750597820656
 30
0.0
  0
VERTEX
  5
2F4
  8
DEFPOINTS
 10
317.1193630367138
 20
243.1059630677364
 30
0.0
  0
VERTEX
  5
2F5
  8
DEFPOINTS
 10
281.0734713257921
 20
240.5928753351592
 30
0.0
  0
VERTEX
  5
2F6
  8
DEFPOINTS
 10
264.561537087522
 20
228.8089284176961
 30
0.0
  0
SEQEND
  5
2F7
  8
DEFPOINTS
  0
POLYLINE
  5
48
  8
DEFPOINTS
 66
     1
 10
0.0
 20
0.0
 30
0.0
 70
     1
  0
VERTEX
  5
2F8
  8
DEFPOINTS
 10
355.3062177749219
 20
86.78373472976664
 30
0.0
 42
0.3838379487296162
  0
VERTEX
  5
2F9
  8
DEFPOINTS
 10
357.6455761604287
 20
89.73333516930835
 30
0.0
  0
VERTEX
  5
2FA
  8
DEFPOINTS
 10
357.7006394370453
 20
97.81517504919493
 30
0.0
  0
VERTEX
  5
2FB
  8
DEFPOINTS
 10
359.9366731264236
 20
98.6916929914017
 30
0.0
  0
VERTEX
  5
2FC
  8
DEFPOINTS
 10
359.9802735950703
 20
105.001009235781
 30
0.0
 42
0.4141871764668529
  0
VERTEX
  5
2FD
  8
DEFPOINTS
 10
354.4451209680018
 20
110.6137010734249
 30
0.0
  0
VERTEX
  5
2FE
  8
DEFPOINTS
 10
345.3478563081536
 20
110.6759386281366
 30
0.0
  0
VERTEX
  5
2FF
  8
DEFPOINTS
 10
327.2885850125642
 20
131.4107759211853
 30
0.0
 42
0.0867680321846073
  0
VERTEX
  5
300
  8
DEFPOINTS
 10
329.2116328504179
 20
140.2600726084189
 30
0.0
 42
0.08595596886728
  0
VERTEX
  5
301
  8
DEFPOINTS
 10
327.4439614112131
 20
149.0570674073102
 30
0.0
  0
VERTEX
  5
302
  8
DEFPOINTS
 10
345.7542568327779
 20
169.4250253619767
 30
0.0
  0
VERTEX
  5
303
  8
DEFPOINTS
 10
354.8498786820504
 20
169.3622990917185
 30
0.0
 42
0.4143411805421325
  0
VERTEX
  5
304
  8
DEFPOINTS
 10
360.4632327238961
 20
174.8987320618511
 30
0.0
  0
VERTEX
  5
305
  8
DEFPOINTS
 10
360.506801389868
 20
181.2182117333647
 30
0.0
  0
VERTEX
  5
306
  8
DEFPOINTS
 10
358.2836937946333
 20
182.1255505228987
 30
0.0
  0
VERTEX
  5
307
  8
DEFPOINTS
 10
358.3395730855107
 20
190.1962915409569
 30
0.0
 42
0.3838381054388562
  0
VERTEX
  5
308
  8
DEFPOINTS
 10
356.0411895050327
 20
193.1779323520354
 30
0.0
  0
VERTEX
  5
309
  8
DEFPOINTS
 10
354.7586838207834
 20
193.1864404957916
 30
0.0
  0
VERTEX
  5
30A
  8
DEFPOINTS
 10
354.7002799482977
 20
184.6036372677218
 30
0.0
 42
-0.4166145855863316
  0
VERTEX
  5
30B
  8
DEFPOINTS
 10
353.1737131661998
 20
183.1082392834069
 30
0.0
 42
-0.412003214356814
  0
VERTEX
  5
30C
  8
DEFPOINTS
 10
351.6903615654318
 20
184.6233181686693
 30
0.0
  0
VERTEX
  5
30D
  8
DEFPOINTS
 10
351.7487728458523
 20
193.2072013971506
 30
0.0
  0
VERTEX
  5
30E
  8
DEFPOINTS
 10
350.4677528816796
 20
193.2162652702334
 30
0.0
 42
0.3840487221154197
  0
VERTEX
  5
30F
  8
DEFPOINTS
 10
348.1277179436531
 20
190.2674688562543
 30
0.0
  0
VERTEX
  5
310
  8
DEFPOINTS
 10
348.0726384930217
 20
182.1962421556593
 30
0.0
  0
VERTEX
  5
311
  8
DEFPOINTS
 10
345.8366048036457
 20
181.3197247708529
 30
0.0
  0
VERTEX
  5
312
  8
DEFPOINTS
 10
345.8233565325974
 20
179.4575935437111
 30
0.0
  0
VERTEX
  5
313
  8
DEFPOINTS
 10
324.0015499236555
 20
162.2911451996031
 30
0.0
 42
0.0477909994834863
  0
VERTEX
  5
314
  8
DEFPOINTS
 10
295.9748992005536
 20
165.5619547863815
 30
0.0
 42
0.0794650013705141
  0
VERTEX
  5
315
  8
DEFPOINTS
 10
289.7546958455283
 20
159.4175184178491
 30
0.0
  0
VERTEX
  5
316
  8
DEFPOINTS
 10
306.210376072981
 20
159.3046101440275
 30
0.0
 42
-0.4121990096127049
  0
VERTEX
  5
317
  8
DEFPOINTS
 10
307.7054915299775
 20
157.7992337336419
 30
0.0
 42
-0.41623673188467
  0
VERTEX
  5
318
  8
DEFPOINTS
 10
306.1894620132821
 20
156.2936988213402
 30
0.0
  0
VERTEX
  5
319
  8
DEFPOINTS
 10
295.6283099830039
 20
156.3668308550596
 30
0.0
  0
VERTEX
  5
31A
  8
DEFPOINTS
 10
295.6283099830038
 20
141.9971538823382
 30
0.0
  0
VERTEX
  5
31B
  8
DEFPOINTS
 10
306.0908382051202
 20
141.9247228512602
 30
0.0
 42
-0.4142135764649676
  0
VERTEX
  5
31C
  8
DEFPOINTS
 10
307.5846635838047
 20
140.4086464089889
 30
0.0
 42
-0.4142135764649924
  0
VERTEX
  5
31D
  8
DEFPOINTS
 10
306.0685870696615
 20
138.914821103247
 30
0.0
  0
VERTEX
  5
31E
  8
DEFPOINTS
 10
295.6283099830038
 20
138.9870994653955
 30
0.0
  0
VERTEX
  5
31F
  8
DEFPOINTS
 10
295.6283099830039
 20
124.6281505981472
 30
0.0
  0
VERTEX
  5
320
  8
DEFPOINTS
 10
305.9707185714319
 20
124.5568134940938
 30
0.0
 42
-0.4419787608543067
  0
VERTEX
  5
321
  8
DEFPOINTS
 10
307.4652934647871
 20
123.0414767022658
 30
0.0
 42
-0.4143966564640908
  0
VERTEX
  5
322
  8
DEFPOINTS
 10
305.9490132899889
 20
121.54690721608
 30
0.0
  0
VERTEX
  5
323
  8
DEFPOINTS
 10
289.4931986101319
 20
121.6602982075012
 30
0.0
 42
0.0795250035963654
  0
VERTEX
  5
324
  8
DEFPOINTS
 10
295.6283099830038
 20
115.4196288257927
 30
0.0
 42
0.0477909996618724
  0
VERTEX
  5
325
  8
DEFPOINTS
 10
323.697380624163
 20
118.313725637946
 30
0.0
  0
VERTEX
  5
326
  8
DEFPOINTS
 10
345.2787554935384
 20
100.6433693316062
 30
0.0
  0
VERTEX
  5
327
  8
DEFPOINTS
 10
345.2664776549987
 20
98.79320602888602
 30
0.0
  0
VERTEX
  5
328
  8
DEFPOINTS
 10
347.4895841354336
 20
97.88586668195246
 30
0.0
  0
VERTEX
  5
329
  8
DEFPOINTS
 10
347.4337115117973
 20
89.80324826655816
 30
0.0
 42
0.3840487624619173
  0
VERTEX
  5
32A
  8
DEFPOINTS
 10
349.7327846926267
 20
86.82240375419808
 30
0.0
  0
VERTEX
  5
32B
  8
DEFPOINTS
 10
351.0138076186082
 20
86.81376907754166
 30
0.0
  0
VERTEX
  5
32C
  8
DEFPOINTS
 10
351.0739840850185
 20
95.39663475987398
 30
0.0
 42
-0.4144632365258508
  0
VERTEX
  5
32D
  8
DEFPOINTS
 10
352.5897762065005
 20
96.89204351999304
 30
0.0
 42
-0.4143764499581669
  0
VERTEX
  5
32E
  8
DEFPOINTS
 10
354.0838931930228
 20
95.37558208057119
 30
0.0
  0
VERTEX
  5
32F
  8
DEFPOINTS
 10
354.0237185935367
 20
86.79294519003916
 30
0.0
  0
SEQEND
  5
330
  8
DEFPOINTS
  0
POLYLINE
  5
49
  8
DEFPOINTS
 66
     1
 10
0.0
 20
0.0
 30
0.0
 70
     1
  0
VERTEX
  5
331
  8
DEFPOINTS
 10
45.49378879773435
 20
222.6991992471235
 30
0.0
 42
-0.9879675048200965
  0
VERTEX
  5
332
  8
DEFPOINTS
 10
44.89819656228983
 20
272.4976774759444
 30
0.0
 42
-0.0106077997752923
  0
VERTEX
  5
333
  8
DEFPOINTS
 10
45.94609172664853
 20
272.5198031617784
 30
0.0
  0
VERTEX
  5
334
  8
DEFPOINTS
 10
54.61136981342361
 20
271.6487565208686
 30
0.0
 42
-0.3852011678913422
  0
VERTEX
  5
335
  8
DEFPOINTS
 10
55.51119799670423
 20
270.6661321623984
 30
0.0
  0
VERTEX
  5
336
  8
DEFPOINTS
 10
55.50838471309262
 20
249.3630508503452
 30
0.0
 42
0.9995768796678983
  0
VERTEX
  5
337
  8
DEFPOINTS
 10
58.51834159302391
 20
249.3638564697983
 30
0.0
  0
VERTEX
  5
338
  8
DEFPOINTS
 10
58.52122210203456
 20
270.1502949803044
 30
0.0
 42
-0.4438339196500713
  0
VERTEX
  5
339
  8
DEFPOINTS
 10
59.62123953516286
 20
271.1451569653996
 30
0.0
  0
VERTEX
  5
33A
  8
DEFPOINTS
 10
115.8421127700229
 20
265.4904039369703
 30
0.0
 42
-0.3996593850142598
  0
VERTEX
  5
33B
  8
DEFPOINTS
 10
116.9544445752956
 20
264.4284670709083
 30
0.0
 42
0.948776870103005
  0
VERTEX
  5
33C
  8
DEFPOINTS
 10
152.7056564262819
 20
264.4340433809617
 30
0.0
 42
-0.3993469434590657
  0
VERTEX
  5
33D
  8
DEFPOINTS
 10
153.8202174861028
 20
265.4934434336533
 30
0.0
  0
VERTEX
  5
33E
  8
DEFPOINTS
 10
210.0441521404137
 20
271.1451569653996
 30
0.0
 42
-0.4438339196500714
  0
VERTEX
  5
33F
  8
DEFPOINTS
 10
211.1441695735421
 20
270.1502949803044
 30
0.0
  0
VERTEX
  5
340
  8
DEFPOINTS
 10
211.1470500825527
 20
249.3638564697983
 30
0.0
 42
0.9995768796678887
  0
VERTEX
  5
341
  8
DEFPOINTS
 10
214.157006962484
 20
249.3630508503452
 30
0.0
  0
VERTEX
  5
342
  8
DEFPOINTS
 10
214.1541936788724
 20
270.6661321623976
 30
0.0
 42
-0.3852011678913109
  0
VERTEX
  5
343
  8
DEFPOINTS
 10
215.054021862153
 20
271.6487565208686
 30
0.0
  0
VERTEX
  5
344
  8
DEFPOINTS
 10
223.7192999489281
 20
272.5198031617784
 30
0.0
 42
-0.0106077997752913
  0
VERTEX
  5
345
  8
DEFPOINTS
 10
224.7671951132868
 20
272.4976774759444
 30
0.0
 42
-0.9879675048200969
  0
VERTEX
  5
346
  8
DEFPOINTS
 10
224.1716028778422
 20
222.6991992471235
 30
0.0
  0
VERTEX
  5
347
  8
DEFPOINTS
 10
134.8326958377883
 20
213.7187194401846
 30
0.0
  0
SEQEND
  5
348
  8
DEFPOINTS
  0
POLYLINE
  5
4A
  8
DEFPOINTS
 66
     1
 10
0.0
 20
0.0
 30
0.0
 70
     1
  0
VERTEX
  5
349
  8
DEFPOINTS
 10
391.9937126515792
 20
56.69086237054094
 30
0.0
 42
1.0
  0
VERTEX
  5
34A
  8
DEFPOINTS
 10
391.9932444275209
 20
59.70081959142013
 30
0.0
  0
VERTEX
  5
34B
  8
DEFPOINTS
 10
370.1014427893374
 20
59.69721771630279
 30
0.0
  0
VERTEX
  5
34C
  8
DEFPOINTS
 10
370.0983904758074
 20
88.97164319448922
 30
0.0
 42
-0.3974052038480748
  0
VERTEX
  5
34D
  8
DEFPOINTS
 10
394.3285916749352
 20
113.8686987969281
 30
0.0
 42
0.4028962721395079
  0
VERTEX
  5
34E
  8
DEFPOINTS
 10
395.398663203373
 20
114.9839351443848
 30
0.0
  0
VERTEX
  5
34F
  8
DEFPOINTS
 10
395.39876777541
 20
115.0284344394461
 30
0.0
 42
0.4142140020008949
  0
VERTEX
  5
350
  8
DEFPOINTS
 10
394.2837954428094
 20
116.1430594945913
 30
0.0
  0
VERTEX
  5
351
  8
DEFPOINTS
 10
384.0928470013931
 20
116.1414733285294
 30
0.0
  0
VERTEX
  5
352
  8
DEFPOINTS
 10
384.0928470013931
 20
151.9265213714938
 30
0.0
  0
VERTEX
  5
353
  8
DEFPOINTS
 10
394.2782259110377
 20
151.9281066840711
 30
0.0
 42
0.4142140020009625
  0
VERTEX
  5
354
  8
DEFPOINTS
 10
395.3928509661862
 20
153.043079016671
 30
0.0
  0
VERTEX
  5
355
  8
DEFPOINTS
 10
395.3928476229977
 20
153.0656000897973
 30
0.0
 42
0.4025373654506305
  0
VERTEX
  5
356
  8
DEFPOINTS
 10
394.3222804939028
 20
154.1795689201996
 30
0.0
 42
-0.3974050712494113
  0
VERTEX
  5
357
  8
DEFPOINTS
 10
370.0841950269516
 20
179.0696987804488
 30
0.0
  0
VERTEX
  5
358
  8
DEFPOINTS
 10
370.0779980297268
 20
210.3286587638069
 30
0.0
  0
VERTEX
  5
359
  8
DEFPOINTS
 10
391.9697990987144
 20
210.3324552117225
 30
0.0
 42
0.9999999999999998
  0
VERTEX
  5
35A
  8
DEFPOINTS
 10
391.9693308746562
 20
213.3424124326012
 30
0.0
  0
VERTEX
  5
35B
  8
DEFPOINTS
 10
370.0775292264651
 20
213.3388105574859
 30
0.0
  0
VERTEX
  5
35C
  8
DEFPOINTS
 10
370.0760660822961
 20
222.7363765380163
 30
0.0
 42
-0.0124129397477198
  0
VERTEX
  5
35D
  8
DEFPOINTS
 10
370.0981786841166
 20
223.9626528159926
 30
0.0
 42
-0.4142140136574139
  0
VERTEX
  5
35E
  8
DEFPOINTS
 10
395.6065659794044
 20
248.2525204099446
 30
0.0
  0
VERTEX
  5
35F
  8
DEFPOINTS
 10
395.6065656222434
 20
248.2525206808008
 30
0.0
 42
-0.4142140420970273
  0
VERTEX
  5
360
  8
DEFPOINTS
 10
419.8964323854105
 20
222.7441226135768
 30
0.0
  0
VERTEX
  5
361
  8
DEFPOINTS
 10
419.9029338925294
 20
180.9726082397215
 30
0.0
  0
VERTEX
  5
362
  8
DEFPOINTS
 10
419.9100045050449
 20
135.5445504664425
 30
0.0
  0
VERTEX
  5
363
  8
DEFPOINTS
 10
396.7097637422942
 20
135.5409394342557
 30
0.0
 42
0.9995768313170197
  0
VERTEX
  5
364
  8
DEFPOINTS
 10
396.7115061366969
 20
132.5309829690963
 30
0.0
  0
VERTEX
  5
365
  8
DEFPOINTS
 10
419.9104727206156
 20
132.5345937847557
 30
0.0
  0
VERTEX
  5
366
  8
DEFPOINTS
 10
419.9157786063502
 20
98.44738545156883
 30
0.0
  0
VERTEX
  5
367
  8
DEFPOINTS
 10
419.9239339177039
 20
46.04849328421278
 30
0.0
 42
-0.4142140429906567
  0
VERTEX
  5
368
  8
DEFPOINTS
 10
394.4043933669203
 20
21.74747381581381
 30
0.0
 42
-0.4142140505261483
  0
VERTEX
  5
369
  8
DEFPOINTS
 10
370.1033775425374
 20
47.26701913316833
 30
0.0
  0
VERTEX
  5
36A
  8
DEFPOINTS
 10
370.1019115825915
 20
56.68706592262194
 30
0.0
  0
SEQEND
  5
36B
  8
DEFPOINTS
  0
POLYLINE
  5
4B
  8
DEFPOINTS
 66
     1
 10
0.0
 20
0.0
 30
0.0
 70
     1
  0
VERTEX
  5
36C
  8
DEFPOINTS
 10
256.2772107670564
 20
171.121747619379
 30
0.0
 42
-0.4926799975113724
  0
VERTEX
  5
36D
  8
DEFPOINTS
 10
251.6642233397966
 20
176.8847940669009
 30
0.0
  0
VERTEX
  5
36E
  8
DEFPOINTS
 10
254.6440001835682
 20
192.9821579762379
 30
0.0
  0
VERTEX
  5
36F
  8
DEFPOINTS
 10
257.6239568774431
 20
209.0794762676232
 30
0.0
 42
-0.309879019931513
  0
VERTEX
  5
370
  8
DEFPOINTS
 10
268.1672881745748
 20
217.7733966074501
 30
0.0
 42
-0.0511875000283953
  0
VERTEX
  5
371
  8
DEFPOINTS
 10
269.7558277184828
 20
211.0706707788655
 30
0.0
  0
VERTEX
  5
372
  8
DEFPOINTS
 10
264.5531652461525
 20
201.2160946579158
 30
0.0
  0
VERTEX
  5
373
  8
DEFPOINTS
 10
261.0931908613876
 20
191.6696611055384
 30
0.0
  0
VERTEX
  5
374
  8
DEFPOINTS
 10
261.1449133414203
 20
191.827319603642
 30
0.0
 42
0.4384680575380494
  0
VERTEX
  5
375
  8
DEFPOINTS
 10
262.0535822966326
 20
189.8426530395447
 30
0.0
 42
0.4385663485421986
  0
VERTEX
  5
376
  8
DEFPOINTS
 10
263.9588405231804
 20
190.9164344832659
 30
0.0
  0
VERTEX
  5
377
  8
DEFPOINTS
 10
270.827065307359
 20
206.148142208117
 30
0.0
 42
-0.4485976212438931
  0
VERTEX
  5
378
  8
DEFPOINTS
 10
274.0009495698052
 20
205.1295516236184
 30
0.0
  0
VERTEX
  5
379
  8
DEFPOINTS
 10
276.4381301524348
 20
199.5936798866717
 30
0.0
  0
VERTEX
  5
37A
  8
DEFPOINTS
 10
316.3864204155627
 20
202.3788393995181
 30
0.0
  0
VERTEX
  5
37B
  8
DEFPOINTS
 10
326.2325921352722
 20
210.9391613577156
 30
0.0
 42
-0.5444843289757495
  0
VERTEX
  5
37C
  8
DEFPOINTS
 10
329.9045096971987
 20
210.2146257462205
 30
0.0
  0
VERTEX
  5
37D
  8
DEFPOINTS
 10
329.1497123090561
 20
208.0817166798704
 30
0.0
  0
VERTEX
  5
37E
  8
DEFPOINTS
 10
322.820016287602
 20
194.806700338327
 30
0.0
 42
0.4162994915922533
  0
VERTEX
  5
37F
  8
DEFPOINTS
 10
323.4573886914592
 20
192.7826160863563
 30
0.0
 42
0.4162914513817088
  0
VERTEX
  5
380
  8
DEFPOINTS
 10
325.4720054052909
 20
193.4249238412571
 30
0.0
  0
VERTEX
  5
381
  8
DEFPOINTS
 10
332.526841918096
 20
207.0825629249996
 30
0.0
  0
VERTEX
  5
382
  8
DEFPOINTS
 10
334.9262873088106
 20
213.8629238094547
 30
0.0
 42
-0.0799490022675827
  0
VERTEX
  5
383
  8
DEFPOINTS
 10
338.2633556835814
 20
217.0999210066367
 30
0.0
 42
-0.375803062245406
  0
VERTEX
  5
384
  8
DEFPOINTS
 10
341.0114602991425
 20
202.0077526154768
 30
0.0
 42
-0.0275270674620354
  0
VERTEX
  5
385
  8
DEFPOINTS
 10
340.1820200862921
 20
200.6339533239792
 30
0.0
 42
-0.0700959087797161
  0
VERTEX
  5
386
  8
DEFPOINTS
 10
336.5807422712488
 20
196.3385734684826
 30
0.0
  0
VERTEX
  5
387
  8
DEFPOINTS
 10
322.7184730064881
 20
177.8179833041021
 30
0.0
 42
-0.3791489457289146
  0
VERTEX
  5
388
  8
DEFPOINTS
 10
313.0797871384769
 20
174.2397849006392
 30
0.0
  0
VERTEX
  5
389
  8
DEFPOINTS
 10
316.6798256602951
 20
180.5698745968805
 30
0.0
  0
VERTEX
  5
38A
  8
DEFPOINTS
 10
311.3119556293063
 20
192.0007778825513
 30
0.0
  0
VERTEX
  5
38B
  8
DEFPOINTS
 10
275.2660639183847
 20
189.4876901499741
 30
0.0
  0
VERTEX
  5
38C
  8
DEFPOINTS
 10
258.7541296801146
 20
177.703743232511
 30
0.0
  0
SEQEND
  5
38D
  8
DEFPOINTS
  0
POLYLINE
  5
4C
  8
DEFPOINTS
 66
     1
 10
0.0
 20
0.0
 30
0.0
 70
     1
  0
VERTEX
  5
38E
  8
DEFPOINTS
 10
261.5180090185414
 20
27.8626156891448
 30
0.0
  0
VERTEX
  5
38F
  8
DEFPOINTS
 10
277.9004594714097
 20
27.8626156891448
 30
0.0
  0
VERTEX
  5
390
  8
DEFPOINTS
 10
277.9004594714096
 20
43.66457607770369
 30
0.0
 42
-1.0
  0
VERTEX
  5
391
  8
DEFPOINTS
 10
280.9104167104997
 20
43.66457607770369
 30
0.0
  0
VERTEX
  5
392
  8
DEFPOINTS
 10
280.9104167104998
 20
27.8626156891448
 30
0.0
  0
VERTEX
  5
393
  8
DEFPOINTS
 10
297.2928671633679
 20
27.8626156891448
 30
0.0
  0
VERTEX
  5
394
  8
DEFPOINTS
 10
297.3216533620794
 20
27.91687937720556
 30
0.0
  0
VERTEX
  5
395
  8
DEFPOINTS
 10
297.4048297733596
 20
28.07623100101281
 30
0.0
  0
VERTEX
  5
396
  8
DEFPOINTS
 10
297.5376231933037
 20
28.33551153673463
 30
0.0
  0
VERTEX
  5
397
  8
DEFPOINTS
 10
297.7152604180064
 20
28.68956196053884
 30
0.0
  0
VERTEX
  5
398
  8
DEFPOINTS
 10
297.9329682435628
 20
29.13322324859345
 30
0.0
  0
VERTEX
  5
399
  8
DEFPOINTS
 10
298.1859734660676
 20
29.66133637706636
 30
0.0
  0
VERTEX
  5
39A
  8
DEFPOINTS
 10
298.4695028816158
 20
30.26874232212569
 30
0.0
  0
VERTEX
  5
39B
  8
DEFPOINTS
 10
298.7787832863023
 20
30.95028205993921
 30
0.0
  0
VERTEX
  5
39C
  8
DEFPOINTS
 10
299.1090414762218
 20
31.70079656667494
 30
0.0
  0
VERTEX
  5
39D
  8
DEFPOINTS
 10
299.4555042474694
 20
32.51512681850087
 30
0.0
  0
VERTEX
  5
39E
  8
DEFPOINTS
 10
299.81339839614
 20
33.38811379158497
 30
0.0
  0
VERTEX
  5
39F
  8
DEFPOINTS
 10
300.1779507183285
 20
34.31459846209512
 30
0.0
  0
VERTEX
  5
3A0
  8
DEFPOINTS
 10
300.5443880101295
 20
35.28942180619933
 30
0.0
  0
VERTEX
  5
3A1
  8
DEFPOINTS
 10
300.9079370676382
 20
36.30742480006555
 30
0.0
  0
VERTEX
  5
3A2
  8
DEFPOINTS
 10
301.2638246869494
 20
37.36344841986167
 30
0.0
  0
VERTEX
  5
3A3
  8
DEFPOINTS
 10
301.607277664158
 20
38.45233364175576
 30
0.0
  0
VERTEX
  5
3A4
  8
DEFPOINTS
 10
301.9335227953588
 20
39.56892144191576
 30
0.0
  0
VERTEX
  5
3A5
  8
DEFPOINTS
 10
302.237786876647
 20
40.70805279650952
 30
0.0
  0
VERTEX
  5
3A6
  8
DEFPOINTS
 10
302.515296704117
 20
41.86456868170509
 30
0.0
  0
VERTEX
  5
3A7
  8
DEFPOINTS
 10
302.7612790738641
 20
43.03331007367044
 30
0.0
  0
VERTEX
  5
3A8
  8
DEFPOINTS
 10
302.9727020742404
 20
44.21212281286833
 30
0.0
  0
VERTEX
  5
3A9
  8
DEFPOINTS
 10
303.1501283656733
 20
45.39144860051724
 30
0.0
  0
VERTEX
  5
3AA
  8
DEFPOINTS
 10
303.2960617161021
 20
46.56469510501321
 30
0.0
  0
VERTEX
  5
3AB
  8
DEFPOINTS
 10
303.4130058934666
 20
47.72526999475255
 30
0.0
  0
VERTEX
  5
3AC
  8
DEFPOINTS
 10
303.5034646657061
 20
48.86658093813119
 30
0.0
  0
VERTEX
  5
3AD
  8
DEFPOINTS
 10
303.5699418007603
 20
49.98203560354537
 30
0.0
  0
VERTEX
  5
3AE
  8
DEFPOINTS
 10
303.6149410665683
 20
51.0650416593912
 30
0.0
  0
VERTEX
  5
3AF
  8
DEFPOINTS
 10
303.6409662310701
 20
52.1090067740648
 30
0.0
  0
VERTEX
  5
3B0
  8
DEFPOINTS
 10
303.6505210622049
 20
53.10733861596228
 30
0.0
  0
VERTEX
  5
3B1
  8
DEFPOINTS
 10
303.6461093279124
 20
54.05344485347976
 30
0.0
  0
VERTEX
  5
3B2
  8
DEFPOINTS
 10
303.6302347961321
 20
54.94073315501348
 30
0.0
  0
VERTEX
  5
3B3
  8
DEFPOINTS
 10
303.6054012348031
 20
55.76261118895943
 30
0.0
  0
VERTEX
  5
3B4
  8
DEFPOINTS
 10
303.5741124118656
 20
56.51248662371373
 30
0.0
  0
VERTEX
  5
3B5
  8
DEFPOINTS
 10
303.5388720952585
 20
57.18376712767267
 30
0.0
  0
VERTEX
  5
3B6
  8
DEFPOINTS
 10
303.5021840529216
 20
57.76986036923219
 30
0.0
  0
VERTEX
  5
3B7
  8
DEFPOINTS
 10
303.4665520527943
 20
58.26417401678859
 30
0.0
  0
VERTEX
  5
3B8
  8
DEFPOINTS
 10
303.4344798628163
 20
58.66011573873786
 30
0.0
  0
VERTEX
  5
3B9
  8
DEFPOINTS
 10
303.4084712509268
 20
58.95109320347618
 30
0.0
  0
VERTEX
  5
3BA
  8
DEFPOINTS
 10
303.3910299850656
 20
59.13051407939966
 30
0.0
  0
VERTEX
  5
3BB
  8
DEFPOINTS
 10
303.384659833172
 20
59.19178603490448
 30
0.0
  0
VERTEX
  5
3BC
  8
DEFPOINTS
 10
303.384659833172
 20
59.40970019239322
 30
0.0
  0
VERTEX
  5
3BD
  8
DEFPOINTS
 10
303.3846567720615
 20
59.44404825097033
 30
0.0
  0
VERTEX
  5
3BE
  8
DEFPOINTS
 10
303.3846353442882
 20
59.48182449454575
 30
0.0
  0
VERTEX
  5
3BF
  8
DEFPOINTS
 10
303.3845771831893
 20
59.52318839575551
 30
0.0
  0
VERTEX
  5
3C0
  8
DEFPOINTS
 10
303.3844639221022
 20
59.56829942723547
 30
0.0
  0
VERTEX
  5
3C1
  8
DEFPOINTS
 10
303.3842771943637
 20
59.61731706162172
 30
0.0
  0
VERTEX
  5
3C2
  8
DEFPOINTS
 10
303.3839986333113
 20
59.67040077155016
 30
0.0
  0
VERTEX
  5
3C3
  8
DEFPOINTS
 10
303.3836098722821
 20
59.72771002965678
 30
0.0
  0
VERTEX
  5
3C4
  8
DEFPOINTS
 10
303.3830925446134
 20
59.78940430857753
 30
0.0
  0
VERTEX
  5
3C5
  8
DEFPOINTS
 10
303.3824282836424
 20
59.85564308094851
 30
0.0
  0
VERTEX
  5
3C6
  8
DEFPOINTS
 10
303.381598722706
 20
59.92658581940557
 30
0.0
  0
VERTEX
  5
3C7
  8
DEFPOINTS
 10
303.3805854951419
 20
60.00239199658469
 30
0.0
  0
VERTEX
  5
3C8
  8
DEFPOINTS
 10
303.3793702342869
 20
60.08322108512195
 30
0.0
  0
VERTEX
  5
3C9
  8
DEFPOINTS
 10
303.3779345734785
 20
60.1692325576532
 30
0.0
  0
VERTEX
  5
3CA
  8
DEFPOINTS
 10
303.3762601460536
 20
60.26058588681448
 30
0.0
  0
VERTEX
  5
3CB
  8
DEFPOINTS
 10
303.3743285853496
 20
60.35744054524181
 30
0.0
  0
VERTEX
  5
3CC
  8
DEFPOINTS
 10
303.3721215247037
 20
60.45995600557112
 30
0.0
  0
VERTEX
  5
3CD
  8
DEFPOINTS
 10
303.3696205974531
 20
60.5682917404383
 30
0.0
  0
VERTEX
  5
3CE
  8
DEFPOINTS
 10
303.366807436935
 20
60.6826072224795
 30
0.0
  0
VERTEX
  5
3CF
  8
DEFPOINTS
 10
303.3636636764866
 20
60.80306192433059
 30
0.0
  0
VERTEX
  5
3D0
  8
DEFPOINTS
 10
303.3601709494451
 20
60.92981531862753
 30
0.0
  0
VERTEX
  5
3D1
  8
DEFPOINTS
 10
303.356260352122
 20
61.06294097349721
 30
0.0
  0
VERTEX
  5
3D2
  8
DEFPOINTS
 10
303.351660832727
 20
61.20216883902978
 30
0.0
  0
VERTEX
  5
3D3
  8
DEFPOINTS
 10
303.3460508024441
 20
61.34714296080628
 30
0.0
  0
VERTEX
  5
3D4
  8
DEFPOINTS
 10
303.3391086724571
 20
61.49750738440767
 30
0.0
  0
VERTEX
  5
3D5
  8
DEFPOINTS
 10
303.3305128539498
 20
61.65290615541514
 30
0.0
  0
VERTEX
  5
3D6
  8
DEFPOINTS
 10
303.3199417581066
 20
61.81298331940954
 30
0.0
  0
VERTEX
  5
3D7
  8
DEFPOINTS
 10
303.3070737961109
 20
61.97738292197201
 30
0.0
  0
VERTEX
  5
3D8
  8
DEFPOINTS
 10
303.291587379147
 20
62.14574900868357
 30
0.0
  0
VERTEX
  5
3D9
  8
DEFPOINTS
 10
303.2731609183988
 20
62.31772562512523
 30
0.0
  0
VERTEX
  5
3DA
  8
DEFPOINTS
 10
303.2514728250501
 20
62.49295681687803
 30
0.0
  0
VERTEX
  5
3DB
  8
DEFPOINTS
 10
303.226201510285
 20
62.67108662952299
 30
0.0
  0
VERTEX
  5
3DC
  8
DEFPOINTS
 10
303.1970253852874
 20
62.85175910864112
 30
0.0
  0
VERTEX
  5
3DD
  8
DEFPOINTS
 10
303.1636228612413
 20
63.0346182998135
 30
0.0
  0
VERTEX
  5
3DE
  8
DEFPOINTS
 10
303.1256723493304
 20
63.2193082486211
 30
0.0
  0
VERTEX
  5
3DF
  8
DEFPOINTS
 10
303.0828522607388
 20
63.40547300064506
 30
0.0
  0
VERTEX
  5
3E0
  8
DEFPOINTS
 10
303.0348410066506
 20
63.59275660146628
 30
0.0
  0
VERTEX
  5
3E1
  8
DEFPOINTS
 10
302.9813169982494
 20
63.78080309666589
 30
0.0
  0
VERTEX
  5
3E2
  8
DEFPOINTS
 10
302.9219586467195
 20
63.96925653182481
 30
0.0
  0
VERTEX
  5
3E3
  8
DEFPOINTS
 10
302.8564443632447
 20
64.15776095252423
 30
0.0
  0
VERTEX
  5
3E4
  8
DEFPOINTS
 10
302.784452559009
 20
64.34596040434505
 30
0.0
  0
VERTEX
  5
3E5
  8
DEFPOINTS
 10
302.7057814111723
 20
64.53352858925766
 30
0.0
  0
VERTEX
  5
3E6
  8
DEFPOINTS
 10
302.6207081607997
 20
64.7202578347902
 30
0.0
  0
VERTEX
  5
3E7
  8
DEFPOINTS
 10
302.5296298149324
 20
64.90597012485998
 30
0.0
  0
VERTEX
  5
3E8
  8
DEFPOINTS
 10
302.4329433806113
 20
65.09048744338438
 30
0.0
  0
VERTEX
  5
3E9
  8
DEFPOINTS
 10
302.3310458648775
 20
65.27363177428074
 30
0.0
  0
VERTEX
  5
3EA
  8
DEFPOINTS
 10
302.2243342747722
 20
65.45522510146654
 30
0.0
  0
VERTEX
  5
3EB
  8
DEFPOINTS
 10
302.1132056173365
 20
65.63508940885905
 30
0.0
  0
VERTEX
  5
3EC
  8
DEFPOINTS
 10
301.9980568996114
 20
65.81304668037578
 30
0.0
  0
VERTEX
  5
3ED
  8
DEFPOINTS
 10
301.879285128638
 20
65.98891889993402
 30
0.0
  0
VERTEX
  5
3EE
  8
DEFPOINTS
 10
301.7572873114575
 20
66.16252805145118
 30
0.0
  0
VERTEX
  5
3EF
  8
DEFPOINTS
 10
301.632460455111
 20
66.3336961188447
 30
0.0
  0
VERTEX
  5
3F0
  8
DEFPOINTS
 10
301.5052015666394
 20
66.50224508603182
 30
0.0
  0
VERTEX
  5
3F1
  8
DEFPOINTS
 10
301.3759076530839
 20
66.66799693693011
 30
0.0
  0
VERTEX
  5
3F2
  8
DEFPOINTS
 10
301.2449757214857
 20
66.83077365545685
 30
0.0
  0
VERTEX
  5
3F3
  8
DEFPOINTS
 10
301.1128027788859
 20
66.99039722552939
 30
0.0
  0
VERTEX
  5
3F4
  8
DEFPOINTS
 10
300.9797858323254
 20
67.14668963106519
 30
0.0
  0
VERTEX
  5
3F5
  8
DEFPOINTS
 10
300.8463218888454
 20
67.29947285598163
 30
0.0
  0
VERTEX
  5
3F6
  8
DEFPOINTS
 10
300.7128079554871
 20
67.44856888419602
 30
0.0
  0
VERTEX
  5
3F7
  8
DEFPOINTS
 10
300.5796410392913
 20
67.5937996996258
 30
0.0
  0
VERTEX
  5
3F8
  8
DEFPOINTS
 10
300.4472181472995
 20
67.73498728618844
 30
0.0
  0
VERTEX
  5
3F9
  8
DEFPOINTS
 10
300.3159018280841
 20
67.87198478282235
 30
0.0
  0
VERTEX
  5
3FA
  8
DEFPOINTS
 10
300.1859167963437
 20
68.00476994855129
 30
0.0
  0
VERTEX
  5
3FB
  8
DEFPOINTS
 10
300.0574533083086
 20
68.13335169741995
 30
0.0
  0
VERTEX
  5
3FC
  8
DEFPOINTS
 10
299.930701620209
 20
68.25773894347319
 30
0.0
  0
VERTEX
  5
3FD
  8
DEFPOINTS
 10
299.805851988275
 20
68.3779406007558
 30
0.0
  0
VERTEX
  5
3FE
  8
DEFPOINTS
 10
299.6830946687369
 20
68.49396558331259
 30
0.0
  0
VERTEX
  5
3FF
  8
DEFPOINTS
 10
299.5626199178248
 20
68.6058228051883
 30
0.0
  0
VERTEX
  5
400
  8
DEFPOINTS
 10
299.4446179917688
 20
68.71352118042782
 30
0.0
  0
VERTEX
  5
401
  8
DEFPOINTS
 10
299.3292791467993
 20
68.81706962307592
 30
0.0
  0
VERTEX
  5
402
  8
DEFPOINTS
 10
299.2167936391465
 20
68.91647704717738
 30
0.0
  0
VERTEX
  5
403
  8
DEFPOINTS
 10
299.1073517250404
 20
69.01175236677707
 30
0.0
  0
VERTEX
  5
404
  8
DEFPOINTS
 10
299.0011436607113
 20
69.10290449591972
 30
0.0
  0
VERTEX
  5
405
  8
DEFPOINTS
 10
298.8983597023893
 20
69.18994234865019
 30
0.0
  0
VERTEX
  5
406
  8
DEFPOINTS
 10
298.7991901063046
 20
69.27287483901321
 30
0.0
  0
VERTEX
  5
407
  8
DEFPOINTS
 10
298.7038251286876
 20
69.35171088105366
 30
0.0
  0
VERTEX
  5
408
  8
DEFPOINTS
 10
298.6124550257682
 20
69.42645938881631
 30
0.0
  0
VERTEX
  5
409
  8
DEFPOINTS
 10
298.5252700537768
 20
69.49712927634593
 30
0.0
  0
VERTEX
  5
40A
  8
DEFPOINTS
 10
298.4424604689434
 20
69.5637294576874
 30
0.0
  0
VERTEX
  5
40B
  8
DEFPOINTS
 10
298.3642165274985
 20
69.6262688468855
 30
0.0
  0
VERTEX
  5
40C
  8
DEFPOINTS
 10
298.290728485672
 20
69.68475635798498
 30
0.0
  0
VERTEX
  5
40D
  8
DEFPOINTS
 10
298.222122666155
 20
69.7392264295141
 30
0.0
  0
VERTEX
  5
40E
  8
DEFPOINTS
 10
298.158269657481
 20
69.78981559793507
 30
0.0
  0
VERTEX
  5
40F
  8
DEFPOINTS
 10
298.0989761146448
 20
69.83668592419323
 30
0.0
  0
VERTEX
  5
410
  8
DEFPOINTS
 10
298.0440486926409
 20
69.87999946923432
 30
0.0
  0
VERTEX
  5
411
  8
DEFPOINTS
 10
297.9932940464639
 20
69.91991829400374
 30
0.0
  0
VERTEX
  5
412
  8
DEFPOINTS
 10
297.9465188311081
 20
69.956604459447
 30
0.0
  0
VERTEX
  5
413
  8
DEFPOINTS
 10
297.9035297015682
 20
69.99022002650977
 30
0.0
  0
VERTEX
  5
414
  8
DEFPOINTS
 10
297.8641333128388
 20
70.02092705613754
 30
0.0
  0
VERTEX
  5
415
  8
DEFPOINTS
 10
297.8281363199144
 20
70.0488876092758
 30
0.0
  0
VERTEX
  5
416
  8
DEFPOINTS
 10
297.7953453777893
 20
70.07426374687012
 30
0.0
  0
VERTEX
  5
417
  8
DEFPOINTS
 10
297.7655671414584
 20
70.09721752986601
 30
0.0
  0
VERTEX
  5
418
  8
DEFPOINTS
 10
297.7386082659159
 20
70.11791101920906
 30
0.0
  0
VERTEX
  5
419
  8
DEFPOINTS
 10
297.7142754061565
 20
70.13650627584477
 30
0.0
  0
VERTEX
  5
41A
  8
DEFPOINTS
 10
297.6923752171748
 20
70.15316536071865
 30
0.0
  0
VERTEX
  5
41B
  8
DEFPOINTS
 10
297.6727143539651
 20
70.16805033477632
 30
0.0
  0
VERTEX
  5
41C
  8
DEFPOINTS
 10
297.6550994715224
 20
70.18132325896326
 30
0.0
  0
VERTEX
  5
41D
  8
DEFPOINTS
 10
297.6393372248406
 20
70.19314619422502
 30
0.0
  0
VERTEX
  5
41E
  8
DEFPOINTS
 10
297.6252342689147
 20
70.20368120150712
 30
0.0
  0
VERTEX
  5
41F
  8
DEFPOINTS
 10
297.612597258739
 20
70.21309034175513
 30
0.0
  0
VERTEX
  5
420
  8
DEFPOINTS
 10
297.5292824666848
 20
70.27498535211723
 30
0.0
  0
VERTEX
  5
421
  8
DEFPOINTS
 10
297.5292824666852
 20
48.58791943044221
 30
0.0
 42
-1.0
  0
VERTEX
  5
422
  8
DEFPOINTS
 10
294.5193252275952
 20
48.58791943044221
 30
0.0
  0
VERTEX
  5
423
  8
DEFPOINTS
 10
294.5193252275953
 20
72.15189996454839
 30
0.0
  0
VERTEX
  5
424
  8
DEFPOINTS
 10
293.7517224775013
 20
72.55112000587607
 30
0.0
  0
VERTEX
  5
425
  8
DEFPOINTS
 10
293.6309042682503
 20
72.61391615088039
 30
0.0
  0
VERTEX
  5
426
  8
DEFPOINTS
 10
293.4990473610812
 20
72.68221452747545
 30
0.0
  0
VERTEX
  5
427
  8
DEFPOINTS
 10
293.3566270993276
 20
72.7555290666323
 30
0.0
  0
VERTEX
  5
428
  8
DEFPOINTS
 10
293.2041188263224
 20
72.83337369932181
 30
0.0
  0
VERTEX
  5
429
  8
DEFPOINTS
 10
293.041997885399
 20
72.91526235651489
 30
0.0
  0
VERTEX
  5
42A
  8
DEFPOINTS
 10
292.8707396198911
 20
73.00070896918245
 30
0.0
  0
VERTEX
  5
42B
  8
DEFPOINTS
 10
292.6908193731317
 20
73.08922746829543
 30
0.0
  0
VERTEX
  5
42C
  8
DEFPOINTS
 10
292.5027124884541
 20
73.18033178482469
 30
0.0
  0
VERTEX
  5
42D
  8
DEFPOINTS
 10
292.3068943091919
 20
73.27353584974125
 30
0.0
  0
VERTEX
  5
42E
  8
DEFPOINTS
 10
292.1038401786782
 20
73.36835359401593
 30
0.0
  0
VERTEX
  5
42F
  8
DEFPOINTS
 10
291.8940254402463
 20
73.46429894861964
 30
0.0
  0
VERTEX
  5
430
  8
DEFPOINTS
 10
291.6779254372298
 20
73.56088584452337
 30
0.0
  0
VERTEX
  5
431
  8
DEFPOINTS
 10
291.4560155129617
 20
73.65762821269797
 30
0.0
  0
VERTEX
  5
432
  8
DEFPOINTS
 10
291.2287710107755
 20
73.75403998411443
 30
0.0
  0
VERTEX
  5
433
  8
DEFPOINTS
 10
290.9966672740046
 20
73.84963508974354
 30
0.0
  0
VERTEX
  5
434
  8
DEFPOINTS
 10
290.7601796459822
 20
73.94392746055635
 30
0.0
  0
VERTEX
  5
435
  8
DEFPOINTS
 10
290.5197834700418
 20
74.03643102752366
 30
0.0
  0
VERTEX
  5
436
  8
DEFPOINTS
 10
290.2759540895165
 20
74.1266597216165
 30
0.0
  0
VERTEX
  5
437
  8
DEFPOINTS
 10
290.0291668477398
 20
74.21412747380569
 30
0.0
  0
VERTEX
  5
438
  8
DEFPOINTS
 10
289.7798970880451
 20
74.29834821506219
 30
0.0
  0
VERTEX
  5
439
  8
DEFPOINTS
 10
289.5285642026627
 20
74.37892920335591
 30
0.0
  0
VERTEX
  5
43A
  8
DEFPOINTS
 10
289.2753637794117
 20
74.45585100465306
 30
0.0
  0
VERTEX
  5
43B
  8
DEFPOINTS
 10
289.0204354550085
 20
74.52918751191876
 30
0.0
  0
VERTEX
  5
43C
  8
DEFPOINTS
 10
288.7639188661695
 20
74.59901261811822
 30
0.0
  0
VERTEX
  5
43D
  8
DEFPOINTS
 10
288.505953649611
 20
74.66540021621668
 30
0.0
  0
VERTEX
  5
43E
  8
DEFPOINTS
 10
288.2466794420491
 20
74.72842419917922
 30
0.0
  0
VERTEX
  5
43F
  8
DEFPOINTS
 10
287.9862358802004
 20
74.78815845997107
 30
0.0
  0
VERTEX
  5
440
  8
DEFPOINTS
 10
287.7247626007809
 20
74.84467689155744
 30
0.0
  0
VERTEX
  5
441
  8
DEFPOINTS
 10
287.462399240507
 20
74.89805338690346
 30
0.0
  0
VERTEX
  5
442
  8
DEFPOINTS
 10
287.1992854360951
 20
74.94836183897436
 30
0.0
  0
VERTEX
  5
443
  8
DEFPOINTS
 10
286.9355608242615
 20
74.9956761407353
 30
0.0
  0
VERTEX
  5
444
  8
DEFPOINTS
 10
286.6713650417223
 20
75.04007018515145
 30
0.0
  0
VERTEX
  5
445
  8
DEFPOINTS
 10
286.4068377251941
 20
75.08161786518801
 30
0.0
  0
VERTEX
  5
446
  8
DEFPOINTS
 10
286.1421185113931
 20
75.12039307381016
 30
0.0
  0
VERTEX
  5
447
  8
DEFPOINTS
 10
285.8773470370354
 20
75.1564697039831
 30
0.0
  0
VERTEX
  5
448
  8
DEFPOINTS
 10
285.6126629388375
 20
75.18992164867197
 30
0.0
  0
VERTEX
  5
449
  8
DEFPOINTS
 10
285.3482058535158
 20
75.220822800842
 30
0.0
  0
VERTEX
  5
44A
  8
DEFPOINTS
 10
285.0841154177863
 20
75.24924705345839
 30
0.0
  0
VERTEX
  5
44B
  8
DEFPOINTS
 10
284.8205312683656
 20
75.27526829948621
 30
0.0
  0
VERTEX
  5
44C
  8
DEFPOINTS
 10
284.5575930419698
 20
75.29896043189078
 30
0.0
  0
VERTEX
  5
44D
  8
DEFPOINTS
 10
284.2955166866655
 20
75.32040382164845
 30
0.0
  0
VERTEX
  5
44E
  8
DEFPOINTS
 10
284.0348233959203
 20
75.33970475178094
 30
0.0
  0
VERTEX
  5
44F
  8
DEFPOINTS
 10
283.7761106745515
 20
75.35697598332112
 30
0.0
  0
VERTEX
  5
450
  8
DEFPOINTS
 10
283.5199760273772
 20
75.37233027730187
 30
0.0
  0
VERTEX
  5
451
  8
DEFPOINTS
 10
283.267016959215
 20
75.38588039475613
 30
0.0
  0
VERTEX
  5
452
  8
DEFPOINTS
 10
283.0178309748824
 20
75.39773909671678
 30
0.0
  0
VERTEX
  5
453
  8
DEFPOINTS
 10
282.7730155791971
 20
75.40801914421675
 30
0.0
  0
VERTEX
  5
454
  8
DEFPOINTS
 10
282.5331682769769
 20
75.41683329828894
 30
0.0
  0
VERTEX
  5
455
  8
DEFPOINTS
 10
282.2988865730395
 20
75.42429431996626
 30
0.0
  0
VERTEX
  5
456
  8
DEFPOINTS
 10
282.0707679722024
 20
75.43051497028156
 30
0.0
  0
VERTEX
  5
457
  8
DEFPOINTS
 10
281.8494099792833
 20
75.43560801026788
 30
0.0
  0
VERTEX
  5
458
  8
DEFPOINTS
 10
281.6354100991002
 20
75.439686200958
 30
0.0
  0
VERTEX
  5
459
  8
DEFPOINTS
 10
281.4293658364705
 20
75.44286230338489
 30
0.0
  0
VERTEX
  5
45A
  8
DEFPOINTS
 10
281.231874696212
 20
75.44524907858138
 30
0.0
  0
VERTEX
  5
45B
  8
DEFPOINTS
 10
281.0435341831424
 20
75.44695928758048
 30
0.0
  0
VERTEX
  5
45C
  8
DEFPOINTS
 10
280.8649418020791
 20
75.44810569141501
 30
0.0
  0
VERTEX
  5
45D
  8
DEFPOINTS
 10
280.6966950578401
 20
75.4488010511179
 30
0.0
  0
VERTEX
  5
45E
  8
DEFPOINTS
 10
280.5393914552428
 20
75.44915812772214
 30
0.0
  0
VERTEX
  5
45F
  8
DEFPOINTS
 10
280.3936284991053
 20
75.44928968226051
 30
0.0
  0
VERTEX
  5
460
  8
DEFPOINTS
 10
279.4109599545839
 20
75.449308475766
 30
0.0
  0
VERTEX
  5
461
  8
DEFPOINTS
 10
278.428298825359
 20
75.44928968254416
 30
0.0
  0
VERTEX
  5
462
  8
DEFPOINTS
 10
278.282536969499
 20
75.44915812999116
 30
0.0
  0
VERTEX
  5
463
  8
DEFPOINTS
 10
278.1252345548583
 20
75.44880105877596
 30
0.0
  0
VERTEX
  5
464
  8
DEFPOINTS
 10
277.9569890820421
 20
75.44810570956744
 30
0.0
  0
VERTEX
  5
465
  8
DEFPOINTS
 10
277.7783980516558
 20
75.4469593230344
 30
0.0
  0
VERTEX
  5
466
  8
DEFPOINTS
 10
277.5900589643047
 20
75.4452491398458
 30
0.0
  0
VERTEX
  5
467
  8
DEFPOINTS
 10
277.392569320594
 20
75.44286240067052
 30
0.0
  0
VERTEX
  5
468
  8
DEFPOINTS
 10
277.1865266211291
 20
75.43968634617741
 30
0.0
  0
VERTEX
  5
469
  8
DEFPOINTS
 10
276.9725283665151
 20
75.43560821703537
 30
0.0
  0
VERTEX
  5
46A
  8
DEFPOINTS
 10
276.7511720573575
 20
75.43051525391328
 30
0.0
  0
VERTEX
  5
46B
  8
DEFPOINTS
 10
276.5230551942614
 20
75.42429469748001
 30
0.0
  0
VERTEX
  5
46C
  8
DEFPOINTS
 10
276.2887752778321
 20
75.41683378840449
 30
0.0
  0
VERTEX
  5
46D
  8
DEFPOINTS
 10
276.048929808675
 20
75.40801976735557
 30
0.0
  0
VERTEX
  5
46E
  8
DEFPOINTS
 10
275.8041162873951
 20
75.39773987500209
 30
0.0
  0
VERTEX
  5
46F
  8
DEFPOINTS
 10
275.5549322145982
 20
75.38588135201306
 30
0.0
  0
VERTEX
  5
470
  8
DEFPOINTS
 10
275.3019750908891
 20
75.3723314390572
 30
0.0
  0
VERTEX
  5
471
  8
DEFPOINTS
 10
275.0458424168733
 20
75.35697737680354
 30
0.0
  0
VERTEX
  5
472
  8
DEFPOINTS
 10
274.787131693156
 20
75.33970640592091
 30
0.0
  0
VERTEX
  5
473
  8
DEFPOINTS
 10
274.5264404203426
 20
75.32040576707814
 30
0.0
  0
VERTEX
  5
474
  8
DEFPOINTS
 10
274.2643660990383
 20
75.2989627009442
 30
0.0
  0
VERTEX
  5
475
  8
DEFPOINTS
 10
274.0014299186732
 20
75.2752709261944
 30
0.0
  0
VERTEX
  5
476
  8
DEFPOINTS
 10
273.737847823978
 20
75.24925007352985
 30
0.0
  0
VERTEX
  5
477
  8
DEFPOINTS
 10
273.4737594485075
 20
75.22082625165817
 30
0.0
  0
VERTEX
  5
478
  8
DEFPOINTS
 10
273.209304425817
 20
75.18992556928694
 30
0.0
  0
VERTEX
  5
479
  8
DEFPOINTS
 10
272.9446223894618
 20
75.15647413512377
 30
0.0
  0
VERTEX
  5
47A
  8
DEFPOINTS
 10
272.6798529729971
 20
75.12039805787632
 30
0.0
  0
VERTEX
  5
47B
  8
DEFPOINTS
 10
272.415135809978
 20
75.08162344625211
 30
0.0
  0
VERTEX
  5
47C
  8
DEFPOINTS
 10
272.1506105339599
 20
75.04007640895881
 30
0.0
  0
VERTEX
  5
47D
  8
DEFPOINTS
 10
271.886416778498
 20
74.99568305470402
 30
0.0
  0
VERTEX
  5
47E
  8
DEFPOINTS
 10
271.6226941771474
 20
74.94836949219521
 30
0.0
  0
VERTEX
  5
47F
  8
DEFPOINTS
 10
271.3595823634632
 20
74.89806183014011
 30
0.0
  0
VERTEX
  5
480
  8
DEFPOINTS
 10
271.097220971001
 20
74.8446861772463
 30
0.0
  0
VERTEX
  5
481
  8
DEFPOINTS
 10
270.8357496333158
 20
74.7881686422214
 30
0.0
  0
VERTEX
  5
482
  8
DEFPOINTS
 10
270.5753079839628
 20
74.72843533377292
 30
0.0
  0
VERTEX
  5
483
  8
DEFPOINTS
 10
270.3160356564972
 20
74.66541236060854
 30
0.0
  0
VERTEX
  5
484
  8
DEFPOINTS
 10
270.0580722844743
 20
74.59902583143585
 30
0.0
  0
VERTEX
  5
485
  8
DEFPOINTS
 10
269.8015575014493
 20
74.52920185496245
 30
0.0
  0
VERTEX
  5
486
  8
DEFPOINTS
 10
269.5466309409774
 20
74.45586653989588
 30
0.0
  0
VERTEX
  5
487
  8
DEFPOINTS
 10
269.2934322366139
 20
74.37894599494379
 30
0.0
  0
VERTEX
  5
488
  8
DEFPOINTS
 10
269.0421010219138
 20
74.29836632881378
 30
0.0
  0
VERTEX
  5
489
  8
DEFPOINTS
 10
268.7928328820187
 20
74.21414697552527
 30
0.0
  0
VERTEX
  5
48A
  8
DEFPOINTS
 10
268.5460472084142
 20
74.12668067034454
 30
0.0
  0
VERTEX
  5
48B
  8
DEFPOINTS
 10
268.3022193441725
 20
74.03645347384978
 30
0.0
  0
VERTEX
  5
48C
  8
DEFPOINTS
 10
268.0618246323654
 20
73.94395144661914
 30
0.0
  0
VERTEX
  5
48D
  8
DEFPOINTS
 10
267.8253384160649
 20
73.8496606492308
 30
0.0
  0
VERTEX
  5
48E
  8
DEFPOINTS
 10
267.5932360383431
 20
73.75406714226287
 30
0.0
  0
VERTEX
  5
48F
  8
DEFPOINTS
 10
267.3659928422719
 20
73.65765698629346
 30
0.0
  0
VERTEX
  5
490
  8
DEFPOINTS
 10
267.1440841709231
 20
73.5609162419008
 30
0.0
  0
VERTEX
  5
491
  8
DEFPOINTS
 10
266.9279853673688
 20
73.46433096966305
 30
0.0
  0
VERTEX
  5
492
  8
DEFPOINTS
 10
266.718171774681
 20
73.36838723015828
 30
0.0
  0
VERTEX
  5
493
  8
DEFPOINTS
 10
266.5151187359318
 20
73.2735710839647
 30
0.0
  0
VERTEX
  5
494
  8
DEFPOINTS
 10
266.3193015941928
 20
73.18036859166037
 30
0.0
  0
VERTEX
  5
495
  8
DEFPOINTS
 10
266.1311956925363
 20
73.08926581382352
 30
0.0
  0
VERTEX
  5
496
  8
DEFPOINTS
 10
265.951276374034
 20
73.00074881103231
 30
0.0
  0
VERTEX
  5
497
  8
DEFPOINTS
 10
265.7800189817581
 20
72.91530364386486
 30
0.0
  0
VERTEX
  5
498
  8
DEFPOINTS
 10
265.6178988587803
 20
72.83341637289928
 30
0.0
  0
VERTEX
  5
499
  8
DEFPOINTS
 10
265.4653913481729
 20
72.7555730587138
 30
0.0
  0
VERTEX
  5
49A
  8
DEFPOINTS
 10
265.3229717930078
 20
72.68225976188646
 30
0.0
  0
VERTEX
  5
49B
  8
DEFPOINTS
 10
265.1911155363568
 20
72.6139625429955
 30
0.0
  0
VERTEX
  5
49C
  8
DEFPOINTS
 10
265.070297921292
 20
72.55116746261908
 30
0.0
  0
VERTEX
  5
49D
  8
DEFPOINTS
 10
264.3026989440843
 20
72.15195418977586
 30
0.0
  0
VERTEX
  5
49E
  8
DEFPOINTS
 10
264.3026989440843
 20
48.58791943044221
 30
0.0
 42
-1.0
  0
VERTEX
  5
49F
  8
DEFPOINTS
 10
261.2927417049979
 20
48.58791943044221
 30
0.0
  0
VERTEX
  5
4A0
  8
DEFPOINTS
 10
261.2927417049982
 20
70.27506280496036
 30
0.0
  0
VERTEX
  5
4A1
  8
DEFPOINTS
 10
261.2094198589324
 20
70.21316335343815
 30
0.0
  0
VERTEX
  5
4A2
  8
DEFPOINTS
 10
261.1967818022957
 20
70.2037535552063
 30
0.0
  0
VERTEX
  5
4A3
  8
DEFPOINTS
 10
261.1826777168675
 20
70.19321783916544
 30
0.0
  0
VERTEX
  5
4A4
  8
DEFPOINTS
 10
261.1669142618327
 20
70.18139414776257
 30
0.0
  0
VERTEX
  5
4A5
  8
DEFPOINTS
 10
261.1492980963764
 20
70.16812042344472
 30
0.0
  0
VERTEX
  5
4A6
  8
DEFPOINTS
 10
261.129635879683
 20
70.15323460865895
 30
0.0
  0
VERTEX
  5
4A7
  8
DEFPOINTS
 10
261.1077342709376
 20
70.13657464585239
 30
0.0
  0
VERTEX
  5
4A8
  8
DEFPOINTS
 10
261.0833999293251
 20
70.11797847747195
 30
0.0
  0
VERTEX
  5
4A9
  8
DEFPOINTS
 10
261.0564395140302
 20
70.09728404596487
 30
0.0
  0
VERTEX
  5
4AA
  8
DEFPOINTS
 10
261.0266596842379
 20
70.07432929377805
 30
0.0
  0
VERTEX
  5
4AB
  8
DEFPOINTS
 10
260.9938670991329
 20
70.04895216335868
 30
0.0
  0
VERTEX
  5
4AC
  8
DEFPOINTS
 10
260.9578684179002
 20
70.02099059715371
 30
0.0
  0
VERTEX
  5
4AD
  8
DEFPOINTS
 10
260.9184702997244
 20
69.99028253761028
 30
0.0
  0
VERTEX
  5
4AE
  8
DEFPOINTS
 10
260.8754794037905
 20
69.95666592717535
 30
0.0
  0
VERTEX
  5
4AF
  8
DEFPOINTS
 10
260.8287023892832
 20
69.9199787082961
 30
0.0
  0
VERTEX
  5
4B0
  8
DEFPOINTS
 10
260.7779459153877
 20
69.88005882341949
 30
0.0
  0
VERTEX
  5
4B1
  8
DEFPOINTS
 10
260.7230166412885
 20
69.83674421499265
 30
0.0
  0
VERTEX
  5
4B2
  8
DEFPOINTS
 10
260.6637212261705
 20
69.78987282546254
 30
0.0
  0
VERTEX
  5
4B3
  8
DEFPOINTS
 10
260.5998663292187
 20
69.73928259727629
 30
0.0
  0
VERTEX
  5
4B4
  8
DEFPOINTS
 10
260.5312586096178
 20
69.68481147288102
 30
0.0
  0
VERTEX
  5
4B5
  8
DEFPOINTS
 10
260.4577686596973
 20
69.62632291820975
 30
0.0
  0
VERTEX
  5
4B6
  8
DEFPOINTS
 10
260.3795228043657
 20
69.56378249314034
 30
0.0
  0
VERTEX
  5
4B7
  8
DEFPOINTS
 10
260.2967113016757
 20
69.49718128103663
 30
0.0
  0
VERTEX
  5
4B8
  8
DEFPOINTS
 10
260.2095244096804
 20
69.42651036526237
 30
0.0
  0
VERTEX
  5
4B9
  8
DEFPOINTS
 10
260.1181523864328
 20
69.35176082918153
 30
0.0
  0
VERTEX
  5
4BA
  8
DEFPOINTS
 10
260.0227854899857
 20
69.27292375615795
 30
0.0
  0
VERTEX
  5
4BB
  8
DEFPOINTS
 10
259.9236139783923
 20
69.18999022955543
 30
0.0
  0
VERTEX
  5
4BC
  8
DEFPOINTS
 10
259.8208281097053
 20
69.10295133273783
 30
0.0
  0
VERTEX
  5
4BD
  8
DEFPOINTS
 10
259.7146181419779
 20
69.01179814906905
 30
0.0
  0
VERTEX
  5
4BE
  8
DEFPOINTS
 10
259.6051743332629
 20
68.91652176191289
 30
0.0
  0
VERTEX
  5
4BF
  8
DEFPOINTS
 10
259.4926869416134
 20
68.8171132546332
 30
0.0
  0
VERTEX
  5
4C0
  8
DEFPOINTS
 10
259.3773462250823
 20
68.71356371059395
 30
0.0
  0
VERTEX
  5
4C1
  8
DEFPOINTS
 10
259.2593424417224
 20
68.60586421315881
 30
0.0
  0
VERTEX
  5
4C2
  8
DEFPOINTS
 10
259.138865849587
 20
68.49400584569182
 30
0.0
  0
VERTEX
  5
4C3
  8
DEFPOINTS
 10
259.0161067067288
 20
68.37797969155665
 30
0.0
  0
VERTEX
  5
4C4
  8
DEFPOINTS
 10
258.8912552712009
 20
68.25777683411727
 30
0.0
  0
VERTEX
  5
4C5
  8
DEFPOINTS
 10
258.7645018010562
 20
68.13338835673753
 30
0.0
  0
VERTEX
  5
4C6
  8
DEFPOINTS
 10
258.6360365543477
 20
68.00480534278128
 30
0.0
  0
VERTEX
  5
4C7
  8
DEFPOINTS
 10
258.5060497891283
 20
67.87201887561227
 30
0.0
  0
VERTEX
  5
4C8
  8
DEFPOINTS
 10
258.374731763451
 20
67.73502003859451
 30
0.0
  0
VERTEX
  5
4C9
  8
DEFPOINTS
 10
258.2423071938782
 20
67.59383107163106
 30
0.0
  0
VERTEX
  5
4CA
  8
DEFPOINTS
 10
258.1091386310094
 20
67.44859884078218
 30
0.0
  0
VERTEX
  5
4CB
  8
DEFPOINTS
 10
257.9756230839536
 20
67.29950136864741
 30
0.0
  0
VERTEX
  5
4CC
  8
DEFPOINTS
 10
257.8421575618198
 20
67.14671667782633
 30
0.0
  0
VERTEX
  5
4CD
  8
DEFPOINTS
 10
257.7091390737169
 20
66.99042279091847
 30
0.0
  0
VERTEX
  5
4CE
  8
DEFPOINTS
 10
257.5769646287539
 20
66.83079773052336
 30
0.0
  0
VERTEX
  5
4CF
  8
DEFPOINTS
 10
257.4460312360396
 20
66.66801951924063
 30
0.0
  0
VERTEX
  5
4D0
  8
DEFPOINTS
 10
257.3167359046832
 20
66.5022661796697
 30
0.0
  0
VERTEX
  5
4D1
  8
DEFPOINTS
 10
257.1894756437937
 20
66.33371573441028
 30
0.0
  0
VERTEX
  5
4D2
  8
DEFPOINTS
 10
257.0646474624799
 20
66.16254620606176
 30
0.0
  0
VERTEX
  5
4D3
  8
DEFPOINTS
 10
256.9426483698506
 20
65.98893561722375
 30
0.0
  0
VERTEX
  5
4D4
  8
DEFPOINTS
 10
256.8238753750152
 20
65.81306199049587
 30
0.0
  0
VERTEX
  5
4D5
  8
DEFPOINTS
 10
256.7087254870822
 20
65.63510334847754
 30
0.0
  0
VERTEX
  5
4D6
  8
DEFPOINTS
 10
256.597595715161
 20
65.45523771376841
 30
0.0
  0
VERTEX
  5
4D7
  8
DEFPOINTS
 10
256.4908830683603
 20
65.273643108968
 30
0.0
  0
VERTEX
  5
4D8
  8
DEFPOINTS
 10
256.3889845557891
 20
65.09049755667579
 30
0.0
  0
VERTEX
  5
4D9
  8
DEFPOINTS
 10
256.2922971865563
 20
64.90597907949146
 30
0.0
  0
VERTEX
  5
4DA
  8
DEFPOINTS
 10
256.2012179697709
 20
64.72026570001444
 30
0.0
  0
VERTEX
  5
4DB
  8
DEFPOINTS
 10
256.116143914542
 20
64.53353544084436
 30
0.0
  0
VERTEX
  5
4DC
  8
DEFPOINTS
 10
256.0374720299784
 20
64.34596632458076
 30
0.0
  0
VERTEX
  5
4DD
  8
DEFPOINTS
 10
255.9654795582833
 20
64.1577660283863
 30
0.0
  0
VERTEX
  5
4DE
  8
DEFPOINTS
 10
255.8999646740366
 20
63.96926084767668
 30
0.0
  0
VERTEX
  5
4DF
  8
DEFPOINTS
 10
255.8406057849123
 20
63.78080673243065
 30
0.0
  0
VERTEX
  5
4E0
  8
DEFPOINTS
 10
255.7870812985847
 20
63.59275963262698
 30
0.0
  0
VERTEX
  5
4E1
  8
DEFPOINTS
 10
255.7390696227277
 20
63.4054754982445
 30
0.0
  0
VERTEX
  5
4E2
  8
DEFPOINTS
 10
255.6962491650154
 20
63.21931027926198
 30
0.0
  0
VERTEX
  5
4E3
  8
DEFPOINTS
 10
255.6582983331219
 20
63.03461992565823
 30
0.0
  0
VERTEX
  5
4E4
  8
DEFPOINTS
 10
255.6248955347213
 20
62.85176038741204
 30
0.0
  0
VERTEX
  5
4E5
  8
DEFPOINTS
 10
255.5957191774876
 20
62.67108761450217
 30
0.0
  0
VERTEX
  5
4E6
  8
DEFPOINTS
 10
255.570447669095
 20
62.4929575569075
 30
0.0
  0
VERTEX
  5
4E7
  8
DEFPOINTS
 10
255.5487594172174
 20
62.31772616460668
 30
0.0
  0
VERTEX
  5
4E8
  8
DEFPOINTS
 10
255.530332829529
 20
62.14574938757866
 30
0.0
  0
VERTEX
  5
4E9
  8
DEFPOINTS
 10
255.514846313704
 20
61.97738317580215
 30
0.0
  0
VERTEX
  5
4EA
  8
DEFPOINTS
 10
255.5019782774162
 20
61.81298347925591
 30
0.0
  0
VERTEX
  5
4EB
  8
DEFPOINTS
 10
255.4914071283399
 20
61.65290624791882
 30
0.0
  0
VERTEX
  5
4EC
  8
DEFPOINTS
 10
255.4828112741492
 20
61.49750743176955
 30
0.0
  0
VERTEX
  5
4ED
  8
DEFPOINTS
 10
255.4758691225179
 20
61.34714298078703
 30
0.0
  0
VERTEX
  5
4EE
  8
DEFPOINTS
 10
255.4702590811204
 20
61.20216884495002
 30
0.0
  0
VERTEX
  5
4EF
  8
DEFPOINTS
 10
255.4656595576306
 20
61.06294097423725
 30
0.0
  0
VERTEX
  5
4F0
  8
DEFPOINTS
 10
255.4617489597225
 20
60.92981531862753
 30
0.0
  0
VERTEX
  5
4F1
  8
DEFPOINTS
 10
255.458256232681
 20
60.80306192433059
 30
0.0
  0
VERTEX
  5
4F2
  8
DEFPOINTS
 10
255.4551124722326
 20
60.6826072224795
 30
0.0
  0
VERTEX
  5
4F3
  8
DEFPOINTS
 10
255.4522993117145
 20
60.5682917404383
 30
0.0
  0
VERTEX
  5
4F4
  8
DEFPOINTS
 10
255.4497983844639
 20
60.45995600557112
 30
0.0
  0
VERTEX
  5
4F5
  8
DEFPOINTS
 10
255.447591323818
 20
60.35744054524181
 30
0.0
  0
VERTEX
  5
4F6
  8
DEFPOINTS
 10
255.445659763114
 20
60.26058588681448
 30
0.0
  0
VERTEX
  5
4F7
  8
DEFPOINTS
 10
255.4439853356891
 20
60.1692325576532
 30
0.0
  0
VERTEX
  5
4F8
  8
DEFPOINTS
 10
255.4425496748808
 20
60.08322108512195
 30
0.0
  0
VERTEX
  5
4F9
  8
DEFPOINTS
 10
255.4413344140257
 20
60.00239199658469
 30
0.0
  0
VERTEX
  5
4FA
  8
DEFPOINTS
 10
255.4403211864616
 20
59.92658581940557
 30
0.0
  0
VERTEX
  5
4FB
  8
DEFPOINTS
 10
255.4394916255252
 20
59.85564308094851
 30
0.0
  0
VERTEX
  5
4FC
  8
DEFPOINTS
 10
255.4388273645542
 20
59.78940430857753
 30
0.0
  0
VERTEX
  5
4FD
  8
DEFPOINTS
 10
255.4383100368855
 20
59.72771002965678
 30
0.0
  0
VERTEX
  5
4FE
  8
DEFPOINTS
 10
255.4379212758563
 20
59.67040077155016
 30
0.0
  0
VERTEX
  5
4FF
  8
DEFPOINTS
 10
255.4376427148039
 20
59.61731706162172
 30
0.0
  0
VERTEX
  5
500
  8
DEFPOINTS
 10
255.4374559870654
 20
59.56829942723547
 30
0.0
  0
VERTEX
  5
501
  8
DEFPOINTS
 10
255.4373427259783
 20
59.52318839575551
 30
0.0
  0
VERTEX
  5
502
  8
DEFPOINTS
 10
255.4372845648794
 20
59.48182449454575
 30
0.0
  0
VERTEX
  5
503
  8
DEFPOINTS
 10
255.4372631371061
 20
59.44404825097033
 30
0.0
  0
VERTEX
  5
504
  8
DEFPOINTS
 10
255.4372600759956
 20
59.40970019239322
 30
0.0
  0
VERTEX
  5
505
  8
DEFPOINTS
 10
255.4317382123664
 20
59.19178603490448
 30
0.0
  0
VERTEX
  5
506
  8
DEFPOINTS
 10
255.4198461968437
 20
59.13051407939966
 30
0.0
  0
VERTEX
  5
507
  8
DEFPOINTS
 10
255.4024049309825
 20
58.95109320347618
 30
0.0
  0
VERTEX
  5
508
  8
DEFPOINTS
 10
255.376396319093
 20
58.66011573873786
 30
0.0
  0
VERTEX
  5
509
  8
DEFPOINTS
 10
255.3443241291149
 20
58.26417401678853
 30
0.0
  0
VERTEX
  5
50A
  8
DEFPOINTS
 10
255.3086921289877
 20
57.76986036923219
 30
0.0
  0
VERTEX
  5
50B
  8
DEFPOINTS
 10
255.2720040866508
 20
57.18376712767267
 30
0.0
  0
VERTEX
  5
50C
  8
DEFPOINTS
 10
255.2367637700437
 20
56.51248662371373
 30
0.0
  0
VERTEX
  5
50D
  8
DEFPOINTS
 10
255.205474947106
 20
55.76261118895937
 30
0.0
  0
VERTEX
  5
50E
  8
DEFPOINTS
 10
255.1806413857772
 20
54.94073315501348
 30
0.0
  0
VERTEX
  5
50F
  8
DEFPOINTS
 10
255.1647668539969
 20
54.05344485347976
 30
0.0
  0
VERTEX
  5
510
  8
DEFPOINTS
 10
255.1603551197044
 20
53.10733861596228
 30
0.0
  0
VERTEX
  5
511
  8
DEFPOINTS
 10
255.1699099508392
 20
52.1090067740648
 30
0.0
  0
VERTEX
  5
512
  8
DEFPOINTS
 10
255.1959351153409
 20
51.0650416593912
 30
0.0
  0
VERTEX
  5
513
  8
DEFPOINTS
 10
255.2409343811491
 20
49.98203560354537
 30
0.0
  0
VERTEX
  5
514
  8
DEFPOINTS
 10
255.3074115162032
 20
48.86658093813119
 30
0.0
  0
VERTEX
  5
515
  8
DEFPOINTS
 10
255.3978702884427
 20
47.72526999475255
 30
0.0
  0
VERTEX
  5
516
  8
DEFPOINTS
 10
255.5148144658073
 20
46.56469510501321
 30
0.0
  0
VERTEX
  5
517
  8
DEFPOINTS
 10
255.660747816236
 20
45.39144860051724
 30
0.0
  0
VERTEX
  5
518
  8
DEFPOINTS
 10
255.8381741076689
 20
44.21212281286833
 30
0.0
  0
VERTEX
  5
519
  8
DEFPOINTS
 10
256.0495971080453
 20
43.03331007367044
 30
0.0
  0
VERTEX
  5
51A
  8
DEFPOINTS
 10
256.2955794777923
 20
41.86456868170509
 30
0.0
  0
VERTEX
  5
51B
  8
DEFPOINTS
 10
256.5730893052624
 20
40.70805279650952
 30
0.0
  0
VERTEX
  5
51C
  8
DEFPOINTS
 10
256.8773533865505
 20
39.56892144191576
 30
0.0
  0
VERTEX
  5
51D
  8
DEFPOINTS
 10
257.2035985177514
 20
38.45233364175576
 30
0.0
  0
VERTEX
  5
51E
  8
DEFPOINTS
 10
257.5470514949599
 20
37.36344841986167
 30
0.0
  0
VERTEX
  5
51F
  8
DEFPOINTS
 10
257.9029391142711
 20
36.30742480006555
 30
0.0
  0
VERTEX
  5
520
  8
DEFPOINTS
 10
258.2664881717798
 20
35.28942180619933
 30
0.0
  0
VERTEX
  5
521
  8
DEFPOINTS
 10
258.6329254635809
 20
34.31459846209512
 30
0.0
  0
VERTEX
  5
522
  8
DEFPOINTS
 10
258.9974777857693
 20
33.38811379158497
 30
0.0
  0
VERTEX
  5
523
  8
DEFPOINTS
 10
259.3553719344399
 20
32.51512681850087
 30
0.0
  0
VERTEX
  5
524
  8
DEFPOINTS
 10
259.7018347056875
 20
31.70079656667494
 30
0.0
  0
VERTEX
  5
525
  8
DEFPOINTS
 10
260.0320928956071
 20
30.95028205993921
 30
0.0
  0
VERTEX
  5
526
  8
DEFPOINTS
 10
260.3413733002936
 20
30.26874232212569
 30
0.0
  0
VERTEX
  5
527
  8
DEFPOINTS
 10
260.6249027158418
 20
29.66133637706636
 30
0.0
  0
VERTEX
  5
528
  8
DEFPOINTS
 10
260.8779079383465
 20
29.13322324859345
 30
0.0
  0
VERTEX
  5
529
  8
DEFPOINTS
 10
261.0956157639029
 20
28.68956196053884
 30
0.0
  0
VERTEX
  5
52A
  8
DEFPOINTS
 10
261.2732529886057
 20
28.33551153673463
 30
0.0
  0
VERTEX
  5
52B
  8
DEFPOINTS
 10
261.4060464085497
 20
28.07623100101281
 30
0.0
  0
VERTEX
  5
52C
  8
DEFPOINTS
 10
261.48922281983
 20
27.91687937720556
 30
0.0
  0
SEQEND
  5
52D
  8
DEFPOINTS
  0
POLYLINE
  5
4D
  8
DEFPOINTS
 66
     1
 10
0.0
 20
0.0
 30
0.0
 70
     1
  0
VERTEX
  5
52E
  8
DEFPOINTS
 10
168.0810071605153
 20
34.1640369772453
 30
0.0
  0
VERTEX
  5
52F
  8
DEFPOINTS
 10
186.7132893112557
 20
34.17343251001874
 30
0.0
  0
VERTEX
  5
530
  8
DEFPOINTS
 10
186.6899806393335
 20
53.78060403663569
 30
0.0
  0
VERTEX
  5
531
  8
DEFPOINTS
 10
189.6999367636239
 20
53.78353372834832
 30
0.0
  0
VERTEX
  5
532
  8
DEFPOINTS
 10
189.7232452476802
 20
34.17699252641729
 30
0.0
  0
VERTEX
  5
533
  8
DEFPOINTS
 10
224.6513593535087
 20
34.22036275298061
 30
0.0
  0
VERTEX
  5
534
  8
DEFPOINTS
 10
224.626871195615
 20
53.82752516406372
 30
0.0
  0
VERTEX
  5
535
  8
DEFPOINTS
 10
227.6365330979415
 20
53.83156257350983
 30
0.0
  0
VERTEX
  5
536
  8
DEFPOINTS
 10
227.6613143629992
 20
34.22439442348382
 30
0.0
  0
VERTEX
  5
537
  8
DEFPOINTS
 10
234.3783153884722
 20
34.23208096243305
 30
0.0
  0
VERTEX
  5
538
  8
DEFPOINTS
 10
234.3488225436434
 20
62.06125130819277
 30
0.0
  0
VERTEX
  5
539
  8
DEFPOINTS
 10
227.6378745794582
 20
62.06125130819277
 30
0.0
  0
VERTEX
  5
53A
  8
DEFPOINTS
 10
227.6378745794582
 20
75.02141946306409
 30
0.0
  0
VERTEX
  5
53B
  8
DEFPOINTS
 10
224.9541220821951
 20
75.02141946306409
 30
0.0
 42
0.3227786937268767
  0
VERTEX
  5
53C
  8
DEFPOINTS
 10
224.5746689808811
 20
74.74797120703937
 30
0.0
 42
-0.204755537759805
  0
VERTEX
  5
53D
  8
DEFPOINTS
 10
211.2598744954277
 20
59.74455102617089
 30
0.0
 42
-0.1816819196410182
  0
VERTEX
  5
53E
  8
DEFPOINTS
 10
198.7077496503912
 20
58.55879356797251
 30
0.0
 42
-0.212567990766029
  0
VERTEX
  5
53F
  8
DEFPOINTS
 10
190.1580544581405
 20
67.6225577710816
 30
0.0
  0
VERTEX
  5
540
  8
DEFPOINTS
 10
145.1747965598399
 20
67.6403901951752
 30
0.0
 42
0.5121344120281187
  0
VERTEX
  5
541
  8
DEFPOINTS
 10
138.3935110903692
 20
58.2449000039063
 30
0.0
 42
0.2924658550975751
  0
SEQEND
  5
542
  8
DEFPOINTS
  0
POLYLINE
  5
4E
  8
DEFPOINTS
 66
     1
 10
0.0
 20
0.0
 30
0.0
 70
     1
  0
VERTEX
  5
543
  8
DEFPOINTS
 10
30.09450853470548
 20
23.52031920362371
 30
0.0
 42
0.4697301549598546
  0
VERTEX
  5
544
  8
DEFPOINTS
 10
53.99152172031938
 20
26.57156821607428
 30
0.0
 42
0.0888956776219207
  0
VERTEX
  5
545
  8
DEFPOINTS
 10
64.90833730200939
 20
49.21147390001882
 30
0.0
 42
-0.3947461749001991
  0
VERTEX
  5
546
  8
DEFPOINTS
 10
67.51015472003496
 20
50.79202774778001
 30
0.0
  0
VERTEX
  5
547
  8
DEFPOINTS
 10
131.2343232754404
 20
37.21257563261038
 30
0.0
  0
VERTEX
  5
548
  8
DEFPOINTS
 10
131.2343232754404
 20
58.69154267900488
 30
0.0
  0
VERTEX
  5
549
  8
DEFPOINTS
 10
77.5727163163615
 20
58.69154267900488
 30
0.0
  0
VERTEX
  5
54A
  8
DEFPOINTS
 10
77.5727163163615
 20
61.74154267900489
 30
0.0
  0
VERTEX
  5
54B
  8
DEFPOINTS
 10
131.2343232754404
 20
61.74154267900484
 30
0.0
  0
VERTEX
  5
54C
  8
DEFPOINTS
 10
131.2343232754404
 20
83.22050972539935
 30
0.0
  0
VERTEX
  5
54D
  8
DEFPOINTS
 10
67.51015472003496
 20
69.64105761022975
 30
0.0
 42
-0.3947461749002056
  0
VERTEX
  5
54E
  8
DEFPOINTS
 10
64.90833730200939
 20
71.22161145799092
 30
0.0
 42
0.08889567762192
  0
VERTEX
  5
54F
  8
DEFPOINTS
 10
53.9915217203195
 20
93.86151714193537
 30
0.0
 42
0.4697301549598538
  0
VERTEX
  5
550
  8
DEFPOINTS
 10
30.09450853470548
 20
96.91276615438605
 30
0.0
 42
0.0769740071497515
  0
VERTEX
  5
551
  8
DEFPOINTS
 10
25.33244659701325
 20
91.17079157776058
 30
0.0
 42
0.084364002625015
  0
VERTEX
  5
552
  8
DEFPOINTS
 10
22.6740257134154
 20
84.62372646598729
 30
0.0
 42
0.1686468712205294
  0
VERTEX
  5
553
  8
DEFPOINTS
 10
23.29279559318127
 20
68.776271320262
 30
0.0
 42
0.0567135523043969
  0
VERTEX
  5
554
  8
DEFPOINTS
 10
24.70353212266639
 20
65.81250076039923
 30
0.0
 42
0.0549508875840427
  0
VERTEX
  5
555
  8
DEFPOINTS
 10
27.28511689109155
 20
62.47036106819733
 30
0.0
 42
-0.2198144066996965
  0
VERTEX
  5
556
  8
DEFPOINTS
 10
28.3518736688352
 20
60.21654267900486
 30
0.0
 42
-0.2198144066996965
  0
VERTEX
  5
557
  8
DEFPOINTS
 10
27.28511689109166
 20
57.96272428981244
 30
0.0
 42
0.0549508875840453
  0
VERTEX
  5
558
  8
DEFPOINTS
 10
24.70353212266639
 20
54.62058459761055
 30
0.0
 42
0.0567135523043887
  0
VERTEX
  5
559
  8
DEFPOINTS
 10
23.29279559318127
 20
51.65681403774776
 30
0.0
 42
0.1686468712205294
  0
VERTEX
  5
55A
  8
DEFPOINTS
 10
22.6740257134154
 20
35.80935889202247
 30
0.0
 42
0.0843640026250164
  0
VERTEX
  5
55B
  8
DEFPOINTS
 10
25.33244659701325
 20
29.26229378024918
 30
0.0
 42
0.0769740071497487
  0
SEQEND
  5
55C
  8
DEFPOINTS
  0
POLYLINE
  5
4F
  8
DEFPOINTS
 66
     1
 10
0.0
 20
0.0
 30
0.0
 70
     1
  0
VERTEX
  5
55D
  8
DEFPOINTS
 10
10.0
 20
20.0
 30
0.0
 42
0.4142135623730951
  0
VERTEX
  5
55E
  8
DEFPOINTS
 10
20.0
 20
10.0
 30
0.0
  0
VERTEX
  5
55F
  8
DEFPOINTS
 10
420.0
 20
10.0
 30
0.0
 42
0.4142135623730951
  0
VERTEX
  5
560
  8
DEFPOINTS
 10
430.0
 20
20.0
 30
0.0
  0
VERTEX
  5
561
  8
DEFPOINTS
 10
430.0
 20
280.0
 30
0.0
 42
0.4142135623730951
  0
VERTEX
  5
562
  8
DEFPOINTS
 10
420.0
 20
290.0
 30
0.0
  0
VERTEX
  5
563
  8
DEFPOINTS
 10
20.0
 20
290.0
 30
0.0
 42
0.4142135623730951
  0
VERTEX
  5
564
  8
DEFPOINTS
 10
10.0
 20
280.0
 30
0.0
  0
SEQEND
  5
565
  8
DEFPOINTS
  0
POLYLINE
  5
51
  8
LAYER1
 66
     1
 10
0.0
 20
0.0
 30
0.0
 70
     1
  0
VERTEX
  5
566
  8
LAYER1
 10
233.3250508625285
 20
157.5380446660657
 30
0.0
 42
0.4142140239517108
  0
VERTEX
  5
567
  8
LAYER1
 10
238.8990463535148
 20
151.9640494020408
 30
0.0
 42
0.4142139428908492
  0
VERTEX
  5
568
  8
LAYER1
 10
244.4730406369218
 20
157.5380443309863
 30
0.0
 42
0.4142139599453837
  0
VERTEX
  5
569
  8
LAYER1
 10
238.899045945453
 20
163.112039176437
 30
0.0
 42
0.4142139629077883
  0
SEQEND
  5
56A
  8
LAYER1
  0
POLYLINE
  5
52
  8
LAYER1
 66
     1
 10
0.0
 20
0.0
 30
0.0
 70
     1
  0
VERTEX
  5
56B
  8
LAYER1
 10
324.6278167918296
 20
70.66886972034531
 30
0.0
 42
0.675572384591292
  0
VERTEX
  5
56C
  8
LAYER1
 10
328.4882112123136
 20
80.26392502180683
 30
0.0
 42
0.1936226098562873
  0
VERTEX
  5
56D
  8
LAYER1
 10
324.6280662044262
 20
81.81667944288922
 30
0.0
 42
0.4142304479250269
  0
VERTEX
  5
56E
  8
LAYER1
 10
319.0538032030981
 20
76.24281974440972
 30
0.0
 42
0.414212597736153
  0
SEQEND
  5
56F
  8
LAYER1
  0
POLYLINE
  5
53
  8
LAYER1
 66
     1
 10
0.0
 20
0.0
 30
0.0
 70
     1
  0
VERTEX
  5
570
  8
LAYER1
 10
325.3681705468476
 20
38.18516498028886
 30
0.0
 42
0.675572384591292
  0
VERTEX
  5
571
  8
LAYER1
 10
329.2285649673314
 20
47.78022028175057
 30
0.0
 42
0.1936226098562873
  0
VERTEX
  5
572
  8
LAYER1
 10
325.3684199594444
 20
49.33297470283306
 30
0.0
 42
0.4142304479250269
  0
VERTEX
  5
573
  8
LAYER1
 10
319.7941569581162
 20
43.75911500435326
 30
0.0
 42
0.414212597736153
  0
SEQEND
  5
574
  8
LAYER1
  0
ENDSEC
  0
EOF
