  0
SECTION
  2
HEADER
  9
$ACADVER
  1
AC1009
  9
$DWGCODEPAGE
  3
ansi_1252
  9
$INSBASE
 10
0.0
 20
0.0
 30
0.0
  9
$EXTMIN
 10
55.83611677162943
 20
138.6388834354573
 30
0.0
  9
$EXTMAX
 10
162.9128377746512
 20
170.5791685244082
 30
0.0
  9
$LIMMIN
 10
0.0
 20
0.0
  9
$LIMMAX
 10
12.0
 20
9.0
  9
$ORTHOMODE
 70
     0
  9
$REGENMODE
 70
     1
  9
$FILLMODE
 70
     1
  9
$QTEXTMODE
 70
     0
  9
$MIRRTEXT
 70
     1
  9
$DRAGMODE
 70
     2
  9
$LTSCALE
 40
1.0
  9
$OSMODE
 70
    37
  9
$ATTMODE
 70
     1
  9
$TEXTSIZE
 40
0.2
  9
$TRACEWID
 40
0.05
  9
$TEXTSTYLE
  7
STANDARD
  9
$CLAYER
  8
0
  9
$CELTYPE
  6
BYBLOCK
  9
$CECOLOR
 62
   256
  9
$DIMSCALE
 40
1.0
  9
$DIMASZ
 40
0.18
  9
$DIMEXO
 40
0.0625
  9
$DIMDLI
 40
0.38
  9
$DIMRND
 40
0.0
  9
$DIMDLE
 40
0.0
  9
$DIMEXE
 40
0.18
  9
$DIMTP
 40
0.0
  9
$DIMTM
 40
0.0
  9
$DIMTXT
 40
0.18
  9
$DIMCEN
 40
0.09
  9
$DIMTSZ
 40
0.0
  9
$DIMTOL
 70
     0
  9
$DIMLIM
 70
     0
  9
$DIMTIH
 70
     1
  9
$DIMTOH
 70
     1
  9
$DIMSE1
 70
     0
  9
$DIMSE2
 70
     0
  9
$DIMTAD
 70
     0
  9
$DIMZIN
 70
     0
  9
$DIMBLK
  1

  9
$DIMASO
 70
     1
  9
$DIMSHO
 70
     1
  9
$DIMPOST
  1

  9
$DIMAPOST
  1

  9
$DIMALT
 70
     0
  9
$DIMALTD
 70
     2
  9
$DIMALTF
 40
25.4
  9
$DIMLFAC
 40
1.0
  9
$DIMTOFL
 70
     0
  9
$DIMTVP
 40
0.0
  9
$DIMTIX
 70
     0
  9
$DIMSOXD
 70
     0
  9
$DIMSAH
 70
     0
  9
$DIMBLK1
  1

  9
$DIMBLK2
  1

  9
$DIMSTYLE
  2
STANDARD
  9
$DIMCLRD
 70
     0
  9
$DIMCLRE
 70
     0
  9
$DIMCLRT
 70
     0
  9
$DIMTFAC
 40
1.0
  9
$DIMGAP
 40
0.09
  9
$LUNITS
 70
     2
  9
$LUPREC
 70
     4
  9
$SKETCHINC
 40
0.1
  9
$FILLETRAD
 40
0.5
  9
$AUNITS
 70
     0
  9
$AUPREC
 70
     0
  9
$MENU
  1
.
  9
$ELEVATION
 40
0.0
  9
$PELEVATION
 40
0.0
  9
$THICKNESS
 40
0.0
  9
$LIMCHECK
 70
     0
  9
$CHAMFERA
 40
0.5
  9
$CHAMFERB
 40
0.5
  9
$SKPOLY
 70
     0
  9
$TDCREATE
 40
2453353.508792488
  9
$TDUPDATE
 40
2440641.870437037
  9
$TDINDWG
 40
2440852.080755556
  9
$TDUSRTIMER
 40
2440852.080755556
  9
$USRTIMER
 70
     1
  9
$ANGBASE
 50
0.0
  9
$ANGDIR
 70
     0
  9
$PDMODE
 70
     0
  9
$PDSIZE
 40
0.0
  9
$PLINEWID
 40
0.0
  9
$COORDS
 70
     1
  9
$SPLFRAME
 70
     0
  9
$SPLINETYPE
 70
     6
  9
$SPLINESEGS
 70
     8
  9
$ATTDIA
 70
     0
  9
$ATTREQ
 70
     1
  9
$HANDLING
 70
     1
  9
$HANDSEED
  5
47C
  9
$SURFTAB1
 70
     6
  9
$SURFTAB2
 70
     6
  9
$SURFTYPE
 70
     6
  9
$SURFU
 70
     6
  9
$SURFV
 70
     6
  9
$UCSNAME
  2

  9
$UCSORG
 10
0.0
 20
0.0
 30
0.0
  9
$UCSXDIR
 10
1.0
 20
0.0
 30
0.0
  9
$UCSYDIR
 10
0.0
 20
1.0
 30
0.0
  9
$PUCSNAME
  2

  9
$PUCSORG
 10
0.0
 20
0.0
 30
0.0
  9
$PUCSXDIR
 10
1.0
 20
0.0
 30
0.0
  9
$PUCSYDIR
 10
0.0
 20
1.0
 30
0.0
  9
$USERI1
 70
     0
  9
$USERI2
 70
     0
  9
$USERI3
 70
     0
  9
$USERI4
 70
     0
  9
$USERI5
 70
     0
  9
$USERR1
 40
0.0
  9
$USERR2
 40
0.0
  9
$USERR3
 40
0.0
  9
$USERR4
 40
0.0
  9
$USERR5
 40
0.0
  9
$WORLDVIEW
 70
     1
  9
$SHADEDGE
 70
     3
  9
$SHADEDIF
 70
    70
  9
$TILEMODE
 70
     1
  9
$MAXACTVP
 70
    64
  9
$PLIMCHECK
 70
     0
  9
$PEXTMIN
 10
0.0
 20
0.0
 30
0.0
  9
$PEXTMAX
 10
0.0
 20
0.0
 30
0.0
  9
$PLIMMIN
 10
0.0
 20
0.0
  9
$PLIMMAX
 10
0.0
 20
0.0
  9
$UNITMODE
 70
     0
  9
$VISRETAIN
 70
     1
  9
$PLINEGEN
 70
     0
  9
$PSLTSCALE
 70
     1
  0
ENDSEC
  0
SECTION
  2
TABLES
  0
TABLE
  2
VPORT
 70
     1
  0
VPORT
  2
*ACTIVE
 70
     0
 10
0.0
 20
0.0
 11
1.0
 21
1.0
 12
108.520958228874
 22
153.5505054736859
 13
0.0
 23
0.0
 14
0.5
 24
0.5
 15
0.5
 25
0.5
 16
0.0
 26
0.0
 36
1.0
 17
0.0
 27
0.0
 37
0.0
 40
58.41330331577481
 41
1.972972972850329
 42
50.0
 43
0.0
 44
0.0
 50
0.0
 51
0.0
 71
    16
 72
   100
 73
     1
 74
     3
 75
     0
 76
     0
 77
     0
 78
     0
  0
ENDTAB
  0
TABLE
  2
LTYPE
 70
     1
  0
LTYPE
  2
CONTINUOUS
 70
     0
  3
Solid line
 72
    65
 73
     0
 40
0.0
  0
ENDTAB
  0
TABLE
  2
LAYER
 70
     2
  0
LAYER
  2
0
 70
     0
 62
     7
  6
CONTINUOUS
  0
LAYER
  2
LAYER_1
 70
     0
 62
     7
  6
CONTINUOUS
  0
ENDTAB
  0
TABLE
  2
STYLE
 70
     1
  0
STYLE
  2
STANDARD
 70
     0
 40
0.0
 41
1.0
 50
0.0
 71
     0
 42
0.2
  3
txt
  4

  0
ENDTAB
  0
TABLE
  2
VIEW
 70
     0
  0
ENDTAB
  0
TABLE
  2
UCS
 70
     0
  0
ENDTAB
  0
TABLE
  2
APPID
 70
     1
  0
APPID
  2
ACAD
 70
     0
  0
ENDTAB
  0
TABLE
  2
DIMSTYLE
 70
     1
  0
DIMSTYLE
  2
STANDARD
 70
     0
  3

  4

  5

  6

  7

 40
1.0
 41
0.18
 42
0.0625
 43
0.38
 44
0.18
 45
0.0
 46
0.0
 47
0.0
 48
0.0
140
0.18
141
0.09
142
0.0
143
25.4
144
1.0
145
0.0
146
1.0
147
0.09
 71
     0
 72
     0
 73
     1
 74
     1
 75
     0
 76
     0
 77
     0
 78
     0
170
     0
171
     2
172
     0
173
     0
174
     0
175
     0
176
     0
177
     0
178
     0
  0
ENDTAB
  0
ENDSEC
  0
SECTION
  2
BLOCKS
  0
BLOCK
  8
0
  2
$MODEL_SPACE
 70
     0
 10
0.0
 20
0.0
 30
0.0
  3
$MODEL_SPACE
  1

  0
ENDBLK
  5
21
  8
0
  0
BLOCK
 67
     1
  8
0
  2
$PAPER_SPACE
 70
     0
 10
0.0
 20
0.0
 30
0.0
  3
$PAPER_SPACE
  1

  0
ENDBLK
  5
76
 67
     1
  8
0
  0
ENDSEC
  0
SECTION
  2
ENTITIES
  0
LINE
  5
34
  8
LAYER_1
 62
     4
 10
128.2057314559524
 20
143.4531162783305
 30
0.0
 11
84.66569093067903
 21
143.5435467821376
 31
0.0
  0
LINE
  5
35
  8
LAYER_1
 62
     4
 10
84.66569093067903
 20
143.5435467821376
 30
0.0
 11
79.05994371259736
 21
146.0333409638448
 31
0.0
  0
LINE
  5
4C
  8
LAYER_1
 62
     4
 10
77.01111134981656
 20
151.8215685012367
 30
0.0
 11
84.89608346636923
 21
144.4651169248984
 31
0.0
  0
LINE
  5
53
  8
LAYER_1
 62
     4
 10
84.89608346636923
 20
144.4651169248984
 30
0.0
 11
127.9528135816332
 21
144.4066456660702
 31
0.0
  0
LINE
  5
83
  8
LAYER_1
 62
     4
 10
148.9334845209687
 20
144.162963791695
 30
0.0
 11
142.3982422647491
 21
144.9720890234174
 31
0.0
  0
LINE
  5
F4
  8
LAYER_1
 62
     2
 10
156.84739701288
 20
148.3289930289951
 30
0.0
 11
155.4058929411364
 21
149.002086285793
 31
0.0
  0
LINE
  5
F5
  8
LAYER_1
 62
     2
 10
155.4058929411364
 20
149.002086285793
 30
0.0
 11
153.560835
 21
149.521081
 31
0.0
  0
LINE
  5
F6
  8
LAYER_1
 62
     2
 10
153.560835
 20
149.521081
 30
0.0
 11
147.358709
 21
150.456031
 31
0.0
  0
LINE
  5
F7
  8
LAYER_1
 62
     2
 10
147.358709
 20
150.456031
 30
0.0
 11
139.218621
 21
151.420252
 31
0.0
  0
LINE
  5
F8
  8
LAYER_1
 62
     2
 10
139.218621
 20
151.420252
 30
0.0
 11
130.64873
 21
152.214037
 31
0.0
  0
LINE
  5
F9
  8
LAYER_1
 62
     2
 10
130.64873
 20
152.214037
 30
0.0
 11
122.746508
 21
152.90867
 31
0.0
  0
LINE
  5
FA
  8
LAYER_1
 62
     2
 10
122.746508
 20
152.90867
 30
0.0
 11
116.5185288854951
 21
153.4158050273734
 31
0.0
  0
LINE
  5
103
  8
LAYER_1
 62
     2
 10
116.5185288854951
 20
153.4158050273734
 30
0.0
 11
101.4687708350738
 21
154.2120885221047
 31
0.0
  0
LINE
  5
104
  8
LAYER_1
 62
     2
 10
101.4687708350738
 20
154.2120885221047
 30
0.0
 11
86.97348844208736
 21
154.5013858133368
 31
0.0
  0
LINE
  5
10B
  8
LAYER_1
 62
     2
 10
91.72676232989494
 20
155.3129203795479
 30
0.0
 11
101.795236
 21
155.045363
 31
0.0
  0
LINE
  5
10C
  8
LAYER_1
 62
     2
 10
101.795236
 20
155.045363
 30
0.0
 11
118.0564680384106
 21
154.1712371226264
 31
0.0
  0
LINE
  5
115
  8
LAYER_1
 62
     2
 10
118.0564680384106
 20
154.1712371226264
 30
0.0
 11
120.177674
 21
154.230588
 31
0.0
  0
LINE
  5
116
  8
LAYER_1
 62
     2
 10
120.177674
 20
154.230588
 30
0.0
 11
121.266196
 21
154.598078
 31
0.0
  0
LINE
  5
117
  8
LAYER_1
 62
     2
 10
121.266196
 20
154.598078
 30
0.0
 11
122.840842
 21
155.139713
 31
0.0
  0
LINE
  5
118
  8
LAYER_1
 62
     2
 10
122.840842
 20
155.139713
 30
0.0
 11
125.140137
 21
155.500806
 31
0.0
  0
LINE
  5
119
  8
LAYER_1
 62
     2
 10
125.140137
 20
155.500806
 30
0.0
 11
127.3346033433632
 21
155.6298774777384
 31
0.0
  0
LINE
  5
128
  8
LAYER_1
 62
     2
 10
121.2623156566814
 20
153.989557895045
 30
0.0
 11
123.7953665796602
 21
153.7801324250349
 31
0.0
  0
LINE
  5
129
  8
LAYER_1
 62
     2
 10
123.7953665796602
 20
153.7801324250349
 30
0.0
 11
125.796527
 21
153.654448
 31
0.0
  0
LINE
  5
12A
  8
LAYER_1
 62
     2
 10
125.796527
 20
153.654448
 30
0.0
 11
129.6570574530921
 21
153.4041922892481
 31
0.0
  0
LINE
  5
12E
  8
LAYER_1
 62
     2
 10
129.6570574530921
 20
153.4041922892481
 30
0.0
 11
131.636508
 21
153.228007
 31
0.0
  0
LINE
  5
12F
  8
LAYER_1
 62
     2
 10
131.636508
 20
153.228007
 30
0.0
 11
136.152063
 21
152.830153
 31
0.0
  0
LINE
  5
130
  8
LAYER_1
 62
     2
 10
136.152063
 20
152.830153
 30
0.0
 11
139.4307184982015
 21
152.5332719980998
 31
0.0
  0
LINE
  5
131
  8
LAYER_1
 62
     2
 10
139.4307184982015
 20
152.5332719980998
 30
0.0
 11
142.382170595982
 21
152.1945807737643
 31
0.0
  0
LINE
  5
134
  8
LAYER_1
 62
     2
 10
142.382170595982
 20
152.1945807737643
 30
0.0
 11
145.549696
 21
151.824756
 31
0.0
  0
LINE
  5
135
  8
LAYER_1
 62
     2
 10
145.549696
 20
151.824756
 30
0.0
 11
153.754037
 21
150.787787
 31
0.0
  0
LINE
  5
136
  8
LAYER_1
 62
     2
 10
153.754037
 20
150.787787
 30
0.0
 11
157.6693519902383
 21
150.1611553406509
 31
0.0
  0
LINE
  5
148
  8
LAYER_1
 62
     2
 10
63.65607143371159
 20
150.0735388088121
 30
0.0
 11
57.79571571566322
 21
150.9525921665194
 31
0.0
  0
LINE
  5
14D
  8
LAYER_1
 62
     2
 10
56.59496594798615
 20
150.6447078890123
 30
0.0
 11
59.39553839248121
 21
151.3562668654734
 31
0.0
  0
LINE
  5
150
  8
LAYER_1
 62
     4
 10
59.09786243917893
 20
153.2872915024055
 30
0.0
 11
59.349186
 21
151.624156
 31
0.0
  0
LINE
  5
151
  8
LAYER_1
 62
     4
 10
59.349186
 20
151.624156
 30
0.0
 11
59.417235
 21
151.204518
 31
0.0
  0
LINE
  5
152
  8
LAYER_1
 62
     4
 10
59.417235
 20
151.204518
 30
0.0
 11
59.699786
 21
150.962497
 31
0.0
  0
LINE
  5
153
  8
LAYER_1
 62
     4
 10
59.699786
 20
150.962497
 30
0.0
 11
61.71418
 21
150.694592
 31
0.0
  0
LINE
  5
154
  8
LAYER_1
 62
     4
 10
61.71418
 20
150.694592
 30
0.0
 11
64.1542016697457
 21
150.3079530375341
 31
0.0
  0
LINE
  5
155
  8
LAYER_1
 62
     4
 10
64.1542016697457
 20
150.3079530375341
 30
0.0
 11
65.12116036322368
 21
149.9563316944511
 31
0.0
  0
LINE
  5
157
  8
LAYER_1
 62
     2
 10
64.90139702379686
 20
149.6779647978438
 30
0.0
 11
64.136162
 21
149.998162
 31
0.0
  0
LINE
  5
158
  8
LAYER_1
 62
     2
 10
64.136162
 20
149.998162
 30
0.0
 11
63.65607143371159
 21
150.0735388088121
 31
0.0
  0
LINE
  5
159
  8
LAYER_1
 62
     2
 10
63.056508
 20
150.118424
 30
0.0
 11
63.056508
 21
150.118424
 31
0.0
  0
LINE
  5
174
  8
LAYER_1
 62
     4
 10
58.37645486287693
 20
154.4961464814927
 30
0.0
 11
58.18837685762235
 21
155.7421632663044
 31
0.0
  0
LINE
  5
175
  8
LAYER_1
 62
     4
 10
58.18837685762235
 20
155.7421632663044
 30
0.0
 11
57.790332
 21
156.960441
 31
0.0
  0
LINE
  5
176
  8
LAYER_1
 62
     4
 10
57.790332
 20
156.960441
 30
0.0
 11
57.336478
 21
157.904898
 31
0.0
  0
LINE
  5
177
  8
LAYER_1
 62
     4
 10
57.336478
 20
157.904898
 30
0.0
 11
57.004635
 21
158.533052
 31
0.0
  0
LINE
  5
178
  8
LAYER_1
 62
     4
 10
57.004635
 20
158.533052
 30
0.0
 11
56.986633
 21
158.988516
 31
0.0
  0
LINE
  5
179
  8
LAYER_1
 62
     4
 10
56.986633
 20
158.988516
 30
0.0
 11
57.12632747749028
 21
159.0712929986298
 31
0.0
  0
LINE
  5
185
  8
LAYER_1
 62
     4
 10
58.81114196849192
 20
152.7952052302018
 30
0.0
 11
58.647508
 21
152.783022
 31
0.0
  0
LINE
  5
186
  8
LAYER_1
 62
     4
 10
58.647508
 20
152.783022
 30
0.0
 11
58.345695
 21
152.864671
 31
0.0
  0
LINE
  5
187
  8
LAYER_1
 62
     4
 10
58.345695
 20
152.864671
 30
0.0
 11
58.37645486287693
 21
154.4961464814927
 31
0.0
  0
LINE
  5
1C3
  8
LAYER_1
 62
     2
 10
127.3346033433632
 20
155.6298774777384
 30
0.0
 11
144.202431
 21
155.28804
 31
0.0
  0
LINE
  5
1C4
  8
LAYER_1
 62
     2
 10
144.202431
 20
155.28804
 30
0.0
 11
154.569477
 21
155.009415
 31
0.0
  0
LINE
  5
1C5
  8
LAYER_1
 62
     2
 10
154.569477
 20
155.009415
 30
0.0
 11
159.7055765925977
 21
154.6749170952975
 31
0.0
  0
LINE
  5
1CD
  8
LAYER_1
 62
     2
 10
68.065952
 20
154.68787
 30
0.0
 11
61.778617
 21
154.818368
 31
0.0
  0
LINE
  5
1CE
  8
LAYER_1
 62
     2
 10
61.778617
 20
154.818368
 30
0.0
 11
59.46854649818651
 21
155.0200950689813
 31
0.0
  0
LINE
  5
1CF
  8
LAYER_1
 62
     2
 10
59.46854649818651
 20
155.0200950689813
 30
0.0
 11
59.50480743549611
 21
155.2065798894307
 31
0.0
  0
LINE
  5
1D0
  8
LAYER_1
 62
     2
 10
59.50480743549611
 20
155.2065798894307
 30
0.0
 11
60.046096
 21
155.261834
 31
0.0
  0
LINE
  5
1D1
  8
LAYER_1
 62
     2
 10
60.046096
 20
155.261834
 30
0.0
 11
62.560548
 21
155.386009
 31
0.0
  0
LINE
  5
1D2
  8
LAYER_1
 62
     2
 10
62.560548
 20
155.386009
 30
0.0
 11
91.72676232989494
 21
155.3129203795479
 31
0.0
  0
LINE
  5
1D9
  8
LAYER_1
 62
     2
 10
86.97348844208736
 20
154.5013858133368
 30
0.0
 11
68.065952
 21
154.68787
 31
0.0
  0
LINE
  5
1DA
  8
LAYER_1
 62
     2
 10
68.065952
 20
154.68787
 30
0.0
 11
68.065952
 21
154.68787
 31
0.0
  0
LINE
  5
1DC
  8
LAYER_1
 62
     2
 10
61.68058702033293
 20
156.8690909863857
 30
0.0
 11
61.98679911751068
 21
156.8690909863857
 31
0.0
  0
LINE
  5
1DE
  8
LAYER_1
 62
     2
 10
61.68058702033293
 20
156.8690909863857
 30
0.0
 11
61.68058702033293
 21
155.9693566761598
 31
0.0
  0
LINE
  5
1E1
  8
LAYER_1
 62
     2
 10
61.98679911751068
 20
155.9693566761598
 30
0.0
 11
61.68265627547037
 21
155.969882732238
 31
0.0
  0
LINE
  5
1E5
  8
LAYER_1
 62
     2
 10
61.98679911751068
 20
156.8690909863857
 30
0.0
 11
61.98545946252483
 21
155.9748804590466
 31
0.0
  0
LINE
  5
1F2
  8
LAYER_1
 62
     2
 10
156.84739701288
 20
148.3289930289951
 30
0.0
 11
161.5361563224864
 21
158.7278853621953
 31
0.0
  0
LINE
  5
1F8
  8
LAYER_1
 62
     2
 10
162.126990696925
 20
158.554110546184
 30
0.0
 11
159.6363042251549
 21
152.5532247507502
 31
0.0
  0
LINE
  5
1FE
  8
LAYER_1
 62
     2
 10
110.136824074277
 20
158.1088921394284
 30
0.0
 11
110.1304780092135
 21
158.6931760971834
 31
0.0
  0
LINE
  5
1FF
  8
LAYER_1
 62
     2
 10
110.1304780092135
 20
158.6931760971834
 30
0.0
 11
112.5502267465121
 21
158.691120989095
 31
0.0
  0
LINE
  5
206
  8
LAYER_1
 62
     4
 10
151.3305749460444
 20
158.5771534054705
 30
0.0
 11
132.6426282923543
 21
158.9069406993591
 31
0.0
  0
LINE
  5
210
  8
LAYER_1
 62
     4
 10
132.6426282923543
 20
158.9069406993591
 30
0.0
 11
122.3934042538169
 21
159.0428534960329
 31
0.0
  0
LINE
  5
213
  8
LAYER_1
 62
     4
 10
118.581782
 20
159.00721
 30
0.0
 11
115.878676
 21
159.255905
 31
0.0
  0
LINE
  5
214
  8
LAYER_1
 62
     4
 10
115.878676
 20
159.255905
 30
0.0
 11
111.457619
 21
159.457592
 31
0.0
  0
LINE
  5
215
  8
LAYER_1
 62
     4
 10
111.4194150041369
 20
159.4766939979316
 30
0.0
 11
93.9654015062327
 21
159.8454541044944
 31
0.0
  0
LINE
  5
21A
  8
LAYER_1
 10
94.71803819719921
 20
160.2829199048661
 30
0.0
 11
113.5136324198688
 21
159.9375653566918
 31
0.0
  0
LINE
  5
24C
  8
LAYER_1
 10
93.95289521406258
 20
160.5978501450791
 30
0.0
 11
93.95490154692232
 21
166.7156683519418
 31
0.0
  0
LINE
  5
250
  8
LAYER_1
 10
93.08180179297808
 20
168.7150664435229
 30
0.0
 11
93.40381626239113
 21
169.2712732543272
 31
0.0
  0
LINE
  5
272
  8
LAYER_1
 10
131.3153861770724
 20
166.9214800730795
 30
0.0
 11
128.6096466615688
 21
163.201088239262
 31
0.0
  0
LINE
  5
273
  8
LAYER_1
 10
128.6096466615688
 20
163.201088239262
 30
0.0
 11
128.6096466615688
 21
162.6440242213642
 31
0.0
  0
LINE
  5
279
  8
LAYER_1
 10
128.6096466615688
 20
162.6440242213642
 30
0.0
 11
130.757498
 21
160.850096
 31
0.0
  0
LINE
  5
27A
  8
LAYER_1
 10
130.757498
 20
160.850096
 30
0.0
 11
132.119554
 21
160.032689
 31
0.0
  0
LINE
  5
27B
  8
LAYER_1
 10
132.119554
 20
160.032689
 30
0.0
 11
133.46185
 21
159.643694
 31
0.0
  0
LINE
  5
27C
  8
LAYER_1
 10
133.46185
 20
159.643694
 30
0.0
 11
134.906445
 21
159.667101
 31
0.0
  0
LINE
  5
27D
  8
LAYER_1
 10
134.906445
 20
159.667101
 30
0.0
 11
138.3906485646485
 21
160.4895685410786
 31
0.0
  0
LINE
  5
282
  8
LAYER_1
 62
     4
 10
138.6104186053069
 20
160.217403198388
 30
0.0
 11
136.692723
 21
159.688254
 31
0.0
  0
LINE
  5
285
  8
LAYER_1
 62
     4
 10
136.7379244960171
 20
159.4785937118625
 30
0.0
 11
137.881393
 21
159.32088
 31
0.0
  0
LINE
  5
286
  8
LAYER_1
 62
     4
 10
137.881393
 20
159.32088
 30
0.0
 11
140.015968
 21
159.263318
 31
0.0
  0
LINE
  5
287
  8
LAYER_1
 62
     4
 10
140.015968
 20
159.263318
 30
0.0
 11
153.786221
 21
159.052489
 31
0.0
  0
LINE
  5
288
  8
LAYER_1
 62
     4
 10
153.786221
 20
159.052489
 30
0.0
 11
158.772427
 21
158.871687
 31
0.0
  0
LINE
  5
289
  8
LAYER_1
 62
     4
 10
158.772427
 20
158.871687
 30
0.0
 11
161.5361563224864
 21
158.7278853621953
 31
0.0
  0
LINE
  5
28C
  8
LAYER_1
 62
     4
 10
161.3797589880761
 20
158.3803357301726
 30
0.0
 11
151.3305749460444
 21
158.5771534054705
 31
0.0
  0
LINE
  5
28E
  8
LAYER_1
 62
     4
 10
144.054285
 20
158.744292
 30
0.0
 11
144.054285
 21
158.744292
 31
0.0
  0
LINE
  5
2A4
  8
LAYER_1
 10
113.5136324198688
 20
159.9375653566918
 30
0.0
 11
118.5907078961385
 21
159.5456893780399
 31
0.0
  0
LINE
  5
2A7
  8
LAYER_1
 10
122.3410255161079
 20
159.5561651255817
 30
0.0
 11
126.7064570023587
 21
159.6214798361178
 31
0.0
  0
LINE
  5
2D5
  8
LAYER_1
 10
87.89206299999999
 20
160.390985
 30
0.0
 11
86.5919074187284
 21
160.7886858776508
 31
0.0
  0
LINE
  5
2D6
  8
LAYER_1
 10
86.5919074187284
 20
160.7886858776508
 30
0.0
 11
86.08253491910236
 21
161.1482429362103
 31
0.0
  0
LINE
  5
2D7
  8
LAYER_1
 10
86.08253491910236
 20
161.1482429362103
 30
0.0
 11
85.91650799999999
 21
161.673022
 31
0.0
  0
LINE
  5
2D8
  8
LAYER_1
 10
85.91650799999999
 20
161.673022
 30
0.0
 11
86.040862
 21
161.972001
 31
0.0
  0
LINE
  5
2D9
  8
LAYER_1
 10
86.040862
 20
161.972001
 30
0.0
 11
86.33984100000001
 21
162.096355
 31
0.0
  0
LINE
  5
2DA
  8
LAYER_1
 10
86.33984100000001
 20
162.096355
 30
0.0
 11
86.5319812423018
 21
161.9123016856494
 31
0.0
  0
LINE
  5
2DB
  8
LAYER_1
 10
86.5319812423018
 20
161.9123016856494
 30
0.0
 11
86.76317400000001
 21
161.711661
 31
0.0
  0
LINE
  5
2DC
  8
LAYER_1
 10
86.76317400000001
 20
161.711661
 30
0.0
 11
87.28105844763422
 21
161.4328922742367
 31
0.0
  0
LINE
  5
2DD
  8
LAYER_1
 10
87.28105844763422
 20
161.4328922742367
 30
0.0
 11
88.67434204955252
 21
161.0733352156771
 31
0.0
  0
LINE
  5
2DE
  8
LAYER_1
 10
88.67434204955252
 20
161.0733352156771
 30
0.0
 11
91.6107246944556
 21
160.6838150689042
 31
0.0
  0
LINE
  5
2DF
  8
LAYER_1
 10
91.6107246944556
 20
160.6838150689042
 30
0.0
 11
93.95289521406258
 21
160.5978501450791
 31
0.0
  0
LINE
  5
2E3
  8
LAYER_1
 62
     7
 10
93.9632465303078
 20
159.8573816459696
 30
0.0
 11
91.13131528304285
 21
159.9796824958918
 31
0.0
  0
LINE
  5
2E4
  8
LAYER_1
 10
91.13131528304285
 20
159.9796824958918
 30
0.0
 11
89.69308704880461
 21
160.1145163928516
 31
0.0
  0
LINE
  5
2E5
  8
LAYER_1
 10
89.69308704880461
 20
160.1145163928516
 30
0.0
 11
87.89206299999999
 21
160.390985
 31
0.0
  0
LINE
  5
2E6
  8
LAYER_1
 10
87.89206299999999
 20
160.390985
 30
0.0
 11
87.89206299999999
 21
160.390985
 31
0.0
  0
ARC
  5
311
  8
0
  6
BYBLOCK
 10
110.8515468998489
 20
57.26534938962508
 30
0.0
 40
113.3617914754737
 50
84.47912392414945
 51
98.85471833133477
  0
ARC
  5
312
  8
0
  6
BYBLOCK
 10
119.2052962778742
 20
146.4398152149739
 30
0.0
 40
23.7987542359542
 50
35.37465591175094
 51
83.84271686184124
  0
LINE
  5
315
  8
0
  6
BYBLOCK
 62
     4
 10
138.6104186053069
 20
160.217403198388
 30
0.0
 11
151.2699439696969
 21
159.0923665273799
 31
0.0
  0
LINE
  5
327
  8
LAYER_1
 62
     2
 10
122.9207866173575
 20
154.5801006784977
 30
0.0
 11
125.2200816173575
 21
154.9411936784977
 31
0.0
  0
LINE
  5
328
  8
LAYER_1
 62
     2
 10
121.2623156566814
 20
153.989557895045
 30
0.0
 11
122.9207866173575
 21
154.5801006784977
 31
0.0
  0
LINE
  5
329
  8
LAYER_1
 62
     2
 10
125.2200816173575
 20
154.9411936784977
 30
0.0
 11
127.4145479607206
 21
155.0702651562361
 31
0.0
  0
LINE
  5
32A
  8
LAYER_1
 62
     2
 10
127.4145479607206
 20
155.0702651562361
 30
0.0
 11
144.2823756173575
 21
154.7284276784977
 31
0.0
  0
LINE
  5
32B
  8
LAYER_1
 62
     2
 10
144.2823756173575
 20
154.7284276784977
 30
0.0
 11
154.6494216173575
 21
154.4498026784977
 31
0.0
  0
LINE
  5
32C
  8
LAYER_1
 62
     2
 10
154.6494216173575
 20
154.4498026784977
 30
0.0
 11
159.4676608015416
 21
154.1650975430343
 31
0.0
  0
LINE
  5
32F
  8
0
  6
BYBLOCK
 10
93.08180179297808
 20
168.7150664435229
 30
0.0
 11
86.34354092663469
 21
162.0979555505828
 31
0.0
  0
LINE
  5
330
  8
0
  6
BYBLOCK
 62
     4
 10
93.97917426297401
 20
159.8544612808603
 30
0.0
 11
61.17781266899775
 21
159.8695327744995
 31
0.0
  0
LINE
  5
333
  8
0
  6
BYBLOCK
 62
     4
 10
65.7835278383174
 20
160.8420980728728
 30
0.0
 11
85.92034243233923
 21
161.687845669513
 31
0.0
  0
ARC
  5
337
  8
0
  6
BYBLOCK
 62
     2
 10
65.70596786250145
 20
160.431528292636
 30
0.0
 40
0.4178314185077732
 50
333.8276784038723
 51
79.30242395028581
  0
LINE
  5
338
  8
0
  6
BYBLOCK
 62
     2
 10
66.08095967218041
 20
160.2472344051467
 30
0.0
 11
66.30398766068748
 21
159.8658981764924
 31
0.0
  0
ARC
  5
33A
  8
0
  6
BYBLOCK
 62
     4
 10
60.7458512881425
 20
151.3811379771187
 30
0.0
 40
8.499378616743165
 50
87.08681869301779
 51
115.2049500690312
  0
LINE
  5
341
  8
LAYER_1
 62
     2
 10
62.56141934925164
 20
156.8690909863857
 30
0.0
 11
62.86763144642939
 21
156.8690909863857
 31
0.0
  0
LINE
  5
342
  8
LAYER_1
 62
     2
 10
62.56141934925164
 20
156.8690909863857
 30
0.0
 11
62.56141934925164
 21
155.9693566761598
 31
0.0
  0
LINE
  5
343
  8
LAYER_1
 62
     2
 10
62.86763144642939
 20
155.9693566761598
 30
0.0
 11
62.56348860438909
 21
155.969882732238
 31
0.0
  0
LINE
  5
344
  8
LAYER_1
 62
     2
 10
62.86763144642939
 20
156.8690909863857
 30
0.0
 11
62.86629179144354
 21
155.9748804590466
 31
0.0
  0
LINE
  5
345
  8
LAYER_1
 62
     2
 10
60.79975469141422
 20
156.8690909863857
 30
0.0
 11
61.10596678859196
 21
156.8690909863857
 31
0.0
  0
LINE
  5
346
  8
LAYER_1
 62
     2
 10
60.79975469141422
 20
156.8690909863857
 30
0.0
 11
60.79975469141422
 21
155.9693566761598
 31
0.0
  0
LINE
  5
347
  8
LAYER_1
 62
     2
 10
61.10596678859196
 20
155.9693566761598
 30
0.0
 11
60.80182394655166
 21
155.969882732238
 31
0.0
  0
LINE
  5
348
  8
LAYER_1
 62
     2
 10
61.10596678859196
 20
156.8690909863857
 30
0.0
 11
61.10462713360612
 21
155.9748804590466
 31
0.0
  0
ARC
  5
34C
  8
0
  6
BYBLOCK
 62
     4
 10
52.08568232254217
 20
154.176011894902
 30
0.0
 40
7.068273758436004
 50
352.7768705339091
 51
44.03420074203382
  0
CIRCLE
  5
34E
  8
0
  6
BYBLOCK
 62
     7
 10
71.92430601737038
 20
145.9738240185218
 30
0.0
 40
7.149977266112083
  0
ARC
  5
352
  8
0
  6
BYBLOCK
 62
     4
 10
74.24215977437864
 20
142.6769489432591
 30
0.0
 40
11.67206701268786
 50
117.2108249634853
 51
168.4278092262616
  0
LINE
  5
353
  8
0
  6
BYBLOCK
 62
     2
 10
62.80735402039412
 20
145.0183941630579
 30
0.0
 11
58.74390521831595
 21
145.0183941630579
 31
0.0
  0
ARC
  5
355
  8
0
  6
BYBLOCK
 62
     2
 10
58.66858952379361
 20
146.0121500505094
 30
0.0
 40
0.9966058487114925
 50
199.30887653775
 51
274.3341001434649
  0
ARC
  5
356
  8
0
  6
BYBLOCK
 62
     2
 10
56.29249788737198
 20
148.465899473875
 30
0.0
 40
0.7328648513849781
 50
2.335833248153797
 51
96.19443887124754
  0
LINE
  5
357
  8
0
  6
BYBLOCK
 62
     2
 10
57.02475380205211
 20
148.4566969955856
 30
0.0
 11
57.72804301779641
 21
145.7216833788022
 31
0.0
  0
ARC
  5
359
  8
0
  6
BYBLOCK
 62
     2
 10
56.60063894608958
 20
149.8679126733271
 30
0.0
 40
0.7768159305903079
 50
90.41842825945213
 51
240.101186302112
  0
ARC
  5
35B
  8
0
  6
BYBLOCK
 10
59.22383425767411
 20
152.1266419423268
 30
0.0
 40
0.7892781949012867
 50
96.49006217860331
 51
282.5649251917632
  0
ARC
  5
35D
  8
0
  6
BYBLOCK
 62
     4
 10
118.3607016886582
 20
155.81139755535
 30
0.0
 40
3.202324473532631
 50
54.05179229313519
 51
86.06909236027309
  0
ARC
  5
35E
  8
0
  6
BYBLOCK
 62
     4
 10
122.5997735138228
 20
154.4019398887117
 30
0.0
 40
4.645499691324341
 50
92.54611578847297
 51
120.5195563080575
  0
ARC
  5
361
  8
0
  6
BYBLOCK
 10
118.3561241307836
 20
156.3422690401613
 30
0.0
 40
3.211998039243236
 50
54.07605623552006
 51
85.81175429132958
  0
ARC
  5
362
  8
0
  6
BYBLOCK
 10
122.4395966978064
 20
155.312529732386
 30
0.0
 40
4.244780044742638
 50
91.33062734560699
 51
121.2007551207795
  0
LINE
  5
379
  8
LAYER_1
 10
94.71803819719921
 20
160.2829199048661
 30
0.0
 11
94.72546602079878
 21
167.6281901059117
 31
0.0
  0
ARC
  5
37A
  8
0
  6
BYBLOCK
 10
91.20120866997534
 20
166.135139486103
 30
0.0
 40
3.829184805692178
 50
22.92092881337105
 51
54.84772111083276
  0
ARC
  5
37E
  8
0
  6
BYBLOCK
 10
91.73081526017309
 20
166.9347836780047
 30
0.0
 40
2.234853761887243
 50
354.3734195019936
 51
52.80656809013905
  0
ARC
  5
382
  8
0
  6
BYBLOCK
 10
107.0799063717697
 20
83.41367580502812
 30
0.0
 40
85.11380920310593
 50
85.18821953792057
 51
98.34432143409748
  0
ARC
  5
38F
  8
0
  6
BYBLOCK
 10
113.6778879079227
 20
147.5659777480148
 30
0.0
 40
20.66863216283883
 50
47.29510292511096
 51
88.49846016871265
  0
ARC
  5
394
  8
0
  6
BYBLOCK
 10
126.4532152098828
 20
161.4241556083969
 30
0.0
 40
1.820376704261623
 50
277.9966411321919
 51
46.95222212036273
  0
ARC
  5
39A
  8
0
  6
BYBLOCK
 62
     4
 10
136.699753257863
 20
132.1741666333327
 30
0.0
 40
17.17584647279618
 50
41.85145529195444
 51
108.586032803604
  0
ARC
  5
39C
  8
0
  6
BYBLOCK
 62
     4
 10
133.4177413839694
 20
143.3349141340342
 30
0.0
 40
5.569025440910425
 50
113.1836949519113
 51
168.9044893725702
  0
ARC
  5
39E
  8
0
  6
BYBLOCK
 10
135.131519624668
 20
145.9460213200214
 30
0.0
 40
7.341900152976896
 50
192.1030097101745
 51
20.13303750402107
  0
LINE
  5
3A3
  8
0
  6
BYBLOCK
 62
     4
 10
149.4936481429303
 20
143.6339203709534
 30
0.0
 11
154.6456133762389
 21
143.6801293315112
 31
0.0
  0
LINE
  5
3A4
  8
0
  6
BYBLOCK
 62
     2
 10
156.5814482354182
 20
147.9926577518541
 30
0.0
 11
154.4935574632595
 21
143.2999895490625
 31
0.0
  0
LINE
  5
3A5
  8
0
  6
BYBLOCK
 62
     2
 10
154.4935574632595
 20
143.2999895490625
 30
0.0
 11
160.3477101129695
 21
143.6547866793479
 31
0.0
  0
ARC
  5
3A6
  8
0
  6
BYBLOCK
 62
     2
 10
157.6762872657259
 20
147.4097874673071
 30
0.0
 40
1.240326679102334
 50
84.38711973480095
 51
151.9700604851171
  0
LINE
  5
3A8
  8
0
  6
BYBLOCK
 62
     2
 10
157.7975994351238
 20
148.644167323125
 30
0.0
 11
161.0826470257036
 21
148.6472891555075
 31
0.0
  0
ARC
  5
3A9
  8
0
  6
BYBLOCK
 62
     1
 10
159.7538336966745
 20
151.2136011696321
 30
0.0
 40
1.344769316932563
 50
0.3258750026444546
 51
95.01390452137123
  0
LINE
  5
3AA
  8
0
  6
BYBLOCK
 62
     1
 10
161.0985812628962
 20
151.2212496272631
 30
0.0
 11
161.0826470257036
 21
148.6472891555075
 31
0.0
  0
ARC
  5
3AC
  8
0
  6
BYBLOCK
 62
     2
 10
159.3899917276869
 20
145.5221570129871
 30
0.0
 40
2.121222985009661
 50
296.8395456690148
 51
8.460702770845808
  0
ARC
  5
3AD
  8
0
  6
BYBLOCK
 62
     2
 10
162.9165581071836
 20
145.684821909295
 30
0.0
 40
1.436223721316819
 50
90.14841670396692
 51
174.0278138091232
  0
ARC
  5
3B0
  8
0
  6
BYBLOCK
 62
     2
 10
161.394173693709
 20
147.5397819758724
 30
0.0
 40
1.575336393591609
 50
344.584873708947
 51
101.4262515332275
  0
ARC
  5
3B6
  8
0
  6
BYBLOCK
 62
     4
 10
112.4473487682292
 20
157.7492261779543
 30
0.0
 40
1.665964054387248
 50
10.49147272288687
 51
89.68434303547225
  0
LINE
  5
3B7
  8
0
  6
BYBLOCK
 62
     4
 10
114.0854612665696
 20
158.0525802174708
 30
0.0
 11
114.0898642265647
 21
146.4483244484747
 31
0.0
  0
ARC
  5
3BE
  8
0
  6
BYBLOCK
 62
     4
 10
111.694284944068
 20
146.9366284701408
 30
0.0
 40
2.444839650427492
 50
273.8929300211156
 51
348.4789203103038
  0
ARC
  5
3C4
  8
0
  6
BYBLOCK
 62
     2
 10
112.5743970367799
 20
158.406229714561
 30
0.0
 40
0.2859147447006534
 50
268.5702439876596
 51
94.84938410062259
  0
LINE
  5
3C7
  8
0
  6
BYBLOCK
 62
     2
 10
112.5672630750002
 20
158.120403984742
 30
0.0
 11
112.5672630750002
 21
157.6689412798061
 31
0.0
  0
LINE
  5
3C8
  8
0
  6
BYBLOCK
 62
     2
 10
112.5672630750002
 20
157.6689412798061
 30
0.0
 11
111.8007811180561
 21
157.6710087068549
 31
0.0
  0
LINE
  5
3C9
  8
0
  6
BYBLOCK
 62
     2
 10
111.8007811180561
 20
157.6710087068549
 30
0.0
 11
111.8007811180561
 21
158.1088921394284
 31
0.0
  0
LINE
  5
3CA
  8
0
  6
BYBLOCK
 62
     2
 10
111.8007811180561
 20
158.1088921394284
 30
0.0
 11
110.136824074277
 21
158.1088921394284
 31
0.0
  0
CIRCLE
  5
3D9
  8
0
  6
BYBLOCK
 62
     2
 10
135.0919468455087
 20
145.9738240185218
 30
0.0
 40
3.050709926358962
  0
CIRCLE
  5
3DA
  8
0
  6
BYBLOCK
 62
     2
 10
71.92430601737038
 20
145.9738240185218
 30
0.0
 40
3.050709926358962
  0
ARC
  5
3E5
  8
0
  6
BYBLOCK
 62
     2
 10
161.8177421757633
 20
158.5939714187855
 30
0.0
 40
0.3118068905673461
 50
352.6553044485324
 51
154.5656148834007
  0
ARC
  5
3FC
  8
0
  6
BYBLOCK
 62
     4
 10
71.8165215759753
 20
144.9512142213068
 30
0.0
 40
8.613102277939541
 50
52.9075253273846
 51
109.7577003127042
  0
ARC
  5
43C
  8
0
  6
BYBLOCK
 62
     4
 10
136.7420644046614
 20
159.5895279088371
 30
0.0
 40
0.1110114178901517
 50
115.6737842189371
 51
267.8627936451068
  0
ENDSEC
  0
EOF
