0
SECTION
2
HEADER
9
$EXTMIN
10
0
20
0
30
0
9
$EXTMAX
10
195.25
20
204.75
30
0
0
ENDSEC
0
SECTION
2
TABLES
0
TABLE
2
VPORT
0
VPORT
2
*ACTIVE
41
  1.000000
0
ENDTAB
0
TABLE
2
LAYER
0
LAYER
2
Points
62
0
0
LAYER
2
0
62
0
0
ENDTAB
  0
TABLE
  2
LTYPE
 70
     5
  0
LTYPE
  2
CONTINUOUS
 70
     0
  3
CONTINUOUS
 72
    65
 73
     0
 40
0
  0
LTYPE
  2
DASHED
 70
     0
  3
DASHED
 72
    65
 73
     2
 40
0.75
 49
0.5
 49
-0.25
  0
LTYPE
  2
DOT
 70
     0
  3
DOT
 72
    65
 73
     2
 40
0.25
 49
0
 49
-0.25
  0
LTYPE
  2
CENTER
 70
     0
  3
CENTER
 72
    65
 73
     4
 40
2
 49
1.25
 49
-0.25
 49
0.25
 49
-0.25
  0
LTYPE
  2
DASHDOT
 70
     0
  3
DASHDOT
 72
    65
 73
     4
 40
1
 49
0.5
 49
-0.25
 49
0
 49
-0.25
  0
ENDTAB
0
ENDSEC
0
SECTION
2
BLOCKS
0
ENDSEC
0
SECTION
2
ENTITIES
0
LINE
8
0
62
0
10
99.25
20
0
30
0
11
110.9878
21
1.109756
31
0
6
CONTINUOUS
0
LINE
8
0
62
0
10
110.9878
20
1.109756
30
0
11
116.9808
21
2.346154
31
0
6
CONTINUOUS
0
LINE
8
0
62
0
10
116.9808
20
2.346154
30
0
11
121.7308
21
3.346154
31
0
6
CONTINUOUS
0
LINE
8
0
62
0
10
121.7308
20
3.346154
30
0
11
125.775
21
4.425
31
0
6
CONTINUOUS
0
LINE
8
0
62
0
10
125.775
20
4.425
30
0
11
135.725
21
7.825
31
0
6
CONTINUOUS
0
LINE
8
0
62
0
10
135.725
20
7.825
30
0
11
139.9615
21
9.807692
31
0
6
CONTINUOUS
0
LINE
8
0
62
0
10
139.9615
20
9.807692
30
0
11
147.025
21
13.7
31
0
6
CONTINUOUS
0
LINE
8
0
62
0
10
147.025
20
13.7
30
0
11
149.955
21
15.31
31
0
6
CONTINUOUS
0
LINE
8
0
62
0
10
149.955
20
15.31
30
0
11
151.795
21
16.69
31
0
6
CONTINUOUS
0
LINE
8
0
62
0
10
151.795
20
16.69
30
0
11
160.9403
21
23.56244
31
0
6
CONTINUOUS
0
LINE
8
0
62
0
10
160.9403
20
23.56244
30
0
11
172
21
34.25
31
0
6
CONTINUOUS
0
LINE
8
0
62
0
10
172
20
34.25
30
0
11
174.69
21
38.045
31
0
6
CONTINUOUS
0
LINE
8
0
62
0
10
174.69
20
38.045
30
0
11
179.94
21
45.295
31
0
6
CONTINUOUS
0
LINE
8
0
62
0
10
179.94
20
45.295
30
0
11
184.45
21
53.775
31
0
6
CONTINUOUS
0
LINE
8
0
62
0
10
184.45
20
53.775
30
0
11
186.55
21
57.725
31
0
6
CONTINUOUS
0
LINE
8
0
62
0
10
186.55
20
57.725
30
0
11
188.175
21
61.775
31
0
6
CONTINUOUS
0
LINE
8
0
62
0
10
188.175
20
61.775
30
0
11
191.425
21
70.775
31
0
6
CONTINUOUS
0
LINE
8
0
62
0
10
191.425
20
70.775
30
0
11
192.9038
21
77.26923
31
0
6
CONTINUOUS
0
LINE
8
0
62
0
10
192.9038
20
77.26923
30
0
11
194.3462
21
83.98077
31
0
6
CONTINUOUS
0
LINE
8
0
62
0
10
194.3462
20
83.98077
30
0
11
194.8677
21
91.24346
31
0
6
CONTINUOUS
0
LINE
8
0
62
0
10
194.8677
20
91.24346
30
0
11
195.25
21
95.75
31
0
6
CONTINUOUS
0
LINE
8
0
62
0
10
195.25
20
95.75
30
0
11
194.8667
21
103.7573
31
0
6
CONTINUOUS
0
LINE
8
0
62
0
10
194.8667
20
103.7573
30
0
11
194.3873
21
110.2398
31
0
6
CONTINUOUS
0
LINE
8
0
62
0
10
194.3873
20
110.2398
30
0
11
192.8986
21
118.7331
31
0
6
CONTINUOUS
0
LINE
8
0
62
0
10
192.8986
20
118.7331
30
0
11
192.1618
21
122.4779
31
0
6
CONTINUOUS
0
LINE
8
0
62
0
10
192.1618
20
122.4779
30
0
11
187.7
21
135.225
31
0
6
CONTINUOUS
0
LINE
8
0
62
0
10
187.7
20
135.225
30
0
11
187.05
21
136.525
31
0
6
CONTINUOUS
0
LINE
8
0
62
0
10
187.05
20
136.525
30
0
11
181.1923
21
147.9615
31
0
6
CONTINUOUS
0
LINE
8
0
62
0
10
181.1923
20
147.9615
30
0
11
175.8077
21
156.0385
31
0
6
CONTINUOUS
0
LINE
8
0
62
0
10
175.8077
20
156.0385
30
0
11
173.3118
21
159.3029
31
0
6
CONTINUOUS
0
LINE
8
0
62
0
10
173.3118
20
159.3029
30
0
11
166.5
21
167
31
0
6
CONTINUOUS
0
LINE
8
0
62
0
10
166.5
20
167
30
0
11
161.7988
21
171.061
31
0
6
CONTINUOUS
0
LINE
8
0
62
0
10
161.7988
20
171.061
30
0
11
156.6988
21
175.1885
31
0
6
CONTINUOUS
0
LINE
8
0
62
0
10
156.6988
20
175.1885
30
0
11
152.9615
21
177.9423
31
0
6
CONTINUOUS
0
LINE
8
0
62
0
10
152.9615
20
177.9423
30
0
11
144.5385
21
183.3077
31
0
6
CONTINUOUS
0
LINE
8
0
62
0
10
144.5385
20
183.3077
30
0
11
141.475
21
184.925
31
0
6
CONTINUOUS
0
LINE
8
0
62
0
10
141.475
20
184.925
30
0
11
133.975
21
188.2
31
0
6
CONTINUOUS
0
LINE
8
0
62
0
10
133.975
20
188.2
30
0
11
129.525
21
189.825
31
0
6
CONTINUOUS
0
LINE
8
0
62
0
10
129.525
20
189.825
30
0
11
120.4779
21
192.4118
31
0
6
CONTINUOUS
0
LINE
8
0
62
0
10
120.4779
20
192.4118
30
0
11
107.25
21
195
31
0
6
CONTINUOUS
0
LINE
8
0
62
0
10
107.25
20
195
30
0
11
107.1402
21
196.9878
31
0
6
CONTINUOUS
0
LINE
8
0
62
0
10
107.1402
20
196.9878
30
0
11
106.425
21
198.975
31
0
6
CONTINUOUS
0
LINE
8
0
62
0
10
106.425
20
198.975
30
0
11
105
21
201.5
31
0
6
CONTINUOUS
0
LINE
8
0
62
0
10
105
20
201.5
30
0
11
104
21
202.5
31
0
6
CONTINUOUS
0
LINE
8
0
62
0
10
104
20
202.5
30
0
11
101.9615
21
203.9423
31
0
6
CONTINUOUS
0
LINE
8
0
62
0
10
101.9615
20
203.9423
30
0
11
101.775
21
204.05
31
0
6
CONTINUOUS
0
LINE
8
0
62
0
10
101.775
20
204.05
30
0
11
99.75
21
204.75
31
0
6
CONTINUOUS
0
LINE
8
0
62
0
10
99.75
20
204.75
30
0
11
96
21
204.75
31
0
6
CONTINUOUS
0
LINE
8
0
62
0
10
96
20
204.75
30
0
11
92.5
21
203.5
31
0
6
CONTINUOUS
0
LINE
8
0
62
0
10
92.5
20
203.5
30
0
11
90
21
201
31
0
6
CONTINUOUS
0
LINE
8
0
62
0
10
90
20
201
30
0
11
89.31
21
199.955
31
0
6
CONTINUOUS
0
LINE
8
0
62
0
10
89.31
20
199.955
30
0
11
89.075
21
199.475
31
0
6
CONTINUOUS
0
LINE
8
0
62
0
10
89.075
20
199.475
30
0
11
88.08824
21
195.7279
31
0
6
CONTINUOUS
0
LINE
8
0
62
0
10
88.08824
20
195.7279
30
0
11
87.9375
21
194.8125
31
0
6
CONTINUOUS
0
LINE
8
0
62
0
10
87.9375
20
194.8125
30
0
11
82.76689
21
193.8986
31
0
6
CONTINUOUS
0
LINE
8
0
62
0
10
82.76689
20
193.8986
30
0
11
76.76689
21
192.8986
31
0
6
CONTINUOUS
0
LINE
8
0
62
0
10
76.76689
20
192.8986
30
0
11
72.275
21
191.675
31
0
6
CONTINUOUS
0
LINE
8
0
62
0
10
72.275
20
191.675
30
0
11
69.47794
21
190.8382
31
0
6
CONTINUOUS
0
LINE
8
0
62
0
10
69.47794
20
190.8382
30
0
11
63.275
21
188.95
31
0
6
CONTINUOUS
0
LINE
8
0
62
0
10
63.275
20
188.95
30
0
11
58.475
21
186.825
31
0
6
CONTINUOUS
0
LINE
8
0
62
0
10
58.475
20
186.825
30
0
11
51.53846
21
183.6923
31
0
6
CONTINUOUS
0
LINE
8
0
62
0
10
51.53846
20
183.6923
30
0
11
45.71154
21
180.0577
31
0
6
CONTINUOUS
0
LINE
8
0
62
0
10
45.71154
20
180.0577
30
0
11
39.80123
21
176.1885
31
0
6
CONTINUOUS
0
LINE
8
0
62
0
10
39.80123
20
176.1885
30
0
11
33.94877
21
171.3115
31
0
6
CONTINUOUS
0
LINE
8
0
62
0
10
33.94877
20
171.3115
30
0
11
29
21
167
31
0
6
CONTINUOUS
0
LINE
8
0
62
0
10
29
20
167
30
0
11
22.31215
21
159.4441
31
0
6
CONTINUOUS
0
LINE
8
0
62
0
10
22.31215
20
159.4441
30
0
11
19.05769
21
155.2115
31
0
6
CONTINUOUS
0
LINE
8
0
62
0
10
19.05769
20
155.2115
30
0
11
13.94231
21
147.7885
31
0
6
CONTINUOUS
0
LINE
8
0
62
0
10
13.94231
20
147.7885
30
0
11
8.45
21
136.775
31
0
6
CONTINUOUS
0
LINE
8
0
62
0
10
8.45
20
136.775
30
0
11
7.95
21
135.775
31
0
6
CONTINUOUS
0
LINE
8
0
62
0
10
7.95
20
135.775
30
0
11
3.338235
21
122.4779
31
0
6
CONTINUOUS
0
LINE
8
0
62
0
10
3.338235
20
122.4779
30
0
11
2.653846
21
119.2692
31
0
6
CONTINUOUS
0
LINE
8
0
62
0
10
2.653846
20
119.2692
30
0
11
0.8613863
21
110.2389
31
0
6
CONTINUOUS
0
LINE
8
0
62
0
10
0.8613863
20
110.2389
30
0
11
0.6386137
21
108.0111
31
0
6
CONTINUOUS
0
LINE
8
0
62
0
10
0.6386137
20
108.0111
30
0
11
0
21
96.25
31
0
6
CONTINUOUS
0
LINE
8
0
62
0
10
0
20
96.25
30
0
11
1.346154
21
83.01923
31
0
6
CONTINUOUS
0
LINE
8
0
62
0
10
1.346154
20
83.01923
30
0
11
2.096154
21
79.51923
31
0
6
CONTINUOUS
0
LINE
8
0
62
0
10
2.096154
20
79.51923
30
0
11
4.175
21
70.475
31
0
6
CONTINUOUS
0
LINE
8
0
62
0
10
4.175
20
70.475
30
0
11
7.075
21
62.025
31
0
6
CONTINUOUS
0
LINE
8
0
62
0
10
7.075
20
62.025
30
0
11
8.7
21
57.725
31
0
6
CONTINUOUS
0
LINE
8
0
62
0
10
8.7
20
57.725
30
0
11
10.95
21
53.475
31
0
6
CONTINUOUS
0
LINE
8
0
62
0
10
10.95
20
53.475
30
0
11
15.31
21
45.295
31
0
6
CONTINUOUS
0
LINE
8
0
62
0
10
15.31
20
45.295
30
0
11
21.94
21
36.455
31
0
6
CONTINUOUS
0
LINE
8
0
62
0
10
21.94
20
36.455
30
0
11
23.5
21
34.25
31
0
6
CONTINUOUS
0
LINE
8
0
62
0
10
23.5
20
34.25
30
0
11
34.25
21
23.5
31
0
6
CONTINUOUS
0
LINE
8
0
62
0
10
34.25
20
23.5
30
0
11
45.295
21
15.31
31
0
6
CONTINUOUS
0
LINE
8
0
62
0
10
45.295
20
15.31
30
0
11
49.525
21
13.05
31
0
6
CONTINUOUS
0
LINE
8
0
62
0
10
49.525
20
13.05
30
0
11
55.725
21
9.7
31
0
6
CONTINUOUS
0
LINE
8
0
62
0
10
55.725
20
9.7
30
0
11
59.775
21
7.825
31
0
6
CONTINUOUS
0
LINE
8
0
62
0
10
59.775
20
7.825
30
0
11
69.275
21
4.575
31
0
6
CONTINUOUS
0
LINE
8
0
62
0
10
69.275
20
4.575
30
0
11
74.76923
21
3.096154
31
0
6
CONTINUOUS
0
LINE
8
0
62
0
10
74.76923
20
3.096154
30
0
11
80.48077
21
1.903846
31
0
6
CONTINUOUS
0
LINE
8
0
62
0
10
80.48077
20
1.903846
30
0
11
84.2622
21
1.109756
31
0
6
CONTINUOUS
0
LINE
8
0
62
0
10
84.2622
20
1.109756
30
0
11
86.2378
21
0.890244
31
0
6
CONTINUOUS
0
LINE
8
0
62
0
10
86.2378
20
0.890244
30
0
11
99.25
21
0
31
0
6
CONTINUOUS
0
LINE
8
0
62
0
10
159.25
20
42
30
0
11
160.9381
21
43.8042
31
0
6
CONTINUOUS
0
LINE
8
0
62
0
10
160.9381
20
43.8042
30
0
11
166.44
21
51.045
31
0
6
CONTINUOUS
0
LINE
8
0
62
0
10
166.44
20
51.045
30
0
11
171.45
21
59.775
31
0
6
CONTINUOUS
0
LINE
8
0
62
0
10
171.45
20
59.775
30
0
11
173.3
21
63.725
31
0
6
CONTINUOUS
0
LINE
8
0
62
0
10
173.3
20
63.725
30
0
11
176.6618
21
71.77206
31
0
6
CONTINUOUS
0
LINE
8
0
62
0
10
176.6618
20
71.77206
30
0
11
177.3382
21
74.47794
31
0
6
CONTINUOUS
0
LINE
8
0
62
0
10
177.3382
20
74.47794
30
0
11
179.3986
21
82.76689
31
0
6
CONTINUOUS
0
LINE
8
0
62
0
10
179.3986
20
82.76689
30
0
11
180
21
86.5
31
0
6
CONTINUOUS
0
LINE
8
0
62
0
10
180
20
86.5
30
0
11
179.75
21
86.75
31
0
6
CONTINUOUS
0
LINE
8
0
62
0
10
179.75
20
86.75
30
0
11
177.2988
21
84.68902
31
0
6
CONTINUOUS
0
LINE
8
0
62
0
10
177.2988
20
84.68902
30
0
11
176.25
21
83.75
31
0
6
CONTINUOUS
0
LINE
8
0
62
0
10
176.25
20
83.75
30
0
11
176
21
84
31
0
6
CONTINUOUS
0
LINE
8
0
62
0
10
176
20
84
30
0
11
175.3382
21
88.77206
31
0
6
CONTINUOUS
0
LINE
8
0
62
0
10
175.3382
20
88.77206
30
0
11
175.0882
21
89.77206
31
0
6
CONTINUOUS
0
LINE
8
0
62
0
10
175.0882
20
89.77206
30
0
11
174.2
21
92.725
31
0
6
CONTINUOUS
0
LINE
8
0
62
0
10
174.2
20
92.725
30
0
11
172.8
21
95.775
31
0
6
CONTINUOUS
0
LINE
8
0
62
0
10
172.8
20
95.775
30
0
11
170
21
100.5
31
0
6
CONTINUOUS
0
LINE
8
0
62
0
10
170
20
100.5
30
0
11
169.75
21
100.5
31
0
6
CONTINUOUS
0
LINE
8
0
62
0
10
169.75
20
100.5
30
0
11
168.6618
21
96.02206
31
0
6
CONTINUOUS
0
LINE
8
0
62
0
10
168.6618
20
96.02206
30
0
11
167.8
21
93.225
31
0
6
CONTINUOUS
0
LINE
8
0
62
0
10
167.8
20
93.225
30
0
11
166.575
21
90.475
31
0
6
CONTINUOUS
0
LINE
8
0
62
0
10
166.575
20
90.475
30
0
11
164.25
21
85.5
31
0
6
CONTINUOUS
0
LINE
8
0
62
0
10
164.25
20
85.5
30
0
11
163.75
21
85
31
0
6
CONTINUOUS
0
LINE
8
0
62
0
10
163.75
20
85
30
0
11
162.45
21
87.225
31
0
6
CONTINUOUS
0
LINE
8
0
62
0
10
162.45
20
87.225
30
0
11
161.5962
21
89.26923
31
0
6
CONTINUOUS
0
LINE
8
0
62
0
10
161.5962
20
89.26923
30
0
11
160.3614
21
97.26114
31
0
6
CONTINUOUS
0
LINE
8
0
62
0
10
160.3614
20
97.26114
30
0
11
160
21
100.5
31
0
6
CONTINUOUS
0
LINE
8
0
62
0
10
160
20
100.5
30
0
11
159.75
21
100.75
31
0
6
CONTINUOUS
0
LINE
8
0
62
0
10
159.75
20
100.75
30
0
11
157.7
21
97.025
31
0
6
CONTINUOUS
0
LINE
8
0
62
0
10
157.7
20
97.025
30
0
11
151.75
21
86
31
0
6
CONTINUOUS
0
LINE
8
0
62
0
10
151.75
20
86
30
0
11
151.1618
21
87.97794
31
0
6
CONTINUOUS
0
LINE
8
0
62
0
10
151.1618
20
87.97794
30
0
11
150.3627
21
90.76025
31
0
6
CONTINUOUS
0
LINE
8
0
62
0
10
150.3627
20
90.76025
30
0
11
150
21
93.5
31
0
6
CONTINUOUS
0
LINE
8
0
62
0
10
150
20
93.5
30
0
11
150.1386
21
97.01114
31
0
6
CONTINUOUS
0
LINE
8
0
62
0
10
150.1386
20
97.01114
30
0
11
150.3614
21
99.23886
31
0
6
CONTINUOUS
0
LINE
8
0
62
0
10
150.3614
20
99.23886
30
0
11
151.75
21
104.75
31
0
6
CONTINUOUS
0
LINE
8
0
62
0
10
151.75
20
104.75
30
0
11
151.5
21
105
31
0
6
CONTINUOUS
0
LINE
8
0
62
0
10
151.5
20
105
30
0
11
150.3071
21
104.1877
31
0
6
CONTINUOUS
0
LINE
8
0
62
0
10
150.3071
20
104.1877
30
0
11
147.4429
21
101.5623
31
0
6
CONTINUOUS
0
LINE
8
0
62
0
10
147.4429
20
101.5623
30
0
11
142
21
96.25
31
0
6
CONTINUOUS
0
LINE
8
0
62
0
10
142
20
96.25
30
0
11
141.4423
21
95.03846
31
0
6
CONTINUOUS
0
LINE
8
0
62
0
10
141.4423
20
95.03846
30
0
11
140.25
21
93.25
31
0
6
CONTINUOUS
0
LINE
8
0
62
0
10
140.25
20
93.25
30
0
11
139.5
21
97.25
31
0
6
CONTINUOUS
0
LINE
8
0
62
0
10
139.5
20
97.25
30
0
11
139.5
21
104
31
0
6
CONTINUOUS
0
LINE
8
0
62
0
10
139.5
20
104
30
0
11
139.8577
21
105.9865
31
0
6
CONTINUOUS
0
LINE
8
0
62
0
10
139.8577
20
105.9865
30
0
11
140.425
21
108.025
31
0
6
CONTINUOUS
0
LINE
8
0
62
0
10
140.425
20
108.025
30
0
11
141.56
21
110.705
31
0
6
CONTINUOUS
0
LINE
8
0
62
0
10
141.56
20
110.705
30
0
11
143.75
21
113.75
31
0
6
CONTINUOUS
0
LINE
8
0
62
0
10
143.75
20
113.75
30
0
11
148.275
21
116.2
31
0
6
CONTINUOUS
0
LINE
8
0
62
0
10
148.275
20
116.2
30
0
11
150.7279
21
117.0882
31
0
6
CONTINUOUS
0
LINE
8
0
62
0
10
150.7279
20
117.0882
30
0
11
155.7602
21
117.8873
31
0
6
CONTINUOUS
0
LINE
8
0
62
0
10
155.7602
20
117.8873
30
0
11
158.5135
21
118.1423
31
0
6
CONTINUOUS
0
LINE
8
0
62
0
10
158.5135
20
118.1423
30
0
11
160.725
21
118.55
31
0
6
CONTINUOUS
0
LINE
8
0
62
0
10
160.725
20
118.55
30
0
11
161.25
21
118.75
31
0
6
CONTINUOUS
0
LINE
8
0
62
0
10
161.25
20
118.75
30
0
11
161.8077
21
119.4615
31
0
6
CONTINUOUS
0
LINE
8
0
62
0
10
161.8077
20
119.4615
30
0
11
162.75
21
121.75
31
0
6
CONTINUOUS
0
LINE
8
0
62
0
10
162.75
20
121.75
30
0
11
162.75
21
123
31
0
6
CONTINUOUS
0
LINE
8
0
62
0
10
162.75
20
123
30
0
11
162.2
21
124.475
31
0
6
CONTINUOUS
0
LINE
8
0
62
0
10
162.2
20
124.475
30
0
11
161.06
21
126.295
31
0
6
CONTINUOUS
0
LINE
8
0
62
0
10
161.06
20
126.295
30
0
11
156.5
21
131.25
31
0
6
CONTINUOUS
0
LINE
8
0
62
0
10
156.5
20
131.25
30
0
11
151.2885
21
136.3077
31
0
6
CONTINUOUS
0
LINE
8
0
62
0
10
151.2885
20
136.3077
30
0
11
150
21
137
31
0
6
CONTINUOUS
0
LINE
8
0
62
0
10
150
20
137
30
0
11
148.5
21
137
31
0
6
CONTINUOUS
0
LINE
8
0
62
0
10
148.5
20
137
30
0
11
147.0169
21
136.6486
31
0
6
CONTINUOUS
0
LINE
8
0
62
0
10
147.0169
20
136.6486
30
0
11
146.725
21
136.55
31
0
6
CONTINUOUS
0
LINE
8
0
62
0
10
146.725
20
136.55
30
0
11
144.205
21
135.06
31
0
6
CONTINUOUS
0
LINE
8
0
62
0
10
144.205
20
135.06
30
0
11
142.75
21
134
31
0
6
CONTINUOUS
0
LINE
8
0
62
0
10
142.75
20
134
30
0
11
138.4378
21
129.3059
31
0
6
CONTINUOUS
0
LINE
8
0
62
0
10
138.4378
20
129.3059
30
0
11
136.25
21
126.75
31
0
6
CONTINUOUS
0
LINE
8
0
62
0
10
136.25
20
126.75
30
0
11
124.5
21
116.25
31
0
6
CONTINUOUS
0
LINE
8
0
62
0
10
124.5
20
116.25
30
0
11
123.81
21
115.205
31
0
6
CONTINUOUS
0
LINE
8
0
62
0
10
123.81
20
115.205
30
0
11
121.575
21
110.975
31
0
6
CONTINUOUS
0
LINE
8
0
62
0
10
121.575
20
110.975
30
0
11
121.425
21
110.525
31
0
6
CONTINUOUS
0
LINE
8
0
62
0
10
121.425
20
110.525
30
0
11
120.1486
21
105.5169
31
0
6
CONTINUOUS
0
LINE
8
0
62
0
10
120.1486
20
105.5169
30
0
11
119.62
21
100.2454
31
0
6
CONTINUOUS
0
LINE
8
0
62
0
10
119.62
20
100.2454
30
0
11
119.38
21
94.00462
31
0
6
CONTINUOUS
0
LINE
8
0
62
0
10
119.38
20
94.00462
30
0
11
119.25
21
80.25
31
0
6
CONTINUOUS
0
LINE
8
0
62
0
10
119.25
20
80.25
30
0
11
120.0882
21
76.52206
31
0
6
CONTINUOUS
0
LINE
8
0
62
0
10
120.0882
20
76.52206
30
0
11
120.3382
21
75.52206
31
0
6
CONTINUOUS
0
LINE
8
0
62
0
10
120.3382
20
75.52206
30
0
11
121.2
21
72.725
31
0
6
CONTINUOUS
0
LINE
8
0
62
0
10
121.2
20
72.725
30
0
11
121.95
21
70.975
31
0
6
CONTINUOUS
0
LINE
8
0
62
0
10
121.95
20
70.975
30
0
11
124.31
21
66.795
31
0
6
CONTINUOUS
0
LINE
8
0
62
0
10
124.31
20
66.795
30
0
11
125.69
21
64.955
31
0
6
CONTINUOUS
0
LINE
8
0
62
0
10
125.69
20
64.955
30
0
11
127
21
63.5
31
0
6
CONTINUOUS
0
LINE
8
0
62
0
10
127
20
63.5
30
0
11
128.5512
21
62.31148
31
0
6
CONTINUOUS
0
LINE
8
0
62
0
10
128.5512
20
62.31148
30
0
11
134.5385
21
59.05769
31
0
6
CONTINUOUS
0
LINE
8
0
62
0
10
134.5385
20
59.05769
30
0
11
135.525
21
58.55
31
0
6
CONTINUOUS
0
LINE
8
0
62
0
10
135.525
20
58.55
30
0
11
139.9488
21
55.18852
31
0
6
CONTINUOUS
0
LINE
8
0
62
0
10
139.9488
20
55.18852
30
0
11
144.2988
21
51.56098
31
0
6
CONTINUOUS
0
LINE
8
0
62
0
10
144.2988
20
51.56098
30
0
11
151.775
21
47.3
31
0
6
CONTINUOUS
0
LINE
8
0
62
0
10
151.775
20
47.3
30
0
11
152.775
21
46.8
31
0
6
CONTINUOUS
0
LINE
8
0
62
0
10
152.775
20
46.8
30
0
11
156.795
21
44.06
31
0
6
CONTINUOUS
0
LINE
8
0
62
0
10
156.795
20
44.06
30
0
11
159.25
21
42
31
0
6
CONTINUOUS
0
LINE
8
0
62
0
10
31.75
20
49
30
0
11
37.28846
21
51.94231
31
0
6
CONTINUOUS
0
LINE
8
0
62
0
10
37.28846
20
51.94231
30
0
11
46.525
21
56.675
31
0
6
CONTINUOUS
0
LINE
8
0
62
0
10
46.525
20
56.675
30
0
11
53.02206
21
59.16176
31
0
6
CONTINUOUS
0
LINE
8
0
62
0
10
53.02206
20
59.16176
30
0
11
61.975
21
61.8
31
0
6
CONTINUOUS
0
LINE
8
0
62
0
10
61.975
20
61.8
30
0
11
64.955
21
63.31
31
0
6
CONTINUOUS
0
LINE
8
0
62
0
10
64.955
20
63.31
30
0
11
67.75
21
65.5
31
0
6
CONTINUOUS
0
LINE
8
0
62
0
10
67.75
20
65.5
30
0
11
71.44231
21
70.78846
31
0
6
CONTINUOUS
0
LINE
8
0
62
0
10
71.44231
20
70.78846
30
0
11
74.2
21
76.025
31
0
6
CONTINUOUS
0
LINE
8
0
62
0
10
74.2
20
76.025
30
0
11
75.3
21
78.225
31
0
6
CONTINUOUS
0
LINE
8
0
62
0
10
75.3
20
78.225
30
0
11
76.41176
21
80.52206
31
0
6
CONTINUOUS
0
LINE
8
0
62
0
10
76.41176
20
80.52206
30
0
11
77.75
21
85.5
31
0
6
CONTINUOUS
0
LINE
8
0
62
0
10
77.75
20
85.5
30
0
11
77.75
21
111.75
31
0
6
CONTINUOUS
0
LINE
8
0
62
0
10
77.75
20
111.75
30
0
11
77.16176
21
113.4779
31
0
6
CONTINUOUS
0
LINE
8
0
62
0
10
77.16176
20
113.4779
30
0
11
75.43774
21
115.6929
31
0
6
CONTINUOUS
0
LINE
8
0
62
0
10
75.43774
20
115.6929
30
0
11
70
21
121.75
31
0
6
CONTINUOUS
0
LINE
8
0
62
0
10
70
20
121.75
30
0
11
64.30123
21
127.0615
31
0
6
CONTINUOUS
0
LINE
8
0
62
0
10
64.30123
20
127.0615
30
0
11
55.955
21
133.94
31
0
6
CONTINUOUS
0
LINE
8
0
62
0
10
55.955
20
133.94
30
0
11
52.475
21
136.2
31
0
6
CONTINUOUS
0
LINE
8
0
62
0
10
52.475
20
136.2
30
0
11
51.775
21
136.55
31
0
6
CONTINUOUS
0
LINE
8
0
62
0
10
51.775
20
136.55
30
0
11
44.25
21
139
31
0
6
CONTINUOUS
0
LINE
8
0
62
0
10
44.25
20
139
30
0
11
43.5
21
138.75
31
0
6
CONTINUOUS
0
LINE
8
0
62
0
10
43.5
20
138.75
30
0
11
42.5
21
137.75
31
0
6
CONTINUOUS
0
LINE
8
0
62
0
10
42.5
20
137.75
30
0
11
34.8
21
123.725
31
0
6
CONTINUOUS
0
LINE
8
0
62
0
10
34.8
20
123.725
30
0
11
33.3
21
120.725
31
0
6
CONTINUOUS
0
LINE
8
0
62
0
10
33.3
20
120.725
30
0
11
32.5
21
116.75
31
0
6
CONTINUOUS
0
LINE
8
0
62
0
10
32.5
20
116.75
30
0
11
32.5
21
114.25
31
0
6
CONTINUOUS
0
LINE
8
0
62
0
10
32.5
20
114.25
30
0
11
32.855
21
112.515
31
0
6
CONTINUOUS
0
LINE
8
0
62
0
10
32.855
20
112.515
30
0
11
32.95
21
112.225
31
0
6
CONTINUOUS
0
LINE
8
0
62
0
10
32.95
20
112.225
30
0
11
33.25
21
111.5
31
0
6
CONTINUOUS
0
LINE
8
0
62
0
10
33.25
20
111.5
30
0
11
35
21
110.25
31
0
6
CONTINUOUS
0
LINE
8
0
62
0
10
35
20
110.25
30
0
11
36.51923
21
110.6538
31
0
6
CONTINUOUS
0
LINE
8
0
62
0
10
36.51923
20
110.6538
30
0
11
38.75
21
111.25
31
0
6
CONTINUOUS
0
LINE
8
0
62
0
10
38.75
20
111.25
30
0
11
40.76689
21
111.1014
31
0
6
CONTINUOUS
0
LINE
8
0
62
0
10
40.76689
20
111.1014
30
0
11
42.475
21
110.7
31
0
6
CONTINUOUS
0
LINE
8
0
62
0
10
42.475
20
110.7
30
0
11
42.775
21
110.55
31
0
6
CONTINUOUS
0
LINE
8
0
62
0
10
42.775
20
110.55
30
0
11
45.205
21
109.19
31
0
6
CONTINUOUS
0
LINE
8
0
62
0
10
45.205
20
109.19
30
0
11
50.25
21
105.5
31
0
6
CONTINUOUS
0
LINE
8
0
62
0
10
50.25
20
105.5
30
0
11
51.06
21
104.545
31
0
6
CONTINUOUS
0
LINE
8
0
62
0
10
51.06
20
104.545
30
0
11
51.69
21
103.705
31
0
6
CONTINUOUS
0
LINE
8
0
62
0
10
51.69
20
103.705
30
0
11
52.95
21
101.225
31
0
6
CONTINUOUS
0
LINE
8
0
62
0
10
52.95
20
101.225
30
0
11
53.05
21
101.025
31
0
6
CONTINUOUS
0
LINE
8
0
62
0
10
53.05
20
101.025
30
0
11
54.5
21
96.75
31
0
6
CONTINUOUS
0
LINE
8
0
62
0
10
54.5
20
96.75
30
0
11
54.25
21
96.5
31
0
6
CONTINUOUS
0
LINE
8
0
62
0
10
54.25
20
96.5
30
0
11
53.47794
21
96.66176
31
0
6
CONTINUOUS
0
LINE
8
0
62
0
10
53.47794
20
96.66176
30
0
11
52.77206
21
96.83824
31
0
6
CONTINUOUS
0
LINE
8
0
62
0
10
52.77206
20
96.83824
30
0
11
49.73886
21
97.38861
31
0
6
CONTINUOUS
0
LINE
8
0
62
0
10
49.73886
20
97.38861
30
0
11
43.73975
21
97.88729
31
0
6
CONTINUOUS
0
LINE
8
0
62
0
10
43.73975
20
97.88729
30
0
11
40.775
21
98.3
31
0
6
CONTINUOUS
0
LINE
8
0
62
0
10
40.775
20
98.3
30
0
11
39.98077
21
98.65385
31
0
6
CONTINUOUS
0
LINE
8
0
62
0
10
39.98077
20
98.65385
30
0
11
38.25
21
99
31
0
6
CONTINUOUS
0
LINE
8
0
62
0
10
38.25
20
99
30
0
11
38
21
98.75
31
0
6
CONTINUOUS
0
LINE
8
0
62
0
10
38
20
98.75
30
0
11
38.69231
21
97.71154
31
0
6
CONTINUOUS
0
LINE
8
0
62
0
10
38.69231
20
97.71154
30
0
11
40.95
21
93.475
31
0
6
CONTINUOUS
0
LINE
8
0
62
0
10
40.95
20
93.475
30
0
11
42.2
21
90.975
31
0
6
CONTINUOUS
0
LINE
8
0
62
0
10
42.2
20
90.975
30
0
11
45.06
21
85.545
31
0
6
CONTINUOUS
0
LINE
8
0
62
0
10
45.06
20
85.545
30
0
11
47.3
21
82.525
31
0
6
CONTINUOUS
0
LINE
8
0
62
0
10
47.3
20
82.525
30
0
11
47.5
21
82.25
31
0
6
CONTINUOUS
0
LINE
8
0
62
0
10
47.5
20
82.25
30
0
11
47.25
21
82
31
0
6
CONTINUOUS
0
LINE
8
0
62
0
10
47.25
20
82
30
0
11
44.23077
21
82.40385
31
0
6
CONTINUOUS
0
LINE
8
0
62
0
10
44.23077
20
82.40385
30
0
11
43.26923
21
82.59615
31
0
6
CONTINUOUS
0
LINE
8
0
62
0
10
43.26923
20
82.59615
30
0
11
41.275
21
83.55
31
0
6
CONTINUOUS
0
LINE
8
0
62
0
10
41.275
20
83.55
30
0
11
40.775
21
83.8
31
0
6
CONTINUOUS
0
LINE
8
0
62
0
10
40.775
20
83.8
30
0
11
36.30819
21
87.31235
31
0
6
CONTINUOUS
0
LINE
8
0
62
0
10
36.30819
20
87.31235
30
0
11
32.75
21
90.75
31
0
6
CONTINUOUS
0
LINE
8
0
62
0
10
32.75
20
90.75
30
0
11
32.5
21
90.5
31
0
6
CONTINUOUS
0
LINE
8
0
62
0
10
32.5
20
90.5
30
0
11
33.66176
21
85.97794
31
0
6
CONTINUOUS
0
LINE
8
0
62
0
10
33.66176
20
85.97794
30
0
11
34.175
21
84.225
31
0
6
CONTINUOUS
0
LINE
8
0
62
0
10
34.175
20
84.225
30
0
11
37
21
76.25
31
0
6
CONTINUOUS
0
LINE
8
0
62
0
10
37
20
76.25
30
0
11
36.75
21
76
31
0
6
CONTINUOUS
0
LINE
8
0
62
0
10
36.75
20
76
30
0
11
36
21
76
31
0
6
CONTINUOUS
0
LINE
8
0
62
0
10
36
20
76
30
0
11
35.275
21
76.325
31
0
6
CONTINUOUS
0
LINE
8
0
62
0
10
35.275
20
76.325
30
0
11
34.975
21
76.45
31
0
6
CONTINUOUS
0
LINE
8
0
62
0
10
34.975
20
76.45
30
0
11
32.75
21
77.5
31
0
6
CONTINUOUS
0
LINE
8
0
62
0
10
32.75
20
77.5
30
0
11
29.69
21
80.705
31
0
6
CONTINUOUS
0
LINE
8
0
62
0
10
29.69
20
80.705
30
0
11
26.25
21
85.75
31
0
6
CONTINUOUS
0
LINE
8
0
62
0
10
26.25
20
85.75
30
0
11
26
21
85.5
31
0
6
CONTINUOUS
0
LINE
8
0
62
0
10
26
20
85.5
30
0
11
25.8873
21
83.01025
31
0
6
CONTINUOUS
0
LINE
8
0
62
0
10
25.8873
20
83.01025
30
0
11
25.75
21
76.25
31
0
6
CONTINUOUS
0
LINE
8
0
62
0
10
25.75
20
76.25
30
0
11
26.7
21
73.225
31
0
6
CONTINUOUS
0
LINE
8
0
62
0
10
26.7
20
73.225
30
0
11
27
21
72.5
31
0
6
CONTINUOUS
0
LINE
8
0
62
0
10
27
20
72.5
30
0
11
26.75
21
72.25
31
0
6
CONTINUOUS
0
LINE
8
0
62
0
10
26.75
20
72.25
30
0
11
25.225
21
72.95
31
0
6
CONTINUOUS
0
LINE
8
0
62
0
10
25.225
20
72.95
30
0
11
23.25
21
74.25
31
0
6
CONTINUOUS
0
LINE
8
0
62
0
10
23.25
20
74.25
30
0
11
21.75
21
75.75
31
0
6
CONTINUOUS
0
LINE
8
0
62
0
10
21.75
20
75.75
30
0
11
20.86538
21
77.07692
31
0
6
CONTINUOUS
0
LINE
8
0
62
0
10
20.86538
20
77.07692
30
0
11
19.575
21
82.025
31
0
6
CONTINUOUS
0
LINE
8
0
62
0
10
19.575
20
82.025
30
0
11
19.3
21
82.775
31
0
6
CONTINUOUS
0
LINE
8
0
62
0
10
19.3
20
82.775
30
0
11
18
21
85
31
0
6
CONTINUOUS
0
LINE
8
0
62
0
10
18
20
85
30
0
11
16.25
21
86.5
31
0
6
CONTINUOUS
0
LINE
8
0
62
0
10
16.25
20
86.5
30
0
11
16
21
86.25
31
0
6
CONTINUOUS
0
LINE
8
0
62
0
10
16
20
86.25
30
0
11
16.90385
21
82.23077
31
0
6
CONTINUOUS
0
LINE
8
0
62
0
10
16.90385
20
82.23077
30
0
11
17.34615
21
80.01923
31
0
6
CONTINUOUS
0
LINE
8
0
62
0
10
17.34615
20
80.01923
30
0
11
19.325
21
72.525
31
0
6
CONTINUOUS
0
LINE
8
0
62
0
10
19.325
20
72.525
30
0
11
20.33824
21
69.02206
31
0
6
CONTINUOUS
0
LINE
8
0
62
0
10
20.33824
20
69.02206
30
0
11
22.05
21
65.025
31
0
6
CONTINUOUS
0
LINE
8
0
62
0
10
22.05
20
65.025
30
0
11
22.925
21
63.225
31
0
6
CONTINUOUS
0
LINE
8
0
62
0
10
22.925
20
63.225
30
0
11
25.30769
21
58.28846
31
0
6
CONTINUOUS
0
LINE
8
0
62
0
10
25.30769
20
58.28846
30
0
11
26.2
21
56.725
31
0
6
CONTINUOUS
0
LINE
8
0
62
0
10
26.2
20
56.725
30
0
11
29.56
21
51.045
31
0
6
CONTINUOUS
0
LINE
8
0
62
0
10
29.56
20
51.045
30
0
11
31
21
49
31
0
6
CONTINUOUS
0
LINE
8
0
62
0
10
31
20
49
30
0
11
31.75
21
49
31
0
6
CONTINUOUS
0
LINE
8
0
62
0
10
96
20
15
30
0
11
106.9972
21
15.3721
31
0
6
CONTINUOUS
0
LINE
8
0
62
0
10
106.9972
20
15.3721
30
0
11
109.9831
21
15.85135
31
0
6
CONTINUOUS
0
LINE
8
0
62
0
10
109.9831
20
15.85135
30
0
11
110.2721
21
15.91176
31
0
6
CONTINUOUS
0
LINE
8
0
62
0
10
110.2721
20
15.91176
30
0
11
122.7279
21
18.83824
31
0
6
CONTINUOUS
0
LINE
8
0
62
0
10
122.7279
20
18.83824
30
0
11
124.5
21
19.75
31
0
6
CONTINUOUS
0
LINE
8
0
62
0
10
124.5
20
19.75
30
0
11
121.95
21
27.225
31
0
6
CONTINUOUS
0
LINE
8
0
62
0
10
121.95
20
27.225
30
0
11
121.8
21
27.525
31
0
6
CONTINUOUS
0
LINE
8
0
62
0
10
121.8
20
27.525
30
0
11
120.0618
21
29.80294
31
0
6
CONTINUOUS
0
LINE
8
0
62
0
10
120.0618
20
29.80294
30
0
11
118.295
21
31.56
31
0
6
CONTINUOUS
0
LINE
8
0
62
0
10
118.295
20
31.56
30
0
11
115.9615
21
33.19231
31
0
6
CONTINUOUS
0
LINE
8
0
62
0
10
115.9615
20
33.19231
30
0
11
110.4471
21
37.18824
31
0
6
CONTINUOUS
0
LINE
8
0
62
0
10
110.4471
20
37.18824
30
0
11
108.1948
21
39.18793
31
0
6
CONTINUOUS
0
LINE
8
0
62
0
10
108.1948
20
39.18793
30
0
11
105.275
21
41.3
31
0
6
CONTINUOUS
0
LINE
8
0
62
0
10
105.275
20
41.3
30
0
11
104.2115
21
41.94231
31
0
6
CONTINUOUS
0
LINE
8
0
62
0
10
104.2115
20
41.94231
30
0
11
101.4808
21
43.15385
31
0
6
CONTINUOUS
0
LINE
8
0
62
0
10
101.4808
20
43.15385
30
0
11
98.5
21
43.75
31
0
6
CONTINUOUS
0
LINE
8
0
62
0
10
98.5
20
43.75
30
0
11
94.5
21
43.75
31
0
6
CONTINUOUS
0
LINE
8
0
62
0
10
94.5
20
43.75
30
0
11
91.025
21
42.45
31
0
6
CONTINUOUS
0
LINE
8
0
62
0
10
91.025
20
42.45
30
0
11
89.725
21
41.8
31
0
6
CONTINUOUS
0
LINE
8
0
62
0
10
89.725
20
41.8
30
0
11
88.25
21
41
31
0
6
CONTINUOUS
0
LINE
8
0
62
0
10
88.25
20
41
30
0
11
85.44231
21
38.03846
31
0
6
CONTINUOUS
0
LINE
8
0
62
0
10
85.44231
20
38.03846
30
0
11
81.18902
21
31.54878
31
0
6
CONTINUOUS
0
LINE
8
0
62
0
10
81.18902
20
31.54878
30
0
11
80.31098
21
30.45122
31
0
6
CONTINUOUS
0
LINE
8
0
62
0
10
80.31098
20
30.45122
30
0
11
74
21
24
31
0
6
CONTINUOUS
0
LINE
8
0
62
0
10
74
20
24
30
0
11
69.25
21
20
31
0
6
CONTINUOUS
0
LINE
8
0
62
0
10
69.25
20
20
30
0
11
69.5
21
19.75
31
0
6
CONTINUOUS
0
LINE
8
0
62
0
10
69.5
20
19.75
30
0
11
72.725
21
18.925
31
0
6
CONTINUOUS
0
LINE
8
0
62
0
10
72.725
20
18.925
30
0
11
80.26689
21
16.85135
31
0
6
CONTINUOUS
0
LINE
8
0
62
0
10
80.26689
20
16.85135
30
0
11
82.98311
21
16.39865
31
0
6
CONTINUOUS
0
LINE
8
0
62
0
10
82.98311
20
16.39865
30
0
11
92.23654
21
15.14231
31
0
6
CONTINUOUS
0
LINE
8
0
62
0
10
92.23654
20
15.14231
30
0
11
96
21
15
31
0
6
CONTINUOUS
0
LINE
8
0
62
0
10
75.25
20
133.25
30
0
11
75.5
21
133.5
31
0
6
CONTINUOUS
0
LINE
8
0
62
0
10
75.5
20
133.5
30
0
11
74.86615
21
147.5077
31
0
6
CONTINUOUS
0
LINE
8
0
62
0
10
74.86615
20
147.5077
30
0
11
74.63385
21
150.9923
31
0
6
CONTINUOUS
0
LINE
8
0
62
0
10
74.63385
20
150.9923
30
0
11
73.90385
21
154.2308
31
0
6
CONTINUOUS
0
LINE
8
0
62
0
10
73.90385
20
154.2308
30
0
11
73.08824
21
158.0221
31
0
6
CONTINUOUS
0
LINE
8
0
62
0
10
73.08824
20
158.0221
30
0
11
71.2
21
163.725
31
0
6
CONTINUOUS
0
LINE
8
0
62
0
10
71.2
20
163.725
30
0
11
68.19231
21
169.4615
31
0
6
CONTINUOUS
0
LINE
8
0
62
0
10
68.19231
20
169.4615
30
0
11
65.5
21
173.5
31
0
6
CONTINUOUS
0
LINE
8
0
62
0
10
65.5
20
173.5
30
0
11
64.5
21
173.5
31
0
6
CONTINUOUS
0
LINE
8
0
62
0
10
64.5
20
173.5
30
0
11
62.525
21
172.45
31
0
6
CONTINUOUS
0
LINE
8
0
62
0
10
62.525
20
172.45
30
0
11
62.225
21
172.3
31
0
6
CONTINUOUS
0
LINE
8
0
62
0
10
62.225
20
172.3
30
0
11
51.28846
21
165.9423
31
0
6
CONTINUOUS
0
LINE
8
0
62
0
10
51.28846
20
165.9423
30
0
11
50.71154
21
165.5577
31
0
6
CONTINUOUS
0
LINE
8
0
62
0
10
50.71154
20
165.5577
30
0
11
45.19877
21
161.3115
31
0
6
CONTINUOUS
0
LINE
8
0
62
0
10
45.19877
20
161.3115
30
0
11
41
21
157.75
31
0
6
CONTINUOUS
0
LINE
8
0
62
0
10
41
20
157.75
30
0
11
37.25
21
154
31
0
6
CONTINUOUS
0
LINE
8
0
62
0
10
37.25
20
154
30
0
11
44.725
21
150.95
31
0
6
CONTINUOUS
0
LINE
8
0
62
0
10
44.725
20
150.95
30
0
11
45.025
21
150.8
31
0
6
CONTINUOUS
0
LINE
8
0
62
0
10
45.025
20
150.8
30
0
11
66.21154
21
138.9423
31
0
6
CONTINUOUS
0
LINE
8
0
62
0
10
66.21154
20
138.9423
30
0
11
70.03846
21
136.3077
31
0
6
CONTINUOUS
0
LINE
8
0
62
0
10
70.03846
20
136.3077
30
0
11
72.975
21
134.45
31
0
6
CONTINUOUS
0
LINE
8
0
62
0
10
72.975
20
134.45
30
0
11
75.25
21
133.25
31
0
6
CONTINUOUS
0
LINE
8
0
62
0
10
123
20
133
30
0
11
133.2885
21
140.1923
31
0
6
CONTINUOUS
0
LINE
8
0
62
0
10
133.2885
20
140.1923
30
0
11
153.275
21
150.7
31
0
6
CONTINUOUS
0
LINE
8
0
62
0
10
153.275
20
150.7
30
0
11
155.725
21
151.825
31
0
6
CONTINUOUS
0
LINE
8
0
62
0
10
155.725
20
151.825
30
0
11
160
21
152.75
31
0
6
CONTINUOUS
0
LINE
8
0
62
0
10
160
20
152.75
30
0
11
151.6911
21
160.6876
31
0
6
CONTINUOUS
0
LINE
8
0
62
0
10
151.6911
20
160.6876
30
0
11
149.705
21
162.19
31
0
6
CONTINUOUS
0
LINE
8
0
62
0
10
149.705
20
162.19
30
0
11
148.4512
21
163.189
31
0
6
CONTINUOUS
0
LINE
8
0
62
0
10
148.4512
20
163.189
30
0
11
143.2115
21
166.9423
31
0
6
CONTINUOUS
0
LINE
8
0
62
0
10
143.2115
20
166.9423
30
0
11
133.5
21
172.5
31
0
6
CONTINUOUS
0
LINE
8
0
62
0
10
133.5
20
172.5
30
0
11
126.2
21
157.275
31
0
6
CONTINUOUS
0
LINE
8
0
62
0
10
126.2
20
157.275
30
0
11
126.05
21
156.975
31
0
6
CONTINUOUS
0
LINE
8
0
62
0
10
126.05
20
156.975
30
0
11
125.1618
21
154.7721
31
0
6
CONTINUOUS
0
LINE
8
0
62
0
10
125.1618
20
154.7721
30
0
11
124.9038
21
153.5192
31
0
6
CONTINUOUS
0
LINE
8
0
62
0
10
124.9038
20
153.5192
30
0
11
123.3627
21
143.4898
31
0
6
CONTINUOUS
0
LINE
8
0
62
0
10
123.3627
20
143.4898
30
0
11
123.1373
21
141.0102
31
0
6
CONTINUOUS
0
LINE
8
0
62
0
10
123.1373
20
141.0102
30
0
11
122.5625
21
133.0625
31
0
6
CONTINUOUS
0
LINE
8
0
62
0
10
122.5625
20
133.0625
30
0
11
123
21
133
31
0
6
CONTINUOUS
0
LINE
8
0
62
0
10
110.5
20
76.5
30
0
11
110.6538
21
76.76923
31
0
6
CONTINUOUS
0
LINE
8
0
62
0
10
110.6538
20
76.76923
30
0
11
113.75
21
103.5
31
0
6
CONTINUOUS
0
LINE
8
0
62
0
10
113.75
20
103.5
30
0
11
113.25
21
103.75
31
0
6
CONTINUOUS
0
LINE
8
0
62
0
10
113.25
20
103.75
30
0
11
111.439
21
101.2988
31
0
6
CONTINUOUS
0
LINE
8
0
62
0
10
111.439
20
101.2988
30
0
11
108.5
21
97.5
31
0
6
CONTINUOUS
0
LINE
8
0
62
0
10
108.5
20
97.5
30
0
11
104.6923
21
102.9615
31
0
6
CONTINUOUS
0
LINE
8
0
62
0
10
104.6923
20
102.9615
30
0
11
103.5
21
104.75
31
0
6
CONTINUOUS
0
LINE
8
0
62
0
10
103.5
20
104.75
30
0
11
103.25
21
104.75
31
0
6
CONTINUOUS
0
LINE
8
0
62
0
10
103.25
20
104.75
30
0
11
101.6923
21
102.2885
31
0
6
CONTINUOUS
0
LINE
8
0
62
0
10
101.6923
20
102.2885
30
0
11
99
21
98
31
0
6
CONTINUOUS
0
LINE
8
0
62
0
10
99
20
98
30
0
11
98.75
21
98
31
0
6
CONTINUOUS
0
LINE
8
0
62
0
10
98.75
20
98
30
0
11
98.44
21
98.455
31
0
6
CONTINUOUS
0
LINE
8
0
62
0
10
98.44
20
98.455
30
0
11
94
21
104.5
31
0
6
CONTINUOUS
0
LINE
8
0
62
0
10
94
20
104.5
30
0
11
93.45
21
103.525
31
0
6
CONTINUOUS
0
LINE
8
0
62
0
10
93.45
20
103.525
30
0
11
90
21
96.25
31
0
6
CONTINUOUS
0
LINE
8
0
62
0
10
90
20
96.25
30
0
11
89.75
21
96.25
31
0
6
CONTINUOUS
0
LINE
8
0
62
0
10
89.75
20
96.25
30
0
11
84.25
21
103.5
31
0
6
CONTINUOUS
0
LINE
8
0
62
0
10
84.25
20
103.5
30
0
11
83.75
21
103.25
31
0
6
CONTINUOUS
0
LINE
8
0
62
0
10
83.75
20
103.25
30
0
11
85.7
21
77.225
31
0
6
CONTINUOUS
0
LINE
8
0
62
0
10
85.7
20
77.225
30
0
11
86
21
76.75
31
0
6
CONTINUOUS
0
LINE
8
0
62
0
10
86
20
76.75
30
0
11
88.05
21
80.725
31
0
6
CONTINUOUS
0
LINE
8
0
62
0
10
88.05
20
80.725
30
0
11
88.175
21
81.025
31
0
6
CONTINUOUS
0
LINE
8
0
62
0
10
88.175
20
81.025
30
0
11
89
21
83.25
31
0
6
CONTINUOUS
0
LINE
8
0
62
0
10
89
20
83.25
30
0
11
89.5
21
83.75
31
0
6
CONTINUOUS
0
LINE
8
0
62
0
10
89.5
20
83.75
30
0
11
93.5
21
78.75
31
0
6
CONTINUOUS
0
LINE
8
0
62
0
10
93.5
20
78.75
30
0
11
94
21
78.5
31
0
6
CONTINUOUS
0
LINE
8
0
62
0
10
94
20
78.5
30
0
11
97.55
21
84.225
31
0
6
CONTINUOUS
0
LINE
8
0
62
0
10
97.55
20
84.225
30
0
11
98.25
21
85.25
31
0
6
CONTINUOUS
0
LINE
8
0
62
0
10
98.25
20
85.25
30
0
11
98.5
21
85.25
31
0
6
CONTINUOUS
0
LINE
8
0
62
0
10
98.5
20
85.25
30
0
11
102.05
21
79.525
31
0
6
CONTINUOUS
0
LINE
8
0
62
0
10
102.05
20
79.525
30
0
11
102.75
21
78.5
31
0
6
CONTINUOUS
0
LINE
8
0
62
0
10
102.75
20
78.5
30
0
11
107.25
21
82.75
31
0
6
CONTINUOUS
0
LINE
8
0
62
0
10
107.25
20
82.75
30
0
11
110.5
21
76.5
31
0
6
CONTINUOUS
0
LINE
8
0
62
0
10
61.25
20
23.5
30
0
11
61.45
21
23.775
31
0
6
CONTINUOUS
0
LINE
8
0
62
0
10
61.45
20
23.775
30
0
11
62.14865
21
27.51689
31
0
6
CONTINUOUS
0
LINE
8
0
62
0
10
62.14865
20
27.51689
30
0
11
62.35135
21
28.73311
31
0
6
CONTINUOUS
0
LINE
8
0
62
0
10
62.35135
20
28.73311
30
0
11
63.55769
21
31.21154
31
0
6
CONTINUOUS
0
LINE
8
0
62
0
10
63.55769
20
31.21154
30
0
11
65.44231
21
34.03846
31
0
6
CONTINUOUS
0
LINE
8
0
62
0
10
65.44231
20
34.03846
30
0
11
69.55
21
40.225
31
0
6
CONTINUOUS
0
LINE
8
0
62
0
10
69.55
20
40.225
30
0
11
69.90385
21
41.26923
31
0
6
CONTINUOUS
0
LINE
8
0
62
0
10
69.90385
20
41.26923
30
0
11
70.25
21
43.25
31
0
6
CONTINUOUS
0
LINE
8
0
62
0
10
70.25
20
43.25
30
0
11
69.5
21
44.5
31
0
6
CONTINUOUS
0
LINE
8
0
62
0
10
69.5
20
44.5
30
0
11
67.775
21
45.55
31
0
6
CONTINUOUS
0
LINE
8
0
62
0
10
67.775
20
45.55
30
0
11
65.75
21
46
31
0
6
CONTINUOUS
0
LINE
8
0
62
0
10
65.75
20
46
30
0
11
63.75
21
46
31
0
6
CONTINUOUS
0
LINE
8
0
62
0
10
63.75
20
46
30
0
11
62.015
21
45.645
31
0
6
CONTINUOUS
0
LINE
8
0
62
0
10
62.015
20
45.645
30
0
11
59.77206
21
45.16176
31
0
6
CONTINUOUS
0
LINE
8
0
62
0
10
59.77206
20
45.16176
30
0
11
51.725
21
42.55
31
0
6
CONTINUOUS
0
LINE
8
0
62
0
10
51.725
20
42.55
30
0
11
49.23311
21
41.85135
31
0
6
CONTINUOUS
0
LINE
8
0
62
0
10
49.23311
20
41.85135
30
0
11
39
21
40.25
31
0
6
CONTINUOUS
0
LINE
8
0
62
0
10
39
20
40.25
30
0
11
38.75
21
40
31
0
6
CONTINUOUS
0
LINE
8
0
62
0
10
38.75
20
40
30
0
11
43.44877
21
35.68852
31
0
6
CONTINUOUS
0
LINE
8
0
62
0
10
43.44877
20
35.68852
30
0
11
44.80123
21
34.56148
31
0
6
CONTINUOUS
0
LINE
8
0
62
0
10
44.80123
20
34.56148
30
0
11
53.78846
21
27.80769
31
0
6
CONTINUOUS
0
LINE
8
0
62
0
10
53.78846
20
27.80769
30
0
11
61.25
21
23.5
31
0
6
CONTINUOUS
0
LINE
8
0
62
0
10
137
20
24.75
30
0
11
140.275
21
26.7
31
0
6
CONTINUOUS
0
LINE
8
0
62
0
10
140.275
20
26.7
30
0
11
144.705
21
29.56
31
0
6
CONTINUOUS
0
LINE
8
0
62
0
10
144.705
20
29.56
30
0
11
150.045
21
33.44
31
0
6
CONTINUOUS
0
LINE
8
0
62
0
10
150.045
20
33.44
30
0
11
153
21
35.75
31
0
6
CONTINUOUS
0
LINE
8
0
62
0
10
153
20
35.75
30
0
11
154.8
21
37.725
31
0
6
CONTINUOUS
0
LINE
8
0
62
0
10
154.8
20
37.725
30
0
11
155
21
38
31
0
6
CONTINUOUS
0
LINE
8
0
62
0
10
155
20
38
30
0
11
154.5
21
38.5
31
0
6
CONTINUOUS
0
LINE
8
0
62
0
10
154.5
20
38.5
30
0
11
153.7721
21
38.58824
31
0
6
CONTINUOUS
0
LINE
8
0
62
0
10
153.7721
20
38.58824
30
0
11
145.025
21
41.825
31
0
6
CONTINUOUS
0
LINE
8
0
62
0
10
145.025
20
41.825
30
0
11
143.775
21
42.3
31
0
6
CONTINUOUS
0
LINE
8
0
62
0
10
143.775
20
42.3
30
0
11
139.0221
21
43.83824
31
0
6
CONTINUOUS
0
LINE
8
0
62
0
10
139.0221
20
43.83824
30
0
11
136.7721
21
44.33824
31
0
6
CONTINUOUS
0
LINE
8
0
62
0
10
136.7721
20
44.33824
30
0
11
134.5
21
45
31
0
6
CONTINUOUS
0
LINE
8
0
62
0
10
134.5
20
45
30
0
11
131.4808
21
44.59615
31
0
6
CONTINUOUS
0
LINE
8
0
62
0
10
131.4808
20
44.59615
30
0
11
128.525
21
43.675
31
0
6
CONTINUOUS
0
LINE
8
0
62
0
10
128.525
20
43.675
30
0
11
127
21
42.75
31
0
6
CONTINUOUS
0
LINE
8
0
62
0
10
127
20
42.75
30
0
11
127
21
42.5
31
0
6
CONTINUOUS
0
LINE
8
0
62
0
10
127
20
42.5
30
0
11
127.455
21
42.19
31
0
6
CONTINUOUS
0
LINE
8
0
62
0
10
127.455
20
42.19
30
0
11
128.295
21
41.56
31
0
6
CONTINUOUS
0
LINE
8
0
62
0
10
128.295
20
41.56
30
0
11
131
21
39.25
31
0
6
CONTINUOUS
0
LINE
8
0
62
0
10
131
20
39.25
30
0
11
132.7
21
36.225
31
0
6
CONTINUOUS
0
LINE
8
0
62
0
10
132.7
20
36.225
30
0
11
137
21
24.75
31
0
6
CONTINUOUS
0
LINE
8
0
62
0
10
99
20
165.25
30
0
11
104.44
21
172.545
31
0
6
CONTINUOUS
0
LINE
8
0
62
0
10
104.44
20
172.545
30
0
11
108.1923
21
178.0385
31
0
6
CONTINUOUS
0
LINE
8
0
62
0
10
108.1923
20
178.0385
30
0
11
109
21
179.25
31
0
6
CONTINUOUS
0
LINE
8
0
62
0
10
109
20
179.25
30
0
11
108.5
21
179.75
31
0
6
CONTINUOUS
0
LINE
8
0
62
0
10
108.5
20
179.75
30
0
11
107.2669
21
179.8514
31
0
6
CONTINUOUS
0
LINE
8
0
62
0
10
107.2669
20
179.8514
30
0
11
104.5
21
180.25
31
0
6
CONTINUOUS
0
LINE
8
0
62
0
10
104.5
20
180.25
30
0
11
91.75
21
180.25
31
0
6
CONTINUOUS
0
LINE
8
0
62
0
10
91.75
20
180.25
30
0
11
88
21
179.75
31
0
6
CONTINUOUS
0
LINE
8
0
62
0
10
88
20
179.75
30
0
11
87.75
21
179.5
31
0
6
CONTINUOUS
0
LINE
8
0
62
0
10
87.75
20
179.5
30
0
11
89.05
21
177.275
31
0
6
CONTINUOUS
0
LINE
8
0
62
0
10
89.05
20
177.275
30
0
11
90.95
21
173.725
31
0
6
CONTINUOUS
0
LINE
8
0
62
0
10
90.95
20
173.725
30
0
11
93.75
21
168.75
31
0
6
CONTINUOUS
0
LINE
8
0
62
0
10
93.75
20
168.75
30
0
11
96.05123
21
166.8115
31
0
6
CONTINUOUS
0
LINE
8
0
62
0
10
96.05123
20
166.8115
30
0
11
98.275
21
165.55
31
0
6
CONTINUOUS
0
LINE
8
0
62
0
10
98.275
20
165.55
30
0
11
99
21
165.25
31
0
6
CONTINUOUS
0
LINE
8
0
62
0
10
179.5
20
109.25
30
0
11
179.75
21
109.5
31
0
6
CONTINUOUS
0
LINE
8
0
62
0
10
179.75
20
109.5
30
0
11
179.1014
21
114.0169
31
0
6
CONTINUOUS
0
LINE
8
0
62
0
10
179.1014
20
114.0169
30
0
11
178.8986
21
115.2331
31
0
6
CONTINUOUS
0
LINE
8
0
62
0
10
178.8986
20
115.2331
30
0
11
176.925
21
122.225
31
0
6
CONTINUOUS
0
LINE
8
0
62
0
10
176.925
20
122.225
30
0
11
175.925
21
125.475
31
0
6
CONTINUOUS
0
LINE
8
0
62
0
10
175.925
20
125.475
30
0
11
174.3
21
129.775
31
0
6
CONTINUOUS
0
LINE
8
0
62
0
10
174.3
20
129.775
30
0
11
170.3
21
137.775
31
0
6
CONTINUOUS
0
LINE
8
0
62
0
10
170.3
20
137.775
30
0
11
166.25
21
144.25
31
0
6
CONTINUOUS
0
LINE
8
0
62
0
10
166.25
20
144.25
30
0
11
166
21
144
31
0
6
CONTINUOUS
0
LINE
8
0
62
0
10
166
20
144
30
0
11
166.4038
21
141.4808
31
0
6
CONTINUOUS
0
LINE
8
0
62
0
10
166.4038
20
141.4808
30
0
11
166.5962
21
140.5192
31
0
6
CONTINUOUS
0
LINE
8
0
62
0
10
166.5962
20
140.5192
30
0
11
168.6618
21
129.9779
31
0
6
CONTINUOUS
0
LINE
8
0
62
0
10
168.6618
20
129.9779
30
0
11
169.575
21
126.775
31
0
6
CONTINUOUS
0
LINE
8
0
62
0
10
169.575
20
126.775
30
0
11
171.7
21
120.725
31
0
6
CONTINUOUS
0
LINE
8
0
62
0
10
171.7
20
120.725
30
0
11
173.2
21
117.975
31
0
6
CONTINUOUS
0
LINE
8
0
62
0
10
173.2
20
117.975
30
0
11
175.94
21
113.955
31
0
6
CONTINUOUS
0
LINE
8
0
62
0
10
175.94
20
113.955
30
0
11
179.5
21
109.25
31
0
6
CONTINUOUS
0
LINE
8
0
62
0
10
15.75
20
100.75
30
0
11
19.575
21
113.225
31
0
6
CONTINUOUS
0
LINE
8
0
62
0
10
19.575
20
113.225
30
0
11
24.55
21
122.725
31
0
6
CONTINUOUS
0
LINE
8
0
62
0
10
24.55
20
122.725
30
0
11
25.3
21
124.225
31
0
6
CONTINUOUS
0
LINE
8
0
62
0
10
25.3
20
124.225
30
0
11
27.395
21
129.265
31
0
6
CONTINUOUS
0
LINE
8
0
62
0
10
27.395
20
129.265
30
0
11
27.605
21
130.735
31
0
6
CONTINUOUS
0
LINE
8
0
62
0
10
27.605
20
130.735
30
0
11
28
21
134.75
31
0
6
CONTINUOUS
0
LINE
8
0
62
0
10
28
20
134.75
30
0
11
28
21
141
31
0
6
CONTINUOUS
0
LINE
8
0
62
0
10
28
20
141
30
0
11
27.75
21
141.25
31
0
6
CONTINUOUS
0
LINE
8
0
62
0
10
27.75
20
141.25
30
0
11
27.45
21
140.775
31
0
6
CONTINUOUS
0
LINE
8
0
62
0
10
27.45
20
140.775
30
0
11
22.8
21
131.725
31
0
6
CONTINUOUS
0
LINE
8
0
62
0
10
22.8
20
131.725
30
0
11
19.575
21
123.475
31
0
6
CONTINUOUS
0
LINE
8
0
62
0
10
19.575
20
123.475
30
0
11
18.675
21
121.025
31
0
6
CONTINUOUS
0
LINE
8
0
62
0
10
18.675
20
121.025
30
0
11
16.35976
21
111.2378
31
0
6
CONTINUOUS
0
LINE
8
0
62
0
10
16.35976
20
111.2378
30
0
11
16.14024
21
109.2622
31
0
6
CONTINUOUS
0
LINE
8
0
62
0
10
16.14024
20
109.2622
30
0
11
15.5
21
104.75
31
0
6
CONTINUOUS
0
LINE
8
0
62
0
10
15.5
20
104.75
30
0
11
15.5
21
101
31
0
6
CONTINUOUS
0
LINE
8
0
62
0
10
15.5
20
101
30
0
11
15.75
21
100.75
31
0
6
CONTINUOUS
0
LINE
8
0
62
0
10
83.25
20
163
30
0
11
83.5
21
163.25
31
0
6
CONTINUOUS
0
LINE
8
0
62
0
10
83.5
20
163.25
30
0
11
83.5
21
169.25
31
0
6
CONTINUOUS
0
LINE
8
0
62
0
10
83.5
20
169.25
30
0
11
83.1875
21
178.9375
31
0
6
CONTINUOUS
0
LINE
8
0
62
0
10
83.1875
20
178.9375
30
0
11
81.76689
21
178.8986
31
0
6
CONTINUOUS
0
LINE
8
0
62
0
10
81.76689
20
178.8986
30
0
11
75.77206
21
177.4118
31
0
6
CONTINUOUS
0
LINE
8
0
62
0
10
75.77206
20
177.4118
30
0
11
73.5
21
176.75
31
0
6
CONTINUOUS
0
LINE
8
0
62
0
10
73.5
20
176.75
30
0
11
73.5
21
176.5
31
0
6
CONTINUOUS
0
LINE
8
0
62
0
10
73.5
20
176.5
30
0
11
75.56
21
173.795
31
0
6
CONTINUOUS
0
LINE
8
0
62
0
10
75.56
20
173.795
30
0
11
83.25
21
163
31
0
6
CONTINUOUS
0
LINE
8
0
62
0
10
120.25
20
168.5
30
0
11
123.025
21
169.7
31
0
6
CONTINUOUS
0
LINE
8
0
62
0
10
123.025
20
169.7
30
0
11
125.6988
21
171.3115
31
0
6
CONTINUOUS
0
LINE
8
0
62
0
10
125.6988
20
171.3115
30
0
11
128.75
21
174
31
0
6
CONTINUOUS
0
LINE
8
0
62
0
10
128.75
20
174
30
0
11
128.75
21
174.25
31
0
6
CONTINUOUS
0
LINE
8
0
62
0
10
128.75
20
174.25
30
0
11
128.275
21
174.55
31
0
6
CONTINUOUS
0
LINE
8
0
62
0
10
128.275
20
174.55
30
0
11
127.475
21
174.95
31
0
6
CONTINUOUS
0
LINE
8
0
62
0
10
127.475
20
174.95
30
0
11
120.7279
21
177.1618
31
0
6
CONTINUOUS
0
LINE
8
0
62
0
10
120.7279
20
177.1618
30
0
11
120.0221
21
177.3382
31
0
6
CONTINUOUS
0
LINE
8
0
62
0
10
120.0221
20
177.3382
30
0
11
116.3125
21
178.1875
31
0
6
CONTINUOUS
0
LINE
8
0
62
0
10
116.3125
20
178.1875
30
0
11
116.3662
21
174.5077
31
0
6
CONTINUOUS
0
LINE
8
0
62
0
10
116.3662
20
174.5077
30
0
11
116.6077
21
172.5135
31
0
6
CONTINUOUS
0
LINE
8
0
62
0
10
116.6077
20
172.5135
30
0
11
117.2
21
170.225
31
0
6
CONTINUOUS
0
LINE
8
0
62
0
10
117.2
20
170.225
30
0
11
118.25
21
169
31
0
6
CONTINUOUS
0
LINE
8
0
62
0
10
118.25
20
169
30
0
11
120.25
21
168.5
31
0
6
CONTINUOUS
0
LINE
8
0
62
0
10
113
20
116.5
30
0
11
121.25
21
124.75
31
0
6
CONTINUOUS
0
LINE
8
0
62
0
10
121.25
20
124.75
30
0
11
121
21
125
31
0
6
CONTINUOUS
0
LINE
8
0
62
0
10
121
20
125
30
0
11
111.975
21
122.575
31
0
6
CONTINUOUS
0
LINE
8
0
62
0
10
111.975
20
122.575
30
0
11
111.525
21
122.425
31
0
6
CONTINUOUS
0
LINE
8
0
62
0
10
111.525
20
122.425
30
0
11
102.5
21
119.75
31
0
6
CONTINUOUS
0
LINE
8
0
62
0
10
102.5
20
119.75
30
0
11
103
21
119.25
31
0
6
CONTINUOUS
0
LINE
8
0
62
0
10
103
20
119.25
30
0
11
112.0192
21
116.5962
31
0
6
CONTINUOUS
0
LINE
8
0
62
0
10
112.0192
20
116.5962
30
0
11
113
21
116.5
31
0
6
CONTINUOUS
0
LINE
8
0
62
0
10
85.75
20
116.5
30
0
11
96
21
119.75
31
0
6
CONTINUOUS
0
LINE
8
0
62
0
10
96
20
119.75
30
0
11
87.275
21
122.325
31
0
6
CONTINUOUS
0
LINE
8
0
62
0
10
87.275
20
122.325
30
0
11
85.97794
21
122.6618
31
0
6
CONTINUOUS
0
LINE
8
0
62
0
10
85.97794
20
122.6618
30
0
11
77.25
21
125
31
0
6
CONTINUOUS
0
LINE
8
0
62
0
10
77.25
20
125
30
0
11
77
21
124.75
31
0
6
CONTINUOUS
0
LINE
8
0
62
0
10
77
20
124.75
30
0
11
85.25
21
116.5
31
0
6
CONTINUOUS
0
LINE
8
0
62
0
10
85.25
20
116.5
30
0
11
85.75
21
116.5
31
0
6
CONTINUOUS
0
LINE
8
0
62
0
10
98.75
20
192
30
0
11
99.25
21
192.25
31
0
6
CONTINUOUS
0
LINE
8
0
62
0
10
99.25
20
192.25
30
0
11
100.8
21
193.975
31
0
6
CONTINUOUS
0
LINE
8
0
62
0
10
100.8
20
193.975
30
0
11
101
21
194.25
31
0
6
CONTINUOUS
0
LINE
8
0
62
0
10
101
20
194.25
30
0
11
101
21
196.25
31
0
6
CONTINUOUS
0
LINE
8
0
62
0
10
101
20
196.25
30
0
11
100.7
21
196.725
31
0
6
CONTINUOUS
0
LINE
8
0
62
0
10
100.7
20
196.725
30
0
11
100.5
21
197.25
31
0
6
CONTINUOUS
0
LINE
8
0
62
0
10
100.5
20
197.25
30
0
11
99.275
21
198.3
31
0
6
CONTINUOUS
0
LINE
8
0
62
0
10
99.275
20
198.3
30
0
11
99
21
198.5
31
0
6
CONTINUOUS
0
LINE
8
0
62
0
10
99
20
198.5
30
0
11
96.5
21
198.5
31
0
6
CONTINUOUS
0
LINE
8
0
62
0
10
96.5
20
198.5
30
0
11
94.75
21
197
31
0
6
CONTINUOUS
0
LINE
8
0
62
0
10
94.75
20
197
30
0
11
94.25
21
195
31
0
6
CONTINUOUS
0
LINE
8
0
62
0
10
94.25
20
195
30
0
11
94.41176
21
194.7279
31
0
6
CONTINUOUS
0
LINE
8
0
62
0
10
94.41176
20
194.7279
30
0
11
94.75
21
193.5
31
0
6
CONTINUOUS
0
LINE
8
0
62
0
10
94.75
20
193.5
30
0
11
95.75
21
192.5
31
0
6
CONTINUOUS
0
LINE
8
0
62
0
10
95.75
20
192.5
30
0
11
96.7622
21
192.1098
31
0
6
CONTINUOUS
0
LINE
8
0
62
0
10
96.7622
20
192.1098
30
0
11
98.75
21
192
31
0
6
CONTINUOUS
0
ENDSEC
0
EOF
