  0
SECTION
  2
HEADER
  9
$ACADVER
  1
AC1015
  9
$ACADMAINTVER
 70
     6
  9
$DWGCODEPAGE
  3
DOS850
  9
$INSBASE
 10
0.0
 20
0.0
 30
0.0
  9
$EXTMIN
 10
-5.23874
 20
-0.67405
 30
1.000000E+20
  9
$EXTMAX
 10
8.72818
 20
10.1069
 30
-1.000000E+20
  9
$LIMMIN
 10
0.0
 20
0.0
  9
$LIMMAX
 10
0.0
 20
0.0
  9
$ORTHOMODE
 70
     0
  9
$REGENMODE
 70
     1
  9
$FILLMODE
 70
     1
  9
$QTEXTMODE
 70
     0
  9
$MIRRTEXT
 70
     1
  9
$LTSCALE
 40
1.0
  9
$ATTMODE
 70
     1
  9
$TEXTSIZE
 40
0.2
  9
$TRACEWID
 40
0.05
  9
$TEXTSTYLE
  7
Standard
  9
$CLAYER
  8
0
  9
$CELTYPE
  6
Continuous
  9
$CECOLOR
 62
   256
  9
$CELTSCALE
 40
1.0
  9
$DISPSILH
 70
     0
  9
$DIMSCALE
 40
1.0
  9
$DIMASZ
 40
0.18
  9
$DIMEXO
 40
0.0625
  9
$DIMDLI
 40
0.38
  9
$DIMRND
 40
0.0
  9
$DIMDLE
 40
0.0
  9
$DIMEXE
 40
0.18
  9
$DIMTP
 40
0.0
  9
$DIMTM
 40
0.0
  9
$DIMTXT
 40
0.18
  9
$DIMCEN
 40
0.09
  9
$DIMTSZ
 40
0.0
  9
$DIMTOL
 70
     0
  9
$DIMLIM
 70
     0
  9
$DIMTIH
 70
     1
  9
$DIMTOH
 70
     1
  9
$DIMSE1
 70
     0
  9
$DIMSE2
 70
     0
  9
$DIMTAD
 70
     0
  9
$DIMZIN
 70
     0
  9
$DIMBLK
  1

  9
$DIMASO
 70
     1
  9
$DIMSHO
 70
     1
  9
$DIMPOST
  1

  9
$DIMAPOST
  1

  9
$DIMALT
 70
     0
  9
$DIMALTD
 70
     2
  9
$DIMALTF
 40
25.4
  9
$DIMLFAC
 40
1.0
  9
$DIMTOFL
 70
     0
  9
$DIMTVP
 40
0.0
  9
$DIMTIX
 70
     0
  9
$DIMSOXD
 70
     0
  9
$DIMSAH
 70
     0
  9
$DIMBLK1
  1

  9
$DIMBLK2
  1

  9
$DIMSTYLE
  2
Standard
  9
$DIMCLRD
 70
     0
  9
$DIMCLRE
 70
     0
  9
$DIMCLRT
 70
     0
  9
$DIMTFAC
 40
1.0
  9
$DIMGAP
 40
0.09
  9
$DIMJUST
 70
     0
  9
$DIMSD1
 70
     0
  9
$DIMSD2
 70
     0
  9
$DIMTOLJ
 70
     1
  9
$DIMTZIN
 70
     0
  9
$DIMALTZ
 70
     0
  9
$DIMALTTZ
 70
     0
  9
$DIMUPT
 70
     0
  9
$DIMDEC
 70
     4
  9
$DIMTDEC
 70
     4
  9
$DIMALTU
 70
     2
  9
$DIMALTTD
 70
     2
  9
$DIMTXSTY
  7
Standard
  9
$DIMAUNIT
 70
     0
  9
$DIMADEC
 70
     0
  9
$DIMALTRND
 40
0.0
  9
$DIMAZIN
 70
     0
  9
$DIMDSEP
 70
     0
  9
$DIMATFIT
 70
     3
  9
$DIMFRAC
 70
     0
  9
$DIMLDRBLK
  1

  9
$DIMLUNIT
 70
     2
  9
$DIMLWD
 70
     0
  9
$DIMLWE
 70
     0
  9
$DIMTMOVE
 70
     0
  9
$LUNITS
 70
     2
  9
$LUPREC
 70
     4
  9
$SKETCHINC
 40
0.1
  9
$FILLETRAD
 40
0.0
  9
$AUNITS
 70
     0
  9
$AUPREC
 70
     0
  9
$MENU
  1
acad
  9
$ELEVATION
 40
0.0
  9
$PELEVATION
 40
0.0
  9
$THICKNESS
 40
0.0
  9
$LIMCHECK
 70
     0
  9
$CHAMFERA
 40
0.0
  9
$CHAMFERB
 40
0.0
  9
$CHAMFERC
 40
0.0
  9
$CHAMFERD
 40
0.0
  9
$SKPOLY
 70
     0
  9
$TDCREATE
 40
0.000000000
  9
$TDUCREATE
 40
0.000000000
  9
$TDUPDATE
 40
0.000000000
  9
$TDUUPDATE
 40
0.000000000
  9
$TDINDWG
 40
0.0000000000
  9
$TDUSRTIMER
 40
0.0000000000
  9
$USRTIMER
 70
     1
  9
$ANGBASE
 50
0.0
  9
$ANGDIR
 70
     0
  9
$PDMODE
 70
     0
  9
$PDSIZE
 40
0.0
  9
$PLINEWID
 40
0.0
  9
$SPLFRAME
 70
     0
  9
$SPLINETYPE
 70
     6
  9
$SPLINESEGS
 70
     8
  9
$HANDSEED
  5
3B
  9
$SURFTAB1
 70
     6
  9
$SURFTAB2
 70
     6
  9
$SURFTYPE
 70
     6
  9
$SURFU
 70
     6
  9
$SURFV
 70
     6
  9
$UCSBASE
  2

  9
$UCSNAME
  2

  9
$UCSORG
 10
0.0
 20
0.0
 30
0.0
  9
$UCSXDIR
 10
1.0
 20
0.0
 30
0.0
  9
$UCSYDIR
 10
0.0
 20
1.0
 30
0.0
  9
$UCSORTHOREF
  2

  9
$UCSORTHOVIEW
 70
     0
  9
$UCSORGTOP
 10
0.0
 20
0.0
 30
0.0
  9
$UCSORGBOTTOM
 10
0.0
 20
0.0
 30
0.0
  9
$UCSORGLEFT
 10
0.0
 20
0.0
 30
0.0
  9
$UCSORGRIGHT
 10
0.0
 20
0.0
 30
0.0
  9
$UCSORGFRONT
 10
0.0
 20
0.0
 30
0.0
  9
$UCSORGBACK
 10
0.0
 20
0.0
 30
0.0
  9
$PUCSBASE
  2

  9
$PUCSNAME
  2

  9
$PUCSORG
 10
0.0
 20
0.0
 30
0.0
  9
$PUCSXDIR
 10
1.0
 20
0.0
 30
0.0
  9
$PUCSYDIR
 10
0.0
 20
1.0
 30
0.0
  9
$PUCSORTHOREF
  2

  9
$PUCSORTHOVIEW
 70
     0
  9
$PUCSORGTOP
 10
0.0
 20
0.0
 30
0.0
  9
$PUCSORGBOTTOM
 10
0.0
 20
0.0
 30
0.0
  9
$PUCSORGLEFT
 10
0.0
 20
0.0
 30
0.0
  9
$PUCSORGRIGHT
 10
0.0
 20
0.0
 30
0.0
  9
$PUCSORGFRONT
 10
0.0
 20
0.0
 30
0.0
  9
$PUCSORGBACK
 10
0.0
 20
0.0
 30
0.0
  9
$USERI1
 70
     0
  9
$USERI2
 70
     0
  9
$USERI3
 70
     0
  9
$USERI4
 70
     0
  9
$USERI5
 70
     0
  9
$USERR1
 40
0.0
  9
$USERR2
 40
0.0
  9
$USERR3
 40
0.0
  9
$USERR4
 40
0.0
  9
$USERR5
 40
0.0
  9
$WORLDVIEW
 70
     1
  9
$SHADEDGE
 70
     3
  9
$SHADEDIF
 70
    70
  9
$TILEMODE
 70
     1
  9
$MAXACTVP
 70
    16
  9
$PINSBASE
 10
0.0
 20
0.0
 30
0.0
  9
$PLIMCHECK
 70
     0
  9
$PEXTMIN
 10
1.000000E+20
 20
1.000000E+20
 30
1.000000E+20
  9
$PEXTMAX
 10
-1.000000E+20
 20
-1.000000E+20
 30
-1.000000E+20
  9
$PLIMMIN
 10
0.0
 20
0.0
  9
$PLIMMAX
 10
12.0
 20
9.0
  9
$UNITMODE
 70
     0
  9
$VISRETAIN
 70
     0
  9
$PLINEGEN
 70
     1
  9
$PSLTSCALE
 70
     0
  9
$TREEDEPTH
 70
  3020
  9
$CMLSTYLE
  2
Standard
  9
$CMLJUST
 70
     0
  9
$CMLSCALE
 40
1.0
  9
$PROXYGRAPHICS
 70
     0
  9
$MEASUREMENT
 70
     0
  9
$CELWEIGHT
370
     0
  9
$ENDCAPS
280
     0
  9
$JOINSTYLE
280
     0
  9
$LWDISPLAY
290
     0
  9
$INSUNITS
 70
     5
  9
$HYPERLINKBASE
  1

  9
$XEDIT
290
     1
  9
$CEPSNTYPE
380
     0
  9
$PSTYLEMODE
290
     1
  9
$FINGERPRINTGUID
  2

  9
$VERSIONGUID
  2

  9
$EXTNAMES
290
     1
  9
$PSVPSCALE
 40
0.0
  0
ENDSEC
  0
SECTION
  2
CLASSES
  0
CLASS
  1
LWPOLYLINE
  2
AcDbPolyline
  3
AutoCAD 2000
 90
    32768
280
     0
281
     1
  0
CLASS
  1
IMAGE
  2
AcDbRasterImage
  3
ISM
 90
    32895
280
     0
281
     1
  0
CLASS
  1
OLE2FRAME
  2
AcDbOle2Frame
  3
AutoCAD 2000
 90
    32768
280
     0
281
     1
  0
CLASS
  1
HATCH
  2
AcDbHatch
  3
AutoCAD 2000
 90
    32768
280
     0
281
     1
  0
CLASS
  1
DICTIONARYVAR
  2
AcDbDictionaryVar
  3
AutoCAD 2000
 90
    32768
280
     0
281
     0
  0
CLASS
  1
RASTERVARIABLES
  2
AcDbRasterVariables
  3
ISM
 90
    32768
280
     0
281
     0
  0
CLASS
  1
IMAGEDEF
  2
AcDbRasterImageDef
  3
ISM
 90
    32768
280
     0
281
     0
  0
CLASS
  1
IMAGEDEF_REACTOR
  2
AcDbRasterImageDefReactor
  3
ISM
 90
    32769
280
     0
281
     0
  0
CLASS
  1
IDBUFFER
  2
AcDbIdBuffer
  3
AutoCAD 2000
 90
    32768
280
     0
281
     0
  0
CLASS
  1
SPATIAL_FILTER
  2
AcDbSpatialFilter
  3
AutoCAD 2000
 90
    32768
280
     0
281
     0
  0
CLASS
  1
XRECORD
  2
AcDbXrecord
  3
AutoCAD 2000
 90
    32768
280
     0
281
     0
  0
CLASS
  1
SORTENTSTABLE
  2
AcDbSortentsTable
  3
AutoCAD 2000
 90
    32768
280
     0
281
     0
  0
CLASS
  1
LAYER_INDEX
  2
AcDbLayerIndex
  3
AutoCAD 2000
 90
    32768
280
     0
281
     0
  0
CLASS
  1
SPATIAL_INDEX
  2
AcDbSpatialIndex
  3
AutoCAD 2000
 90
    32768
280
     0
281
     0
  0
CLASS
  1
OBJECT_PTR
  2
CAseDLPNTableRecord
  3
"ASE-LPNTableRecord"
 90
    32769
280
     0
281
     0
  0
CLASS
  1
LAYOUT
  2
AcDbLayout
  3
AutoCAD 2000
 90
        0
280
     0
281
     0
  0
CLASS
  1
PLOTSETTINGS
  2
AcDbPlotSettings
  3
AutoCAD 2000
 90
    32768
280
     0
281
     0
  0
CLASS
  1
ACDBDICTIONARYWDFLT
  2
AcDbDictionaryWithDefault
  3
AutoCAD 2000
 90
        0
280
     0
281
     0
  0
CLASS
  1
ACDBPLACEHOLDER
  2
AcDbPlaceHolder
  3
AutoCAD 2000
 90
        0
280
     0
281
     0
  0
CLASS
  1
VBA_PROJECT
  2
AcDbVbaProject
  3
acadvba
 90
    32768
280
     0
281
     0
  0
CLASS
  1
WIPEOUT
  2
AcDbWipeout
  3
WipeOut|AutoCAD Express Tool|expresstools@autodesk.com
 90
    32895
280
     0
281
     1
  0
CLASS
  1
WIPEOUTVARIABLES
  2
AcDbWipeoutVariables
  3
WipeOut|AutoCAD Express Tool|expresstools@autodesk.com
 90
        0
280
     0
281
     0
  0
CLASS
  1
RTEXT
  2
RText
  3
RText|AutoCAD Express Tool|expresstools@autodesk.com
 90
    32768
280
     0
281
     1
  0
CLASS
  1
ARCALIGNEDTEXT
  2
AcDbArcAlignedText
  3
ATEXT|AutoCAD Express Tool|expresstools@autodesk.com
 90
    32768
280
     0
281
     1
  0
ENDSEC
  0
SECTION
  2
TABLES
  0
TABLE
  2
VPORT
  5
7
100
AcDbSymbolTable
 70
     1
  0
VPORT
  5
15
100
AcDbSymbolTableRecord
100
AcDbViewportTableRecord
  2
*ACTIVE
 70
     0
 10
0.0
 20
0.0
 11
1.0
 21
1.0
 12
6.591288
 22
4.579184
 13
0.0
 23
0.0
 14
1.0
 24
1.0
 15
0.0
 25
0.0
 16
0.0
 26
0.0
 36
1.0
 17
0.0
 27
0.0
 37
0.0
 40
9.158369
 41
0.688564
 42
50.0
 43
0.0
 44
0.0
 50
0.0
 51
0.0
 71
     0
 72
   100
 73
     1
 74
     1
 75
     0
 76
     0
 77
     0
 78
     0
281
     0
 65
     0
110
0.0
120
0.0
130
0.0
111
1.0
121
0.0
131
0.0
112
0.0
122
1.0
132
0.0
345
0
346
0
 79
     0
146
0.0
  0
ENDTAB
  0
TABLE
  2
LTYPE
  5
4
100
AcDbSymbolTable
 70
     3
  0
LTYPE
  5
11
100
AcDbSymbolTableRecord
100
AcDbLinetypeTableRecord
  2
ByBlock
 70
    64
  3

 72
    65
 73
     0
 40
0.0
  0
LTYPE
  5
12
100
AcDbSymbolTableRecord
100
AcDbLinetypeTableRecord
  2
ByLayer
 70
    64
  3

 72
    65
 73
     0
 40
0.0
  0
LTYPE
  5
13
100
AcDbSymbolTableRecord
100
AcDbLinetypeTableRecord
  2
Continuous
 70
    64
  3
Solid line
 72
    65
 73
     0
 40
0.0
  0
ENDTAB
  0
TABLE
  2
LAYER
  5
2
100
AcDbSymbolTable
 70
     2
  0
LAYER
  5
14
100
AcDbSymbolTableRecord
100
AcDbLayerTableRecord
  2
0
 70
     0
 62
     7
  6
Continuous
290
     1
370
    -3
390
1D
  0
LAYER
  5
24
100
AcDbSymbolTableRecord
100
AcDbLayerTableRecord
  2
Ebene 1
 70
     0
 62
     7
  6
Continuous
290
     1
370
    -3
390
1F
  0
ENDTAB
  0
TABLE
  2
STYLE
  5
3
100
AcDbSymbolTable
 70
     1
  0
STYLE
  5
17
100
AcDbSymbolTableRecord
100
AcDbTextStyleTableRecord
  2
Standard
 70
     0
 40
0.0
 41
1.0
 50
0.0
 71
     0
 42
0.0
  3
txt
  4

  0
ENDTAB
  0
TABLE
  2
VIEW
  5
5
100
AcDbSymbolTable
 70
     0
  0
ENDTAB
  0
TABLE
  2
UCS
  5
6
100
AcDbSymbolTable
 70
     0
  0
ENDTAB
  0
TABLE
  2
APPID
  5
8
100
AcDbSymbolTable
 70
     1
  0
APPID
  5
16
100
AcDbSymbolTableRecord
100
AcDbRegAppTableRecord
  2
ACAD
 70
     0
  0
ENDTAB
  0
TABLE
  2
DIMSTYLE
  5
9
100
AcDbSymbolTable
 70
     1
100
AcDbDimStyleTable
 71
     0
  0
DIMSTYLE
105
18
100
AcDbSymbolTableRecord
100
AcDbDimStyleTableRecord
  2
Standard
 70
     0
  3

  4

 40
1.0
 41
0.18
 42
0.0625
 43
0.38
 44
0.18
 45
0.0
 46
0.0
 47
0.0
 48
0.0
 71
     0
 72
     0
 73
     1
 74
     1
 75
     0
 76
     0
 77
     0
 78
     0
 79
     0
140
0.18
141
0.09
142
0.0
143
25.4
144
1.0
145
0.0
146
1.0
147
0.09
148
0.0
170
     0
171
     2
172
     0
173
     0
174
     0
175
     0
176
     0
177
     0
178
     0
179
     0
271
     4
272
     4
273
     2
274
     2
275
     0
276
     0
277
     2
278
    46
279
     0
280
     0
281
     0
282
     0
283
     1
284
     0
285
     0
286
     0
288
     0
340
17
341
0
342
0
343
0
344
0
371
    -2
372
    -2
  0
ENDTAB
  0
TABLE
  2
BLOCK_RECORD
  5
1
100
AcDbSymbolTable
 70
     0
  0
BLOCK_RECORD
  5
A
100
AcDbSymbolTableRecord
100
AcDbBlockTableRecord
  2
*MODEL_SPACE
340
20
  0
BLOCK_RECORD
  5
B
100
AcDbSymbolTableRecord
100
AcDbBlockTableRecord
  2
*PAPER_SPACE
340
21
  0
ENDTAB
  0
ENDSEC
  0
SECTION
  2
BLOCKS
  0
BLOCK
  5
D
100
AcDbEntity
  8
0
100
AcDbBlockBegin
  2
*MODEL_SPACE
 70
     0
 10
0.0
 20
0.0
 30
0.0
  3
*MODEL_SPACE
  1

  0
ENDBLK
  5
E
100
AcDbEntity
  8
0
100
AcDbBlockEnd
  0
BLOCK
  5
F
100
AcDbEntity
 67
     1
  8
0
100
AcDbBlockBegin
  2
*PAPER_SPACE
 70
     0
 10
0.0
 20
0.0
 30
0.0
  3
*PAPER_SPACE
  1

  0
ENDBLK
  5
10
100
AcDbEntity
 67
     1
  8
0
100
AcDbBlockEnd
  0
ENDSEC
  0
SECTION
  2
ENTITIES
  0
SPLINE
  5
25
100
AcDbEntity
  8
Ebene 1
 62
     5
100
AcDbSpline
210
0.0
220
0.0
230
1.0
 70
     1
 71
     3
 72
   260
 73
   256
 74
     0
 42
0.0000000001
 43
0.0000000001
 40
0.0
 40
0.0
 40
0.0
 40
0.0
 40
0.015625
 40
0.015625
 40
0.015625
 40
0.015625
 40
0.03125
 40
0.03125
 40
0.03125
 40
0.03125
 40
0.046875
 40
0.046875
 40
0.046875
 40
0.046875
 40
0.0625
 40
0.0625
 40
0.0625
 40
0.0625
 40
0.078125
 40
0.078125
 40
0.078125
 40
0.078125
 40
0.09375
 40
0.09375
 40
0.09375
 40
0.09375
 40
0.109375
 40
0.109375
 40
0.109375
 40
0.109375
 40
0.125
 40
0.125
 40
0.125
 40
0.125
 40
0.140625
 40
0.140625
 40
0.140625
 40
0.140625
 40
0.15625
 40
0.15625
 40
0.15625
 40
0.15625
 40
0.171875
 40
0.171875
 40
0.171875
 40
0.171875
 40
0.1875
 40
0.1875
 40
0.1875
 40
0.1875
 40
0.203125
 40
0.203125
 40
0.203125
 40
0.203125
 40
0.21875
 40
0.21875
 40
0.21875
 40
0.21875
 40
0.234375
 40
0.234375
 40
0.234375
 40
0.234375
 40
0.25
 40
0.25
 40
0.25
 40
0.25
 40
0.265625
 40
0.265625
 40
0.265625
 40
0.265625
 40
0.28125
 40
0.28125
 40
0.28125
 40
0.28125
 40
0.296875
 40
0.296875
 40
0.296875
 40
0.296875
 40
0.3125
 40
0.3125
 40
0.3125
 40
0.3125
 40
0.328125
 40
0.328125
 40
0.328125
 40
0.328125
 40
0.34375
 40
0.34375
 40
0.34375
 40
0.34375
 40
0.359375
 40
0.359375
 40
0.359375
 40
0.359375
 40
0.375
 40
0.375
 40
0.375
 40
0.375
 40
0.390625
 40
0.390625
 40
0.390625
 40
0.390625
 40
0.40625
 40
0.40625
 40
0.40625
 40
0.40625
 40
0.421875
 40
0.421875
 40
0.421875
 40
0.421875
 40
0.4375
 40
0.4375
 40
0.4375
 40
0.4375
 40
0.453125
 40
0.453125
 40
0.453125
 40
0.453125
 40
0.46875
 40
0.46875
 40
0.46875
 40
0.46875
 40
0.484375
 40
0.484375
 40
0.484375
 40
0.484375
 40
0.5
 40
0.5
 40
0.5
 40
0.5
 40
0.515625
 40
0.515625
 40
0.515625
 40
0.515625
 40
0.53125
 40
0.53125
 40
0.53125
 40
0.53125
 40
0.546875
 40
0.546875
 40
0.546875
 40
0.546875
 40
0.5625
 40
0.5625
 40
0.5625
 40
0.5625
 40
0.578125
 40
0.578125
 40
0.578125
 40
0.578125
 40
0.59375
 40
0.59375
 40
0.59375
 40
0.59375
 40
0.609375
 40
0.609375
 40
0.609375
 40
0.609375
 40
0.625
 40
0.625
 40
0.625
 40
0.625
 40
0.640625
 40
0.640625
 40
0.640625
 40
0.640625
 40
0.65625
 40
0.65625
 40
0.65625
 40
0.65625
 40
0.671875
 40
0.671875
 40
0.671875
 40
0.671875
 40
0.6875
 40
0.6875
 40
0.6875
 40
0.6875
 40
0.703125
 40
0.703125
 40
0.703125
 40
0.703125
 40
0.71875
 40
0.71875
 40
0.71875
 40
0.71875
 40
0.734375
 40
0.734375
 40
0.734375
 40
0.734375
 40
0.75
 40
0.75
 40
0.75
 40
0.75
 40
0.765625
 40
0.765625
 40
0.765625
 40
0.765625
 40
0.78125
 40
0.78125
 40
0.78125
 40
0.78125
 40
0.796875
 40
0.796875
 40
0.796875
 40
0.796875
 40
0.8125
 40
0.8125
 40
0.8125
 40
0.8125
 40
0.828125
 40
0.828125
 40
0.828125
 40
0.828125
 40
0.84375
 40
0.84375
 40
0.84375
 40
0.84375
 40
0.859375
 40
0.859375
 40
0.859375
 40
0.859375
 40
0.875
 40
0.875
 40
0.875
 40
0.875
 40
0.890625
 40
0.890625
 40
0.890625
 40
0.890625
 40
0.90625
 40
0.90625
 40
0.90625
 40
0.90625
 40
0.921875
 40
0.921875
 40
0.921875
 40
0.921875
 40
0.9375
 40
0.9375
 40
0.9375
 40
0.9375
 40
0.953125
 40
0.953125
 40
0.953125
 40
0.953125
 40
0.96875
 40
0.96875
 40
0.96875
 40
0.96875
 40
0.984375
 40
0.984375
 40
0.984375
 40
0.984375
 40
1.0
 40
1.0
 40
1.0
 40
1.0
 10
1.5337400000000001
 20
6.0314300000000003
 30
0.0
 10
1.5337400000000001
 20
6.0314300000000003
 30
0.0
 10
0.2204
 20
5.9093700000000009
 30
0.0
 10
-0.9777300000000001
 20
7.2885600000000004
 30
0.0
 10
-0.9777300000000001
 20
7.2885600000000004
 30
0.0
 10
-2.1758500000000001
 20
8.6677300000000006
 30
0.0
 10
-3.0901400000000003
 20
9.1293800000000012
 30
0.0
 10
-3.8693000000000004
 20
9.4126500000000011
 30
0.0
 10
-3.8693000000000004
 20
9.4126500000000011
 30
0.0
 10
-4.6484800000000002
 20
9.695920000000001
 30
0.0
 10
-5.1977000000000002
 20
9.7398199999999999
 30
0.0
 10
-5.1977000000000002
 20
9.7398199999999999
 30
0.0
 10
-5.1977000000000002
 20
9.7398199999999999
 30
0.0
 10
-5.1977000000000002
 20
9.7398199999999999
 30
0.0
 10
-5.5420200000000008
 20
7.8549800000000003
 30
0.0
 10
-4.2360200000000008
 20
6.2692600000000009
 30
0.0
 10
-4.2360200000000008
 20
6.2692600000000009
 30
0.0
 10
-2.93005
 20
4.6835000000000004
 30
0.0
 10
-2.3886500000000002
 20
4.4969800000000006
 30
0.0
 10
-2.2384600000000003
 20
3.8693500000000003
 30
0.0
 10
-2.2384600000000003
 20
3.8693500000000003
 30
0.0
 10
-2.0883100000000003
 20
3.2418000000000005
 30
0.0
 10
-2.59057
 20
2.9916800000000001
 30
0.0
 10
-2.59057
 20
2.9916800000000001
 30
0.0
 10
-2.59057
 20
2.9916800000000001
 30
0.0
 10
-2.59057
 20
2.9916800000000001
 30
0.0
 10
-1.7235100000000001
 20
3.0317100000000003
 30
0.0
 10
-1.2487900000000001
 20
3.4611800000000001
 30
0.0
 10
-1.2487900000000001
 20
3.4611800000000001
 30
0.0
 10
-0.77407
 20
3.8907100000000003
 30
0.0
 10
0.10629
 20
3.5774900000000005
 30
0.0
 10
0.26577
 20
3.2041100000000005
 30
0.0
 10
0.26577
 20
3.2041100000000005
 30
0.0
 10
0.42522
 20
2.8308000000000004
 30
0.0
 10
0.09034
 20
2.7408800000000002
 30
0.0
 10
0.05607
 20
2.70608
 30
0.0
 10
0.05607
 20
2.70608
 30
0.0
 10
0.02179
 20
2.6712900000000004
 30
0.0
 10
0.5955200000000001
 20
2.7627200000000003
 30
0.0
 10
0.6238900000000001
 20
3.1706200000000004
 30
0.0
 10
0.6238900000000001
 20
3.1706200000000004
 30
0.0
 10
0.6522600000000001
 20
3.5785900000000002
 30
0.0
 10
0.75997
 20
4.6877700000000004
 30
0.0
 10
1.0438800000000001
 20
4.9013200000000001
 30
0.0
 10
1.0438800000000001
 20
4.9013200000000001
 30
0.0
 10
1.3278000000000001
 20
5.1148800000000003
 30
0.0
 10
1.5291500000000002
 20
5.0151600000000007
 30
0.0
 10
1.5237900000000002
 20
5.0426500000000001
 30
0.0
 10
1.5237900000000002
 20
5.0426500000000001
 30
0.0
 10
1.5184700000000002
 20
5.0701400000000003
 30
0.0
 10
1.1590100000000001
 20
5.2589300000000003
 30
0.0
 10
0.8368300000000001
 20
4.8340800000000002
 30
0.0
 10
0.8368300000000001
 20
4.8340800000000002
 30
0.0
 10
0.5146200000000001
 20
4.4092700000000002
 30
0.0
 10
0.4916800000000001
 20
3.5721800000000004
 30
0.0
 10
0.23302
 20
3.6718100000000002
 30
0.0
 10
0.23302
 20
3.6718100000000002
 30
0.0
 10
-0.02563
 20
3.7713800000000002
 30
0.0
 10
0.31195
 20
4.68302
 30
0.0
 10
0.5396200000000001
 20
4.9549900000000004
 30
0.0
 10
0.5396200000000001
 20
4.9549900000000004
 30
0.0
 10
0.7672500000000001
 20
5.2269800000000002
 30
0.0
 10
1.0960300000000001
 20
5.2514100000000008
 30
0.0
 10
1.11727
 20
5.2584900000000001
 30
0.0
 10
1.11727
 20
5.2584900000000001
 30
0.0
 10
1.1385000000000001
 20
5.2655800000000008
 30
0.0
 10
0.5809200000000001
 20
5.3356400000000006
 30
0.0
 10
0.28905
 20
4.9895800000000001
 30
0.0
 10
0.28905
 20
4.9895800000000001
 30
0.0
 10
-0.00279
 20
4.6435300000000002
 30
0.0
 10
-0.09985
 20
4.0372000000000003
 30
0.0
 10
-0.4867
 20
3.9308800000000002
 30
0.0
 10
-0.4867
 20
3.9308800000000002
 30
0.0
 10
-0.87353
 20
3.8245700000000005
 30
0.0
 10
-1.2238100000000001
 20
4.00075
 30
0.0
 10
-1.12463
 20
4.2745000000000006
 30
0.0
 10
-1.12463
 20
4.2745000000000006
 30
0.0
 10
-1.0254500000000002
 20
4.5482500000000003
 30
0.0
 10
-0.4507000000000001
 20
4.6285800000000004
 30
0.0
 10
-0.4376600000000001
 20
4.48306
 30
0.0
 10
-0.4376600000000001
 20
4.48306
 30
0.0
 10
-0.4246200000000001
 20
4.3375400000000006
 30
0.0
 10
-0.74563
 20
4.2381200000000003
 30
0.0
 10
-0.74563
 20
4.2381200000000003
 30
0.0
 10
-0.74563
 20
4.2381200000000003
 30
0.0
 10
-0.74563
 20
4.2381200000000003
 30
0.0
 10
-0.33763
 20
4.1338699999999999
 30
0.0
 10
-0.23698
 20
4.5192400000000008
 30
0.0
 10
-0.23698
 20
4.5192400000000008
 30
0.0
 10
-0.13633
 20
4.9046000000000003
 30
0.0
 10
-0.21347
 20
4.94719
 30
0.0
 10
0.01272
 20
5.1075900000000001
 30
0.0
 10
0.01272
 20
5.1075900000000001
 30
0.0
 10
0.23891
 20
5.2680100000000003
 30
0.0
 10
0.38691
 20
5.2928700000000006
 30
0.0
 10
0.3769400000000001
 20
5.3128100000000007
 30
0.0
 10
0.3769400000000001
 20
5.3128100000000007
 30
0.0
 10
0.36698
 20
5.3327800000000005
 30
0.0
 10
-0.73414
 20
5.2457100000000008
 30
0.0
 10
-1.15419
 20
4.7576900000000002
 30
0.0
 10
-1.15419
 20
4.7576900000000002
 30
0.0
 10
-1.5742100000000001
 20
4.2696800000000001
 30
0.0
 10
-2.2199
 20
4.3778500000000005
 30
0.0
 10
-2.3439800000000002
 20
4.7143700000000006
 30
0.0
 10
-2.3439800000000002
 20
4.7143700000000006
 30
0.0
 10
-2.4680800000000001
 20
5.0509200000000005
 30
0.0
 10
-1.6462500000000002
 20
5.2887900000000005
 30
0.0
 10
-1.5978500000000002
 20
5.1064200000000008
 30
0.0
 10
-1.5978500000000002
 20
5.1064200000000008
 30
0.0
 10
-1.5494300000000001
 20
4.9240700000000004
 30
0.0
 10
-1.9635300000000002
 20
4.7896100000000006
 30
0.0
 10
-1.9635300000000002
 20
4.7896100000000006
 30
0.0
 10
-1.9635300000000002
 20
4.7896100000000006
 30
0.0
 10
-1.9635300000000002
 20
4.7896100000000006
 30
0.0
 10
-1.7321200000000001
 20
4.6618700000000004
 30
0.0
 10
-1.4867800000000002
 20
4.9154100000000005
 30
0.0
 10
-1.4867800000000002
 20
4.9154100000000005
 30
0.0
 10
-1.24143
 20
5.1690000000000005
 30
0.0
 10
-0.9334800000000001
 20
5.4139300000000006
 30
0.0
 10
-0.5625800000000001
 20
5.4425600000000003
 30
0.0
 10
-0.5625800000000001
 20
5.4425600000000003
 30
0.0
 10
-0.1917
 20
5.4711900000000009
 30
0.0
 10
0.12786
 20
5.4590100000000001
 30
0.0
 10
0.12786
 20
5.4590100000000001
 30
0.0
 10
0.12786
 20
5.4590100000000001
 30
0.0
 10
0.12786
 20
5.4590100000000001
 30
0.0
 10
-0.7365400000000001
 20
5.8498700000000001
 30
0.0
 10
-1.5296500000000002
 20
5.7517900000000006
 30
0.0
 10
-1.5296500000000002
 20
5.7517900000000006
 30
0.0
 10
-2.3227700000000002
 20
5.6536900000000001
 30
0.0
 10
-2.2757900000000002
 20
5.3597400000000004
 30
0.0
 10
-2.61131
 20
5.2943000000000007
 30
0.0
 10
-2.61131
 20
5.2943000000000007
 30
0.0
 10
-2.9468300000000003
 20
5.2288400000000008
 30
0.0
 10
-3.4835600000000002
 20
5.5425000000000004
 30
0.0
 10
-3.2399700000000005
 20
5.8921600000000005
 30
0.0
 10
-3.2399700000000005
 20
5.8921600000000005
 30
0.0
 10
-2.9963500000000001
 20
6.2417800000000003
 30
0.0
 10
-2.54515
 20
6.2433700000000005
 30
0.0
 10
-2.3618800000000002
 20
6.0902900000000004
 30
0.0
 10
-2.3618800000000002
 20
6.0902900000000004
 30
0.0
 10
-2.17862
 20
5.9372400000000001
 30
0.0
 10
-2.8287600000000004
 20
5.8034100000000004
 30
0.0
 10
-2.8287600000000004
 20
5.8034100000000004
 30
0.0
 10
-2.8287600000000004
 20
5.8034100000000004
 30
0.0
 10
-2.8287600000000004
 20
5.8034100000000004
 30
0.0
 10
-2.6214400000000002
 20
5.6630100000000008
 30
0.0
 10
-2.2908500000000003
 20
5.8090000000000002
 30
0.0
 10
-2.2908500000000003
 20
5.8090000000000002
 30
0.0
 10
-1.9602500000000003
 20
5.9549800000000008
 30
0.0
 10
-1.8073400000000002
 20
6.1209100000000003
 30
0.0
 10
-1.2474800000000001
 20
6.0801200000000009
 30
0.0
 10
-1.2474800000000001
 20
6.0801200000000009
 30
0.0
 10
-0.68762
 20
6.0393500000000007
 30
0.0
 10
-0.27441
 20
5.8847300000000002
 30
0.0
 10
-0.29345
 20
5.9164500000000002
 30
0.0
 10
-0.29345
 20
5.9164500000000002
 30
0.0
 10
-0.29345
 20
5.9164500000000002
 30
0.0
 10
-1.7572300000000001
 20
6.6296300000000006
 30
0.0
 10
-2.4494200000000004
 20
6.7092500000000008
 30
0.0
 10
-2.4494200000000004
 20
6.7092500000000008
 30
0.0
 10
-3.1415900000000003
 20
6.7888600000000006
 30
0.0
 10
-3.5461300000000002
 20
6.7010000000000005
 30
0.0
 10
-3.9460100000000002
 20
6.7402400000000009
 30
0.0
 10
-3.9460100000000002
 20
6.7402400000000009
 30
0.0
 10
-4.3459000000000003
 20
6.7794900000000009
 30
0.0
 10
-4.5729300000000004
 20
7.2420500000000008
 30
0.0
 10
-4.1973900000000004
 20
7.397800000000001
 30
0.0
 10
-4.1973900000000004
 20
7.397800000000001
 30
0.0
 10
-3.8218400000000003
 20
7.5535600000000009
 30
0.0
 10
-3.5423300000000002
 20
7.4510600000000009
 30
0.0
 10
-3.4040100000000004
 20
7.2882500000000006
 30
0.0
 10
-3.4040100000000004
 20
7.2882500000000006
 30
0.0
 10
-3.2656900000000002
 20
7.1254000000000008
 30
0.0
 10
-3.7891200000000005
 20
7.0859000000000005
 30
0.0
 10
-3.7891200000000005
 20
7.0859000000000005
 30
0.0
 10
-3.7891200000000005
 20
7.0859000000000005
 30
0.0
 10
-3.7891200000000005
 20
7.0859000000000005
 30
0.0
 10
-3.7728800000000002
 20
6.9558800000000005
 30
0.0
 10
-3.2575700000000003
 20
7.060410000000001
 30
0.0
 10
-3.2575700000000003
 20
7.060410000000001
 30
0.0
 10
-2.7422700000000004
 20
7.1649200000000004
 30
0.0
 10
-2.13361
 20
7.0968400000000003
 30
0.0
 10
-1.7206800000000002
 20
6.9120400000000002
 30
0.0
 10
-1.7206800000000002
 20
6.9120400000000002
 30
0.0
 10
-1.3077500000000002
 20
6.7272700000000007
 30
0.0
 10
-0.9366000000000001
 20
6.5482400000000007
 30
0.0
 10
-0.9366000000000001
 20
6.5482400000000007
 30
0.0
 10
-0.9366000000000001
 20
6.5482400000000007
 30
0.0
 10
-0.9366000000000001
 20
6.5482400000000007
 30
0.0
 10
-1.4802600000000001
 20
7.2461700000000002
 30
0.0
 10
-2.56942
 20
7.588210000000001
 30
0.0
 10
-2.56942
 20
7.588210000000001
 30
0.0
 10
-3.6585700000000001
 20
7.9302600000000005
 30
0.0
 10
-4.2694800000000006
 20
7.9693400000000008
 30
0.0
 10
-4.5682100000000005
 20
8.5190100000000015
 30
0.0
 10
-4.5682100000000005
 20
8.5190100000000015
 30
0.0
 10
-4.86693
 20
9.0686700000000009
 30
0.0
 10
-4.8940600000000005
 20
9.4010100000000012
 30
0.0
 10
-4.8793200000000008
 20
9.4083900000000007
 30
0.0
 10
-4.8793200000000008
 20
9.4083900000000007
 30
0.0
 10
-4.86456
 20
9.4157900000000012
 30
0.0
 10
-4.5537000000000001
 20
8.48508
 30
0.0
 10
-3.9511600000000002
 20
8.1782700000000013
 30
0.0
 10
-3.9511600000000002
 20
8.1782700000000013
 30
0.0
 10
-3.3485900000000002
 20
7.8714900000000005
 30
0.0
 10
-2.17475
 20
7.8371400000000007
 30
0.0
 10
-1.3115100000000002
 20
7.1270400000000009
 30
0.0
 10
-1.3115100000000002
 20
7.1270400000000009
 30
0.0
 10
-0.4482700000000001
 20
6.4169300000000007
 30
0.0
 10
-0.6564800000000001
 20
6.3818100000000006
 30
0.0
 10
-0.56542
 20
6.3692400000000005
 30
0.0
 10
-0.56542
 20
6.3692400000000005
 30
0.0
 10
-0.47439
 20
6.3566400000000005
 30
0.0
 10
-0.8730700000000001
 20
7.0664900000000008
 30
0.0
 10
-1.5399900000000002
 20
7.477990000000001
 30
0.0
 10
-1.5399900000000002
 20
7.477990000000001
 30
0.0
 10
-2.2069400000000003
 20
7.8895000000000008
 30
0.0
 10
-2.8573600000000003
 20
7.963350000000001
 30
0.0
 10
-3.2253300000000005
 20
8.1579000000000015
 30
0.0
 10
-3.2253300000000005
 20
8.1579000000000015
 30
0.0
 10
-3.5933200000000003
 20
8.3524400000000014
 30
0.0
 10
-3.5889400000000005
 20
8.6872199999999999
 30
0.0
 10
-3.2499600000000002
 20
8.5605600000000006
 30
0.0
 10
-3.2499600000000002
 20
8.5605600000000006
 30
0.0
 10
-2.9109800000000003
 20
8.4338800000000003
 30
0.0
 10
-2.9620200000000003
 20
8.1854000000000013
 30
0.0
 10
-2.5540200000000004
 20
8.0811600000000006
 30
0.0
 10
-2.5540200000000004
 20
8.0811600000000006
 30
0.0
 10
-2.1460300000000001
 20
7.9769100000000011
 30
0.0
 10
-1.9355000000000002
 20
7.8520100000000008
 30
0.0
 10
-1.9355000000000002
 20
7.8520100000000008
 30
0.0
 10
-1.9355000000000002
 20
7.8520100000000008
 30
0.0
 10
-1.9355000000000002
 20
7.8520100000000008
 30
0.0
 10
-2.4951400000000001
 20
8.4722800000000014
 30
0.0
 10
-3.2293600000000002
 20
8.7653200000000009
 30
0.0
 10
-3.2293600000000002
 20
8.7653200000000009
 30
0.0
 10
-3.9635800000000003
 20
9.0583600000000004
 30
0.0
 10
-4.4855300000000007
 20
9.1304300000000005
 30
0.0
 10
-4.5307600000000008
 20
9.3283100000000001
 30
0.0
 10
-4.5307600000000008
 20
9.3283100000000001
 30
0.0
 10
-4.5759800000000004
 20
9.5262200000000004
 30
0.0
 10
-3.0739000000000001
 20
8.9993800000000004
 30
0.0
 10
-2.3104100000000001
 20
8.4308000000000014
 30
0.0
 10
-2.3104100000000001
 20
8.4308000000000014
 30
0.0
 10
-1.5469300000000001
 20
7.8622400000000008
 30
0.0
 10
-0.9403300000000001
 20
6.9480100000000009
 30
0.0
 10
-0.43086
 20
6.6061700000000005
 30
0.0
 10
-0.43086
 20
6.6061700000000005
 30
0.0
 10
0.07861
 20
6.2643200000000006
 30
0.0
 10
0.4915200000000001
 20
6.0795400000000006
 30
0.0
 10
0.9059
 20
6.0063500000000003
 30
0.0
 10
0.9059
 20
6.0063500000000003
 30
0.0
 10
1.3202900000000002
 20
5.9331400000000007
 30
0.0
 10
1.5337400000000001
 20
6.0314300000000003
 30
0.0
 10
1.5337400000000001
 20
6.0314300000000003
 30
0.0
  0
SPLINE
  5
26
100
AcDbEntity
  8
Ebene 1
 62
     5
100
AcDbSpline
210
0.0
220
0.0
230
1.0
 70
     1
 71
     3
 72
    68
 73
    64
 74
     0
 42
0.0000000001
 43
0.0000000001
 40
0.0
 40
0.0
 40
0.0
 40
0.0
 40
0.0625
 40
0.0625
 40
0.0625
 40
0.0625
 40
0.125
 40
0.125
 40
0.125
 40
0.125
 40
0.1875
 40
0.1875
 40
0.1875
 40
0.1875
 40
0.25
 40
0.25
 40
0.25
 40
0.25
 40
0.3125
 40
0.3125
 40
0.3125
 40
0.3125
 40
0.375
 40
0.375
 40
0.375
 40
0.375
 40
0.4375
 40
0.4375
 40
0.4375
 40
0.4375
 40
0.5
 40
0.5
 40
0.5
 40
0.5
 40
0.5625
 40
0.5625
 40
0.5625
 40
0.5625
 40
0.625
 40
0.625
 40
0.625
 40
0.625
 40
0.6875
 40
0.6875
 40
0.6875
 40
0.6875
 40
0.75
 40
0.75
 40
0.75
 40
0.75
 40
0.8125
 40
0.8125
 40
0.8125
 40
0.8125
 40
0.875
 40
0.875
 40
0.875
 40
0.875
 40
0.9375
 40
0.9375
 40
0.9375
 40
0.9375
 40
1.0
 40
1.0
 40
1.0
 40
1.0
 10
1.7631800000000002
 20
5.7758900000000004
 30
0.0
 10
1.8127500000000001
 20
5.7758900000000004
 30
0.0
 10
1.8556600000000001
 20
5.7346000000000004
 30
0.0
 10
1.8808100000000001
 20
5.6712300000000004
 30
0.0
 10
1.8808100000000001
 20
5.6712300000000004
 30
0.0
 10
1.9043700000000001
 20
5.6118000000000006
 30
0.0
 10
1.9105800000000002
 20
5.5304300000000008
 30
0.0
 10
1.8981100000000002
 20
5.4372700000000007
 30
0.0
 10
1.8981100000000002
 20
5.4372700000000007
 30
0.0
 10
1.8857000000000002
 20
5.3440500000000002
 30
0.0
 10
1.8588300000000002
 20
5.2484600000000006
 30
0.0
 10
1.8347100000000001
 20
5.1676600000000006
 30
0.0
 10
1.8347100000000001
 20
5.1676600000000006
 30
0.0
 10
1.8231400000000002
 20
5.1288300000000007
 30
0.0
 10
1.8125800000000001
 20
5.0936900000000005
 30
0.0
 10
1.8026200000000001
 20
5.0646800000000001
 30
0.0
 10
1.8026200000000001
 20
5.0646800000000001
 30
0.0
 10
1.8364400000000001
 20
5.0228200000000003
 30
0.0
 10
1.8649600000000002
 20
4.9283600000000005
 30
0.0
 10
1.8837700000000002
 20
4.8016800000000002
 30
0.0
 10
1.8837700000000002
 20
4.8016800000000002
 30
0.0
 10
1.9079600000000001
 20
4.6389200000000006
 30
0.0
 10
1.9142300000000001
 20
4.4158800000000005
 30
0.0
 10
1.9014800000000001
 20
4.1606700000000005
 30
0.0
 10
1.9014800000000001
 20
4.1606700000000005
 30
0.0
 10
1.8887400000000001
 20
3.9051800000000005
 30
0.0
 10
1.8611700000000002
 20
3.6433600000000004
 30
0.0
 10
1.8364400000000001
 20
3.4219000000000004
 30
0.0
 10
1.8364400000000001
 20
3.4219000000000004
 30
0.0
 10
1.8110600000000001
 20
3.1939800000000003
 30
0.0
 10
1.7904600000000002
 20
3.0119400000000001
 30
0.0
 10
1.77024
 20
2.9435200000000004
 30
0.0
 10
1.77024
 20
2.9435200000000004
 30
0.0
 10
1.7496200000000002
 20
3.0069800000000004
 30
0.0
 10
1.7278300000000002
 20
3.1910100000000003
 30
0.0
 10
1.70086
 20
3.4201100000000002
 30
0.0
 10
1.70086
 20
3.4201100000000002
 30
0.0
 10
1.67466
 20
3.6431500000000003
 30
0.0
 10
1.6453500000000001
 20
3.9051800000000005
 30
0.0
 10
1.6309500000000001
 20
4.1606700000000005
 30
0.0
 10
1.6309500000000001
 20
4.1606700000000005
 30
0.0
 10
1.6164900000000002
 20
4.4158800000000005
 30
0.0
 10
1.6212700000000002
 20
4.6387800000000006
 30
0.0
 10
1.6443200000000002
 20
4.8014100000000006
 30
0.0
 10
1.6443200000000002
 20
4.8014100000000006
 30
0.0
 10
1.6638600000000001
 20
4.9392300000000002
 30
0.0
 10
1.6951000000000001
 20
5.0389100000000004
 30
0.0
 10
1.73255
 20
5.0743100000000005
 30
0.0
 10
1.73255
 20
5.0743100000000005
 30
0.0
 10
1.7232000000000001
 20
5.1011800000000003
 30
0.0
 10
1.7132600000000002
 20
5.1327000000000007
 30
0.0
 10
1.7024600000000001
 20
5.1669800000000006
 30
0.0
 10
1.7024600000000001
 20
5.1669800000000006
 30
0.0
 10
1.6769000000000001
 20
5.2483900000000006
 30
0.0
 10
1.6483500000000002
 20
5.3440500000000002
 30
0.0
 10
1.63426
 20
5.4372700000000007
 30
0.0
 10
1.63426
 20
5.4372700000000007
 30
0.0
 10
1.6201700000000001
 20
5.5304300000000008
 30
0.0
 10
1.6248200000000002
 20
5.6117800000000004
 30
0.0
 10
1.6473200000000001
 20
5.6711600000000004
 30
0.0
 10
1.6473200000000001
 20
5.6711600000000004
 30
0.0
 10
1.6713300000000002
 20
5.7346000000000004
 30
0.0
 10
1.7135500000000001
 20
5.7758900000000004
 30
0.0
 10
1.7631800000000002
 20
5.7758900000000004
 30
0.0
  0
SPLINE
  5
27
100
AcDbEntity
  8
Ebene 1
 62
     5
100
AcDbSpline
210
0.0
220
0.0
230
1.0
 70
     1
 71
     3
 72
    44
 73
    40
 74
     0
 42
0.0000000001
 43
0.0000000001
 40
0.0
 40
0.0
 40
0.0
 40
0.0
 40
0.1
 40
0.1
 40
0.1
 40
0.1
 40
0.2
 40
0.2
 40
0.2
 40
0.2
 40
0.3
 40
0.3
 40
0.3
 40
0.3
 40
0.4
 40
0.4
 40
0.4
 40
0.4
 40
0.5
 40
0.5
 40
0.5
 40
0.5
 40
0.6
 40
0.6
 40
0.6
 40
0.6
 40
0.7
 40
0.7
 40
0.7
 40
0.7
 40
0.7999999999999999
 40
0.7999999999999999
 40
0.7999999999999999
 40
0.7999999999999999
 40
0.8999999999999999
 40
0.8999999999999999
 40
0.8999999999999999
 40
0.8999999999999999
 40
1.0
 40
1.0
 40
1.0
 40
1.0
 10
1.6596000000000002
 20
6.0818800000000008
 30
0.0
 10
1.6322100000000002
 20
6.0980700000000008
 30
0.0
 10
0.3753900000000001
 20
9.3000800000000012
 30
0.0
 10
0.00988
 20
9.5172800000000013
 30
0.0
 10
0.00988
 20
9.5172800000000013
 30
0.0
 10
-0.2277
 20
9.6584000000000003
 30
0.0
 10
-0.02628
 20
9.2989100000000011
 30
0.0
 10
0.0349
 20
9.2343299999999999
 30
0.0
 10
0.0349
 20
9.2343299999999999
 30
0.0
 10
0.09603
 20
9.1697500000000005
 30
0.0
 10
0.23483
 20
8.9649100000000015
 30
0.0
 10
0.23483
 20
8.9649100000000015
 30
0.0
 10
0.23483
 20
8.9649100000000015
 30
0.0
 10
0.22238
 20
8.9557500000000001
 30
0.0
 10
-0.18791
 20
9.3345500000000001
 30
0.0
 10
-0.2900700000000001
 20
9.5846300000000006
 30
0.0
 10
-0.2900700000000001
 20
9.5846300000000006
 30
0.0
 10
-0.3922000000000001
 20
9.8346700000000009
 30
0.0
 10
-0.06509
 20
9.7328200000000002
 30
0.0
 10
-0.06509
 20
9.7328200000000002
 30
0.0
 10
-0.06509
 20
9.7328200000000002
 30
0.0
 10
-0.06509
 20
9.7328200000000002
 30
0.0
 10
-0.19554
 20
10.023530000000001
 30
0.0
 10
-0.33369
 20
10.00881
 30
0.0
 10
-0.33369
 20
10.00881
 30
0.0
 10
-0.47184
 20
9.9941000000000013
 30
0.0
 10
-0.37513
 20
9.7409700000000008
 30
0.0
 10
-0.37513
 20
9.7409700000000008
 30
0.0
 10
-0.37513
 20
9.7409700000000008
 30
0.0
 10
-0.37513
 20
9.7409700000000008
 30
0.0
 10
-0.52751
 20
9.9483500000000014
 30
0.0
 10
-0.45251
 20
10.042670000000001
 30
0.0
 10
-0.45251
 20
10.042670000000001
 30
0.0
 10
-0.37756
 20
10.136970000000002
 30
0.0
 10
-0.1901
 20
10.258220000000001
 30
0.0
 10
0.25982
 20
9.3556000000000008
 30
0.0
 10
0.25982
 20
9.3556000000000008
 30
0.0
 10
0.7097500000000001
 20
8.4529700000000005
 30
0.0
 10
1.6596000000000002
 20
6.0818800000000008
 30
0.0
 10
1.6596000000000002
 20
6.0818800000000008
 30
0.0
  0
SPLINE
  5
28
100
AcDbEntity
  8
Ebene 1
 62
     5
100
AcDbSpline
210
0.0
220
0.0
230
1.0
 70
     1
 71
     3
 72
    44
 73
    40
 74
     0
 42
0.0000000001
 43
0.0000000001
 40
0.0
 40
0.0
 40
0.0
 40
0.0
 40
0.1
 40
0.1
 40
0.1
 40
0.1
 40
0.2
 40
0.2
 40
0.2
 40
0.2
 40
0.3
 40
0.3
 40
0.3
 40
0.3
 40
0.4
 40
0.4
 40
0.4
 40
0.4
 40
0.5
 40
0.5
 40
0.5
 40
0.5
 40
0.6
 40
0.6
 40
0.6
 40
0.6
 40
0.7
 40
0.7
 40
0.7
 40
0.7
 40
0.7999999999999999
 40
0.7999999999999999
 40
0.7999999999999999
 40
0.7999999999999999
 40
0.8999999999999999
 40
0.8999999999999999
 40
0.8999999999999999
 40
0.8999999999999999
 40
1.0
 40
1.0
 40
1.0
 40
1.0
 10
1.8447100000000001
 20
6.0818800000000008
 30
0.0
 10
1.8721300000000001
 20
6.0980700000000008
 30
0.0
 10
3.1289000000000002
 20
9.3000800000000012
 30
0.0
 10
3.4944200000000003
 20
9.5172800000000013
 30
0.0
 10
3.4944200000000003
 20
9.5172800000000013
 30
0.0
 10
3.7320700000000002
 20
9.6584000000000003
 30
0.0
 10
3.5306000000000002
 20
9.2989100000000011
 30
0.0
 10
3.4694100000000003
 20
9.2343299999999999
 30
0.0
 10
3.4694100000000003
 20
9.2343299999999999
 30
0.0
 10
3.4083000000000001
 20
9.1697500000000005
 30
0.0
 10
3.2694600000000005
 20
8.9649100000000015
 30
0.0
 10
3.2694600000000005
 20
8.9649100000000015
 30
0.0
 10
3.2694600000000005
 20
8.9649100000000015
 30
0.0
 10
3.2819300000000005
 20
8.9557500000000001
 30
0.0
 10
3.6922400000000004
 20
9.3345500000000001
 30
0.0
 10
3.7944200000000001
 20
9.5846300000000006
 30
0.0
 10
3.7944200000000001
 20
9.5846300000000006
 30
0.0
 10
3.8965300000000003
 20
9.8346700000000009
 30
0.0
 10
3.5694600000000003
 20
9.7328200000000002
 30
0.0
 10
3.5694600000000003
 20
9.7328200000000002
 30
0.0
 10
3.5694600000000003
 20
9.7328200000000002
 30
0.0
 10
3.5694600000000003
 20
9.7328200000000002
 30
0.0
 10
3.6998900000000003
 20
10.023530000000001
 30
0.0
 10
3.8380400000000003
 20
10.00881
 30
0.0
 10
3.8380400000000003
 20
10.00881
 30
0.0
 10
3.9761900000000003
 20
9.9941000000000013
 30
0.0
 10
3.8794500000000003
 20
9.7409700000000008
 30
0.0
 10
3.8794500000000003
 20
9.7409700000000008
 30
0.0
 10
3.8794500000000003
 20
9.7409700000000008
 30
0.0
 10
3.8794500000000003
 20
9.7409700000000008
 30
0.0
 10
4.03186
 20
9.9483500000000014
 30
0.0
 10
3.9568200000000004
 20
10.042670000000001
 30
0.0
 10
3.9568200000000004
 20
10.042670000000001
 30
0.0
 10
3.8819300000000001
 20
10.136970000000002
 30
0.0
 10
3.6944500000000002
 20
10.258220000000001
 30
0.0
 10
3.2445200000000001
 20
9.3556000000000008
 30
0.0
 10
3.2445200000000001
 20
9.3556000000000008
 30
0.0
 10
2.7945900000000004
 20
8.4529700000000005
 30
0.0
 10
1.8447100000000001
 20
6.0818800000000008
 30
0.0
 10
1.8447100000000001
 20
6.0818800000000008
 30
0.0
  0
SPLINE
  5
29
100
AcDbEntity
  8
Ebene 1
 62
     5
100
AcDbSpline
210
0.0
220
0.0
230
1.0
 70
     1
 71
     3
 72
    36
 73
    32
 74
     0
 42
0.0000000001
 43
0.0000000001
 40
0.0
 40
0.0
 40
0.0
 40
0.0
 40
0.125
 40
0.125
 40
0.125
 40
0.125
 40
0.25
 40
0.25
 40
0.25
 40
0.25
 40
0.375
 40
0.375
 40
0.375
 40
0.375
 40
0.5
 40
0.5
 40
0.5
 40
0.5
 40
0.625
 40
0.625
 40
0.625
 40
0.625
 40
0.75
 40
0.75
 40
0.75
 40
0.75
 40
0.875
 40
0.875
 40
0.875
 40
0.875
 40
1.0
 40
1.0
 40
1.0
 40
1.0
 10
1.7568700000000002
 20
6.0559700000000003
 30
0.0
 10
1.7839400000000001
 20
6.0559700000000003
 30
0.0
 10
1.8082400000000001
 20
6.0420000000000007
 30
0.0
 10
1.8276900000000003
 20
6.0208900000000005
 30
0.0
 10
1.8276900000000003
 20
6.0208900000000005
 30
0.0
 10
1.8480800000000002
 20
5.9987300000000001
 30
0.0
 10
1.8665500000000002
 20
5.9693300000000002
 30
0.0
 10
1.8767400000000001
 20
5.9364100000000004
 30
0.0
 10
1.8767400000000001
 20
5.9364100000000004
 30
0.0
 10
1.8903200000000002
 20
5.9034800000000001
 30
0.0
 10
1.8901100000000002
 20
5.8726600000000007
 30
0.0
 10
1.8721300000000001
 20
5.8519000000000005
 30
0.0
 10
1.8721300000000001
 20
5.8519000000000005
 30
0.0
 10
1.8524900000000002
 20
5.8293200000000001
 30
0.0
 10
1.81227
 20
5.8168300000000004
 30
0.0
 10
1.76309
 20
5.8168300000000004
 30
0.0
 10
1.76309
 20
5.8168300000000004
 30
0.0
 10
1.7139700000000002
 20
5.8168300000000004
 30
0.0
 10
1.6724200000000002
 20
5.82925
 30
0.0
 10
1.6507800000000001
 20
5.8519000000000005
 30
0.0
 10
1.6507800000000001
 20
5.8519000000000005
 30
0.0
 10
1.6310100000000001
 20
5.8725900000000006
 30
0.0
 10
1.6286300000000002
 20
5.9034800000000001
 30
0.0
 10
1.6402200000000002
 20
5.9364100000000004
 30
0.0
 10
1.6402200000000002
 20
5.9364100000000004
 30
0.0
 10
1.6490200000000002
 20
5.9693300000000002
 30
0.0
 10
1.6665200000000002
 20
5.9987800000000009
 30
0.0
 10
1.68642
 20
6.0208900000000005
 30
0.0
 10
1.68642
 20
6.0208900000000005
 30
0.0
 10
1.70564
 20
6.0420700000000007
 30
0.0
 10
1.7298800000000001
 20
6.0559700000000003
 30
0.0
 10
1.7568700000000002
 20
6.0559700000000003
 30
0.0
  0
SPLINE
  5
2A
100
AcDbEntity
  8
Ebene 1
 62
     5
100
AcDbSpline
210
0.0
220
0.0
230
1.0
 70
     1
 71
     3
 72
   260
 73
   256
 74
     0
 42
0.0000000001
 43
0.0000000001
 40
0.0
 40
0.0
 40
0.0
 40
0.0
 40
0.015625
 40
0.015625
 40
0.015625
 40
0.015625
 40
0.03125
 40
0.03125
 40
0.03125
 40
0.03125
 40
0.046875
 40
0.046875
 40
0.046875
 40
0.046875
 40
0.0625
 40
0.0625
 40
0.0625
 40
0.0625
 40
0.078125
 40
0.078125
 40
0.078125
 40
0.078125
 40
0.09375
 40
0.09375
 40
0.09375
 40
0.09375
 40
0.109375
 40
0.109375
 40
0.109375
 40
0.109375
 40
0.125
 40
0.125
 40
0.125
 40
0.125
 40
0.140625
 40
0.140625
 40
0.140625
 40
0.140625
 40
0.15625
 40
0.15625
 40
0.15625
 40
0.15625
 40
0.171875
 40
0.171875
 40
0.171875
 40
0.171875
 40
0.1875
 40
0.1875
 40
0.1875
 40
0.1875
 40
0.203125
 40
0.203125
 40
0.203125
 40
0.203125
 40
0.21875
 40
0.21875
 40
0.21875
 40
0.21875
 40
0.234375
 40
0.234375
 40
0.234375
 40
0.234375
 40
0.25
 40
0.25
 40
0.25
 40
0.25
 40
0.265625
 40
0.265625
 40
0.265625
 40
0.265625
 40
0.28125
 40
0.28125
 40
0.28125
 40
0.28125
 40
0.296875
 40
0.296875
 40
0.296875
 40
0.296875
 40
0.3125
 40
0.3125
 40
0.3125
 40
0.3125
 40
0.328125
 40
0.328125
 40
0.328125
 40
0.328125
 40
0.34375
 40
0.34375
 40
0.34375
 40
0.34375
 40
0.359375
 40
0.359375
 40
0.359375
 40
0.359375
 40
0.375
 40
0.375
 40
0.375
 40
0.375
 40
0.390625
 40
0.390625
 40
0.390625
 40
0.390625
 40
0.40625
 40
0.40625
 40
0.40625
 40
0.40625
 40
0.421875
 40
0.421875
 40
0.421875
 40
0.421875
 40
0.4375
 40
0.4375
 40
0.4375
 40
0.4375
 40
0.453125
 40
0.453125
 40
0.453125
 40
0.453125
 40
0.46875
 40
0.46875
 40
0.46875
 40
0.46875
 40
0.484375
 40
0.484375
 40
0.484375
 40
0.484375
 40
0.5
 40
0.5
 40
0.5
 40
0.5
 40
0.515625
 40
0.515625
 40
0.515625
 40
0.515625
 40
0.53125
 40
0.53125
 40
0.53125
 40
0.53125
 40
0.546875
 40
0.546875
 40
0.546875
 40
0.546875
 40
0.5625
 40
0.5625
 40
0.5625
 40
0.5625
 40
0.578125
 40
0.578125
 40
0.578125
 40
0.578125
 40
0.59375
 40
0.59375
 40
0.59375
 40
0.59375
 40
0.609375
 40
0.609375
 40
0.609375
 40
0.609375
 40
0.625
 40
0.625
 40
0.625
 40
0.625
 40
0.640625
 40
0.640625
 40
0.640625
 40
0.640625
 40
0.65625
 40
0.65625
 40
0.65625
 40
0.65625
 40
0.671875
 40
0.671875
 40
0.671875
 40
0.671875
 40
0.6875
 40
0.6875
 40
0.6875
 40
0.6875
 40
0.703125
 40
0.703125
 40
0.703125
 40
0.703125
 40
0.71875
 40
0.71875
 40
0.71875
 40
0.71875
 40
0.734375
 40
0.734375
 40
0.734375
 40
0.734375
 40
0.75
 40
0.75
 40
0.75
 40
0.75
 40
0.765625
 40
0.765625
 40
0.765625
 40
0.765625
 40
0.78125
 40
0.78125
 40
0.78125
 40
0.78125
 40
0.796875
 40
0.796875
 40
0.796875
 40
0.796875
 40
0.8125
 40
0.8125
 40
0.8125
 40
0.8125
 40
0.828125
 40
0.828125
 40
0.828125
 40
0.828125
 40
0.84375
 40
0.84375
 40
0.84375
 40
0.84375
 40
0.859375
 40
0.859375
 40
0.859375
 40
0.859375
 40
0.875
 40
0.875
 40
0.875
 40
0.875
 40
0.890625
 40
0.890625
 40
0.890625
 40
0.890625
 40
0.90625
 40
0.90625
 40
0.90625
 40
0.90625
 40
0.921875
 40
0.921875
 40
0.921875
 40
0.921875
 40
0.9375
 40
0.9375
 40
0.9375
 40
0.9375
 40
0.953125
 40
0.953125
 40
0.953125
 40
0.953125
 40
0.96875
 40
0.96875
 40
0.96875
 40
0.96875
 40
0.984375
 40
0.984375
 40
0.984375
 40
0.984375
 40
1.0
 40
1.0
 40
1.0
 40
1.0
 10
1.9557100000000001
 20
6.0314300000000003
 30
0.0
 10
1.9557100000000001
 20
6.0314300000000003
 30
0.0
 10
3.2690500000000005
 20
5.9093700000000009
 30
0.0
 10
4.4671799999999999
 20
7.2885600000000004
 30
0.0
 10
4.4671799999999999
 20
7.2885600000000004
 30
0.0
 10
5.6653200000000004
 20
8.6677300000000006
 30
0.0
 10
6.5795800000000009
 20
9.1293800000000012
 30
0.0
 10
7.3587900000000008
 20
9.4126500000000011
 30
0.0
 10
7.3587900000000008
 20
9.4126500000000011
 30
0.0
 10
8.1379300000000008
 20
9.695920000000001
 30
0.0
 10
8.6871500000000008
 20
9.7398199999999999
 30
0.0
 10
8.6871500000000008
 20
9.7398199999999999
 30
0.0
 10
8.6871500000000008
 20
9.7398199999999999
 30
0.0
 10
8.6871500000000008
 20
9.7398199999999999
 30
0.0
 10
9.0314500000000013
 20
7.8549800000000003
 30
0.0
 10
7.725480000000001
 20
6.2692600000000009
 30
0.0
 10
7.725480000000001
 20
6.2692600000000009
 30
0.0
 10
6.4195200000000003
 20
4.6835000000000004
 30
0.0
 10
5.8780800000000006
 20
4.4969800000000006
 30
0.0
 10
5.7279500000000008
 20
3.8693500000000003
 30
0.0
 10
5.7279500000000008
 20
3.8693500000000003
 30
0.0
 10
5.5777400000000004
 20
3.2418000000000005
 30
0.0
 10
6.0800400000000003
 20
2.9916800000000001
 30
0.0
 10
6.0800400000000003
 20
2.9916800000000001
 30
0.0
 10
6.0800400000000003
 20
2.9916800000000001
 30
0.0
 10
6.0800400000000003
 20
2.9916800000000001
 30
0.0
 10
5.2129700000000003
 20
3.0317100000000003
 30
0.0
 10
4.7382400000000002
 20
3.4611800000000001
 30
0.0
 10
4.7382400000000002
 20
3.4611800000000001
 30
0.0
 10
4.2635100000000001
 20
3.8907100000000003
 30
0.0
 10
3.3831500000000001
 20
3.5774900000000005
 30
0.0
 10
3.2237100000000001
 20
3.2041100000000005
 30
0.0
 10
3.2237100000000001
 20
3.2041100000000005
 30
0.0
 10
3.0642
 20
2.8308000000000004
 30
0.0
 10
3.3990700000000005
 20
2.7408800000000002
 30
0.0
 10
3.4333800000000001
 20
2.70608
 30
0.0
 10
3.4333800000000001
 20
2.70608
 30
0.0
 10
3.4676200000000001
 20
2.6712900000000004
 30
0.0
 10
2.8939400000000002
 20
2.7627200000000003
 30
0.0
 10
2.8655600000000003
 20
3.1706200000000004
 30
0.0
 10
2.8655600000000003
 20
3.1706200000000004
 30
0.0
 10
2.8371700000000004
 20
3.5785900000000002
 30
0.0
 10
2.7294800000000001
 20
4.6877700000000004
 30
0.0
 10
2.4455300000000002
 20
4.9013200000000001
 30
0.0
 10
2.4455300000000002
 20
4.9013200000000001
 30
0.0
 10
2.1616500000000003
 20
5.1148800000000003
 30
0.0
 10
1.9603200000000001
 20
5.0151600000000007
 30
0.0
 10
1.9656300000000002
 20
5.0426500000000001
 30
0.0
 10
1.9656300000000002
 20
5.0426500000000001
 30
0.0
 10
1.9710000000000001
 20
5.0701400000000003
 30
0.0
 10
2.3304
 20
5.2589300000000003
 30
0.0
 10
2.6526500000000004
 20
4.8340800000000002
 30
0.0
 10
2.6526500000000004
 20
4.8340800000000002
 30
0.0
 10
2.9748400000000004
 20
4.4092700000000002
 30
0.0
 10
2.9977800000000001
 20
3.5721800000000004
 30
0.0
 10
3.2564400000000004
 20
3.6718100000000002
 30
0.0
 10
3.2564400000000004
 20
3.6718100000000002
 30
0.0
 10
3.5150900000000003
 20
3.7713800000000002
 30
0.0
 10
3.1774800000000001
 20
4.68302
 30
0.0
 10
2.9498200000000003
 20
4.9549900000000004
 30
0.0
 10
2.9498200000000003
 20
4.9549900000000004
 30
0.0
 10
2.7221700000000002
 20
5.2269800000000002
 30
0.0
 10
2.39344
 20
5.2514100000000008
 30
0.0
 10
2.37215
 20
5.2584900000000001
 30
0.0
 10
2.37215
 20
5.2584900000000001
 30
0.0
 10
2.3509300000000004
 20
5.2655800000000008
 30
0.0
 10
2.9085500000000004
 20
5.3356400000000006
 30
0.0
 10
3.2004200000000003
 20
4.9895800000000001
 30
0.0
 10
3.2004200000000003
 20
4.9895800000000001
 30
0.0
 10
3.4922200000000001
 20
4.6435300000000002
 30
0.0
 10
3.5893000000000002
 20
4.0372000000000003
 30
0.0
 10
3.9761200000000003
 20
3.9308800000000002
 30
0.0
 10
3.9761200000000003
 20
3.9308800000000002
 30
0.0
 10
4.3630000000000004
 20
3.8245700000000005
 30
0.0
 10
4.7133000000000003
 20
4.00075
 30
0.0
 10
4.6140800000000004
 20
4.2745000000000006
 30
0.0
 10
4.6140800000000004
 20
4.2745000000000006
 30
0.0
 10
4.5149300000000006
 20
4.5482500000000003
 30
0.0
 10
3.9401500000000005
 20
4.6285800000000004
 30
0.0
 10
3.9271300000000005
 20
4.48306
 30
0.0
 10
3.9271300000000005
 20
4.48306
 30
0.0
 10
3.9140400000000004
 20
4.3375400000000006
 30
0.0
 10
4.2351200000000002
 20
4.2381200000000003
 30
0.0
 10
4.2351200000000002
 20
4.2381200000000003
 30
0.0
 10
4.2351200000000002
 20
4.2381200000000003
 30
0.0
 10
4.2351200000000002
 20
4.2381200000000003
 30
0.0
 10
3.8270800000000005
 20
4.1338699999999999
 30
0.0
 10
3.7264200000000005
 20
4.5192400000000008
 30
0.0
 10
3.7264200000000005
 20
4.5192400000000008
 30
0.0
 10
3.6258200000000005
 20
4.9046000000000003
 30
0.0
 10
3.7029200000000002
 20
4.94719
 30
0.0
 10
3.4767200000000003
 20
5.1075900000000001
 30
0.0
 10
3.4767200000000003
 20
5.1075900000000001
 30
0.0
 10
3.2505100000000002
 20
5.2680100000000003
 30
0.0
 10
3.1025100000000001
 20
5.2928700000000006
 30
0.0
 10
3.1125000000000003
 20
5.3128100000000007
 30
0.0
 10
3.1125000000000003
 20
5.3128100000000007
 30
0.0
 10
3.1224900000000004
 20
5.3327800000000005
 30
0.0
 10
4.2236100000000008
 20
5.2457100000000008
 30
0.0
 10
4.6436400000000004
 20
4.7576900000000002
 30
0.0
 10
4.6436400000000004
 20
4.7576900000000002
 30
0.0
 10
5.0636600000000005
 20
4.2696800000000001
 30
0.0
 10
5.7093400000000001
 20
4.3778500000000005
 30
0.0
 10
5.8334400000000004
 20
4.7143700000000006
 30
0.0
 10
5.8334400000000004
 20
4.7143700000000006
 30
0.0
 10
5.9575300000000002
 20
5.0509200000000005
 30
0.0
 10
5.1357400000000002
 20
5.2887900000000005
 30
0.0
 10
5.0873000000000008
 20
5.1064200000000008
 30
0.0
 10
5.0873000000000008
 20
5.1064200000000008
 30
0.0
 10
5.0388600000000006
 20
4.9240700000000004
 30
0.0
 10
5.45296
 20
4.7896100000000006
 30
0.0
 10
5.45296
 20
4.7896100000000006
 30
0.0
 10
5.45296
 20
4.7896100000000006
 30
0.0
 10
5.45296
 20
4.7896100000000006
 30
0.0
 10
5.2215900000000008
 20
4.6618700000000004
 30
0.0
 10
4.9762300000000002
 20
4.9154100000000005
 30
0.0
 10
4.9762300000000002
 20
4.9154100000000005
 30
0.0
 10
4.7308700000000004
 20
5.1690000000000005
 30
0.0
 10
4.4229500000000002
 20
5.4139300000000006
 30
0.0
 10
4.0520500000000004
 20
5.4425600000000003
 30
0.0
 10
4.0520500000000004
 20
5.4425600000000003
 30
0.0
 10
3.6811500000000001
 20
5.4711900000000009
 30
0.0
 10
3.3615800000000005
 20
5.4590100000000001
 30
0.0
 10
3.3615800000000005
 20
5.4590100000000001
 30
0.0
 10
3.3615800000000005
 20
5.4590100000000001
 30
0.0
 10
3.3615800000000005
 20
5.4590100000000001
 30
0.0
 10
4.2260300000000006
 20
5.8498700000000001
 30
0.0
 10
5.0190800000000007
 20
5.7517900000000006
 30
0.0
 10
5.0190800000000007
 20
5.7517900000000006
 30
0.0
 10
5.8122200000000008
 20
5.6536900000000001
 30
0.0
 10
5.7652200000000002
 20
5.3597400000000004
 30
0.0
 10
6.1007800000000003
 20
5.2943000000000007
 30
0.0
 10
6.1007800000000003
 20
5.2943000000000007
 30
0.0
 10
6.4362600000000008
 20
5.2288400000000008
 30
0.0
 10
6.9730100000000004
 20
5.5425000000000004
 30
0.0
 10
6.7294400000000003
 20
5.8921600000000005
 30
0.0
 10
6.7294400000000003
 20
5.8921600000000005
 30
0.0
 10
6.4858000000000002
 20
6.2417800000000003
 30
0.0
 10
6.0346300000000008
 20
6.2433700000000005
 30
0.0
 10
5.8513500000000001
 20
6.0902900000000004
 30
0.0
 10
5.8513500000000001
 20
6.0902900000000004
 30
0.0
 10
5.6680700000000002
 20
5.9372400000000001
 30
0.0
 10
6.3182300000000007
 20
5.8034100000000004
 30
0.0
 10
6.3182300000000007
 20
5.8034100000000004
 30
0.0
 10
6.3182300000000007
 20
5.8034100000000004
 30
0.0
 10
6.3182300000000007
 20
5.8034100000000004
 30
0.0
 10
6.1109100000000005
 20
5.6630100000000008
 30
0.0
 10
5.7803200000000006
 20
5.8090000000000002
 30
0.0
 10
5.7803200000000006
 20
5.8090000000000002
 30
0.0
 10
5.4497200000000001
 20
5.9549800000000008
 30
0.0
 10
5.2968300000000008
 20
6.1209100000000003
 30
0.0
 10
4.7369300000000001
 20
6.0801200000000009
 30
0.0
 10
4.7369300000000001
 20
6.0801200000000009
 30
0.0
 10
4.1770400000000008
 20
6.0393500000000007
 30
0.0
 10
3.7638300000000005
 20
5.8847300000000002
 30
0.0
 10
3.7829200000000003
 20
5.9164500000000002
 30
0.0
 10
3.7829200000000003
 20
5.9164500000000002
 30
0.0
 10
3.7829200000000003
 20
5.9164500000000002
 30
0.0
 10
5.2466700000000008
 20
6.6296300000000006
 30
0.0
 10
5.9388600000000009
 20
6.7092500000000008
 30
0.0
 10
5.9388600000000009
 20
6.7092500000000008
 30
0.0
 10
6.6310500000000001
 20
6.7888600000000006
 30
0.0
 10
7.0355700000000008
 20
6.7010000000000005
 30
0.0
 10
7.4354700000000005
 20
6.7402400000000009
 30
0.0
 10
7.4354700000000005
 20
6.7402400000000009
 30
0.0
 10
7.8353800000000007
 20
6.7794900000000009
 30
0.0
 10
8.0623500000000003
 20
7.2420500000000008
 30
0.0
 10
7.6868300000000005
 20
7.397800000000001
 30
0.0
 10
7.6868300000000005
 20
7.397800000000001
 30
0.0
 10
7.3113100000000006
 20
7.5535600000000009
 30
0.0
 10
7.0317800000000004
 20
7.4510600000000009
 30
0.0
 10
6.8935000000000004
 20
7.2882500000000006
 30
0.0
 10
6.8935000000000004
 20
7.2882500000000006
 30
0.0
 10
6.7551400000000008
 20
7.1254000000000008
 30
0.0
 10
7.2785900000000003
 20
7.0859000000000005
 30
0.0
 10
7.2785900000000003
 20
7.0859000000000005
 30
0.0
 10
7.2785900000000003
 20
7.0859000000000005
 30
0.0
 10
7.2785900000000003
 20
7.0859000000000005
 30
0.0
 10
7.2623200000000008
 20
6.9558800000000005
 30
0.0
 10
6.7470100000000004
 20
7.060410000000001
 30
0.0
 10
6.7470100000000004
 20
7.060410000000001
 30
0.0
 10
6.2317600000000004
 20
7.1649200000000004
 30
0.0
 10
5.6230800000000007
 20
7.0968400000000003
 30
0.0
 10
5.2101500000000005
 20
6.9120400000000002
 30
0.0
 10
5.2101500000000005
 20
6.9120400000000002
 30
0.0
 10
4.7972200000000003
 20
6.7272700000000007
 30
0.0
 10
4.42605
 20
6.5482400000000007
 30
0.0
 10
4.42605
 20
6.5482400000000007
 30
0.0
 10
4.42605
 20
6.5482400000000007
 30
0.0
 10
4.42605
 20
6.5482400000000007
 30
0.0
 10
4.9697500000000003
 20
7.2461700000000002
 30
0.0
 10
6.0588800000000003
 20
7.588210000000001
 30
0.0
 10
6.0588800000000003
 20
7.588210000000001
 30
0.0
 10
7.1480200000000007
 20
7.9302600000000005
 30
0.0
 10
7.7589700000000006
 20
7.9693400000000008
 30
0.0
 10
8.0576600000000003
 20
8.5190100000000015
 30
0.0
 10
8.0576600000000003
 20
8.5190100000000015
 30
0.0
 10
8.35642
 20
9.0686700000000009
 30
0.0
 10
8.3835000000000015
 20
9.4010100000000012
 30
0.0
 10
8.3687500000000004
 20
9.4083900000000007
 30
0.0
 10
8.3687500000000004
 20
9.4083900000000007
 30
0.0
 10
8.3540100000000006
 20
9.4157900000000012
 30
0.0
 10
8.0431900000000009
 20
8.48508
 30
0.0
 10
7.440640000000001
 20
8.1782700000000013
 30
0.0
 10
7.440640000000001
 20
8.1782700000000013
 30
0.0
 10
6.8380300000000007
 20
7.8714900000000005
 30
0.0
 10
5.6642100000000006
 20
7.8371400000000007
 30
0.0
 10
4.8009400000000007
 20
7.1270400000000009
 30
0.0
 10
4.8009400000000007
 20
7.1270400000000009
 30
0.0
 10
3.9377400000000002
 20
6.4169300000000007
 30
0.0
 10
4.1459600000000005
 20
6.3818100000000006
 30
0.0
 10
4.0548700000000002
 20
6.3692400000000005
 30
0.0
 10
4.0548700000000002
 20
6.3692400000000005
 30
0.0
 10
3.9638500000000003
 20
6.3566400000000005
 30
0.0
 10
4.36252
 20
7.0664900000000008
 30
0.0
 10
5.02942
 20
7.477990000000001
 30
0.0
 10
5.02942
 20
7.477990000000001
 30
0.0
 10
5.6963900000000001
 20
7.8895000000000008
 30
0.0
 10
6.3468300000000006
 20
7.963350000000001
 30
0.0
 10
6.714760000000001
 20
8.1579000000000015
 30
0.0
 10
6.714760000000001
 20
8.1579000000000015
 30
0.0
 10
7.0827700000000009
 20
8.3524400000000014
 30
0.0
 10
7.0783600000000009
 20
8.6872199999999999
 30
0.0
 10
6.7394300000000005
 20
8.5605600000000006
 30
0.0
 10
6.7394300000000005
 20
8.5605600000000006
 30
0.0
 10
6.400430000000001
 20
8.4338800000000003
 30
0.0
 10
6.4514900000000006
 20
8.1854000000000013
 30
0.0
 10
6.0434500000000009
 20
8.0811600000000006
 30
0.0
 10
6.0434500000000009
 20
8.0811600000000006
 30
0.0
 10
5.6354800000000003
 20
7.9769100000000011
 30
0.0
 10
5.4249900000000002
 20
7.8520100000000008
 30
0.0
 10
5.4249900000000002
 20
7.8520100000000008
 30
0.0
 10
5.4249900000000002
 20
7.8520100000000008
 30
0.0
 10
5.4249900000000002
 20
7.8520100000000008
 30
0.0
 10
5.9846100000000009
 20
8.4722800000000014
 30
0.0
 10
6.7188300000000005
 20
8.7653200000000009
 30
0.0
 10
6.7188300000000005
 20
8.7653200000000009
 30
0.0
 10
7.4530500000000002
 20
9.0583600000000004
 30
0.0
 10
7.9749800000000004
 20
9.1304300000000005
 30
0.0
 10
8.0201799999999999
 20
9.3283100000000001
 30
0.0
 10
8.0201799999999999
 20
9.3283100000000001
 30
0.0
 10
8.0654500000000002
 20
9.5262200000000004
 30
0.0
 10
6.5633800000000004
 20
8.9993800000000004
 30
0.0
 10
5.7998800000000008
 20
8.4308000000000014
 30
0.0
 10
5.7998800000000008
 20
8.4308000000000014
 30
0.0
 10
5.0363800000000003
 20
7.8622400000000008
 30
0.0
 10
4.4297700000000004
 20
6.9480100000000009
 30
0.0
 10
3.9203100000000002
 20
6.6061700000000005
 30
0.0
 10
3.9203100000000002
 20
6.6061700000000005
 30
0.0
 10
3.4108400000000003
 20
6.2643200000000006
 30
0.0
 10
2.9979200000000001
 20
6.0795400000000006
 30
0.0
 10
2.5835400000000002
 20
6.0063500000000003
 30
0.0
 10
2.5835400000000002
 20
6.0063500000000003
 30
0.0
 10
2.1691700000000003
 20
5.9331400000000007
 30
0.0
 10
1.9557100000000001
 20
6.0314300000000003
 30
0.0
 10
1.9557100000000001
 20
6.0314300000000003
 30
0.0
  0
SPLINE
  5
2B
100
AcDbEntity
  8
Ebene 1
 62
     5
100
AcDbSpline
210
0.0
220
0.0
230
1.0
 70
     1
 71
     3
 72
    76
 73
    72
 74
     0
 42
0.0000000001
 43
0.0000000001
 40
0.0
 40
0.0
 40
0.0
 40
0.0
 40
0.0555555555555556
 40
0.0555555555555556
 40
0.0555555555555556
 40
0.0555555555555556
 40
0.1111111111111111
 40
0.1111111111111111
 40
0.1111111111111111
 40
0.1111111111111111
 40
0.1666666666666667
 40
0.1666666666666667
 40
0.1666666666666667
 40
0.1666666666666667
 40
0.2222222222222222
 40
0.2222222222222222
 40
0.2222222222222222
 40
0.2222222222222222
 40
0.2777777777777778
 40
0.2777777777777778
 40
0.2777777777777778
 40
0.2777777777777778
 40
0.3333333333333334
 40
0.3333333333333334
 40
0.3333333333333334
 40
0.3333333333333334
 40
0.388888888888889
 40
0.388888888888889
 40
0.388888888888889
 40
0.388888888888889
 40
0.4444444444444445
 40
0.4444444444444445
 40
0.4444444444444445
 40
0.4444444444444445
 40
0.5000000000000001
 40
0.5000000000000001
 40
0.5000000000000001
 40
0.5000000000000001
 40
0.5555555555555557
 40
0.5555555555555557
 40
0.5555555555555557
 40
0.5555555555555557
 40
0.6111111111111113
 40
0.6111111111111113
 40
0.6111111111111113
 40
0.6111111111111113
 40
0.6666666666666669
 40
0.6666666666666669
 40
0.6666666666666669
 40
0.6666666666666669
 40
0.7222222222222224
 40
0.7222222222222224
 40
0.7222222222222224
 40
0.7222222222222224
 40
0.777777777777778
 40
0.777777777777778
 40
0.777777777777778
 40
0.777777777777778
 40
0.8333333333333336
 40
0.8333333333333336
 40
0.8333333333333336
 40
0.8333333333333336
 40
0.8888888888888892
 40
0.8888888888888892
 40
0.8888888888888892
 40
0.8888888888888892
 40
0.9444444444444448
 40
0.9444444444444448
 40
0.9444444444444448
 40
0.9444444444444448
 40
1.0
 40
1.0
 40
1.0
 40
1.0
 10
1.9660400000000002
 20
4.8115700000000006
 30
0.0
 10
1.9956000000000003
 20
4.8189600000000006
 30
0.0
 10
2.4784700000000002
 20
4.7041000000000004
 30
0.0
 10
2.5483300000000004
 20
3.8528900000000004
 30
0.0
 10
2.5483300000000004
 20
3.8528900000000004
 30
0.0
 10
2.6182000000000003
 20
3.0017400000000003
 30
0.0
 10
2.85453
 20
2.4798800000000001
 30
0.0
 10
3.4559800000000003
 20
2.3659100000000004
 30
0.0
 10
3.4559800000000003
 20
2.3659100000000004
 30
0.0
 10
4.0574900000000005
 20
2.2518800000000003
 30
0.0
 10
4.1043500000000002
 20
2.2583600000000001
 30
0.0
 10
4.1043500000000002
 20
2.2583600000000001
 30
0.0
 10
4.1043500000000002
 20
2.2583600000000001
 30
0.0
 10
4.1043500000000002
 20
2.2583600000000001
 30
0.0
 10
3.8808300000000004
 20
2.1737500000000001
 30
0.0
 10
3.5350800000000002
 20
2.21557
 30
0.0
 10
3.5350800000000002
 20
2.21557
 30
0.0
 10
3.1892600000000004
 20
2.2574000000000001
 30
0.0
 10
3.1173900000000003
 20
2.3141000000000003
 30
0.0
 10
3.0884600000000004
 20
2.2793100000000002
 30
0.0
 10
3.0884600000000004
 20
2.2793100000000002
 30
0.0
 10
3.0594500000000004
 20
2.24458
 30
0.0
 10
3.7694100000000001
 20
2.16127
 30
0.0
 10
3.7055400000000005
 20
1.7375300000000002
 30
0.0
 10
3.7055400000000005
 20
1.7375300000000002
 30
0.0
 10
3.6416700000000004
 20
1.3137800000000002
 30
0.0
 10
3.3425600000000002
 20
1.0424500000000001
 30
0.0
 10
3.05566
 20
0.68037
 30
0.0
 10
3.05566
 20
0.68037
 30
0.0
 10
2.7687500000000003
 20
0.31829
 30
0.0
 10
2.6988200000000004
 20
-0.07107
 30
0.0
 10
2.8479200000000002
 20
-0.29321
 30
0.0
 10
2.8479200000000002
 20
-0.29321
 30
0.0
 10
2.9970200000000005
 20
-0.5152800000000001
 30
0.0
 10
3.0996200000000003
 20
-0.64502
 30
0.0
 10
3.1169100000000003
 20
-0.6727200000000001
 30
0.0
 10
3.1169100000000003
 20
-0.6727200000000001
 30
0.0
 10
3.1342100000000004
 20
-0.70042
 30
0.0
 10
2.4851500000000004
 20
-0.29417
 30
0.0
 10
2.6588500000000002
 20
0.26723
 30
0.0
 10
2.6588500000000002
 20
0.26723
 30
0.0
 10
2.8324800000000003
 20
0.8287100000000001
 30
0.0
 10
3.2944000000000004
 20
1.39412
 30
0.0
 10
2.9648500000000002
 20
1.4739800000000001
 30
0.0
 10
2.9648500000000002
 20
1.4739800000000001
 30
0.0
 10
2.6353500000000003
 20
1.5539100000000001
 30
0.0
 10
2.6561600000000003
 20
0.9834700000000001
 30
0.0
 10
2.6561600000000003
 20
0.9834700000000001
 30
0.0
 10
2.6561600000000003
 20
0.9834700000000001
 30
0.0
 10
2.6561600000000003
 20
0.9834700000000001
 30
0.0
 10
2.4762600000000003
 20
1.1557200000000001
 30
0.0
 10
2.6011800000000003
 20
1.6028900000000001
 30
0.0
 10
2.6011800000000003
 20
1.6028900000000001
 30
0.0
 10
2.7260300000000002
 20
2.0501400000000003
 30
0.0
 10
2.8633500000000001
 20
2.31989
 30
0.0
 10
2.6707700000000001
 20
2.4366100000000004
 30
0.0
 10
2.6707700000000001
 20
2.4366100000000004
 30
0.0
 10
2.4781900000000001
 20
2.5533300000000003
 30
0.0
 10
2.5100900000000004
 20
2.1636200000000003
 30
0.0
 10
2.5100900000000004
 20
2.1636200000000003
 30
0.0
 10
2.5100900000000004
 20
2.1636200000000003
 30
0.0
 10
2.5100900000000004
 20
2.1636200000000003
 30
0.0
 10
2.1808800000000002
 20
2.4764300000000001
 30
0.0
 10
2.2446100000000002
 20
2.9868600000000001
 30
0.0
 10
2.2446100000000002
 20
2.9868600000000001
 30
0.0
 10
2.3082800000000003
 20
3.4972800000000004
 30
0.0
 10
2.3577500000000002
 20
4.0773700000000002
 30
0.0
 10
2.2699000000000003
 20
4.3877000000000006
 30
0.0
 10
2.2699000000000003
 20
4.3877000000000006
 30
0.0
 10
2.1820500000000003
 20
4.6980400000000007
 30
0.0
 10
1.9660400000000002
 20
4.8115700000000006
 30
0.0
 10
1.9660400000000002
 20
4.8115700000000006
 30
0.0
  0
SPLINE
  5
2C
100
AcDbEntity
  8
Ebene 1
 62
     5
100
AcDbSpline
210
0.0
220
0.0
230
1.0
 70
     1
 71
     3
 72
    56
 73
    52
 74
     0
 42
0.0000000001
 43
0.0000000001
 40
0.0
 40
0.0
 40
0.0
 40
0.0
 40
0.0769230769230769
 40
0.0769230769230769
 40
0.0769230769230769
 40
0.0769230769230769
 40
0.1538461538461539
 40
0.1538461538461539
 40
0.1538461538461539
 40
0.1538461538461539
 40
0.2307692307692308
 40
0.2307692307692308
 40
0.2307692307692308
 40
0.2307692307692308
 40
0.3076923076923077
 40
0.3076923076923077
 40
0.3076923076923077
 40
0.3076923076923077
 40
0.3846153846153846
 40
0.3846153846153846
 40
0.3846153846153846
 40
0.3846153846153846
 40
0.4615384615384616
 40
0.4615384615384616
 40
0.4615384615384616
 40
0.4615384615384616
 40
0.5384615384615386
 40
0.5384615384615386
 40
0.5384615384615386
 40
0.5384615384615386
 40
0.6153846153846154
 40
0.6153846153846154
 40
0.6153846153846154
 40
0.6153846153846154
 40
0.6923076923076923
 40
0.6923076923076923
 40
0.6923076923076923
 40
0.6923076923076923
 40
0.7692307692307692
 40
0.7692307692307692
 40
0.7692307692307692
 40
0.7692307692307692
 40
0.846153846153846
 40
0.846153846153846
 40
0.846153846153846
 40
0.846153846153846
 40
0.9230769230769229
 40
0.9230769230769229
 40
0.9230769230769229
 40
0.9230769230769229
 40
1.0
 40
1.0
 40
1.0
 40
1.0
 10
3.8849600000000004
 20
6.9344900000000003
 30
0.0
 10
3.8849600000000004
 20
6.9344900000000003
 30
0.0
 10
4.2560000000000002
 20
7.6025500000000008
 30
0.0
 10
4.1436200000000003
 20
8.084480000000001
 30
0.0
 10
4.1436200000000003
 20
8.084480000000001
 30
0.0
 10
4.0312400000000004
 20
8.5664000000000016
 30
0.0
 10
3.5978500000000002
 20
8.6052800000000005
 30
0.0
 10
3.3875600000000001
 20
8.4568600000000007
 30
0.0
 10
3.3875600000000001
 20
8.4568600000000007
 30
0.0
 10
3.17727
 20
8.3084100000000003
 30
0.0
 10
3.2873100000000002
 20
8.0856200000000005
 30
0.0
 10
3.4324100000000004
 20
8.0956900000000012
 30
0.0
 10
3.4324100000000004
 20
8.0956900000000012
 30
0.0
 10
3.5774500000000002
 20
8.1057900000000007
 30
0.0
 10
3.6826000000000003
 20
8.1799900000000001
 30
0.0
 10
3.6826000000000003
 20
8.1799900000000001
 30
0.0
 10
3.6826000000000003
 20
8.1799900000000001
 30
0.0
 10
3.6826000000000003
 20
8.1799900000000001
 30
0.0
 10
3.6303700000000001
 20
8.04345
 30
0.0
 10
3.4463300000000001
 20
8.0279800000000012
 30
0.0
 10
3.4463300000000001
 20
8.0279800000000012
 30
0.0
 10
3.2622300000000002
 20
8.0125000000000011
 30
0.0
 10
3.0943800000000001
 20
8.1783600000000014
 30
0.0
 10
3.1626600000000002
 20
8.3668700000000005
 30
0.0
 10
3.1626600000000002
 20
8.3668700000000005
 30
0.0
 10
3.2309400000000004
 20
8.5553699999999999
 30
0.0
 10
3.5492700000000004
 20
8.698830000000001
 30
0.0
 10
3.8462400000000003
 20
8.6204499999999999
 30
0.0
 10
3.8462400000000003
 20
8.6204499999999999
 30
0.0
 10
4.1432000000000002
 20
8.5420700000000007
 30
0.0
 10
4.2339500000000001
 20
8.2959399999999999
 30
0.0
 10
4.2339500000000001
 20
8.2959399999999999
 30
0.0
 10
4.2339500000000001
 20
8.2959399999999999
 30
0.0
 10
4.2339500000000001
 20
8.2959399999999999
 30
0.0
 10
4.31257
 20
8.376570000000001
 30
0.0
 10
4.2509700000000006
 20
8.5416800000000013
 30
0.0
 10
4.2509700000000006
 20
8.5416800000000013
 30
0.0
 10
4.1894400000000003
 20
8.7067800000000002
 30
0.0
 10
4.0174600000000007
 20
8.7634699999999999
 30
0.0
 10
4.0174600000000007
 20
8.7634699999999999
 30
0.0
 10
4.0174600000000007
 20
8.7634699999999999
 30
0.0
 10
4.0174600000000007
 20
8.7634699999999999
 30
0.0
 10
4.3655500000000007
 20
8.7618200000000002
 30
0.0
 10
4.4060700000000006
 20
8.3694400000000009
 30
0.0
 10
4.4060700000000006
 20
8.3694400000000009
 30
0.0
 10
4.44658
 20
7.9770800000000008
 30
0.0
 10
4.3612800000000007
 20
7.8061200000000008
 30
0.0
 10
4.2128000000000005
 20
7.4871500000000006
 30
0.0
 10
4.2128000000000005
 20
7.4871500000000006
 30
0.0
 10
4.0702400000000001
 20
7.1652300000000002
 30
0.0
 10
3.8962600000000003
 20
6.928840000000001
 30
0.0
 10
3.8849600000000004
 20
6.9344900000000003
 30
0.0
  0
SPLINE
  5
2D
100
AcDbEntity
  8
Ebene 1
 62
     5
100
AcDbSpline
210
0.0
220
0.0
230
1.0
 70
     1
 71
     3
 72
    64
 73
    60
 74
     0
 42
0.0000000001
 43
0.0000000001
 40
0.0
 40
0.0
 40
0.0
 40
0.0
 40
0.0666666666666667
 40
0.0666666666666667
 40
0.0666666666666667
 40
0.0666666666666667
 40
0.1333333333333333
 40
0.1333333333333333
 40
0.1333333333333333
 40
0.1333333333333333
 40
0.2
 40
0.2
 40
0.2
 40
0.2
 40
0.2666666666666667
 40
0.2666666666666667
 40
0.2666666666666667
 40
0.2666666666666667
 40
0.3333333333333333
 40
0.3333333333333333
 40
0.3333333333333333
 40
0.3333333333333333
 40
0.4
 40
0.4
 40
0.4
 40
0.4
 40
0.4666666666666666
 40
0.4666666666666666
 40
0.4666666666666666
 40
0.4666666666666666
 40
0.5333333333333333
 40
0.5333333333333333
 40
0.5333333333333333
 40
0.5333333333333333
 40
0.6
 40
0.6
 40
0.6
 40
0.6
 40
0.6666666666666666
 40
0.6666666666666666
 40
0.6666666666666666
 40
0.6666666666666666
 40
0.7333333333333333
 40
0.7333333333333333
 40
0.7333333333333333
 40
0.7333333333333333
 40
0.7999999999999999
 40
0.7999999999999999
 40
0.7999999999999999
 40
0.7999999999999999
 40
0.8666666666666666
 40
0.8666666666666666
 40
0.8666666666666666
 40
0.8666666666666666
 40
0.9333333333333332
 40
0.9333333333333332
 40
0.9333333333333332
 40
0.9333333333333332
 40
1.0
 40
1.0
 40
1.0
 40
1.0
 10
2.0342600000000002
 20
6.1118200000000007
 30
0.0
 10
2.0342600000000002
 20
6.1118200000000007
 30
0.0
 10
2.9365900000000003
 20
6.1468900000000009
 30
0.0
 10
3.4322800000000004
 20
6.5337000000000005
 30
0.0
 10
3.4322800000000004
 20
6.5337000000000005
 30
0.0
 10
3.9279600000000001
 20
6.9205200000000007
 30
0.0
 10
4.0880800000000006
 20
7.6391300000000006
 30
0.0
 10
3.6740500000000003
 20
7.7842600000000006
 30
0.0
 10
3.6740500000000003
 20
7.7842600000000006
 30
0.0
 10
3.2599500000000003
 20
7.929380000000001
 30
0.0
 10
3.0476000000000001
 20
7.6247200000000008
 30
0.0
 10
3.0803200000000004
 20
7.4004000000000003
 30
0.0
 10
3.0803200000000004
 20
7.4004000000000003
 30
0.0
 10
3.1130500000000003
 20
7.1760900000000003
 30
0.0
 10
3.3076300000000001
 20
7.118850000000001
 30
0.0
 10
3.4187000000000003
 20
7.1640500000000005
 30
0.0
 10
3.4187000000000003
 20
7.1640500000000005
 30
0.0
 10
3.5297700000000001
 20
7.2092300000000007
 30
0.0
 10
3.6343600000000005
 20
7.3077800000000002
 30
0.0
 10
3.5924700000000005
 20
7.381590000000001
 30
0.0
 10
3.5924700000000005
 20
7.381590000000001
 30
0.0
 10
3.5505800000000001
 20
7.4553900000000004
 30
0.0
 10
3.4555600000000002
 20
7.4621600000000008
 30
0.0
 10
3.4555600000000002
 20
7.4621600000000008
 30
0.0
 10
3.4555600000000002
 20
7.4621600000000008
 30
0.0
 10
3.4555600000000002
 20
7.4621600000000008
 30
0.0
 10
3.4814000000000003
 20
7.3363900000000006
 30
0.0
 10
3.3903800000000004
 20
7.3238400000000006
 30
0.0
 10
3.3903800000000004
 20
7.3238400000000006
 30
0.0
 10
3.2992900000000001
 20
7.3112400000000006
 30
0.0
 10
3.1734100000000001
 20
7.4033000000000007
 30
0.0
 10
3.2965400000000002
 20
7.5198000000000009
 30
0.0
 10
3.2965400000000002
 20
7.5198000000000009
 30
0.0
 10
3.4198100000000005
 20
7.6363100000000008
 30
0.0
 10
3.5738700000000003
 20
7.6675400000000007
 30
0.0
 10
3.7227000000000001
 20
7.5289100000000007
 30
0.0
 10
3.7227000000000001
 20
7.5289100000000007
 30
0.0
 10
3.8715900000000003
 20
7.3902800000000006
 30
0.0
 10
3.7218700000000005
 20
6.8821100000000008
 30
0.0
 10
3.3956200000000001
 20
6.7773600000000007
 30
0.0
 10
3.3956200000000001
 20
6.7773600000000007
 30
0.0
 10
3.0693700000000002
 20
6.6726100000000006
 30
0.0
 10
2.8876000000000004
 20
6.9061900000000005
 30
0.0
 10
2.8707900000000004
 20
7.0531100000000002
 30
0.0
 10
2.8707900000000004
 20
7.0531100000000002
 30
0.0
 10
2.8539800000000004
 20
7.2000000000000002
 30
0.0
 10
2.8816800000000002
 20
7.1993500000000008
 30
0.0
 10
2.9020800000000002
 20
7.2265500000000005
 30
0.0
 10
2.9020800000000002
 20
7.2265500000000005
 30
0.0
 10
2.9224700000000001
 20
7.2537700000000003
 30
0.0
 10
2.7227900000000003
 20
7.2298100000000005
 30
0.0
 10
2.6605700000000003
 20
6.9046700000000003
 30
0.0
 10
2.6605700000000003
 20
6.9046700000000003
 30
0.0
 10
2.5982800000000004
 20
6.5795400000000006
 30
0.0
 10
2.5417200000000002
 20
6.3112400000000006
 30
0.0
 10
2.28051
 20
6.2154600000000002
 30
0.0
 10
2.28051
 20
6.2154600000000002
 30
0.0
 10
2.0193000000000003
 20
6.1197100000000004
 30
0.0
 10
2.0342600000000002
 20
6.1118200000000007
 30
0.0
 10
2.0342600000000002
 20
6.1118200000000007
 30
0.0
  0
SPLINE
  5
2E
100
AcDbEntity
  8
Ebene 1
 62
     5
100
AcDbSpline
210
0.0
220
0.0
230
1.0
 70
     1
 71
     3
 72
    24
 73
    20
 74
     0
 42
0.0000000001
 43
0.0000000001
 40
0.0
 40
0.0
 40
0.0
 40
0.0
 40
0.2
 40
0.2
 40
0.2
 40
0.2
 40
0.4
 40
0.4
 40
0.4
 40
0.4
 40
0.6000000000000001
 40
0.6000000000000001
 40
0.6000000000000001
 40
0.6000000000000001
 40
0.8
 40
0.8
 40
0.8
 40
0.8
 40
1.0
 40
1.0
 40
1.0
 40
1.0
 10
3.9329200000000002
 20
6.1153300000000002
 30
0.0
 10
3.9329200000000002
 20
6.1153300000000002
 30
0.0
 10
5.1441400000000002
 20
6.7303000000000006
 30
0.0
 10
6.0235400000000006
 20
6.8119500000000004
 30
0.0
 10
6.0235400000000006
 20
6.8119500000000004
 30
0.0
 10
6.9029300000000005
 20
6.8936000000000002
 30
0.0
 10
7.423490000000001
 20
6.8435200000000007
 30
0.0
 10
7.4580800000000007
 20
6.8608200000000004
 30
0.0
 10
7.4580800000000007
 20
6.8608200000000004
 30
0.0
 10
7.4926600000000008
 20
6.8781100000000004
 30
0.0
 10
6.2411300000000001
 20
7.0933300000000008
 30
0.0
 10
5.3553300000000004
 20
6.8092100000000002
 30
0.0
 10
5.3553300000000004
 20
6.8092100000000002
 30
0.0
 10
4.4694600000000007
 20
6.5251100000000006
 30
0.0
 10
3.9802500000000003
 20
6.3407500000000008
 30
0.0
 10
3.7377800000000003
 20
6.0883900000000004
 30
0.0
 10
3.7377800000000003
 20
6.0883900000000004
 30
0.0
 10
3.4953900000000004
 20
5.8360400000000006
 30
0.0
 10
3.9329200000000002
 20
6.1153300000000002
 30
0.0
 10
3.9329200000000002
 20
6.1153300000000002
 30
0.0
  0
SPLINE
  5
2F
100
AcDbEntity
  8
Ebene 1
 62
     5
100
AcDbSpline
210
0.0
220
0.0
230
1.0
 70
     1
 71
     3
 72
    20
 73
    16
 74
     0
 42
0.0000000001
 43
0.0000000001
 40
0.0
 40
0.0
 40
0.0
 40
0.0
 40
0.25
 40
0.25
 40
0.25
 40
0.25
 40
0.5
 40
0.5
 40
0.5
 40
0.5
 40
0.75
 40
0.75
 40
0.75
 40
0.75
 40
1.0
 40
1.0
 40
1.0
 40
1.0
 10
2.5200800000000001
 20
5.1143800000000006
 30
0.0
 10
2.5262200000000004
 20
5.1451100000000007
 30
0.0
 10
2.8765800000000001
 20
4.9673100000000003
 30
0.0
 10
3.0405700000000002
 20
4.5992300000000004
 30
0.0
 10
3.0405700000000002
 20
4.5992300000000004
 30
0.0
 10
3.2045500000000002
 20
4.23123
 30
0.0
 10
3.1807800000000004
 20
3.9818700000000002
 30
0.0
 10
3.1807800000000004
 20
3.9818700000000002
 30
0.0
 10
3.1807800000000004
 20
3.9818700000000002
 30
0.0
 10
3.1807800000000004
 20
3.9818700000000002
 30
0.0
 10
3.0105900000000001
 20
4.6150100000000007
 30
0.0
 10
2.83372
 20
4.7597200000000006
 30
0.0
 10
2.83372
 20
4.7597200000000006
 30
0.0
 10
2.7206600000000001
 20
4.9299600000000003
 30
0.0
 10
2.5200800000000001
 20
5.1143800000000006
 30
0.0
 10
2.5200800000000001
 20
5.1143800000000006
 30
0.0
  0
SPLINE
  5
30
100
AcDbEntity
  8
Ebene 1
 62
     5
100
AcDbSpline
210
0.0
220
0.0
230
1.0
 70
     1
 71
     3
 72
    20
 73
    16
 74
     0
 42
0.0000000001
 43
0.0000000001
 40
0.0
 40
0.0
 40
0.0
 40
0.0
 40
0.25
 40
0.25
 40
0.25
 40
0.25
 40
0.5
 40
0.5
 40
0.5
 40
0.5
 40
0.75
 40
0.75
 40
0.75
 40
0.75
 40
1.0
 40
1.0
 40
1.0
 40
1.0
 10
3.1424100000000004
 20
5.2102700000000004
 30
0.0
 10
3.1424100000000004
 20
5.2102700000000004
 30
0.0
 10
3.4885000000000002
 20
5.1089000000000002
 30
0.0
 10
3.5712500000000005
 20
4.9014500000000005
 30
0.0
 10
3.5712500000000005
 20
4.9014500000000005
 30
0.0
 10
3.6540000000000004
 20
4.6940400000000002
 30
0.0
 10
3.7291000000000003
 20
4.3762700000000008
 30
0.0
 10
3.7234600000000002
 20
4.3354100000000004
 30
0.0
 10
3.7234600000000002
 20
4.3354100000000004
 30
0.0
 10
3.7178000000000004
 20
4.2945500000000001
 30
0.0
 10
3.5911600000000004
 20
4.7744800000000005
 30
0.0
 10
3.3932100000000003
 20
4.9256400000000005
 30
0.0
 10
3.3932100000000003
 20
4.9256400000000005
 30
0.0
 10
3.1923600000000003
 20
5.0570900000000005
 30
0.0
 10
3.1424100000000004
 20
5.2102700000000004
 30
0.0
 10
3.1424100000000004
 20
5.2102700000000004
 30
0.0
  0
SPLINE
  5
31
100
AcDbEntity
  8
Ebene 1
 62
     5
100
AcDbSpline
210
0.0
220
0.0
230
1.0
 70
     1
 71
     3
 72
    20
 73
    16
 74
     0
 42
0.0000000001
 43
0.0000000001
 40
0.0
 40
0.0
 40
0.0
 40
0.0
 40
0.25
 40
0.25
 40
0.25
 40
0.25
 40
0.5
 40
0.5
 40
0.5
 40
0.5
 40
0.75
 40
0.75
 40
0.75
 40
0.75
 40
1.0
 40
1.0
 40
1.0
 40
1.0
 10
3.2387300000000003
 20
5.3926900000000009
 30
0.0
 10
3.2387300000000003
 20
5.3926900000000009
 30
0.0
 10
3.9158300000000001
 20
5.4466700000000001
 30
0.0
 10
4.3898000000000001
 20
5.1934900000000006
 30
0.0
 10
4.3898000000000001
 20
5.1934900000000006
 30
0.0
 10
4.8637800000000002
 20
4.9403100000000002
 30
0.0
 10
4.9098100000000002
 20
4.8337600000000007
 30
0.0
 10
4.9065000000000003
 20
4.8270900000000001
 30
0.0
 10
4.9065000000000003
 20
4.8270900000000001
 30
0.0
 10
4.9031900000000004
 20
4.8204200000000004
 30
0.0
 10
4.3708600000000004
 20
5.2207300000000005
 30
0.0
 10
3.8657400000000002
 20
5.2703500000000005
 30
0.0
 10
3.8657400000000002
 20
5.2703500000000005
 30
0.0
 10
3.3606200000000004
 20
5.3200000000000003
 30
0.0
 10
3.2387300000000003
 20
5.3926900000000009
 30
0.0
 10
3.2387300000000003
 20
5.3926900000000009
 30
0.0
  0
SPLINE
  5
32
100
AcDbEntity
  8
Ebene 1
 62
     5
100
AcDbSpline
210
0.0
220
0.0
230
1.0
 70
     1
 71
     3
 72
    24
 73
    20
 74
     0
 42
0.0000000001
 43
0.0000000001
 40
0.0
 40
0.0
 40
0.0
 40
0.0
 40
0.2
 40
0.2
 40
0.2
 40
0.2
 40
0.4
 40
0.4
 40
0.4
 40
0.4
 40
0.6000000000000001
 40
0.6000000000000001
 40
0.6000000000000001
 40
0.6000000000000001
 40
0.8
 40
0.8
 40
0.8
 40
0.8
 40
1.0
 40
1.0
 40
1.0
 40
1.0
 10
3.2000100000000002
 20
5.64602
 30
0.0
 10
3.2000100000000002
 20
5.64602
 30
0.0
 10
4.2410500000000004
 20
6.0226100000000002
 30
0.0
 10
4.8655700000000008
 20
5.9873500000000002
 30
0.0
 10
4.8655700000000008
 20
5.9873500000000002
 30
0.0
 10
5.4901700000000009
 20
5.9520700000000009
 30
0.0
 10
5.7565400000000002
 20
5.7278800000000007
 30
0.0
 10
5.7380100000000001
 20
5.7278800000000007
 30
0.0
 10
5.7380100000000001
 20
5.7278800000000007
 30
0.0
 10
5.7194000000000003
 20
5.7278600000000006
 30
0.0
 10
5.2272400000000001
 20
6.0652600000000003
 30
0.0
 10
4.3516300000000001
 20
5.8349000000000002
 30
0.0
 10
4.3516300000000001
 20
5.8349000000000002
 30
0.0
 10
3.4761000000000002
 20
5.6045400000000001
 30
0.0
 10
3.3949300000000004
 20
5.5436000000000005
 30
0.0
 10
3.2348700000000004
 20
5.5414000000000003
 30
0.0
 10
3.2348700000000004
 20
5.5414000000000003
 30
0.0
 10
3.0748800000000003
 20
5.5391900000000005
 30
0.0
 10
3.2000100000000002
 20
5.64602
 30
0.0
 10
3.2000100000000002
 20
5.64602
 30
0.0
  0
SPLINE
  5
33
100
AcDbEntity
  8
Ebene 1
 62
     5
100
AcDbSpline
210
0.0
220
0.0
230
1.0
 70
     1
 71
     3
 72
    76
 73
    72
 74
     0
 42
0.0000000001
 43
0.0000000001
 40
0.0
 40
0.0
 40
0.0
 40
0.0
 40
0.0555555555555556
 40
0.0555555555555556
 40
0.0555555555555556
 40
0.0555555555555556
 40
0.1111111111111111
 40
0.1111111111111111
 40
0.1111111111111111
 40
0.1111111111111111
 40
0.1666666666666667
 40
0.1666666666666667
 40
0.1666666666666667
 40
0.1666666666666667
 40
0.2222222222222222
 40
0.2222222222222222
 40
0.2222222222222222
 40
0.2222222222222222
 40
0.2777777777777778
 40
0.2777777777777778
 40
0.2777777777777778
 40
0.2777777777777778
 40
0.3333333333333334
 40
0.3333333333333334
 40
0.3333333333333334
 40
0.3333333333333334
 40
0.388888888888889
 40
0.388888888888889
 40
0.388888888888889
 40
0.388888888888889
 40
0.4444444444444445
 40
0.4444444444444445
 40
0.4444444444444445
 40
0.4444444444444445
 40
0.5000000000000001
 40
0.5000000000000001
 40
0.5000000000000001
 40
0.5000000000000001
 40
0.5555555555555557
 40
0.5555555555555557
 40
0.5555555555555557
 40
0.5555555555555557
 40
0.6111111111111113
 40
0.6111111111111113
 40
0.6111111111111113
 40
0.6111111111111113
 40
0.6666666666666669
 40
0.6666666666666669
 40
0.6666666666666669
 40
0.6666666666666669
 40
0.7222222222222224
 40
0.7222222222222224
 40
0.7222222222222224
 40
0.7222222222222224
 40
0.777777777777778
 40
0.777777777777778
 40
0.777777777777778
 40
0.777777777777778
 40
0.8333333333333336
 40
0.8333333333333336
 40
0.8333333333333336
 40
0.8333333333333336
 40
0.8888888888888892
 40
0.8888888888888892
 40
0.8888888888888892
 40
0.8888888888888892
 40
0.9444444444444448
 40
0.9444444444444448
 40
0.9444444444444448
 40
0.9444444444444448
 40
1.0
 40
1.0
 40
1.0
 40
1.0
 10
1.5234300000000001
 20
4.8115700000000006
 30
0.0
 10
1.49387
 20
4.8189600000000006
 30
0.0
 10
1.0109400000000002
 20
4.7041000000000004
 30
0.0
 10
0.9410900000000001
 20
3.8528900000000004
 30
0.0
 10
0.9410900000000001
 20
3.8528900000000004
 30
0.0
 10
0.8712400000000001
 20
3.0017400000000003
 30
0.0
 10
0.6349100000000001
 20
2.4798800000000001
 30
0.0
 10
0.03343
 20
2.3659100000000004
 30
0.0
 10
0.03343
 20
2.3659100000000004
 30
0.0
 10
-0.5680400000000001
 20
2.2518800000000003
 30
0.0
 10
-0.6148800000000001
 20
2.2583600000000001
 30
0.0
 10
-0.6148800000000001
 20
2.2583600000000001
 30
0.0
 10
-0.6148800000000001
 20
2.2583600000000001
 30
0.0
 10
-0.6148800000000001
 20
2.2583600000000001
 30
0.0
 10
-0.39141
 20
2.1737500000000001
 30
0.0
 10
-0.04561
 20
2.21557
 30
0.0
 10
-0.04561
 20
2.21557
 30
0.0
 10
0.3001700000000001
 20
2.2574000000000001
 30
0.0
 10
0.37203
 20
2.3141000000000003
 30
0.0
 10
0.401
 20
2.2793100000000002
 30
0.0
 10
0.401
 20
2.2793100000000002
 30
0.0
 10
0.4300000000000001
 20
2.24458
 30
0.0
 10
-0.27998
 20
2.16127
 30
0.0
 10
-0.21609
 20
1.7375300000000002
 30
0.0
 10
-0.21609
 20
1.7375300000000002
 30
0.0
 10
-0.1522
 20
1.3137800000000002
 30
0.0
 10
0.1469
 20
1.0424500000000001
 30
0.0
 10
0.4337800000000001
 20
0.68037
 30
0.0
 10
0.4337800000000001
 20
0.68037
 30
0.0
 10
0.72067
 20
0.31829
 30
0.0
 10
0.7906300000000001
 20
-0.07107
 30
0.0
 10
0.6415200000000001
 20
-0.29321
 30
0.0
 10
0.6415200000000001
 20
-0.29321
 30
0.0
 10
0.49242
 20
-0.5152800000000001
 30
0.0
 10
0.38984
 20
-0.64502
 30
0.0
 10
0.37253
 20
-0.6727200000000001
 30
0.0
 10
0.37253
 20
-0.6727200000000001
 30
0.0
 10
0.3552400000000001
 20
-0.70042
 30
0.0
 10
1.0042900000000001
 20
-0.29417
 30
0.0
 10
0.83062
 20
0.26723
 30
0.0
 10
0.83062
 20
0.26723
 30
0.0
 10
0.6569400000000001
 20
0.8287100000000001
 30
0.0
 10
0.19506
 20
1.39412
 30
0.0
 10
0.5245800000000001
 20
1.4739800000000001
 30
0.0
 10
0.5245800000000001
 20
1.4739800000000001
 30
0.0
 10
0.8541000000000001
 20
1.5539100000000001
 30
0.0
 10
0.8332600000000001
 20
0.9834700000000001
 30
0.0
 10
0.8332600000000001
 20
0.9834700000000001
 30
0.0
 10
0.8332600000000001
 20
0.9834700000000001
 30
0.0
 10
0.8332600000000001
 20
0.9834700000000001
 30
0.0
 10
1.0131600000000001
 20
1.1557200000000001
 30
0.0
 10
0.8882600000000001
 20
1.6028900000000001
 30
0.0
 10
0.8882600000000001
 20
1.6028900000000001
 30
0.0
 10
0.76339
 20
2.0501400000000003
 30
0.0
 10
0.62612
 20
2.31989
 30
0.0
 10
0.8187000000000001
 20
2.4366100000000004
 30
0.0
 10
0.8187000000000001
 20
2.4366100000000004
 30
0.0
 10
1.01129
 20
2.5533300000000003
 30
0.0
 10
0.97938
 20
2.1636200000000003
 30
0.0
 10
0.97938
 20
2.1636200000000003
 30
0.0
 10
0.97938
 20
2.1636200000000003
 30
0.0
 10
0.97938
 20
2.1636200000000003
 30
0.0
 10
1.3086000000000002
 20
2.4764300000000001
 30
0.0
 10
1.2448600000000001
 20
2.9868600000000001
 30
0.0
 10
1.2448600000000001
 20
2.9868600000000001
 30
0.0
 10
1.1811400000000001
 20
3.4972800000000004
 30
0.0
 10
1.1317300000000001
 20
4.0773700000000002
 30
0.0
 10
1.2195800000000001
 20
4.3877000000000006
 30
0.0
 10
1.2195800000000001
 20
4.3877000000000006
 30
0.0
 10
1.30742
 20
4.6980400000000007
 30
0.0
 10
1.5234300000000001
 20
4.8115700000000006
 30
0.0
 10
1.5234300000000001
 20
4.8115700000000006
 30
0.0
  0
SPLINE
  5
34
100
AcDbEntity
  8
Ebene 1
 62
     5
100
AcDbSpline
210
0.0
220
0.0
230
1.0
 70
     1
 71
     3
 72
    56
 73
    52
 74
     0
 42
0.0000000001
 43
0.0000000001
 40
0.0
 40
0.0
 40
0.0
 40
0.0
 40
0.0769230769230769
 40
0.0769230769230769
 40
0.0769230769230769
 40
0.0769230769230769
 40
0.1538461538461539
 40
0.1538461538461539
 40
0.1538461538461539
 40
0.1538461538461539
 40
0.2307692307692308
 40
0.2307692307692308
 40
0.2307692307692308
 40
0.2307692307692308
 40
0.3076923076923077
 40
0.3076923076923077
 40
0.3076923076923077
 40
0.3076923076923077
 40
0.3846153846153846
 40
0.3846153846153846
 40
0.3846153846153846
 40
0.3846153846153846
 40
0.4615384615384616
 40
0.4615384615384616
 40
0.4615384615384616
 40
0.4615384615384616
 40
0.5384615384615386
 40
0.5384615384615386
 40
0.5384615384615386
 40
0.5384615384615386
 40
0.6153846153846154
 40
0.6153846153846154
 40
0.6153846153846154
 40
0.6153846153846154
 40
0.6923076923076923
 40
0.6923076923076923
 40
0.6923076923076923
 40
0.6923076923076923
 40
0.7692307692307692
 40
0.7692307692307692
 40
0.7692307692307692
 40
0.7692307692307692
 40
0.846153846153846
 40
0.846153846153846
 40
0.846153846153846
 40
0.846153846153846
 40
0.9230769230769229
 40
0.9230769230769229
 40
0.9230769230769229
 40
0.9230769230769229
 40
1.0
 40
1.0
 40
1.0
 40
1.0
 10
-0.3955300000000001
 20
6.9344900000000003
 30
0.0
 10
-0.3955300000000001
 20
6.9344900000000003
 30
0.0
 10
-0.7665500000000001
 20
7.6025500000000008
 30
0.0
 10
-0.65415
 20
8.084480000000001
 30
0.0
 10
-0.65415
 20
8.084480000000001
 30
0.0
 10
-0.5417500000000001
 20
8.5664000000000016
 30
0.0
 10
-0.10836
 20
8.6052800000000005
 30
0.0
 10
0.10188
 20
8.4568600000000007
 30
0.0
 10
0.10188
 20
8.4568600000000007
 30
0.0
 10
0.31215
 20
8.3084100000000003
 30
0.0
 10
0.20212
 20
8.0856200000000005
 30
0.0
 10
0.05705
 20
8.0956900000000012
 30
0.0
 10
0.05705
 20
8.0956900000000012
 30
0.0
 10
-0.088
 20
8.1057900000000007
 30
0.0
 10
-0.19313
 20
8.1799900000000001
 30
0.0
 10
-0.19313
 20
8.1799900000000001
 30
0.0
 10
-0.19313
 20
8.1799900000000001
 30
0.0
 10
-0.19313
 20
8.1799900000000001
 30
0.0
 10
-0.14093
 20
8.04345
 30
0.0
 10
0.04314
 20
8.0279800000000012
 30
0.0
 10
0.04314
 20
8.0279800000000012
 30
0.0
 10
0.22722
 20
8.0125000000000011
 30
0.0
 10
0.39506
 20
8.1783600000000014
 30
0.0
 10
0.32678
 20
8.3668700000000005
 30
0.0
 10
0.32678
 20
8.3668700000000005
 30
0.0
 10
0.25851
 20
8.5553699999999999
 30
0.0
 10
-0.05978
 20
8.698830000000001
 30
0.0
 10
-0.35677
 20
8.6204499999999999
 30
0.0
 10
-0.35677
 20
8.6204499999999999
 30
0.0
 10
-0.6537500000000001
 20
8.5420700000000007
 30
0.0
 10
-0.74446
 20
8.2959399999999999
 30
0.0
 10
-0.74446
 20
8.2959399999999999
 30
0.0
 10
-0.74446
 20
8.2959399999999999
 30
0.0
 10
-0.74446
 20
8.2959399999999999
 30
0.0
 10
-0.82313
 20
8.376570000000001
 30
0.0
 10
-0.7615500000000001
 20
8.5416800000000013
 30
0.0
 10
-0.7615500000000001
 20
8.5416800000000013
 30
0.0
 10
-0.6999700000000001
 20
8.7067800000000002
 30
0.0
 10
-0.52803
 20
8.7634699999999999
 30
0.0
 10
-0.52803
 20
8.7634699999999999
 30
0.0
 10
-0.52803
 20
8.7634699999999999
 30
0.0
 10
-0.52803
 20
8.7634699999999999
 30
0.0
 10
-0.8761300000000001
 20
8.7618200000000002
 30
0.0
 10
-0.91661
 20
8.3694400000000009
 30
0.0
 10
-0.91661
 20
8.3694400000000009
 30
0.0
 10
-0.9571100000000001
 20
7.9770800000000008
 30
0.0
 10
-0.8718500000000001
 20
7.8061200000000008
 30
0.0
 10
-0.72338
 20
7.4871500000000006
 30
0.0
 10
-0.72338
 20
7.4871500000000006
 30
0.0
 10
-0.5808000000000001
 20
7.1652300000000002
 30
0.0
 10
-0.40679
 20
6.928840000000001
 30
0.0
 10
-0.3955300000000001
 20
6.9344900000000003
 30
0.0
  0
SPLINE
  5
35
100
AcDbEntity
  8
Ebene 1
 62
     5
100
AcDbSpline
210
0.0
220
0.0
230
1.0
 70
     1
 71
     3
 72
    64
 73
    60
 74
     0
 42
0.0000000001
 43
0.0000000001
 40
0.0
 40
0.0
 40
0.0
 40
0.0
 40
0.0666666666666667
 40
0.0666666666666667
 40
0.0666666666666667
 40
0.0666666666666667
 40
0.1333333333333333
 40
0.1333333333333333
 40
0.1333333333333333
 40
0.1333333333333333
 40
0.2
 40
0.2
 40
0.2
 40
0.2
 40
0.2666666666666667
 40
0.2666666666666667
 40
0.2666666666666667
 40
0.2666666666666667
 40
0.3333333333333333
 40
0.3333333333333333
 40
0.3333333333333333
 40
0.3333333333333333
 40
0.4
 40
0.4
 40
0.4
 40
0.4
 40
0.4666666666666666
 40
0.4666666666666666
 40
0.4666666666666666
 40
0.4666666666666666
 40
0.5333333333333333
 40
0.5333333333333333
 40
0.5333333333333333
 40
0.5333333333333333
 40
0.6
 40
0.6
 40
0.6
 40
0.6
 40
0.6666666666666666
 40
0.6666666666666666
 40
0.6666666666666666
 40
0.6666666666666666
 40
0.7333333333333333
 40
0.7333333333333333
 40
0.7333333333333333
 40
0.7333333333333333
 40
0.7999999999999999
 40
0.7999999999999999
 40
0.7999999999999999
 40
0.7999999999999999
 40
0.8666666666666666
 40
0.8666666666666666
 40
0.8666666666666666
 40
0.8666666666666666
 40
0.9333333333333332
 40
0.9333333333333332
 40
0.9333333333333332
 40
0.9333333333333332
 40
1.0
 40
1.0
 40
1.0
 40
1.0
 10
1.4551700000000001
 20
6.1118200000000007
 30
0.0
 10
1.4551700000000001
 20
6.1118200000000007
 30
0.0
 10
0.55281
 20
6.1468900000000009
 30
0.0
 10
0.05713
 20
6.5337000000000005
 30
0.0
 10
0.05713
 20
6.5337000000000005
 30
0.0
 10
-0.43854
 20
6.9205200000000007
 30
0.0
 10
-0.5986100000000001
 20
7.6391300000000006
 30
0.0
 10
-0.18456
 20
7.7842600000000006
 30
0.0
 10
-0.18456
 20
7.7842600000000006
 30
0.0
 10
0.22947
 20
7.929380000000001
 30
0.0
 10
0.44181
 20
7.6247200000000008
 30
0.0
 10
0.4091
 20
7.4004000000000003
 30
0.0
 10
0.4091
 20
7.4004000000000003
 30
0.0
 10
0.3763900000000001
 20
7.1760900000000003
 30
0.0
 10
0.18183
 20
7.118850000000001
 30
0.0
 10
0.07074
 20
7.1640500000000005
 30
0.0
 10
0.07074
 20
7.1640500000000005
 30
0.0
 10
-0.04034
 20
7.2092300000000007
 30
0.0
 10
-0.14495
 20
7.3077800000000002
 30
0.0
 10
-0.10304
 20
7.381590000000001
 30
0.0
 10
-0.10304
 20
7.381590000000001
 30
0.0
 10
-0.06113
 20
7.4553900000000004
 30
0.0
 10
0.03389
 20
7.4621600000000008
 30
0.0
 10
0.03389
 20
7.4621600000000008
 30
0.0
 10
0.03389
 20
7.4621600000000008
 30
0.0
 10
0.03389
 20
7.4621600000000008
 30
0.0
 10
0.00806
 20
7.3363900000000006
 30
0.0
 10
0.09909
 20
7.3238400000000006
 30
0.0
 10
0.09909
 20
7.3238400000000006
 30
0.0
 10
0.19015
 20
7.3112400000000006
 30
0.0
 10
0.31607
 20
7.4033000000000007
 30
0.0
 10
0.19287
 20
7.5198000000000009
 30
0.0
 10
0.19287
 20
7.5198000000000009
 30
0.0
 10
0.06967
 20
7.6363100000000008
 30
0.0
 10
-0.08442
 20
7.6675400000000007
 30
0.0
 10
-0.23328
 20
7.5289100000000007
 30
0.0
 10
-0.23328
 20
7.5289100000000007
 30
0.0
 10
-0.38214
 20
7.3902800000000006
 30
0.0
 10
-0.2324
 20
6.8821100000000008
 30
0.0
 10
0.09382
 20
6.7773600000000007
 30
0.0
 10
0.09382
 20
6.7773600000000007
 30
0.0
 10
0.4200700000000001
 20
6.6726100000000006
 30
0.0
 10
0.60184
 20
6.9061900000000005
 30
0.0
 10
0.61863
 20
7.0531100000000002
 30
0.0
 10
0.61863
 20
7.0531100000000002
 30
0.0
 10
0.63544
 20
7.2000000000000002
 30
0.0
 10
0.6078
 20
7.1993500000000008
 30
0.0
 10
0.58738
 20
7.2265500000000005
 30
0.0
 10
0.58738
 20
7.2265500000000005
 30
0.0
 10
0.56701
 20
7.2537700000000003
 30
0.0
 10
0.7666700000000001
 20
7.2298100000000005
 30
0.0
 10
0.8289000000000001
 20
6.9046700000000003
 30
0.0
 10
0.8289000000000001
 20
6.9046700000000003
 30
0.0
 10
0.89114
 20
6.5795400000000006
 30
0.0
 10
0.9477200000000001
 20
6.3112400000000006
 30
0.0
 10
1.2089500000000002
 20
6.2154600000000002
 30
0.0
 10
1.2089500000000002
 20
6.2154600000000002
 30
0.0
 10
1.4701700000000002
 20
6.1197100000000004
 30
0.0
 10
1.4551700000000001
 20
6.1118200000000007
 30
0.0
 10
1.4551700000000001
 20
6.1118200000000007
 30
0.0
  0
SPLINE
  5
36
100
AcDbEntity
  8
Ebene 1
 62
     5
100
AcDbSpline
210
0.0
220
0.0
230
1.0
 70
     1
 71
     3
 72
    24
 73
    20
 74
     0
 42
0.0000000001
 43
0.0000000001
 40
0.0
 40
0.0
 40
0.0
 40
0.0
 40
0.2
 40
0.2
 40
0.2
 40
0.2
 40
0.4
 40
0.4
 40
0.4
 40
0.4
 40
0.6000000000000001
 40
0.6000000000000001
 40
0.6000000000000001
 40
0.6000000000000001
 40
0.8
 40
0.8
 40
0.8
 40
0.8
 40
1.0
 40
1.0
 40
1.0
 40
1.0
 10
-0.44345
 20
6.1153300000000002
 30
0.0
 10
-0.44345
 20
6.1153300000000002
 30
0.0
 10
-1.6546700000000001
 20
6.7303000000000006
 30
0.0
 10
-2.5340700000000003
 20
6.8119500000000004
 30
0.0
 10
-2.5340700000000003
 20
6.8119500000000004
 30
0.0
 10
-3.4134700000000002
 20
6.8936000000000002
 30
0.0
 10
-3.9340200000000003
 20
6.8435200000000007
 30
0.0
 10
-3.9686100000000004
 20
6.8608200000000004
 30
0.0
 10
-3.9686100000000004
 20
6.8608200000000004
 30
0.0
 10
-4.0031800000000004
 20
6.8781100000000004
 30
0.0
 10
-2.7516800000000003
 20
7.0933300000000008
 30
0.0
 10
-1.8658400000000002
 20
6.8092100000000002
 30
0.0
 10
-1.8658400000000002
 20
6.8092100000000002
 30
0.0
 10
-0.9800000000000001
 20
6.5251100000000006
 30
0.0
 10
-0.49077
 20
6.3407500000000008
 30
0.0
 10
-0.24834
 20
6.0883900000000004
 30
0.0
 10
-0.24834
 20
6.0883900000000004
 30
0.0
 10
-0.00594
 20
5.8360400000000006
 30
0.0
 10
-0.44345
 20
6.1153300000000002
 30
0.0
 10
-0.44345
 20
6.1153300000000002
 30
0.0
  0
SPLINE
  5
37
100
AcDbEntity
  8
Ebene 1
 62
     5
100
AcDbSpline
210
0.0
220
0.0
230
1.0
 70
     1
 71
     3
 72
    20
 73
    16
 74
     0
 42
0.0000000001
 43
0.0000000001
 40
0.0
 40
0.0
 40
0.0
 40
0.0
 40
0.25
 40
0.25
 40
0.25
 40
0.25
 40
0.5
 40
0.5
 40
0.5
 40
0.5
 40
0.75
 40
0.75
 40
0.75
 40
0.75
 40
1.0
 40
1.0
 40
1.0
 40
1.0
 10
0.9693400000000001
 20
5.1143800000000006
 30
0.0
 10
0.9632100000000001
 20
5.1451100000000007
 30
0.0
 10
0.6128400000000001
 20
4.9673100000000003
 30
0.0
 10
0.44886
 20
4.5992300000000004
 30
0.0
 10
0.44886
 20
4.5992300000000004
 30
0.0
 10
0.28487
 20
4.23123
 30
0.0
 10
0.30864
 20
3.9818700000000002
 30
0.0
 10
0.30864
 20
3.9818700000000002
 30
0.0
 10
0.30864
 20
3.9818700000000002
 30
0.0
 10
0.30864
 20
3.9818700000000002
 30
0.0
 10
0.47884
 20
4.6150100000000007
 30
0.0
 10
0.6557200000000001
 20
4.7597200000000006
 30
0.0
 10
0.6557200000000001
 20
4.7597200000000006
 30
0.0
 10
0.7687900000000001
 20
4.9299600000000003
 30
0.0
 10
0.9693400000000001
 20
5.1143800000000006
 30
0.0
 10
0.9693400000000001
 20
5.1143800000000006
 30
0.0
  0
SPLINE
  5
38
100
AcDbEntity
  8
Ebene 1
 62
     5
100
AcDbSpline
210
0.0
220
0.0
230
1.0
 70
     1
 71
     3
 72
    20
 73
    16
 74
     0
 42
0.0000000001
 43
0.0000000001
 40
0.0
 40
0.0
 40
0.0
 40
0.0
 40
0.25
 40
0.25
 40
0.25
 40
0.25
 40
0.5
 40
0.5
 40
0.5
 40
0.5
 40
0.75
 40
0.75
 40
0.75
 40
0.75
 40
1.0
 40
1.0
 40
1.0
 40
1.0
 10
0.347
 20
5.2102700000000004
 30
0.0
 10
0.347
 20
5.2102700000000004
 30
0.0
 10
0.00094
 20
5.1089000000000002
 30
0.0
 10
-0.0818
 20
4.9014500000000005
 30
0.0
 10
-0.0818
 20
4.9014500000000005
 30
0.0
 10
-0.16455
 20
4.6940400000000002
 30
0.0
 10
-0.23964
 20
4.3762700000000008
 30
0.0
 10
-0.234
 20
4.3354100000000004
 30
0.0
 10
-0.234
 20
4.3354100000000004
 30
0.0
 10
-0.22835
 20
4.2945500000000001
 30
0.0
 10
-0.10171
 20
4.7744800000000005
 30
0.0
 10
0.09622
 20
4.9256400000000005
 30
0.0
 10
0.09622
 20
4.9256400000000005
 30
0.0
 10
0.2971200000000001
 20
5.0570900000000005
 30
0.0
 10
0.347
 20
5.2102700000000004
 30
0.0
 10
0.347
 20
5.2102700000000004
 30
0.0
  0
SPLINE
  5
39
100
AcDbEntity
  8
Ebene 1
 62
     5
100
AcDbSpline
210
0.0
220
0.0
230
1.0
 70
     1
 71
     3
 72
    20
 73
    16
 74
     0
 42
0.0000000001
 43
0.0000000001
 40
0.0
 40
0.0
 40
0.0
 40
0.0
 40
0.25
 40
0.25
 40
0.25
 40
0.25
 40
0.5
 40
0.5
 40
0.5
 40
0.5
 40
0.75
 40
0.75
 40
0.75
 40
0.75
 40
1.0
 40
1.0
 40
1.0
 40
1.0
 10
0.25075
 20
5.3926900000000009
 30
0.0
 10
0.25075
 20
5.3926900000000009
 30
0.0
 10
-0.42638
 20
5.4466700000000001
 30
0.0
 10
-0.9003700000000001
 20
5.1934900000000006
 30
0.0
 10
-0.9003700000000001
 20
5.1934900000000006
 30
0.0
 10
-1.3743500000000002
 20
4.9403100000000002
 30
0.0
 10
-1.4203700000000001
 20
4.8337600000000007
 30
0.0
 10
-1.4170500000000001
 20
4.8270900000000001
 30
0.0
 10
-1.4170500000000001
 20
4.8270900000000001
 30
0.0
 10
-1.4137200000000001
 20
4.8204200000000004
 30
0.0
 10
-0.88141
 20
5.2207300000000005
 30
0.0
 10
-0.37629
 20
5.2703500000000005
 30
0.0
 10
-0.37629
 20
5.2703500000000005
 30
0.0
 10
0.12879
 20
5.3200000000000003
 30
0.0
 10
0.25075
 20
5.3926900000000009
 30
0.0
 10
0.25075
 20
5.3926900000000009
 30
0.0
  0
SPLINE
  5
3A
100
AcDbEntity
  8
Ebene 1
 62
     5
100
AcDbSpline
210
0.0
220
0.0
230
1.0
 70
     1
 71
     3
 72
    24
 73
    20
 74
     0
 42
0.0000000001
 43
0.0000000001
 40
0.0
 40
0.0
 40
0.0
 40
0.0
 40
0.2
 40
0.2
 40
0.2
 40
0.2
 40
0.4
 40
0.4
 40
0.4
 40
0.4
 40
0.6000000000000001
 40
0.6000000000000001
 40
0.6000000000000001
 40
0.6000000000000001
 40
0.8
 40
0.8
 40
0.8
 40
0.8
 40
1.0
 40
1.0
 40
1.0
 40
1.0
 10
0.2894000000000001
 20
5.64602
 30
0.0
 10
0.2894000000000001
 20
5.64602
 30
0.0
 10
-0.75158
 20
6.0226100000000002
 30
0.0
 10
-1.37616
 20
5.9873500000000002
 30
0.0
 10
-1.37616
 20
5.9873500000000002
 30
0.0
 10
-2.0007200000000003
 20
5.9520700000000009
 30
0.0
 10
-2.2671100000000002
 20
5.7278800000000007
 30
0.0
 10
-2.2485200000000001
 20
5.7278800000000007
 30
0.0
 10
-2.2485200000000001
 20
5.7278800000000007
 30
0.0
 10
-2.22994
 20
5.7278600000000006
 30
0.0
 10
-1.7378000000000002
 20
6.0652600000000003
 30
0.0
 10
-0.8622200000000001
 20
5.8349000000000002
 30
0.0
 10
-0.8622200000000001
 20
5.8349000000000002
 30
0.0
 10
0.01338
 20
5.6045400000000001
 30
0.0
 10
0.09448
 20
5.5436000000000005
 30
0.0
 10
0.25453
 20
5.5414000000000003
 30
0.0
 10
0.25453
 20
5.5414000000000003
 30
0.0
 10
0.41459
 20
5.5391900000000005
 30
0.0
 10
0.2894000000000001
 20
5.64602
 30
0.0
 10
0.2894000000000001
 20
5.64602
 30
0.0
  0
ENDSEC
  0
SECTION
  2
OBJECTS
  0
DICTIONARY
  5
19
100
AcDbDictionary
280
     0
281
     1
  3
ACAD_GROUP
350
1A
  3
ACAD_MLINESTYLE
350
1B
  3
ACAD_LAYOUT
350
1E
  3
ACAD_PLOTSETTINGS
350
22
  3
ACAD_PLOTSTYLENAME
350
1F
  3
ACAD_WIPEOUT_VARS
350
23
  0
DICTIONARY
  5
1A
102
{ACAD_REACTORS
330
19
102
}
100
AcDbDictionary
280
     0
281
     1
  0
DICTIONARY
  5
1B
102
{ACAD_REACTORS
330
19
102
}
100
AcDbDictionary
280
     0
281
     1
  3
Standard
350
1C
  0
MLINESTYLE
  5
1C
102
{ACAD_REACTORS
330
1B
102
}
100
AcDbMlineStyle
  2
Standard
 70
     0
  3

 62
     0
 51
90.0
 52
90.0
 71
     2
 49
0.5
 62
   256
  6
BYLAYER
 49
-0.5
 62
   256
  6
BYLAYER
  0
ACDBDICTIONARYWDFLT
  5
1F
102
{ACAD_REACTORS
330
19
102
}
100
AcDbDictionary
281
     1
  3
Normal
350
1D
100
AcDbDictionaryWithDefault
340
1D
  0
ACDBPLACEHOLDER
  5
1D
102
{ACAD_REACTORS
330
1F
102
}
  0
LAYOUT
  5
20
102
{ACAD_REACTORS
330
1E
102
}
100
AcDbPlotSettings
  1

  2

  4

  6

 40
0.0
 41
0.0
 42
0.0
 43
0.0
 44
0.0
 45
0.0
 46
0.0
 47
0.0
 48
0.0
 49
0.0
140
0.0
141
0.0
142
1.0
143
1.0
 70
  1024
 72
     0
 73
     0
 74
     0
  7

 75
     0
147
1.0
148
0.0
149
0.0
100
AcDbLayout
  1
Model
 70
     0
 71
     0
 10
0.0
 20
0.0
 11
0.0
 21
0.0
 12
0.0
 22
0.0
 32
0.0
 14
0.0
 24
0.0
 34
0.0
 15
0.0
 25
0.0
 35
0.0
146
0.0
 13
0.0
 23
0.0
 33
0.0
 16
0.0
 26
0.0
 36
0.0
 17
0.0
 27
0.0
 37
0.0
 76
     0
330
A
331
0
345
0
346
0
  0
LAYOUT
  5
21
102
{ACAD_REACTORS
330
1E
102
}
100
AcDbPlotSettings
  1

  2

  4

  6

 40
0.0
 41
0.0
 42
0.0
 43
0.0
 44
0.0
 45
0.0
 46
0.0
 47
0.0
 48
0.0
 49
0.0
140
0.0
141
0.0
142
1.0
143
1.0
 70
     0
 72
     0
 73
     0
 74
     0
  7

 75
     0
147
1.0
148
0.0
149
0.0
100
AcDbLayout
  1
Layout1
 70
     0
 71
     0
 10
0.0
 20
0.0
 11
0.0
 21
0.0
 12
0.0
 22
0.0
 32
0.0
 14
0.0
 24
0.0
 34
0.0
 15
0.0
 25
0.0
 35
0.0
146
0.0
 13
0.0
 23
0.0
 33
0.0
 16
0.0
 26
0.0
 36
0.0
 17
0.0
 27
0.0
 37
0.0
 76
     0
330
B
331
0
345
0
346
0
  0
DICTIONARY
  5
1E
102
{ACAD_REACTORS
330
19
102
}
100
AcDbDictionary
280
     0
281
     1
  3
Layout1
350
21
  3
Model
350
20
  0
DICTIONARY
  5
22
102
{ACAD_REACTORS
330
19
102
}
100
AcDbDictionary
280
     0
281
     1
  0
WIPEOUTVARIABLES
  5
23
100
AcDbWipeoutVariables
 70
     1
  0
ENDSEC
  0
EOF
