  0
SECTION
  2
HEADER
  9
$ACADVER
  1
AC1014
  9
$HANDSEED
  5
FFFF
  9
$MEASUREMENT
 70
     1
  0
ENDSEC
  0
SECTION
  2
TABLES
  0
TABLE
  2
VPORT
  5
8
330
0
100
AcDbSymbolTable
 70
     4
  0
VPORT
  5
2E
330
8
100
AcDbSymbolTableRecord
100
AcDbViewportTableRecord
  2
*ACTIVE
 70
     0
 10
0.0
 20
0.0
 11
1.0
 21
1.0
 12
210.0
 22
148.5
 13
0.0
 23
0.0
 14
10.0
 24
10.0
 15
10.0
 25
10.0
 16
0.0
 26
0.0
 36
1.0
 17
0.0
 27
0.0
 37
0.0
 40
341.0
 41
1.24
 42
50.0
 43
0.0
 44
0.0
 50
0.0
 51
0.0
 71
     0
 72
   100
 73
     1
 74
     3
 75
     0
 76
     0
 77
     0
 78
     0
  0
ENDTAB
  0
TABLE
  2
LTYPE
  5
5
330
0
100
AcDbSymbolTable
 70
     1
  0
LTYPE
  5
14
330
5
100
AcDbSymbolTableRecord
100
AcDbLinetypeTableRecord
  2
BYBLOCK
 70
     0
  3

 72
    65
 73
     0
 40
0.0
  0
LTYPE
  5
15
330
5
100
AcDbSymbolTableRecord
100
AcDbLinetypeTableRecord
  2
BYLAYER
 70
     0
  3

 72
    65
 73
     0
 40
0.0
  0
LTYPE
  5
16
330
5
100
AcDbSymbolTableRecord
100
AcDbLinetypeTableRecord
  2
CONTINUOUS
 70
     0
  3
Solid line
 72
    65
 73
     0
 40
0.0
  0
ENDTAB
  0
TABLE
  2
LAYER
  5
2
100
AcDbSymbolTable
 70
1
  0
LAYER
  5
50
100
AcDbSymbolTableRecord
100
AcDbLayerTableRecord
  2
0
 70
0
  6
CONTINUOUS
  0
ENDTAB
  0
TABLE
  2
STYLE
  5
3
330
0
100
AcDbSymbolTable
 70
     1
  0
STYLE
  5
11
330
3
100
AcDbSymbolTableRecord
100
AcDbTextStyleTableRecord
  2
STANDARD
 70
     0
 40
0.0
 41
1.0
 50
0.0
 71
     0
 42
2.5
  3
txt
  4

  0
ENDTAB
  0
TABLE
  2
VIEW
  5
6
330
0
100
AcDbSymbolTable
 70
     0
  0
ENDTAB
  0
TABLE
  2
UCS
  5
7
330
0
100
AcDbSymbolTable
 70
     0
  0
ENDTAB
  0
TABLE
  2
APPID
  5
9
330
0
100
AcDbSymbolTable
 70
     2
  0
APPID
  5
12
330
9
100
AcDbSymbolTableRecord
100
AcDbRegAppTableRecord
  2
ACAD
 70
     0
  0
ENDTAB
  0
TABLE
  2
DIMSTYLE
  5
A
330
0
100
AcDbSymbolTable
 70
     1
  0
DIMSTYLE
105
27
330
A
100
AcDbSymbolTableRecord
100
AcDbDimStyleTableRecord
  2
ISO-25
 70
     0
  3

  4

  5

  6

  7

 40
1.0
 41
2.5
 42
0.625
 43
3.75
 44
1.25
 45
0.0
 46
0.0
 47
0.0
 48
0.0
140
2.5
141
2.5
142
0.0
143
0.03937007874016
144
1.0
145
0.0
146
1.0
147
0.625
 71
     0
 72
     0
 73
     0
 74
     0
 75
     0
 76
     0
 77
     1
 78
     8
170
     0
171
     3
172
     1
173
     0
174
     0
175
     0
176
     0
177
     0
178
     0
270
     2
271
     2
272
     2
273
     2
274
     3
340
11
275
     0
280
     0
281
     0
282
     0
283
     0
284
     8
285
     0
286
     0
287
     3
288
     0
  0
ENDTAB
  0
TABLE
  2
BLOCK_RECORD
  5
1
330
0
100
AcDbSymbolTable
 70
     1
  0
BLOCK_RECORD
  5
1F
330
1
100
AcDbSymbolTableRecord
100
AcDbBlockTableRecord
  2
*MODEL_SPACE
  0
BLOCK_RECORD
  5
1B
330
1
100
AcDbSymbolTableRecord
100
AcDbBlockTableRecord
  2
*PAPER_SPACE
  0
ENDTAB
  0
ENDSEC
  0
SECTION
  2
BLOCKS
  0
BLOCK
  5
20
330
1F
100
AcDbEntity
  8
0
100
AcDbBlockBegin
  2
*MODEL_SPACE
 70
     0
 10
0.0
 20
0.0
 30
0.0
  3
*MODEL_SPACE
  1

  0
ENDBLK
  5
21
330
1F
100
AcDbEntity
  8
0
100
AcDbBlockEnd
  0
BLOCK
  5
1C
330
1B
100
AcDbEntity
 67
     1
  8
0
100
AcDbBlockBegin
  2
*PAPER_SPACE
  1

  0
ENDBLK
  5
1D
330
1B
100
AcDbEntity
 67
     1
  8
0
100
AcDbBlockEnd
  0
ENDSEC
  0
SECTION
  2
ENTITIES
  0
SPLINE
  5
100
100
AcDbEntity
  8
0
 62
7
100
AcDbSpline
 70
8
 71
3
 72
8
 73
4
 74
0
 40
0
 40
0
 40
0
 40
0
 40
1
 40
1
 40
1
 40
1
 10
40.736864
 20
5.266269
 30
0.0
 10
40.082020
 20
5.751941
 30
0.0
 10
39.212684
 20
6.463363
 30
0.0
 10
38.805003
 20
6.847210
 30
0.0
  0
SPLINE
  5
101
100
AcDbEntity
  8
0
 62
7
100
AcDbSpline
 70
8
 71
3
 72
8
 73
4
 74
0
 40
0
 40
0
 40
0
 40
0
 40
1
 40
1
 40
1
 40
1
 10
38.805003
 20
6.847210
 30
0.0
 10
37.948555
 20
7.653586
 30
0.0
 10
37.826447
 20
7.691149
 30
0.0
 10
37.826447
 20
7.148235
 30
0.0
  0
SPLINE
  5
102
100
AcDbEntity
  8
0
 62
7
100
AcDbSpline
 70
8
 71
3
 72
8
 73
4
 74
0
 40
0
 40
0
 40
0
 40
0
 40
1
 40
1
 40
1
 40
1
 10
37.826447
 20
7.148235
 30
0.0
 10
37.826447
 20
6.472338
 30
0.0
 10
37.384429
 20
6.703444
 30
0.0
 10
36.282215
 20
7.955627
 30
0.0
  0
SPLINE
  5
103
100
AcDbEntity
  8
0
 62
7
100
AcDbSpline
 70
8
 71
3
 72
8
 73
4
 74
0
 40
0
 40
0
 40
0
 40
0
 40
1
 40
1
 40
1
 40
1
 10
36.282215
 20
7.955627
 30
0.0
 10
35.388214
 20
8.971267
 30
0.0
 10
35.184421
 20
9.092427
 30
0.0
 10
34.981131
 20
8.729168
 30
0.0
  0
SPLINE
  5
104
100
AcDbEntity
  8
0
 62
7
100
AcDbSpline
 70
8
 71
3
 72
8
 73
4
 74
0
 40
0
 40
0
 40
0
 40
0
 40
1
 40
1
 40
1
 40
1
 10
34.981131
 20
8.729168
 30
0.0
 10
34.768126
 20
8.348549
 30
0.0
 10
34.642589
 20
8.380479
 30
0.0
 10
33.902015
 20
9.003628
 30
0.0
  0
SPLINE
  5
105
100
AcDbEntity
  8
0
 62
7
100
AcDbSpline
 70
8
 71
3
 72
8
 73
4
 74
0
 40
0
 40
0
 40
0
 40
0
 40
1
 40
1
 40
1
 40
1
 10
33.902015
 20
9.003628
 30
0.0
 10
33.441079
 20
9.391481
 30
0.0
 10
33.063947
 20
9.884849
 30
0.0
 10
33.063947
 20
10.100000
 30
0.0
  0
SPLINE
  5
106
100
AcDbEntity
  8
0
 62
7
100
AcDbSpline
 70
8
 71
3
 72
8
 73
4
 74
0
 40
0
 40
0
 40
0
 40
0
 40
1
 40
1
 40
1
 40
1
 10
33.063947
 20
10.100000
 30
0.0
 10
33.063947
 20
10.373897
 30
0.0
 10
32.901403
 20
10.439596
 30
0.0
 10
32.521827
 20
10.319123
 30
0.0
  0
SPLINE
  5
107
100
AcDbEntity
  8
0
 62
7
100
AcDbSpline
 70
8
 71
3
 72
8
 73
4
 74
0
 40
0
 40
0
 40
0
 40
0
 40
1
 40
1
 40
1
 40
1
 10
32.521827
 20
10.319123
 30
0.0
 10
32.206901
 20
10.219169
 30
0.0
 10
31.718602
 20
10.318065
 30
0.0
 10
31.356681
 20
10.555280
 30
0.0
  0
SPLINE
  5
108
100
AcDbEntity
  8
0
 62
7
100
AcDbSpline
 70
8
 71
3
 72
8
 73
4
 74
0
 40
0
 40
0
 40
0
 40
0
 40
1
 40
1
 40
1
 40
1
 10
31.356681
 20
10.555280
 30
0.0
 10
30.600576
 20
11.050701
 30
0.0
 10
29.095197
 20
13.607788
 30
0.0
 10
29.095197
 20
14.396715
 30
0.0
  0
SPLINE
  5
109
100
AcDbEntity
  8
0
 62
7
100
AcDbSpline
 70
8
 71
3
 72
8
 73
4
 74
0
 40
0
 40
0
 40
0
 40
0
 40
1
 40
1
 40
1
 40
1
 10
29.095197
 20
14.396715
 30
0.0
 10
29.095197
 20
14.709931
 30
0.0
 10
29.516726
 20
15.578995
 30
0.0
 10
30.031928
 20
16.327967
 30
0.0
  0
SPLINE
  5
10a
100
AcDbEntity
  8
0
 62
7
100
AcDbSpline
 70
8
 71
3
 72
8
 73
4
 74
0
 40
0
 40
0
 40
0
 40
0
 40
1
 40
1
 40
1
 40
1
 10
30.031928
 20
16.327967
 30
0.0
 10
30.547130
 20
17.076941
 30
0.0
 10
30.925516
 20
17.877742
 30
0.0
 10
30.872782
 20
18.107528
 30
0.0
  0
SPLINE
  5
10b
100
AcDbEntity
  8
0
 62
7
100
AcDbSpline
 70
8
 71
3
 72
8
 73
4
 74
0
 40
0
 40
0
 40
0
 40
0
 40
1
 40
1
 40
1
 40
1
 10
30.872782
 20
18.107528
 30
0.0
 10
30.769142
 20
18.559142
 30
0.0
 10
31.498106
 20
20.199112
 30
0.0
 10
32.322765
 20
21.369589
 30
0.0
  0
SPLINE
  5
10c
100
AcDbEntity
  8
0
 62
7
100
AcDbSpline
 70
8
 71
3
 72
8
 73
4
 74
0
 40
0
 40
0
 40
0
 40
0
 40
1
 40
1
 40
1
 40
1
 10
32.322765
 20
21.369589
 30
0.0
 10
32.639971
 20
21.819817
 30
0.0
 10
33.078166
 20
22.097193
 30
0.0
 10
33.472223
 20
22.097193
 30
0.0
  0
SPLINE
  5
10d
100
AcDbEntity
  8
0
 62
7
100
AcDbSpline
 70
8
 71
3
 72
8
 73
4
 74
0
 40
0
 40
0
 40
0
 40
0
 40
1
 40
1
 40
1
 40
1
 10
33.472223
 20
22.097193
 30
0.0
 10
34.022845
 20
22.097193
 30
0.0
 10
34.091023
 20
21.998697
 30
0.0
 10
33.975863
 20
21.369589
 30
0.0
  0
SPLINE
  5
10e
100
AcDbEntity
  8
0
 62
7
100
AcDbSpline
 70
8
 71
3
 72
8
 73
4
 74
0
 40
0
 40
0
 40
0
 40
0
 40
1
 40
1
 40
1
 40
1
 10
33.975863
 20
21.369589
 30
0.0
 10
33.902608
 20
20.969407
 30
0.0
 10
33.941382
 20
20.294272
 30
0.0
 10
34.062027
 20
19.869288
 30
0.0
  0
SPLINE
  5
10f
100
AcDbEntity
  8
0
 62
7
100
AcDbSpline
 70
8
 71
3
 72
8
 73
4
 74
0
 40
0
 40
0
 40
0
 40
0
 40
1
 40
1
 40
1
 40
1
 10
34.854367
 20
20.067725
 30
0.0
 10
35.227998
 20
20.700981
 30
0.0
 10
35.622656
 20
21.038860
 30
0.0
 10
35.988696
 20
21.038860
 30
0.0
  0
SPLINE
  5
110
100
AcDbEntity
  8
0
 62
7
100
AcDbSpline
 70
8
 71
3
 72
8
 73
4
 74
0
 40
0
 40
0
 40
0
 40
0
 40
1
 40
1
 40
1
 40
1
 10
35.988696
 20
21.038860
 30
0.0
 10
36.493820
 20
21.038860
 30
0.0
 10
36.532725
 20
20.936357
 30
0.0
 10
36.377139
 20
20.015457
 30
0.0
  0
SPLINE
  5
111
100
AcDbEntity
  8
0
 62
7
100
AcDbSpline
 70
8
 71
3
 72
8
 73
4
 74
0
 40
0
 40
0
 40
0
 40
0
 40
1
 40
1
 40
1
 40
1
 10
36.377139
 20
20.015457
 30
0.0
 10
36.232277
 20
19.158024
 30
0.0
 10
36.311724
 20
18.868390
 30
0.0
 10
36.867018
 20
18.229519
 30
0.0
  0
SPLINE
  5
112
100
AcDbEntity
  8
0
 62
7
100
AcDbSpline
 70
8
 71
3
 72
8
 73
4
 74
0
 40
0
 40
0
 40
0
 40
0
 40
1
 40
1
 40
1
 40
1
 10
36.867018
 20
18.229519
 30
0.0
 10
37.412536
 20
17.601898
 30
0.0
 10
37.614558
 20
17.518393
 30
0.0
 10
38.008854
 20
17.757540
 30
0.0
  0
SPLINE
  5
113
100
AcDbEntity
  8
0
 62
7
100
AcDbSpline
 70
8
 71
3
 72
8
 73
4
 74
0
 40
0
 40
0
 40
0
 40
0
 40
1
 40
1
 40
1
 40
1
 10
38.008854
 20
17.757540
 30
0.0
 10
38.964682
 20
18.337265
 30
0.0
 10
39.100911
 20
19.060544
 30
0.0
 10
38.655646
 20
21.191493
 30
0.0
  0
SPLINE
  5
114
100
AcDbEntity
  8
0
 62
7
100
AcDbSpline
 70
8
 71
3
 72
8
 73
4
 74
0
 40
0
 40
0
 40
0
 40
0
 40
1
 40
1
 40
1
 40
1
 10
38.655646
 20
21.191493
 30
0.0
 10
38.242568
 20
23.168393
 30
0.0
 10
38.244267
 20
23.193296
 30
0.0
 10
38.873229
 20
24.378899
 30
0.0
  0
SPLINE
  5
115
100
AcDbEntity
  8
0
 62
7
100
AcDbSpline
 70
8
 71
3
 72
8
 73
4
 74
0
 40
0
 40
0
 40
0
 40
0
 40
1
 40
1
 40
1
 40
1
 10
38.873229
 20
24.378899
 30
0.0
 10
39.221881
 20
25.036116
 30
0.0
 10
40.038718
 20
26.041750
 30
0.0
 10
40.688421
 20
26.613641
 30
0.0
  0
SPLINE
  5
116
100
AcDbEntity
  8
0
 62
7
100
AcDbSpline
 70
8
 71
3
 72
8
 73
4
 74
0
 40
0
 40
0
 40
0
 40
0
 40
1
 40
1
 40
1
 40
1
 10
40.688421
 20
26.613641
 30
0.0
 10
42.001924
 20
27.769833
 30
0.0
 10
43.090272
 20
27.961116
 30
0.0
 10
44.146369
 20
27.221397
 30
0.0
  0
SPLINE
  5
117
100
AcDbEntity
  8
0
 62
7
100
AcDbSpline
 70
8
 71
3
 72
8
 73
4
 74
0
 40
0
 40
0
 40
0
 40
0
 40
1
 40
1
 40
1
 40
1
 10
44.146369
 20
27.221397
 30
0.0
 10
44.624204
 20
26.886710
 30
0.0
 10
44.809119
 20
26.863643
 30
0.0
 10
44.966964
 20
27.119043
 30
0.0
  0
SPLINE
  5
118
100
AcDbEntity
  8
0
 62
7
100
AcDbSpline
 70
8
 71
3
 72
8
 73
4
 74
0
 40
0
 40
0
 40
0
 40
0
 40
1
 40
1
 40
1
 40
1
 10
44.966964
 20
27.119043
 30
0.0
 10
45.126156
 20
27.376623
 30
0.0
 10
45.203142
 20
27.369847
 30
0.0
 10
45.318929
 20
27.088068
 30
0.0
  0
SPLINE
  5
119
100
AcDbEntity
  8
0
 62
7
100
AcDbSpline
 70
8
 71
3
 72
8
 73
4
 74
0
 40
0
 40
0
 40
0
 40
0
 40
1
 40
1
 40
1
 40
1
 10
45.318929
 20
27.088068
 30
0.0
 10
45.426500
 20
26.826284
 30
0.0
 10
45.642445
 20
26.933099
 30
0.0
 10
46.106575
 20
27.477675
 30
0.0
  0
SPLINE
  5
11a
100
AcDbEntity
  8
0
 62
7
100
AcDbSpline
 70
8
 71
3
 72
8
 73
4
 74
0
 40
0
 40
0
 40
0
 40
0
 40
1
 40
1
 40
1
 40
1
 10
46.106575
 20
27.477675
 30
0.0
 10
46.701811
 20
28.176077
 30
0.0
 10
46.839836
 20
28.216037
 30
0.0
 10
48.103054
 20
28.055668
 30
0.0
  0
SPLINE
  5
11b
100
AcDbEntity
  8
0
 62
7
100
AcDbSpline
 70
8
 71
3
 72
8
 73
4
 74
0
 40
0
 40
0
 40
0
 40
0
 40
1
 40
1
 40
1
 40
1
 10
48.103054
 20
28.055668
 30
0.0
 10
50.989534
 20
27.689223
 30
0.0
 10
52.113947
 20
27.050751
 30
0.0
 10
52.113947
 20
25.778182
 30
0.0
  0
SPLINE
  5
11c
100
AcDbEntity
  8
0
 62
7
100
AcDbSpline
 70
8
 71
3
 72
8
 73
4
 74
0
 40
0
 40
0
 40
0
 40
0
 40
1
 40
1
 40
1
 40
1
 10
52.113947
 20
25.778182
 30
0.0
 10
52.113947
 20
25.287309
 30
0.0
 10
52.281677
 20
24.990033
 30
0.0
 10
52.619061
 20
24.882954
 30
0.0
  0
SPLINE
  5
11d
100
AcDbEntity
  8
0
 62
7
100
AcDbSpline
 70
8
 71
3
 72
8
 73
4
 74
0
 40
0
 40
0
 40
0
 40
0
 40
1
 40
1
 40
1
 40
1
 10
52.619061
 20
24.882954
 30
0.0
 10
53.236701
 20
24.686921
 30
0.0
 10
54.495197
 20
21.682435
 30
0.0
 10
54.495197
 20
20.403928
 30
0.0
  0
SPLINE
  5
11e
100
AcDbEntity
  8
0
 62
7
100
AcDbSpline
 70
8
 71
3
 72
8
 73
4
 74
0
 40
0
 40
0
 40
0
 40
0
 40
1
 40
1
 40
1
 40
1
 10
54.495197
 20
20.403928
 30
0.0
 10
54.495197
 20
19.279547
 30
0.0
 10
55.407454
 20
18.054577
 30
0.0
 10
55.799744
 20
18.652196
 30
0.0
  0
SPLINE
  5
11f
100
AcDbEntity
  8
0
 62
7
100
AcDbSpline
 70
8
 71
3
 72
8
 73
4
 74
0
 40
0
 40
0
 40
0
 40
0
 40
1
 40
1
 40
1
 40
1
 10
55.799744
 20
18.652196
 30
0.0
 10
55.941074
 20
18.867501
 30
0.0
 10
56.132550
 20
19.492579
 30
0.0
 10
56.225249
 20
20.041259
 30
0.0
  0
SPLINE
  5
120
100
AcDbEntity
  8
0
 62
7
100
AcDbSpline
 70
8
 71
3
 72
8
 73
4
 74
0
 40
0
 40
0
 40
0
 40
0
 40
1
 40
1
 40
1
 40
1
 10
56.225249
 20
20.041259
 30
0.0
 10
56.317949
 20
20.589941
 30
0.0
 10
56.455490
 20
21.038860
 30
0.0
 10
56.530896
 20
21.038860
 30
0.0
  0
SPLINE
  5
121
100
AcDbEntity
  8
0
 62
7
100
AcDbSpline
 70
8
 71
3
 72
8
 73
4
 74
0
 40
0
 40
0
 40
0
 40
0
 40
1
 40
1
 40
1
 40
1
 10
56.530896
 20
21.038860
 30
0.0
 10
56.606302
 20
21.038860
 30
0.0
 10
56.908787
 20
20.732747
 30
0.0
 10
57.203083
 20
20.358608
 30
0.0
  0
LWPOLYLINE
  5
122
100
AcDbEntity
  8
0
 62
7
100
AcDbPolyline
 90
3
 70
0
 10
34.062027
 20
19.869288
 30
0.0
 10
34.281383
 20
19.096590
 30
0.0
 10
34.854367
 20
20.067725
 30
0.0
  0
SPLINE
  5
123
100
AcDbEntity
  8
0
 62
7
100
AcDbSpline
 70
8
 71
3
 72
8
 73
4
 74
0
 40
0
 40
0
 40
0
 40
0
 40
1
 40
1
 40
1
 40
1
 10
58.213339
 20
20.739679
 30
0.0
 10
58.685123
 20
21.793441
 30
0.0
 10
58.695450
 20
21.799090
 30
0.0
 10
59.662272
 20
21.532136
 30
0.0
  0
SPLINE
  5
124
100
AcDbEntity
  8
0
 62
7
100
AcDbSpline
 70
8
 71
3
 72
8
 73
4
 74
0
 40
0
 40
0
 40
0
 40
0
 40
1
 40
1
 40
1
 40
1
 10
59.662272
 20
21.532136
 30
0.0
 10
60.517794
 20
21.295916
 30
0.0
 10
60.712990
 20
21.335563
 30
0.0
 10
61.269782
 20
21.858642
 30
0.0
  0
SPLINE
  5
125
100
AcDbEntity
  8
0
 62
7
100
AcDbSpline
 70
8
 71
3
 72
8
 73
4
 74
0
 40
0
 40
0
 40
0
 40
0
 40
1
 40
1
 40
1
 40
1
 10
61.269782
 20
21.858642
 30
0.0
 10
62.072433
 20
22.612694
 30
0.0
 10
62.064233
 20
22.764956
 30
0.0
 10
61.175926
 20
23.601037
 30
0.0
  0
LWPOLYLINE
  5
126
100
AcDbEntity
  8
0
 62
7
100
AcDbPolyline
 90
3
 70
0
 10
57.203083
 20
20.358608
 30
0.0
 10
57.738171
 20
19.678356
 30
0.0
 10
58.213339
 20
20.739679
 30
0.0
  0
SPLINE
  5
127
100
AcDbEntity
  8
0
 62
7
100
AcDbSpline
 70
8
 71
3
 72
8
 73
4
 74
0
 40
0
 40
0
 40
0
 40
0
 40
1
 40
1
 40
1
 40
1
 10
61.440510
 20
24.105582
 30
0.0
 10
62.322398
 20
23.945339
 30
0.0
 10
62.432697
 20
23.985455
 30
0.0
 10
62.432697
 20
24.466455
 30
0.0
  0
SPLINE
  5
128
100
AcDbEntity
  8
0
 62
7
100
AcDbSpline
 70
8
 71
3
 72
8
 73
4
 74
0
 40
0
 40
0
 40
0
 40
0
 40
1
 40
1
 40
1
 40
1
 10
62.432697
 20
24.466455
 30
0.0
 10
62.432697
 20
25.273831
 30
0.0
 10
62.800603
 20
25.128490
 30
0.0
 10
63.791071
 20
23.929827
 30
0.0
  0
SPLINE
  5
129
100
AcDbEntity
  8
0
 62
7
100
AcDbSpline
 70
8
 71
3
 72
8
 73
4
 74
0
 40
0
 40
0
 40
0
 40
0
 40
1
 40
1
 40
1
 40
1
 10
63.791071
 20
23.929827
 30
0.0
 10
64.280894
 20
23.337044
 30
0.0
 10
65.077086
 20
22.444075
 30
0.0
 10
65.560390
 20
21.945452
 30
0.0
  0
SPLINE
  5
12a
100
AcDbEntity
  8
0
 62
7
100
AcDbSpline
 70
8
 71
3
 72
8
 73
4
 74
0
 40
0
 40
0
 40
0
 40
0
 40
1
 40
1
 40
1
 40
1
 10
65.560390
 20
21.945452
 30
0.0
 10
66.177557
 20
21.308719
 30
0.0
 10
66.313881
 20
21.038860
 30
0.0
 10
66.018370
 20
21.038860
 30
0.0
  0
SPLINE
  5
12b
100
AcDbEntity
  8
0
 62
7
100
AcDbSpline
 70
8
 71
3
 72
8
 73
4
 74
0
 40
0
 40
0
 40
0
 40
0
 40
1
 40
1
 40
1
 40
1
 10
66.018370
 20
21.038860
 30
0.0
 10
65.522777
 20
21.038860
 30
0.0
 10
65.646898
 20
20.257238
 30
0.0
 10
66.433364
 20
18.425538
 30
0.0
  0
SPLINE
  5
12c
100
AcDbEntity
  8
0
 62
7
100
AcDbSpline
 70
8
 71
3
 72
8
 73
4
 74
0
 40
0
 40
0
 40
0
 40
0
 40
1
 40
1
 40
1
 40
1
 10
66.433364
 20
18.425538
 30
0.0
 10
66.948201
 20
17.226465
 30
0.0
 10
67.105268
 20
15.482610
 30
0.0
 10
66.698426
 20
15.482610
 30
0.0
  0
SPLINE
  5
12d
100
AcDbEntity
  8
0
 62
7
100
AcDbSpline
 70
8
 71
3
 72
8
 73
4
 74
0
 40
0
 40
0
 40
0
 40
0
 40
1
 40
1
 40
1
 40
1
 10
66.698426
 20
15.482610
 30
0.0
 10
66.570725
 20
15.482610
 30
0.0
 10
66.318022
 20
15.661203
 30
0.0
 10
66.136864
 20
15.879485
 30
0.0
  0
SPLINE
  5
12e
100
AcDbEntity
  8
0
 62
7
100
AcDbSpline
 70
8
 71
3
 72
8
 73
4
 74
0
 40
0
 40
0
 40
0
 40
0
 40
1
 40
1
 40
1
 40
1
 10
66.136864
 20
15.879485
 30
0.0
 10
65.623157
 20
16.498464
 30
0.0
 10
65.487031
 20
16.377367
 30
0.0
 10
64.962775
 20
14.835034
 30
0.0
  0
SPLINE
  5
12f
100
AcDbEntity
  8
0
 62
7
100
AcDbSpline
 70
8
 71
3
 72
8
 73
4
 74
0
 40
0
 40
0
 40
0
 40
0
 40
1
 40
1
 40
1
 40
1
 10
64.962775
 20
14.835034
 30
0.0
 10
64.554084
 20
13.632685
 30
0.0
 10
64.358557
 20
13.380440
 30
0.0
 10
63.783504
 20
13.313680
 30
0.0
  0
SPLINE
  5
130
100
AcDbEntity
  8
0
 62
7
100
AcDbSpline
 70
8
 71
3
 72
8
 73
4
 74
0
 40
0
 40
0
 40
0
 40
0
 40
1
 40
1
 40
1
 40
1
 10
63.783504
 20
13.313680
 30
0.0
 10
63.150144
 20
13.240152
 30
0.0
 10
63.087647
 20
13.120412
 30
0.0
 10
63.014003
 20
11.839398
 30
0.0
  0
SPLINE
  5
131
100
AcDbEntity
  8
0
 62
7
100
AcDbSpline
 70
8
 71
3
 72
8
 73
4
 74
0
 40
0
 40
0
 40
0
 40
0
 40
1
 40
1
 40
1
 40
1
 10
63.014003
 20
11.839398
 30
0.0
 10
62.935091
 20
10.466708
 30
0.0
 10
62.924970
 20
10.451362
 30
0.0
 10
62.359818
 20
10.847210
 30
0.0
  0
SPLINE
  5
132
100
AcDbEntity
  8
0
 62
7
100
AcDbSpline
 70
8
 71
3
 72
8
 73
4
 74
0
 40
0
 40
0
 40
0
 40
0
 40
1
 40
1
 40
1
 40
1
 10
62.359818
 20
10.847210
 30
0.0
 10
61.626081
 20
11.361140
 30
0.0
 10
61.374364
 20
11.355139
 30
0.0
 10
61.374364
 20
10.823715
 30
0.0
  0
SPLINE
  5
133
100
AcDbEntity
  8
0
 62
7
100
AcDbSpline
 70
8
 71
3
 72
8
 73
4
 74
0
 40
0
 40
0
 40
0
 40
0
 40
1
 40
1
 40
1
 40
1
 10
61.374364
 20
10.823715
 30
0.0
 10
61.374364
 20
10.501905
 30
0.0
 10
61.213106
 20
10.438630
 30
0.0
 10
60.712906
 20
10.564172
 30
0.0
  0
SPLINE
  5
134
100
AcDbEntity
  8
0
 62
7
100
AcDbSpline
 70
8
 71
3
 72
8
 73
4
 74
0
 40
0
 40
0
 40
0
 40
0
 40
1
 40
1
 40
1
 40
1
 10
60.712906
 20
10.564172
 30
0.0
 10
60.181501
 20
10.697549
 30
0.0
 10
60.051447
 20
10.631525
 30
0.0
 10
60.051447
 20
10.228379
 30
0.0
  0
SPLINE
  5
135
100
AcDbEntity
  8
0
 62
7
100
AcDbSpline
 70
8
 71
3
 72
8
 73
4
 74
0
 40
0
 40
0
 40
0
 40
0
 40
1
 40
1
 40
1
 40
1
 10
60.051447
 20
10.228379
 30
0.0
 10
60.051447
 20
9.441471
 30
0.0
 10
59.324502
 20
8.963597
 30
0.0
 10
58.710637
 20
9.346962
 30
0.0
  0
SPLINE
  5
136
100
AcDbEntity
  8
0
 62
7
100
AcDbSpline
 70
8
 71
3
 72
8
 73
4
 74
0
 40
0
 40
0
 40
0
 40
0
 40
1
 40
1
 40
1
 40
1
 10
58.710637
 20
9.346962
 30
0.0
 10
57.899398
 20
9.853589
 30
0.0
 10
57.714743
 20
9.742662
 30
0.0
 10
56.702164
 20
8.140420
 30
0.0
  0
SPLINE
  5
137
100
AcDbEntity
  8
0
 62
7
100
AcDbSpline
 70
8
 71
3
 72
8
 73
4
 74
0
 40
0
 40
0
 40
0
 40
0
 40
1
 40
1
 40
1
 40
1
 10
56.702164
 20
8.140420
 30
0.0
 10
56.173359
 20
7.303675
 30
0.0
 10
55.697358
 20
6.568226
 30
0.0
 10
55.644383
 20
6.506088
 30
0.0
  0
SPLINE
  5
138
100
AcDbEntity
  8
0
 62
7
100
AcDbSpline
 70
8
 71
3
 72
8
 73
4
 74
0
 40
0
 40
0
 40
0
 40
0
 40
1
 40
1
 40
1
 40
1
 10
55.644383
 20
6.506088
 30
0.0
 10
55.591406
 20
6.443951
 30
0.0
 10
55.374487
 20
6.622545
 30
0.0
 10
55.162336
 20
6.902963
 30
0.0
  0
SPLINE
  5
139
100
AcDbEntity
  8
0
 62
7
100
AcDbSpline
 70
8
 71
3
 72
8
 73
4
 74
0
 40
0
 40
0
 40
0
 40
0
 40
1
 40
1
 40
1
 40
1
 10
55.162336
 20
6.902963
 30
0.0
 10
54.791004
 20
7.393792
 30
0.0
 10
54.775981
 20
7.388132
 30
0.0
 10
54.759781
 20
6.751357
 30
0.0
  0
SPLINE
  5
13a
100
AcDbEntity
  8
0
 62
7
100
AcDbSpline
 70
8
 71
3
 72
8
 73
4
 74
0
 40
0
 40
0
 40
0
 40
0
 40
1
 40
1
 40
1
 40
1
 10
54.759781
 20
6.751357
 30
0.0
 10
54.735518
 20
5.797931
 30
0.0
 10
54.199748
 20
5.222843
 30
0.0
 10
52.912701
 20
4.768747
 30
0.0
  0
SPLINE
  5
13b
100
AcDbEntity
  8
0
 62
7
100
AcDbSpline
 70
8
 71
3
 72
8
 73
4
 74
0
 40
0
 40
0
 40
0
 40
0
 40
1
 40
1
 40
1
 40
1
 10
52.912701
 20
4.768747
 30
0.0
 10
51.498397
 20
4.269753
 30
0.0
 10
51.584781
 20
4.254910
 30
0.0
 10
51.584781
 20
4.996950
 30
0.0
  0
SPLINE
  5
13c
100
AcDbEntity
  8
0
 62
7
100
AcDbSpline
 70
8
 71
3
 72
8
 73
4
 74
0
 40
0
 40
0
 40
0
 40
0
 40
1
 40
1
 40
1
 40
1
 10
51.584781
 20
4.996950
 30
0.0
 10
51.584781
 20
5.515049
 30
0.0
 10
51.414550
 20
5.651413
 30
0.0
 10
50.603470
 20
5.783035
 30
0.0
  0
SPLINE
  5
13d
100
AcDbEntity
  8
0
 62
7
100
AcDbSpline
 70
8
 71
3
 72
8
 73
4
 74
0
 40
0
 40
0
 40
0
 40
0
 40
1
 40
1
 40
1
 40
1
 10
50.603470
 20
5.783035
 30
0.0
 10
49.663953
 20
5.935496
 30
0.0
 10
49.389779
 20
5.796767
 30
0.0
 10
49.118245
 20
5.031568
 30
0.0
  0
SPLINE
  5
13e
100
AcDbEntity
  8
0
 62
7
100
AcDbSpline
 70
8
 71
3
 72
8
 73
4
 74
0
 40
0
 40
0
 40
0
 40
0
 40
1
 40
1
 40
1
 40
1
 10
49.118245
 20
5.031568
 30
0.0
 10
49.062248
 20
4.873757
 30
0.0
 10
48.646707
 20
4.945774
 30
0.0
 10
48.088542
 20
5.210022
 30
0.0
  0
SPLINE
  5
13f
100
AcDbEntity
  8
0
 62
7
100
AcDbSpline
 70
8
 71
3
 72
8
 73
4
 74
0
 40
0
 40
0
 40
0
 40
0
 40
1
 40
1
 40
1
 40
1
 10
48.088542
 20
5.210022
 30
0.0
 10
47.423223
 20
5.524997
 30
0.0
 10
47.070809
 20
5.571138
 30
0.0
 10
46.869318
 20
5.369647
 30
0.0
  0
SPLINE
  5
140
100
AcDbEntity
  8
0
 62
7
100
AcDbSpline
 70
8
 71
3
 72
8
 73
4
 74
0
 40
0
 40
0
 40
0
 40
0
 40
1
 40
1
 40
1
 40
1
 10
46.869318
 20
5.369647
 30
0.0
 10
46.713444
 20
5.213773
 30
0.0
 10
45.738526
 20
5.060386
 30
0.0
 10
44.702838
 20
5.028793
 30
0.0
  0
SPLINE
  5
141
100
AcDbEntity
  8
0
 62
7
100
AcDbSpline
 70
8
 71
3
 72
8
 73
4
 74
0
 40
0
 40
0
 40
0
 40
0
 40
1
 40
1
 40
1
 40
1
 10
44.702838
 20
5.028793
 30
0.0
 10
43.667151
 20
4.997199
 30
0.0
 10
42.684491
 20
4.836070
 30
0.0
 10
42.519150
 20
4.670729
 30
0.0
  0
SPLINE
  5
142
100
AcDbEntity
  8
0
 62
7
100
AcDbSpline
 70
8
 71
3
 72
8
 73
4
 74
0
 40
0
 40
0
 40
0
 40
0
 40
1
 40
1
 40
1
 40
1
 10
42.519150
 20
4.670729
 30
0.0
 10
42.107646
 20
4.259225
 30
0.0
 10
42.084061
 20
4.267105
 30
0.0
 10
40.736864
 20
5.266269
 30
0.0
  0
LWPOLYLINE
  5
143
100
AcDbEntity
  8
0
 62
7
100
AcDbPolyline
 90
3
 70
0
 10
61.175926
 20
23.601037
 30
0.0
 10
60.448322
 20
24.285866
 30
0.0
 10
61.440510
 20
24.105582
 30
0.0
  0
SPLINE
  5
144
100
AcDbEntity
  8
0
 62
7
100
AcDbSpline
 70
8
 71
3
 72
8
 73
4
 74
0
 40
0
 40
0
 40
0
 40
0
 40
1
 40
1
 40
1
 40
1
 10
42.318369
 20
13.086884
 30
0.0
 10
42.820997
 20
14.300340
 30
0.0
 10
43.596338
 20
14.397580
 30
0.0
 10
44.520662
 20
13.363083
 30
0.0
  0
LWPOLYLINE
  5
145
100
AcDbEntity
  8
0
 62
7
100
AcDbPolyline
 90
1
 70
1
 10
40.736864
 20
5.266269
 30
0.0
  0
SPLINE
  5
146
100
AcDbEntity
  8
0
 62
7
100
AcDbSpline
 70
8
 71
3
 72
8
 73
4
 74
0
 40
0
 40
0
 40
0
 40
0
 40
1
 40
1
 40
1
 40
1
 10
45.112839
 20
13.395357
 30
0.0
 10
45.013774
 20
13.888503
 30
0.0
 10
44.762558
 20
14.986212
 30
0.0
 10
44.554585
 20
15.834709
 30
0.0
  0
SPLINE
  5
147
100
AcDbEntity
  8
0
 62
7
100
AcDbSpline
 70
8
 71
3
 72
8
 73
4
 74
0
 40
0
 40
0
 40
0
 40
0
 40
1
 40
1
 40
1
 40
1
 10
44.554585
 20
15.834709
 30
0.0
 10
44.346609
 20
16.683207
 30
0.0
 10
44.176447
 20
18.141722
 30
0.0
 10
44.176447
 20
19.075855
 30
0.0
  0
SPLINE
  5
148
100
AcDbEntity
  8
0
 62
7
100
AcDbSpline
 70
8
 71
3
 72
8
 73
4
 74
0
 40
0
 40
0
 40
0
 40
0
 40
1
 40
1
 40
1
 40
1
 10
44.176447
 20
19.075855
 30
0.0
 10
44.176447
 20
20.009988
 30
0.0
 10
44.110555
 20
20.774276
 30
0.0
 10
44.030019
 20
20.774276
 30
0.0
  0
SPLINE
  5
149
100
AcDbEntity
  8
0
 62
7
100
AcDbSpline
 70
8
 71
3
 72
8
 73
4
 74
0
 40
0
 40
0
 40
0
 40
0
 40
1
 40
1
 40
1
 40
1
 10
44.030019
 20
20.774276
 30
0.0
 10
43.598171
 20
20.774276
 30
0.0
 10
41.952352
 20
19.167314
 30
0.0
 10
41.365231
 20
18.172404
 30
0.0
  0
SPLINE
  5
14a
100
AcDbEntity
  8
0
 62
7
100
AcDbSpline
 70
8
 71
3
 72
8
 73
4
 74
0
 40
0
 40
0
 40
0
 40
0
 40
1
 40
1
 40
1
 40
1
 10
41.365231
 20
18.172404
 30
0.0
 10
40.664823
 20
16.985525
 30
0.0
 10
39.149364
 20
13.480164
 30
0.0
 10
39.149364
 20
13.046953
 30
0.0
  0
SPLINE
  5
14b
100
AcDbEntity
  8
0
 62
7
100
AcDbSpline
 70
8
 71
3
 72
8
 73
4
 74
0
 40
0
 40
0
 40
0
 40
0
 40
1
 40
1
 40
1
 40
1
 10
39.149364
 20
13.046953
 30
0.0
 10
39.149364
 20
12.911537
 30
0.0
 10
39.495166
 20
13.046975
 30
0.0
 10
39.917812
 20
13.347928
 30
0.0
  0
SPLINE
  5
14c
100
AcDbEntity
  8
0
 62
7
100
AcDbSpline
 70
8
 71
3
 72
8
 73
4
 74
0
 40
0
 40
0
 40
0
 40
0
 40
1
 40
1
 40
1
 40
1
 10
39.917812
 20
13.347928
 30
0.0
 10
41.083132
 20
14.177709
 30
0.0
 10
41.530614
 20
14.068258
 30
0.0
 10
41.530614
 20
12.953452
 30
0.0
  0
SPLINE
  5
14d
100
AcDbEntity
  8
0
 62
7
100
AcDbSpline
 70
8
 71
3
 72
8
 73
4
 74
0
 40
0
 40
0
 40
0
 40
0
 40
1
 40
1
 40
1
 40
1
 10
41.530614
 20
12.953452
 30
0.0
 10
41.530614
 20
11.879800
 30
0.0
 10
41.840089
 20
11.932219
 30
0.0
 10
42.318369
 20
13.086884
 30
0.0
  0
LWPOLYLINE
  5
14e
100
AcDbEntity
  8
0
 62
7
100
AcDbPolyline
 90
3
 70
0
 10
44.520662
 20
13.363083
 30
0.0
 10
45.292960
 20
12.498729
 30
0.0
 10
45.112839
 20
13.395357
 30
0.0
  0
SPLINE
  5
14f
100
AcDbEntity
  8
0
 62
7
100
AcDbSpline
 70
8
 71
3
 72
8
 73
4
 74
0
 40
0
 40
0
 40
0
 40
0
 40
1
 40
1
 40
1
 40
1
 10
48.938947
 20
15.196386
 30
0.0
 10
48.938947
 20
16.376396
 30
0.0
 10
49.217884
 20
16.551727
 30
0.0
 10
49.900491
 20
15.800784
 30
0.0
  0
SPLINE
  5
150
100
AcDbEntity
  8
0
 62
7
100
AcDbSpline
 70
8
 71
3
 72
8
 73
4
 74
0
 40
0
 40
0
 40
0
 40
0
 40
1
 40
1
 40
1
 40
1
 10
49.900491
 20
15.800784
 30
0.0
 10
50.517126
 20
15.122422
 30
0.0
 10
50.509432
 20
15.169600
 30
0.0
 10
49.750536
 20
16.720299
 30
0.0
  0
SPLINE
  5
151
100
AcDbEntity
  8
0
 62
7
100
AcDbSpline
 70
8
 71
3
 72
8
 73
4
 74
0
 40
0
 40
0
 40
0
 40
0
 40
1
 40
1
 40
1
 40
1
 10
49.750536
 20
16.720299
 30
0.0
 10
49.047990
 20
18.155849
 30
0.0
 10
47.976806
 20
19.371164
 30
0.0
 10
47.677692
 20
19.072048
 30
0.0
  0
SPLINE
  5
152
100
AcDbEntity
  8
0
 62
7
100
AcDbSpline
 70
8
 71
3
 72
8
 73
4
 74
0
 40
0
 40
0
 40
0
 40
0
 40
1
 40
1
 40
1
 40
1
 10
47.677692
 20
19.072048
 30
0.0
 10
47.504988
 20
18.899344
 30
0.0
 10
48.523620
 20
14.688860
 30
0.0
 10
48.738105
 20
14.688860
 30
0.0
  0
SPLINE
  5
153
100
AcDbEntity
  8
0
 62
7
100
AcDbSpline
 70
8
 71
3
 72
8
 73
4
 74
0
 40
0
 40
0
 40
0
 40
0
 40
1
 40
1
 40
1
 40
1
 10
48.738105
 20
14.688860
 30
0.0
 10
48.848568
 20
14.688860
 30
0.0
 10
48.938947
 20
14.917248
 30
0.0
 10
48.938947
 20
15.196386
 30
0.0
  0
LWPOLYLINE
  5
154
100
AcDbEntity
  8
0
 62
7
100
AcDbPolyline
 90
1
 70
1
 10
42.318369
 20
13.086884
 30
0.0
  0
LWPOLYLINE
  5
155
100
AcDbEntity
  8
0
 62
7
100
AcDbPolyline
 90
1
 70
1
 10
48.938947
 20
15.196386
 30
0.0
  0
SPLINE
  5
156
100
AcDbEntity
  8
0
 62
7
100
AcDbSpline
 70
8
 71
3
 72
8
 73
4
 74
0
 40
0
 40
0
 40
0
 40
0
 40
1
 40
1
 40
1
 40
1
 10
26.307871
 20
18.721954
 30
0.0
 10
25.074585
 20
18.582944
 30
0.0
 10
25.048754
 20
18.594731
 30
0.0
 10
25.229689
 20
19.213883
 30
0.0
  0
SPLINE
  5
157
100
AcDbEntity
  8
0
 62
7
100
AcDbSpline
 70
8
 71
3
 72
8
 73
4
 74
0
 40
0
 40
0
 40
0
 40
0
 40
1
 40
1
 40
1
 40
1
 10
25.229689
 20
19.213883
 30
0.0
 10
25.812003
 20
21.206537
 30
0.0
 10
26.449323
 20
25.772906
 30
0.0
 10
26.368588
 20
27.374022
 30
0.0
  0
SPLINE
  5
158
100
AcDbEntity
  8
0
 62
7
100
AcDbSpline
 70
8
 71
3
 72
8
 73
4
 74
0
 40
0
 40
0
 40
0
 40
0
 40
1
 40
1
 40
1
 40
1
 10
26.368588
 20
27.374022
 30
0.0
 10
26.290401
 20
28.924628
 30
0.0
 10
26.387320
 20
29.436830
 30
0.0
 10
27.024563
 20
30.840646
 30
0.0
  0
SPLINE
  5
159
100
AcDbEntity
  8
0
 62
7
100
AcDbSpline
 70
8
 71
3
 72
8
 73
4
 74
0
 40
0
 40
0
 40
0
 40
0
 40
1
 40
1
 40
1
 40
1
 10
27.024563
 20
30.840646
 30
0.0
 10
27.817337
 20
32.587097
 30
0.0
 10
27.937746
 20
33.078603
 30
0.0
 10
27.507697
 20
32.812818
 30
0.0
  0
SPLINE
  5
15a
100
AcDbEntity
  8
0
 62
7
100
AcDbSpline
 70
8
 71
3
 72
8
 73
4
 74
0
 40
0
 40
0
 40
0
 40
0
 40
1
 40
1
 40
1
 40
1
 10
27.507697
 20
32.812818
 30
0.0
 10
26.406087
 20
32.131987
 30
0.0
 10
28.552333
 20
36.425706
 30
0.0
 10
30.285029
 20
38.369068
 30
0.0
  0
SPLINE
  5
15b
100
AcDbEntity
  8
0
 62
7
100
AcDbSpline
 70
8
 71
3
 72
8
 73
4
 74
0
 40
0
 40
0
 40
0
 40
0
 40
1
 40
1
 40
1
 40
1
 10
30.285029
 20
38.369068
 30
0.0
 10
31.391169
 20
39.609697
 30
0.0
 10
31.475056
 20
39.654954
 30
0.0
 10
31.633642
 20
39.096672
 30
0.0
  0
SPLINE
  5
15c
100
AcDbEntity
  8
0
 62
7
100
AcDbSpline
 70
8
 71
3
 72
8
 73
4
 74
0
 40
0
 40
0
 40
0
 40
0
 40
1
 40
1
 40
1
 40
1
 10
31.633642
 20
39.096672
 30
0.0
 10
31.726651
 20
38.769250
 30
0.0
 10
31.819604
 20
38.501360
 30
0.0
 10
31.840207
 20
38.501360
 30
0.0
  0
SPLINE
  5
15d
100
AcDbEntity
  8
0
 62
7
100
AcDbSpline
 70
8
 71
3
 72
8
 73
4
 74
0
 40
0
 40
0
 40
0
 40
0
 40
1
 40
1
 40
1
 40
1
 10
31.840207
 20
38.501360
 30
0.0
 10
31.860818
 20
38.501360
 30
0.0
 10
32.686601
 20
39.275266
 30
0.0
 10
33.675299
 20
40.221151
 30
0.0
  0
SPLINE
  5
15e
100
AcDbEntity
  8
0
 62
7
100
AcDbSpline
 70
8
 71
3
 72
8
 73
4
 74
0
 40
0
 40
0
 40
0
 40
0
 40
1
 40
1
 40
1
 40
1
 10
33.675299
 20
40.221151
 30
0.0
 10
35.590962
 20
42.053859
 30
0.0
 10
36.238947
 20
42.331719
 30
0.0
 10
36.238947
 20
41.320453
 30
0.0
  0
SPLINE
  5
15f
100
AcDbEntity
  8
0
 62
7
100
AcDbSpline
 70
8
 71
3
 72
8
 73
4
 74
0
 40
0
 40
0
 40
0
 40
0
 40
1
 40
1
 40
1
 40
1
 10
36.238947
 20
41.320453
 30
0.0
 10
36.238947
 20
40.734975
 30
0.0
 10
36.299299
 20
40.757372
 30
0.0
 10
37.308422
 20
41.717328
 30
0.0
  0
SPLINE
  5
160
100
AcDbEntity
  8
0
 62
7
100
AcDbSpline
 70
8
 71
3
 72
8
 73
4
 74
0
 40
0
 40
0
 40
0
 40
0
 40
1
 40
1
 40
1
 40
1
 10
37.308422
 20
41.717328
 30
0.0
 10
38.574768
 20
42.921973
 30
0.0
 10
38.816746
 20
42.965592
 30
0.0
 10
39.051196
 20
42.031478
 30
0.0
  0
SPLINE
  5
161
100
AcDbEntity
  8
0
 62
7
100
AcDbSpline
 70
8
 71
3
 72
8
 73
4
 74
0
 40
0
 40
0
 40
0
 40
0
 40
1
 40
1
 40
1
 40
1
 10
39.051196
 20
42.031478
 30
0.0
 10
39.213364
 20
41.385344
 30
0.0
 10
39.255287
 20
41.366009
 30
0.0
 10
39.567699
 20
41.793258
 30
0.0
  0
SPLINE
  5
162
100
AcDbEntity
  8
0
 62
7
100
AcDbSpline
 70
8
 71
3
 72
8
 73
4
 74
0
 40
0
 40
0
 40
0
 40
0
 40
1
 40
1
 40
1
 40
1
 10
39.567699
 20
41.793258
 30
0.0
 10
39.859164
 20
42.191858
 30
0.0
 10
40.037139
 20
42.215533
 30
0.0
 10
40.814223
 20
41.959072
 30
0.0
  0
SPLINE
  5
163
100
AcDbEntity
  8
0
 62
7
100
AcDbSpline
 70
8
 71
3
 72
8
 73
4
 74
0
 40
0
 40
0
 40
0
 40
0
 40
1
 40
1
 40
1
 40
1
 10
40.814223
 20
41.959072
 30
0.0
 10
41.675981
 20
41.674666
 30
0.0
 10
42.229135
 20
40.943689
 30
0.0
 10
42.730023
 20
39.427401
 30
0.0
  0
SPLINE
  5
164
100
AcDbEntity
  8
0
 62
7
100
AcDbSpline
 70
8
 71
3
 72
8
 73
4
 74
0
 40
0
 40
0
 40
0
 40
0
 40
1
 40
1
 40
1
 40
1
 10
42.730023
 20
39.427401
 30
0.0
 10
42.866146
 20
39.015329
 30
0.0
 10
43.005166
 20
39.220246
 30
0.0
 10
43.358271
 20
40.353443
 30
0.0
  0
SPLINE
  5
165
100
AcDbEntity
  8
0
 62
7
100
AcDbSpline
 70
8
 71
3
 72
8
 73
4
 74
0
 40
0
 40
0
 40
0
 40
0
 40
1
 40
1
 40
1
 40
1
 10
43.358271
 20
40.353443
 30
0.0
 10
43.722483
 20
41.522295
 30
0.0
 10
43.912679
 20
41.793848
 30
0.0
 10
44.324810
 20
41.733420
 30
0.0
  0
SPLINE
  5
166
100
AcDbEntity
  8
0
 62
7
100
AcDbSpline
 70
8
 71
3
 72
8
 73
4
 74
0
 40
0
 40
0
 40
0
 40
0
 40
1
 40
1
 40
1
 40
1
 10
44.324810
 20
41.733420
 30
0.0
 10
44.607012
 20
41.692044
 30
0.0
 10
45.195093
 20
41.618207
 30
0.0
 10
45.631656
 20
41.569336
 30
0.0
  0
SPLINE
  5
167
100
AcDbEntity
  8
0
 62
7
100
AcDbSpline
 70
8
 71
3
 72
8
 73
4
 74
0
 40
0
 40
0
 40
0
 40
0
 40
1
 40
1
 40
1
 40
1
 10
45.631656
 20
41.569336
 30
0.0
 10
46.123836
 20
41.514239
 30
0.0
 10
46.459635
 20
41.307668
 30
0.0
 10
46.515502
 20
41.025633
 30
0.0
  0
SPLINE
  5
168
100
AcDbEntity
  8
0
 62
7
100
AcDbSpline
 70
8
 71
3
 72
8
 73
4
 74
0
 40
0
 40
0
 40
0
 40
0
 40
1
 40
1
 40
1
 40
1
 10
46.515502
 20
41.025633
 30
0.0
 10
46.598062
 20
40.608824
 30
0.0
 10
46.653381
 20
40.614111
 30
0.0
 10
47.176960
 20
41.088847
 30
0.0
  0
SPLINE
  5
169
100
AcDbEntity
  8
0
 62
7
100
AcDbSpline
 70
8
 71
3
 72
8
 73
4
 74
0
 40
0
 40
0
 40
0
 40
0
 40
1
 40
1
 40
1
 40
1
 10
47.176960
 20
41.088847
 30
0.0
 10
47.491208
 20
41.373782
 30
0.0
 10
48.067418
 20
41.682249
 30
0.0
 10
48.457424
 20
41.774324
 30
0.0
  0
SPLINE
  5
16a
100
AcDbEntity
  8
0
 62
7
100
AcDbSpline
 70
8
 71
3
 72
8
 73
4
 74
0
 40
0
 40
0
 40
0
 40
0
 40
1
 40
1
 40
1
 40
1
 10
48.457424
 20
41.774324
 30
0.0
 10
48.847431
 20
41.866402
 30
0.0
 10
49.341622
 20
42.116833
 30
0.0
 10
49.555630
 20
42.330838
 30
0.0
  0
SPLINE
  5
16b
100
AcDbEntity
  8
0
 62
7
100
AcDbSpline
 70
8
 71
3
 72
8
 73
4
 74
0
 40
0
 40
0
 40
0
 40
0
 40
1
 40
1
 40
1
 40
1
 10
49.555630
 20
42.330838
 30
0.0
 10
49.896787
 20
42.671997
 30
0.0
 10
49.984263
 20
42.672307
 30
0.0
 10
50.265568
 20
42.333484
 30
0.0
  0
SPLINE
  5
16c
100
AcDbEntity
  8
0
 62
7
100
AcDbSpline
 70
8
 71
3
 72
8
 73
4
 74
0
 40
0
 40
0
 40
0
 40
0
 40
1
 40
1
 40
1
 40
1
 10
50.265568
 20
42.333484
 30
0.0
 10
50.700191
 20
41.809794
 30
0.0
 10
51.054746
 20
42.084559
 30
0.0
 10
51.059665
 20
42.948876
 30
0.0
  0
SPLINE
  5
16d
100
AcDbEntity
  8
0
 62
7
100
AcDbSpline
 70
8
 71
3
 72
8
 73
4
 74
0
 40
0
 40
0
 40
0
 40
0
 40
1
 40
1
 40
1
 40
1
 10
51.059665
 20
42.948876
 30
0.0
 10
51.062311
 20
43.398429
 30
0.0
 10
51.140590
 20
43.539820
 30
0.0
 10
51.272276
 20
43.332469
 30
0.0
  0
SPLINE
  5
16e
100
AcDbEntity
  8
0
 62
7
100
AcDbSpline
 70
8
 71
3
 72
8
 73
4
 74
0
 40
0
 40
0
 40
0
 40
0
 40
1
 40
1
 40
1
 40
1
 10
51.272276
 20
43.332469
 30
0.0
 10
51.678890
 20
42.692217
 30
0.0
 10
55.859950
 20
41.093284
 30
0.0
 10
57.511667
 20
40.946385
 30
0.0
  0
SPLINE
  5
16f
100
AcDbEntity
  8
0
 62
7
100
AcDbSpline
 70
8
 71
3
 72
8
 73
4
 74
0
 40
0
 40
0
 40
0
 40
0
 40
1
 40
1
 40
1
 40
1
 10
57.511667
 20
40.946385
 30
0.0
 10
58.762638
 20
40.835128
 30
0.0
 10
59.332262
 20
40.633407
 30
0.0
 10
60.045584
 20
40.049050
 30
0.0
  0
SPLINE
  5
170
100
AcDbEntity
  8
0
 62
7
100
AcDbSpline
 70
8
 71
3
 72
8
 73
4
 74
0
 40
0
 40
0
 40
0
 40
0
 40
1
 40
1
 40
1
 40
1
 10
60.045584
 20
40.049050
 30
0.0
 10
61.176868
 20
39.122302
 30
0.0
 10
61.374364
 20
39.110412
 30
0.0
 10
61.374364
 20
39.969048
 30
0.0
  0
SPLINE
  5
171
100
AcDbEntity
  8
0
 62
7
100
AcDbSpline
 70
8
 71
3
 72
8
 73
4
 74
0
 40
0
 40
0
 40
0
 40
0
 40
1
 40
1
 40
1
 40
1
 10
61.374364
 20
39.969048
 30
0.0
 10
61.374364
 20
40.636037
 30
0.0
 10
61.380793
 20
40.638045
 30
0.0
 10
62.010316
 20
40.167486
 30
0.0
  0
SPLINE
  5
172
100
AcDbEntity
  8
0
 62
7
100
AcDbSpline
 70
8
 71
3
 72
8
 73
4
 74
0
 40
0
 40
0
 40
0
 40
0
 40
1
 40
1
 40
1
 40
1
 10
62.010316
 20
40.167486
 30
0.0
 10
63.051089
 20
39.389513
 30
0.0
 10
64.196106
 20
37.455464
 30
0.0
 10
65.032977
 20
35.061906
 30
0.0
  0
SPLINE
  5
173
100
AcDbEntity
  8
0
 62
7
100
AcDbSpline
 70
8
 71
3
 72
8
 73
4
 74
0
 40
0
 40
0
 40
0
 40
0
 40
1
 40
1
 40
1
 40
1
 10
65.032977
 20
35.061906
 30
0.0
 10
65.761021
 20
32.979611
 30
0.0
 10
66.465974
 20
31.383370
 30
0.0
 10
67.740567
 20
28.931052
 30
0.0
  0
SPLINE
  5
174
100
AcDbEntity
  8
0
 62
7
100
AcDbSpline
 70
8
 71
3
 72
8
 73
4
 74
0
 40
0
 40
0
 40
0
 40
0
 40
1
 40
1
 40
1
 40
1
 10
67.740567
 20
28.931052
 30
0.0
 10
68.046499
 20
28.342442
 30
0.0
 10
68.137085
 20
27.923437
 30
0.0
 10
67.970416
 20
27.867883
 30
0.0
  0
SPLINE
  5
175
100
AcDbEntity
  8
0
 62
7
100
AcDbSpline
 70
8
 71
3
 72
8
 73
4
 74
0
 40
0
 40
0
 40
0
 40
0
 40
1
 40
1
 40
1
 40
1
 10
67.970416
 20
27.867883
 30
0.0
 10
67.802673
 20
27.811968
 30
0.0
 10
67.905212
 20
27.313501
 30
0.0
 10
68.233208
 20
26.590403
 30
0.0
  0
SPLINE
  5
176
100
AcDbEntity
  8
0
 62
7
100
AcDbSpline
 70
8
 71
3
 72
8
 73
4
 74
0
 40
0
 40
0
 40
0
 40
0
 40
1
 40
1
 40
1
 40
1
 10
68.233208
 20
26.590403
 30
0.0
 10
68.529036
 20
25.938218
 30
0.0
 10
68.773691
 20
24.895625
 30
0.0
 10
68.776887
 20
24.273526
 30
0.0
  0
SPLINE
  5
177
100
AcDbEntity
  8
0
 62
7
100
AcDbSpline
 70
8
 71
3
 72
8
 73
4
 74
0
 40
0
 40
0
 40
0
 40
0
 40
1
 40
1
 40
1
 40
1
 10
68.776887
 20
24.273526
 30
0.0
 10
68.783105
 20
23.064483
 30
0.0
 10
68.039565
 20
20.652415
 30
0.0
 10
67.362837
 20
19.686246
 30
0.0
  0
LWPOLYLINE
  5
178
100
AcDbEntity
  8
0
 62
7
100
AcDbPolyline
 90
3
 70
0
 10
27.387407
 20
16.512035
 30
0.0
 10
27.571427
 20
18.864376
 30
0.0
 10
26.307871
 20
18.721954
 30
0.0
  0
SPLINE
  5
179
100
AcDbEntity
  8
0
 62
7
100
AcDbSpline
 70
8
 71
3
 72
8
 73
4
 74
0
 40
0
 40
0
 40
0
 40
0
 40
1
 40
1
 40
1
 40
1
 10
66.670417
 20
19.836826
 30
0.0
 10
66.438915
 20
20.445725
 30
0.0
 10
66.470744
 20
20.634449
 30
0.0
 10
66.851951
 20
20.913193
 30
0.0
  0
SPLINE
  5
17a
100
AcDbEntity
  8
0
 62
7
100
AcDbSpline
 70
8
 71
3
 72
8
 73
4
 74
0
 40
0
 40
0
 40
0
 40
0
 40
1
 40
1
 40
1
 40
1
 10
66.851951
 20
20.913193
 30
0.0
 10
67.272850
 20
21.220962
 30
0.0
 10
67.226032
 20
21.303226
 30
0.0
 10
66.328660
 20
21.832689
 30
0.0
  0
SPLINE
  5
17b
100
AcDbEntity
  8
0
 62
7
100
AcDbSpline
 70
8
 71
3
 72
8
 73
4
 74
0
 40
0
 40
0
 40
0
 40
0
 40
1
 40
1
 40
1
 40
1
 10
66.328660
 20
21.832689
 30
0.0
 10
65.786609
 20
22.152507
 30
0.0
 10
65.343114
 20
22.540005
 30
0.0
 10
65.343114
 20
22.693794
 30
0.0
  0
SPLINE
  5
17c
100
AcDbEntity
  8
0
 62
7
100
AcDbSpline
 70
8
 71
3
 72
8
 73
4
 74
0
 40
0
 40
0
 40
0
 40
0
 40
1
 40
1
 40
1
 40
1
 10
65.343114
 20
22.693794
 30
0.0
 10
65.343114
 20
22.847586
 30
0.0
 10
65.021838
 20
23.394630
 30
0.0
 10
64.629168
 20
23.909449
 30
0.0
  0
SPLINE
  5
17d
100
AcDbEntity
  8
0
 62
7
100
AcDbSpline
 70
8
 71
3
 72
8
 73
4
 74
0
 40
0
 40
0
 40
0
 40
0
 40
1
 40
1
 40
1
 40
1
 10
64.629168
 20
23.909449
 30
0.0
 10
64.095670
 20
24.608898
 30
0.0
 10
63.933263
 20
25.095351
 30
0.0
 10
63.986603
 20
25.834105
 30
0.0
  0
SPLINE
  5
17e
100
AcDbEntity
  8
0
 62
7
100
AcDbSpline
 70
8
 71
3
 72
8
 73
4
 74
0
 40
0
 40
0
 40
0
 40
0
 40
1
 40
1
 40
1
 40
1
 10
63.986603
 20
25.834105
 30
0.0
 10
64.063605
 20
26.900590
 30
0.0
 10
63.385721
 20
29.641260
 30
0.0
 10
62.877340
 20
30.318832
 30
0.0
  0
SPLINE
  5
17f
100
AcDbEntity
  8
0
 62
7
100
AcDbSpline
 70
8
 71
3
 72
8
 73
4
 74
0
 40
0
 40
0
 40
0
 40
0
 40
1
 40
1
 40
1
 40
1
 10
62.877340
 20
30.318832
 30
0.0
 10
62.705546
 20
30.547797
 30
0.0
 10
62.009234
 20
31.059387
 30
0.0
 10
61.329980
 20
31.455699
 30
0.0
  0
SPLINE
  5
180
100
AcDbEntity
  8
0
 62
7
100
AcDbSpline
 70
8
 71
3
 72
8
 73
4
 74
0
 40
0
 40
0
 40
0
 40
0
 40
1
 40
1
 40
1
 40
1
 10
61.329980
 20
31.455699
 30
0.0
 10
60.133622
 20
32.153714
 30
0.0
 10
60.089733
 20
32.159763
 30
0.0
 10
59.927598
 20
31.648927
 30
0.0
  0
SPLINE
  5
181
100
AcDbEntity
  8
0
 62
7
100
AcDbSpline
 70
8
 71
3
 72
8
 73
4
 74
0
 40
0
 40
0
 40
0
 40
0
 40
1
 40
1
 40
1
 40
1
 10
59.927598
 20
31.648927
 30
0.0
 10
59.737490
 20
31.049942
 30
0.0
 10
58.168180
 20
30.695815
 30
0.0
 10
55.950406
 20
30.751441
 30
0.0
  0
SPLINE
  5
182
100
AcDbEntity
  8
0
 62
7
100
AcDbSpline
 70
8
 71
3
 72
8
 73
4
 74
0
 40
0
 40
0
 40
0
 40
0
 40
1
 40
1
 40
1
 40
1
 10
55.950406
 20
30.751441
 30
0.0
 10
55.222801
 20
30.769698
 30
0.0
 10
50.281708
 20
30.852491
 30
0.0
 10
44.970197
 20
30.935443
 30
0.0
  0
SPLINE
  5
183
100
AcDbEntity
  8
0
 62
7
100
AcDbSpline
 70
8
 71
3
 72
8
 73
4
 74
0
 40
0
 40
0
 40
0
 40
0
 40
1
 40
1
 40
1
 40
1
 10
44.970197
 20
30.935443
 30
0.0
 10
36.809762
 20
31.062885
 30
0.0
 10
35.097604
 20
31.024137
 30
0.0
 10
33.923843
 20
30.685444
 30
0.0
  0
SPLINE
  5
184
100
AcDbEntity
  8
0
 62
7
100
AcDbSpline
 70
8
 71
3
 72
8
 73
4
 74
0
 40
0
 40
0
 40
0
 40
0
 40
1
 40
1
 40
1
 40
1
 10
33.923843
 20
30.685444
 30
0.0
 10
32.619611
 20
30.309103
 30
0.0
 10
32.534606
 20
30.232562
 30
0.0
 10
32.531918
 20
29.432120
 30
0.0
  0
SPLINE
  5
185
100
AcDbEntity
  8
0
 62
7
100
AcDbSpline
 70
8
 71
3
 72
8
 73
4
 74
0
 40
0
 40
0
 40
0
 40
0
 40
1
 40
1
 40
1
 40
1
 10
32.531918
 20
29.432120
 30
0.0
 10
32.530330
 20
28.963242
 30
0.0
 10
32.351747
 20
27.995144
 30
0.0
 10
32.135043
 20
27.280793
 30
0.0
  0
SPLINE
  5
186
100
AcDbEntity
  8
0
 62
7
100
AcDbSpline
 70
8
 71
3
 72
8
 73
4
 74
0
 40
0
 40
0
 40
0
 40
0
 40
1
 40
1
 40
1
 40
1
 10
32.135043
 20
27.280793
 30
0.0
 10
31.594272
 20
25.498195
 30
0.0
 10
31.621365
 20
24.743156
 30
0.0
 10
32.226099
 20
24.743156
 30
0.0
  0
SPLINE
  5
187
100
AcDbEntity
  8
0
 62
7
100
AcDbSpline
 70
8
 71
3
 72
8
 73
4
 74
0
 40
0
 40
0
 40
0
 40
0
 40
1
 40
1
 40
1
 40
1
 10
32.226099
 20
24.743156
 30
0.0
 10
32.492889
 20
24.743156
 30
0.0
 10
32.780822
 20
24.673502
 30
0.0
 10
32.865954
 20
24.588372
 30
0.0
  0
SPLINE
  5
188
100
AcDbEntity
  8
0
 62
7
100
AcDbSpline
 70
8
 71
3
 72
8
 73
4
 74
0
 40
0
 40
0
 40
0
 40
0
 40
1
 40
1
 40
1
 40
1
 10
32.865954
 20
24.588372
 30
0.0
 10
33.143378
 20
24.310949
 30
0.0
 10
32.481102
 20
22.777556
 30
0.0
 10
31.732929
 20
21.965031
 30
0.0
  0
SPLINE
  5
189
100
AcDbEntity
  8
0
 62
7
100
AcDbSpline
 70
8
 71
3
 72
8
 73
4
 74
0
 40
0
 40
0
 40
0
 40
0
 40
1
 40
1
 40
1
 40
1
 10
31.732929
 20
21.965031
 30
0.0
 10
31.118657
 20
21.297794
 30
0.0
 10
29.359781
 20
18.171975
 30
0.0
 10
29.359781
 20
17.747417
 30
0.0
  0
SPLINE
  5
18a
100
AcDbEntity
  8
0
 62
7
100
AcDbSpline
 70
8
 71
3
 72
8
 73
4
 74
0
 40
0
 40
0
 40
0
 40
0
 40
1
 40
1
 40
1
 40
1
 10
29.359781
 20
17.747417
 30
0.0
 10
29.359781
 20
17.675074
 30
0.0
 10
29.568140
 20
17.694405
 30
0.0
 10
29.822801
 20
17.790374
 30
0.0
  0
SPLINE
  5
18b
100
AcDbEntity
  8
0
 62
7
100
AcDbSpline
 70
8
 71
3
 72
8
 73
4
 74
0
 40
0
 40
0
 40
0
 40
0
 40
1
 40
1
 40
1
 40
1
 10
29.822801
 20
17.790374
 30
0.0
 10
30.120749
 20
17.902656
 30
0.0
 10
29.983912
 20
17.618731
 30
0.0
 10
29.438976
 20
16.993978
 30
0.0
  0
SPLINE
  5
18c
100
AcDbEntity
  8
0
 62
7
100
AcDbSpline
 70
8
 71
3
 72
8
 73
4
 74
0
 40
0
 40
0
 40
0
 40
0
 40
1
 40
1
 40
1
 40
1
 10
29.438976
 20
16.993978
 30
0.0
 10
28.973211
 20
16.459988
 30
0.0
 10
28.513476
 20
15.603826
 30
0.0
 10
28.417343
 20
15.091391
 30
0.0
  0
SPLINE
  5
18d
100
AcDbEntity
  8
0
 62
7
100
AcDbSpline
 70
8
 71
3
 72
8
 73
4
 74
0
 40
0
 40
0
 40
0
 40
0
 40
1
 40
1
 40
1
 40
1
 10
28.417343
 20
15.091391
 30
0.0
 10
28.287853
 20
14.401146
 30
0.0
 10
28.107902
 20
14.159693
 30
0.0
 10
27.722970
 20
14.159693
 30
0.0
  0
SPLINE
  5
18e
100
AcDbEntity
  8
0
 62
7
100
AcDbSpline
 70
8
 71
3
 72
8
 73
4
 74
0
 40
0
 40
0
 40
0
 40
0
 40
1
 40
1
 40
1
 40
1
 10
27.722970
 20
14.159693
 30
0.0
 10
27.231742
 20
14.159693
 30
0.0
 10
27.213430
 20
14.288072
 30
0.0
 10
27.387407
 20
16.512035
 30
0.0
  0
LWPOLYLINE
  5
18f
100
AcDbEntity
  8
0
 62
7
100
AcDbPolyline
 90
3
 70
0
 10
67.362837
 20
19.686246
 30
0.0
 10
66.951140
 20
19.098469
 30
0.0
 10
66.670417
 20
19.836826
 30
0.0
  0
SPLINE
  5
190
100
AcDbEntity
  8
0
 62
7
100
AcDbSpline
 70
8
 71
3
 72
8
 73
4
 74
0
 40
0
 40
0
 40
0
 40
0
 40
1
 40
1
 40
1
 40
1
 10
22.595024
 20
24.015422
 30
0.0
 10
21.718549
 20
25.070448
 30
0.0
 10
20.439455
 20
26.725237
 30
0.0
 10
19.752592
 20
27.692728
 30
0.0
  0
SPLINE
  5
191
100
AcDbEntity
  8
0
 62
7
100
AcDbSpline
 70
8
 71
3
 72
8
 73
4
 74
0
 40
0
 40
0
 40
0
 40
0
 40
1
 40
1
 40
1
 40
1
 10
19.752592
 20
27.692728
 30
0.0
 10
16.980028
 20
31.598068
 30
0.0
 10
14.458906
 20
38.479013
 30
0.0
 10
13.939304
 20
43.559037
 30
0.0
  0
SPLINE
  5
192
100
AcDbEntity
  8
0
 62
7
100
AcDbSpline
 70
8
 71
3
 72
8
 73
4
 74
0
 40
0
 40
0
 40
0
 40
0
 40
1
 40
1
 40
1
 40
1
 10
13.939304
 20
43.559037
 30
0.0
 10
13.653295
 20
46.355288
 30
0.0
 10
13.648419
 20
46.369063
 30
0.0
 10
12.840797
 20
46.661888
 30
0.0
  0
SPLINE
  5
193
100
AcDbEntity
  8
0
 62
7
100
AcDbSpline
 70
8
 71
3
 72
8
 73
4
 74
0
 40
0
 40
0
 40
0
 40
0
 40
1
 40
1
 40
1
 40
1
 10
12.840797
 20
46.661888
 30
0.0
 10
10.662694
 20
47.451619
 30
0.0
 10
9.558921
 20
49.188050
 30
0.0
 10
8.738517
 20
53.115509
 30
0.0
  0
SPLINE
  5
194
100
AcDbEntity
  8
0
 62
7
100
AcDbSpline
 70
8
 71
3
 72
8
 73
4
 74
0
 40
0
 40
0
 40
0
 40
0
 40
1
 40
1
 40
1
 40
1
 10
8.738517
 20
53.115509
 30
0.0
 10
8.564199
 20
53.950007
 30
0.0
 10
8.140894
 20
55.348992
 30
0.0
 10
7.797838
 20
56.224363
 30
0.0
  0
SPLINE
  5
195
100
AcDbEntity
  8
0
 62
7
100
AcDbSpline
 70
8
 71
3
 72
8
 73
4
 74
0
 40
0
 40
0
 40
0
 40
0
 40
1
 40
1
 40
1
 40
1
 10
7.797838
 20
56.224363
 30
0.0
 10
7.454785
 20
57.099732
 30
0.0
 10
7.230699
 20
57.815943
 30
0.0
 10
7.299874
 20
57.815943
 30
0.0
  0
SPLINE
  5
196
100
AcDbEntity
  8
0
 62
7
100
AcDbSpline
 70
8
 71
3
 72
8
 73
4
 74
0
 40
0
 40
0
 40
0
 40
0
 40
1
 40
1
 40
1
 40
1
 10
7.299874
 20
57.815943
 30
0.0
 10
7.369047
 20
57.815943
 30
0.0
 10
7.773388
 20
57.636116
 30
0.0
 10
8.198410
 20
57.416330
 30
0.0
  0
SPLINE
  5
197
100
AcDbEntity
  8
0
 62
7
100
AcDbSpline
 70
8
 71
3
 72
8
 73
4
 74
0
 40
0
 40
0
 40
0
 40
0
 40
1
 40
1
 40
1
 40
1
 10
8.198410
 20
57.416330
 30
0.0
 10
9.280772
 20
56.856619
 30
0.0
 10
9.590356
 20
56.143226
 30
0.0
 10
9.388331
 20
54.674323
 30
0.0
  0
SPLINE
  5
198
100
AcDbEntity
  8
0
 62
7
100
AcDbSpline
 70
8
 71
3
 72
8
 73
4
 74
0
 40
0
 40
0
 40
0
 40
0
 40
1
 40
1
 40
1
 40
1
 10
9.388331
 20
54.674323
 30
0.0
 10
9.243770
 20
53.623250
 30
0.0
 10
9.301807
 20
53.354465
 30
0.0
 10
9.763550
 20
52.936595
 30
0.0
  0
SPLINE
  5
199
100
AcDbEntity
  8
0
 62
7
100
AcDbSpline
 70
8
 71
3
 72
8
 73
4
 74
0
 40
0
 40
0
 40
0
 40
0
 40
1
 40
1
 40
1
 40
1
 10
9.763550
 20
52.936595
 30
0.0
 10
10.066471
 20
52.662455
 30
0.0
 10
10.309782
 20
52.113918
 30
0.0
 10
10.309782
 20
51.705134
 30
0.0
  0
SPLINE
  5
19a
100
AcDbEntity
  8
0
 62
7
100
AcDbSpline
 70
8
 71
3
 72
8
 73
4
 74
0
 40
0
 40
0
 40
0
 40
0
 40
1
 40
1
 40
1
 40
1
 10
10.309782
 20
51.705134
 30
0.0
 10
10.309782
 20
50.836327
 30
0.0
 10
10.644980
 20
50.566145
 30
0.0
 10
11.466913
 20
50.772436
 30
0.0
  0
SPLINE
  5
19b
100
AcDbEntity
  8
0
 62
7
100
AcDbSpline
 70
8
 71
3
 72
8
 73
4
 74
0
 40
0
 40
0
 40
0
 40
0
 40
1
 40
1
 40
1
 40
1
 10
11.466913
 20
50.772436
 30
0.0
 10
12.664380
 20
51.072981
 30
0.0
 10
12.812682
 20
51.899214
 30
0.0
 10
12.337501
 20
55.622743
 30
0.0
  0
SPLINE
  5
19c
100
AcDbEntity
  8
0
 62
7
100
AcDbSpline
 70
8
 71
3
 72
8
 73
4
 74
0
 40
0
 40
0
 40
0
 40
0
 40
1
 40
1
 40
1
 40
1
 10
12.337501
 20
55.622743
 30
0.0
 10
12.090153
 20
57.560946
 30
0.0
 10
11.860240
 20
61.719386
 30
0.0
 10
11.799333
 20
65.356568
 30
0.0
  0
SPLINE
  5
19d
100
AcDbEntity
  8
0
 62
7
100
AcDbSpline
 70
8
 71
3
 72
8
 73
4
 74
0
 40
0
 40
0
 40
0
 40
0
 40
1
 40
1
 40
1
 40
1
 10
11.799333
 20
65.356568
 30
0.0
 10
11.684435
 20
72.217976
 30
0.0
 10
11.443633
 20
73.646625
 30
0.0
 10
10.147854
 20
75.154618
 30
0.0
  0
SPLINE
  5
19e
100
AcDbEntity
  8
0
 62
7
100
AcDbSpline
 70
8
 71
3
 72
8
 73
4
 74
0
 40
0
 40
0
 40
0
 40
0
 40
1
 40
1
 40
1
 40
1
 10
10.147854
 20
75.154618
 30
0.0
 10
9.349342
 20
76.083903
 30
0.0
 10
9.311432
 20
77.126563
 30
0.0
 10
10.068956
 20
77.324659
 30
0.0
  0
SPLINE
  5
19f
100
AcDbEntity
  8
0
 62
7
100
AcDbSpline
 70
8
 71
3
 72
8
 73
4
 74
0
 40
0
 40
0
 40
0
 40
0
 40
1
 40
1
 40
1
 40
1
 10
10.068956
 20
77.324659
 30
0.0
 10
10.510725
 20
77.440184
 30
0.0
 10
10.589536
 20
77.608073
 30
0.0
 10
10.460994
 20
78.159785
 30
0.0
  0
SPLINE
  5
1a0
100
AcDbEntity
  8
0
 62
7
100
AcDbSpline
 70
8
 71
3
 72
8
 73
4
 74
0
 40
0
 40
0
 40
0
 40
0
 40
1
 40
1
 40
1
 40
1
 10
10.460994
 20
78.159785
 30
0.0
 10
9.678838
 20
81.516842
 30
0.0
 10
9.534455
 20
83.210778
 30
0.0
 10
9.533875
 20
89.036776
 30
0.0
  0
SPLINE
  5
1a1
100
AcDbEntity
  8
0
 62
7
100
AcDbSpline
 70
8
 71
3
 72
8
 73
4
 74
0
 40
0
 40
0
 40
0
 40
0
 40
1
 40
1
 40
1
 40
1
 10
9.533875
 20
89.036776
 30
0.0
 10
9.533346
 20
93.580516
 30
0.0
 10
9.657140
 20
96.089769
 30
0.0
 10
9.993388
 20
98.357026
 30
0.0
  0
LWPOLYLINE
  5
1a2
100
AcDbEntity
  8
0
 62
7
100
AcDbPolyline
 90
1
 70
1
 10
27.387407
 20
16.512035
 30
0.0
  0
SPLINE
  5
1a3
100
AcDbEntity
  8
0
 62
7
100
AcDbSpline
 70
8
 71
3
 72
8
 73
4
 74
0
 40
0
 40
0
 40
0
 40
0
 40
1
 40
1
 40
1
 40
1
 10
11.071864
 20
98.489318
 30
0.0
 10
11.788345
 20
95.047673
 30
0.0
 10
12.193845
 20
90.024918
 30
0.0
 10
11.838616
 20
88.991842
 30
0.0
  0
SPLINE
  5
1a4
100
AcDbEntity
  8
0
 62
7
100
AcDbSpline
 70
8
 71
3
 72
8
 73
4
 74
0
 40
0
 40
0
 40
0
 40
0
 40
1
 40
1
 40
1
 40
1
 10
11.838616
 20
88.991842
 30
0.0
 10
11.705025
 20
88.603328
 30
0.0
 10
11.425448
 20
88.220111
 30
0.0
 10
11.217335
 20
88.140252
 30
0.0
  0
SPLINE
  5
1a5
100
AcDbEntity
  8
0
 62
7
100
AcDbSpline
 70
8
 71
3
 72
8
 73
4
 74
0
 40
0
 40
0
 40
0
 40
0
 40
1
 40
1
 40
1
 40
1
 10
11.217335
 20
88.140252
 30
0.0
 10
10.667528
 20
87.929270
 30
0.0
 10
10.744786
 20
87.497769
 30
0.0
 10
11.634619
 20
85.809680
 30
0.0
  0
SPLINE
  5
1a6
100
AcDbEntity
  8
0
 62
7
100
AcDbSpline
 70
8
 71
3
 72
8
 73
4
 74
0
 40
0
 40
0
 40
0
 40
0
 40
1
 40
1
 40
1
 40
1
 10
11.634619
 20
85.809680
 30
0.0
 10
12.136979
 20
84.856659
 30
0.0
 10
12.437310
 20
83.883701
 30
0.0
 10
12.451330
 20
83.163847
 30
0.0
  0
SPLINE
  5
1a7
100
AcDbEntity
  8
0
 62
7
100
AcDbSpline
 70
8
 71
3
 72
8
 73
4
 74
0
 40
0
 40
0
 40
0
 40
0
 40
1
 40
1
 40
1
 40
1
 10
12.451330
 20
83.163847
 30
0.0
 10
12.524903
 20
79.386218
 30
0.0
 10
13.476561
 20
75.317874
 30
0.0
 10
14.875689
 20
72.799699
 30
0.0
  0
SPLINE
  5
1a8
100
AcDbEntity
  8
0
 62
7
100
AcDbSpline
 70
8
 71
3
 72
8
 73
4
 74
0
 40
0
 40
0
 40
0
 40
0
 40
1
 40
1
 40
1
 40
1
 10
14.875689
 20
72.799699
 30
0.0
 10
15.434118
 20
71.794629
 30
0.0
 10
15.452221
 20
71.642825
 30
0.0
 10
15.100412
 20
70.915287
 30
0.0
  0
SPLINE
  5
1a9
100
AcDbEntity
  8
0
 62
7
100
AcDbSpline
 70
8
 71
3
 72
8
 73
4
 74
0
 40
0
 40
0
 40
0
 40
0
 40
1
 40
1
 40
1
 40
1
 10
15.100412
 20
70.915287
 30
0.0
 10
14.889966
 20
70.480079
 30
0.0
 10
14.662217
 20
69.545716
 30
0.0
 10
14.594302
 20
68.838921
 30
0.0
  0
SPLINE
  5
1aa
100
AcDbEntity
  8
0
 62
7
100
AcDbSpline
 70
8
 71
3
 72
8
 73
4
 74
0
 40
0
 40
0
 40
0
 40
0
 40
1
 40
1
 40
1
 40
1
 10
14.594302
 20
68.838921
 30
0.0
 10
14.473884
 20
67.585693
 30
0.0
 10
14.452043
 20
67.557594
 30
0.0
 10
13.713218
 20
67.705359
 30
0.0
  0
SPLINE
  5
1ab
100
AcDbEntity
  8
0
 62
7
100
AcDbSpline
 70
8
 71
3
 72
8
 73
4
 74
0
 40
0
 40
0
 40
0
 40
0
 40
1
 40
1
 40
1
 40
1
 10
13.713218
 20
67.705359
 30
0.0
 10
12.815328
 20
67.884937
 30
0.0
 10
12.824959
 20
67.987087
 30
0.0
 10
13.504266
 20
65.488860
 30
0.0
  0
SPLINE
  5
1ac
100
AcDbEntity
  8
0
 62
7
100
AcDbSpline
 70
8
 71
3
 72
8
 73
4
 74
0
 40
0
 40
0
 40
0
 40
0
 40
1
 40
1
 40
1
 40
1
 10
13.504266
 20
65.488860
 30
0.0
 10
13.849328
 20
64.219852
 30
0.0
 10
14.116816
 20
62.121441
 30
0.0
 10
14.246258
 20
59.668026
 30
0.0
  0
SPLINE
  5
1ad
100
AcDbEntity
  8
0
 62
7
100
AcDbSpline
 70
8
 71
3
 72
8
 73
4
 74
0
 40
0
 40
0
 40
0
 40
0
 40
1
 40
1
 40
1
 40
1
 10
14.246258
 20
59.668026
 30
0.0
 10
14.421301
 20
56.350265
 30
0.0
 10
14.546983
 20
55.599050
 30
0.0
 10
15.175853
 20
54.111776
 30
0.0
  0
SPLINE
  5
1ae
100
AcDbEntity
  8
0
 62
7
100
AcDbSpline
 70
8
 71
3
 72
8
 73
4
 74
0
 40
0
 40
0
 40
0
 40
0
 40
1
 40
1
 40
1
 40
1
 10
15.175853
 20
54.111776
 30
0.0
 10
15.742905
 20
52.770701
 30
0.0
 10
16.017315
 20
51.401493
 30
0.0
 10
16.421972
 20
47.894068
 30
0.0
  0
SPLINE
  5
1af
100
AcDbEntity
  8
0
 62
7
100
AcDbSpline
 70
8
 71
3
 72
8
 73
4
 74
0
 40
0
 40
0
 40
0
 40
0
 40
1
 40
1
 40
1
 40
1
 10
16.421972
 20
47.894068
 30
0.0
 10
17.035345
 20
42.577554
 30
0.0
 10
18.437012
 20
37.543166
 30
0.0
 10
20.266638
 20
34.085149
 30
0.0
  0
SPLINE
  5
1b0
100
AcDbEntity
  8
0
 62
7
100
AcDbSpline
 70
8
 71
3
 72
8
 73
4
 74
0
 40
0
 40
0
 40
0
 40
0
 40
1
 40
1
 40
1
 40
1
 10
20.266638
 20
34.085149
 30
0.0
 10
22.064569
 20
30.687031
 30
0.0
 10
24.105276
 20
25.345364
 30
0.0
 10
24.265251
 20
23.618547
 30
0.0
  0
SPLINE
  5
1b1
100
AcDbEntity
  8
0
 62
7
100
AcDbSpline
 70
8
 71
3
 72
8
 73
4
 74
0
 40
0
 40
0
 40
0
 40
0
 40
1
 40
1
 40
1
 40
1
 10
24.265251
 20
23.618547
 30
0.0
 10
24.342769
 20
22.781802
 30
0.0
 10
24.357239
 20
22.097193
 30
0.0
 10
24.297403
 20
22.097193
 30
0.0
  0
SPLINE
  5
1b2
100
AcDbEntity
  8
0
 62
7
100
AcDbSpline
 70
8
 71
3
 72
8
 73
4
 74
0
 40
0
 40
0
 40
0
 40
0
 40
1
 40
1
 40
1
 40
1
 10
24.297403
 20
22.097193
 30
0.0
 10
24.237570
 20
22.097193
 30
0.0
 10
23.471498
 20
22.960396
 30
0.0
 10
22.595024
 20
24.015422
 30
0.0
  0
LWPOLYLINE
  5
1b3
100
AcDbEntity
  8
0
 62
7
100
AcDbPolyline
 90
3
 70
0
 10
9.993388
 20
98.357026
 30
0.0
 10
10.453517
 20
101.459564
 30
0.0
 10
11.071864
 20
98.489318
 30
0.0
  0
SPLINE
  5
1b4
100
AcDbEntity
  8
0
 62
7
100
AcDbSpline
 70
8
 71
3
 72
8
 73
4
 74
0
 40
0
 40
0
 40
0
 40
0
 40
1
 40
1
 40
1
 40
1
 10
71.038630
 20
24.875318
 30
0.0
 10
71.137190
 20
25.166360
 30
0.0
 10
71.493930
 20
26.126287
 30
0.0
 10
71.831388
 20
27.008489
 30
0.0
  0
SPLINE
  5
1b5
100
AcDbEntity
  8
0
 62
7
100
AcDbSpline
 70
8
 71
3
 72
8
 73
4
 74
0
 40
0
 40
0
 40
0
 40
0
 40
1
 40
1
 40
1
 40
1
 10
71.831388
 20
27.008489
 30
0.0
 10
72.626879
 20
29.088109
 30
0.0
 10
73.282127
 20
32.288292
 30
0.0
 10
73.274888
 20
34.058434
 30
0.0
  0
SPLINE
  5
1b6
100
AcDbEntity
  8
0
 62
7
100
AcDbSpline
 70
8
 71
3
 72
8
 73
4
 74
0
 40
0
 40
0
 40
0
 40
0
 40
1
 40
1
 40
1
 40
1
 10
73.274888
 20
34.058434
 30
0.0
 10
73.271740
 20
34.828554
 30
0.0
 10
73.032152
 20
36.530214
 30
0.0
 10
72.742473
 20
37.839901
 30
0.0
  0
SPLINE
  5
1b7
100
AcDbEntity
  8
0
 62
7
100
AcDbSpline
 70
8
 71
3
 72
8
 73
4
 74
0
 40
0
 40
0
 40
0
 40
0
 40
1
 40
1
 40
1
 40
1
 10
72.742473
 20
37.839901
 30
0.0
 10
72.219619
 20
40.203819
 30
0.0
 10
72.247181
 20
41.450731
 30
0.0
 10
72.903305
 20
45.115943
 30
0.0
  0
SPLINE
  5
1b8
100
AcDbEntity
  8
0
 62
7
100
AcDbSpline
 70
8
 71
3
 72
8
 73
4
 74
0
 40
0
 40
0
 40
0
 40
0
 40
1
 40
1
 40
1
 40
1
 10
72.903305
 20
45.115943
 30
0.0
 10
72.968429
 20
45.479745
 30
0.0
 10
72.728333
 20
44.967006
 30
0.0
 10
72.369759
 20
43.976523
 30
0.0
  0
SPLINE
  5
1b9
100
AcDbEntity
  8
0
 62
7
100
AcDbSpline
 70
8
 71
3
 72
8
 73
4
 74
0
 40
0
 40
0
 40
0
 40
0
 40
1
 40
1
 40
1
 40
1
 10
72.369759
 20
43.976523
 30
0.0
 10
71.709695
 20
42.153247
 30
0.0
 10
70.738532
 20
40.353443
 30
0.0
 10
70.414764
 20
40.353443
 30
0.0
  0
SPLINE
  5
1ba
100
AcDbEntity
  8
0
 62
7
100
AcDbSpline
 70
8
 71
3
 72
8
 73
4
 74
0
 40
0
 40
0
 40
0
 40
0
 40
1
 40
1
 40
1
 40
1
 10
70.414764
 20
40.353443
 30
0.0
 10
70.317492
 20
40.353443
 30
0.0
 10
70.237906
 20
37.942427
 30
0.0
 10
70.237906
 20
34.995631
 30
0.0
  0
SPLINE
  5
1bb
100
AcDbEntity
  8
0
 62
7
100
AcDbSpline
 70
8
 71
3
 72
8
 73
4
 74
0
 40
0
 40
0
 40
0
 40
0
 40
1
 40
1
 40
1
 40
1
 10
70.237906
 20
34.995631
 30
0.0
 10
70.237906
 20
30.448070
 30
0.0
 10
70.160317
 20
29.383673
 30
0.0
 10
69.724852
 20
27.957283
 30
0.0
  0
SPLINE
  5
1bc
100
AcDbEntity
  8
0
 62
7
100
AcDbSpline
 70
8
 71
3
 72
8
 73
4
 74
0
 40
0
 40
0
 40
0
 40
0
 40
1
 40
1
 40
1
 40
1
 10
69.724852
 20
27.957283
 30
0.0
 10
69.267091
 20
26.457857
 30
0.0
 10
69.174421
 20
26.327862
 30
0.0
 10
68.864975
 20
26.751052
 30
0.0
  0
SPLINE
  5
1bd
100
AcDbEntity
  8
0
 62
7
100
AcDbSpline
 70
8
 71
3
 72
8
 73
4
 74
0
 40
0
 40
0
 40
0
 40
0
 40
1
 40
1
 40
1
 40
1
 10
68.864975
 20
26.751052
 30
0.0
 10
68.662084
 20
27.028526
 30
0.0
 10
68.621304
 20
27.289112
 30
0.0
 10
68.766709
 20
27.378980
 30
0.0
  0
SPLINE
  5
1be
100
AcDbEntity
  8
0
 62
7
100
AcDbSpline
 70
8
 71
3
 72
8
 73
4
 74
0
 40
0
 40
0
 40
0
 40
0
 40
1
 40
1
 40
1
 40
1
 10
68.766709
 20
27.378980
 30
0.0
 10
68.904355
 20
27.464049
 30
0.0
 10
68.666781
 20
28.238424
 30
0.0
 10
68.234303
 20
29.114374
 30
0.0
  0
SPLINE
  5
1bf
100
AcDbEntity
  8
0
 62
7
100
AcDbSpline
 70
8
 71
3
 72
8
 73
4
 74
0
 40
0
 40
0
 40
0
 40
0
 40
1
 40
1
 40
1
 40
1
 10
68.234303
 20
29.114374
 30
0.0
 10
67.658596
 20
30.280417
 30
0.0
 10
67.492398
 20
30.923722
 30
0.0
 10
67.601957
 20
31.562008
 30
0.0
  0
SPLINE
  5
1c0
100
AcDbEntity
  8
0
 62
7
100
AcDbSpline
 70
8
 71
3
 72
8
 73
4
 74
0
 40
0
 40
0
 40
0
 40
0
 40
1
 40
1
 40
1
 40
1
 10
67.601957
 20
31.562008
 30
0.0
 10
67.683700
 20
32.038229
 30
0.0
 10
67.609154
 20
34.130414
 30
0.0
 10
67.436328
 20
36.211306
 30
0.0
  0
SPLINE
  5
1c1
100
AcDbEntity
  8
0
 62
7
100
AcDbSpline
 70
8
 71
3
 72
8
 73
4
 74
0
 40
0
 40
0
 40
0
 40
0
 40
1
 40
1
 40
1
 40
1
 10
67.436328
 20
36.211306
 30
0.0
 10
66.867966
 20
43.054169
 30
0.0
 10
67.457839
 20
44.638677
 30
0.0
 10
73.804812
 20
53.318026
 30
0.0
  0
SPLINE
  5
1c2
100
AcDbEntity
  8
0
 62
7
100
AcDbSpline
 70
8
 71
3
 72
8
 73
4
 74
0
 40
0
 40
0
 40
0
 40
0
 40
1
 40
1
 40
1
 40
1
 10
73.804812
 20
53.318026
 30
0.0
 10
76.972800
 20
57.650187
 30
0.0
 10
79.101447
 20
62.276416
 30
0.0
 10
79.101447
 20
64.829304
 30
0.0
  0
SPLINE
  5
1c3
100
AcDbEntity
  8
0
 62
7
100
AcDbSpline
 70
8
 71
3
 72
8
 73
4
 74
0
 40
0
 40
0
 40
0
 40
0
 40
1
 40
1
 40
1
 40
1
 10
79.101447
 20
64.829304
 30
0.0
 10
79.101447
 20
65.668414
 30
0.0
 10
78.940287
 20
66.076346
 30
0.0
 10
78.414851
 20
66.567219
 30
0.0
  0
SPLINE
  5
1c4
100
AcDbEntity
  8
0
 62
7
100
AcDbSpline
 70
8
 71
3
 72
8
 73
4
 74
0
 40
0
 40
0
 40
0
 40
0
 40
1
 40
1
 40
1
 40
1
 10
78.414851
 20
66.567219
 30
0.0
 10
77.497009
 20
67.424684
 30
0.0
 10
77.106640
 20
68.233332
 30
0.0
 10
76.731249
 20
70.054782
 30
0.0
  0
SPLINE
  5
1c5
100
AcDbEntity
  8
0
 62
7
100
AcDbSpline
 70
8
 71
3
 72
8
 73
4
 74
0
 40
0
 40
0
 40
0
 40
0
 40
1
 40
1
 40
1
 40
1
 10
76.731249
 20
70.054782
 30
0.0
 10
76.549777
 20
70.935323
 30
0.0
 10
76.037107
 20
72.143001
 30
0.0
 10
75.516163
 20
72.917119
 30
0.0
  0
SPLINE
  5
1c6
100
AcDbEntity
  8
0
 62
7
100
AcDbSpline
 70
8
 71
3
 72
8
 73
4
 74
0
 40
0
 40
0
 40
0
 40
0
 40
1
 40
1
 40
1
 40
1
 10
75.516163
 20
72.917119
 30
0.0
 10
74.656392
 20
74.194734
 30
0.0
 10
74.634378
 20
74.285808
 30
0.0
 10
75.036878
 20
74.900099
 30
0.0
  0
SPLINE
  5
1c7
100
AcDbEntity
  8
0
 62
7
100
AcDbSpline
 70
8
 71
3
 72
8
 73
4
 74
0
 40
0
 40
0
 40
0
 40
0
 40
1
 40
1
 40
1
 40
1
 10
75.036878
 20
74.900099
 30
0.0
 10
75.268910
 20
75.254223
 30
0.0
 10
75.396537
 20
75.781876
 30
0.0
 10
75.320496
 20
76.072661
 30
0.0
  0
SPLINE
  5
1c8
100
AcDbEntity
  8
0
 62
7
100
AcDbSpline
 70
8
 71
3
 72
8
 73
4
 74
0
 40
0
 40
0
 40
0
 40
0
 40
1
 40
1
 40
1
 40
1
 10
75.320496
 20
76.072661
 30
0.0
 10
75.199565
 20
76.535103
 30
0.0
 10
75.312797
 20
76.601360
 30
0.0
 10
76.224104
 20
76.601360
 30
0.0
  0
SPLINE
  5
1c9
100
AcDbEntity
  8
0
 62
7
100
AcDbSpline
 70
8
 71
3
 72
8
 73
4
 74
0
 40
0
 40
0
 40
0
 40
0
 40
1
 40
1
 40
1
 40
1
 10
76.224104
 20
76.601360
 30
0.0
 10
77.596524
 20
76.601360
 30
0.0
 10
77.708257
 20
76.983982
 30
0.0
 10
76.982394
 20
79.198073
 30
0.0
  0
LWPOLYLINE
  5
1ca
100
AcDbEntity
  8
0
 62
7
100
AcDbPolyline
 90
1
 70
1
 10
22.595024
 20
24.015422
 30
0.0
  0
SPLINE
  5
1cb
100
AcDbEntity
  8
0
 62
7
100
AcDbSpline
 70
8
 71
3
 72
8
 73
4
 74
0
 40
0
 40
0
 40
0
 40
0
 40
1
 40
1
 40
1
 40
1
 10
77.006402
 20
82.172590
 30
0.0
 10
77.516286
 20
83.149279
 30
0.0
 10
77.635309
 20
83.840767
 30
0.0
 10
77.709720
 20
86.258651
 30
0.0
  0
SPLINE
  5
1cc
100
AcDbEntity
  8
0
 62
7
100
AcDbSpline
 70
8
 71
3
 72
8
 73
4
 74
0
 40
0
 40
0
 40
0
 40
0
 40
1
 40
1
 40
1
 40
1
 10
77.709720
 20
86.258651
 30
0.0
 10
77.824412
 20
89.985376
 30
0.0
 10
77.870889
 20
90.169828
 30
0.0
 10
78.972931
 20
91.271871
 30
0.0
  0
SPLINE
  5
1cd
100
AcDbEntity
  8
0
 62
7
100
AcDbSpline
 70
8
 71
3
 72
8
 73
4
 74
0
 40
0
 40
0
 40
0
 40
0
 40
1
 40
1
 40
1
 40
1
 10
78.972931
 20
91.271871
 30
0.0
 10
80.124199
 20
92.423141
 30
0.0
 10
80.171192
 20
93.439208
 30
0.0
 10
79.230453
 20
96.840125
 30
0.0
  0
SPLINE
  5
1ce
100
AcDbEntity
  8
0
 62
7
100
AcDbSpline
 70
8
 71
3
 72
8
 73
4
 74
0
 40
0
 40
0
 40
0
 40
0
 40
1
 40
1
 40
1
 40
1
 10
79.230453
 20
96.840125
 30
0.0
 10
78.827879
 20
98.295486
 30
0.0
 10
78.572281
 20
99.916342
 30
0.0
 10
78.572281
 20
101.013861
 30
0.0
  0
SPLINE
  5
1cf
100
AcDbEntity
  8
0
 62
7
100
AcDbSpline
 70
8
 71
3
 72
8
 73
4
 74
0
 40
0
 40
0
 40
0
 40
0
 40
1
 40
1
 40
1
 40
1
 10
78.572281
 20
101.013861
 30
0.0
 10
78.572281
 20
102.724635
 30
0.0
 10
78.605917
 20
102.820997
 30
0.0
 10
79.294501
 20
103.082794
 30
0.0
  0
SPLINE
  5
1d0
100
AcDbEntity
  8
0
 62
7
100
AcDbSpline
 70
8
 71
3
 72
8
 73
4
 74
0
 40
0
 40
0
 40
0
 40
0
 40
1
 40
1
 40
1
 40
1
 10
79.294501
 20
103.082794
 30
0.0
 10
79.691719
 20
103.233818
 30
0.0
 10
80.106615
 20
103.498761
 30
0.0
 10
80.216491
 20
103.671558
 30
0.0
  0
SPLINE
  5
1d1
100
AcDbEntity
  8
0
 62
7
100
AcDbSpline
 70
8
 71
3
 72
8
 73
4
 74
0
 40
0
 40
0
 40
0
 40
0
 40
1
 40
1
 40
1
 40
1
 10
80.216491
 20
103.671558
 30
0.0
 10
80.651472
 20
104.355649
 30
0.0
 10
80.418276
 20
107.032539
 30
0.0
 10
79.774762
 20
108.742195
 30
0.0
  0
SPLINE
  5
1d2
100
AcDbEntity
  8
0
 62
7
100
AcDbSpline
 70
8
 71
3
 72
8
 73
4
 74
0
 40
0
 40
0
 40
0
 40
0
 40
1
 40
1
 40
1
 40
1
 10
79.774762
 20
108.742195
 30
0.0
 10
79.417481
 20
109.691402
 30
0.0
 10
79.185611
 20
110.468026
 30
0.0
 10
79.259496
 20
110.468026
 30
0.0
  0
SPLINE
  5
1d3
100
AcDbEntity
  8
0
 62
7
100
AcDbSpline
 70
8
 71
3
 72
8
 73
4
 74
0
 40
0
 40
0
 40
0
 40
0
 40
1
 40
1
 40
1
 40
1
 10
79.259496
 20
110.468026
 30
0.0
 10
79.333381
 20
110.468026
 30
0.0
 10
79.737606
 20
109.723885
 30
0.0
 10
80.157775
 20
108.814382
 30
0.0
  0
SPLINE
  5
1d4
100
AcDbEntity
  8
0
 62
7
100
AcDbSpline
 70
8
 71
3
 72
8
 73
4
 74
0
 40
0
 40
0
 40
0
 40
0
 40
1
 40
1
 40
1
 40
1
 10
80.157775
 20
108.814382
 30
0.0
 10
81.404627
 20
106.115416
 30
0.0
 10
82.045199
 20
102.153479
 30
0.0
 10
82.542658
 20
94.063860
 30
0.0
  0
SPLINE
  5
1d5
100
AcDbEntity
  8
0
 62
7
100
AcDbSpline
 70
8
 71
3
 72
8
 73
4
 74
0
 40
0
 40
0
 40
0
 40
0
 40
1
 40
1
 40
1
 40
1
 10
82.542658
 20
94.063860
 30
0.0
 10
83.151305
 20
84.166136
 30
0.0
 10
83.157094
 20
82.739365
 30
0.0
 10
82.600922
 20
79.710214
 30
0.0
  0
SPLINE
  5
1d6
100
AcDbEntity
  8
0
 62
7
100
AcDbSpline
 70
8
 71
3
 72
8
 73
4
 74
0
 40
0
 40
0
 40
0
 40
0
 40
1
 40
1
 40
1
 40
1
 10
82.600922
 20
79.710214
 30
0.0
 10
82.313698
 20
78.145865
 30
0.0
 10
82.134575
 20
76.865943
 30
0.0
 10
82.202872
 20
76.865943
 30
0.0
  0
SPLINE
  5
1d7
100
AcDbEntity
  8
0
 62
7
100
AcDbSpline
 70
8
 71
3
 72
8
 73
4
 74
0
 40
0
 40
0
 40
0
 40
0
 40
1
 40
1
 40
1
 40
1
 10
82.202872
 20
76.865943
 30
0.0
 10
82.271172
 20
76.865943
 30
0.0
 10
82.643088
 20
77.083145
 30
0.0
 10
83.029354
 20
77.348614
 30
0.0
  0
SPLINE
  5
1d8
100
AcDbEntity
  8
0
 62
7
100
AcDbSpline
 70
8
 71
3
 72
8
 73
4
 74
0
 40
0
 40
0
 40
0
 40
0
 40
1
 40
1
 40
1
 40
1
 10
83.029354
 20
77.348614
 30
0.0
 10
83.415619
 20
77.614087
 30
0.0
 10
84.176333
 20
78.098930
 30
0.0
 10
84.719829
 20
78.426048
 30
0.0
  0
LWPOLYLINE
  5
1d9
100
AcDbEntity
  8
0
 62
7
100
AcDbPolyline
 90
3
 70
0
 10
76.982394
 20
79.198073
 30
0.0
 10
76.392654
 20
80.996946
 30
0.0
 10
77.006402
 20
82.172590
 30
0.0
  0
SPLINE
  5
1da
100
AcDbEntity
  8
0
 62
7
100
AcDbSpline
 70
8
 71
3
 72
8
 73
4
 74
0
 40
0
 40
0
 40
0
 40
0
 40
1
 40
1
 40
1
 40
1
 10
84.501596
 20
76.818895
 30
0.0
 10
83.838074
 20
75.607844
 30
0.0
 10
82.807244
 20
73.604953
 30
0.0
 10
82.210865
 20
72.368026
 30
0.0
  0
LWPOLYLINE
  5
1db
100
AcDbEntity
  8
0
 62
7
100
AcDbPolyline
 90
3
 70
0
 10
84.719829
 20
78.426048
 30
0.0
 10
85.708001
 20
79.020805
 30
0.0
 10
84.501596
 20
76.818895
 30
0.0
  0
SPLINE
  5
1dc
100
AcDbEntity
  8
0
 62
7
100
AcDbSpline
 70
8
 71
3
 72
8
 73
4
 74
0
 40
0
 40
0
 40
0
 40
0
 40
1
 40
1
 40
1
 40
1
 10
81.169917
 20
64.827401
 30
0.0
 10
81.193783
 20
61.916985
 30
0.0
 10
81.092543
 20
58.249899
 30
0.0
 10
80.944945
 20
56.678325
 30
0.0
  0
SPLINE
  5
1dd
100
AcDbEntity
  8
0
 62
7
100
AcDbSpline
 70
8
 71
3
 72
8
 73
4
 74
0
 40
0
 40
0
 40
0
 40
0
 40
1
 40
1
 40
1
 40
1
 10
80.944945
 20
56.678325
 30
0.0
 10
80.710815
 20
54.185336
 30
0.0
 10
80.733170
 20
53.701683
 30
0.0
 10
81.120218
 20
52.886036
 30
0.0
  0
SPLINE
  5
1de
100
AcDbEntity
  8
0
 62
7
100
AcDbSpline
 70
8
 71
3
 72
8
 73
4
 74
0
 40
0
 40
0
 40
0
 40
0
 40
1
 40
1
 40
1
 40
1
 10
81.120218
 20
52.886036
 30
0.0
 10
81.640061
 20
51.790547
 30
0.0
 10
82.511273
 20
51.367132
 30
0.0
 10
83.484297
 20
51.737075
 30
0.0
  0
SPLINE
  5
1df
100
AcDbEntity
  8
0
 62
7
100
AcDbSpline
 70
8
 71
3
 72
8
 73
4
 74
0
 40
0
 40
0
 40
0
 40
0
 40
1
 40
1
 40
1
 40
1
 10
83.484297
 20
51.737075
 30
0.0
 10
83.857571
 20
51.878995
 30
0.0
 10
84.278481
 20
51.995110
 30
0.0
 10
84.419646
 20
51.995110
 30
0.0
  0
SPLINE
  5
1e0
100
AcDbEntity
  8
0
 62
7
100
AcDbSpline
 70
8
 71
3
 72
8
 73
4
 74
0
 40
0
 40
0
 40
0
 40
0
 40
1
 40
1
 40
1
 40
1
 10
84.419646
 20
51.995110
 30
0.0
 10
84.837098
 20
51.995110
 30
0.0
 10
84.157039
 20
50.898295
 30
0.0
 10
82.984208
 20
49.680006
 30
0.0
  0
SPLINE
  5
1e1
100
AcDbEntity
  8
0
 62
7
100
AcDbSpline
 70
8
 71
3
 72
8
 73
4
 74
0
 40
0
 40
0
 40
0
 40
0
 40
1
 40
1
 40
1
 40
1
 10
82.984208
 20
49.680006
 30
0.0
 10
81.897450
 20
48.551126
 30
0.0
 10
80.919807
 20
48.237132
 30
0.0
 10
80.512814
 20
48.886256
 30
0.0
  0
SPLINE
  5
1e2
100
AcDbEntity
  8
0
 62
7
100
AcDbSpline
 70
8
 71
3
 72
8
 73
4
 74
0
 40
0
 40
0
 40
0
 40
0
 40
1
 40
1
 40
1
 40
1
 10
80.512814
 20
48.886256
 30
0.0
 10
80.243635
 20
49.315576
 30
0.0
 10
79.930575
 20
47.590930
 30
0.0
 10
79.910445
 20
45.567809
 30
0.0
  0
SPLINE
  5
1e3
100
AcDbEntity
  8
0
 62
7
100
AcDbSpline
 70
8
 71
3
 72
8
 73
4
 74
0
 40
0
 40
0
 40
0
 40
0
 40
1
 40
1
 40
1
 40
1
 10
79.910445
 20
45.567809
 30
0.0
 10
79.858224
 20
40.319415
 30
0.0
 10
75.627540
 20
29.397219
 30
0.0
 10
72.268461
 20
25.838798
 30
0.0
  0
SPLINE
  5
1e4
100
AcDbEntity
  8
0
 62
7
100
AcDbSpline
 70
8
 71
3
 72
8
 73
4
 74
0
 40
0
 40
0
 40
0
 40
0
 40
1
 40
1
 40
1
 40
1
 10
72.268461
 20
25.838798
 30
0.0
 10
71.493496
 20
25.017841
 30
0.0
 10
70.940073
 20
24.584276
 30
0.0
 10
71.038630
 20
24.875318
 30
0.0
  0
LWPOLYLINE
  5
1e5
100
AcDbEntity
  8
0
 62
7
100
AcDbPolyline
 90
3
 70
0
 10
82.210865
 20
72.368026
 30
0.0
 10
81.126536
 20
70.119068
 30
0.0
 10
81.169917
 20
64.827401
 30
0.0
  0
SPLINE
  5
1e6
100
AcDbEntity
  8
0
 62
7
100
AcDbSpline
 70
8
 71
3
 72
8
 73
4
 74
0
 40
0
 40
0
 40
0
 40
0
 40
1
 40
1
 40
1
 40
1
 10
25.119900
 20
25.421709
 30
0.0
 10
24.977980
 20
25.794983
 30
0.0
 10
24.861865
 20
26.323015
 30
0.0
 10
24.861865
 20
26.595110
 30
0.0
  0
SPLINE
  5
1e7
100
AcDbEntity
  8
0
 62
7
100
AcDbSpline
 70
8
 71
3
 72
8
 73
4
 74
0
 40
0
 40
0
 40
0
 40
0
 40
1
 40
1
 40
1
 40
1
 10
24.861865
 20
26.595110
 30
0.0
 10
24.861865
 20
26.867205
 30
0.0
 10
24.733402
 20
27.425002
 30
0.0
 10
24.576396
 20
27.834656
 30
0.0
  0
SPLINE
  5
1e8
100
AcDbEntity
  8
0
 62
7
100
AcDbSpline
 70
8
 71
3
 72
8
 73
4
 74
0
 40
0
 40
0
 40
0
 40
0
 40
1
 40
1
 40
1
 40
1
 10
24.576396
 20
27.834656
 30
0.0
 10
24.419387
 20
28.244313
 30
0.0
 10
24.181600
 20
29.627383
 30
0.0
 10
24.047986
 20
30.908149
 30
0.0
  0
SPLINE
  5
1e9
100
AcDbEntity
  8
0
 62
7
100
AcDbSpline
 70
8
 71
3
 72
8
 73
4
 74
0
 40
0
 40
0
 40
0
 40
0
 40
1
 40
1
 40
1
 40
1
 10
24.047986
 20
30.908149
 30
0.0
 10
23.914369
 20
32.188915
 30
0.0
 10
23.387985
 20
34.685465
 30
0.0
 10
22.878247
 20
36.456041
 30
0.0
  0
SPLINE
  5
1ea
100
AcDbEntity
  8
0
 62
7
100
AcDbSpline
 70
8
 71
3
 72
8
 73
4
 74
0
 40
0
 40
0
 40
0
 40
0
 40
1
 40
1
 40
1
 40
1
 10
22.878247
 20
36.456041
 30
0.0
 10
22.089196
 20
39.196796
 30
0.0
 10
21.952645
 20
40.069757
 30
0.0
 10
21.959495
 20
42.329460
 30
0.0
  0
SPLINE
  5
1eb
100
AcDbEntity
  8
0
 62
7
100
AcDbSpline
 70
8
 71
3
 72
8
 73
4
 74
0
 40
0
 40
0
 40
0
 40
0
 40
1
 40
1
 40
1
 40
1
 10
21.959495
 20
42.329460
 30
0.0
 10
21.964284
 20
43.911435
 30
0.0
 10
22.057663
 20
44.823324
 30
0.0
 10
22.190632
 20
44.586776
 30
0.0
  0
SPLINE
  5
1ec
100
AcDbEntity
  8
0
 62
7
100
AcDbSpline
 70
8
 71
3
 72
8
 73
4
 74
0
 40
0
 40
0
 40
0
 40
0
 40
1
 40
1
 40
1
 40
1
 10
22.190632
 20
44.586776
 30
0.0
 10
22.313332
 20
44.368495
 30
0.0
 10
22.859615
 20
42.642089
 30
0.0
 10
23.404591
 20
40.750318
 30
0.0
  0
SPLINE
  5
1ed
100
AcDbEntity
  8
0
 62
7
100
AcDbSpline
 70
8
 71
3
 72
8
 73
4
 74
0
 40
0
 40
0
 40
0
 40
0
 40
1
 40
1
 40
1
 40
1
 10
23.404591
 20
40.750318
 30
0.0
 10
23.949566
 20
38.858547
 30
0.0
 10
24.454005
 20
37.211545
 30
0.0
 10
24.525569
 20
37.090316
 30
0.0
  0
SPLINE
  5
1ee
100
AcDbEntity
  8
0
 62
7
100
AcDbSpline
 70
8
 71
3
 72
8
 73
4
 74
0
 40
0
 40
0
 40
0
 40
0
 40
1
 40
1
 40
1
 40
1
 10
24.525569
 20
37.090316
 30
0.0
 10
24.597131
 20
36.969084
 30
0.0
 10
24.878918
 20
37.236974
 30
0.0
 10
25.151759
 20
37.685628
 30
0.0
  0
SPLINE
  5
1ef
100
AcDbEntity
  8
0
 62
7
100
AcDbSpline
 70
8
 71
3
 72
8
 73
4
 74
0
 40
0
 40
0
 40
0
 40
0
 40
1
 40
1
 40
1
 40
1
 10
25.151759
 20
37.685628
 30
0.0
 10
25.424602
 20
38.134279
 30
0.0
 10
25.711903
 20
38.501360
 30
0.0
 10
25.790209
 20
38.501360
 30
0.0
  0
SPLINE
  5
1f0
100
AcDbEntity
  8
0
 62
7
100
AcDbSpline
 70
8
 71
3
 72
8
 73
4
 74
0
 40
0
 40
0
 40
0
 40
0
 40
1
 40
1
 40
1
 40
1
 10
25.790209
 20
38.501360
 30
0.0
 10
25.868512
 20
38.501360
 30
0.0
 10
25.860075
 20
37.578625
 30
0.0
 10
25.771450
 20
36.450839
 30
0.0
  0
SPLINE
  5
1f1
100
AcDbEntity
  8
0
 62
7
100
AcDbSpline
 70
8
 71
3
 72
8
 73
4
 74
0
 40
0
 40
0
 40
0
 40
0
 40
1
 40
1
 40
1
 40
1
 10
25.771450
 20
36.450839
 30
0.0
 10
25.650742
 20
34.914650
 30
0.0
 10
25.715554
 20
34.109922
 30
0.0
 10
26.029842
 20
33.242573
 30
0.0
  0
SPLINE
  5
1f2
100
AcDbEntity
  8
0
 62
7
100
AcDbSpline
 70
8
 71
3
 72
8
 73
4
 74
0
 40
0
 40
0
 40
0
 40
0
 40
1
 40
1
 40
1
 40
1
 10
26.029842
 20
33.242573
 30
0.0
 10
26.590032
 20
31.696594
 30
0.0
 10
26.558706
 20
30.892343
 30
0.0
 10
25.889674
 20
29.644070
 30
0.0
  0
SPLINE
  5
1f3
100
AcDbEntity
  8
0
 62
7
100
AcDbSpline
 70
8
 71
3
 72
8
 73
4
 74
0
 40
0
 40
0
 40
0
 40
0
 40
1
 40
1
 40
1
 40
1
 10
25.889674
 20
29.644070
 30
0.0
 10
25.523493
 20
28.960855
 30
0.0
 10
25.432587
 20
28.565628
 30
0.0
 10
25.626739
 20
28.500911
 30
0.0
  0
SPLINE
  5
1f4
100
AcDbEntity
  8
0
 62
7
100
AcDbSpline
 70
8
 71
3
 72
8
 73
4
 74
0
 40
0
 40
0
 40
0
 40
0
 40
1
 40
1
 40
1
 40
1
 10
25.626739
 20
28.500911
 30
0.0
 10
25.789950
 20
28.446508
 30
0.0
 10
25.852963
 20
28.287887
 30
0.0
 10
25.766769
 20
28.148420
 30
0.0
  0
SPLINE
  5
1f5
100
AcDbEntity
  8
0
 62
7
100
AcDbSpline
 70
8
 71
3
 72
8
 73
4
 74
0
 40
0
 40
0
 40
0
 40
0
 40
1
 40
1
 40
1
 40
1
 10
25.766769
 20
28.148420
 30
0.0
 10
25.680573
 20
28.008956
 30
0.0
 10
25.730860
 20
27.749278
 30
0.0
 10
25.878516
 20
27.571364
 30
0.0
  0
SPLINE
  5
1f6
100
AcDbEntity
  8
0
 62
7
100
AcDbSpline
 70
8
 71
3
 72
8
 73
4
 74
0
 40
0
 40
0
 40
0
 40
0
 40
1
 40
1
 40
1
 40
1
 10
25.878516
 20
27.571364
 30
0.0
 10
26.132598
 20
27.265215
 30
0.0
 10
25.790897
 20
24.743026
 30
0.0
 10
25.495339
 20
24.743026
 30
0.0
  0
SPLINE
  5
1f7
100
AcDbEntity
  8
0
 62
7
100
AcDbSpline
 70
8
 71
3
 72
8
 73
4
 74
0
 40
0
 40
0
 40
0
 40
0
 40
1
 40
1
 40
1
 40
1
 10
25.495339
 20
24.743026
 30
0.0
 10
25.430762
 20
24.743026
 30
0.0
 10
25.261809
 20
25.048432
 30
0.0
 10
25.119892
 20
25.421709
 30
0.0
  0
LWPOLYLINE
  5
1f8
100
AcDbEntity
  8
0
 62
7
100
AcDbPolyline
 90
1
 70
1
 10
71.038630
 20
24.875318
 30
0.0
  0
SPLINE
  5
1f9
100
AcDbEntity
  8
0
 62
7
100
AcDbSpline
 70
8
 71
3
 72
8
 73
4
 74
0
 40
0
 40
0
 40
0
 40
0
 40
1
 40
1
 40
1
 40
1
 10
27.772281
 20
41.251902
 30
0.0
 10
27.772281
 20
41.309494
 30
0.0
 10
28.340635
 20
41.721326
 30
0.0
 10
29.035290
 20
42.167085
 30
0.0
  0
SPLINE
  5
1fa
100
AcDbEntity
  8
0
 62
7
100
AcDbSpline
 70
8
 71
3
 72
8
 73
4
 74
0
 40
0
 40
0
 40
0
 40
0
 40
1
 40
1
 40
1
 40
1
 10
29.035290
 20
42.167085
 30
0.0
 10
30.966884
 20
43.406584
 30
0.0
 10
31.602534
 20
44.217209
 30
0.0
 10
33.024135
 20
47.253930
 30
0.0
  0
SPLINE
  5
1fb
100
AcDbEntity
  8
0
 62
7
100
AcDbSpline
 70
8
 71
3
 72
8
 73
4
 74
0
 40
0
 40
0
 40
0
 40
0
 40
1
 40
1
 40
1
 40
1
 10
33.024135
 20
47.253930
 30
0.0
 10
33.744755
 20
48.793262
 30
0.0
 10
34.533266
 20
50.251630
 30
0.0
 10
34.776381
 20
50.494748
 30
0.0
  0
SPLINE
  5
1fc
100
AcDbEntity
  8
0
 62
7
100
AcDbSpline
 70
8
 71
3
 72
8
 73
4
 74
0
 40
0
 40
0
 40
0
 40
0
 40
1
 40
1
 40
1
 40
1
 10
34.776381
 20
50.494748
 30
0.0
 10
35.517807
 20
51.236171
 30
0.0
 10
35.784409
 20
50.988076
 30
0.0
 10
35.225418
 20
50.076881
 30
0.0
  0
SPLINE
  5
1fd
100
AcDbEntity
  8
0
 62
7
100
AcDbSpline
 70
8
 71
3
 72
8
 73
4
 74
0
 40
0
 40
0
 40
0
 40
0
 40
1
 40
1
 40
1
 40
1
 10
35.225418
 20
50.076881
 30
0.0
 10
34.935284
 20
49.603938
 30
0.0
 10
34.614789
 20
48.654049
 30
0.0
 10
34.513210
 20
47.966016
 30
0.0
  0
SPLINE
  5
1fe
100
AcDbEntity
  8
0
 62
7
100
AcDbSpline
 70
8
 71
3
 72
8
 73
4
 74
0
 40
0
 40
0
 40
0
 40
0
 40
1
 40
1
 40
1
 40
1
 10
34.513210
 20
47.966016
 30
0.0
 10
34.309256
 20
46.584555
 30
0.0
 10
33.193755
 20
44.624284
 30
0.0
 10
32.230240
 20
43.954139
 30
0.0
  0
SPLINE
  5
1ff
100
AcDbEntity
  8
0
 62
7
100
AcDbSpline
 70
8
 71
3
 72
8
 73
4
 74
0
 40
0
 40
0
 40
0
 40
0
 40
1
 40
1
 40
1
 40
1
 10
32.230240
 20
43.954139
 30
0.0
 10
31.033617
 20
43.121866
 30
0.0
 10
27.965884
 20
41.147193
 30
0.0
 10
27.869536
 20
41.147193
 30
0.0
  0
SPLINE
  5
200
100
AcDbEntity
  8
0
 62
7
100
AcDbSpline
 70
8
 71
3
 72
8
 73
4
 74
0
 40
0
 40
0
 40
0
 40
0
 40
1
 40
1
 40
1
 40
1
 10
27.869536
 20
41.147193
 30
0.0
 10
27.816045
 20
41.147193
 30
0.0
 10
27.772281
 20
41.194313
 30
0.0
 10
27.772281
 20
41.251902
 30
0.0
  0
LWPOLYLINE
  5
201
100
AcDbEntity
  8
0
 62
7
100
AcDbPolyline
 90
1
 70
1
 10
25.119892
 20
25.421709
 30
0.0
  0
SPLINE
  5
202
100
AcDbEntity
  8
0
 62
7
100
AcDbSpline
 70
8
 71
3
 72
8
 73
4
 74
0
 40
0
 40
0
 40
0
 40
0
 40
1
 40
1
 40
1
 40
1
 10
48.534222
 20
43.375323
 30
0.0
 10
48.014901
 20
44.469714
 30
0.0
 10
47.722094
 20
44.522038
 30
0.0
 10
46.268092
 20
43.780260
 30
0.0
  0
LWPOLYLINE
  5
203
100
AcDbEntity
  8
0
 62
7
100
AcDbPolyline
 90
1
 70
1
 10
27.772281
 20
41.251902
 30
0.0
  0
SPLINE
  5
204
100
AcDbEntity
  8
0
 62
7
100
AcDbSpline
 70
8
 71
3
 72
8
 73
4
 74
0
 40
0
 40
0
 40
0
 40
0
 40
1
 40
1
 40
1
 40
1
 10
43.733117
 20
43.912552
 30
0.0
 10
42.614734
 20
44.424566
 30
0.0
 10
41.827723
 20
44.586776
 30
0.0
 10
40.461946
 20
44.586776
 30
0.0
  0
SPLINE
  5
205
100
AcDbEntity
  8
0
 62
7
100
AcDbSpline
 70
8
 71
3
 72
8
 73
4
 74
0
 40
0
 40
0
 40
0
 40
0
 40
1
 40
1
 40
1
 40
1
 10
40.461946
 20
44.586776
 30
0.0
 10
39.472788
 20
44.586776
 30
0.0
 10
38.475124
 20
44.659053
 30
0.0
 10
38.244918
 20
44.747392
 30
0.0
  0
SPLINE
  5
206
100
AcDbEntity
  8
0
 62
7
100
AcDbSpline
 70
8
 71
3
 72
8
 73
4
 74
0
 40
0
 40
0
 40
0
 40
0
 40
1
 40
1
 40
1
 40
1
 10
38.244918
 20
44.747392
 30
0.0
 10
38.014709
 20
44.835731
 30
0.0
 10
37.350128
 20
45.506129
 30
0.0
 10
36.768069
 20
46.237163
 30
0.0
  0
SPLINE
  5
207
100
AcDbEntity
  8
0
 62
7
100
AcDbSpline
 70
8
 71
3
 72
8
 73
4
 74
0
 40
0
 40
0
 40
0
 40
0
 40
1
 40
1
 40
1
 40
1
 10
36.768069
 20
46.237163
 30
0.0
 10
35.680311
 20
47.603331
 30
0.0
 10
35.383639
 20
48.964363
 30
0.0
 10
35.974364
 20
49.878443
 30
0.0
  0
SPLINE
  5
208
100
AcDbEntity
  8
0
 62
7
100
AcDbSpline
 70
8
 71
3
 72
8
 73
4
 74
0
 40
0
 40
0
 40
0
 40
0
 40
1
 40
1
 40
1
 40
1
 10
35.974364
 20
49.878443
 30
0.0
 10
36.161961
 20
50.168728
 30
0.0
 10
36.231933
 20
49.970087
 30
0.0
 10
36.234897
 20
49.138814
 30
0.0
  0
SPLINE
  5
209
100
AcDbEntity
  8
0
 62
7
100
AcDbSpline
 70
8
 71
3
 72
8
 73
4
 74
0
 40
0
 40
0
 40
0
 40
0
 40
1
 40
1
 40
1
 40
1
 10
36.234897
 20
49.138814
 30
0.0
 10
36.237992
 20
48.272994
 30
0.0
 10
36.401690
 20
47.839564
 30
0.0
 10
36.922242
 20
47.319012
 30
0.0
  0
SPLINE
  5
20a
100
AcDbEntity
  8
0
 62
7
100
AcDbSpline
 70
8
 71
3
 72
8
 73
4
 74
0
 40
0
 40
0
 40
0
 40
0
 40
1
 40
1
 40
1
 40
1
 10
36.922242
 20
47.319012
 30
0.0
 10
37.548381
 20
46.692873
 30
0.0
 10
37.729425
 20
46.650280
 30
0.0
 10
39.086671
 20
46.809798
 30
0.0
  0
SPLINE
  5
20b
100
AcDbEntity
  8
0
 62
7
100
AcDbSpline
 70
8
 71
3
 72
8
 73
4
 74
0
 40
0
 40
0
 40
0
 40
0
 40
1
 40
1
 40
1
 40
1
 10
39.086671
 20
46.809798
 30
0.0
 10
40.428251
 20
46.967473
 30
0.0
 10
40.744047
 20
46.896999
 30
0.0
 10
42.438272
 20
46.061828
 30
0.0
  0
SPLINE
  5
20c
100
AcDbEntity
  8
0
 62
7
100
AcDbSpline
 70
8
 71
3
 72
8
 73
4
 74
0
 40
0
 40
0
 40
0
 40
0
 40
1
 40
1
 40
1
 40
1
 10
42.438272
 20
46.061828
 30
0.0
 10
45.149156
 20
44.725495
 30
0.0
 10
46.139563
 20
44.633594
 30
0.0
 10
47.617843
 20
45.581218
 30
0.0
  0
SPLINE
  5
20d
100
AcDbEntity
  8
0
 62
7
100
AcDbSpline
 70
8
 71
3
 72
8
 73
4
 74
0
 40
0
 40
0
 40
0
 40
0
 40
1
 40
1
 40
1
 40
1
 10
47.617843
 20
45.581218
 30
0.0
 10
49.012721
 20
46.475377
 30
0.0
 10
50.745189
 20
48.853042
 30
0.0
 10
50.952122
 20
50.157232
 30
0.0
  0
SPLINE
  5
20e
100
AcDbEntity
  8
0
 62
7
100
AcDbSpline
 70
8
 71
3
 72
8
 73
4
 74
0
 40
0
 40
0
 40
0
 40
0
 40
1
 40
1
 40
1
 40
1
 10
50.952122
 20
50.157232
 30
0.0
 10
51.076873
 20
50.943484
 30
0.0
 10
50.933839
 20
51.278028
 30
0.0
 10
49.913524
 20
52.586274
 30
0.0
  0
LWPOLYLINE
  5
20f
100
AcDbEntity
  8
0
 62
7
100
AcDbPolyline
 90
3
 70
0
 10
46.268092
 20
43.780260
 30
0.0
 10
45.205817
 20
43.238327
 30
0.0
 10
43.733117
 20
43.912552
 30
0.0
  0
SPLINE
  5
210
100
AcDbEntity
  8
0
 62
7
100
AcDbSpline
 70
8
 71
3
 72
8
 73
4
 74
0
 40
0
 40
0
 40
0
 40
0
 40
1
 40
1
 40
1
 40
1
 10
48.854931
 20
60.788357
 30
0.0
 10
48.923506
 20
64.465039
 30
0.0
 10
49.089524
 20
67.818423
 30
0.0
 10
49.223864
 20
68.240320
 30
0.0
  0
SPLINE
  5
211
100
AcDbEntity
  8
0
 62
7
100
AcDbSpline
 70
8
 71
3
 72
8
 73
4
 74
0
 40
0
 40
0
 40
0
 40
0
 40
1
 40
1
 40
1
 40
1
 10
49.223864
 20
68.240320
 30
0.0
 10
49.799849
 20
70.049242
 30
0.0
 10
49.866809
 20
70.015891
 30
0.0
 10
45.747077
 20
69.971983
 30
0.0
  0
SPLINE
  5
212
100
AcDbEntity
  8
0
 62
7
100
AcDbSpline
 70
8
 71
3
 72
8
 73
4
 74
0
 40
0
 40
0
 40
0
 40
0
 40
1
 40
1
 40
1
 40
1
 10
45.747077
 20
69.971983
 30
0.0
 10
41.968179
 20
69.931709
 30
0.0
 10
40.916910
 20
70.078444
 30
0.0
 10
42.760350
 20
70.388869
 30
0.0
  0
SPLINE
  5
213
100
AcDbEntity
  8
0
 62
7
100
AcDbSpline
 70
8
 71
3
 72
8
 73
4
 74
0
 40
0
 40
0
 40
0
 40
0
 40
1
 40
1
 40
1
 40
1
 10
42.760350
 20
70.388869
 30
0.0
 10
43.320922
 20
70.483267
 30
0.0
 10
44.187777
 20
70.685787
 30
0.0
 10
44.686691
 20
70.838912
 30
0.0
  0
SPLINE
  5
214
100
AcDbEntity
  8
0
 62
7
100
AcDbSpline
 70
8
 71
3
 72
8
 73
4
 74
0
 40
0
 40
0
 40
0
 40
0
 40
1
 40
1
 40
1
 40
1
 10
44.686691
 20
70.838912
 30
0.0
 10
45.210852
 20
70.999781
 30
0.0
 10
46.577147
 20
71.053611
 30
0.0
 10
47.923035
 20
70.966415
 30
0.0
  0
SPLINE
  5
215
100
AcDbEntity
  8
0
 62
7
100
AcDbSpline
 70
8
 71
3
 72
8
 73
4
 74
0
 40
0
 40
0
 40
0
 40
0
 40
1
 40
1
 40
1
 40
1
 10
47.923035
 20
70.966415
 30
0.0
 10
49.368908
 20
70.872742
 30
0.0
 10
50.314762
 20
70.916647
 30
0.0
 10
50.417071
 20
71.082188
 30
0.0
  0
SPLINE
  5
216
100
AcDbEntity
  8
0
 62
7
100
AcDbSpline
 70
8
 71
3
 72
8
 73
4
 74
0
 40
0
 40
0
 40
0
 40
0
 40
1
 40
1
 40
1
 40
1
 10
50.417071
 20
71.082188
 30
0.0
 10
50.651974
 20
71.462268
 30
0.0
 10
49.617225
 20
72.479972
 30
0.0
 10
48.268287
 20
73.195582
 30
0.0
  0
SPLINE
  5
217
100
AcDbEntity
  8
0
 62
7
100
AcDbSpline
 70
8
 71
3
 72
8
 73
4
 74
0
 40
0
 40
0
 40
0
 40
0
 40
1
 40
1
 40
1
 40
1
 10
48.268287
 20
73.195582
 30
0.0
 10
47.485543
 20
73.610827
 30
0.0
 10
46.972995
 20
74.121679
 30
0.0
 10
46.674114
 20
74.784482
 30
0.0
  0
SPLINE
  5
218
100
AcDbEntity
  8
0
 62
7
100
AcDbSpline
 70
8
 71
3
 72
8
 73
4
 74
0
 40
0
 40
0
 40
0
 40
0
 40
1
 40
1
 40
1
 40
1
 10
46.674114
 20
74.784482
 30
0.0
 10
45.966060
 20
76.354662
 30
0.0
 10
46.363274
 20
76.500659
 30
0.0
 10
47.359565
 20
75.036418
 30
0.0
  0
SPLINE
  5
219
100
AcDbEntity
  8
0
 62
7
100
AcDbSpline
 70
8
 71
3
 72
8
 73
4
 74
0
 40
0
 40
0
 40
0
 40
0
 40
1
 40
1
 40
1
 40
1
 10
47.359565
 20
75.036418
 30
0.0
 10
48.405714
 20
73.498903
 30
0.0
 10
48.460755
 20
73.472469
 30
0.0
 10
50.791031
 20
73.388405
 30
0.0
  0
SPLINE
  5
21a
100
AcDbEntity
  8
0
 62
7
100
AcDbSpline
 70
8
 71
3
 72
8
 73
4
 74
0
 40
0
 40
0
 40
0
 40
0
 40
1
 40
1
 40
1
 40
1
 10
50.791031
 20
73.388405
 30
0.0
 10
51.993670
 20
73.345021
 30
0.0
 10
52.765455
 20
73.460748
 30
0.0
 10
53.357600
 20
73.773250
 30
0.0
  0
SPLINE
  5
21b
100
AcDbEntity
  8
0
 62
7
100
AcDbSpline
 70
8
 71
3
 72
8
 73
4
 74
0
 40
0
 40
0
 40
0
 40
0
 40
1
 40
1
 40
1
 40
1
 10
53.357600
 20
73.773250
 30
0.0
 10
55.007703
 20
74.644083
 30
0.0
 10
57.475826
 20
75.040585
 30
0.0
 10
62.168114
 20
75.188651
 30
0.0
  0
SPLINE
  5
21c
100
AcDbEntity
  8
0
 62
7
100
AcDbSpline
 70
8
 71
3
 72
8
 73
4
 74
0
 40
0
 40
0
 40
0
 40
0
 40
1
 40
1
 40
1
 40
1
 10
62.168114
 20
75.188651
 30
0.0
 10
66.103661
 20
75.312836
 30
0.0
 10
67.304856
 20
75.251215
 30
0.0
 10
70.174591
 20
74.777907
 30
0.0
  0
SPLINE
  5
21d
100
AcDbEntity
  8
0
 62
7
100
AcDbSpline
 70
8
 71
3
 72
8
 73
4
 74
0
 40
0
 40
0
 40
0
 40
0
 40
1
 40
1
 40
1
 40
1
 10
70.174591
 20
74.777907
 30
0.0
 10
73.895699
 20
74.164185
 30
0.0
 10
74.231741
 20
74.025535
 30
0.0
 10
75.112115
 20
72.740713
 30
0.0
  0
SPLINE
  5
21e
100
AcDbEntity
  8
0
 62
7
100
AcDbSpline
 70
8
 71
3
 72
8
 73
4
 74
0
 40
0
 40
0
 40
0
 40
0
 40
1
 40
1
 40
1
 40
1
 10
75.112115
 20
72.740713
 30
0.0
 10
76.263407
 20
71.060508
 30
0.0
 10
76.522739
 20
69.825211
 30
0.0
 10
76.329027
 20
66.944068
 30
0.0
  0
SPLINE
  5
21f
100
AcDbEntity
  8
0
 62
7
100
AcDbSpline
 70
8
 71
3
 72
8
 73
4
 74
0
 40
0
 40
0
 40
0
 40
0
 40
1
 40
1
 40
1
 40
1
 10
76.329027
 20
66.944068
 30
0.0
 10
75.789771
 20
58.923618
 30
0.0
 10
73.326149
 20
56.392924
 30
0.0
 10
65.713046
 20
56.039081
 30
0.0
  0
SPLINE
  5
220
100
AcDbEntity
  8
0
 62
7
100
AcDbSpline
 70
8
 71
3
 72
8
 73
4
 74
0
 40
0
 40
0
 40
0
 40
0
 40
1
 40
1
 40
1
 40
1
 10
65.713046
 20
56.039081
 30
0.0
 10
62.279194
 20
55.879481
 30
0.0
 10
60.970313
 20
56.014633
 30
0.0
 10
60.163559
 20
56.612144
 30
0.0
  0
SPLINE
  5
221
100
AcDbEntity
  8
0
 62
7
100
AcDbSpline
 70
8
 71
3
 72
8
 73
4
 74
0
 40
0
 40
0
 40
0
 40
0
 40
1
 40
1
 40
1
 40
1
 10
60.163559
 20
56.612144
 30
0.0
 10
59.712535
 20
56.946184
 30
0.0
 10
59.790158
 20
56.958008
 30
0.0
 10
60.845197
 20
56.715967
 30
0.0
  0
SPLINE
  5
222
100
AcDbEntity
  8
0
 62
7
100
AcDbSpline
 70
8
 71
3
 72
8
 73
4
 74
0
 40
0
 40
0
 40
0
 40
0
 40
1
 40
1
 40
1
 40
1
 10
60.845197
 20
56.715967
 30
0.0
 10
61.500041
 20
56.565739
 30
0.0
 10
63.426015
 20
56.496257
 30
0.0
 10
65.125140
 20
56.561564
 30
0.0
  0
SPLINE
  5
223
100
AcDbEntity
  8
0
 62
7
100
AcDbSpline
 70
8
 71
3
 72
8
 73
4
 74
0
 40
0
 40
0
 40
0
 40
0
 40
1
 40
1
 40
1
 40
1
 10
65.125140
 20
56.561564
 30
0.0
 10
67.983825
 20
56.671438
 30
0.0
 10
68.360144
 20
56.749490
 30
0.0
 10
70.165965
 20
57.607070
 30
0.0
  0
SPLINE
  5
224
100
AcDbEntity
  8
0
 62
7
100
AcDbSpline
 70
8
 71
3
 72
8
 73
4
 74
0
 40
0
 40
0
 40
0
 40
0
 40
1
 40
1
 40
1
 40
1
 10
70.165965
 20
57.607070
 30
0.0
 10
72.490875
 20
58.711166
 30
0.0
 10
73.908666
 20
59.893478
 30
0.0
 10
74.649780
 20
61.346181
 30
0.0
  0
SPLINE
  5
225
100
AcDbEntity
  8
0
 62
7
100
AcDbSpline
 70
8
 71
3
 72
8
 73
4
 74
0
 40
0
 40
0
 40
0
 40
0
 40
1
 40
1
 40
1
 40
1
 10
74.649780
 20
61.346181
 30
0.0
 10
75.235895
 20
62.495065
 30
0.0
 10
75.906622
 20
65.755602
 30
0.0
 10
75.910175
 20
67.473235
 30
0.0
  0
LWPOLYLINE
  5
226
100
AcDbEntity
  8
0
 62
7
100
AcDbPolyline
 90
3
 70
0
 10
49.913524
 20
52.586274
 30
0.0
 10
48.730249
 20
54.103476
 30
0.0
 10
48.854931
 20
60.788357
 30
0.0
  0
SPLINE
  5
227
100
AcDbEntity
  8
0
 62
7
100
AcDbSpline
 70
8
 71
3
 72
8
 73
4
 74
0
 40
0
 40
0
 40
0
 40
0
 40
1
 40
1
 40
1
 40
1
 10
75.485964
 20
67.844818
 30
0.0
 10
74.872630
 20
66.856830
 30
0.0
 10
74.172813
 20
66.503095
 30
0.0
 10
72.831534
 20
66.503095
 30
0.0
  0
SPLINE
  5
228
100
AcDbEntity
  8
0
 62
7
100
AcDbSpline
 70
8
 71
3
 72
8
 73
4
 74
0
 40
0
 40
0
 40
0
 40
0
 40
1
 40
1
 40
1
 40
1
 10
72.831534
 20
66.503095
 30
0.0
 10
71.808959
 20
66.503095
 30
0.0
 10
71.713720
 20
66.458116
 30
0.0
 10
72.115011
 20
66.164685
 30
0.0
  0
SPLINE
  5
229
100
AcDbEntity
  8
0
 62
7
100
AcDbSpline
 70
8
 71
3
 72
8
 73
4
 74
0
 40
0
 40
0
 40
0
 40
0
 40
1
 40
1
 40
1
 40
1
 10
72.115011
 20
66.164685
 30
0.0
 10
72.543964
 20
65.851027
 30
0.0
 10
72.511592
 20
65.743849
 30
0.0
 10
71.672408
 20
64.699362
 30
0.0
  0
SPLINE
  5
22a
100
AcDbEntity
  8
0
 62
7
100
AcDbSpline
 70
8
 71
3
 72
8
 73
4
 74
0
 40
0
 40
0
 40
0
 40
0
 40
1
 40
1
 40
1
 40
1
 10
71.672408
 20
64.699362
 30
0.0
 10
69.264488
 20
61.702357
 30
0.0
 10
69.204726
 20
61.655248
 30
0.0
 10
68.290810
 20
62.033804
 30
0.0
  0
SPLINE
  5
22b
100
AcDbEntity
  8
0
 62
7
100
AcDbSpline
 70
8
 71
3
 72
8
 73
4
 74
0
 40
0
 40
0
 40
0
 40
0
 40
1
 40
1
 40
1
 40
1
 10
68.290810
 20
62.033804
 30
0.0
 10
67.319480
 20
62.436171
 30
0.0
 10
67.270416
 20
62.653661
 30
0.0
 10
67.988947
 20
63.372193
 30
0.0
  0
SPLINE
  5
22c
100
AcDbEntity
  8
0
 62
7
100
AcDbSpline
 70
8
 71
3
 72
8
 73
4
 74
0
 40
0
 40
0
 40
0
 40
0
 40
1
 40
1
 40
1
 40
1
 10
67.988947
 20
63.372193
 30
0.0
 10
68.279989
 20
63.663235
 30
0.0
 10
68.518114
 20
64.139485
 30
0.0
 10
68.518114
 20
64.430526
 30
0.0
  0
SPLINE
  5
22d
100
AcDbEntity
  8
0
 62
7
100
AcDbSpline
 70
8
 71
3
 72
8
 73
4
 74
0
 40
0
 40
0
 40
0
 40
0
 40
1
 40
1
 40
1
 40
1
 10
68.518114
 20
64.430526
 30
0.0
 10
68.518114
 20
64.990639
 30
0.0
 10
68.132854
 20
65.142007
 30
0.0
 10
67.854319
 20
64.691329
 30
0.0
  0
SPLINE
  5
22e
100
AcDbEntity
  8
0
 62
7
100
AcDbSpline
 70
8
 71
3
 72
8
 73
4
 74
0
 40
0
 40
0
 40
0
 40
0
 40
1
 40
1
 40
1
 40
1
 10
67.854319
 20
64.691329
 30
0.0
 10
67.504225
 20
64.124866
 30
0.0
 10
65.557622
 20
63.341049
 30
0.0
 10
64.858657
 20
63.485096
 30
0.0
  0
SPLINE
  5
22f
100
AcDbEntity
  8
0
 62
7
100
AcDbSpline
 70
8
 71
3
 72
8
 73
4
 74
0
 40
0
 40
0
 40
0
 40
0
 40
1
 40
1
 40
1
 40
1
 10
64.858657
 20
63.485096
 30
0.0
 10
64.470264
 20
63.565140
 30
0.0
 10
62.984936
 20
63.654212
 30
0.0
 10
61.557927
 20
63.683039
 30
0.0
  0
SPLINE
  5
230
100
AcDbEntity
  8
0
 62
7
100
AcDbSpline
 70
8
 71
3
 72
8
 73
4
 74
0
 40
0
 40
0
 40
0
 40
0
 40
1
 40
1
 40
1
 40
1
 10
61.557927
 20
63.683039
 30
0.0
 10
60.130918
 20
63.711862
 30
0.0
 10
58.903500
 20
63.832309
 30
0.0
 10
58.830332
 20
63.950694
 30
0.0
  0
SPLINE
  5
231
100
AcDbEntity
  8
0
 62
7
100
AcDbSpline
 70
8
 71
3
 72
8
 73
4
 74
0
 40
0
 40
0
 40
0
 40
0
 40
1
 40
1
 40
1
 40
1
 10
58.830332
 20
63.950694
 30
0.0
 10
58.687684
 20
64.181501
 30
0.0
 10
58.808874
 20
64.193065
 30
0.0
 10
62.035822
 20
64.256576
 30
0.0
  0
SPLINE
  5
232
100
AcDbEntity
  8
0
 62
7
100
AcDbSpline
 70
8
 71
3
 72
8
 73
4
 74
0
 40
0
 40
0
 40
0
 40
0
 40
1
 40
1
 40
1
 40
1
 10
62.035822
 20
64.256576
 30
0.0
 10
63.723658
 20
64.289794
 30
0.0
 10
64.460713
 20
64.442681
 30
0.0
 10
65.673843
 20
65.011202
 30
0.0
  0
SPLINE
  5
233
100
AcDbEntity
  8
0
 62
7
100
AcDbSpline
 70
8
 71
3
 72
8
 73
4
 74
0
 40
0
 40
0
 40
0
 40
0
 40
1
 40
1
 40
1
 40
1
 10
65.673843
 20
65.011202
 30
0.0
 10
67.321218
 20
65.783225
 30
0.0
 10
67.620449
 20
66.270402
 30
0.0
 10
66.467593
 20
66.303499
 30
0.0
  0
LWPOLYLINE
  5
234
100
AcDbEntity
  8
0
 62
7
100
AcDbPolyline
 90
3
 70
0
 10
75.910175
 20
67.473235
 30
0.0
 10
75.912292
 20
68.531568
 30
0.0
 10
75.485964
 20
67.844818
 30
0.0
  0
SPLINE
  5
235
100
AcDbEntity
  8
0
 62
7
100
AcDbSpline
 70
8
 71
3
 72
8
 73
4
 74
0
 40
0
 40
0
 40
0
 40
0
 40
1
 40
1
 40
1
 40
1
 10
66.481833
 20
66.594866
 30
0.0
 10
66.958504
 20
66.768670
 30
0.0
 10
67.192223
 20
67.021287
 30
0.0
 10
67.135679
 20
67.301581
 30
0.0
  0
SPLINE
  5
236
100
AcDbEntity
  8
0
 62
7
100
AcDbSpline
 70
8
 71
3
 72
8
 73
4
 74
0
 40
0
 40
0
 40
0
 40
0
 40
1
 40
1
 40
1
 40
1
 10
67.135679
 20
67.301581
 30
0.0
 10
67.068311
 20
67.635541
 30
0.0
 10
66.755780
 20
67.733968
 30
0.0
 10
65.802558
 20
67.721432
 30
0.0
  0
SPLINE
  5
237
100
AcDbEntity
  8
0
 62
7
100
AcDbSpline
 70
8
 71
3
 72
8
 73
4
 74
0
 40
0
 40
0
 40
0
 40
0
 40
1
 40
1
 40
1
 40
1
 10
65.802558
 20
67.721432
 30
0.0
 10
64.664669
 20
67.706483
 30
0.0
 10
64.591269
 20
67.742440
 30
0.0
 10
64.950274
 20
68.139141
 30
0.0
  0
SPLINE
  5
238
100
AcDbEntity
  8
0
 62
7
100
AcDbSpline
 70
8
 71
3
 72
8
 73
4
 74
0
 40
0
 40
0
 40
0
 40
0
 40
1
 40
1
 40
1
 40
1
 10
64.950274
 20
68.139141
 30
0.0
 10
65.166335
 20
68.377887
 30
0.0
 10
65.343114
 20
69.010334
 30
0.0
 10
65.343114
 20
69.544578
 30
0.0
  0
SPLINE
  5
239
100
AcDbEntity
  8
0
 62
7
100
AcDbSpline
 70
8
 71
3
 72
8
 73
4
 74
0
 40
0
 40
0
 40
0
 40
0
 40
1
 40
1
 40
1
 40
1
 10
65.343114
 20
69.544578
 30
0.0
 10
65.343114
 20
70.564735
 30
0.0
 10
65.561202
 20
70.701035
 30
0.0
 10
66.440526
 20
70.230434
 30
0.0
  0
SPLINE
  5
23a
100
AcDbEntity
  8
0
 62
7
100
AcDbSpline
 70
8
 71
3
 72
8
 73
4
 74
0
 40
0
 40
0
 40
0
 40
0
 40
1
 40
1
 40
1
 40
1
 10
66.440526
 20
70.230434
 30
0.0
 10
67.091351
 20
69.882123
 30
0.0
 10
67.702795
 20
70.532704
 30
0.0
 10
67.715950
 20
71.587495
 30
0.0
  0
SPLINE
  5
23b
100
AcDbEntity
  8
0
 62
7
100
AcDbSpline
 70
8
 71
3
 72
8
 73
4
 74
0
 40
0
 40
0
 40
0
 40
0
 40
1
 40
1
 40
1
 40
1
 10
67.715950
 20
71.587495
 30
0.0
 10
67.734524
 20
73.077226
 30
0.0
 10
66.711751
 20
73.203774
 30
0.0
 10
61.499679
 20
72.356628
 30
0.0
  0
SPLINE
  5
23c
100
AcDbEntity
  8
0
 62
7
100
AcDbSpline
 70
8
 71
3
 72
8
 73
4
 74
0
 40
0
 40
0
 40
0
 40
0
 40
1
 40
1
 40
1
 40
1
 10
61.499679
 20
72.356628
 30
0.0
 10
58.322879
 20
71.840288
 30
0.0
 10
56.876447
 20
71.476042
 30
0.0
 10
56.876447
 20
71.192390
 30
0.0
  0
SPLINE
  5
23d
100
AcDbEntity
  8
0
 62
7
100
AcDbSpline
 70
8
 71
3
 72
8
 73
4
 74
0
 40
0
 40
0
 40
0
 40
0
 40
1
 40
1
 40
1
 40
1
 10
56.876447
 20
71.192390
 30
0.0
 10
56.876447
 20
71.120675
 30
0.0
 10
57.203869
 20
70.884370
 30
0.0
 10
57.604051
 20
70.667266
 30
0.0
  0
SPLINE
  5
23e
100
AcDbEntity
  8
0
 62
7
100
AcDbSpline
 70
8
 71
3
 72
8
 73
4
 74
0
 40
0
 40
0
 40
0
 40
0
 40
1
 40
1
 40
1
 40
1
 10
57.604051
 20
70.667266
 30
0.0
 10
58.298011
 20
70.290788
 30
0.0
 10
58.303745
 20
70.272045
 30
0.0
 10
57.728041
 20
70.261943
 30
0.0
  0
SPLINE
  5
23f
100
AcDbEntity
  8
0
 62
7
100
AcDbSpline
 70
8
 71
3
 72
8
 73
4
 74
0
 40
0
 40
0
 40
0
 40
0
 40
1
 40
1
 40
1
 40
1
 10
57.728041
 20
70.261943
 30
0.0
 10
57.396049
 20
70.256122
 30
0.0
 10
57.049924
 20
70.057211
 30
0.0
 10
56.958870
 20
69.819930
 30
0.0
  0
SPLINE
  5
240
100
AcDbEntity
  8
0
 62
7
100
AcDbSpline
 70
8
 71
3
 72
8
 73
4
 74
0
 40
0
 40
0
 40
0
 40
0
 40
1
 40
1
 40
1
 40
1
 10
56.958870
 20
69.819930
 30
0.0
 10
56.784753
 20
69.366183
 30
0.0
 10
57.593817
 20
67.605516
 30
0.0
 10
57.976445
 20
67.605516
 30
0.0
  0
SPLINE
  5
241
100
AcDbEntity
  8
0
 62
7
100
AcDbSpline
 70
8
 71
3
 72
8
 73
4
 74
0
 40
0
 40
0
 40
0
 40
0
 40
1
 40
1
 40
1
 40
1
 10
57.976445
 20
67.605516
 30
0.0
 10
58.099050
 20
67.605516
 30
0.0
 10
58.199364
 20
67.513906
 30
0.0
 10
58.199364
 20
67.401937
 30
0.0
  0
SPLINE
  5
242
100
AcDbEntity
  8
0
 62
7
100
AcDbSpline
 70
8
 71
3
 72
8
 73
4
 74
0
 40
0
 40
0
 40
0
 40
0
 40
1
 40
1
 40
1
 40
1
 10
58.199364
 20
67.401937
 30
0.0
 10
58.199364
 20
67.206924
 30
0.0
 10
54.208495
 20
67.295689
 30
0.0
 10
53.994696
 20
67.495457
 30
0.0
  0
SPLINE
  5
243
100
AcDbEntity
  8
0
 62
7
100
AcDbSpline
 70
8
 71
3
 72
8
 73
4
 74
0
 40
0
 40
0
 40
0
 40
0
 40
1
 40
1
 40
1
 40
1
 10
53.994696
 20
67.495457
 30
0.0
 10
53.937699
 20
67.548712
 30
0.0
 10
54.174790
 20
67.822030
 30
0.0
 10
54.521563
 20
68.102829
 30
0.0
  0
SPLINE
  5
244
100
AcDbEntity
  8
0
 62
7
100
AcDbSpline
 70
8
 71
3
 72
8
 73
4
 74
0
 40
0
 40
0
 40
0
 40
0
 40
1
 40
1
 40
1
 40
1
 10
54.521563
 20
68.102829
 30
0.0
 10
55.143048
 20
68.606077
 30
0.0
 10
55.144887
 20
68.621296
 30
0.0
 10
54.650328
 20
69.167777
 30
0.0
  0
SPLINE
  5
245
100
AcDbEntity
  8
0
 62
7
100
AcDbSpline
 70
8
 71
3
 72
8
 73
4
 74
0
 40
0
 40
0
 40
0
 40
0
 40
1
 40
1
 40
1
 40
1
 10
54.650328
 20
69.167777
 30
0.0
 10
53.938350
 20
69.954505
 30
0.0
 10
53.254579
 20
69.857398
 30
0.0
 10
52.219781
 20
68.822599
 30
0.0
  0
SPLINE
  5
246
100
AcDbEntity
  8
0
 62
7
100
AcDbSpline
 70
8
 71
3
 72
8
 73
4
 74
0
 40
0
 40
0
 40
0
 40
0
 40
1
 40
1
 40
1
 40
1
 10
52.219781
 20
68.822599
 30
0.0
 10
51.075278
 20
67.678096
 30
0.0
 10
51.081646
 20
66.966939
 30
0.0
 10
52.246239
 20
65.868587
 30
0.0
  0
SPLINE
  5
247
100
AcDbEntity
  8
0
 62
7
100
AcDbSpline
 70
8
 71
3
 72
8
 73
4
 74
0
 40
0
 40
0
 40
0
 40
0
 40
1
 40
1
 40
1
 40
1
 10
52.246239
 20
65.868587
 30
0.0
 10
52.755562
 20
65.388233
 30
0.0
 10
53.172281
 20
64.880897
 30
0.0
 10
53.172281
 20
64.741174
 30
0.0
  0
SPLINE
  5
248
100
AcDbEntity
  8
0
 62
7
100
AcDbSpline
 70
8
 71
3
 72
8
 73
4
 74
0
 40
0
 40
0
 40
0
 40
0
 40
1
 40
1
 40
1
 40
1
 10
53.172281
 20
64.741174
 30
0.0
 10
53.172281
 20
64.418617
 30
0.0
 10
52.408267
 20
64.116323
 30
0.0
 10
52.090071
 20
64.312980
 30
0.0
  0
SPLINE
  5
249
100
AcDbEntity
  8
0
 62
7
100
AcDbSpline
 70
8
 71
3
 72
8
 73
4
 74
0
 40
0
 40
0
 40
0
 40
0
 40
1
 40
1
 40
1
 40
1
 10
52.090071
 20
64.312980
 30
0.0
 10
51.286683
 20
64.809502
 30
0.0
 10
52.736819
 20
61.809577
 30
0.0
 10
54.302819
 20
59.735424
 30
0.0
  0
LWPOLYLINE
  5
24a
100
AcDbEntity
  8
0
 62
7
100
AcDbPolyline
 90
3
 70
0
 10
66.467593
 20
66.303499
 30
0.0
 10
65.739989
 20
66.324374
 30
0.0
 10
66.481833
 20
66.594866
 30
0.0
  0
SPLINE
  5
24b
100
AcDbEntity
  8
0
 62
7
100
AcDbSpline
 70
8
 71
3
 72
8
 73
4
 74
0
 40
0
 40
0
 40
0
 40
0
 40
1
 40
1
 40
1
 40
1
 10
54.800937
 20
57.920813
 30
0.0
 10
54.297604
 20
57.568274
 30
0.0
 10
54.230614
 20
57.272402
 30
0.0
 10
54.230614
 20
55.401861
 30
0.0
  0
SPLINE
  5
24c
100
AcDbEntity
  8
0
 62
7
100
AcDbSpline
 70
8
 71
3
 72
8
 73
4
 74
0
 40
0
 40
0
 40
0
 40
0
 40
1
 40
1
 40
1
 40
1
 10
54.230614
 20
55.401861
 30
0.0
 10
54.230614
 20
53.091162
 30
0.0
 10
54.312928
 20
53.175694
 30
0.0
 10
52.666731
 20
53.795837
 30
0.0
  0
SPLINE
  5
24d
100
AcDbEntity
  8
0
 62
7
100
AcDbSpline
 70
8
 71
3
 72
8
 73
4
 74
0
 40
0
 40
0
 40
0
 40
0
 40
1
 40
1
 40
1
 40
1
 10
52.666731
 20
53.795837
 30
0.0
 10
52.374916
 20
53.905766
 30
0.0
 10
52.342426
 20
53.796896
 30
0.0
 10
52.517828
 20
53.296508
 30
0.0
  0
SPLINE
  5
24e
100
AcDbEntity
  8
0
 62
7
100
AcDbSpline
 70
8
 71
3
 72
8
 73
4
 74
0
 40
0
 40
0
 40
0
 40
0
 40
1
 40
1
 40
1
 40
1
 10
52.517828
 20
53.296508
 30
0.0
 10
52.812804
 20
52.455133
 30
0.0
 10
52.830936
 20
49.149489
 30
0.0
 10
52.545647
 20
48.224797
 30
0.0
  0
LWPOLYLINE
  5
24f
100
AcDbEntity
  8
0
 62
7
100
AcDbPolyline
 90
3
 70
0
 10
54.302819
 20
59.735424
 30
0.0
 10
55.371259
 20
58.320284
 30
0.0
 10
54.800937
 20
57.920813
 30
0.0
  0
SPLINE
  5
250
100
AcDbEntity
  8
0
 62
7
100
AcDbSpline
 70
8
 71
3
 72
8
 73
4
 74
0
 40
0
 40
0
 40
0
 40
0
 40
1
 40
1
 40
1
 40
1
 10
55.284158
 20
48.621672
 30
0.0
 10
55.280983
 20
49.366273
 30
0.0
 10
55.012836
 20
50.229696
 30
0.0
 10
54.490408
 20
51.177486
 30
0.0
  0
SPLINE
  5
251
100
AcDbEntity
  8
0
 62
7
100
AcDbSpline
 70
8
 71
3
 72
8
 73
4
 74
0
 40
0
 40
0
 40
0
 40
0
 40
1
 40
1
 40
1
 40
1
 10
54.490408
 20
51.177486
 30
0.0
 10
53.559588
 20
52.866192
 30
0.0
 10
53.555479
 20
52.885602
 30
0.0
 10
54.201938
 20
52.539625
 30
0.0
  0
SPLINE
  5
252
100
AcDbEntity
  8
0
 62
7
100
AcDbSpline
 70
8
 71
3
 72
8
 73
4
 74
0
 40
0
 40
0
 40
0
 40
0
 40
1
 40
1
 40
1
 40
1
 10
54.201938
 20
52.539625
 30
0.0
 10
54.741670
 20
52.250771
 30
0.0
 10
55.778641
 20
50.578173
 30
0.0
 10
56.343918
 20
49.084693
 30
0.0
  0
SPLINE
  5
253
100
AcDbEntity
  8
0
 62
7
100
AcDbSpline
 70
8
 71
3
 72
8
 73
4
 74
0
 40
0
 40
0
 40
0
 40
0
 40
1
 40
1
 40
1
 40
1
 10
56.343918
 20
49.084693
 30
0.0
 10
56.536696
 20
48.575370
 30
0.0
 10
57.078700
 20
47.741933
 30
0.0
 10
57.548373
 20
47.232610
 30
0.0
  0
SPLINE
  5
254
100
AcDbEntity
  8
0
 62
7
100
AcDbSpline
 70
8
 71
3
 72
8
 73
4
 74
0
 40
0
 40
0
 40
0
 40
0
 40
1
 40
1
 40
1
 40
1
 10
57.548373
 20
47.232610
 30
0.0
 10
58.517586
 20
46.181576
 30
0.0
 10
59.884297
 20
44.066844
 30
0.0
 10
59.708174
 20
43.890718
 30
0.0
  0
SPLINE
  5
255
100
AcDbEntity
  8
0
 62
7
100
AcDbSpline
 70
8
 71
3
 72
8
 73
4
 74
0
 40
0
 40
0
 40
0
 40
0
 40
1
 40
1
 40
1
 40
1
 10
59.708174
 20
43.890718
 30
0.0
 10
59.643880
 20
43.826427
 30
0.0
 10
58.964330
 20
44.497522
 30
0.0
 10
58.198057
 20
45.382042
 30
0.0
  0
LWPOLYLINE
  5
256
100
AcDbEntity
  8
0
 62
7
100
AcDbPolyline
 90
5
 70
0
 10
52.545647
 20
48.224797
 30
0.0
 10
52.321164
 20
47.497193
 30
0.0
 10
53.805055
 20
47.497193
 30
0.0
 10
55.288947
 20
47.497193
 30
0.0
 10
55.284158
 20
48.621672
 30
0.0
  0
SPLINE
  5
257
100
AcDbEntity
  8
0
 62
7
100
AcDbSpline
 70
8
 71
3
 72
8
 73
4
 74
0
 40
0
 40
0
 40
0
 40
0
 40
1
 40
1
 40
1
 40
1
 10
56.338732
 20
46.223817
 30
0.0
 10
56.082377
 20
45.802275
 30
0.0
 10
55.449049
 20
45.195588
 30
0.0
 10
54.931339
 20
44.875625
 30
0.0
  0
SPLINE
  5
258
100
AcDbEntity
  8
0
 62
7
100
AcDbSpline
 70
8
 71
3
 72
8
 73
4
 74
0
 40
0
 40
0
 40
0
 40
0
 40
1
 40
1
 40
1
 40
1
 10
54.931339
 20
44.875625
 30
0.0
 10
54.364975
 20
44.525591
 30
0.0
 10
53.858708
 20
43.930663
 30
0.0
 10
53.660307
 20
43.381991
 30
0.0
  0
SPLINE
  5
259
100
AcDbEntity
  8
0
 62
7
100
AcDbSpline
 70
8
 71
3
 72
8
 73
4
 74
0
 40
0
 40
0
 40
0
 40
0
 40
1
 40
1
 40
1
 40
1
 10
53.660307
 20
43.381991
 30
0.0
 10
53.478949
 20
42.880457
 30
0.0
 10
53.265186
 20
42.473422
 30
0.0
 10
53.185280
 20
42.477470
 30
0.0
  0
SPLINE
  5
25a
100
AcDbEntity
  8
0
 62
7
100
AcDbSpline
 70
8
 71
3
 72
8
 73
4
 74
0
 40
0
 40
0
 40
0
 40
0
 40
1
 40
1
 40
1
 40
1
 10
53.185280
 20
42.477470
 30
0.0
 10
53.105373
 20
42.481519
 30
0.0
 10
52.572301
 20
42.838706
 30
0.0
 10
52.000674
 20
43.271220
 30
0.0
  0
SPLINE
  5
25b
100
AcDbEntity
  8
0
 62
7
100
AcDbSpline
 70
8
 71
3
 72
8
 73
4
 74
0
 40
0
 40
0
 40
0
 40
0
 40
1
 40
1
 40
1
 40
1
 10
52.000674
 20
43.271220
 30
0.0
 10
50.771192
 20
44.201490
 30
0.0
 10
50.526447
 20
44.241601
 30
0.0
 10
50.526447
 20
43.512827
 30
0.0
  0
SPLINE
  5
25c
100
AcDbEntity
  8
0
 62
7
100
AcDbSpline
 70
8
 71
3
 72
8
 73
4
 74
0
 40
0
 40
0
 40
0
 40
0
 40
1
 40
1
 40
1
 40
1
 10
50.526447
 20
43.512827
 30
0.0
 10
50.526447
 20
43.195486
 30
0.0
 10
50.409028
 20
43.040617
 30
0.0
 10
50.245193
 20
43.141871
 30
0.0
  0
SPLINE
  5
25d
100
AcDbEntity
  8
0
 62
7
100
AcDbSpline
 70
8
 71
3
 72
8
 73
4
 74
0
 40
0
 40
0
 40
0
 40
0
 40
1
 40
1
 40
1
 40
1
 10
50.245193
 20
43.141871
 30
0.0
 10
50.090501
 20
43.237475
 30
0.0
 10
49.743347
 20
43.116074
 30
0.0
 10
49.473739
 20
42.872075
 30
0.0
  0
SPLINE
  5
25e
100
AcDbEntity
  8
0
 62
7
100
AcDbSpline
 70
8
 71
3
 72
8
 73
4
 74
0
 40
0
 40
0
 40
0
 40
0
 40
1
 40
1
 40
1
 40
1
 10
49.473739
 20
42.872075
 30
0.0
 10
49.008165
 20
42.450737
 30
0.0
 10
48.960971
 20
42.476015
 30
0.0
 10
48.534222
 20
43.375323
 30
0.0
  0
LWPOLYLINE
  5
25f
100
AcDbEntity
  8
0
 62
7
100
AcDbPolyline
 90
3
 70
0
 10
58.198057
 20
45.382042
 30
0.0
 10
56.804835
 20
46.990259
 30
0.0
 10
56.338732
 20
46.223817
 30
0.0
  0
SPLINE
  5
260
100
AcDbEntity
  8
0
 62
7
100
AcDbSpline
 70
8
 71
3
 72
8
 73
4
 74
0
 40
0
 40
0
 40
0
 40
0
 40
1
 40
1
 40
1
 40
1
 10
23.671240
 20
54.232252
 30
0.0
 10
21.822726
 20
54.658773
 30
0.0
 10
19.349375
 20
55.568956
 30
0.0
 10
18.770234
 20
56.035803
 30
0.0
  0
SPLINE
  5
261
100
AcDbEntity
  8
0
 62
7
100
AcDbSpline
 70
8
 71
3
 72
8
 73
4
 74
0
 40
0
 40
0
 40
0
 40
0
 40
1
 40
1
 40
1
 40
1
 10
18.770234
 20
56.035803
 30
0.0
 10
17.831230
 20
56.792736
 30
0.0
 10
17.164202
 20
58.002051
 30
0.0
 10
16.519042
 20
60.117209
 30
0.0
  0
SPLINE
  5
262
100
AcDbEntity
  8
0
 62
7
100
AcDbSpline
 70
8
 71
3
 72
8
 73
4
 74
0
 40
0
 40
0
 40
0
 40
0
 40
1
 40
1
 40
1
 40
1
 10
16.519042
 20
60.117209
 30
0.0
 10
16.141379
 20
61.355367
 30
0.0
 10
15.877102
 20
62.413126
 30
0.0
 10
15.931760
 20
62.467781
 30
0.0
  0
SPLINE
  5
263
100
AcDbEntity
  8
0
 62
7
100
AcDbSpline
 70
8
 71
3
 72
8
 73
4
 74
0
 40
0
 40
0
 40
0
 40
0
 40
1
 40
1
 40
1
 40
1
 10
15.931760
 20
62.467781
 30
0.0
 10
15.986415
 20
62.522439
 30
0.0
 10
16.409391
 20
61.646964
 30
0.0
 10
16.871700
 20
60.522279
 30
0.0
  0
SPLINE
  5
264
100
AcDbEntity
  8
0
 62
7
100
AcDbSpline
 70
8
 71
3
 72
8
 73
4
 74
0
 40
0
 40
0
 40
0
 40
0
 40
1
 40
1
 40
1
 40
1
 10
16.871700
 20
60.522279
 30
0.0
 10
17.334012
 20
59.397596
 30
0.0
 10
17.932483
 20
58.119179
 30
0.0
 10
18.201639
 20
57.681355
 30
0.0
  0
SPLINE
  5
265
100
AcDbEntity
  8
0
 62
7
100
AcDbSpline
 70
8
 71
3
 72
8
 73
4
 74
0
 40
0
 40
0
 40
0
 40
0
 40
1
 40
1
 40
1
 40
1
 10
18.201639
 20
57.681355
 30
0.0
 10
18.742775
 20
56.801107
 30
0.0
 10
21.017766
 20
55.566366
 30
0.0
 10
23.142074
 20
54.999956
 30
0.0
  0
SPLINE
  5
266
100
AcDbEntity
  8
0
 62
7
100
AcDbSpline
 70
8
 71
3
 72
8
 73
4
 74
0
 40
0
 40
0
 40
0
 40
0
 40
1
 40
1
 40
1
 40
1
 10
23.142074
 20
54.999956
 30
0.0
 10
26.072146
 20
54.218702
 30
0.0
 10
30.881876
 20
54.835383
 30
0.0
 10
33.408903
 20
56.316322
 30
0.0
  0
SPLINE
  5
267
100
AcDbEntity
  8
0
 62
7
100
AcDbSpline
 70
8
 71
3
 72
8
 73
4
 74
0
 40
0
 40
0
 40
0
 40
0
 40
1
 40
1
 40
1
 40
1
 10
33.408903
 20
56.316322
 30
0.0
 10
34.818939
 20
57.142655
 30
0.0
 10
37.892646
 20
60.358576
 30
0.0
 10
38.602727
 20
61.750448
 30
0.0
  0
SPLINE
  5
268
100
AcDbEntity
  8
0
 62
7
100
AcDbSpline
 70
8
 71
3
 72
8
 73
4
 74
0
 40
0
 40
0
 40
0
 40
0
 40
1
 40
1
 40
1
 40
1
 10
38.602727
 20
61.750448
 30
0.0
 10
38.890980
 20
62.315471
 30
0.0
 10
39.311892
 20
62.848778
 30
0.0
 10
39.538087
 20
62.935578
 30
0.0
  0
SPLINE
  5
269
100
AcDbEntity
  8
0
 62
7
100
AcDbSpline
 70
8
 71
3
 72
8
 73
4
 74
0
 40
0
 40
0
 40
0
 40
0
 40
1
 40
1
 40
1
 40
1
 10
39.538087
 20
62.935578
 30
0.0
 10
39.907131
 20
63.077193
 30
0.0
 10
39.908819
 20
63.015011
 30
0.0
 10
39.554544
 20
62.329915
 30
0.0
  0
SPLINE
  5
26a
100
AcDbEntity
  8
0
 62
7
100
AcDbSpline
 70
8
 71
3
 72
8
 73
4
 74
0
 40
0
 40
0
 40
0
 40
0
 40
1
 40
1
 40
1
 40
1
 10
39.554544
 20
62.329915
 30
0.0
 10
39.337398
 20
61.910002
 30
0.0
 10
38.439706
 20
60.610888
 30
0.0
 10
37.559676
 20
59.442998
 30
0.0
  0
SPLINE
  5
26b
100
AcDbEntity
  8
0
 62
7
100
AcDbSpline
 70
8
 71
3
 72
8
 73
4
 74
0
 40
0
 40
0
 40
0
 40
0
 40
1
 40
1
 40
1
 40
1
 10
37.559676
 20
59.442998
 30
0.0
 10
35.313646
 20
56.462292
 30
0.0
 10
33.634574
 20
55.223968
 30
0.0
 10
30.814992
 20
54.468760
 30
0.0
  0
SPLINE
  5
26c
100
AcDbEntity
  8
0
 62
7
100
AcDbSpline
 70
8
 71
3
 72
8
 73
4
 74
0
 40
0
 40
0
 40
0
 40
0
 40
1
 40
1
 40
1
 40
1
 10
30.814992
 20
54.468760
 30
0.0
 10
28.777083
 20
53.922922
 30
0.0
 10
25.484319
 20
53.813906
 30
0.0
 10
23.671243
 20
54.232252
 30
0.0
  0
LWPOLYLINE
  5
26d
100
AcDbEntity
  8
0
 62
7
100
AcDbPolyline
 90
1
 70
1
 10
48.534222
 20
43.375323
 30
0.0
  0
SPLINE
  5
26e
100
AcDbEntity
  8
0
 62
7
100
AcDbSpline
 70
8
 71
3
 72
8
 73
4
 74
0
 40
0
 40
0
 40
0
 40
0
 40
1
 40
1
 40
1
 40
1
 10
11.151776
 20
55.633131
 30
0.0
 10
10.649637
 20
56.339886
 30
0.0
 10
9.516032
 20
59.613869
 30
0.0
 10
9.516032
 20
60.357356
 30
0.0
  0
SPLINE
  5
26f
100
AcDbEntity
  8
0
 62
7
100
AcDbSpline
 70
8
 71
3
 72
8
 73
4
 74
0
 40
0
 40
0
 40
0
 40
0
 40
1
 40
1
 40
1
 40
1
 10
9.516032
 20
60.357356
 30
0.0
 10
9.516032
 20
60.560307
 30
0.0
 10
9.623903
 20
60.726360
 30
0.0
 10
9.755742
 20
60.726360
 30
0.0
  0
SPLINE
  5
270
100
AcDbEntity
  8
0
 62
7
100
AcDbSpline
 70
8
 71
3
 72
8
 73
4
 74
0
 40
0
 40
0
 40
0
 40
0
 40
1
 40
1
 40
1
 40
1
 10
9.755742
 20
60.726360
 30
0.0
 10
10.064122
 20
60.726360
 30
0.0
 10
10.838949
 20
58.461558
 30
0.0
 10
10.838949
 20
57.560170
 30
0.0
  0
SPLINE
  5
271
100
AcDbEntity
  8
0
 62
7
100
AcDbSpline
 70
8
 71
3
 72
8
 73
4
 74
0
 40
0
 40
0
 40
0
 40
0
 40
1
 40
1
 40
1
 40
1
 10
10.838949
 20
57.560170
 30
0.0
 10
10.838949
 20
57.180300
 30
0.0
 10
11.064239
 20
56.427603
 30
0.0
 10
11.339593
 20
55.887512
 30
0.0
  0
SPLINE
  5
272
100
AcDbEntity
  8
0
 62
7
100
AcDbSpline
 70
8
 71
3
 72
8
 73
4
 74
0
 40
0
 40
0
 40
0
 40
0
 40
1
 40
1
 40
1
 40
1
 10
11.339593
 20
55.887512
 30
0.0
 10
11.933424
 20
54.722750
 30
0.0
 10
11.864712
 20
54.629685
 30
0.0
 10
11.151776
 20
55.633131
 30
0.0
  0
LWPOLYLINE
  5
273
100
AcDbEntity
  8
0
 62
7
100
AcDbPolyline
 90
1
 70
1
 10
23.671243
 20
54.232252
 30
0.0
  0
SPLINE
  5
274
100
AcDbEntity
  8
0
 62
7
100
AcDbSpline
 70
8
 71
3
 72
8
 73
4
 74
0
 40
0
 40
0
 40
0
 40
0
 40
1
 40
1
 40
1
 40
1
 10
81.973878
 20
56.338446
 30
0.0
 10
81.738848
 20
56.854281
 30
0.0
 10
81.810773
 20
57.352054
 30
0.0
 10
82.346631
 20
58.918134
 30
0.0
  0
SPLINE
  5
275
100
AcDbEntity
  8
0
 62
7
100
AcDbSpline
 70
8
 71
3
 72
8
 73
4
 74
0
 40
0
 40
0
 40
0
 40
0
 40
1
 40
1
 40
1
 40
1
 10
82.346631
 20
58.918134
 30
0.0
 10
83.416704
 20
62.045501
 30
0.0
 10
83.447387
 20
62.416537
 30
0.0
 10
82.799388
 20
64.393114
 30
0.0
  0
LWPOLYLINE
  5
276
100
AcDbEntity
  8
0
 62
7
100
AcDbPolyline
 90
1
 70
1
 10
11.151776
 20
55.633131
 30
0.0
  0
SPLINE
  5
277
100
AcDbEntity
  8
0
 62
7
100
AcDbSpline
 70
8
 71
3
 72
8
 73
4
 74
0
 40
0
 40
0
 40
0
 40
0
 40
1
 40
1
 40
1
 40
1
 10
83.002435
 20
67.750584
 30
0.0
 10
84.006378
 20
69.758142
 30
0.0
 10
85.012432
 20
72.801856
 30
0.0
 10
84.790664
 20
73.160684
 30
0.0
  0
SPLINE
  5
278
100
AcDbEntity
  8
0
 62
7
100
AcDbSpline
 70
8
 71
3
 72
8
 73
4
 74
0
 40
0
 40
0
 40
0
 40
0
 40
1
 40
1
 40
1
 40
1
 10
84.790664
 20
73.160684
 30
0.0
 10
84.413521
 20
73.770913
 30
0.0
 10
85.285236
 20
75.256385
 30
0.0
 10
87.021718
 20
76.962571
 30
0.0
  0
LWPOLYLINE
  5
279
100
AcDbEntity
  8
0
 62
7
100
AcDbPolyline
 90
3
 70
0
 10
82.799388
 20
64.393114
 30
0.0
 10
82.214940
 20
66.175853
 30
0.0
 10
83.002435
 20
67.750584
 30
0.0
  0
SPLINE
  5
27a
100
AcDbEntity
  8
0
 62
7
100
AcDbSpline
 70
8
 71
3
 72
8
 73
4
 74
0
 40
0
 40
0
 40
0
 40
0
 40
1
 40
1
 40
1
 40
1
 10
89.135532
 20
77.748180
 30
0.0
 10
89.290475
 20
77.190190
 30
0.0
 10
89.417911
 20
75.376656
 30
0.0
 10
89.418721
 20
73.718108
 30
0.0
  0
SPLINE
  5
27b
100
AcDbEntity
  8
0
 62
7
100
AcDbSpline
 70
8
 71
3
 72
8
 73
4
 74
0
 40
0
 40
0
 40
0
 40
0
 40
1
 40
1
 40
1
 40
1
 10
89.418721
 20
73.718108
 30
0.0
 10
89.420044
 20
71.243198
 30
0.0
 10
89.313470
 20
70.413084
 30
0.0
 10
88.824885
 20
69.087899
 30
0.0
  0
LWPOLYLINE
  5
27c
100
AcDbEntity
  8
0
 62
7
100
AcDbPolyline
 90
3
 70
0
 10
87.021718
 20
76.962571
 30
0.0
 10
88.853820
 20
78.762712
 30
0.0
 10
89.135532
 20
77.748180
 30
0.0
  0
SPLINE
  5
27d
100
AcDbEntity
  8
0
 62
7
100
AcDbSpline
 70
8
 71
3
 72
8
 73
4
 74
0
 40
0
 40
0
 40
0
 40
0
 40
1
 40
1
 40
1
 40
1
 10
88.042541
 20
69.722193
 30
0.0
 10
87.825490
 20
72.332114
 30
0.0
 10
87.183521
 20
75.166067
 30
0.0
 10
86.993669
 20
74.352401
 30
0.0
  0
SPLINE
  5
27e
100
AcDbEntity
  8
0
 62
7
100
AcDbSpline
 70
8
 71
3
 72
8
 73
4
 74
0
 40
0
 40
0
 40
0
 40
0
 40
1
 40
1
 40
1
 40
1
 10
86.993669
 20
74.352401
 30
0.0
 10
86.925764
 20
74.061360
 30
0.0
 10
87.025943
 20
73.287453
 30
0.0
 10
87.216295
 20
72.632610
 30
0.0
  0
SPLINE
  5
27f
100
AcDbEntity
  8
0
 62
7
100
AcDbSpline
 70
8
 71
3
 72
8
 73
4
 74
0
 40
0
 40
0
 40
0
 40
0
 40
1
 40
1
 40
1
 40
1
 10
87.216295
 20
72.632610
 30
0.0
 10
87.669830
 20
71.072354
 30
0.0
 10
87.659279
 20
69.475834
 30
0.0
 10
87.187971
 20
68.347839
 30
0.0
  0
SPLINE
  5
280
100
AcDbEntity
  8
0
 62
7
100
AcDbSpline
 70
8
 71
3
 72
8
 73
4
 74
0
 40
0
 40
0
 40
0
 40
0
 40
1
 40
1
 40
1
 40
1
 10
87.187971
 20
68.347839
 30
0.0
 10
86.918361
 20
67.702570
 30
0.0
 10
86.849961
 20
66.866159
 30
0.0
 10
86.952733
 20
65.471257
 30
0.0
  0
SPLINE
  5
281
100
AcDbEntity
  8
0
 62
7
100
AcDbSpline
 70
8
 71
3
 72
8
 73
4
 74
0
 40
0
 40
0
 40
0
 40
0
 40
1
 40
1
 40
1
 40
1
 10
86.952733
 20
65.471257
 30
0.0
 10
87.070168
 20
63.877343
 30
0.0
 10
86.987639
 20
63.178449
 30
0.0
 10
86.517406
 20
61.784693
 30
0.0
  0
SPLINE
  5
282
100
AcDbEntity
  8
0
 62
7
100
AcDbSpline
 70
8
 71
3
 72
8
 73
4
 74
0
 40
0
 40
0
 40
0
 40
0
 40
1
 40
1
 40
1
 40
1
 10
86.517406
 20
61.784693
 30
0.0
 10
86.198276
 20
60.838808
 30
0.0
 10
85.729048
 20
59.826776
 30
0.0
 10
85.474675
 20
59.535735
 30
0.0
  0
SPLINE
  5
283
100
AcDbEntity
  8
0
 62
7
100
AcDbSpline
 70
8
 71
3
 72
8
 73
4
 74
0
 40
0
 40
0
 40
0
 40
0
 40
1
 40
1
 40
1
 40
1
 10
85.474675
 20
59.535735
 30
0.0
 10
85.220305
 20
59.244693
 30
0.0
 10
84.861149
 20
58.470787
 30
0.0
 10
84.676549
 20
57.815943
 30
0.0
  0
SPLINE
  5
284
100
AcDbEntity
  8
0
 62
7
100
AcDbSpline
 70
8
 71
3
 72
8
 73
4
 74
0
 40
0
 40
0
 40
0
 40
0
 40
1
 40
1
 40
1
 40
1
 10
84.676549
 20
57.815943
 30
0.0
 10
84.491952
 20
57.161099
 30
0.0
 10
84.155613
 20
56.416959
 30
0.0
 10
83.929133
 20
56.162297
 30
0.0
  0
SPLINE
  5
285
100
AcDbEntity
  8
0
 62
7
100
AcDbSpline
 70
8
 71
3
 72
8
 73
4
 74
0
 40
0
 40
0
 40
0
 40
0
 40
1
 40
1
 40
1
 40
1
 10
83.929133
 20
56.162297
 30
0.0
 10
83.324121
 20
55.482006
 30
0.0
 10
82.323006
 20
55.572194
 30
0.0
 10
81.973878
 20
56.338446
 30
0.0
  0
LWPOLYLINE
  5
286
100
AcDbEntity
  8
0
 62
7
100
AcDbPolyline
 90
3
 70
0
 10
88.824885
 20
69.087899
 30
0.0
 10
88.229572
 20
67.473235
 30
0.0
 10
88.042541
 20
69.722193
 30
0.0
  0
SPLINE
  5
287
100
AcDbEntity
  8
0
 62
7
100
AcDbSpline
 70
8
 71
3
 72
8
 73
4
 74
0
 40
0
 40
0
 40
0
 40
0
 40
1
 40
1
 40
1
 40
1
 10
28.760058
 20
58.907108
 30
0.0
 10
28.939532
 20
59.087930
 30
0.0
 10
29.153027
 20
59.169223
 30
0.0
 10
29.234490
 20
59.087761
 30
0.0
  0
SPLINE
  5
288
100
AcDbEntity
  8
0
 62
7
100
AcDbSpline
 70
8
 71
3
 72
8
 73
4
 74
0
 40
0
 40
0
 40
0
 40
0
 40
1
 40
1
 40
1
 40
1
 10
29.234490
 20
59.087761
 30
0.0
 10
29.315952
 20
59.006298
 30
0.0
 10
29.169109
 20
58.858354
 30
0.0
 10
28.908169
 20
58.758995
 30
0.0
  0
SPLINE
  5
289
100
AcDbEntity
  8
0
 62
7
100
AcDbSpline
 70
8
 71
3
 72
8
 73
4
 74
0
 40
0
 40
0
 40
0
 40
0
 40
1
 40
1
 40
1
 40
1
 10
28.908169
 20
58.758995
 30
0.0
 10
28.531087
 20
58.615411
 30
0.0
 10
28.500694
 20
58.645801
 30
0.0
 10
28.760058
 20
58.907108
 30
0.0
  0
LWPOLYLINE
  5
28a
100
AcDbEntity
  8
0
 62
7
100
AcDbPolyline
 90
1
 70
1
 10
81.973878
 20
56.338446
 30
0.0
  0
SPLINE
  5
28b
100
AcDbEntity
  8
0
 62
7
100
AcDbSpline
 70
8
 71
3
 72
8
 73
4
 74
0
 40
0
 40
0
 40
0
 40
0
 40
1
 40
1
 40
1
 40
1
 10
61.904724
 20
59.591967
 30
0.0
 10
59.969474
 20
60.751532
 30
0.0
 10
57.822521
 20
62.313860
 30
0.0
 10
58.164296
 20
62.313860
 30
0.0
  0
SPLINE
  5
28c
100
AcDbEntity
  8
0
 62
7
100
AcDbSpline
 70
8
 71
3
 72
8
 73
4
 74
0
 40
0
 40
0
 40
0
 40
0
 40
1
 40
1
 40
1
 40
1
 10
58.164296
 20
62.313860
 30
0.0
 10
58.542052
 20
62.313860
 30
0.0
 10
60.654136
 20
61.238270
 30
0.0
 10
61.771239
 20
60.477008
 30
0.0
  0
SPLINE
  5
28d
100
AcDbEntity
  8
0
 62
7
100
AcDbSpline
 70
8
 71
3
 72
8
 73
4
 74
0
 40
0
 40
0
 40
0
 40
0
 40
1
 40
1
 40
1
 40
1
 10
61.771239
 20
60.477008
 30
0.0
 10
62.649944
 20
59.878203
 30
0.0
 10
64.558164
 20
59.747864
 30
0.0
 10
65.759460
 20
60.204596
 30
0.0
  0
SPLINE
  5
28e
100
AcDbEntity
  8
0
 62
7
100
AcDbSpline
 70
8
 71
3
 72
8
 73
4
 74
0
 40
0
 40
0
 40
0
 40
0
 40
1
 40
1
 40
1
 40
1
 10
65.759460
 20
60.204596
 30
0.0
 10
66.797812
 20
60.599376
 30
0.0
 10
66.922060
 20
60.248975
 30
0.0
 10
66.004572
 20
59.513332
 30
0.0
  0
SPLINE
  5
28f
100
AcDbEntity
  8
0
 62
7
100
AcDbSpline
 70
8
 71
3
 72
8
 73
4
 74
0
 40
0
 40
0
 40
0
 40
0
 40
1
 40
1
 40
1
 40
1
 10
66.004572
 20
59.513332
 30
0.0
 10
64.915325
 20
58.639975
 30
0.0
 10
63.446530
 20
58.668145
 30
0.0
 10
61.904724
 20
59.591967
 30
0.0
  0
LWPOLYLINE
  5
290
100
AcDbEntity
  8
0
 62
7
100
AcDbPolyline
 90
1
 70
1
 10
28.760058
 20
58.907108
 30
0.0
  0
SPLINE
  5
291
100
AcDbEntity
  8
0
 62
7
100
AcDbSpline
 70
8
 71
3
 72
8
 73
4
 74
0
 40
0
 40
0
 40
0
 40
0
 40
1
 40
1
 40
1
 40
1
 10
30.089501
 20
59.804131
 30
0.0
 10
30.190943
 20
60.334782
 30
0.0
 10
30.129980
 20
60.436130
 30
0.0
 10
29.788228
 20
60.304990
 30
0.0
  0
SPLINE
  5
292
100
AcDbEntity
  8
0
 62
7
100
AcDbSpline
 70
8
 71
3
 72
8
 73
4
 74
0
 40
0
 40
0
 40
0
 40
0
 40
1
 40
1
 40
1
 40
1
 10
29.788228
 20
60.304990
 30
0.0
 10
29.552582
 20
60.214563
 30
0.0
 10
29.359781
 20
60.258492
 30
0.0
 10
29.359781
 20
60.402610
 30
0.0
  0
SPLINE
  5
293
100
AcDbEntity
  8
0
 62
7
100
AcDbSpline
 70
8
 71
3
 72
8
 73
4
 74
0
 40
0
 40
0
 40
0
 40
0
 40
1
 40
1
 40
1
 40
1
 10
29.359781
 20
60.402610
 30
0.0
 10
29.359781
 20
60.756080
 30
0.0
 10
30.293942
 20
60.982955
 30
0.0
 10
31.767362
 20
60.987331
 30
0.0
  0
SPLINE
  5
294
100
AcDbEntity
  8
0
 62
7
100
AcDbSpline
 70
8
 71
3
 72
8
 73
4
 74
0
 40
0
 40
0
 40
0
 40
0
 40
1
 40
1
 40
1
 40
1
 10
31.767362
 20
60.987331
 30
0.0
 10
32.677256
 20
60.990030
 30
0.0
 10
33.278093
 20
61.190008
 30
0.0
 10
34.148612
 20
61.779878
 30
0.0
  0
SPLINE
  5
295
100
AcDbEntity
  8
0
 62
7
100
AcDbSpline
 70
8
 71
3
 72
8
 73
4
 74
0
 40
0
 40
0
 40
0
 40
0
 40
1
 40
1
 40
1
 40
1
 10
34.148612
 20
61.779878
 30
0.0
 10
35.757649
 20
62.870175
 30
0.0
 10
36.008199
 20
62.774071
 30
0.0
 10
34.795211
 20
61.531857
 30
0.0
  0
SPLINE
  5
296
100
AcDbEntity
  8
0
 62
7
100
AcDbSpline
 70
8
 71
3
 72
8
 73
4
 74
0
 40
0
 40
0
 40
0
 40
0
 40
1
 40
1
 40
1
 40
1
 10
34.795211
 20
61.531857
 30
0.0
 10
34.233130
 20
60.956238
 30
0.0
 10
33.405297
 20
60.405925
 30
0.0
 10
32.955577
 20
60.308945
 30
0.0
  0
SPLINE
  5
297
100
AcDbEntity
  8
0
 62
7
100
AcDbSpline
 70
8
 71
3
 72
8
 73
4
 74
0
 40
0
 40
0
 40
0
 40
0
 40
1
 40
1
 40
1
 40
1
 10
32.955577
 20
60.308945
 30
0.0
 10
32.505859
 20
60.211962
 30
0.0
 10
31.696165
 20
59.909019
 30
0.0
 10
31.156259
 20
59.635737
 30
0.0
  0
SPLINE
  5
298
100
AcDbEntity
  8
0
 62
7
100
AcDbSpline
 70
8
 71
3
 72
8
 73
4
 74
0
 40
0
 40
0
 40
0
 40
0
 40
1
 40
1
 40
1
 40
1
 10
31.156259
 20
59.635737
 30
0.0
 10
29.921105
 20
59.010542
 30
0.0
 10
29.937310
 20
59.007986
 30
0.0
 10
30.089501
 20
59.804131
 30
0.0
  0
LWPOLYLINE
  5
299
100
AcDbEntity
  8
0
 62
7
100
AcDbPolyline
 90
1
 70
1
 10
61.904724
 20
59.591967
 30
0.0
  0
SPLINE
  5
29a
100
AcDbEntity
  8
0
 62
7
100
AcDbSpline
 70
8
 71
3
 72
8
 73
4
 74
0
 40
0
 40
0
 40
0
 40
0
 40
1
 40
1
 40
1
 40
1
 10
23.198803
 20
61.403249
 30
0.0
 10
22.819906
 20
61.782142
 30
0.0
 10
22.444344
 20
62.539264
 30
0.0
 10
22.345715
 20
63.123040
 30
0.0
  0
SPLINE
  5
29b
100
AcDbEntity
  8
0
 62
7
100
AcDbSpline
 70
8
 71
3
 72
8
 73
4
 74
0
 40
0
 40
0
 40
0
 40
0
 40
1
 40
1
 40
1
 40
1
 10
22.345715
 20
63.123040
 30
0.0
 10
22.148148
 20
64.292440
 30
0.0
 10
22.040600
 20
64.366217
 30
0.0
 10
21.500398
 20
63.702922
 30
0.0
  0
SPLINE
  5
29c
100
AcDbEntity
  8
0
 62
7
100
AcDbSpline
 70
8
 71
3
 72
8
 73
4
 74
0
 40
0
 40
0
 40
0
 40
0
 40
1
 40
1
 40
1
 40
1
 10
21.500398
 20
63.702922
 30
0.0
 10
20.887665
 20
62.950572
 30
0.0
 10
21.454683
 20
63.931856
 30
0.0
 10
22.348324
 20
65.170344
 30
0.0
  0
SPLINE
  5
29d
100
AcDbEntity
  8
0
 62
7
100
AcDbSpline
 70
8
 71
3
 72
8
 73
4
 74
0
 40
0
 40
0
 40
0
 40
0
 40
1
 40
1
 40
1
 40
1
 10
22.348324
 20
65.170344
 30
0.0
 10
23.076970
 20
66.180171
 30
0.0
 10
23.218028
 20
66.258358
 30
0.0
 10
24.068115
 20
66.123637
 30
0.0
  0
SPLINE
  5
29e
100
AcDbEntity
  8
0
 62
7
100
AcDbSpline
 70
8
 71
3
 72
8
 73
4
 74
0
 40
0
 40
0
 40
0
 40
0
 40
1
 40
1
 40
1
 40
1
 10
24.068115
 20
66.123637
 30
0.0
 10
24.577438
 20
66.042921
 30
0.0
 10
25.860191
 20
65.671499
 30
0.0
 10
26.918677
 20
65.298259
 30
0.0
  0
SPLINE
  5
29f
100
AcDbEntity
  8
0
 62
7
100
AcDbSpline
 70
8
 71
3
 72
8
 73
4
 74
0
 40
0
 40
0
 40
0
 40
0
 40
1
 40
1
 40
1
 40
1
 10
26.918677
 20
65.298259
 30
0.0
 10
28.895249
 20
64.601286
 30
0.0
 10
29.726102
 20
64.611544
 30
0.0
 10
33.063947
 20
65.374144
 30
0.0
  0
SPLINE
  5
2a0
100
AcDbEntity
  8
0
 62
7
100
AcDbSpline
 70
8
 71
3
 72
8
 73
4
 74
0
 40
0
 40
0
 40
0
 40
0
 40
1
 40
1
 40
1
 40
1
 10
33.063947
 20
65.374144
 30
0.0
 10
33.684477
 20
65.515916
 30
0.0
 10
33.692671
 20
65.504671
 30
0.0
 10
33.196400
 20
65.192407
 30
0.0
  0
SPLINE
  5
2a1
100
AcDbEntity
  8
0
 62
7
100
AcDbSpline
 70
8
 71
3
 72
8
 73
4
 74
0
 40
0
 40
0
 40
0
 40
0
 40
1
 40
1
 40
1
 40
1
 10
33.196400
 20
65.192407
 30
0.0
 10
32.476448
 20
64.739398
 30
0.0
 10
29.991577
 20
64.175124
 30
0.0
 10
28.694404
 20
64.170076
 30
0.0
  0
SPLINE
  5
2a2
100
AcDbEntity
  8
0
 62
7
100
AcDbSpline
 70
8
 71
3
 72
8
 73
4
 74
0
 40
0
 40
0
 40
0
 40
0
 40
1
 40
1
 40
1
 40
1
 10
28.694404
 20
64.170076
 30
0.0
 10
28.110164
 20
64.167695
 30
0.0
 10
27.187861
 20
64.404068
 30
0.0
 10
26.644841
 20
64.695110
 30
0.0
  0
SPLINE
  5
2a3
100
AcDbEntity
  8
0
 62
7
100
AcDbSpline
 70
8
 71
3
 72
8
 73
4
 74
0
 40
0
 40
0
 40
0
 40
0
 40
1
 40
1
 40
1
 40
1
 10
26.644841
 20
64.695110
 30
0.0
 10
25.496966
 20
65.310335
 30
0.0
 10
23.274365
 20
65.427984
 30
0.0
 10
23.274365
 20
64.873521
 30
0.0
  0
SPLINE
  5
2a4
100
AcDbEntity
  8
0
 62
7
100
AcDbSpline
 70
8
 71
3
 72
8
 73
4
 74
0
 40
0
 40
0
 40
0
 40
0
 40
1
 40
1
 40
1
 40
1
 10
23.274365
 20
64.873521
 30
0.0
 10
23.274365
 20
63.891665
 30
0.0
 10
26.157567
 20
62.328991
 30
0.0
 10
27.986331
 20
62.319670
 30
0.0
  0
SPLINE
  5
2a5
100
AcDbEntity
  8
0
 62
7
100
AcDbSpline
 70
8
 71
3
 72
8
 73
4
 74
0
 40
0
 40
0
 40
0
 40
0
 40
1
 40
1
 40
1
 40
1
 10
27.986331
 20
62.319670
 30
0.0
 10
28.677756
 20
62.316151
 30
0.0
 10
29.062074
 20
62.209736
 30
0.0
 10
28.962906
 20
62.049276
 30
0.0
  0
SPLINE
  5
2a6
100
AcDbEntity
  8
0
 62
7
100
AcDbSpline
 70
8
 71
3
 72
8
 73
4
 74
0
 40
0
 40
0
 40
0
 40
0
 40
1
 40
1
 40
1
 40
1
 10
28.962906
 20
62.049276
 30
0.0
 10
28.472723
 20
61.256145
 30
0.0
 10
25.527583
 20
62.087559
 30
0.0
 10
23.869678
 20
63.487094
 30
0.0
  0
LWPOLYLINE
  5
2a7
100
AcDbEntity
  8
0
 62
7
100
AcDbPolyline
 90
1
 70
1
 10
30.089501
 20
59.804131
 30
0.0
  0
SPLINE
  5
2a8
100
AcDbEntity
  8
0
 62
7
100
AcDbSpline
 70
8
 71
3
 72
8
 73
4
 74
0
 40
0
 40
0
 40
0
 40
0
 40
1
 40
1
 40
1
 40
1
 10
23.009782
 20
63.473015
 30
0.0
 10
23.009782
 20
62.976638
 30
0.0
 10
23.332304
 20
62.402752
 30
0.0
 10
23.989518
 20
61.729702
 30
0.0
  0
SPLINE
  5
2a9
100
AcDbEntity
  8
0
 62
7
100
AcDbSpline
 70
8
 71
3
 72
8
 73
4
 74
0
 40
0
 40
0
 40
0
 40
0
 40
1
 40
1
 40
1
 40
1
 10
23.989518
 20
61.729702
 30
0.0
 10
24.843397
 20
60.855251
 30
0.0
 10
24.899015
 20
60.726360
 30
0.0
 10
24.422474
 20
60.726360
 30
0.0
  0
SPLINE
  5
2aa
100
AcDbEntity
  8
0
 62
7
100
AcDbSpline
 70
8
 71
3
 72
8
 73
4
 74
0
 40
0
 40
0
 40
0
 40
0
 40
1
 40
1
 40
1
 40
1
 10
24.422474
 20
60.726360
 30
0.0
 10
24.121744
 20
60.726360
 30
0.0
 10
23.571090
 20
61.030959
 30
0.0
 10
23.198803
 20
61.403249
 30
0.0
  0
LWPOLYLINE
  5
2ab
100
AcDbEntity
  8
0
 62
7
100
AcDbPolyline
 90
3
 70
0
 10
23.869678
 20
63.487094
 30
0.0
 10
23.009782
 20
64.212983
 30
0.0
 10
23.009782
 20
63.473015
 30
0.0
  0
SPLINE
  5
2ac
100
AcDbEntity
  8
0
 62
7
100
AcDbSpline
 70
8
 71
3
 72
8
 73
4
 74
0
 40
0
 40
0
 40
0
 40
0
 40
1
 40
1
 40
1
 40
1
 10
8.523844
 20
61.517210
 30
0.0
 10
7.492647
 20
62.145942
 30
0.0
 10
7.399278
 20
63.005753
 30
0.0
 10
8.193115
 20
64.562818
 30
0.0
  0
SPLINE
  5
2ad
100
AcDbEntity
  8
0
 62
7
100
AcDbSpline
 70
8
 71
3
 72
8
 73
4
 74
0
 40
0
 40
0
 40
0
 40
0
 40
1
 40
1
 40
1
 40
1
 10
8.193115
 20
64.562818
 30
0.0
 10
8.848732
 20
65.848775
 30
0.0
 10
8.841048
 20
66.225256
 30
0.0
 10
8.112756
 20
68.499879
 30
0.0
  0
SPLINE
  5
2ae
100
AcDbEntity
  8
0
 62
7
100
AcDbSpline
 70
8
 71
3
 72
8
 73
4
 74
0
 40
0
 40
0
 40
0
 40
0
 40
1
 40
1
 40
1
 40
1
 10
8.112756
 20
68.499879
 30
0.0
 10
7.744938
 20
69.648657
 30
0.0
 10
7.310587
 20
70.465892
 30
0.0
 10
6.935466
 20
70.714965
 30
0.0
  0
LWPOLYLINE
  5
2af
100
AcDbEntity
  8
0
 62
7
100
AcDbPolyline
 90
1
 70
1
 10
23.198803
 20
61.403249
 30
0.0
  0
SPLINE
  5
2b0
100
AcDbEntity
  8
0
 62
7
100
AcDbSpline
 70
8
 71
3
 72
8
 73
4
 74
0
 40
0
 40
0
 40
0
 40
0
 40
1
 40
1
 40
1
 40
1
 10
6.341032
 20
66.711756
 30
0.0
 10
6.341032
 20
62.585674
 30
0.0
 10
6.119023
 20
61.352790
 30
0.0
 10
5.680119
 20
63.041464
 30
0.0
  0
SPLINE
  5
2b1
100
AcDbEntity
  8
0
 62
7
100
AcDbSpline
 70
8
 71
3
 72
8
 73
4
 74
0
 40
0
 40
0
 40
0
 40
0
 40
1
 40
1
 40
1
 40
1
 10
5.680119
 20
63.041464
 30
0.0
 10
5.576106
 20
63.441646
 30
0.0
 10
5.508711
 20
65.614537
 30
0.0
 10
5.530354
 20
67.870110
 30
0.0
  0
LWPOLYLINE
  5
2b2
100
AcDbEntity
  8
0
 62
7
100
AcDbPolyline
 90
3
 70
0
 10
6.935466
 20
70.714965
 30
0.0
 10
6.341032
 20
71.109652
 30
0.0
 10
6.341032
 20
66.711756
 30
0.0
  0
SPLINE
  5
2b3
100
AcDbEntity
  8
0
 62
7
100
AcDbSpline
 70
8
 71
3
 72
8
 73
4
 74
0
 40
0
 40
0
 40
0
 40
0
 40
1
 40
1
 40
1
 40
1
 10
4.633266
 20
73.823235
 30
0.0
 10
3.613302
 20
75.840516
 30
0.0
 10
3.515115
 20
76.580820
 30
0.0
 10
4.106890
 20
77.791985
 30
0.0
  0
SPLINE
  5
2b4
100
AcDbEntity
  8
0
 62
7
100
AcDbSpline
 70
8
 71
3
 72
8
 73
4
 74
0
 40
0
 40
0
 40
0
 40
0
 40
1
 40
1
 40
1
 40
1
 10
4.106890
 20
77.791985
 30
0.0
 10
4.404499
 20
78.401090
 30
0.0
 10
4.468496
 20
78.445196
 30
0.0
 10
4.382001
 20
77.981590
 30
0.0
  0
SPLINE
  5
2b5
100
AcDbEntity
  8
0
 62
7
100
AcDbSpline
 70
8
 71
3
 72
8
 73
4
 74
0
 40
0
 40
0
 40
0
 40
0
 40
1
 40
1
 40
1
 40
1
 10
4.382001
 20
77.981590
 30
0.0
 10
4.303396
 20
77.560271
 30
0.0
 10
4.807660
 20
76.559423
 30
0.0
 10
6.048342
 20
74.674299
 30
0.0
  0
SPLINE
  5
2b6
100
AcDbEntity
  8
0
 62
7
100
AcDbSpline
 70
8
 71
3
 72
8
 73
4
 74
0
 40
0
 40
0
 40
0
 40
0
 40
1
 40
1
 40
1
 40
1
 10
6.048342
 20
74.674299
 30
0.0
 10
7.026824
 20
73.187568
 30
0.0
 10
8.549038
 20
70.482870
 30
0.0
 10
9.431040
 20
68.663860
 30
0.0
  0
LWPOLYLINE
  5
2b7
100
AcDbEntity
  8
0
 62
7
100
AcDbPolyline
 90
3
 70
0
 10
5.530354
 20
67.870110
 30
0.0
 10
5.569700
 20
71.971151
 30
0.0
 10
4.633266
 20
73.823235
 30
0.0
  0
SPLINE
  5
2b8
100
AcDbEntity
  8
0
 62
7
100
AcDbSpline
 70
8
 71
3
 72
8
 73
4
 74
0
 40
0
 40
0
 40
0
 40
0
 40
1
 40
1
 40
1
 40
1
 10
10.341500
 20
63.174626
 30
0.0
 10
9.960254
 20
61.974558
 30
0.0
 10
9.588792
 20
60.992737
 30
0.0
 10
9.516032
 20
60.992803
 30
0.0
  0
SPLINE
  5
2b9
100
AcDbEntity
  8
0
 62
7
100
AcDbSpline
 70
8
 71
3
 72
8
 73
4
 74
0
 40
0
 40
0
 40
0
 40
0
 40
1
 40
1
 40
1
 40
1
 10
9.516032
 20
60.992803
 30
0.0
 10
9.443272
 20
60.992867
 30
0.0
 10
8.996787
 20
61.228851
 30
0.0
 10
8.523844
 20
61.517210
 30
0.0
  0
LWPOLYLINE
  5
2ba
100
AcDbEntity
  8
0
 62
7
100
AcDbPolyline
 90
3
 70
0
 10
9.431040
 20
68.663860
 30
0.0
 10
11.034679
 20
65.356568
 30
0.0
 10
10.341500
 20
63.174626
 30
0.0
  0
SPLINE
  5
2bb
100
AcDbEntity
  8
0
 62
7
100
AcDbSpline
 70
8
 71
3
 72
8
 73
4
 74
0
 40
0
 40
0
 40
0
 40
0
 40
1
 40
1
 40
1
 40
1
 10
38.364263
 20
64.023229
 30
0.0
 10
38.163878
 20
64.264680
 30
0.0
 10
38.305348
 20
64.627448
 30
0.0
 10
38.883704
 20
65.355213
 30
0.0
  0
SPLINE
  5
2bc
100
AcDbEntity
  8
0
 62
7
100
AcDbSpline
 70
8
 71
3
 72
8
 73
4
 74
0
 40
0
 40
0
 40
0
 40
0
 40
1
 40
1
 40
1
 40
1
 10
38.883704
 20
65.355213
 30
0.0
 10
39.775236
 20
66.477060
 30
0.0
 10
39.920177
 20
67.537849
 30
0.0
 10
39.215510
 20
67.783633
 30
0.0
  0
SPLINE
  5
2bd
100
AcDbEntity
  8
0
 62
7
100
AcDbSpline
 70
8
 71
3
 72
8
 73
4
 74
0
 40
0
 40
0
 40
0
 40
0
 40
1
 40
1
 40
1
 40
1
 10
39.215510
 20
67.783633
 30
0.0
 10
38.960848
 20
67.872459
 30
0.0
 10
38.257496
 20
68.418475
 30
0.0
 10
37.652505
 20
68.997002
 30
0.0
  0
SPLINE
  5
2be
100
AcDbEntity
  8
0
 62
7
100
AcDbSpline
 70
8
 71
3
 72
8
 73
4
 74
0
 40
0
 40
0
 40
0
 40
0
 40
1
 40
1
 40
1
 40
1
 10
37.652505
 20
68.997002
 30
0.0
 10
36.447624
 20
70.149180
 30
0.0
 10
35.351003
 20
70.484640
 30
0.0
 10
32.724720
 20
70.504420
 30
0.0
  0
SPLINE
  5
2bf
100
AcDbEntity
  8
0
 62
7
100
AcDbSpline
 70
8
 71
3
 72
8
 73
4
 74
0
 40
0
 40
0
 40
0
 40
0
 40
1
 40
1
 40
1
 40
1
 10
32.724720
 20
70.504420
 30
0.0
 10
31.187993
 20
70.516009
 30
0.0
 10
29.359781
 20
71.071454
 30
0.0
 10
29.359781
 20
71.526781
 30
0.0
  0
SPLINE
  5
2c0
100
AcDbEntity
  8
0
 62
7
100
AcDbSpline
 70
8
 71
3
 72
8
 73
4
 74
0
 40
0
 40
0
 40
0
 40
0
 40
1
 40
1
 40
1
 40
1
 10
29.359781
 20
71.526781
 30
0.0
 10
29.359781
 20
71.661031
 30
0.0
 10
28.377515
 20
71.850496
 30
0.0
 10
27.176968
 20
71.947815
 30
0.0
  0
SPLINE
  5
2c1
100
AcDbEntity
  8
0
 62
7
100
AcDbSpline
 70
8
 71
3
 72
8
 73
4
 74
0
 40
0
 40
0
 40
0
 40
0
 40
1
 40
1
 40
1
 40
1
 10
27.176968
 20
71.947815
 30
0.0
 10
25.976423
 20
72.045134
 30
0.0
 10
24.173507
 20
72.193891
 30
0.0
 10
23.170493
 20
72.278383
 30
0.0
  0
SPLINE
  5
2c2
100
AcDbEntity
  8
0
 62
7
100
AcDbSpline
 70
8
 71
3
 72
8
 73
4
 74
0
 40
0
 40
0
 40
0
 40
0
 40
1
 40
1
 40
1
 40
1
 10
23.170493
 20
72.278383
 30
0.0
 10
21.654946
 20
72.406050
 30
0.0
 10
21.306114
 20
72.359250
 30
0.0
 10
21.105846
 20
72.001391
 30
0.0
  0
SPLINE
  5
2c3
100
AcDbEntity
  8
0
 62
7
100
AcDbSpline
 70
8
 71
3
 72
8
 73
4
 74
0
 40
0
 40
0
 40
0
 40
0
 40
1
 40
1
 40
1
 40
1
 10
21.105846
 20
72.001391
 30
0.0
 10
20.918894
 20
71.667328
 30
0.0
 10
20.749383
 20
71.632580
 30
0.0
 10
20.349823
 20
71.846419
 30
0.0
  0
SPLINE
  5
2c4
100
AcDbEntity
  8
0
 62
7
100
AcDbSpline
 70
8
 71
3
 72
8
 73
4
 74
0
 40
0
 40
0
 40
0
 40
0
 40
1
 40
1
 40
1
 40
1
 10
20.349823
 20
71.846419
 30
0.0
 10
20.066549
 20
71.998022
 30
0.0
 10
19.834782
 20
72.070561
 30
0.0
 10
19.834782
 20
72.007614
 30
0.0
  0
SPLINE
  5
2c5
100
AcDbEntity
  8
0
 62
7
100
AcDbSpline
 70
8
 71
3
 72
8
 73
4
 74
0
 40
0
 40
0
 40
0
 40
0
 40
1
 40
1
 40
1
 40
1
 10
19.834782
 20
72.007614
 30
0.0
 10
19.834782
 20
71.741887
 30
0.0
 10
21.440604
 20
68.683764
 30
0.0
 10
21.647178
 20
68.556098
 30
0.0
  0
SPLINE
  5
2c6
100
AcDbEntity
  8
0
 62
7
100
AcDbSpline
 70
8
 71
3
 72
8
 73
4
 74
0
 40
0
 40
0
 40
0
 40
0
 40
1
 40
1
 40
1
 40
1
 10
21.647178
 20
68.556098
 30
0.0
 10
21.771479
 20
68.479273
 30
0.0
 10
22.332684
 20
68.650686
 30
0.0
 10
22.894299
 20
68.937013
 30
0.0
  0
SPLINE
  5
2c7
100
AcDbEntity
  8
0
 62
7
100
AcDbSpline
 70
8
 71
3
 72
8
 73
4
 74
0
 40
0
 40
0
 40
0
 40
0
 40
1
 40
1
 40
1
 40
1
 10
22.894299
 20
68.937013
 30
0.0
 10
23.703861
 20
69.349752
 30
0.0
 10
24.451997
 20
69.457610
 30
0.0
 10
26.505307
 20
69.457610
 30
0.0
  0
SPLINE
  5
2c8
100
AcDbEntity
  8
0
 62
7
100
AcDbSpline
 70
8
 71
3
 72
8
 73
4
 74
0
 40
0
 40
0
 40
0
 40
0
 40
1
 40
1
 40
1
 40
1
 10
26.505307
 20
69.457610
 30
0.0
 10
28.870016
 20
69.457610
 30
0.0
 10
29.095197
 20
69.414062
 30
0.0
 10
29.095197
 20
68.956751
 30
0.0
  0
SPLINE
  5
2c9
100
AcDbEntity
  8
0
 62
7
100
AcDbSpline
 70
8
 71
3
 72
8
 73
4
 74
0
 40
0
 40
0
 40
0
 40
0
 40
1
 40
1
 40
1
 40
1
 10
29.095197
 20
68.956751
 30
0.0
 10
29.095197
 20
68.436276
 30
0.0
 10
29.758264
 20
68.022698
 30
0.0
 10
30.177407
 20
68.281740
 30
0.0
  0
SPLINE
  5
2ca
100
AcDbEntity
  8
0
 62
7
100
AcDbSpline
 70
8
 71
3
 72
8
 73
4
 74
0
 40
0
 40
0
 40
0
 40
0
 40
1
 40
1
 40
1
 40
1
 10
30.177407
 20
68.281740
 30
0.0
 10
30.309796
 20
68.363563
 30
0.0
 10
30.418114
 20
68.661605
 30
0.0
 10
30.418114
 20
68.944059
 30
0.0
  0
SPLINE
  5
2cb
100
AcDbEntity
  8
0
 62
7
100
AcDbSpline
 70
8
 71
3
 72
8
 73
4
 74
0
 40
0
 40
0
 40
0
 40
0
 40
1
 40
1
 40
1
 40
1
 10
30.418114
 20
68.944059
 30
0.0
 10
30.418114
 20
69.352909
 30
0.0
 10
30.603730
 20
69.457610
 30
0.0
 10
31.328540
 20
69.457610
 30
0.0
  0
SPLINE
  5
2cc
100
AcDbEntity
  8
0
 62
7
100
AcDbSpline
 70
8
 71
3
 72
8
 73
4
 74
0
 40
0
 40
0
 40
0
 40
0
 40
1
 40
1
 40
1
 40
1
 10
31.328540
 20
69.457610
 30
0.0
 10
32.460107
 20
69.457610
 30
0.0
 10
32.653502
 20
69.163827
 30
0.0
 10
32.275642
 20
68.018901
 30
0.0
  0
SPLINE
  5
2cd
100
AcDbEntity
  8
0
 62
7
100
AcDbSpline
 70
8
 71
3
 72
8
 73
4
 74
0
 40
0
 40
0
 40
0
 40
0
 40
1
 40
1
 40
1
 40
1
 10
32.275642
 20
68.018901
 30
0.0
 10
31.921511
 20
66.945872
 30
0.0
 10
31.103885
 20
66.356214
 30
0.0
 10
29.647145
 20
66.123272
 30
0.0
  0
SPLINE
  5
2ce
100
AcDbEntity
  8
0
 62
7
100
AcDbSpline
 70
8
 71
3
 72
8
 73
4
 74
0
 40
0
 40
0
 40
0
 40
0
 40
1
 40
1
 40
1
 40
1
 10
29.647145
 20
66.123272
 30
0.0
 10
28.239955
 20
65.898252
 30
0.0
 10
27.330752
 20
66.472440
 30
0.0
 10
27.093741
 20
67.735815
 30
0.0
  0
SPLINE
  5
2cf
100
AcDbEntity
  8
0
 62
7
100
AcDbSpline
 70
8
 71
3
 72
8
 73
4
 74
0
 40
0
 40
0
 40
0
 40
0
 40
1
 40
1
 40
1
 40
1
 10
27.093741
 20
67.735815
 30
0.0
 10
26.901759
 20
68.759163
 30
0.0
 10
26.793600
 20
68.809359
 30
0.0
 10
25.777829
 20
68.346542
 30
0.0
  0
SPLINE
  5
2d0
100
AcDbEntity
  8
0
 62
7
100
AcDbSpline
 70
8
 71
3
 72
8
 73
4
 74
0
 40
0
 40
0
 40
0
 40
0
 40
1
 40
1
 40
1
 40
1
 10
25.777829
 20
68.346542
 30
0.0
 10
25.199733
 20
68.083144
 30
0.0
 10
25.106578
 20
67.903312
 30
0.0
 10
25.229599
 20
67.288209
 30
0.0
  0
SPLINE
  5
2d1
100
AcDbEntity
  8
0
 62
7
100
AcDbSpline
 70
8
 71
3
 72
8
 73
4
 74
0
 40
0
 40
0
 40
0
 40
0
 40
1
 40
1
 40
1
 40
1
 10
25.229599
 20
67.288209
 30
0.0
 10
25.401888
 20
66.426763
 30
0.0
 10
25.109121
 20
66.352547
 30
0.0
 10
23.941115
 20
66.961578
 30
0.0
  0
SPLINE
  5
2d2
100
AcDbEntity
  8
0
 62
7
100
AcDbSpline
 70
8
 71
3
 72
8
 73
4
 74
0
 40
0
 40
0
 40
0
 40
0
 40
1
 40
1
 40
1
 40
1
 10
23.941115
 20
66.961578
 30
0.0
 10
23.410739
 20
67.238131
 30
0.0
 10
23.120992
 20
67.277700
 30
0.0
 10
23.055912
 20
67.082464
 30
0.0
  0
SPLINE
  5
2d3
100
AcDbEntity
  8
0
 62
7
100
AcDbSpline
 70
8
 71
3
 72
8
 73
4
 74
0
 40
0
 40
0
 40
0
 40
0
 40
1
 40
1
 40
1
 40
1
 10
23.055912
 20
67.082464
 30
0.0
 10
23.002702
 20
66.922833
 30
0.0
 10
22.665720
 20
66.443484
 30
0.0
 10
22.307067
 20
66.017248
 30
0.0
  0
SPLINE
  5
2d4
100
AcDbEntity
  8
0
 62
7
100
AcDbSpline
 70
8
 71
3
 72
8
 73
4
 74
0
 40
0
 40
0
 40
0
 40
0
 40
1
 40
1
 40
1
 40
1
 10
22.307067
 20
66.017248
 30
0.0
 10
21.604757
 20
65.182599
 30
0.0
 10
20.289355
 20
64.788238
 30
0.0
 10
19.156266
 20
65.072622
 30
0.0
  0
SPLINE
  5
2d5
100
AcDbEntity
  8
0
 62
7
100
AcDbSpline
 70
8
 71
3
 72
8
 73
4
 74
0
 40
0
 40
0
 40
0
 40
0
 40
1
 40
1
 40
1
 40
1
 10
19.156266
 20
65.072622
 30
0.0
 10
18.301167
 20
65.287239
 30
0.0
 10
18.468204
 20
65.910182
 30
0.0
 10
19.355714
 20
65.816440
 30
0.0
  0
SPLINE
  5
2d6
100
AcDbEntity
  8
0
 62
7
100
AcDbSpline
 70
8
 71
3
 72
8
 73
4
 74
0
 40
0
 40
0
 40
0
 40
0
 40
1
 40
1
 40
1
 40
1
 10
19.355714
 20
65.816440
 30
0.0
 10
20.001506
 20
65.748231
 30
0.0
 10
21.699452
 20
66.691753
 30
0.0
 10
21.861109
 20
67.208651
 30
0.0
  0
SPLINE
  5
2d7
100
AcDbEntity
  8
0
 62
7
100
AcDbSpline
 70
8
 71
3
 72
8
 73
4
 74
0
 40
0
 40
0
 40
0
 40
0
 40
1
 40
1
 40
1
 40
1
 10
21.861109
 20
67.208651
 30
0.0
 10
21.945644
 20
67.478952
 30
0.0
 10
19.177083
 20
68.929541
 30
0.0
 10
18.578011
 20
68.928835
 30
0.0
  0
SPLINE
  5
2d8
100
AcDbEntity
  8
0
 62
7
100
AcDbSpline
 70
8
 71
3
 72
8
 73
4
 74
0
 40
0
 40
0
 40
0
 40
0
 40
1
 40
1
 40
1
 40
1
 10
18.578011
 20
68.928835
 30
0.0
 10
18.170487
 20
68.928305
 30
0.0
 10
18.151050
 20
68.601339
 30
0.0
 10
18.535683
 20
68.216709
 30
0.0
  0
SPLINE
  5
2d9
100
AcDbEntity
  8
0
 62
7
100
AcDbSpline
 70
8
 71
3
 72
8
 73
4
 74
0
 40
0
 40
0
 40
0
 40
0
 40
1
 40
1
 40
1
 40
1
 10
18.535683
 20
68.216709
 30
0.0
 10
18.743831
 20
68.008561
 30
0.0
 10
18.491275
 20
67.699329
 30
0.0
 10
17.628115
 20
67.105459
 30
0.0
  0
SPLINE
  5
2da
100
AcDbEntity
  8
0
 62
7
100
AcDbSpline
 70
8
 71
3
 72
8
 73
4
 74
0
 40
0
 40
0
 40
0
 40
0
 40
1
 40
1
 40
1
 40
1
 10
17.628115
 20
67.105459
 30
0.0
 10
16.174205
 20
66.105140
 30
0.0
 10
15.667901
 20
66.073375
 30
0.0
 10
15.330317
 20
66.961292
 30
0.0
  0
SPLINE
  5
2db
100
AcDbEntity
  8
0
 62
7
100
AcDbSpline
 70
8
 71
3
 72
8
 73
4
 74
0
 40
0
 40
0
 40
0
 40
0
 40
1
 40
1
 40
1
 40
1
 10
15.330317
 20
66.961292
 30
0.0
 10
14.731245
 20
68.536968
 30
0.0
 10
15.384109
 20
71.121950
 30
0.0
 10
16.451640
 20
71.401115
 30
0.0
  0
SPLINE
  5
2dc
100
AcDbEntity
  8
0
 62
7
100
AcDbSpline
 70
8
 71
3
 72
8
 73
4
 74
0
 40
0
 40
0
 40
0
 40
0
 40
1
 40
1
 40
1
 40
1
 10
16.451640
 20
71.401115
 30
0.0
 10
16.929318
 20
71.526032
 30
0.0
 10
16.934650
 20
71.580666
 30
0.0
 10
16.543053
 20
72.337930
 30
0.0
  0
SPLINE
  5
2dd
100
AcDbEntity
  8
0
 62
7
100
AcDbSpline
 70
8
 71
3
 72
8
 73
4
 74
0
 40
0
 40
0
 40
0
 40
0
 40
1
 40
1
 40
1
 40
1
 10
16.543053
 20
72.337930
 30
0.0
 10
16.145961
 20
73.105820
 30
0.0
 10
16.160518
 20
73.203766
 30
0.0
 10
16.865834
 20
74.509469
 30
0.0
  0
SPLINE
  5
2de
100
AcDbEntity
  8
0
 62
7
100
AcDbSpline
 70
8
 71
3
 72
8
 73
4
 74
0
 40
0
 40
0
 40
0
 40
0
 40
1
 40
1
 40
1
 40
1
 10
16.865834
 20
74.509469
 30
0.0
 10
17.510843
 20
75.703531
 30
0.0
 10
17.720658
 20
75.887535
 30
0.0
 10
18.521187
 20
75.961190
 30
0.0
  0
SPLINE
  5
2df
100
AcDbEntity
  8
0
 62
7
100
AcDbSpline
 70
8
 71
3
 72
8
 73
4
 74
0
 40
0
 40
0
 40
0
 40
0
 40
1
 40
1
 40
1
 40
1
 10
18.521187
 20
75.961190
 30
0.0
 10
19.025382
 20
76.007576
 30
0.0
 10
20.569001
 20
75.704801
 30
0.0
 10
21.951449
 20
75.288352
 30
0.0
  0
SPLINE
  5
2e0
100
AcDbEntity
  8
0
 62
7
100
AcDbSpline
 70
8
 71
3
 72
8
 73
4
 74
0
 40
0
 40
0
 40
0
 40
0
 40
1
 40
1
 40
1
 40
1
 10
21.951449
 20
75.288352
 30
0.0
 10
24.255197
 20
74.594371
 30
0.0
 10
24.895618
 20
74.521539
 30
0.0
 10
29.624364
 20
74.415751
 30
0.0
  0
SPLINE
  5
2e1
100
AcDbEntity
  8
0
 62
7
100
AcDbSpline
 70
8
 71
3
 72
8
 73
4
 74
0
 40
0
 40
0
 40
0
 40
0
 40
1
 40
1
 40
1
 40
1
 10
29.624364
 20
74.415751
 30
0.0
 10
32.462020
 20
74.352269
 30
0.0
 10
35.093471
 20
74.172889
 30
0.0
 10
35.472031
 20
74.017132
 30
0.0
  0
SPLINE
  5
2e2
100
AcDbEntity
  8
0
 62
7
100
AcDbSpline
 70
8
 71
3
 72
8
 73
4
 74
0
 40
0
 40
0
 40
0
 40
0
 40
1
 40
1
 40
1
 40
1
 10
35.472031
 20
74.017132
 30
0.0
 10
36.086923
 20
73.764135
 30
0.0
 10
36.320913
 20
73.859977
 30
0.0
 10
37.666274
 20
74.915903
 30
0.0
  0
SPLINE
  5
2e3
100
AcDbEntity
  8
0
 62
7
100
AcDbSpline
 70
8
 71
3
 72
8
 73
4
 74
0
 40
0
 40
0
 40
0
 40
0
 40
1
 40
1
 40
1
 40
1
 10
37.666274
 20
74.915903
 30
0.0
 10
39.383264
 20
76.263511
 30
0.0
 10
39.678531
 20
76.845644
 30
0.0
 10
39.678531
 20
78.883158
 30
0.0
  0
SPLINE
  5
2e4
100
AcDbEntity
  8
0
 62
7
100
AcDbSpline
 70
8
 71
3
 72
8
 73
4
 74
0
 40
0
 40
0
 40
0
 40
0
 40
1
 40
1
 40
1
 40
1
 10
39.678531
 20
78.883158
 30
0.0
 10
39.678531
 20
79.784848
 30
0.0
 10
39.778988
 20
80.274671
 30
0.0
 10
39.943114
 20
80.173235
 30
0.0
  0
SPLINE
  5
2e5
100
AcDbEntity
  8
0
 62
7
100
AcDbSpline
 70
8
 71
3
 72
8
 73
4
 74
0
 40
0
 40
0
 40
0
 40
0
 40
1
 40
1
 40
1
 40
1
 10
39.943114
 20
80.173235
 30
0.0
 10
40.088635
 20
80.083298
 30
0.0
 10
40.207697
 20
78.969100
 30
0.0
 10
40.207697
 20
77.697240
 30
0.0
  0
SPLINE
  5
2e6
100
AcDbEntity
  8
0
 62
7
100
AcDbSpline
 70
8
 71
3
 72
8
 73
4
 74
0
 40
0
 40
0
 40
0
 40
0
 40
1
 40
1
 40
1
 40
1
 10
40.207697
 20
77.697240
 30
0.0
 10
40.207697
 20
75.621555
 30
0.0
 10
40.132056
 20
75.265100
 30
0.0
 10
39.468981
 20
74.216088
 30
0.0
  0
LWPOLYLINE
  5
2e7
100
AcDbEntity
  8
0
 62
7
100
AcDbPolyline
 90
1
 70
1
 10
8.523844
 20
61.517210
 30
0.0
  0
SPLINE
  5
2e8
100
AcDbEntity
  8
0
 62
7
100
AcDbSpline
 70
8
 71
3
 72
8
 73
4
 74
0
 40
0
 40
0
 40
0
 40
0
 40
1
 40
1
 40
1
 40
1
 10
40.935077
 20
67.991098
 30
0.0
 10
40.812217
 20
65.583821
 30
0.0
 10
40.709429
 20
65.096887
 30
0.0
 10
40.212478
 20
64.567906
 30
0.0
  0
SPLINE
  5
2e9
100
AcDbEntity
  8
0
 62
7
100
AcDbSpline
 70
8
 71
3
 72
8
 73
4
 74
0
 40
0
 40
0
 40
0
 40
0
 40
1
 40
1
 40
1
 40
1
 10
40.212478
 20
64.567906
 30
0.0
 10
39.499545
 20
63.809025
 30
0.0
 10
38.730206
 20
63.582296
 30
0.0
 10
38.364263
 20
64.023229
 30
0.0
  0
LWPOLYLINE
  5
2ea
100
AcDbEntity
  8
0
 62
7
100
AcDbPolyline
 90
5
 70
0
 10
39.468981
 20
74.216088
 30
0.0
 10
38.730267
 20
73.047408
 30
0.0
 10
39.904289
 20
71.922497
 30
0.0
 10
41.078314
 20
70.797584
 30
0.0
 10
40.935077
 20
67.991098
 30
0.0
  0
SPLINE
  5
2eb
100
AcDbEntity
  8
0
 62
7
100
AcDbSpline
 70
8
 71
3
 72
8
 73
4
 74
0
 40
0
 40
0
 40
0
 40
0
 40
1
 40
1
 40
1
 40
1
 10
33.857697
 20
66.518885
 30
0.0
 10
33.857697
 20
66.648838
 30
0.0
 10
34.050806
 20
66.829265
 30
0.0
 10
34.286830
 20
66.919835
 30
0.0
  0
SPLINE
  5
2ec
100
AcDbEntity
  8
0
 62
7
100
AcDbSpline
 70
8
 71
3
 72
8
 73
4
 74
0
 40
0
 40
0
 40
0
 40
0
 40
1
 40
1
 40
1
 40
1
 10
34.286830
 20
66.919835
 30
0.0
 10
34.712492
 20
67.083175
 30
0.0
 10
34.697162
 20
67.825255
 30
0.0
 10
34.243923
 20
68.996856
 30
0.0
  0
SPLINE
  5
2ed
100
AcDbEntity
  8
0
 62
7
100
AcDbSpline
 70
8
 71
3
 72
8
 73
4
 74
0
 40
0
 40
0
 40
0
 40
0
 40
1
 40
1
 40
1
 40
1
 10
34.243923
 20
68.996856
 30
0.0
 10
34.098132
 20
69.373718
 30
0.0
 10
34.159687
 20
69.424002
 30
0.0
 10
34.567815
 20
69.261440
 30
0.0
  0
SPLINE
  5
2ee
100
AcDbEntity
  8
0
 62
7
100
AcDbSpline
 70
8
 71
3
 72
8
 73
4
 74
0
 40
0
 40
0
 40
0
 40
0
 40
1
 40
1
 40
1
 40
1
 10
34.567815
 20
69.261440
 30
0.0
 10
35.203448
 20
69.008263
 30
0.0
 10
38.056450
 20
66.747297
 30
0.0
 10
38.076264
 20
66.481047
 30
0.0
  0
SPLINE
  5
2ef
100
AcDbEntity
  8
0
 62
7
100
AcDbSpline
 70
8
 71
3
 72
8
 73
4
 74
0
 40
0
 40
0
 40
0
 40
0
 40
1
 40
1
 40
1
 40
1
 10
38.076264
 20
66.481047
 30
0.0
 10
38.084387
 20
66.371907
 30
0.0
 10
37.138531
 20
66.282610
 30
0.0
 10
35.974364
 20
66.282610
 30
0.0
  0
SPLINE
  5
2f0
100
AcDbEntity
  8
0
 62
7
100
AcDbSpline
 70
8
 71
3
 72
8
 73
4
 74
0
 40
0
 40
0
 40
0
 40
0
 40
1
 40
1
 40
1
 40
1
 10
35.974364
 20
66.282610
 30
0.0
 10
34.810197
 20
66.282610
 30
0.0
 10
33.857697
 20
66.388935
 30
0.0
 10
33.857697
 20
66.518885
 30
0.0
  0
LWPOLYLINE
  5
2f1
100
AcDbEntity
  8
0
 62
7
100
AcDbPolyline
 90
1
 70
1
 10
38.364263
 20
64.023229
 30
0.0
  0
SPLINE
  5
2f2
100
AcDbEntity
  8
0
 62
7
100
AcDbSpline
 70
8
 71
3
 72
8
 73
4
 74
0
 40
0
 40
0
 40
0
 40
0
 40
1
 40
1
 40
1
 40
1
 10
60.246289
 20
67.259435
 30
0.0
 10
59.467962
 20
67.462421
 30
0.0
 10
58.496507
 20
69.977736
 30
0.0
 10
59.191551
 20
69.990388
 30
0.0
  0
SPLINE
  5
2f3
100
AcDbEntity
  8
0
 62
7
100
AcDbSpline
 70
8
 71
3
 72
8
 73
4
 74
0
 40
0
 40
0
 40
0
 40
0
 40
1
 40
1
 40
1
 40
1
 10
59.191551
 20
69.990388
 30
0.0
 10
59.300692
 20
69.992505
 30
0.0
 10
59.648114
 20
70.063241
 30
0.0
 10
59.963600
 20
70.147865
 30
0.0
  0
SPLINE
  5
2f4
100
AcDbEntity
  8
0
 62
7
100
AcDbSpline
 70
8
 71
3
 72
8
 73
4
 74
0
 40
0
 40
0
 40
0
 40
0
 40
1
 40
1
 40
1
 40
1
 10
59.963600
 20
70.147865
 30
0.0
 10
60.419462
 20
70.270142
 30
0.0
 10
60.555243
 20
70.174355
 30
0.0
 10
60.625059
 20
69.681230
 30
0.0
  0
SPLINE
  5
2f5
100
AcDbEntity
  8
0
 62
7
100
AcDbSpline
 70
8
 71
3
 72
8
 73
4
 74
0
 40
0
 40
0
 40
0
 40
0
 40
1
 40
1
 40
1
 40
1
 10
60.625059
 20
69.681230
 30
0.0
 10
60.741621
 20
68.857910
 30
0.0
 10
61.441915
 20
68.886237
 30
0.0
 10
61.637770
 20
69.722193
 30
0.0
  0
SPLINE
  5
2f6
100
AcDbEntity
  8
0
 62
7
100
AcDbSpline
 70
8
 71
3
 72
8
 73
4
 74
0
 40
0
 40
0
 40
0
 40
0
 40
1
 40
1
 40
1
 40
1
 10
61.637770
 20
69.722193
 30
0.0
 10
61.775258
 20
70.309020
 30
0.0
 10
61.948256
 20
70.392674
 30
0.0
 10
63.171054
 20
70.463624
 30
0.0
  0
SPLINE
  5
2f7
100
AcDbEntity
  8
0
 62
7
100
AcDbSpline
 70
8
 71
3
 72
8
 73
4
 74
0
 40
0
 40
0
 40
0
 40
0
 40
1
 40
1
 40
1
 40
1
 10
63.171054
 20
70.463624
 30
0.0
 10
64.420618
 20
70.536128
 30
0.0
 10
64.549364
 20
70.491649
 30
0.0
 10
64.549364
 20
69.987464
 30
0.0
  0
SPLINE
  5
2f8
100
AcDbEntity
  8
0
 62
7
100
AcDbSpline
 70
8
 71
3
 72
8
 73
4
 74
0
 40
0
 40
0
 40
0
 40
0
 40
1
 40
1
 40
1
 40
1
 10
64.549364
 20
69.987464
 30
0.0
 10
64.549364
 20
69.171140
 30
0.0
 10
63.878037
 20
68.011183
 30
0.0
 10
63.116989
 20
67.512525
 30
0.0
  0
SPLINE
  5
2f9
100
AcDbEntity
  8
0
 62
7
100
AcDbSpline
 70
8
 71
3
 72
8
 73
4
 74
0
 40
0
 40
0
 40
0
 40
0
 40
1
 40
1
 40
1
 40
1
 10
63.116989
 20
67.512525
 30
0.0
 10
62.485831
 20
67.098974
 30
0.0
 10
61.271923
 20
66.991952
 30
0.0
 10
60.246289
 20
67.259435
 30
0.0
  0
LWPOLYLINE
  5
2fa
100
AcDbEntity
  8
0
 62
7
100
AcDbPolyline
 90
1
 70
1
 10
33.857697
 20
66.518885
 30
0.0
  0
SPLINE
  5
2fb
100
AcDbEntity
  8
0
 62
7
100
AcDbSpline
 70
8
 71
3
 72
8
 73
4
 74
0
 40
0
 40
0
 40
0
 40
0
 40
1
 40
1
 40
1
 40
1
 10
15.542272
 20
75.410735
 30
0.0
 10
15.195845
 20
76.432439
 30
0.0
 10
14.014097
 20
80.808333
 30
0.0
 10
14.027765
 20
81.018801
 30
0.0
  0
SPLINE
  5
2fc
100
AcDbEntity
  8
0
 62
7
100
AcDbSpline
 70
8
 71
3
 72
8
 73
4
 74
0
 40
0
 40
0
 40
0
 40
0
 40
1
 40
1
 40
1
 40
1
 10
14.027765
 20
81.018801
 30
0.0
 10
14.035359
 20
81.135823
 30
0.0
 10
14.457208
 20
80.101392
 30
0.0
 10
14.965194
 20
78.720066
 30
0.0
  0
SPLINE
  5
2fd
100
AcDbEntity
  8
0
 62
7
100
AcDbSpline
 70
8
 71
3
 72
8
 73
4
 74
0
 40
0
 40
0
 40
0
 40
0
 40
1
 40
1
 40
1
 40
1
 10
14.965194
 20
78.720066
 30
0.0
 10
15.473181
 20
77.338740
 30
0.0
 10
15.851207
 20
75.909990
 30
0.0
 10
15.805252
 20
75.545066
 30
0.0
  0
SPLINE
  5
2fe
100
AcDbEntity
  8
0
 62
7
100
AcDbSpline
 70
8
 71
3
 72
8
 73
4
 74
0
 40
0
 40
0
 40
0
 40
0
 40
1
 40
1
 40
1
 40
1
 10
15.805252
 20
75.545066
 30
0.0
 10
15.729711
 20
74.945211
 30
0.0
 10
15.704485
 20
74.932326
 30
0.0
 10
15.542272
 20
75.410735
 30
0.0
  0
LWPOLYLINE
  5
2ff
100
AcDbEntity
  8
0
 62
7
100
AcDbPolyline
 90
1
 70
1
 10
60.246289
 20
67.259435
 30
0.0
  0
SPLINE
  5
300
100
AcDbEntity
  8
0
 62
7
100
AcDbSpline
 70
8
 71
3
 72
8
 73
4
 74
0
 40
0
 40
0
 40
0
 40
0
 40
1
 40
1
 40
1
 40
1
 10
52.495246
 20
76.980423
 30
0.0
 10
51.790494
 20
77.500575
 30
0.0
 10
52.319439
 20
78.012404
 30
0.0
 10
53.635182
 20
78.083471
 30
0.0
  0
SPLINE
  5
301
100
AcDbEntity
  8
0
 62
7
100
AcDbSpline
 70
8
 71
3
 72
8
 73
4
 74
0
 40
0
 40
0
 40
0
 40
0
 40
1
 40
1
 40
1
 40
1
 10
53.635182
 20
78.083471
 30
0.0
 10
54.180952
 20
78.112948
 30
0.0
 10
55.579989
 20
78.373597
 30
0.0
 10
56.744156
 20
78.662689
 30
0.0
  0
SPLINE
  5
302
100
AcDbEntity
  8
0
 62
7
100
AcDbSpline
 70
8
 71
3
 72
8
 73
4
 74
0
 40
0
 40
0
 40
0
 40
0
 40
1
 40
1
 40
1
 40
1
 10
56.744156
 20
78.662689
 30
0.0
 10
59.078977
 20
79.242486
 30
0.0
 10
66.913609
 20
79.714796
 30
0.0
 10
67.900135
 20
79.335228
 30
0.0
  0
SPLINE
  5
303
100
AcDbEntity
  8
0
 62
7
100
AcDbSpline
 70
8
 71
3
 72
8
 73
4
 74
0
 40
0
 40
0
 40
0
 40
0
 40
1
 40
1
 40
1
 40
1
 10
67.900135
 20
79.335228
 30
0.0
 10
68.251745
 20
79.199946
 30
0.0
 10
66.719847
 20
79.083509
 30
0.0
 10
63.931385
 20
79.033568
 30
0.0
  0
SPLINE
  5
304
100
AcDbEntity
  8
0
 62
7
100
AcDbSpline
 70
8
 71
3
 72
8
 73
4
 74
0
 40
0
 40
0
 40
0
 40
0
 40
1
 40
1
 40
1
 40
1
 10
63.931385
 20
79.033568
 30
0.0
 10
60.265048
 20
78.967909
 30
0.0
 10
58.905667
 20
78.833244
 30
0.0
 10
56.876447
 20
78.334693
 30
0.0
  0
SPLINE
  5
305
100
AcDbEntity
  8
0
 62
7
100
AcDbSpline
 70
8
 71
3
 72
8
 73
4
 74
0
 40
0
 40
0
 40
0
 40
0
 40
1
 40
1
 40
1
 40
1
 10
56.876447
 20
78.334693
 30
0.0
 10
55.493999
 20
77.995044
 30
0.0
 10
54.024660
 20
77.639706
 30
0.0
 10
53.611246
 20
77.545052
 30
0.0
  0
SPLINE
  5
306
100
AcDbEntity
  8
0
 62
7
100
AcDbSpline
 70
8
 71
3
 72
8
 73
4
 74
0
 40
0
 40
0
 40
0
 40
0
 40
1
 40
1
 40
1
 40
1
 10
53.611246
 20
77.545052
 30
0.0
 10
53.097195
 20
77.427354
 30
0.0
 10
52.906382
 20
77.250999
 30
0.0
 10
53.007628
 20
76.987157
 30
0.0
  0
SPLINE
  5
307
100
AcDbEntity
  8
0
 62
7
100
AcDbSpline
 70
8
 71
3
 72
8
 73
4
 74
0
 40
0
 40
0
 40
0
 40
0
 40
1
 40
1
 40
1
 40
1
 10
53.007628
 20
76.987157
 30
0.0
 10
53.191606
 20
76.507718
 30
0.0
 10
53.136689
 20
76.506996
 30
0.0
 10
52.495246
 20
76.980410
 30
0.0
  0
LWPOLYLINE
  5
308
100
AcDbEntity
  8
0
 62
7
100
AcDbPolyline
 90
1
 70
1
 10
15.542272
 20
75.410735
 30
0.0
  0
SPLINE
  5
309
100
AcDbEntity
  8
0
 62
7
100
AcDbSpline
 70
8
 71
3
 72
8
 73
4
 74
0
 40
0
 40
0
 40
0
 40
0
 40
1
 40
1
 40
1
 40
1
 10
33.328531
 20
78.192715
 30
0.0
 10
32.673687
 20
78.306126
 30
0.0
 10
30.649624
 20
78.837446
 30
0.0
 10
28.830614
 20
79.373428
 30
0.0
  0
SPLINE
  5
30a
100
AcDbEntity
  8
0
 62
7
100
AcDbSpline
 70
8
 71
3
 72
8
 73
4
 74
0
 40
0
 40
0
 40
0
 40
0
 40
1
 40
1
 40
1
 40
1
 10
28.830614
 20
79.373428
 30
0.0
 10
26.929641
 20
79.933565
 30
0.0
 10
24.650331
 20
80.411328
 30
0.0
 10
23.470279
 20
80.497008
 30
0.0
  0
SPLINE
  5
30b
100
AcDbEntity
  8
0
 62
7
100
AcDbSpline
 70
8
 71
3
 72
8
 73
4
 74
0
 40
0
 40
0
 40
0
 40
0
 40
1
 40
1
 40
1
 40
1
 10
23.470279
 20
80.497008
 30
0.0
 10
21.502094
 20
80.639909
 30
0.0
 10
21.361253
 20
80.611271
 30
0.0
 10
20.062908
 20
79.804175
 30
0.0
  0
SPLINE
  5
30c
100
AcDbEntity
  8
0
 62
7
100
AcDbSpline
 70
8
 71
3
 72
8
 73
4
 74
0
 40
0
 40
0
 40
0
 40
0
 40
1
 40
1
 40
1
 40
1
 10
20.062908
 20
79.804175
 30
0.0
 10
18.378597
 20
78.757148
 30
0.0
 10
18.121716
 20
78.893723
 30
0.0
 10
19.589227
 20
80.056014
 30
0.0
  0
SPLINE
  5
30d
100
AcDbEntity
  8
0
 62
7
100
AcDbSpline
 70
8
 71
3
 72
8
 73
4
 74
0
 40
0
 40
0
 40
0
 40
0
 40
1
 40
1
 40
1
 40
1
 10
19.589227
 20
80.056014
 30
0.0
 10
21.450873
 20
81.530465
 30
0.0
 10
24.016664
 20
81.438718
 30
0.0
 10
29.359781
 20
79.706645
 30
0.0
  0
SPLINE
  5
30e
100
AcDbEntity
  8
0
 62
7
100
AcDbSpline
 70
8
 71
3
 72
8
 73
4
 74
0
 40
0
 40
0
 40
0
 40
0
 40
1
 40
1
 40
1
 40
1
 10
29.359781
 20
79.706645
 30
0.0
 10
30.742229
 20
79.258496
 30
0.0
 10
32.885354
 20
78.687552
 30
0.0
 10
34.122281
 20
78.437878
 30
0.0
  0
SPLINE
  5
30f
100
AcDbEntity
  8
0
 62
7
100
AcDbSpline
 70
8
 71
3
 72
8
 73
4
 74
0
 40
0
 40
0
 40
0
 40
0
 40
1
 40
1
 40
1
 40
1
 10
34.122281
 20
78.437878
 30
0.0
 10
36.355610
 20
77.987080
 30
0.0
 10
35.694662
 20
77.782936
 30
0.0
 10
33.328531
 20
78.192715
 30
0.0
  0
LWPOLYLINE
  5
310
100
AcDbEntity
  8
0
 62
7
100
AcDbPolyline
 90
1
 70
1
 10
52.495246
 20
76.980410
 30
0.0
  0
SPLINE
  5
311
100
AcDbEntity
  8
0
 62
7
100
AcDbSpline
 70
8
 71
3
 72
8
 73
4
 74
0
 40
0
 40
0
 40
0
 40
0
 40
1
 40
1
 40
1
 40
1
 10
52.445854
 20
79.687155
 30
0.0
 10
52.266641
 20
80.001893
 30
0.0
 10
51.625145
 20
80.424364
 30
0.0
 10
51.020308
 20
80.625976
 30
0.0
  0
LWPOLYLINE
  5
312
100
AcDbEntity
  8
0
 62
7
100
AcDbPolyline
 90
1
 70
1
 10
33.328531
 20
78.192715
 30
0.0
  0
SPLINE
  5
313
100
AcDbEntity
  8
0
 62
7
100
AcDbSpline
 70
8
 71
3
 72
8
 73
4
 74
0
 40
0
 40
0
 40
0
 40
0
 40
1
 40
1
 40
1
 40
1
 10
50.995683
 20
81.314645
 30
0.0
 10
52.088166
 20
81.641961
 30
0.0
 10
52.178085
 20
81.763590
 30
0.0
 10
53.379328
 20
84.538860
 30
0.0
  0
SPLINE
  5
314
100
AcDbEntity
  8
0
 62
7
100
AcDbSpline
 70
8
 71
3
 72
8
 73
4
 74
0
 40
0
 40
0
 40
0
 40
0
 40
1
 40
1
 40
1
 40
1
 10
53.379328
 20
84.538860
 30
0.0
 10
53.656024
 20
85.178114
 30
0.0
 10
53.666234
 20
85.168626
 30
0.0
 10
53.683540
 20
84.256152
 30
0.0
  0
SPLINE
  5
315
100
AcDbEntity
  8
0
 62
7
100
AcDbSpline
 70
8
 71
3
 72
8
 73
4
 74
0
 40
0
 40
0
 40
0
 40
0
 40
1
 40
1
 40
1
 40
1
 10
53.683540
 20
84.256152
 30
0.0
 10
53.693383
 20
83.736863
 30
0.0
 10
53.530481
 20
82.724831
 30
0.0
 10
53.321522
 20
82.007194
 30
0.0
  0
SPLINE
  5
316
100
AcDbEntity
  8
0
 62
7
100
AcDbSpline
 70
8
 71
3
 72
8
 73
4
 74
0
 40
0
 40
0
 40
0
 40
0
 40
1
 40
1
 40
1
 40
1
 10
53.321522
 20
82.007194
 30
0.0
 10
53.112562
 20
81.289559
 30
0.0
 10
52.903369
 20
80.345214
 30
0.0
 10
52.856646
 20
79.908651
 30
0.0
  0
SPLINE
  5
317
100
AcDbEntity
  8
0
 62
7
100
AcDbSpline
 70
8
 71
3
 72
8
 73
4
 74
0
 40
0
 40
0
 40
0
 40
0
 40
1
 40
1
 40
1
 40
1
 10
52.856646
 20
79.908651
 30
0.0
 10
52.774215
 20
79.138441
 30
0.0
 10
52.762034
 20
79.131872
 30
0.0
 10
52.445854
 20
79.687155
 30
0.0
  0
LWPOLYLINE
  5
318
100
AcDbEntity
  8
0
 62
7
100
AcDbPolyline
 90
3
 70
0
 10
51.020308
 20
80.625976
 30
0.0
 10
49.920604
 20
80.992543
 30
0.0
 10
50.995683
 20
81.314645
 30
0.0
  0
SPLINE
  5
319
100
AcDbEntity
  8
0
 62
7
100
AcDbSpline
 70
8
 71
3
 72
8
 73
4
 74
0
 40
0
 40
0
 40
0
 40
0
 40
1
 40
1
 40
1
 40
1
 10
59.631747
 20
80.865416
 30
0.0
 10
59.736088
 20
81.212320
 30
0.0
 10
59.884680
 20
81.695287
 30
0.0
 10
59.961952
 20
81.938678
 30
0.0
  0
SPLINE
  5
31a
100
AcDbEntity
  8
0
 62
7
100
AcDbSpline
 70
8
 71
3
 72
8
 73
4
 74
0
 40
0
 40
0
 40
0
 40
0
 40
1
 40
1
 40
1
 40
1
 10
59.961952
 20
81.938678
 30
0.0
 10
60.091735
 20
82.347472
 30
0.0
 10
59.954279
 20
82.344620
 30
0.0
 10
58.158719
 20
81.901268
 30
0.0
  0
SPLINE
  5
31b
100
AcDbEntity
  8
0
 62
7
100
AcDbSpline
 70
8
 71
3
 72
8
 73
4
 74
0
 40
0
 40
0
 40
0
 40
0
 40
1
 40
1
 40
1
 40
1
 10
58.158719
 20
81.901268
 30
0.0
 10
55.389301
 20
81.217455
 30
0.0
 10
54.533882
 20
81.087214
 30
0.0
 10
54.385792
 20
81.326829
 30
0.0
  0
SPLINE
  5
31c
100
AcDbEntity
  8
0
 62
7
100
AcDbSpline
 70
8
 71
3
 72
8
 73
4
 74
0
 40
0
 40
0
 40
0
 40
0
 40
1
 40
1
 40
1
 40
1
 10
54.385792
 20
81.326829
 30
0.0
 10
54.246275
 20
81.552571
 30
0.0
 10
57.636331
 20
82.562859
 30
0.0
 10
59.406621
 20
82.823111
 30
0.0
  0
SPLINE
  5
31d
100
AcDbEntity
  8
0
 62
7
100
AcDbSpline
 70
8
 71
3
 72
8
 73
4
 74
0
 40
0
 40
0
 40
0
 40
0
 40
1
 40
1
 40
1
 40
1
 10
59.406621
 20
82.823111
 30
0.0
 10
60.372538
 20
82.965110
 30
0.0
 10
60.620802
 20
83.174224
 30
0.0
 10
61.853900
 20
84.884480
 30
0.0
  0
LWPOLYLINE
  5
31e
100
AcDbEntity
  8
0
 62
7
100
AcDbPolyline
 90
1
 70
1
 10
52.445854
 20
79.687155
 30
0.0
  0
SPLINE
  5
31f
100
AcDbEntity
  8
0
 62
7
100
AcDbSpline
 70
8
 71
3
 72
8
 73
4
 74
0
 40
0
 40
0
 40
0
 40
0
 40
1
 40
1
 40
1
 40
1
 10
61.308102
 20
86.880816
 30
0.0
 10
60.253139
 20
86.931963
 30
0.0
 10
55.749489
 20
86.823918
 30
0.0
 10
51.299988
 20
86.640715
 30
0.0
  0
SPLINE
  5
320
100
AcDbEntity
  8
0
 62
7
100
AcDbSpline
 70
8
 71
3
 72
8
 73
4
 74
0
 40
0
 40
0
 40
0
 40
0
 40
1
 40
1
 40
1
 40
1
 10
51.299988
 20
86.640715
 30
0.0
 10
46.131305
 20
86.427897
 30
0.0
 10
42.452949
 20
86.393031
 30
0.0
 10
41.113530
 20
86.544153
 30
0.0
  0
SPLINE
  5
321
100
AcDbEntity
  8
0
 62
7
100
AcDbSpline
 70
8
 71
3
 72
8
 73
4
 74
0
 40
0
 40
0
 40
0
 40
0
 40
1
 40
1
 40
1
 40
1
 10
41.113530
 20
86.544153
 30
0.0
 10
39.960479
 20
86.674248
 30
0.0
 10
37.076753
 20
86.770787
 30
0.0
 10
34.705250
 20
86.758682
 30
0.0
  0
SPLINE
  5
322
100
AcDbEntity
  8
0
 62
7
100
AcDbSpline
 70
8
 71
3
 72
8
 73
4
 74
0
 40
0
 40
0
 40
0
 40
0
 40
1
 40
1
 40
1
 40
1
 10
34.705250
 20
86.758682
 30
0.0
 10
32.333748
 20
86.746591
 30
0.0
 10
30.488279
 20
86.817406
 30
0.0
 10
30.604209
 20
86.916080
 30
0.0
  0
SPLINE
  5
323
100
AcDbEntity
  8
0
 62
7
100
AcDbSpline
 70
8
 71
3
 72
8
 73
4
 74
0
 40
0
 40
0
 40
0
 40
0
 40
1
 40
1
 40
1
 40
1
 10
30.604209
 20
86.916080
 30
0.0
 10
31.550237
 20
87.721297
 30
0.0
 10
35.162932
 20
87.922881
 30
0.0
 10
37.694156
 20
87.311693
 30
0.0
  0
SPLINE
  5
324
100
AcDbEntity
  8
0
 62
7
100
AcDbSpline
 70
8
 71
3
 72
8
 73
4
 74
0
 40
0
 40
0
 40
0
 40
0
 40
1
 40
1
 40
1
 40
1
 10
37.694156
 20
87.311693
 30
0.0
 10
39.690863
 20
86.829569
 30
0.0
 10
42.522571
 20
86.820716
 30
0.0
 10
47.086864
 20
87.282327
 30
0.0
  0
SPLINE
  5
325
100
AcDbEntity
  8
0
 62
7
100
AcDbSpline
 70
8
 71
3
 72
8
 73
4
 74
0
 40
0
 40
0
 40
0
 40
0
 40
1
 40
1
 40
1
 40
1
 10
47.086864
 20
87.282327
 30
0.0
 10
49.051395
 20
87.481010
 30
0.0
 10
50.956395
 20
87.636517
 30
0.0
 10
51.320197
 20
87.627897
 30
0.0
  0
SPLINE
  5
326
100
AcDbEntity
  8
0
 62
7
100
AcDbSpline
 70
8
 71
3
 72
8
 73
4
 74
0
 40
0
 40
0
 40
0
 40
0
 40
1
 40
1
 40
1
 40
1
 10
51.320197
 20
87.627897
 30
0.0
 10
51.683999
 20
87.619271
 30
0.0
 10
54.687420
 20
87.635093
 30
0.0
 10
57.994463
 20
87.663041
 30
0.0
  0
LWPOLYLINE
  5
327
100
AcDbEntity
  8
0
 62
7
100
AcDbPolyline
 90
3
 70
0
 10
61.853900
 20
84.884480
 30
0.0
 10
63.226212
 20
86.787818
 30
0.0
 10
61.308102
 20
86.880816
 30
0.0
  0
SPLINE
  5
328
100
AcDbEntity
  8
0
 62
7
100
AcDbSpline
 70
8
 71
3
 72
8
 73
4
 74
0
 40
0
 40
0
 40
0
 40
0
 40
1
 40
1
 40
1
 40
1
 10
65.166499
 20
89.694173
 30
0.0
 10
65.834112
 20
90.834655
 30
0.0
 10
66.916438
 20
93.420502
 30
0.0
 10
67.718615
 20
95.791576
 30
0.0
  0
SPLINE
  5
329
100
AcDbEntity
  8
0
 62
7
100
AcDbSpline
 70
8
 71
3
 72
8
 73
4
 74
0
 40
0
 40
0
 40
0
 40
0
 40
1
 40
1
 40
1
 40
1
 10
67.718615
 20
95.791576
 30
0.0
 10
68.484702
 20
98.055978
 30
0.0
 10
69.168312
 20
99.851856
 30
0.0
 10
69.237746
 20
99.782421
 30
0.0
  0
SPLINE
  5
32a
100
AcDbEntity
  8
0
 62
7
100
AcDbSpline
 70
8
 71
3
 72
8
 73
4
 74
0
 40
0
 40
0
 40
0
 40
0
 40
1
 40
1
 40
1
 40
1
 10
69.237746
 20
99.782421
 30
0.0
 10
69.426257
 20
99.593911
 30
0.0
 10
67.844681
 20
94.094199
 30
0.0
 10
66.890194
 20
91.619131
 30
0.0
  0
SPLINE
  5
32b
100
AcDbEntity
  8
0
 62
7
100
AcDbSpline
 70
8
 71
3
 72
8
 73
4
 74
0
 40
0
 40
0
 40
0
 40
0
 40
1
 40
1
 40
1
 40
1
 10
66.890194
 20
91.619131
 30
0.0
 10
66.334561
 20
90.178329
 30
0.0
 10
65.685138
 20
89.056377
 30
0.0
 10
64.942863
 20
88.254904
 30
0.0
  0
SPLINE
  5
32c
100
AcDbEntity
  8
0
 62
7
100
AcDbSpline
 70
8
 71
3
 72
8
 73
4
 74
0
 40
0
 40
0
 40
0
 40
0
 40
1
 40
1
 40
1
 40
1
 10
64.942863
 20
88.254904
 30
0.0
 10
64.330337
 20
87.593527
 30
0.0
 10
63.495452
 20
86.516620
 30
0.0
 10
63.087562
 20
85.861776
 30
0.0
  0
SPLINE
  5
32d
100
AcDbEntity
  8
0
 62
7
100
AcDbSpline
 70
8
 71
3
 72
8
 73
4
 74
0
 40
0
 40
0
 40
0
 40
0
 40
1
 40
1
 40
1
 40
1
 10
63.087562
 20
85.861776
 30
0.0
 10
62.679673
 20
85.206933
 30
0.0
 10
62.185225
 20
84.552089
 30
0.0
 10
61.988790
 20
84.406568
 30
0.0
  0
SPLINE
  5
32e
100
AcDbEntity
  8
0
 62
7
100
AcDbSpline
 70
8
 71
3
 72
8
 73
4
 74
0
 40
0
 40
0
 40
0
 40
0
 40
1
 40
1
 40
1
 40
1
 10
61.988790
 20
84.406568
 30
0.0
 10
61.792353
 20
84.261047
 30
0.0
 10
61.297082
 20
83.315543
 30
0.0
 10
60.888187
 20
82.305451
 30
0.0
  0
SPLINE
  5
32f
100
AcDbEntity
  8
0
 62
7
100
AcDbSpline
 70
8
 71
3
 72
8
 73
4
 74
0
 40
0
 40
0
 40
0
 40
0
 40
1
 40
1
 40
1
 40
1
 10
60.888187
 20
82.305451
 30
0.0
 10
60.479289
 20
81.295356
 30
0.0
 10
59.986630
 20
80.416212
 30
0.0
 10
59.793389
 20
80.351799
 30
0.0
  0
SPLINE
  5
330
100
AcDbEntity
  8
0
 62
7
100
AcDbSpline
 70
8
 71
3
 72
8
 73
4
 74
0
 40
0
 40
0
 40
0
 40
0
 40
1
 40
1
 40
1
 40
1
 10
59.793389
 20
80.351799
 30
0.0
 10
59.534803
 20
80.265603
 30
0.0
 10
59.492126
 20
80.401210
 30
0.0
 10
59.631747
 20
80.865416
 30
0.0
  0
LWPOLYLINE
  5
331
100
AcDbEntity
  8
0
 62
7
100
AcDbPolyline
 90
3
 70
0
 10
57.994463
 20
87.663041
 30
0.0
 10
64.007267
 20
87.713860
 30
0.0
 10
65.166499
 20
89.694173
 30
0.0
  0
SPLINE
  5
332
100
AcDbEntity
  8
0
 62
7
100
AcDbSpline
 70
8
 71
3
 72
8
 73
4
 74
0
 40
0
 40
0
 40
0
 40
0
 40
1
 40
1
 40
1
 40
1
 10
66.798322
 20
82.197199
 30
0.0
 10
65.145105
 20
82.635273
 30
0.0
 10
63.402170
 20
82.935331
 30
0.0
 10
62.763426
 20
82.891831
 30
0.0
  0
SPLINE
  5
333
100
AcDbEntity
  8
0
 62
7
100
AcDbSpline
 70
8
 71
3
 72
8
 73
4
 74
0
 40
0
 40
0
 40
0
 40
0
 40
1
 40
1
 40
1
 40
1
 10
62.763426
 20
82.891831
 30
0.0
 10
62.144963
 20
82.849715
 30
0.0
 10
61.638947
 20
82.905404
 30
0.0
 10
61.638947
 20
83.015598
 30
0.0
  0
SPLINE
  5
334
100
AcDbEntity
  8
0
 62
7
100
AcDbSpline
 70
8
 71
3
 72
8
 73
4
 74
0
 40
0
 40
0
 40
0
 40
0
 40
1
 40
1
 40
1
 40
1
 10
61.638947
 20
83.015598
 30
0.0
 10
61.638947
 20
83.125789
 30
0.0
 10
62.383088
 20
83.214782
 30
0.0
 10
63.292593
 20
83.213363
 30
0.0
  0
SPLINE
  5
335
100
AcDbEntity
  8
0
 62
7
100
AcDbSpline
 70
8
 71
3
 72
8
 73
4
 74
0
 40
0
 40
0
 40
0
 40
0
 40
1
 40
1
 40
1
 40
1
 10
63.292593
 20
83.213363
 30
0.0
 10
64.444232
 20
83.211511
 30
0.0
 10
65.789612
 20
82.938403
 30
0.0
 10
67.724364
 20
82.313542
 30
0.0
  0
SPLINE
  5
336
100
AcDbEntity
  8
0
 62
7
100
AcDbSpline
 70
8
 71
3
 72
8
 73
4
 74
0
 40
0
 40
0
 40
0
 40
0
 40
1
 40
1
 40
1
 40
1
 10
67.724364
 20
82.313542
 30
0.0
 10
71.126292
 20
81.214830
 30
0.0
 10
70.705244
 20
81.161932
 30
0.0
 10
66.798322
 20
82.197199
 30
0.0
  0
LWPOLYLINE
  5
337
100
AcDbEntity
  8
0
 62
7
100
AcDbPolyline
 90
1
 70
1
 10
59.631747
 20
80.865416
 30
0.0
  0
SPLINE
  5
338
100
AcDbEntity
  8
0
 62
7
100
AcDbSpline
 70
8
 71
3
 72
8
 73
4
 74
0
 40
0
 40
0
 40
0
 40
0
 40
1
 40
1
 40
1
 40
1
 10
17.032498
 20
82.658596
 30
0.0
 10
17.310252
 20
82.966327
 30
0.0
 10
18.199498
 20
83.541992
 30
0.0
 10
19.008602
 20
83.937848
 30
0.0
  0
SPLINE
  5
339
100
AcDbEntity
  8
0
 62
7
100
AcDbSpline
 70
8
 71
3
 72
8
 73
4
 74
0
 40
0
 40
0
 40
0
 40
0
 40
1
 40
1
 40
1
 40
1
 10
19.008602
 20
83.937848
 30
0.0
 10
20.388028
 20
84.612739
 30
0.0
 10
20.747073
 20
84.664045
 30
0.0
 10
24.770245
 20
84.761165
 30
0.0
  0
SPLINE
  5
33a
100
AcDbEntity
  8
0
 62
7
100
AcDbSpline
 70
8
 71
3
 72
8
 73
4
 74
0
 40
0
 40
0
 40
0
 40
0
 40
1
 40
1
 40
1
 40
1
 10
24.770245
 20
84.761165
 30
0.0
 10
27.949022
 20
84.837902
 30
0.0
 10
29.699413
 20
84.752778
 30
0.0
 10
31.525387
 20
84.432698
 30
0.0
  0
SPLINE
  5
33b
100
AcDbEntity
  8
0
 62
7
100
AcDbSpline
 70
8
 71
3
 72
8
 73
4
 74
0
 40
0
 40
0
 40
0
 40
0
 40
1
 40
1
 40
1
 40
1
 10
31.525387
 20
84.432698
 30
0.0
 10
33.971418
 20
84.003909
 30
0.0
 10
38.967878
 20
82.681678
 30
0.0
 10
38.795090
 20
82.508892
 30
0.0
  0
SPLINE
  5
33c
100
AcDbEntity
  8
0
 62
7
100
AcDbSpline
 70
8
 71
3
 72
8
 73
4
 74
0
 40
0
 40
0
 40
0
 40
0
 40
1
 40
1
 40
1
 40
1
 10
38.795090
 20
82.508892
 30
0.0
 10
38.745538
 20
82.459338
 30
0.0
 10
37.644118
 20
82.647782
 30
0.0
 10
36.347490
 20
82.927656
 30
0.0
  0
SPLINE
  5
33d
100
AcDbEntity
  8
0
 62
7
100
AcDbSpline
 70
8
 71
3
 72
8
 73
4
 74
0
 40
0
 40
0
 40
0
 40
0
 40
1
 40
1
 40
1
 40
1
 10
36.347490
 20
82.927656
 30
0.0
 10
30.512679
 20
84.187083
 30
0.0
 10
25.642077
 20
84.540656
 30
0.0
 10
21.206435
 20
84.026801
 30
0.0
  0
SPLINE
  5
33e
100
AcDbEntity
  8
0
 62
7
100
AcDbSpline
 70
8
 71
3
 72
8
 73
4
 74
0
 40
0
 40
0
 40
0
 40
0
 40
1
 40
1
 40
1
 40
1
 10
21.206435
 20
84.026801
 30
0.0
 10
19.741516
 20
83.857095
 30
0.0
 10
18.937231
 20
83.595432
 30
0.0
 10
17.899143
 20
82.950823
 30
0.0
  0
SPLINE
  5
33f
100
AcDbEntity
  8
0
 62
7
100
AcDbSpline
 70
8
 71
3
 72
8
 73
4
 74
0
 40
0
 40
0
 40
0
 40
0
 40
1
 40
1
 40
1
 40
1
 10
17.899143
 20
82.950823
 30
0.0
 10
16.901476
 20
82.331314
 30
0.0
 10
16.665182
 20
82.251637
 30
0.0
 10
17.032498
 20
82.658596
 30
0.0
  0
LWPOLYLINE
  5
340
100
AcDbEntity
  8
0
 62
7
100
AcDbPolyline
 90
1
 70
1
 10
66.798322
 20
82.197199
 30
0.0
  0
SPLINE
  5
341
100
AcDbEntity
  8
0
 62
7
100
AcDbSpline
 70
8
 71
3
 72
8
 73
4
 74
0
 40
0
 40
0
 40
0
 40
0
 40
1
 40
1
 40
1
 40
1
 10
64.549364
 20
87.184693
 30
0.0
 10
64.549364
 20
87.345131
 30
0.0
 10
65.701098
 20
87.449276
 30
0.0
 10
67.475396
 20
87.449276
 30
0.0
  0
SPLINE
  5
342
100
AcDbEntity
  8
0
 62
7
100
AcDbSpline
 70
8
 71
3
 72
8
 73
4
 74
0
 40
0
 40
0
 40
0
 40
0
 40
1
 40
1
 40
1
 40
1
 10
67.475396
 20
87.449276
 30
0.0
 10
69.358708
 20
87.449276
 30
0.0
 10
70.343154
 20
87.354989
 30
0.0
 10
70.237906
 20
87.184693
 30
0.0
  0
SPLINE
  5
343
100
AcDbEntity
  8
0
 62
7
100
AcDbSpline
 70
8
 71
3
 72
8
 73
4
 74
0
 40
0
 40
0
 40
0
 40
0
 40
1
 40
1
 40
1
 40
1
 10
70.237906
 20
87.184693
 30
0.0
 10
70.145786
 20
87.035640
 30
0.0
 10
68.868144
 20
86.920110
 30
0.0
 10
67.311873
 20
86.920110
 30
0.0
  0
SPLINE
  5
344
100
AcDbEntity
  8
0
 62
7
100
AcDbSpline
 70
8
 71
3
 72
8
 73
4
 74
0
 40
0
 40
0
 40
0
 40
0
 40
1
 40
1
 40
1
 40
1
 10
67.311873
 20
86.920110
 30
0.0
 10
65.646588
 20
86.920110
 30
0.0
 10
64.549364
 20
87.025197
 30
0.0
 10
64.549364
 20
87.184693
 30
0.0
  0
LWPOLYLINE
  5
345
100
AcDbEntity
  8
0
 62
7
100
AcDbPolyline
 90
1
 70
1
 10
17.032498
 20
82.658596
 30
0.0
  0
SPLINE
  5
346
100
AcDbEntity
  8
0
 62
7
100
AcDbSpline
 70
8
 71
3
 72
8
 73
4
 74
0
 40
0
 40
0
 40
0
 40
0
 40
1
 40
1
 40
1
 40
1
 10
46.231620
 20
91.153443
 30
0.0
 10
46.140878
 20
92.244849
 30
0.0
 10
45.999874
 20
93.435474
 30
0.0
 10
45.918276
 20
93.799276
 30
0.0
  0
SPLINE
  5
347
100
AcDbEntity
  8
0
 62
7
100
AcDbSpline
 70
8
 71
3
 72
8
 73
4
 74
0
 40
0
 40
0
 40
0
 40
0
 40
1
 40
1
 40
1
 40
1
 10
45.918276
 20
93.799276
 30
0.0
 10
45.836676
 20
94.163078
 30
0.0
 10
46.014209
 20
93.746360
 30
0.0
 10
46.312791
 20
92.873235
 30
0.0
  0
SPLINE
  5
348
100
AcDbEntity
  8
0
 62
7
100
AcDbSpline
 70
8
 71
3
 72
8
 73
4
 74
0
 40
0
 40
0
 40
0
 40
0
 40
1
 40
1
 40
1
 40
1
 10
46.312791
 20
92.873235
 30
0.0
 10
46.734828
 20
91.639091
 30
0.0
 10
46.804575
 20
91.050163
 30
0.0
 10
46.626134
 20
90.227401
 30
0.0
  0
SPLINE
  5
349
100
AcDbEntity
  8
0
 62
7
100
AcDbSpline
 70
8
 71
3
 72
8
 73
4
 74
0
 40
0
 40
0
 40
0
 40
0
 40
1
 40
1
 40
1
 40
1
 10
46.626134
 20
90.227401
 30
0.0
 10
46.404948
 20
89.207538
 30
0.0
 10
46.390608
 20
89.241201
 30
0.0
 10
46.231620
 20
91.153443
 30
0.0
  0
LWPOLYLINE
  5
34a
100
AcDbEntity
  8
0
 62
7
100
AcDbPolyline
 90
1
 70
1
 10
64.549364
 20
87.184693
 30
0.0
  0
SPLINE
  5
34b
100
AcDbEntity
  8
0
 62
7
100
AcDbSpline
 70
8
 71
3
 72
8
 73
4
 74
0
 40
0
 40
0
 40
0
 40
0
 40
1
 40
1
 40
1
 40
1
 10
16.846710
 20
93.681764
 30
0.0
 10
16.667166
 20
96.629408
 30
0.0
 10
16.351283
 20
97.966054
 30
0.0
 10
15.621142
 20
98.867743
 30
0.0
  0
LWPOLYLINE
  5
34c
100
AcDbEntity
  8
0
 62
7
100
AcDbPolyline
 90
1
 70
1
 10
46.231620
 20
91.153443
 30
0.0
  0
SPLINE
  5
34d
100
AcDbEntity
  8
0
 62
7
100
AcDbSpline
 70
8
 71
3
 72
8
 73
4
 74
0
 40
0
 40
0
 40
0
 40
0
 40
1
 40
1
 40
1
 40
1
 10
14.712660
 20
98.558186
 30
0.0
 10
14.315497
 20
97.669358
 30
0.0
 10
14.306133
 20
97.664667
 30
0.0
 10
14.455747
 20
98.429485
 30
0.0
  0
SPLINE
  5
34e
100
AcDbEntity
  8
0
 62
7
100
AcDbSpline
 70
8
 71
3
 72
8
 73
4
 74
0
 40
0
 40
0
 40
0
 40
0
 40
1
 40
1
 40
1
 40
1
 10
14.455747
 20
98.429485
 30
0.0
 10
14.707377
 20
99.715786
 30
0.0
 10
16.106012
 20
103.878208
 30
0.0
 10
16.767250
 20
105.308651
 30
0.0
  0
LWPOLYLINE
  5
34f
100
AcDbEntity
  8
0
 62
7
100
AcDbPolyline
 90
3
 70
0
 10
15.621142
 20
98.867743
 30
0.0
 10
15.124849
 20
99.480637
 30
0.0
 10
14.712660
 20
98.558186
 30
0.0
  0
SPLINE
  5
350
100
AcDbEntity
  8
0
 62
7
100
AcDbSpline
 70
8
 71
3
 72
8
 73
4
 74
0
 40
0
 40
0
 40
0
 40
0
 40
1
 40
1
 40
1
 40
1
 10
17.578942
 20
104.848708
 30
0.0
 10
17.842168
 20
102.504113
 30
0.0
 10
17.608176
 20
92.525786
 30
0.0
 10
17.270541
 20
91.697389
 30
0.0
  0
SPLINE
  5
351
100
AcDbEntity
  8
0
 62
7
100
AcDbSpline
 70
8
 71
3
 72
8
 73
4
 74
0
 40
0
 40
0
 40
0
 40
0
 40
1
 40
1
 40
1
 40
1
 10
17.270541
 20
91.697389
 30
0.0
 10
17.059575
 20
91.179772
 30
0.0
 10
16.974988
 20
91.575800
 30
0.0
 10
16.846710
 20
93.681764
 30
0.0
  0
LWPOLYLINE
  5
352
100
AcDbEntity
  8
0
 62
7
100
AcDbPolyline
 90
3
 70
0
 10
16.767250
 20
105.308651
 30
0.0
 10
17.378782
 20
106.631568
 30
0.0
 10
17.578942
 20
104.848708
 30
0.0
  0
SPLINE
  5
353
100
AcDbEntity
  8
0
 62
7
100
AcDbSpline
 70
8
 71
3
 72
8
 73
4
 74
0
 40
0
 40
0
 40
0
 40
0
 40
1
 40
1
 40
1
 40
1
 10
72.940762
 20
92.677932
 30
0.0
 10
72.295480
 20
93.390963
 30
0.0
 10
71.440873
 20
95.426279
 30
0.0
 10
71.434341
 20
96.265608
 30
0.0
  0
SPLINE
  5
354
100
AcDbEntity
  8
0
 62
7
100
AcDbSpline
 70
8
 71
3
 72
8
 73
4
 74
0
 40
0
 40
0
 40
0
 40
0
 40
1
 40
1
 40
1
 40
1
 10
71.434341
 20
96.265608
 30
0.0
 10
71.429208
 20
96.925355
 30
0.0
 10
71.513123
 20
97.002256
 30
0.0
 10
72.156135
 20
96.927067
 30
0.0
  0
SPLINE
  5
355
100
AcDbEntity
  8
0
 62
7
100
AcDbSpline
 70
8
 71
3
 72
8
 73
4
 74
0
 40
0
 40
0
 40
0
 40
0
 40
1
 40
1
 40
1
 40
1
 10
72.156135
 20
96.927067
 30
0.0
 10
72.859932
 20
96.844768
 30
0.0
 10
72.882334
 20
96.880942
 30
0.0
 10
72.840818
 20
98.032610
 30
0.0
  0
SPLINE
  5
356
100
AcDbEntity
  8
0
 62
7
100
AcDbSpline
 70
8
 71
3
 72
8
 73
4
 74
0
 40
0
 40
0
 40
0
 40
0
 40
1
 40
1
 40
1
 40
1
 10
72.840818
 20
98.032610
 30
0.0
 10
72.817217
 20
98.687453
 30
0.0
 10
72.321738
 20
100.713844
 30
0.0
 10
71.739765
 20
102.535699
 30
0.0
  0
SPLINE
  5
357
100
AcDbEntity
  8
0
 62
7
100
AcDbSpline
 70
8
 71
3
 72
8
 73
4
 74
0
 40
0
 40
0
 40
0
 40
0
 40
1
 40
1
 40
1
 40
1
 10
71.739765
 20
102.535699
 30
0.0
 10
70.551585
 20
106.255283
 30
0.0
 10
70.236210
 20
107.655924
 30
0.0
 10
70.493226
 20
108.071788
 30
0.0
  0
SPLINE
  5
358
100
AcDbEntity
  8
0
 62
7
100
AcDbSpline
 70
8
 71
3
 72
8
 73
4
 74
0
 40
0
 40
0
 40
0
 40
0
 40
1
 40
1
 40
1
 40
1
 10
70.493226
 20
108.071788
 30
0.0
 10
70.599567
 20
108.243849
 30
0.0
 10
71.339101
 20
107.786977
 30
0.0
 10
72.370241
 20
106.912201
 30
0.0
  0
SPLINE
  5
359
100
AcDbEntity
  8
0
 62
7
100
AcDbSpline
 70
8
 71
3
 72
8
 73
4
 74
0
 40
0
 40
0
 40
0
 40
0
 40
1
 40
1
 40
1
 40
1
 10
72.370241
 20
106.912201
 30
0.0
 10
73.306085
 20
106.118268
 30
0.0
 10
74.255847
 20
105.365674
 30
0.0
 10
74.480825
 20
105.239770
 30
0.0
  0
SPLINE
  5
35a
100
AcDbEntity
  8
0
 62
7
100
AcDbSpline
 70
8
 71
3
 72
8
 73
4
 74
0
 40
0
 40
0
 40
0
 40
0
 40
1
 40
1
 40
1
 40
1
 10
74.480825
 20
105.239770
 30
0.0
 10
74.705803
 20
105.113868
 30
0.0
 10
75.063149
 20
104.363486
 30
0.0
 10
75.274927
 20
103.572254
 30
0.0
  0
SPLINE
  5
35b
100
AcDbEntity
  8
0
 62
7
100
AcDbSpline
 70
8
 71
3
 72
8
 73
4
 74
0
 40
0
 40
0
 40
0
 40
0
 40
1
 40
1
 40
1
 40
1
 10
75.274927
 20
103.572254
 30
0.0
 10
75.697585
 20
101.993166
 30
0.0
 10
76.102779
 20
98.335364
 30
0.0
 10
75.827104
 20
98.587613
 30
0.0
  0
SPLINE
  5
35c
100
AcDbEntity
  8
0
 62
7
100
AcDbSpline
 70
8
 71
3
 72
8
 73
4
 74
0
 40
0
 40
0
 40
0
 40
0
 40
1
 40
1
 40
1
 40
1
 10
75.827104
 20
98.587613
 30
0.0
 10
75.732055
 20
98.674581
 30
0.0
 10
75.379445
 20
99.560515
 30
0.0
 10
75.043522
 20
100.556354
 30
0.0
  0
SPLINE
  5
35d
100
AcDbEntity
  8
0
 62
7
100
AcDbSpline
 70
8
 71
3
 72
8
 73
4
 74
0
 40
0
 40
0
 40
0
 40
0
 40
1
 40
1
 40
1
 40
1
 10
75.043522
 20
100.556354
 30
0.0
 10
73.948457
 20
103.802654
 30
0.0
 10
73.367051
 20
102.893881
 30
0.0
 10
73.672449
 20
98.413287
 30
0.0
  0
SPLINE
  5
35e
100
AcDbEntity
  8
0
 62
7
100
AcDbSpline
 70
8
 71
3
 72
8
 73
4
 74
0
 40
0
 40
0
 40
0
 40
0
 40
1
 40
1
 40
1
 40
1
 10
73.672449
 20
98.413287
 30
0.0
 10
73.858940
 20
95.677217
 30
0.0
 10
74.026189
 20
95.207000
 30
0.0
 10
75.008388
 20
94.657336
 30
0.0
  0
SPLINE
  5
35f
100
AcDbEntity
  8
0
 62
7
100
AcDbSpline
 70
8
 71
3
 72
8
 73
4
 74
0
 40
0
 40
0
 40
0
 40
0
 40
1
 40
1
 40
1
 40
1
 10
75.008388
 20
94.657336
 30
0.0
 10
75.216692
 20
94.540763
 30
0.0
 10
75.464448
 20
94.032120
 30
0.0
 10
75.558957
 20
93.527017
 30
0.0
  0
LWPOLYLINE
  5
360
100
AcDbEntity
  8
0
 62
7
100
AcDbPolyline
 90
1
 70
1
 10
16.846710
 20
93.681764
 30
0.0
  0
SPLINE
  5
361
100
AcDbEntity
  8
0
 62
7
100
AcDbSpline
 70
8
 71
3
 72
8
 73
4
 74
0
 40
0
 40
0
 40
0
 40
0
 40
1
 40
1
 40
1
 40
1
 10
74.571849
 20
93.704722
 30
0.0
 10
73.492074
 20
94.725921
 30
0.0
 10
72.222281
 20
95.406930
 30
0.0
 10
72.222281
 20
94.964832
 30
0.0
  0
SPLINE
  5
362
100
AcDbEntity
  8
0
 62
7
100
AcDbSpline
 70
8
 71
3
 72
8
 73
4
 74
0
 40
0
 40
0
 40
0
 40
0
 40
1
 40
1
 40
1
 40
1
 10
72.222281
 20
94.964832
 30
0.0
 10
72.222281
 20
94.858668
 30
0.0
 10
72.530433
 20
94.245986
 30
0.0
 10
72.907065
 20
93.603313
 30
0.0
  0
SPLINE
  5
363
100
AcDbEntity
  8
0
 62
7
100
AcDbSpline
 70
8
 71
3
 72
8
 73
4
 74
0
 40
0
 40
0
 40
0
 40
0
 40
1
 40
1
 40
1
 40
1
 10
72.907065
 20
93.603313
 30
0.0
 10
73.632528
 20
92.365401
 30
0.0
 10
73.649673
 20
91.894594
 30
0.0
 10
72.940762
 20
92.677932
 30
0.0
  0
LWPOLYLINE
  5
364
100
AcDbEntity
  8
0
 62
7
100
AcDbPolyline
 90
3
 70
0
 10
75.558957
 20
93.527017
 30
0.0
 10
75.730793
 20
92.608651
 30
0.0
 10
74.571849
 20
93.704722
 30
0.0
  0
SPLINE
  5
365
100
AcDbEntity
  8
0
 62
7
100
AcDbSpline
 70
8
 71
3
 72
8
 73
4
 74
0
 40
0
 40
0
 40
0
 40
0
 40
1
 40
1
 40
1
 40
1
 10
14.010522
 20
112.707972
 30
0.0
 10
14.665985
 20
114.431970
 30
0.0
 10
15.481947
 20
115.542185
 30
0.0
 10
17.632398
 20
117.635968
 30
0.0
  0
SPLINE
  5
366
100
AcDbEntity
  8
0
 62
7
100
AcDbSpline
 70
8
 71
3
 72
8
 73
4
 74
0
 40
0
 40
0
 40
0
 40
0
 40
1
 40
1
 40
1
 40
1
 10
17.632398
 20
117.635968
 30
0.0
 10
26.657480
 20
126.423221
 30
0.0
 10
36.482457
 20
131.097146
 30
0.0
 10
45.943240
 20
131.103966
 30
0.0
  0
SPLINE
  5
367
100
AcDbEntity
  8
0
 62
7
100
AcDbSpline
 70
8
 71
3
 72
8
 73
4
 74
0
 40
0
 40
0
 40
0
 40
0
 40
1
 40
1
 40
1
 40
1
 10
45.943240
 20
131.103966
 30
0.0
 10
55.386621
 20
131.110774
 30
0.0
 10
65.711149
 20
126.195923
 30
0.0
 10
74.671867
 20
117.428100
 30
0.0
  0
SPLINE
  5
368
100
AcDbEntity
  8
0
 62
7
100
AcDbSpline
 70
8
 71
3
 72
8
 73
4
 74
0
 40
0
 40
0
 40
0
 40
0
 40
1
 40
1
 40
1
 40
1
 10
74.671867
 20
117.428100
 30
0.0
 10
76.546064
 20
115.594246
 30
0.0
 10
78.562584
 20
112.751384
 30
0.0
 10
78.227132
 20
112.415932
 30
0.0
  0
SPLINE
  5
369
100
AcDbEntity
  8
0
 62
7
100
AcDbSpline
 70
8
 71
3
 72
8
 73
4
 74
0
 40
0
 40
0
 40
0
 40
0
 40
1
 40
1
 40
1
 40
1
 10
78.227132
 20
112.415932
 30
0.0
 10
78.151580
 20
112.340381
 30
0.0
 10
77.777732
 20
112.811012
 30
0.0
 10
77.396359
 20
113.461778
 30
0.0
  0
SPLINE
  5
36a
100
AcDbEntity
  8
0
 62
7
100
AcDbSpline
 70
8
 71
3
 72
8
 73
4
 74
0
 40
0
 40
0
 40
0
 40
0
 40
1
 40
1
 40
1
 40
1
 10
77.396359
 20
113.461778
 30
0.0
 10
76.173550
 20
115.548343
 30
0.0
 10
70.753362
 20
120.407104
 30
0.0
 10
66.287655
 20
123.419834
 30
0.0
  0
SPLINE
  5
36b
100
AcDbEntity
  8
0
 62
7
100
AcDbSpline
 70
8
 71
3
 72
8
 73
4
 74
0
 40
0
 40
0
 40
0
 40
0
 40
1
 40
1
 40
1
 40
1
 10
66.287655
 20
123.419834
 30
0.0
 10
61.928346
 20
126.360784
 30
0.0
 10
56.740933
 20
128.613593
 30
0.0
 10
52.113947
 20
129.575245
 30
0.0
  0
SPLINE
  5
36c
100
AcDbEntity
  8
0
 62
7
100
AcDbSpline
 70
8
 71
3
 72
8
 73
4
 74
0
 40
0
 40
0
 40
0
 40
0
 40
1
 40
1
 40
1
 40
1
 10
52.113947
 20
129.575245
 30
0.0
 10
49.986044
 20
130.017499
 30
0.0
 10
48.890021
 20
130.078486
 30
0.0
 10
44.970197
 20
129.972753
 30
0.0
  0
SPLINE
  5
36d
100
AcDbEntity
  8
0
 62
7
100
AcDbSpline
 70
8
 71
3
 72
8
 73
4
 74
0
 40
0
 40
0
 40
0
 40
0
 40
1
 40
1
 40
1
 40
1
 10
44.970197
 20
129.972753
 30
0.0
 10
40.796374
 20
129.860168
 30
0.0
 10
40.079197
 20
129.769574
 30
0.0
 10
37.694156
 20
129.053646
 30
0.0
  0
SPLINE
  5
36e
100
AcDbEntity
  8
0
 62
7
100
AcDbSpline
 70
8
 71
3
 72
8
 73
4
 74
0
 40
0
 40
0
 40
0
 40
0
 40
1
 40
1
 40
1
 40
1
 10
37.694156
 20
129.053646
 30
0.0
 10
33.148834
 20
127.689256
 30
0.0
 10
29.890273
 20
126.170966
 30
0.0
 10
26.052490
 20
123.629338
 30
0.0
  0
SPLINE
  5
36f
100
AcDbEntity
  8
0
 62
7
100
AcDbSpline
 70
8
 71
3
 72
8
 73
4
 74
0
 40
0
 40
0
 40
0
 40
0
 40
1
 40
1
 40
1
 40
1
 10
26.052490
 20
123.629338
 30
0.0
 10
21.591382
 20
120.674905
 30
0.0
 10
15.972992
 20
115.616268
 30
0.0
 10
14.754195
 20
113.456676
 30
0.0
  0
SPLINE
  5
370
100
AcDbEntity
  8
0
 62
7
100
AcDbSpline
 70
8
 71
3
 72
8
 73
4
 74
0
 40
0
 40
0
 40
0
 40
0
 40
1
 40
1
 40
1
 40
1
 10
14.754195
 20
113.456676
 30
0.0
 10
13.905297
 20
111.952511
 30
0.0
 10
13.610430
 20
111.655649
 30
0.0
 10
14.010522
 20
112.707972
 30
0.0
  0
LWPOLYLINE
  5
371
100
AcDbEntity
  8
0
 62
7
100
AcDbPolyline
 90
1
 70
1
 10
72.940762
 20
92.677932
 30
0.0
  0
LWPOLYLINE
  5
372
100
AcDbEntity
  8
0
 62
7
100
AcDbPolyline
 90
1
 70
1
 10
14.010522
 20
112.707972
 30
0.0
  0
ENDSEC
  0
SECTION
  2
OBJECTS
  0
DICTIONARY
  5
C
330
0
100
AcDbDictionary
  3
ACAD_GROUP
350
D
  3
ACAD_MLINESTYLE
350
17
  0
DICTIONARY
  5
D
330
C
100
AcDbDictionary
  0
DICTIONARY
  5
1A
330
C
100
AcDbDictionary
  0
DICTIONARY
  5
17
330
C
100
AcDbDictionary
  3
STANDARD
350
18
  0
DICTIONARY
  5
19
330
C
100
AcDbDictionary
  0
ENDSEC
  0
EOF
