  0
SECTION
  2
HEADER
  9
$ACADVER
  1
AC1014
  9
$HANDSEED
  5
FFFF
  9
$MEASUREMENT
 70
     1
  0
ENDSEC
  0
SECTION
  2
TABLES
  0
TABLE
  2
VPORT
  5
8
330
0
100
AcDbSymbolTable
 70
     4
  0
VPORT
  5
2E
330
8
100
AcDbSymbolTableRecord
100
AcDbViewportTableRecord
  2
*ACTIVE
 70
     0
 10
0.0
 20
0.0
 11
1.0
 21
1.0
 12
210.0
 22
148.5
 13
0.0
 23
0.0
 14
10.0
 24
10.0
 15
10.0
 25
10.0
 16
0.0
 26
0.0
 36
1.0
 17
0.0
 27
0.0
 37
0.0
 40
341.0
 41
1.24
 42
50.0
 43
0.0
 44
0.0
 50
0.0
 51
0.0
 71
     0
 72
   100
 73
     1
 74
     3
 75
     0
 76
     0
 77
     0
 78
     0
  0
ENDTAB
  0
TABLE
  2
LTYPE
  5
5
330
0
100
AcDbSymbolTable
 70
     1
  0
LTYPE
  5
14
330
5
100
AcDbSymbolTableRecord
100
AcDbLinetypeTableRecord
  2
BYBLOCK
 70
     0
  3

 72
    65
 73
     0
 40
0.0
  0
LTYPE
  5
15
330
5
100
AcDbSymbolTableRecord
100
AcDbLinetypeTableRecord
  2
BYLAYER
 70
     0
  3

 72
    65
 73
     0
 40
0.0
  0
LTYPE
  5
16
330
5
100
AcDbSymbolTableRecord
100
AcDbLinetypeTableRecord
  2
CONTINUOUS
 70
     0
  3
Solid line
 72
    65
 73
     0
 40
0.0
  0
ENDTAB
  0
TABLE
  2
LAYER
  5
2
100
AcDbSymbolTable
 70
1
  0
LAYER
  5
50
100
AcDbSymbolTableRecord
100
AcDbLayerTableRecord
  2
0
 70
0
  6
CONTINUOUS
  0
ENDTAB
  0
TABLE
  2
STYLE
  5
3
330
0
100
AcDbSymbolTable
 70
     1
  0
STYLE
  5
11
330
3
100
AcDbSymbolTableRecord
100
AcDbTextStyleTableRecord
  2
STANDARD
 70
     0
 40
0.0
 41
1.0
 50
0.0
 71
     0
 42
2.5
  3
txt
  4

  0
ENDTAB
  0
TABLE
  2
VIEW
  5
6
330
0
100
AcDbSymbolTable
 70
     0
  0
ENDTAB
  0
TABLE
  2
UCS
  5
7
330
0
100
AcDbSymbolTable
 70
     0
  0
ENDTAB
  0
TABLE
  2
APPID
  5
9
330
0
100
AcDbSymbolTable
 70
     2
  0
APPID
  5
12
330
9
100
AcDbSymbolTableRecord
100
AcDbRegAppTableRecord
  2
ACAD
 70
     0
  0
ENDTAB
  0
TABLE
  2
DIMSTYLE
  5
A
330
0
100
AcDbSymbolTable
 70
     1
  0
DIMSTYLE
105
27
330
A
100
AcDbSymbolTableRecord
100
AcDbDimStyleTableRecord
  2
ISO-25
 70
     0
  3

  4

  5

  6

  7

 40
1.0
 41
2.5
 42
0.625
 43
3.75
 44
1.25
 45
0.0
 46
0.0
 47
0.0
 48
0.0
140
2.5
141
2.5
142
0.0
143
0.03937007874016
144
1.0
145
0.0
146
1.0
147
0.625
 71
     0
 72
     0
 73
     0
 74
     0
 75
     0
 76
     0
 77
     1
 78
     8
170
     0
171
     3
172
     1
173
     0
174
     0
175
     0
176
     0
177
     0
178
     0
270
     2
271
     2
272
     2
273
     2
274
     3
340
11
275
     0
280
     0
281
     0
282
     0
283
     0
284
     8
285
     0
286
     0
287
     3
288
     0
  0
ENDTAB
  0
TABLE
  2
BLOCK_RECORD
  5
1
330
0
100
AcDbSymbolTable
 70
     1
  0
BLOCK_RECORD
  5
1F
330
1
100
AcDbSymbolTableRecord
100
AcDbBlockTableRecord
  2
*MODEL_SPACE
  0
BLOCK_RECORD
  5
1B
330
1
100
AcDbSymbolTableRecord
100
AcDbBlockTableRecord
  2
*PAPER_SPACE
  0
ENDTAB
  0
ENDSEC
  0
SECTION
  2
BLOCKS
  0
BLOCK
  5
20
330
1F
100
AcDbEntity
  8
0
100
AcDbBlockBegin
  2
*MODEL_SPACE
 70
     0
 10
0.0
 20
0.0
 30
0.0
  3
*MODEL_SPACE
  1

  0
ENDBLK
  5
21
330
1F
100
AcDbEntity
  8
0
100
AcDbBlockEnd
  0
BLOCK
  5
1C
330
1B
100
AcDbEntity
 67
     1
  8
0
100
AcDbBlockBegin
  2
*PAPER_SPACE
  1

  0
ENDBLK
  5
1D
330
1B
100
AcDbEntity
 67
     1
  8
0
100
AcDbBlockEnd
  0
ENDSEC
  0
SECTION
  2
ENTITIES
  0
SPLINE
  5
100
100
AcDbEntity
  8
0
 62
7
100
AcDbSpline
 70
8
 71
3
 72
8
 73
4
 74
0
 40
0
 40
0
 40
0
 40
0
 40
1
 40
1
 40
1
 40
1
 10
81.773342
 20
44.107841
 30
0.0
 10
82.234984
 20
47.254901
 30
0.0
 10
82.229915
 20
47.527268
 30
0.0
 10
81.682778
 20
48.973584
 30
0.0
  0
SPLINE
  5
101
100
AcDbEntity
  8
0
 62
7
100
AcDbSpline
 70
8
 71
3
 72
8
 73
4
 74
0
 40
0
 40
0
 40
0
 40
0
 40
1
 40
1
 40
1
 40
1
 10
81.682778
 20
48.973584
 30
0.0
 10
81.380002
 20
49.773948
 30
0.0
 10
80.824189
 20
50.785980
 30
0.0
 10
80.447639
 20
51.222542
 30
0.0
  0
SPLINE
  5
102
100
AcDbEntity
  8
0
 62
7
100
AcDbSpline
 70
8
 71
3
 72
8
 73
4
 74
0
 40
0
 40
0
 40
0
 40
0
 40
1
 40
1
 40
1
 40
1
 10
80.447639
 20
51.222542
 30
0.0
 10
79.969093
 20
51.777355
 30
0.0
 10
79.820410
 20
51.857002
 30
0.0
 10
79.953713
 20
51.487126
 30
0.0
  0
SPLINE
  5
103
100
AcDbEntity
  8
0
 62
7
100
AcDbSpline
 70
8
 71
3
 72
8
 73
4
 74
0
 40
0
 40
0
 40
0
 40
0
 40
1
 40
1
 40
1
 40
1
 10
79.953713
 20
51.487126
 30
0.0
 10
80.995324
 20
48.596923
 30
0.0
 10
81.019827
 20
46.602018
 30
0.0
 10
80.037361
 20
44.676227
 30
0.0
  0
SPLINE
  5
104
100
AcDbEntity
  8
0
 62
7
100
AcDbSpline
 70
8
 71
3
 72
8
 73
4
 74
0
 40
0
 40
0
 40
0
 40
0
 40
1
 40
1
 40
1
 40
1
 10
80.037361
 20
44.676227
 30
0.0
 10
79.408319
 20
43.443205
 30
0.0
 10
79.179513
 20
43.480318
 30
0.0
 10
79.545381
 20
44.756028
 30
0.0
  0
SPLINE
  5
105
100
AcDbEntity
  8
0
 62
7
100
AcDbSpline
 70
8
 71
3
 72
8
 73
4
 74
0
 40
0
 40
0
 40
0
 40
0
 40
1
 40
1
 40
1
 40
1
 10
79.545381
 20
44.756028
 30
0.0
 10
80.195915
 20
47.024301
 30
0.0
 10
79.445033
 20
49.524378
 30
0.0
 10
77.566348
 20
51.345269
 30
0.0
  0
SPLINE
  5
106
100
AcDbEntity
  8
0
 62
7
100
AcDbSpline
 70
8
 71
3
 72
8
 73
4
 74
0
 40
0
 40
0
 40
0
 40
0
 40
1
 40
1
 40
1
 40
1
 10
76.802697
 20
50.517150
 30
0.0
 10
76.989128
 20
48.520702
 30
0.0
 10
76.647604
 20
47.213845
 30
0.0
 10
75.708997
 20
46.332071
 30
0.0
  0
LWPOLYLINE
  5
107
100
AcDbEntity
  8
0
 62
7
100
AcDbPolyline
 90
3
 70
0
 10
77.566348
 20
51.345269
 30
0.0
 10
76.641674
 20
52.241500
 30
0.0
 10
76.802697
 20
50.517150
 30
0.0
  0
SPLINE
  5
108
100
AcDbEntity
  8
0
 62
7
100
AcDbSpline
 70
8
 71
3
 72
8
 73
4
 74
0
 40
0
 40
0
 40
0
 40
0
 40
1
 40
1
 40
1
 40
1
 10
75.584383
 20
47.089753
 30
0.0
 10
76.193258
 20
48.692178
 30
0.0
 10
76.245080
 20
50.233900
 30
0.0
 10
75.731394
 20
51.463324
 30
0.0
  0
SPLINE
  5
109
100
AcDbEntity
  8
0
 62
7
100
AcDbSpline
 70
8
 71
3
 72
8
 73
4
 74
0
 40
0
 40
0
 40
0
 40
0
 40
1
 40
1
 40
1
 40
1
 10
75.731394
 20
51.463324
 30
0.0
 10
75.191533
 20
52.755398
 30
0.0
 10
74.785892
 20
52.888753
 30
0.0
 10
75.061059
 20
51.683698
 30
0.0
  0
SPLINE
  5
10a
100
AcDbEntity
  8
0
 62
7
100
AcDbSpline
 70
8
 71
3
 72
8
 73
4
 74
0
 40
0
 40
0
 40
0
 40
0
 40
1
 40
1
 40
1
 40
1
 10
75.061059
 20
51.683698
 30
0.0
 10
75.494245
 20
49.786627
 30
0.0
 10
74.609709
 20
47.266635
 30
0.0
 10
73.190857
 20
46.355595
 30
0.0
  0
LWPOLYLINE
  5
10b
100
AcDbEntity
  8
0
 62
7
100
AcDbPolyline
 90
3
 70
0
 10
75.708997
 20
46.332071
 30
0.0
 10
75.067496
 20
45.729411
 30
0.0
 10
75.584383
 20
47.089753
 30
0.0
  0
SPLINE
  5
10c
100
AcDbEntity
  8
0
 62
7
100
AcDbSpline
 70
8
 71
3
 72
8
 73
4
 74
0
 40
0
 40
0
 40
0
 40
0
 40
1
 40
1
 40
1
 40
1
 10
72.999870
 20
46.592334
 30
0.0
 10
74.256516
 20
48.359110
 30
0.0
 10
74.604203
 20
50.561150
 30
0.0
 10
73.923152
 20
52.439832
 30
0.0
  0
LWPOLYLINE
  5
10d
100
AcDbEntity
  8
0
 62
7
100
AcDbPolyline
 90
3
 70
0
 10
73.190857
 20
46.355595
 30
0.0
 10
72.529398
 20
45.930876
 30
0.0
 10
72.999870
 20
46.592334
 30
0.0
  0
SPLINE
  5
10e
100
AcDbEntity
  8
0
 62
7
100
AcDbSpline
 70
8
 71
3
 72
8
 73
4
 74
0
 40
0
 40
0
 40
0
 40
0
 40
1
 40
1
 40
1
 40
1
 10
73.439171
 20
51.751709
 30
0.0
 10
73.352303
 20
50.878584
 30
0.0
 10
73.052535
 20
49.687959
 30
0.0
 10
72.773021
 20
49.105876
 30
0.0
  0
LWPOLYLINE
  5
10f
100
AcDbEntity
  8
0
 62
7
100
AcDbPolyline
 90
3
 70
0
 10
73.923152
 20
52.439832
 30
0.0
 10
73.597114
 20
53.339209
 30
0.0
 10
73.439171
 20
51.751709
 30
0.0
  0
SPLINE
  5
110
100
AcDbEntity
  8
0
 62
7
100
AcDbSpline
 70
8
 71
3
 72
8
 73
4
 74
0
 40
0
 40
0
 40
0
 40
0
 40
1
 40
1
 40
1
 40
1
 10
72.187969
 20
50.230355
 30
0.0
 10
72.145702
 20
51.430902
 30
0.0
 10
72.024116
 20
52.413167
 30
0.0
 10
71.917777
 20
52.413167
 30
0.0
  0
SPLINE
  5
111
100
AcDbEntity
  8
0
 62
7
100
AcDbSpline
 70
8
 71
3
 72
8
 73
4
 74
0
 40
0
 40
0
 40
0
 40
0
 40
1
 40
1
 40
1
 40
1
 10
71.917777
 20
52.413167
 30
0.0
 10
71.811436
 20
52.413167
 30
0.0
 10
71.594155
 20
51.728558
 30
0.0
 10
71.434931
 20
50.891813
 30
0.0
  0
SPLINE
  5
112
100
AcDbEntity
  8
0
 62
7
100
AcDbSpline
 70
8
 71
3
 72
8
 73
4
 74
0
 40
0
 40
0
 40
0
 40
0
 40
1
 40
1
 40
1
 40
1
 10
71.434931
 20
50.891813
 30
0.0
 10
71.161077
 20
49.452673
 30
0.0
 10
69.530375
 20
45.137536
 30
0.0
 10
69.334425
 20
45.333486
 30
0.0
  0
SPLINE
  5
113
100
AcDbEntity
  8
0
 62
7
100
AcDbSpline
 70
8
 71
3
 72
8
 73
4
 74
0
 40
0
 40
0
 40
0
 40
0
 40
1
 40
1
 40
1
 40
1
 10
69.334425
 20
45.333486
 30
0.0
 10
69.284114
 20
45.383799
 30
0.0
 10
69.359640
 20
46.550823
 30
0.0
 10
69.502282
 20
47.926876
 30
0.0
  0
SPLINE
  5
114
100
AcDbEntity
  8
0
 62
7
100
AcDbSpline
 70
8
 71
3
 72
8
 73
4
 74
0
 40
0
 40
0
 40
0
 40
0
 40
1
 40
1
 40
1
 40
1
 10
69.502282
 20
47.926876
 30
0.0
 10
69.756777
 20
50.382144
 30
0.0
 10
69.589888
 20
53.713872
 30
0.0
 10
69.233648
 20
53.289899
 30
0.0
  0
SPLINE
  5
115
100
AcDbEntity
  8
0
 62
7
100
AcDbSpline
 70
8
 71
3
 72
8
 73
4
 74
0
 40
0
 40
0
 40
0
 40
0
 40
1
 40
1
 40
1
 40
1
 10
69.233648
 20
53.289899
 30
0.0
 10
69.134162
 20
53.171500
 30
0.0
 10
68.781065
 20
51.526813
 30
0.0
 10
68.448989
 20
49.635042
 30
0.0
  0
SPLINE
  5
116
100
AcDbEntity
  8
0
 62
7
100
AcDbSpline
 70
8
 71
3
 72
8
 73
4
 74
0
 40
0
 40
0
 40
0
 40
0
 40
1
 40
1
 40
1
 40
1
 10
68.448989
 20
49.635042
 30
0.0
 10
68.116913
 20
47.743271
 30
0.0
 10
67.756569
 20
46.100619
 30
0.0
 10
67.648220
 20
45.984705
 30
0.0
  0
SPLINE
  5
117
100
AcDbEntity
  8
0
 62
7
100
AcDbSpline
 70
8
 71
3
 72
8
 73
4
 74
0
 40
0
 40
0
 40
0
 40
0
 40
1
 40
1
 40
1
 40
1
 10
67.648220
 20
45.984705
 30
0.0
 10
67.461762
 20
45.785225
 30
0.0
 10
66.904005
 20
49.839592
 30
0.0
 10
66.763860
 20
52.413167
 30
0.0
  0
LWPOLYLINE
  5
118
100
AcDbEntity
  8
0
 62
7
100
AcDbPolyline
 90
3
 70
0
 10
72.773021
 20
49.105876
 30
0.0
 10
72.264815
 20
48.047542
 30
0.0
 10
72.187969
 20
50.230355
 30
0.0
  0
SPLINE
  5
119
100
AcDbEntity
  8
0
 62
7
100
AcDbSpline
 70
8
 71
3
 72
8
 73
4
 74
0
 40
0
 40
0
 40
0
 40
0
 40
1
 40
1
 40
1
 40
1
 10
66.340458
 20
52.413167
 30
0.0
 10
66.143248
 20
51.758323
 30
0.0
 10
65.902329
 20
50.627230
 30
0.0
 10
65.805082
 20
49.899626
 30
0.0
  0
LWPOLYLINE
  5
11a
100
AcDbEntity
  8
0
 62
7
100
AcDbPolyline
 90
3
 70
0
 10
66.763860
 20
52.413167
 30
0.0
 10
66.699024
 20
53.603792
 30
0.0
 10
66.340458
 20
52.413167
 30
0.0
  0
SPLINE
  5
11b
100
AcDbEntity
  8
0
 62
7
100
AcDbSpline
 70
8
 71
3
 72
8
 73
4
 74
0
 40
0
 40
0
 40
0
 40
0
 40
1
 40
1
 40
1
 40
1
 10
65.176231
 20
49.423466
 30
0.0
 10
64.609244
 20
50.485537
 30
0.0
 10
64.587657
 20
52.629665
 30
0.0
 10
65.136067
 20
53.412628
 30
0.0
  0
SPLINE
  5
11c
100
AcDbEntity
  8
0
 62
7
100
AcDbSpline
 70
8
 71
3
 72
8
 73
4
 74
0
 40
0
 40
0
 40
0
 40
0
 40
1
 40
1
 40
1
 40
1
 10
65.136067
 20
53.412628
 30
0.0
 10
65.362601
 20
53.736050
 30
0.0
 10
65.470982
 20
54.000667
 30
0.0
 10
65.376917
 20
54.000667
 30
0.0
  0
SPLINE
  5
11d
100
AcDbEntity
  8
0
 62
7
100
AcDbSpline
 70
8
 71
3
 72
8
 73
4
 74
0
 40
0
 40
0
 40
0
 40
0
 40
1
 40
1
 40
1
 40
1
 10
65.376917
 20
54.000667
 30
0.0
 10
65.034366
 20
54.000667
 30
0.0
 10
64.146896
 20
52.776681
 30
0.0
 10
63.483702
 20
51.389574
 30
0.0
  0
SPLINE
  5
11e
100
AcDbEntity
  8
0
 62
7
100
AcDbSpline
 70
8
 71
3
 72
8
 73
4
 74
0
 40
0
 40
0
 40
0
 40
0
 40
1
 40
1
 40
1
 40
1
 10
63.483702
 20
51.389574
 30
0.0
 10
62.922208
 20
50.215176
 30
0.0
 10
62.830014
 20
49.722455
 30
0.0
 10
62.951508
 20
48.545303
 30
0.0
  0
SPLINE
  5
11f
100
AcDbEntity
  8
0
 62
7
100
AcDbSpline
 70
8
 71
3
 72
8
 73
4
 74
0
 40
0
 40
0
 40
0
 40
0
 40
1
 40
1
 40
1
 40
1
 10
62.951508
 20
48.545303
 30
0.0
 10
63.032330
 20
47.762210
 30
0.0
 10
63.050584
 20
47.121501
 30
0.0
 10
62.992077
 20
47.121501
 30
0.0
  0
SPLINE
  5
120
100
AcDbEntity
  8
0
 62
7
100
AcDbSpline
 70
8
 71
3
 72
8
 73
4
 74
0
 40
0
 40
0
 40
0
 40
0
 40
1
 40
1
 40
1
 40
1
 10
62.992077
 20
47.121501
 30
0.0
 10
62.725554
 20
47.121501
 30
0.0
 10
62.112099
 20
48.700208
 30
0.0
 10
61.944607
 20
49.817126
 30
0.0
  0
SPLINE
  5
121
100
AcDbEntity
  8
0
 62
7
100
AcDbSpline
 70
8
 71
3
 72
8
 73
4
 74
0
 40
0
 40
0
 40
0
 40
0
 40
1
 40
1
 40
1
 40
1
 10
61.944607
 20
49.817126
 30
0.0
 10
61.732877
 20
51.229040
 30
0.0
 10
62.087286
 20
52.568142
 30
0.0
 10
62.904989
 20
53.445841
 30
0.0
  0
SPLINE
  5
122
100
AcDbEntity
  8
0
 62
7
100
AcDbSpline
 70
8
 71
3
 72
8
 73
4
 74
0
 40
0
 40
0
 40
0
 40
0
 40
1
 40
1
 40
1
 40
1
 10
62.904989
 20
53.445841
 30
0.0
 10
64.064102
 20
54.690005
 30
0.0
 10
63.172155
 20
54.161251
 30
0.0
 10
61.380299
 20
52.541990
 30
0.0
  0
SPLINE
  5
123
100
AcDbEntity
  8
0
 62
7
100
AcDbSpline
 70
8
 71
3
 72
8
 73
4
 74
0
 40
0
 40
0
 40
0
 40
0
 40
1
 40
1
 40
1
 40
1
 10
61.380299
 20
52.541990
 30
0.0
 10
59.236234
 20
50.604449
 30
0.0
 10
58.813160
 20
49.803648
 30
0.0
 10
58.943047
 20
47.928713
 30
0.0
  0
SPLINE
  5
124
100
AcDbEntity
  8
0
 62
7
100
AcDbSpline
 70
8
 71
3
 72
8
 73
4
 74
0
 40
0
 40
0
 40
0
 40
0
 40
1
 40
1
 40
1
 40
1
 10
58.943047
 20
47.928713
 30
0.0
 10
59.064432
 20
46.176486
 30
0.0
 10
58.759516
 20
46.222380
 30
0.0
 10
58.357947
 20
48.016774
 30
0.0
  0
SPLINE
  5
125
100
AcDbEntity
  8
0
 62
7
100
AcDbSpline
 70
8
 71
3
 72
8
 73
4
 74
0
 40
0
 40
0
 40
0
 40
0
 40
1
 40
1
 40
1
 40
1
 10
58.357947
 20
48.016774
 30
0.0
 10
57.950537
 20
49.837284
 30
0.0
 10
58.177523
 20
51.002972
 30
0.0
 10
59.220828
 20
52.448076
 30
0.0
  0
LWPOLYLINE
  5
126
100
AcDbEntity
  8
0
 62
7
100
AcDbPolyline
 90
3
 70
0
 10
65.805082
 20
49.899626
 30
0.0
 10
65.628269
 20
48.576709
 30
0.0
 10
65.176231
 20
49.423466
 30
0.0
  0
SPLINE
  5
127
100
AcDbEntity
  8
0
 62
7
100
AcDbSpline
 70
8
 71
3
 72
8
 73
4
 74
0
 40
0
 40
0
 40
0
 40
0
 40
1
 40
1
 40
1
 40
1
 10
59.148551
 20
52.913952
 30
0.0
 10
57.880454
 20
51.949099
 30
0.0
 10
56.772328
 20
50.297530
 30
0.0
 10
56.394408
 20
48.809122
 30
0.0
  0
SPLINE
  5
128
100
AcDbEntity
  8
0
 62
7
100
AcDbSpline
 70
8
 71
3
 72
8
 73
4
 74
0
 40
0
 40
0
 40
0
 40
0
 40
1
 40
1
 40
1
 40
1
 10
56.394408
 20
48.809122
 30
0.0
 10
56.217902
 20
48.113979
 30
0.0
 10
55.930636
 20
47.497608
 30
0.0
 10
55.756037
 20
47.439408
 30
0.0
  0
SPLINE
  5
129
100
AcDbEntity
  8
0
 62
7
100
AcDbSpline
 70
8
 71
3
 72
8
 73
4
 74
0
 40
0
 40
0
 40
0
 40
0
 40
1
 40
1
 40
1
 40
1
 10
55.756037
 20
47.439408
 30
0.0
 10
55.333720
 20
47.298636
 30
0.0
 10
55.636549
 20
49.661191
 30
0.0
 10
56.283344
 20
51.553271
 30
0.0
  0
SPLINE
  5
12a
100
AcDbEntity
  8
0
 62
7
100
AcDbSpline
 70
8
 71
3
 72
8
 73
4
 74
0
 40
0
 40
0
 40
0
 40
0
 40
1
 40
1
 40
1
 40
1
 10
56.283344
 20
51.553271
 30
0.0
 10
56.544509
 20
52.317256
 30
0.0
 10
56.645881
 20
52.942334
 30
0.0
 10
56.508618
 20
52.942334
 30
0.0
  0
SPLINE
  5
12b
100
AcDbEntity
  8
0
 62
7
100
AcDbSpline
 70
8
 71
3
 72
8
 73
4
 74
0
 40
0
 40
0
 40
0
 40
0
 40
1
 40
1
 40
1
 40
1
 10
56.508618
 20
52.942334
 30
0.0
 10
56.371355
 20
52.942334
 30
0.0
 10
55.773833
 20
52.503972
 30
0.0
 10
55.180791
 20
51.968194
 30
0.0
  0
SPLINE
  5
12c
100
AcDbEntity
  8
0
 62
7
100
AcDbSpline
 70
8
 71
3
 72
8
 73
4
 74
0
 40
0
 40
0
 40
0
 40
0
 40
1
 40
1
 40
1
 40
1
 10
55.180791
 20
51.968194
 30
0.0
 10
54.118277
 20
51.008277
 30
0.0
 10
53.352449
 20
49.775229
 30
0.0
 10
52.672549
 20
47.929718
 30
0.0
  0
LWPOLYLINE
  5
12d
100
AcDbEntity
  8
0
 62
7
100
AcDbPolyline
 90
3
 70
0
 10
59.220828
 20
52.448076
 30
0.0
 10
60.055204
 20
53.603792
 30
0.0
 10
59.148551
 20
52.913952
 30
0.0
  0
SPLINE
  5
12e
100
AcDbEntity
  8
0
 62
7
100
AcDbSpline
 70
8
 71
3
 72
8
 73
4
 74
0
 40
0
 40
0
 40
0
 40
0
 40
1
 40
1
 40
1
 40
1
 10
52.307405
 20
47.978557
 30
0.0
 10
52.282958
 20
49.275516
 30
0.0
 10
53.125979
 20
51.454471
 30
0.0
 10
54.140722
 20
52.717184
 30
0.0
  0
SPLINE
  5
12f
100
AcDbEntity
  8
0
 62
7
100
AcDbSpline
 70
8
 71
3
 72
8
 73
4
 74
0
 40
0
 40
0
 40
0
 40
0
 40
1
 40
1
 40
1
 40
1
 10
54.140722
 20
52.717184
 30
0.0
 10
54.725626
 20
53.445016
 30
0.0
 10
54.820087
 20
53.679590
 30
0.0
 10
54.479955
 20
53.559575
 30
0.0
  0
SPLINE
  5
130
100
AcDbEntity
  8
0
 62
7
100
AcDbSpline
 70
8
 71
3
 72
8
 73
4
 74
0
 40
0
 40
0
 40
0
 40
0
 40
1
 40
1
 40
1
 40
1
 10
54.479955
 20
53.559575
 30
0.0
 10
53.500846
 20
53.214103
 30
0.0
 10
52.275113
 20
52.087227
 30
0.0
 10
51.570340
 20
50.884624
 30
0.0
  0
SPLINE
  5
131
100
AcDbEntity
  8
0
 62
7
100
AcDbSpline
 70
8
 71
3
 72
8
 73
4
 74
0
 40
0
 40
0
 40
0
 40
0
 40
1
 40
1
 40
1
 40
1
 10
51.570340
 20
50.884624
 30
0.0
 10
51.024914
 20
49.953929
 30
0.0
 10
50.816235
 20
49.762611
 30
0.0
 10
50.745745
 20
50.128638
 30
0.0
  0
SPLINE
  5
132
100
AcDbEntity
  8
0
 62
7
100
AcDbSpline
 70
8
 71
3
 72
8
 73
4
 74
0
 40
0
 40
0
 40
0
 40
0
 40
1
 40
1
 40
1
 40
1
 10
50.745745
 20
50.128638
 30
0.0
 10
50.564447
 20
51.070036
 30
0.0
 10
51.505353
 20
52.930285
 30
0.0
 10
52.507105
 20
53.610992
 30
0.0
  0
SPLINE
  5
133
100
AcDbEntity
  8
0
 62
7
100
AcDbSpline
 70
8
 71
3
 72
8
 73
4
 74
0
 40
0
 40
0
 40
0
 40
0
 40
1
 40
1
 40
1
 40
1
 10
52.507105
 20
53.610992
 30
0.0
 10
53.408606
 20
54.223576
 30
0.0
 10
53.428104
 20
54.264880
 30
0.0
 10
52.813201
 20
54.259440
 30
0.0
  0
SPLINE
  5
134
100
AcDbEntity
  8
0
 62
7
100
AcDbSpline
 70
8
 71
3
 72
8
 73
4
 74
0
 40
0
 40
0
 40
0
 40
0
 40
1
 40
1
 40
1
 40
1
 10
52.813201
 20
54.259440
 30
0.0
 10
51.223738
 20
54.245364
 30
0.0
 10
48.666421
 20
52.513772
 30
0.0
 10
47.792431
 20
50.859785
 30
0.0
  0
SPLINE
  5
135
100
AcDbEntity
  8
0
 62
7
100
AcDbSpline
 70
8
 71
3
 72
8
 73
4
 74
0
 40
0
 40
0
 40
0
 40
0
 40
1
 40
1
 40
1
 40
1
 10
47.792431
 20
50.859785
 30
0.0
 10
47.287879
 20
49.904949
 30
0.0
 10
47.285002
 20
49.903719
 30
0.0
 10
47.273374
 20
50.637771
 30
0.0
  0
SPLINE
  5
136
100
AcDbEntity
  8
0
 62
7
100
AcDbSpline
 70
8
 71
3
 72
8
 73
4
 74
0
 40
0
 40
0
 40
0
 40
0
 40
1
 40
1
 40
1
 40
1
 10
47.273374
 20
50.637771
 30
0.0
 10
47.266945
 20
51.043750
 30
0.0
 10
47.509957
 20
51.862577
 30
0.0
 10
47.813404
 20
52.457384
 30
0.0
  0
LWPOLYLINE
  5
137
100
AcDbEntity
  8
0
 62
7
100
AcDbPolyline
 90
3
 70
0
 10
52.672549
 20
47.929718
 30
0.0
 10
52.326058
 20
46.989209
 30
0.0
 10
52.307405
 20
47.978557
 30
0.0
  0
SPLINE
  5
138
100
AcDbEntity
  8
0
 62
7
100
AcDbSpline
 70
8
 71
3
 72
8
 73
4
 74
0
 40
0
 40
0
 40
0
 40
0
 40
1
 40
1
 40
1
 40
1
 10
47.350384
 20
53.360045
 30
0.0
 10
44.674999
 20
52.888610
 30
0.0
 10
40.073966
 20
50.931318
 30
0.0
 10
37.519647
 20
49.178022
 30
0.0
  0
SPLINE
  5
139
100
AcDbEntity
  8
0
 62
7
100
AcDbSpline
 70
8
 71
3
 72
8
 73
4
 74
0
 40
0
 40
0
 40
0
 40
0
 40
1
 40
1
 40
1
 40
1
 10
37.519647
 20
49.178022
 30
0.0
 10
36.890957
 20
48.746484
 30
0.0
 10
36.322997
 20
48.446989
 30
0.0
 10
36.257513
 20
48.512473
 30
0.0
  0
SPLINE
  5
13a
100
AcDbEntity
  8
0
 62
7
100
AcDbSpline
 70
8
 71
3
 72
8
 73
4
 74
0
 40
0
 40
0
 40
0
 40
0
 40
1
 40
1
 40
1
 40
1
 10
36.257513
 20
48.512473
 30
0.0
 10
36.192029
 20
48.577958
 30
0.0
 10
37.004067
 20
49.452726
 30
0.0
 10
38.062043
 20
50.456401
 30
0.0
  0
SPLINE
  5
13b
100
AcDbEntity
  8
0
 62
7
100
AcDbSpline
 70
8
 71
3
 72
8
 73
4
 74
0
 40
0
 40
0
 40
0
 40
0
 40
1
 40
1
 40
1
 40
1
 10
38.062043
 20
50.456401
 30
0.0
 10
40.380087
 20
52.655473
 30
0.0
 10
42.838195
 20
53.993407
 30
0.0
 10
46.071054
 20
54.815655
 30
0.0
  0
SPLINE
  5
13c
100
AcDbEntity
  8
0
 62
7
100
AcDbSpline
 70
8
 71
3
 72
8
 73
4
 74
0
 40
0
 40
0
 40
0
 40
0
 40
1
 40
1
 40
1
 40
1
 10
46.071054
 20
54.815655
 30
0.0
 10
48.781936
 20
55.505141
 30
0.0
 10
53.432985
 20
55.622679
 30
0.0
 10
61.813763
 20
55.213491
 30
0.0
  0
SPLINE
  5
13d
100
AcDbEntity
  8
0
 62
7
100
AcDbSpline
 70
8
 71
3
 72
8
 73
4
 74
0
 40
0
 40
0
 40
0
 40
0
 40
1
 40
1
 40
1
 40
1
 10
61.813763
 20
55.213491
 30
0.0
 10
65.085886
 20
55.053730
 30
0.0
 10
67.142416
 20
55.079937
 30
0.0
 10
68.825221
 20
55.302835
 30
0.0
  0
SPLINE
  5
13e
100
AcDbEntity
  8
0
 62
7
100
AcDbSpline
 70
8
 71
3
 72
8
 73
4
 74
0
 40
0
 40
0
 40
0
 40
0
 40
1
 40
1
 40
1
 40
1
 10
68.825221
 20
55.302835
 30
0.0
 10
75.238245
 20
56.152283
 30
0.0
 10
81.208906
 20
58.420630
 30
0.0
 10
86.816888
 20
62.138150
 30
0.0
  0
SPLINE
  5
13f
100
AcDbEntity
  8
0
 62
7
100
AcDbSpline
 70
8
 71
3
 72
8
 73
4
 74
0
 40
0
 40
0
 40
0
 40
0
 40
1
 40
1
 40
1
 40
1
 10
86.816888
 20
62.138150
 30
0.0
 10
90.005212
 20
64.251684
 30
0.0
 10
90.863521
 20
64.955928
 30
0.0
 10
93.923003
 20
67.968725
 30
0.0
  0
SPLINE
  5
140
100
AcDbEntity
  8
0
 62
7
100
AcDbSpline
 70
8
 71
3
 72
8
 73
4
 74
0
 40
0
 40
0
 40
0
 40
0
 40
1
 40
1
 40
1
 40
1
 10
93.923003
 20
67.968725
 30
0.0
 10
96.423697
 20
70.431260
 30
0.0
 10
100.616885
 20
75.610739
 30
0.0
 10
100.336665
 20
75.890959
 30
0.0
  0
SPLINE
  5
141
100
AcDbEntity
  8
0
 62
7
100
AcDbSpline
 70
8
 71
3
 72
8
 73
4
 74
0
 40
0
 40
0
 40
0
 40
0
 40
1
 40
1
 40
1
 40
1
 10
100.336665
 20
75.890959
 30
0.0
 10
99.945055
 20
76.282569
 30
0.0
 10
85.182977
 20
78.251825
 30
0.0
 10
84.883551
 20
77.952399
 30
0.0
  0
SPLINE
  5
142
100
AcDbEntity
  8
0
 62
7
100
AcDbSpline
 70
8
 71
3
 72
8
 73
4
 74
0
 40
0
 40
0
 40
0
 40
0
 40
1
 40
1
 40
1
 40
1
 10
84.883551
 20
77.952399
 30
0.0
 10
84.798019
 20
77.866867
 30
0.0
 10
84.930139
 20
77.454757
 30
0.0
 10
85.177151
 20
77.036599
 30
0.0
  0
SPLINE
  5
143
100
AcDbEntity
  8
0
 62
7
100
AcDbSpline
 70
8
 71
3
 72
8
 73
4
 74
0
 40
0
 40
0
 40
0
 40
0
 40
1
 40
1
 40
1
 40
1
 10
85.177151
 20
77.036599
 30
0.0
 10
85.424163
 20
76.618441
 30
0.0
 10
85.618717
 20
76.056559
 30
0.0
 10
85.609491
 20
75.787970
 30
0.0
  0
SPLINE
  5
144
100
AcDbEntity
  8
0
 62
7
100
AcDbSpline
 70
8
 71
3
 72
8
 73
4
 74
0
 40
0
 40
0
 40
0
 40
0
 40
1
 40
1
 40
1
 40
1
 10
85.609491
 20
75.787970
 30
0.0
 10
85.595600
 20
75.383382
 30
0.0
 10
85.551679
 20
75.401731
 30
0.0
 10
85.353435
 20
75.894938
 30
0.0
  0
SPLINE
  5
145
100
AcDbEntity
  8
0
 62
7
100
AcDbSpline
 70
8
 71
3
 72
8
 73
4
 74
0
 40
0
 40
0
 40
0
 40
0
 40
1
 40
1
 40
1
 40
1
 10
85.353435
 20
75.894938
 30
0.0
 10
85.019743
 20
76.725119
 30
0.0
 10
84.787240
 20
76.639563
 30
0.0
 10
84.993924
 20
75.762646
 30
0.0
  0
SPLINE
  5
146
100
AcDbEntity
  8
0
 62
7
100
AcDbSpline
 70
8
 71
3
 72
8
 73
4
 74
0
 40
0
 40
0
 40
0
 40
0
 40
1
 40
1
 40
1
 40
1
 10
84.993924
 20
75.762646
 30
0.0
 10
85.134932
 20
75.164376
 30
0.0
 10
85.102906
 20
75.093830
 30
0.0
 10
84.813756
 20
75.365771
 30
0.0
  0
SPLINE
  5
147
100
AcDbEntity
  8
0
 62
7
100
AcDbSpline
 70
8
 71
3
 72
8
 73
4
 74
0
 40
0
 40
0
 40
0
 40
0
 40
1
 40
1
 40
1
 40
1
 10
84.813756
 20
75.365771
 30
0.0
 10
84.222878
 20
75.921481
 30
0.0
 10
83.923486
 20
75.733254
 30
0.0
 10
84.458299
 20
75.142294
 30
0.0
  0
SPLINE
  5
148
100
AcDbEntity
  8
0
 62
7
100
AcDbSpline
 70
8
 71
3
 72
8
 73
4
 74
0
 40
0
 40
0
 40
0
 40
0
 40
1
 40
1
 40
1
 40
1
 10
84.458299
 20
75.142294
 30
0.0
 10
84.953549
 20
74.595048
 30
0.0
 10
84.950739
 20
74.580253
 30
0.0
 10
84.234721
 20
73.964361
 30
0.0
  0
SPLINE
  5
149
100
AcDbEntity
  8
0
 62
7
100
AcDbSpline
 70
8
 71
3
 72
8
 73
4
 74
0
 40
0
 40
0
 40
0
 40
0
 40
1
 40
1
 40
1
 40
1
 10
84.234721
 20
73.964361
 30
0.0
 10
83.275951
 20
73.139660
 30
0.0
 10
83.305078
 20
72.869004
 30
0.0
 10
84.278044
 20
73.561818
 30
0.0
  0
SPLINE
  5
14a
100
AcDbEntity
  8
0
 62
7
100
AcDbSpline
 70
8
 71
3
 72
8
 73
4
 74
0
 40
0
 40
0
 40
0
 40
0
 40
1
 40
1
 40
1
 40
1
 10
84.278044
 20
73.561818
 30
0.0
 10
85.215868
 20
74.229606
 30
0.0
 10
85.387934
 20
74.245322
 30
0.0
 10
85.199485
 20
73.645980
 30
0.0
  0
SPLINE
  5
14b
100
AcDbEntity
  8
0
 62
7
100
AcDbSpline
 70
8
 71
3
 72
8
 73
4
 74
0
 40
0
 40
0
 40
0
 40
0
 40
1
 40
1
 40
1
 40
1
 10
85.199485
 20
73.645980
 30
0.0
 10
85.075175
 20
73.250631
 30
0.0
 10
85.115059
 20
73.258021
 30
0.0
 10
85.472371
 20
73.696550
 30
0.0
  0
SPLINE
  5
14c
100
AcDbEntity
  8
0
 62
7
100
AcDbSpline
 70
8
 71
3
 72
8
 73
4
 74
0
 40
0
 40
0
 40
0
 40
0
 40
1
 40
1
 40
1
 40
1
 10
85.472371
 20
73.696550
 30
0.0
 10
85.868100
 20
74.182224
 30
0.0
 10
85.890846
 20
74.145696
 30
0.0
 10
85.890846
 20
73.024534
 30
0.0
  0
SPLINE
  5
14d
100
AcDbEntity
  8
0
 62
7
100
AcDbSpline
 70
8
 71
3
 72
8
 73
4
 74
0
 40
0
 40
0
 40
0
 40
0
 40
1
 40
1
 40
1
 40
1
 10
85.890846
 20
73.024534
 30
0.0
 10
85.890846
 20
69.914950
 30
0.0
 10
84.056106
 20
65.913987
 30
0.0
 10
81.399563
 20
63.230530
 30
0.0
  0
SPLINE
  5
14e
100
AcDbEntity
  8
0
 62
7
100
AcDbSpline
 70
8
 71
3
 72
8
 73
4
 74
0
 40
0
 40
0
 40
0
 40
0
 40
1
 40
1
 40
1
 40
1
 10
81.399563
 20
63.230530
 30
0.0
 10
78.768800
 20
60.573116
 30
0.0
 10
75.758850
 20
59.229075
 30
0.0
 10
71.446967
 20
58.786369
 30
0.0
  0
SPLINE
  5
14f
100
AcDbEntity
  8
0
 62
7
100
AcDbSpline
 70
8
 71
3
 72
8
 73
4
 74
0
 40
0
 40
0
 40
0
 40
0
 40
1
 40
1
 40
1
 40
1
 10
71.446967
 20
58.786369
 30
0.0
 10
63.202447
 20
57.939898
 30
0.0
 10
54.896454
 20
62.311553
 30
0.0
 10
53.580985
 20
68.189687
 30
0.0
  0
SPLINE
  5
150
100
AcDbEntity
  8
0
 62
7
100
AcDbSpline
 70
8
 71
3
 72
8
 73
4
 74
0
 40
0
 40
0
 40
0
 40
0
 40
1
 40
1
 40
1
 40
1
 10
53.580985
 20
68.189687
 30
0.0
 10
53.406043
 20
68.971456
 30
0.0
 10
53.171958
 20
69.611084
 30
0.0
 10
53.060804
 20
69.611084
 30
0.0
  0
SPLINE
  5
151
100
AcDbEntity
  8
0
 62
7
100
AcDbSpline
 70
8
 71
3
 72
8
 73
4
 74
0
 40
0
 40
0
 40
0
 40
0
 40
1
 40
1
 40
1
 40
1
 10
53.060804
 20
69.611084
 30
0.0
 10
52.949650
 20
69.611084
 30
0.0
 10
51.629143
 20
68.640418
 30
0.0
 10
50.126344
 20
67.454050
 30
0.0
  0
SPLINE
  5
152
100
AcDbEntity
  8
0
 62
7
100
AcDbSpline
 70
8
 71
3
 72
8
 73
4
 74
0
 40
0
 40
0
 40
0
 40
0
 40
1
 40
1
 40
1
 40
1
 10
50.126344
 20
67.454050
 30
0.0
 10
46.612122
 20
64.679788
 30
0.0
 10
40.259960
 20
58.270622
 30
0.0
 10
36.546065
 20
53.751903
 30
0.0
  0
SPLINE
  5
153
100
AcDbEntity
  8
0
 62
7
100
AcDbSpline
 70
8
 71
3
 72
8
 73
4
 74
0
 40
0
 40
0
 40
0
 40
0
 40
1
 40
1
 40
1
 40
1
 10
36.546065
 20
53.751903
 30
0.0
 10
34.945336
 20
51.804287
 30
0.0
 10
33.365316
 20
49.902647
 30
0.0
 10
33.034907
 20
49.526037
 30
0.0
  0
LWPOLYLINE
  5
154
100
AcDbEntity
  8
0
 62
7
100
AcDbPolyline
 90
3
 70
0
 10
47.813404
 20
52.457384
 30
0.0
 10
48.365130
 20
53.538856
 30
0.0
 10
47.350384
 20
53.360045
 30
0.0
  0
SPLINE
  5
155
100
AcDbEntity
  8
0
 62
7
100
AcDbSpline
 70
8
 71
3
 72
8
 73
4
 74
0
 40
0
 40
0
 40
0
 40
0
 40
1
 40
1
 40
1
 40
1
 10
32.868899
 20
50.031917
 30
0.0
 10
33.628333
 20
52.111812
 30
0.0
 10
36.127563
 20
57.215749
 30
0.0
 10
37.517210
 20
59.524717
 30
0.0
  0
SPLINE
  5
156
100
AcDbEntity
  8
0
 62
7
100
AcDbSpline
 70
8
 71
3
 72
8
 73
4
 74
0
 40
0
 40
0
 40
0
 40
0
 40
1
 40
1
 40
1
 40
1
 10
37.517210
 20
59.524717
 30
0.0
 10
39.348264
 20
62.567103
 30
0.0
 10
41.355759
 20
65.338455
 30
0.0
 10
43.702777
 20
68.063914
 30
0.0
  0
SPLINE
  5
157
100
AcDbEntity
  8
0
 62
7
100
AcDbSpline
 70
8
 71
3
 72
8
 73
4
 74
0
 40
0
 40
0
 40
0
 40
0
 40
1
 40
1
 40
1
 40
1
 10
43.702777
 20
68.063914
 30
0.0
 10
44.787055
 20
69.323024
 30
0.0
 10
45.674190
 20
70.411422
 30
0.0
 10
45.674190
 20
70.482582
 30
0.0
  0
SPLINE
  5
158
100
AcDbEntity
  8
0
 62
7
100
AcDbSpline
 70
8
 71
3
 72
8
 73
4
 74
0
 40
0
 40
0
 40
0
 40
0
 40
1
 40
1
 40
1
 40
1
 10
45.674190
 20
70.482582
 30
0.0
 10
45.674190
 20
70.553739
 30
0.0
 10
45.208066
 20
70.798465
 30
0.0
 10
44.638360
 20
71.026417
 30
0.0
  0
SPLINE
  5
159
100
AcDbEntity
  8
0
 62
7
100
AcDbSpline
 70
8
 71
3
 72
8
 73
4
 74
0
 40
0
 40
0
 40
0
 40
0
 40
1
 40
1
 40
1
 40
1
 10
44.638360
 20
71.026417
 30
0.0
 10
44.068653
 20
71.254369
 30
0.0
 10
43.525847
 20
71.564952
 30
0.0
 10
43.432121
 20
71.716604
 30
0.0
  0
SPLINE
  5
15a
100
AcDbEntity
  8
0
 62
7
100
AcDbSpline
 70
8
 71
3
 72
8
 73
4
 74
0
 40
0
 40
0
 40
0
 40
0
 40
1
 40
1
 40
1
 40
1
 10
43.432121
 20
71.716604
 30
0.0
 10
43.220153
 20
72.059575
 30
0.0
 10
43.169046
 20
72.064332
 30
0.0
 10
44.705778
 20
71.598094
 30
0.0
  0
SPLINE
  5
15b
100
AcDbEntity
  8
0
 62
7
100
AcDbSpline
 70
8
 71
3
 72
8
 73
4
 74
0
 40
0
 40
0
 40
0
 40
0
 40
1
 40
1
 40
1
 40
1
 10
44.705778
 20
71.598094
 30
0.0
 10
45.837980
 20
71.254591
 30
0.0
 10
46.075521
 20
71.255710
 30
0.0
 10
46.756299
 20
71.607751
 30
0.0
  0
SPLINE
  5
15c
100
AcDbEntity
  8
0
 62
7
100
AcDbSpline
 70
8
 71
3
 72
8
 73
4
 74
0
 40
0
 40
0
 40
0
 40
0
 40
1
 40
1
 40
1
 40
1
 10
46.756299
 20
71.607751
 30
0.0
 10
47.647286
 20
72.068497
 30
0.0
 10
47.759734
 20
72.676324
 30
0.0
 10
46.998673
 20
72.917875
 30
0.0
  0
SPLINE
  5
15d
100
AcDbEntity
  8
0
 62
7
100
AcDbSpline
 70
8
 71
3
 72
8
 73
4
 74
0
 40
0
 40
0
 40
0
 40
0
 40
1
 40
1
 40
1
 40
1
 10
46.998673
 20
72.917875
 30
0.0
 10
46.389123
 20
73.111341
 30
0.0
 10
45.674190
 20
73.767392
 30
0.0
 10
45.674190
 20
74.133276
 30
0.0
  0
SPLINE
  5
15e
100
AcDbEntity
  8
0
 62
7
100
AcDbSpline
 70
8
 71
3
 72
8
 73
4
 74
0
 40
0
 40
0
 40
0
 40
0
 40
1
 40
1
 40
1
 40
1
 10
45.674190
 20
74.133276
 30
0.0
 10
45.674190
 20
74.271359
 30
0.0
 10
46.145696
 20
74.143806
 30
0.0
 10
46.721982
 20
73.849794
 30
0.0
  0
SPLINE
  5
15f
100
AcDbEntity
  8
0
 62
7
100
AcDbSpline
 70
8
 71
3
 72
8
 73
4
 74
0
 40
0
 40
0
 40
0
 40
0
 40
1
 40
1
 40
1
 40
1
 10
46.721982
 20
73.849794
 30
0.0
 10
47.298269
 20
73.555796
 30
0.0
 10
48.036411
 20
73.315251
 30
0.0
 10
48.362299
 20
73.315251
 30
0.0
  0
SPLINE
  5
160
100
AcDbEntity
  8
0
 62
7
100
AcDbSpline
 70
8
 71
3
 72
8
 73
4
 74
0
 40
0
 40
0
 40
0
 40
0
 40
1
 40
1
 40
1
 40
1
 10
48.362299
 20
73.315251
 30
0.0
 10
48.855794
 20
73.315251
 30
0.0
 10
48.702791
 20
73.539882
 30
0.0
 10
47.446798
 20
74.659331
 30
0.0
  0
SPLINE
  5
161
100
AcDbEntity
  8
0
 62
7
100
AcDbSpline
 70
8
 71
3
 72
8
 73
4
 74
0
 40
0
 40
0
 40
0
 40
0
 40
1
 40
1
 40
1
 40
1
 10
47.446798
 20
74.659331
 30
0.0
 10
46.617385
 20
75.398574
 30
0.0
 10
45.938773
 20
76.099265
 30
0.0
 10
45.938773
 20
76.216423
 30
0.0
  0
SPLINE
  5
162
100
AcDbEntity
  8
0
 62
7
100
AcDbSpline
 70
8
 71
3
 72
8
 73
4
 74
0
 40
0
 40
0
 40
0
 40
0
 40
1
 40
1
 40
1
 40
1
 10
45.938773
 20
76.216423
 30
0.0
 10
45.938773
 20
76.333580
 30
0.0
 10
46.916176
 20
76.090992
 30
0.0
 10
48.110783
 20
75.677337
 30
0.0
  0
SPLINE
  5
163
100
AcDbEntity
  8
0
 62
7
100
AcDbSpline
 70
8
 71
3
 72
8
 73
4
 74
0
 40
0
 40
0
 40
0
 40
0
 40
1
 40
1
 40
1
 40
1
 10
48.110783
 20
75.677337
 30
0.0
 10
49.305387
 20
75.263685
 30
0.0
 10
50.343551
 20
74.986002
 30
0.0
 10
50.417817
 20
75.060268
 30
0.0
  0
SPLINE
  5
164
100
AcDbEntity
  8
0
 62
7
100
AcDbSpline
 70
8
 71
3
 72
8
 73
4
 74
0
 40
0
 40
0
 40
0
 40
0
 40
1
 40
1
 40
1
 40
1
 10
50.417817
 20
75.060268
 30
0.0
 10
50.492083
 20
75.134531
 30
0.0
 10
50.173956
 20
75.491819
 30
0.0
 10
49.710869
 20
75.854237
 30
0.0
  0
SPLINE
  5
165
100
AcDbEntity
  8
0
 62
7
100
AcDbSpline
 70
8
 71
3
 72
8
 73
4
 74
0
 40
0
 40
0
 40
0
 40
0
 40
1
 40
1
 40
1
 40
1
 10
49.710869
 20
75.854237
 30
0.0
 10
48.757681
 20
76.600219
 30
0.0
 10
47.660113
 20
78.035200
 30
0.0
 10
47.876907
 20
78.251995
 30
0.0
  0
SPLINE
  5
166
100
AcDbEntity
  8
0
 62
7
100
AcDbSpline
 70
8
 71
3
 72
8
 73
4
 74
0
 40
0
 40
0
 40
0
 40
0
 40
1
 40
1
 40
1
 40
1
 10
47.876907
 20
78.251995
 30
0.0
 10
47.955986
 20
78.331073
 30
0.0
 10
48.415459
 20
78.100148
 30
0.0
 10
48.897958
 20
77.738830
 30
0.0
  0
SPLINE
  5
167
100
AcDbEntity
  8
0
 62
7
100
AcDbSpline
 70
8
 71
3
 72
8
 73
4
 74
0
 40
0
 40
0
 40
0
 40
0
 40
1
 40
1
 40
1
 40
1
 10
48.897958
 20
77.738830
 30
0.0
 10
50.052817
 20
76.874021
 30
0.0
 10
51.355051
 20
76.225667
 30
0.0
 10
51.937190
 20
76.225667
 30
0.0
  0
SPLINE
  5
168
100
AcDbEntity
  8
0
 62
7
100
AcDbSpline
 70
8
 71
3
 72
8
 73
4
 74
0
 40
0
 40
0
 40
0
 40
0
 40
1
 40
1
 40
1
 40
1
 10
51.937190
 20
76.225667
 30
0.0
 10
52.286609
 20
76.225667
 30
0.0
 10
52.145417
 20
76.477773
 30
0.0
 10
51.381514
 20
77.217855
 30
0.0
  0
SPLINE
  5
169
100
AcDbEntity
  8
0
 62
7
100
AcDbSpline
 70
8
 71
3
 72
8
 73
4
 74
0
 40
0
 40
0
 40
0
 40
0
 40
1
 40
1
 40
1
 40
1
 10
51.381514
 20
77.217855
 30
0.0
 10
50.343255
 20
78.223740
 30
0.0
 10
49.633132
 20
79.526056
 30
0.0
 10
49.654897
 20
80.384356
 30
0.0
  0
SPLINE
  5
16a
100
AcDbEntity
  8
0
 62
7
100
AcDbSpline
 70
8
 71
3
 72
8
 73
4
 74
0
 40
0
 40
0
 40
0
 40
0
 40
1
 40
1
 40
1
 40
1
 10
49.654897
 20
80.384356
 30
0.0
 10
49.661643
 20
80.650935
 30
0.0
 10
49.930034
 20
80.352834
 30
0.0
 10
50.272368
 20
79.698498
 30
0.0
  0
SPLINE
  5
16b
100
AcDbEntity
  8
0
 62
7
100
AcDbSpline
 70
8
 71
3
 72
8
 73
4
 74
0
 40
0
 40
0
 40
0
 40
0
 40
1
 40
1
 40
1
 40
1
 10
50.272368
 20
79.698498
 30
0.0
 10
50.872192
 20
78.552006
 30
0.0
 10
52.500255
 20
77.288128
 30
0.0
 10
53.380857
 20
77.285355
 30
0.0
  0
SPLINE
  5
16c
100
AcDbEntity
  8
0
 62
7
100
AcDbSpline
 70
8
 71
3
 72
8
 73
4
 74
0
 40
0
 40
0
 40
0
 40
0
 40
1
 40
1
 40
1
 40
1
 10
53.380857
 20
77.285355
 30
0.0
 10
53.617699
 20
77.284561
 30
0.0
 10
53.950045
 20
77.450961
 30
0.0
 10
54.119399
 20
77.655020
 30
0.0
  0
SPLINE
  5
16d
100
AcDbEntity
  8
0
 62
7
100
AcDbSpline
 70
8
 71
3
 72
8
 73
4
 74
0
 40
0
 40
0
 40
0
 40
0
 40
1
 40
1
 40
1
 40
1
 10
54.119399
 20
77.655020
 30
0.0
 10
54.362924
 20
77.948449
 30
0.0
 10
54.203698
 20
78.372031
 30
0.0
 10
53.358047
 20
79.680416
 30
0.0
  0
SPLINE
  5
16e
100
AcDbEntity
  8
0
 62
7
100
AcDbSpline
 70
8
 71
3
 72
8
 73
4
 74
0
 40
0
 40
0
 40
0
 40
0
 40
1
 40
1
 40
1
 40
1
 10
53.358047
 20
79.680416
 30
0.0
 10
51.661399
 20
82.305459
 30
0.0
 10
51.904106
 20
82.306819
 30
0.0
 10
54.731311
 20
79.688116
 30
0.0
  0
SPLINE
  5
16f
100
AcDbEntity
  8
0
 62
7
100
AcDbSpline
 70
8
 71
3
 72
8
 73
4
 74
0
 40
0
 40
0
 40
0
 40
0
 40
1
 40
1
 40
1
 40
1
 10
54.731311
 20
79.688116
 30
0.0
 10
55.979674
 20
78.531815
 30
0.0
 10
56.307051
 20
78.793192
 30
0.0
 10
55.267339
 20
80.116077
 30
0.0
  0
SPLINE
  5
170
100
AcDbEntity
  8
0
 62
7
100
AcDbSpline
 70
8
 71
3
 72
8
 73
4
 74
0
 40
0
 40
0
 40
0
 40
0
 40
1
 40
1
 40
1
 40
1
 10
55.267339
 20
80.116077
 30
0.0
 10
54.356749
 20
81.274666
 30
0.0
 10
53.514633
 20
82.831392
 30
0.0
 10
53.698833
 20
83.015593
 30
0.0
  0
SPLINE
  5
171
100
AcDbEntity
  8
0
 62
7
100
AcDbSpline
 70
8
 71
3
 72
8
 73
4
 74
0
 40
0
 40
0
 40
0
 40
0
 40
1
 40
1
 40
1
 40
1
 10
53.698833
 20
83.015593
 30
0.0
 10
53.768220
 20
83.084982
 30
0.0
 10
54.622443
 20
82.419074
 30
0.0
 10
55.597105
 20
81.535797
 30
0.0
  0
SPLINE
  5
172
100
AcDbEntity
  8
0
 62
7
100
AcDbSpline
 70
8
 71
3
 72
8
 73
4
 74
0
 40
0
 40
0
 40
0
 40
0
 40
1
 40
1
 40
1
 40
1
 10
55.597105
 20
81.535797
 30
0.0
 10
56.571764
 20
80.652519
 30
0.0
 10
57.478538
 20
79.929839
 30
0.0
 10
57.612158
 20
79.929839
 30
0.0
  0
SPLINE
  5
173
100
AcDbEntity
  8
0
 62
7
100
AcDbSpline
 70
8
 71
3
 72
8
 73
4
 74
0
 40
0
 40
0
 40
0
 40
0
 40
1
 40
1
 40
1
 40
1
 10
57.612158
 20
79.929839
 30
0.0
 10
57.964115
 20
79.929839
 30
0.0
 10
57.636738
 20
81.142816
 30
0.0
 10
56.772432
 20
83.041188
 30
0.0
  0
SPLINE
  5
174
100
AcDbEntity
  8
0
 62
7
100
AcDbSpline
 70
8
 71
3
 72
8
 73
4
 74
0
 40
0
 40
0
 40
0
 40
0
 40
1
 40
1
 40
1
 40
1
 10
56.772432
 20
83.041188
 30
0.0
 10
55.874714
 20
85.012937
 30
0.0
 10
56.223035
 20
84.971213
 30
0.0
 10
58.186836
 20
82.871752
 30
0.0
  0
SPLINE
  5
175
100
AcDbEntity
  8
0
 62
7
100
AcDbSpline
 70
8
 71
3
 72
8
 73
4
 74
0
 40
0
 40
0
 40
0
 40
0
 40
1
 40
1
 40
1
 40
1
 10
58.186836
 20
82.871752
 30
0.0
 10
59.015291
 20
81.986062
 30
0.0
 10
59.432029
 20
81.691297
 30
0.0
 10
59.431047
 20
81.991695
 30
0.0
  0
SPLINE
  5
176
100
AcDbEntity
  8
0
 62
7
100
AcDbSpline
 70
8
 71
3
 72
8
 73
4
 74
0
 40
0
 40
0
 40
0
 40
0
 40
1
 40
1
 40
1
 40
1
 10
59.431047
 20
81.991695
 30
0.0
 10
59.427396
 20
83.107133
 30
0.0
 10
58.777127
 20
84.566506
 30
0.0
 10
57.577559
 20
86.151355
 30
0.0
  0
SPLINE
  5
177
100
AcDbEntity
  8
0
 62
7
100
AcDbSpline
 70
8
 71
3
 72
8
 73
4
 74
0
 40
0
 40
0
 40
0
 40
0
 40
1
 40
1
 40
1
 40
1
 10
57.577559
 20
86.151355
 30
0.0
 10
56.863205
 20
87.095142
 30
0.0
 10
56.375160
 20
87.867334
 30
0.0
 10
56.493016
 20
87.867334
 30
0.0
  0
SPLINE
  5
178
100
AcDbEntity
  8
0
 62
7
100
AcDbSpline
 70
8
 71
3
 72
8
 73
4
 74
0
 40
0
 40
0
 40
0
 40
0
 40
1
 40
1
 40
1
 40
1
 10
56.493016
 20
87.867334
 30
0.0
 10
56.931052
 20
87.867334
 30
0.0
 10
58.796108
 20
86.338992
 30
0.0
 10
59.525389
 20
85.382417
 30
0.0
  0
SPLINE
  5
179
100
AcDbEntity
  8
0
 62
7
100
AcDbSpline
 70
8
 71
3
 72
8
 73
4
 74
0
 40
0
 40
0
 40
0
 40
0
 40
1
 40
1
 40
1
 40
1
 10
59.525389
 20
85.382417
 30
0.0
 10
60.657896
 20
83.896943
 30
0.0
 10
60.705217
 20
84.463054
 30
0.0
 10
59.579515
 20
86.029951
 30
0.0
  0
SPLINE
  5
17a
100
AcDbEntity
  8
0
 62
7
100
AcDbSpline
 70
8
 71
3
 72
8
 73
4
 74
0
 40
0
 40
0
 40
0
 40
0
 40
1
 40
1
 40
1
 40
1
 10
59.579515
 20
86.029951
 30
0.0
 10
59.042110
 20
86.777978
 30
0.0
 10
58.651114
 20
87.438701
 30
0.0
 10
58.710637
 20
87.498224
 30
0.0
  0
SPLINE
  5
17b
100
AcDbEntity
  8
0
 62
7
100
AcDbSpline
 70
8
 71
3
 72
8
 73
4
 74
0
 40
0
 40
0
 40
0
 40
0
 40
1
 40
1
 40
1
 40
1
 10
58.710637
 20
87.498224
 30
0.0
 10
58.770158
 20
87.557748
 30
0.0
 10
59.331611
 20
87.218663
 30
0.0
 10
59.958309
 20
86.744704
 30
0.0
  0
SPLINE
  5
17c
100
AcDbEntity
  8
0
 62
7
100
AcDbSpline
 70
8
 71
3
 72
8
 73
4
 74
0
 40
0
 40
0
 40
0
 40
0
 40
1
 40
1
 40
1
 40
1
 10
59.958309
 20
86.744704
 30
0.0
 10
62.323123
 20
84.956243
 30
0.0
 10
62.173551
 20
85.030014
 30
0.0
 10
61.952952
 20
85.760925
 30
0.0
  0
SPLINE
  5
17d
100
AcDbEntity
  8
0
 62
7
100
AcDbSpline
 70
8
 71
3
 72
8
 73
4
 74
0
 40
0
 40
0
 40
0
 40
0
 40
1
 40
1
 40
1
 40
1
 10
61.952952
 20
85.760925
 30
0.0
 10
61.537747
 20
87.136621
 30
0.0
 10
60.578288
 20
88.538254
 30
0.0
 10
59.478101
 20
89.376332
 30
0.0
  0
SPLINE
  5
17e
100
AcDbEntity
  8
0
 62
7
100
AcDbSpline
 70
8
 71
3
 72
8
 73
4
 74
0
 40
0
 40
0
 40
0
 40
0
 40
1
 40
1
 40
1
 40
1
 10
59.478101
 20
89.376332
 30
0.0
 10
58.206463
 20
90.345014
 30
0.0
 10
58.468035
 20
90.494739
 30
0.0
 10
60.120736
 20
89.744180
 30
0.0
  0
SPLINE
  5
17f
100
AcDbEntity
  8
0
 62
7
100
AcDbSpline
 70
8
 71
3
 72
8
 73
4
 74
0
 40
0
 40
0
 40
0
 40
0
 40
1
 40
1
 40
1
 40
1
 10
60.120736
 20
89.744180
 30
0.0
 10
61.606660
 20
89.069357
 30
0.0
 10
63.078527
 20
87.529157
 30
0.0
 10
63.851988
 20
85.839694
 30
0.0
  0
SPLINE
  5
180
100
AcDbEntity
  8
0
 62
7
100
AcDbSpline
 70
8
 71
3
 72
8
 73
4
 74
0
 40
0
 40
0
 40
0
 40
0
 40
1
 40
1
 40
1
 40
1
 10
63.851988
 20
85.839694
 30
0.0
 10
64.207514
 20
85.063126
 30
0.0
 10
64.543591
 20
84.427751
 30
0.0
 10
64.598828
 20
84.427751
 30
0.0
  0
SPLINE
  5
181
100
AcDbEntity
  8
0
 62
7
100
AcDbSpline
 70
8
 71
3
 72
8
 73
4
 74
0
 40
0
 40
0
 40
0
 40
0
 40
1
 40
1
 40
1
 40
1
 10
64.598828
 20
84.427751
 30
0.0
 10
64.817165
 20
84.427751
 30
0.0
 10
64.399184
 20
87.270685
 30
0.0
 10
64.026865
 20
88.318025
 30
0.0
  0
SPLINE
  5
182
100
AcDbEntity
  8
0
 62
7
100
AcDbSpline
 70
8
 71
3
 72
8
 73
4
 74
0
 40
0
 40
0
 40
0
 40
0
 40
1
 40
1
 40
1
 40
1
 10
64.026865
 20
88.318025
 30
0.0
 10
63.809420
 20
88.929707
 30
0.0
 10
63.218375
 20
89.792911
 30
0.0
 10
62.713433
 20
90.236254
 30
0.0
  0
SPLINE
  5
183
100
AcDbEntity
  8
0
 62
7
100
AcDbSpline
 70
8
 71
3
 72
8
 73
4
 74
0
 40
0
 40
0
 40
0
 40
0
 40
1
 40
1
 40
1
 40
1
 10
62.713433
 20
90.236254
 30
0.0
 10
61.657526
 20
91.163354
 30
0.0
 10
61.914080
 20
91.271878
 30
0.0
 10
63.386221
 20
90.520845
 30
0.0
  0
SPLINE
  5
184
100
AcDbEntity
  8
0
 62
7
100
AcDbSpline
 70
8
 71
3
 72
8
 73
4
 74
0
 40
0
 40
0
 40
0
 40
0
 40
1
 40
1
 40
1
 40
1
 10
63.386221
 20
90.520845
 30
0.0
 10
64.668665
 20
89.866592
 30
0.0
 10
65.978191
 20
88.302830
 30
0.0
 10
66.328417
 20
87.007438
 30
0.0
  0
SPLINE
  5
185
100
AcDbEntity
  8
0
 62
7
100
AcDbSpline
 70
8
 71
3
 72
8
 73
4
 74
0
 40
0
 40
0
 40
0
 40
0
 40
1
 40
1
 40
1
 40
1
 10
66.328417
 20
87.007438
 30
0.0
 10
66.721900
 20
85.552063
 30
0.0
 10
66.937334
 20
85.797763
 30
0.0
 10
66.761508
 20
87.501368
 30
0.0
  0
SPLINE
  5
186
100
AcDbEntity
  8
0
 62
7
100
AcDbSpline
 70
8
 71
3
 72
8
 73
4
 74
0
 40
0
 40
0
 40
0
 40
0
 40
1
 40
1
 40
1
 40
1
 10
66.761508
 20
87.501368
 30
0.0
 10
66.580710
 20
89.253137
 30
0.0
 10
65.589737
 20
91.414809
 30
0.0
 10
64.480136
 20
92.477876
 30
0.0
  0
LWPOLYLINE
  5
187
100
AcDbEntity
  8
0
 62
7
100
AcDbPolyline
 90
3
 70
0
 10
33.034907
 20
49.526037
 30
0.0
 10
32.434165
 20
48.841292
 30
0.0
 10
32.868899
 20
50.031917
 30
0.0
  0
SPLINE
  5
188
100
AcDbEntity
  8
0
 62
7
100
AcDbSpline
 70
8
 71
3
 72
8
 73
4
 74
0
 40
0
 40
0
 40
0
 40
0
 40
1
 40
1
 40
1
 40
1
 10
61.626906
 20
92.504816
 30
0.0
 10
50.904042
 20
88.703531
 30
0.0
 10
41.854705
 20
79.459055
 30
0.0
 10
34.084474
 20
64.368471
 30
0.0
  0
SPLINE
  5
189
100
AcDbEntity
  8
0
 62
7
100
AcDbSpline
 70
8
 71
3
 72
8
 73
4
 74
0
 40
0
 40
0
 40
0
 40
0
 40
1
 40
1
 40
1
 40
1
 10
34.084474
 20
64.368471
 30
0.0
 10
32.862028
 20
61.994357
 30
0.0
 10
31.814704
 20
60.099043
 30
0.0
 10
31.757083
 20
60.156661
 30
0.0
  0
SPLINE
  5
18a
100
AcDbEntity
  8
0
 62
7
100
AcDbSpline
 70
8
 71
3
 72
8
 73
4
 74
0
 40
0
 40
0
 40
0
 40
0
 40
1
 40
1
 40
1
 40
1
 10
31.757083
 20
60.156661
 30
0.0
 10
31.606707
 20
60.307037
 30
0.0
 10
34.361379
 20
67.145744
 30
0.0
 10
35.716117
 20
69.985295
 30
0.0
  0
SPLINE
  5
18b
100
AcDbEntity
  8
0
 62
7
100
AcDbSpline
 70
8
 71
3
 72
8
 73
4
 74
0
 40
0
 40
0
 40
0
 40
0
 40
1
 40
1
 40
1
 40
1
 10
35.716117
 20
69.985295
 30
0.0
 10
40.025921
 20
79.018720
 30
0.0
 10
45.806027
 20
86.045424
 30
0.0
 10
52.449545
 20
90.327631
 30
0.0
  0
SPLINE
  5
18c
100
AcDbEntity
  8
0
 62
7
100
AcDbSpline
 70
8
 71
3
 72
8
 73
4
 74
0
 40
0
 40
0
 40
0
 40
0
 40
1
 40
1
 40
1
 40
1
 10
52.449545
 20
90.327631
 30
0.0
 10
54.980504
 20
91.959009
 30
0.0
 10
56.527427
 20
92.704751
 30
0.0
 10
59.578759
 20
93.764489
 30
0.0
  0
SPLINE
  5
18d
100
AcDbEntity
  8
0
 62
7
100
AcDbSpline
 70
8
 71
3
 72
8
 73
4
 74
0
 40
0
 40
0
 40
0
 40
0
 40
1
 40
1
 40
1
 40
1
 10
59.578759
 20
93.764489
 30
0.0
 10
61.966909
 20
94.593899
 30
0.0
 10
63.319869
 20
94.898930
 30
0.0
 10
67.191162
 20
95.480727
 30
0.0
  0
LWPOLYLINE
  5
18e
100
AcDbEntity
  8
0
 62
7
100
AcDbPolyline
 90
3
 70
0
 10
64.480136
 20
92.477876
 30
0.0
 10
63.688997
 20
93.235833
 30
0.0
 10
61.626906
 20
92.504816
 30
0.0
  0
SPLINE
  5
18f
100
AcDbEntity
  8
0
 62
7
100
AcDbSpline
 70
8
 71
3
 72
8
 73
4
 74
0
 40
0
 40
0
 40
0
 40
0
 40
1
 40
1
 40
1
 40
1
 10
67.666769
 20
96.730876
 30
0.0
 10
67.226363
 20
97.312959
 30
0.0
 10
66.600964
 20
98.132207
 30
0.0
 10
66.276995
 20
98.551426
 30
0.0
  0
LWPOLYLINE
  5
190
100
AcDbEntity
  8
0
 62
7
100
AcDbPolyline
 90
3
 70
0
 10
67.191162
 20
95.480727
 30
0.0
 10
68.467507
 20
95.672542
 30
0.0
 10
67.666769
 20
96.730876
 30
0.0
  0
SPLINE
  5
191
100
AcDbEntity
  8
0
 62
7
100
AcDbSpline
 70
8
 71
3
 72
8
 73
4
 74
0
 40
0
 40
0
 40
0
 40
0
 40
1
 40
1
 40
1
 40
1
 10
66.330552
 20
98.984361
 30
0.0
 10
66.683980
 20
98.803254
 30
0.0
 10
67.640377
 20
98.004932
 30
0.0
 10
68.455881
 20
97.210311
 30
0.0
  0
SPLINE
  5
192
100
AcDbEntity
  8
0
 62
7
100
AcDbSpline
 70
8
 71
3
 72
8
 73
4
 74
0
 40
0
 40
0
 40
0
 40
0
 40
1
 40
1
 40
1
 40
1
 10
68.455881
 20
97.210311
 30
0.0
 10
69.703572
 20
95.994567
 30
0.0
 10
70.068781
 20
95.779145
 30
0.0
 10
70.759770
 20
95.851334
 30
0.0
  0
LWPOLYLINE
  5
193
100
AcDbEntity
  8
0
 62
7
100
AcDbPolyline
 90
3
 70
0
 10
66.276995
 20
98.551426
 30
0.0
 10
65.687959
 20
99.313645
 30
0.0
 10
66.330552
 20
98.984361
 30
0.0
  0
SPLINE
  5
194
100
AcDbEntity
  8
0
 62
7
100
AcDbSpline
 70
8
 71
3
 72
8
 73
4
 74
0
 40
0
 40
0
 40
0
 40
0
 40
1
 40
1
 40
1
 40
1
 10
71.136462
 20
96.850203
 30
0.0
 10
70.892009
 20
97.352395
 30
0.0
 10
69.990436
 20
98.513254
 30
0.0
 10
69.132966
 20
99.429890
 30
0.0
  0
SPLINE
  5
195
100
AcDbEntity
  8
0
 62
7
100
AcDbSpline
 70
8
 71
3
 72
8
 73
4
 74
0
 40
0
 40
0
 40
0
 40
0
 40
1
 40
1
 40
1
 40
1
 10
69.132966
 20
99.429890
 30
0.0
 10
68.275499
 20
100.346526
 30
0.0
 10
67.693770
 20
101.096501
 30
0.0
 10
67.840238
 20
101.096501
 30
0.0
  0
SPLINE
  5
196
100
AcDbEntity
  8
0
 62
7
100
AcDbSpline
 70
8
 71
3
 72
8
 73
4
 74
0
 40
0
 40
0
 40
0
 40
0
 40
1
 40
1
 40
1
 40
1
 10
67.840238
 20
101.096501
 30
0.0
 10
68.359935
 20
101.096501
 30
0.0
 10
70.692912
 20
98.737798
 30
0.0
 10
71.735648
 20
97.158135
 30
0.0
  0
SPLINE
  5
197
100
AcDbEntity
  8
0
 62
7
100
AcDbSpline
 70
8
 71
3
 72
8
 73
4
 74
0
 40
0
 40
0
 40
0
 40
0
 40
1
 40
1
 40
1
 40
1
 10
71.735648
 20
97.158135
 30
0.0
 10
72.787573
 20
95.564553
 30
0.0
 10
72.801776
 20
95.554800
 30
0.0
 10
74.081238
 20
95.547548
 30
0.0
  0
LWPOLYLINE
  5
198
100
AcDbEntity
  8
0
 62
7
100
AcDbPolyline
 90
3
 70
0
 10
70.759770
 20
95.851334
 30
0.0
 10
71.580928
 20
95.937126
 30
0.0
 10
71.136462
 20
96.850203
 30
0.0
  0
SPLINE
  5
199
100
AcDbEntity
  8
0
 62
7
100
AcDbSpline
 70
8
 71
3
 72
8
 73
4
 74
0
 40
0
 40
0
 40
0
 40
0
 40
1
 40
1
 40
1
 40
1
 10
75.185908
 20
97.061599
 30
0.0
 10
74.972746
 20
98.837692
 30
0.0
 10
74.077827
 20
100.952414
 30
0.0
 10
72.880950
 20
102.508283
 30
0.0
  0
LWPOLYLINE
  5
19a
100
AcDbEntity
  8
0
 62
7
100
AcDbPolyline
 90
3
 70
0
 10
74.081238
 20
95.547548
 30
0.0
 10
75.368497
 20
95.540245
 30
0.0
 10
75.185908
 20
97.061599
 30
0.0
  0
SPLINE
  5
19b
100
AcDbEntity
  8
0
 62
7
100
AcDbSpline
 70
8
 71
3
 72
8
 73
4
 74
0
 40
0
 40
0
 40
0
 40
0
 40
1
 40
1
 40
1
 40
1
 10
72.910269
 20
102.816287
 30
0.0
 10
75.073547
 20
100.858045
 30
0.0
 10
76.165078
 20
99.028425
 30
0.0
 10
76.895920
 20
96.135558
 30
0.0
  0
SPLINE
  5
19c
100
AcDbEntity
  8
0
 62
7
100
AcDbSpline
 70
8
 71
3
 72
8
 73
4
 74
0
 40
0
 40
0
 40
0
 40
0
 40
1
 40
1
 40
1
 40
1
 10
76.895920
 20
96.135558
 30
0.0
 10
77.135498
 20
95.187243
 30
0.0
 10
77.283911
 20
95.011079
 30
0.0
 10
77.843253
 20
95.011079
 30
0.0
  0
SPLINE
  5
19d
100
AcDbEntity
  8
0
 62
7
100
AcDbSpline
 70
8
 71
3
 72
8
 73
4
 74
0
 40
0
 40
0
 40
0
 40
0
 40
1
 40
1
 40
1
 40
1
 10
77.843253
 20
95.011079
 30
0.0
 10
78.461272
 20
95.011079
 30
0.0
 10
78.495766
 20
95.078738
 30
0.0
 10
78.349070
 20
96.003266
 30
0.0
  0
LWPOLYLINE
  5
19e
100
AcDbEntity
  8
0
 62
7
100
AcDbPolyline
 90
3
 70
0
 10
72.880950
 20
102.508283
 30
0.0
 10
72.033410
 20
103.610037
 30
0.0
 10
72.910269
 20
102.816287
 30
0.0
  0
SPLINE
  5
19f
100
AcDbEntity
  8
0
 62
7
100
AcDbSpline
 70
8
 71
3
 72
8
 73
4
 74
0
 40
0
 40
0
 40
0
 40
0
 40
1
 40
1
 40
1
 40
1
 10
78.885299
 20
95.884212
 30
0.0
 10
79.471075
 20
94.945793
 30
0.0
 10
79.807133
 20
94.706636
 30
0.0
 10
81.046127
 20
94.346451
 30
0.0
  0
SPLINE
  5
1a0
100
AcDbEntity
  8
0
 62
7
100
AcDbSpline
 70
8
 71
3
 72
8
 73
4
 74
0
 40
0
 40
0
 40
0
 40
0
 40
1
 40
1
 40
1
 40
1
 10
81.046127
 20
94.346451
 30
0.0
 10
81.853072
 20
94.111866
 30
0.0
 10
82.667636
 20
93.979156
 30
0.0
 10
82.856271
 20
94.051543
 30
0.0
  0
SPLINE
  5
1a1
100
AcDbEntity
  8
0
 62
7
100
AcDbSpline
 70
8
 71
3
 72
8
 73
4
 74
0
 40
0
 40
0
 40
0
 40
0
 40
1
 40
1
 40
1
 40
1
 10
82.856271
 20
94.051543
 30
0.0
 10
83.060678
 20
94.129982
 30
0.0
 10
83.275948
 20
94.899385
 30
0.0
 10
83.389092
 20
95.955919
 30
0.0
  0
SPLINE
  5
1a2
100
AcDbEntity
  8
0
 62
7
100
AcDbSpline
 70
8
 71
3
 72
8
 73
4
 74
0
 40
0
 40
0
 40
0
 40
0
 40
1
 40
1
 40
1
 40
1
 10
83.389092
 20
95.955919
 30
0.0
 10
83.633456
 20
98.237746
 30
0.0
 10
83.062199
 20
101.221865
 30
0.0
 10
81.953092
 20
103.457285
 30
0.0
  0
SPLINE
  5
1a3
100
AcDbEntity
  8
0
 62
7
100
AcDbSpline
 70
8
 71
3
 72
8
 73
4
 74
0
 40
0
 40
0
 40
0
 40
0
 40
1
 40
1
 40
1
 40
1
 10
81.953092
 20
103.457285
 30
0.0
 10
81.499488
 20
104.371532
 30
0.0
 10
81.131005
 20
105.196629
 30
0.0
 10
81.134241
 20
105.290834
 30
0.0
  0
SPLINE
  5
1a4
100
AcDbEntity
  8
0
 62
7
100
AcDbSpline
 70
8
 71
3
 72
8
 73
4
 74
0
 40
0
 40
0
 40
0
 40
0
 40
1
 40
1
 40
1
 40
1
 10
81.134241
 20
105.290834
 30
0.0
 10
81.147285
 20
105.670371
 30
0.0
 10
82.259953
 20
104.035622
 30
0.0
 10
83.104239
 20
102.396504
 30
0.0
  0
SPLINE
  5
1a5
100
AcDbEntity
  8
0
 62
7
100
AcDbSpline
 70
8
 71
3
 72
8
 73
4
 74
0
 40
0
 40
0
 40
0
 40
0
 40
1
 40
1
 40
1
 40
1
 10
83.104239
 20
102.396504
 30
0.0
 10
84.334630
 20
100.007788
 30
0.0
 10
84.877611
 20
97.744381
 30
0.0
 10
84.804967
 20
95.307012
 30
0.0
  0
SPLINE
  5
1a6
100
AcDbEntity
  8
0
 62
7
100
AcDbSpline
 70
8
 71
3
 72
8
 73
4
 74
0
 40
0
 40
0
 40
0
 40
0
 40
1
 40
1
 40
1
 40
1
 10
84.804967
 20
95.307012
 30
0.0
 10
84.749968
 20
93.461642
 30
0.0
 10
84.790203
 20
93.284551
 30
0.0
 10
85.281050
 20
93.211565
 30
0.0
  0
SPLINE
  5
1a7
100
AcDbEntity
  8
0
 62
7
100
AcDbSpline
 70
8
 71
3
 72
8
 73
4
 74
0
 40
0
 40
0
 40
0
 40
0
 40
1
 40
1
 40
1
 40
1
 10
85.281050
 20
93.211565
 30
0.0
 10
85.717195
 20
93.146713
 30
0.0
 10
85.848216
 20
93.319460
 30
0.0
 10
85.983413
 20
94.137607
 30
0.0
  0
SPLINE
  5
1a8
100
AcDbEntity
  8
0
 62
7
100
AcDbSpline
 70
8
 71
3
 72
8
 73
4
 74
0
 40
0
 40
0
 40
0
 40
0
 40
1
 40
1
 40
1
 40
1
 10
85.983413
 20
94.137607
 30
0.0
 10
86.251090
 20
95.757434
 30
0.0
 10
86.183113
 20
97.076863
 30
0.0
 10
85.744846
 20
98.768188
 30
0.0
  0
SPLINE
  5
1a9
100
AcDbEntity
  8
0
 62
7
100
AcDbSpline
 70
8
 71
3
 72
8
 73
4
 74
0
 40
0
 40
0
 40
0
 40
0
 40
1
 40
1
 40
1
 40
1
 10
85.744846
 20
98.768188
 30
0.0
 10
85.178765
 20
100.952771
 30
0.0
 10
85.409699
 20
101.295973
 30
0.0
 10
86.154305
 20
99.376704
 30
0.0
  0
SPLINE
  5
1aa
100
AcDbEntity
  8
0
 62
7
100
AcDbSpline
 70
8
 71
3
 72
8
 73
4
 74
0
 40
0
 40
0
 40
0
 40
0
 40
1
 40
1
 40
1
 40
1
 10
86.154305
 20
99.376704
 30
0.0
 10
86.606062
 20
98.212272
 30
0.0
 10
86.802047
 20
97.066462
 30
0.0
 10
86.889704
 20
95.077224
 30
0.0
  0
SPLINE
  5
1ab
100
AcDbEntity
  8
0
 62
7
100
AcDbSpline
 70
8
 71
3
 72
8
 73
4
 74
0
 40
0
 40
0
 40
0
 40
0
 40
1
 40
1
 40
1
 40
1
 10
86.889704
 20
95.077224
 30
0.0
 10
86.997995
 20
92.619711
 30
0.0
 10
87.056926
 20
92.365245
 30
0.0
 10
87.517769
 20
92.365245
 30
0.0
  0
SPLINE
  5
1ac
100
AcDbEntity
  8
0
 62
7
100
AcDbSpline
 70
8
 71
3
 72
8
 73
4
 74
0
 40
0
 40
0
 40
0
 40
0
 40
1
 40
1
 40
1
 40
1
 10
87.517769
 20
92.365245
 30
0.0
 10
88.107962
 20
92.365245
 30
0.0
 10
88.829875
 20
93.850606
 30
0.0
 10
89.295978
 20
96.023972
 30
0.0
  0
SPLINE
  5
1ad
100
AcDbEntity
  8
0
 62
7
100
AcDbSpline
 70
8
 71
3
 72
8
 73
4
 74
0
 40
0
 40
0
 40
0
 40
0
 40
1
 40
1
 40
1
 40
1
 10
89.295978
 20
96.023972
 30
0.0
 10
89.695303
 20
97.885959
 30
0.0
 10
89.658558
 20
101.331620
 30
0.0
 10
89.215076
 20
103.610037
 30
0.0
  0
SPLINE
  5
1ae
100
AcDbEntity
  8
0
 62
7
100
AcDbSpline
 70
8
 71
3
 72
8
 73
4
 74
0
 40
0
 40
0
 40
0
 40
0
 40
1
 40
1
 40
1
 40
1
 10
89.215076
 20
103.610037
 30
0.0
 10
89.016803
 20
104.628683
 30
0.0
 10
88.900556
 20
105.510166
 30
0.0
 10
88.956745
 20
105.568890
 30
0.0
  0
SPLINE
  5
1af
100
AcDbEntity
  8
0
 62
7
100
AcDbSpline
 70
8
 71
3
 72
8
 73
4
 74
0
 40
0
 40
0
 40
0
 40
0
 40
1
 40
1
 40
1
 40
1
 10
88.956745
 20
105.568890
 30
0.0
 10
89.150642
 20
105.771527
 30
0.0
 10
89.910526
 20
103.634765
 30
0.0
 10
90.306636
 20
101.773061
 30
0.0
  0
SPLINE
  5
1b0
100
AcDbEntity
  8
0
 62
7
100
AcDbSpline
 70
8
 71
3
 72
8
 73
4
 74
0
 40
0
 40
0
 40
0
 40
0
 40
1
 40
1
 40
1
 40
1
 10
90.306636
 20
101.773061
 30
0.0
 10
90.820079
 20
99.359895
 30
0.0
 10
90.629676
 20
95.975003
 30
0.0
 10
89.855262
 20
93.748738
 30
0.0
  0
SPLINE
  5
1b1
100
AcDbEntity
  8
0
 62
7
100
AcDbSpline
 70
8
 71
3
 72
8
 73
4
 74
0
 40
0
 40
0
 40
0
 40
0
 40
1
 40
1
 40
1
 40
1
 10
89.855262
 20
93.748738
 30
0.0
 10
88.902249
 20
91.009044
 30
0.0
 10
89.709355
 20
90.370358
 30
0.0
 10
91.140484
 20
92.731709
 30
0.0
  0
SPLINE
  5
1b2
100
AcDbEntity
  8
0
 62
7
100
AcDbSpline
 70
8
 71
3
 72
8
 73
4
 74
0
 40
0
 40
0
 40
0
 40
0
 40
1
 40
1
 40
1
 40
1
 10
91.140484
 20
92.731709
 30
0.0
 10
92.778442
 20
95.434327
 30
0.0
 10
93.141787
 20
96.712974
 30
0.0
 10
93.141522
 20
99.773579
 30
0.0
  0
SPLINE
  5
1b3
100
AcDbEntity
  8
0
 62
7
100
AcDbSpline
 70
8
 71
3
 72
8
 73
4
 74
0
 40
0
 40
0
 40
0
 40
0
 40
1
 40
1
 40
1
 40
1
 10
93.141522
 20
99.773579
 30
0.0
 10
93.141371
 20
101.516622
 30
0.0
 10
92.982897
 20
103.118534
 30
0.0
 10
92.716186
 20
104.073058
 30
0.0
  0
SPLINE
  5
1b4
100
AcDbEntity
  8
0
 62
7
100
AcDbSpline
 70
8
 71
3
 72
8
 73
4
 74
0
 40
0
 40
0
 40
0
 40
0
 40
1
 40
1
 40
1
 40
1
 10
92.716186
 20
104.073058
 30
0.0
 10
92.220330
 20
105.847661
 30
0.0
 10
92.489044
 20
106.103436
 30
0.0
 10
93.133140
 20
104.469933
 30
0.0
  0
SPLINE
  5
1b5
100
AcDbEntity
  8
0
 62
7
100
AcDbSpline
 70
8
 71
3
 72
8
 73
4
 74
0
 40
0
 40
0
 40
0
 40
0
 40
1
 40
1
 40
1
 40
1
 10
93.133140
 20
104.469933
 30
0.0
 10
93.803364
 20
102.770157
 30
0.0
 10
94.172135
 20
99.889858
 30
0.0
 10
94.024789
 20
97.505673
 30
0.0
  0
SPLINE
  5
1b6
100
AcDbEntity
  8
0
 62
7
100
AcDbSpline
 70
8
 71
3
 72
8
 73
4
 74
0
 40
0
 40
0
 40
0
 40
0
 40
1
 40
1
 40
1
 40
1
 10
94.024789
 20
97.505673
 30
0.0
 10
93.924435
 20
95.881867
 30
0.0
 10
93.663154
 20
94.796065
 30
0.0
 10
92.934539
 20
92.974951
 30
0.0
  0
SPLINE
  5
1b7
100
AcDbEntity
  8
0
 62
7
100
AcDbSpline
 70
8
 71
3
 72
8
 73
4
 74
0
 40
0
 40
0
 40
0
 40
0
 40
1
 40
1
 40
1
 40
1
 10
92.934539
 20
92.974951
 30
0.0
 10
91.857602
 20
90.283239
 30
0.0
 10
91.849326
 20
90.247322
 30
0.0
 10
92.307003
 20
90.251854
 30
0.0
  0
SPLINE
  5
1b8
100
AcDbEntity
  8
0
 62
7
100
AcDbSpline
 70
8
 71
3
 72
8
 73
4
 74
0
 40
0
 40
0
 40
0
 40
0
 40
1
 40
1
 40
1
 40
1
 10
92.307003
 20
90.251854
 30
0.0
 10
93.045047
 20
90.259157
 30
0.0
 10
94.886690
 20
94.230526
 30
0.0
 10
94.886690
 20
95.814753
 30
0.0
  0
SPLINE
  5
1b9
100
AcDbEntity
  8
0
 62
7
100
AcDbSpline
 70
8
 71
3
 72
8
 73
4
 74
0
 40
0
 40
0
 40
0
 40
0
 40
1
 40
1
 40
1
 40
1
 10
94.886690
 20
95.814753
 30
0.0
 10
94.886690
 20
96.929586
 30
0.0
 10
95.315582
 20
96.786356
 30
0.0
 10
95.510617
 20
95.606391
 30
0.0
  0
SPLINE
  5
1ba
100
AcDbEntity
  8
0
 62
7
100
AcDbSpline
 70
8
 71
3
 72
8
 73
4
 74
0
 40
0
 40
0
 40
0
 40
0
 40
1
 40
1
 40
1
 40
1
 10
95.510617
 20
95.606391
 30
0.0
 10
95.780511
 20
93.973547
 30
0.0
 10
95.682117
 20
92.297742
 30
0.0
 10
95.250410
 20
91.174620
 30
0.0
  0
SPLINE
  5
1bb
100
AcDbEntity
  8
0
 62
7
100
AcDbSpline
 70
8
 71
3
 72
8
 73
4
 74
0
 40
0
 40
0
 40
0
 40
0
 40
1
 40
1
 40
1
 40
1
 10
95.250410
 20
91.174620
 30
0.0
 10
94.568883
 20
89.401581
 30
0.0
 10
94.511569
 20
88.925662
 30
0.0
 10
94.979567
 20
88.925662
 30
0.0
  0
SPLINE
  5
1bc
100
AcDbEntity
  8
0
 62
7
100
AcDbSpline
 70
8
 71
3
 72
8
 73
4
 74
0
 40
0
 40
0
 40
0
 40
0
 40
1
 40
1
 40
1
 40
1
 10
94.979567
 20
88.925662
 30
0.0
 10
95.539309
 20
88.925662
 30
0.0
 10
97.334006
 20
91.338868
 30
0.0
 10
98.232547
 20
93.299724
 30
0.0
  0
SPLINE
  5
1bd
100
AcDbEntity
  8
0
 62
7
100
AcDbSpline
 70
8
 71
3
 72
8
 73
4
 74
0
 40
0
 40
0
 40
0
 40
0
 40
1
 40
1
 40
1
 40
1
 10
98.232547
 20
93.299724
 30
0.0
 10
99.170763
 20
95.347160
 30
0.0
 10
99.372396
 20
98.352345
 30
0.0
 10
98.735449
 20
100.795034
 30
0.0
  0
SPLINE
  5
1be
100
AcDbEntity
  8
0
 62
7
100
AcDbSpline
 70
8
 71
3
 72
8
 73
4
 74
0
 40
0
 40
0
 40
0
 40
0
 40
1
 40
1
 40
1
 40
1
 10
98.735449
 20
100.795034
 30
0.0
 10
98.494091
 20
101.720639
 30
0.0
 10
98.351192
 20
102.532527
 30
0.0
 10
98.417896
 20
102.599228
 30
0.0
  0
SPLINE
  5
1bf
100
AcDbEntity
  8
0
 62
7
100
AcDbSpline
 70
8
 71
3
 72
8
 73
4
 74
0
 40
0
 40
0
 40
0
 40
0
 40
1
 40
1
 40
1
 40
1
 10
98.417896
 20
102.599228
 30
0.0
 10
98.679489
 20
102.860824
 30
0.0
 10
99.686303
 20
99.583306
 30
0.0
 10
99.926632
 20
97.687778
 30
0.0
  0
SPLINE
  5
1c0
100
AcDbEntity
  8
0
 62
7
100
AcDbSpline
 70
8
 71
3
 72
8
 73
4
 74
0
 40
0
 40
0
 40
0
 40
0
 40
1
 40
1
 40
1
 40
1
 10
99.926632
 20
97.687778
 30
0.0
 10
100.327235
 20
94.528137
 30
0.0
 10
99.715212
 20
91.366631
 30
0.0
 10
98.184652
 20
88.689318
 30
0.0
  0
SPLINE
  5
1c1
100
AcDbEntity
  8
0
 62
7
100
AcDbSpline
 70
8
 71
3
 72
8
 73
4
 74
0
 40
0
 40
0
 40
0
 40
0
 40
1
 40
1
 40
1
 40
1
 10
98.184652
 20
88.689318
 30
0.0
 10
97.819170
 20
88.050005
 30
0.0
 10
97.567787
 20
87.479288
 30
0.0
 10
97.626022
 20
87.421053
 30
0.0
  0
SPLINE
  5
1c2
100
AcDbEntity
  8
0
 62
7
100
AcDbSpline
 70
8
 71
3
 72
8
 73
4
 74
0
 40
0
 40
0
 40
0
 40
0
 40
1
 40
1
 40
1
 40
1
 10
97.626022
 20
87.421053
 30
0.0
 10
97.829807
 20
87.217269
 30
0.0
 10
99.975315
 20
89.863848
 30
0.0
 10
100.668937
 20
91.174620
 30
0.0
  0
SPLINE
  5
1c3
100
AcDbEntity
  8
0
 62
7
100
AcDbSpline
 70
8
 71
3
 72
8
 73
4
 74
0
 40
0
 40
0
 40
0
 40
0
 40
1
 40
1
 40
1
 40
1
 10
100.668937
 20
91.174620
 30
0.0
 10
101.332080
 20
92.427801
 30
0.0
 10
101.368982
 20
92.697935
 30
0.0
 10
101.368982
 20
96.299158
 30
0.0
  0
LWPOLYLINE
  5
1c4
100
AcDbEntity
  8
0
 62
7
100
AcDbPolyline
 90
3
 70
0
 10
78.349070
 20
96.003266
 30
0.0
 10
78.191640
 20
96.995454
 30
0.0
 10
78.885299
 20
95.884212
 30
0.0
  0
SPLINE
  5
1c5
100
AcDbEntity
  8
0
 62
7
100
AcDbSpline
 70
8
 71
3
 72
8
 73
4
 74
0
 40
0
 40
0
 40
0
 40
0
 40
1
 40
1
 40
1
 40
1
 10
101.844914
 20
98.548116
 30
0.0
 10
103.250309
 20
93.963223
 30
0.0
 10
102.335658
 20
89.326537
 30
0.0
 10
99.437608
 20
86.344662
 30
0.0
  0
SPLINE
  5
1c6
100
AcDbEntity
  8
0
 62
7
100
AcDbSpline
 70
8
 71
3
 72
8
 73
4
 74
0
 40
0
 40
0
 40
0
 40
0
 40
1
 40
1
 40
1
 40
1
 10
99.437608
 20
86.344662
 30
0.0
 10
98.807971
 20
85.696817
 30
0.0
 10
98.342545
 20
85.117030
 30
0.0
 10
98.403323
 20
85.056250
 30
0.0
  0
SPLINE
  5
1c7
100
AcDbEntity
  8
0
 62
7
100
AcDbSpline
 70
8
 71
3
 72
8
 73
4
 74
0
 40
0
 40
0
 40
0
 40
0
 40
1
 40
1
 40
1
 40
1
 10
98.403323
 20
85.056250
 30
0.0
 10
98.637103
 20
84.822472
 30
0.0
 10
101.796517
 20
87.162222
 30
0.0
 10
102.891304
 20
88.379890
 30
0.0
  0
SPLINE
  5
1c8
100
AcDbEntity
  8
0
 62
7
100
AcDbSpline
 70
8
 71
3
 72
8
 73
4
 74
0
 40
0
 40
0
 40
0
 40
0
 40
1
 40
1
 40
1
 40
1
 10
102.891304
 20
88.379890
 30
0.0
 10
104.265561
 20
89.908393
 30
0.0
 10
105.662931
 20
92.445422
 30
0.0
 10
106.160194
 20
94.314798
 30
0.0
  0
SPLINE
  5
1c9
100
AcDbEntity
  8
0
 62
7
100
AcDbSpline
 70
8
 71
3
 72
8
 73
4
 74
0
 40
0
 40
0
 40
0
 40
0
 40
1
 40
1
 40
1
 40
1
 10
106.160194
 20
94.314798
 30
0.0
 10
106.677407
 20
96.259176
 30
0.0
 10
106.869730
 20
99.374076
 30
0.0
 10
106.591166
 20
101.294933
 30
0.0
  0
SPLINE
  5
1ca
100
AcDbEntity
  8
0
 62
7
100
AcDbSpline
 70
8
 71
3
 72
8
 73
4
 74
0
 40
0
 40
0
 40
0
 40
0
 40
1
 40
1
 40
1
 40
1
 10
106.591166
 20
101.294933
 30
0.0
 10
106.136662
 20
104.429018
 30
0.0
 10
106.952497
 20
102.781275
 30
0.0
 10
107.591558
 20
99.274445
 30
0.0
  0
SPLINE
  5
1cb
100
AcDbEntity
  8
0
 62
7
100
AcDbSpline
 70
8
 71
3
 72
8
 73
4
 74
0
 40
0
 40
0
 40
0
 40
0
 40
1
 40
1
 40
1
 40
1
 10
107.591558
 20
99.274445
 30
0.0
 10
107.924095
 20
97.449659
 30
0.0
 10
107.922356
 20
95.202079
 30
0.0
 10
107.587008
 20
93.393546
 30
0.0
  0
SPLINE
  5
1cc
100
AcDbEntity
  8
0
 62
7
100
AcDbSpline
 70
8
 71
3
 72
8
 73
4
 74
0
 40
0
 40
0
 40
0
 40
0
 40
1
 40
1
 40
1
 40
1
 10
107.587008
 20
93.393546
 30
0.0
 10
107.028160
 20
90.379672
 30
0.0
 10
104.545873
 20
86.544917
 30
0.0
 10
101.924705
 20
84.646154
 30
0.0
  0
SPLINE
  5
1cd
100
AcDbEntity
  8
0
 62
7
100
AcDbSpline
 70
8
 71
3
 72
8
 73
4
 74
0
 40
0
 40
0
 40
0
 40
0
 40
1
 40
1
 40
1
 40
1
 10
101.924705
 20
84.646154
 30
0.0
 10
100.577555
 20
83.670283
 30
0.0
 10
101.312705
 20
83.676903
 30
0.0
 10
102.854252
 20
84.654514
 30
0.0
  0
SPLINE
  5
1ce
100
AcDbEntity
  8
0
 62
7
100
AcDbSpline
 70
8
 71
3
 72
8
 73
4
 74
0
 40
0
 40
0
 40
0
 40
0
 40
1
 40
1
 40
1
 40
1
 10
102.854252
 20
84.654514
 30
0.0
 10
104.294292
 20
85.567761
 30
0.0
 10
105.427187
 20
86.899705
 30
0.0
 10
106.540416
 20
88.988336
 30
0.0
  0
SPLINE
  5
1cf
100
AcDbEntity
  8
0
 62
7
100
AcDbSpline
 70
8
 71
3
 72
8
 73
4
 74
0
 40
0
 40
0
 40
0
 40
0
 40
1
 40
1
 40
1
 40
1
 10
106.540416
 20
88.988336
 30
0.0
 10
106.998341
 20
89.847494
 30
0.0
 10
107.414393
 20
90.509058
 30
0.0
 10
107.464974
 20
90.458478
 30
0.0
  0
SPLINE
  5
1d0
100
AcDbEntity
  8
0
 62
7
100
AcDbSpline
 70
8
 71
3
 72
8
 73
4
 74
0
 40
0
 40
0
 40
0
 40
0
 40
1
 40
1
 40
1
 40
1
 10
107.464974
 20
90.458478
 30
0.0
 10
107.650320
 20
90.273132
 30
0.0
 10
107.029041
 20
88.055000
 30
0.0
 10
106.502943
 20
87.023763
 30
0.0
  0
SPLINE
  5
1d1
100
AcDbEntity
  8
0
 62
7
100
AcDbSpline
 70
8
 71
3
 72
8
 73
4
 74
0
 40
0
 40
0
 40
0
 40
0
 40
1
 40
1
 40
1
 40
1
 10
106.502943
 20
87.023763
 30
0.0
 10
106.205203
 20
86.440140
 30
0.0
 10
105.478641
 20
85.438686
 30
0.0
 10
104.888361
 20
84.798310
 30
0.0
  0
SPLINE
  5
1d2
100
AcDbEntity
  8
0
 62
7
100
AcDbSpline
 70
8
 71
3
 72
8
 73
4
 74
0
 40
0
 40
0
 40
0
 40
0
 40
1
 40
1
 40
1
 40
1
 10
104.888361
 20
84.798310
 30
0.0
 10
103.589243
 20
83.388933
 30
0.0
 10
103.778645
 20
83.318445
 30
0.0
 10
105.489732
 20
84.574499
 30
0.0
  0
SPLINE
  5
1d3
100
AcDbEntity
  8
0
 62
7
100
AcDbSpline
 70
8
 71
3
 72
8
 73
4
 74
0
 40
0
 40
0
 40
0
 40
0
 40
1
 40
1
 40
1
 40
1
 10
105.489732
 20
84.574499
 30
0.0
 10
108.014320
 20
86.427717
 30
0.0
 10
110.089008
 20
89.752109
 30
0.0
 10
110.929703
 20
93.291279
 30
0.0
  0
SPLINE
  5
1d4
100
AcDbEntity
  8
0
 62
7
100
AcDbSpline
 70
8
 71
3
 72
8
 73
4
 74
0
 40
0
 40
0
 40
0
 40
0
 40
1
 40
1
 40
1
 40
1
 10
110.929703
 20
93.291279
 30
0.0
 10
111.539012
 20
95.856348
 30
0.0
 10
111.652751
 20
96.083422
 30
0.0
 10
111.759077
 20
94.947057
 30
0.0
  0
SPLINE
  5
1d5
100
AcDbEntity
  8
0
 62
7
100
AcDbSpline
 70
8
 71
3
 72
8
 73
4
 74
0
 40
0
 40
0
 40
0
 40
0
 40
1
 40
1
 40
1
 40
1
 10
111.759077
 20
94.947057
 30
0.0
 10
112.087380
 20
91.438222
 30
0.0
 10
108.843128
 20
85.700896
 30
0.0
 10
105.193423
 20
83.335969
 30
0.0
  0
SPLINE
  5
1d6
100
AcDbEntity
  8
0
 62
7
100
AcDbSpline
 70
8
 71
3
 72
8
 73
4
 74
0
 40
0
 40
0
 40
0
 40
0
 40
1
 40
1
 40
1
 40
1
 10
105.193423
 20
83.335969
 30
0.0
 10
103.559644
 20
82.277318
 30
0.0
 10
103.668126
 20
82.059439
 30
0.0
 10
105.393649
 20
82.933828
 30
0.0
  0
SPLINE
  5
1d7
100
AcDbEntity
  8
0
 62
7
100
AcDbSpline
 70
8
 71
3
 72
8
 73
4
 74
0
 40
0
 40
0
 40
0
 40
0
 40
1
 40
1
 40
1
 40
1
 10
105.393649
 20
82.933828
 30
0.0
 10
107.144103
 20
83.820849
 30
0.0
 10
108.754728
 20
85.204427
 30
0.0
 10
110.318561
 20
87.164481
 30
0.0
  0
SPLINE
  5
1d8
100
AcDbEntity
  8
0
 62
7
100
AcDbSpline
 70
8
 71
3
 72
8
 73
4
 74
0
 40
0
 40
0
 40
0
 40
0
 40
1
 40
1
 40
1
 40
1
 10
110.318561
 20
87.164481
 30
0.0
 10
111.033343
 20
88.060366
 30
0.0
 10
111.680331
 20
88.852894
 30
0.0
 10
111.756314
 20
88.925654
 30
0.0
  0
SPLINE
  5
1d9
100
AcDbEntity
  8
0
 62
7
100
AcDbSpline
 70
8
 71
3
 72
8
 73
4
 74
0
 40
0
 40
0
 40
0
 40
0
 40
1
 40
1
 40
1
 40
1
 10
111.756314
 20
88.925654
 30
0.0
 10
112.078511
 20
89.234193
 30
0.0
 10
111.473776
 20
87.370092
 30
0.0
 10
110.876517
 20
86.213675
 30
0.0
  0
SPLINE
  5
1da
100
AcDbEntity
  8
0
 62
7
100
AcDbSpline
 70
8
 71
3
 72
8
 73
4
 74
0
 40
0
 40
0
 40
0
 40
0
 40
1
 40
1
 40
1
 40
1
 10
110.876517
 20
86.213675
 30
0.0
 10
110.519517
 20
85.522451
 30
0.0
 10
110.338113
 20
84.956904
 30
0.0
 10
110.473395
 20
84.956904
 30
0.0
  0
SPLINE
  5
1db
100
AcDbEntity
  8
0
 62
7
100
AcDbSpline
 70
8
 71
3
 72
8
 73
4
 74
0
 40
0
 40
0
 40
0
 40
0
 40
1
 40
1
 40
1
 40
1
 10
110.473395
 20
84.956904
 30
0.0
 10
111.084471
 20
84.956904
 30
0.0
 10
113.537831
 20
88.185477
 30
0.0
 10
114.595010
 20
90.380862
 30
0.0
  0
SPLINE
  5
1dc
100
AcDbEntity
  8
0
 62
7
100
AcDbSpline
 70
8
 71
3
 72
8
 73
4
 74
0
 40
0
 40
0
 40
0
 40
0
 40
1
 40
1
 40
1
 40
1
 10
114.595010
 20
90.380862
 30
0.0
 10
115.683297
 20
92.640859
 30
0.0
 10
116.582523
 20
95.551419
 30
0.0
 10
116.582523
 20
96.813926
 30
0.0
  0
SPLINE
  5
1dd
100
AcDbEntity
  8
0
 62
7
100
AcDbSpline
 70
8
 71
3
 72
8
 73
4
 74
0
 40
0
 40
0
 40
0
 40
0
 40
1
 40
1
 40
1
 40
1
 10
116.582523
 20
96.813926
 30
0.0
 10
116.582523
 20
97.132050
 30
0.0
 10
116.711063
 20
97.392334
 30
0.0
 10
116.868165
 20
97.392334
 30
0.0
  0
SPLINE
  5
1de
100
AcDbEntity
  8
0
 62
7
100
AcDbSpline
 70
8
 71
3
 72
8
 73
4
 74
0
 40
0
 40
0
 40
0
 40
0
 40
1
 40
1
 40
1
 40
1
 10
116.868165
 20
97.392334
 30
0.0
 10
117.270922
 20
97.392334
 30
0.0
 10
116.910850
 20
94.254754
 30
0.0
 10
116.260891
 20
92.100667
 30
0.0
  0
SPLINE
  5
1df
100
AcDbEntity
  8
0
 62
7
100
AcDbSpline
 70
8
 71
3
 72
8
 73
4
 74
0
 40
0
 40
0
 40
0
 40
0
 40
1
 40
1
 40
1
 40
1
 10
116.260891
 20
92.100667
 30
0.0
 10
115.975485
 20
91.154782
 30
0.0
 10
115.322104
 20
89.622691
 30
0.0
 10
114.808931
 20
88.696022
 30
0.0
  0
SPLINE
  5
1e0
100
AcDbEntity
  8
0
 62
7
100
AcDbSpline
 70
8
 71
3
 72
8
 73
4
 74
0
 40
0
 40
0
 40
0
 40
0
 40
1
 40
1
 40
1
 40
1
 10
114.808931
 20
88.696022
 30
0.0
 10
113.792037
 20
86.859753
 30
0.0
 10
110.707792
 20
83.441725
 30
0.0
 10
109.260748
 20
82.547402
 30
0.0
  0
SPLINE
  5
1e1
100
AcDbEntity
  8
0
 62
7
100
AcDbSpline
 70
8
 71
3
 72
8
 73
4
 74
0
 40
0
 40
0
 40
0
 40
0
 40
1
 40
1
 40
1
 40
1
 10
109.260748
 20
82.547402
 30
0.0
 10
107.775468
 20
81.629448
 30
0.0
 10
108.472073
 20
81.664619
 30
0.0
 10
110.412522
 20
82.605557
 30
0.0
  0
SPLINE
  5
1e2
100
AcDbEntity
  8
0
 62
7
100
AcDbSpline
 70
8
 71
3
 72
8
 73
4
 74
0
 40
0
 40
0
 40
0
 40
0
 40
1
 40
1
 40
1
 40
1
 10
110.412522
 20
82.605557
 30
0.0
 10
112.714024
 20
83.721570
 30
0.0
 10
115.858491
 20
86.805005
 30
0.0
 10
116.941423
 20
89.007738
 30
0.0
  0
SPLINE
  5
1e3
100
AcDbEntity
  8
0
 62
7
100
AcDbSpline
 70
8
 71
3
 72
8
 73
4
 74
0
 40
0
 40
0
 40
0
 40
0
 40
1
 40
1
 40
1
 40
1
 10
116.941423
 20
89.007738
 30
0.0
 10
117.357102
 20
89.853243
 30
0.0
 10
117.755069
 20
90.487151
 30
0.0
 10
117.825798
 20
90.416420
 30
0.0
  0
SPLINE
  5
1e4
100
AcDbEntity
  8
0
 62
7
100
AcDbSpline
 70
8
 71
3
 72
8
 73
4
 74
0
 40
0
 40
0
 40
0
 40
0
 40
1
 40
1
 40
1
 40
1
 10
117.825798
 20
90.416420
 30
0.0
 10
118.091836
 20
90.150381
 30
0.0
 10
117.097516
 20
87.411044
 30
0.0
 10
116.180248
 20
85.882959
 30
0.0
  0
SPLINE
  5
1e5
100
AcDbEntity
  8
0
 62
7
100
AcDbSpline
 70
8
 71
3
 72
8
 73
4
 74
0
 40
0
 40
0
 40
0
 40
0
 40
1
 40
1
 40
1
 40
1
 10
116.180248
 20
85.882959
 30
0.0
 10
115.656138
 20
85.009834
 30
0.0
 10
114.728567
 20
83.776939
 30
0.0
 10
114.118983
 20
83.143191
 30
0.0
  0
LWPOLYLINE
  5
1e6
100
AcDbEntity
  8
0
 62
7
100
AcDbPolyline
 90
3
 70
0
 10
101.368982
 20
96.299158
 30
0.0
 10
101.368982
 20
100.100778
 30
0.0
 10
101.844914
 20
98.548116
 30
0.0
  0
SPLINE
  5
1e7
100
AcDbEntity
  8
0
 62
7
100
AcDbSpline
 70
8
 71
3
 72
8
 73
4
 74
0
 40
0
 40
0
 40
0
 40
0
 40
1
 40
1
 40
1
 40
1
 10
114.465857
 20
82.716799
 30
0.0
 10
118.278376
 20
84.618526
 30
0.0
 10
120.927008
 20
87.133573
 30
0.0
 10
123.020209
 20
90.839708
 30
0.0
  0
SPLINE
  5
1e8
100
AcDbEntity
  8
0
 62
7
100
AcDbSpline
 70
8
 71
3
 72
8
 73
4
 74
0
 40
0
 40
0
 40
0
 40
0
 40
1
 40
1
 40
1
 40
1
 10
123.020209
 20
90.839708
 30
0.0
 10
124.362697
 20
93.216661
 30
0.0
 10
124.639517
 20
93.248808
 30
0.0
 10
123.604086
 20
90.907510
 30
0.0
  0
SPLINE
  5
1e9
100
AcDbEntity
  8
0
 62
7
100
AcDbSpline
 70
8
 71
3
 72
8
 73
4
 74
0
 40
0
 40
0
 40
0
 40
0
 40
1
 40
1
 40
1
 40
1
 10
123.604086
 20
90.907510
 30
0.0
 10
122.597892
 20
88.632326
 30
0.0
 10
120.291355
 20
85.274073
 30
0.0
 10
118.381296
 20
83.303271
 30
0.0
  0
SPLINE
  5
1ea
100
AcDbEntity
  8
0
 62
7
100
AcDbSpline
 70
8
 71
3
 72
8
 73
4
 74
0
 40
0
 40
0
 40
0
 40
0
 40
1
 40
1
 40
1
 40
1
 10
118.381296
 20
83.303271
 30
0.0
 10
117.429304
 20
82.321006
 30
0.0
 10
116.706880
 20
81.517334
 30
0.0
 10
116.775913
 20
81.517334
 30
0.0
  0
SPLINE
  5
1eb
100
AcDbEntity
  8
0
 62
7
100
AcDbSpline
 70
8
 71
3
 72
8
 73
4
 74
0
 40
0
 40
0
 40
0
 40
0
 40
1
 40
1
 40
1
 40
1
 10
116.775913
 20
81.517334
 30
0.0
 10
117.312122
 20
81.517334
 30
0.0
 10
121.939254
 20
83.975022
 30
0.0
 10
124.055516
 20
85.383875
 30
0.0
  0
SPLINE
  5
1ec
100
AcDbEntity
  8
0
 62
7
100
AcDbSpline
 70
8
 71
3
 72
8
 73
4
 74
0
 40
0
 40
0
 40
0
 40
0
 40
1
 40
1
 40
1
 40
1
 10
124.055516
 20
85.383875
 30
0.0
 10
127.742402
 20
87.838336
 30
0.0
 10
130.172166
 20
90.853887
 30
0.0
 10
131.595162
 20
94.741243
 30
0.0
  0
LWPOLYLINE
  5
1ed
100
AcDbEntity
  8
0
 62
7
100
AcDbPolyline
 90
3
 70
0
 10
114.118983
 20
83.143191
 30
0.0
 10
113.010648
 20
81.990925
 30
0.0
 10
114.465857
 20
82.716799
 30
0.0
  0
SPLINE
  5
1ee
100
AcDbEntity
  8
0
 62
7
100
AcDbSpline
 70
8
 71
3
 72
8
 73
4
 74
0
 40
0
 40
0
 40
0
 40
0
 40
1
 40
1
 40
1
 40
1
 10
132.068001
 20
95.074364
 30
0.0
 10
131.481129
 20
89.924744
 30
0.0
 10
127.597829
 20
83.975694
 30
0.0
 10
122.541596
 20
80.480323
 30
0.0
  0
SPLINE
  5
1ef
100
AcDbEntity
  8
0
 62
7
100
AcDbSpline
 70
8
 71
3
 72
8
 73
4
 74
0
 40
0
 40
0
 40
0
 40
0
 40
1
 40
1
 40
1
 40
1
 10
122.541596
 20
80.480323
 30
0.0
 10
120.554578
 20
79.106699
 30
0.0
 10
116.319784
 20
76.954936
 30
0.0
 10
114.928878
 20
76.612184
 30
0.0
  0
SPLINE
  5
1f0
100
AcDbEntity
  8
0
 62
7
100
AcDbSpline
 70
8
 71
3
 72
8
 73
4
 74
0
 40
0
 40
0
 40
0
 40
0
 40
1
 40
1
 40
1
 40
1
 10
114.928878
 20
76.612184
 30
0.0
 10
114.233600
 20
76.440850
 30
0.0
 10
113.900312
 20
75.961084
 30
0.0
 10
114.476570
 20
75.961084
 30
0.0
  0
SPLINE
  5
1f1
100
AcDbEntity
  8
0
 62
7
100
AcDbSpline
 70
8
 71
3
 72
8
 73
4
 74
0
 40
0
 40
0
 40
0
 40
0
 40
1
 40
1
 40
1
 40
1
 10
114.476570
 20
75.961084
 30
0.0
 10
115.283763
 20
75.961084
 30
0.0
 10
117.111690
 20
73.960350
 30
0.0
 10
117.111690
 20
73.076848
 30
0.0
  0
SPLINE
  5
1f2
100
AcDbEntity
  8
0
 62
7
100
AcDbSpline
 70
8
 71
3
 72
8
 73
4
 74
0
 40
0
 40
0
 40
0
 40
0
 40
1
 40
1
 40
1
 40
1
 10
117.111690
 20
73.076848
 30
0.0
 10
117.111690
 20
72.931274
 30
0.0
 10
116.196142
 20
73.246959
 30
0.0
 10
115.077134
 20
73.778372
 30
0.0
  0
SPLINE
  5
1f3
100
AcDbEntity
  8
0
 62
7
100
AcDbSpline
 70
8
 71
3
 72
8
 73
4
 74
0
 40
0
 40
0
 40
0
 40
0
 40
1
 40
1
 40
1
 40
1
 10
115.077134
 20
73.778372
 30
0.0
 10
113.265058
 20
74.638924
 30
0.0
 10
112.780445
 20
74.752009
 30
0.0
 10
110.645363
 20
74.812544
 30
0.0
  0
LWPOLYLINE
  5
1f4
100
AcDbEntity
  8
0
 62
7
100
AcDbPolyline
 90
3
 70
0
 10
131.595162
 20
94.741243
 30
0.0
 10
132.226629
 20
96.466292
 30
0.0
 10
132.068001
 20
95.074364
 30
0.0
  0
SPLINE
  5
1f5
100
AcDbEntity
  8
0
 62
7
100
AcDbSpline
 70
8
 71
3
 72
8
 73
4
 74
0
 40
0
 40
0
 40
0
 40
0
 40
1
 40
1
 40
1
 40
1
 10
109.619846
 20
74.527066
 30
0.0
 10
110.374282
 20
74.332671
 30
0.0
 10
111.407752
 20
73.916392
 30
0.0
 10
111.916448
 20
73.602001
 30
0.0
  0
SPLINE
  5
1f6
100
AcDbEntity
  8
0
 62
7
100
AcDbSpline
 70
8
 71
3
 72
8
 73
4
 74
0
 40
0
 40
0
 40
0
 40
0
 40
1
 40
1
 40
1
 40
1
 10
111.916448
 20
73.602001
 30
0.0
 10
112.862947
 20
73.017033
 30
0.0
 10
114.585110
 20
71.229641
 30
0.0
 10
114.390112
 20
71.034645
 30
0.0
  0
SPLINE
  5
1f7
100
AcDbEntity
  8
0
 62
7
100
AcDbSpline
 70
8
 71
3
 72
8
 73
4
 74
0
 40
0
 40
0
 40
0
 40
0
 40
1
 40
1
 40
1
 40
1
 10
114.390112
 20
71.034645
 30
0.0
 10
114.330509
 20
70.975043
 30
0.0
 10
113.725833
 20
71.236980
 30
0.0
 10
113.046386
 20
71.616731
 30
0.0
  0
SPLINE
  5
1f8
100
AcDbEntity
  8
0
 62
7
100
AcDbSpline
 70
8
 71
3
 72
8
 73
4
 74
0
 40
0
 40
0
 40
0
 40
0
 40
1
 40
1
 40
1
 40
1
 10
113.046386
 20
71.616731
 30
0.0
 10
111.856541
 20
72.281748
 30
0.0
 10
109.176862
 20
73.141533
 30
0.0
 10
108.962418
 20
72.927088
 30
0.0
  0
SPLINE
  5
1f9
100
AcDbEntity
  8
0
 62
7
100
AcDbSpline
 70
8
 71
3
 72
8
 73
4
 74
0
 40
0
 40
0
 40
0
 40
0
 40
1
 40
1
 40
1
 40
1
 10
108.962418
 20
72.927088
 30
0.0
 10
108.905167
 20
72.869840
 30
0.0
 10
109.316351
 20
72.586392
 30
0.0
 10
109.876153
 20
72.297208
 30
0.0
  0
SPLINE
  5
1fa
100
AcDbEntity
  8
0
 62
7
100
AcDbSpline
 70
8
 71
3
 72
8
 73
4
 74
0
 40
0
 40
0
 40
0
 40
0
 40
1
 40
1
 40
1
 40
1
 10
109.876153
 20
72.297208
 30
0.0
 10
110.779115
 20
71.830755
 30
0.0
 10
113.492201
 20
69.346501
 30
0.0
 10
113.098659
 20
69.346501
 30
0.0
  0
SPLINE
  5
1fb
100
AcDbEntity
  8
0
 62
7
100
AcDbSpline
 70
8
 71
3
 72
8
 73
4
 74
0
 40
0
 40
0
 40
0
 40
0
 40
1
 40
1
 40
1
 40
1
 10
113.098659
 20
69.346501
 30
0.0
 10
113.013707
 20
69.346501
 30
0.0
 10
112.304309
 20
69.627184
 30
0.0
 10
111.522216
 20
69.970240
 30
0.0
  0
SPLINE
  5
1fc
100
AcDbEntity
  8
0
 62
7
100
AcDbSpline
 70
8
 71
3
 72
8
 73
4
 74
0
 40
0
 40
0
 40
0
 40
0
 40
1
 40
1
 40
1
 40
1
 10
111.522216
 20
69.970240
 30
0.0
 10
108.750955
 20
71.185823
 30
0.0
 10
105.607175
 20
71.645759
 30
0.0
 10
103.155163
 20
71.194337
 30
0.0
  0
SPLINE
  5
1fd
100
AcDbEntity
  8
0
 62
7
100
AcDbSpline
 70
8
 71
3
 72
8
 73
4
 74
0
 40
0
 40
0
 40
0
 40
0
 40
1
 40
1
 40
1
 40
1
 10
103.155163
 20
71.194337
 30
0.0
 10
100.462916
 20
70.698688
 30
0.0
 10
100.280446
 20
70.422074
 30
0.0
 10
102.639667
 20
70.412880
 30
0.0
  0
SPLINE
  5
1fe
100
AcDbEntity
  8
0
 62
7
100
AcDbSpline
 70
8
 71
3
 72
8
 73
4
 74
0
 40
0
 40
0
 40
0
 40
0
 40
1
 40
1
 40
1
 40
1
 10
102.639667
 20
70.412880
 30
0.0
 10
107.696310
 20
70.393168
 30
0.0
 10
111.798936
 20
68.583223
 30
0.0
 10
115.102357
 20
64.914730
 30
0.0
  0
SPLINE
  5
1ff
100
AcDbEntity
  8
0
 62
7
100
AcDbSpline
 70
8
 71
3
 72
8
 73
4
 74
0
 40
0
 40
0
 40
0
 40
0
 40
1
 40
1
 40
1
 40
1
 10
115.102357
 20
64.914730
 30
0.0
 10
116.532107
 20
63.326973
 30
0.0
 10
116.020014
 20
63.519164
 30
0.0
 10
114.110606
 20
65.286940
 30
0.0
  0
SPLINE
  5
200
100
AcDbEntity
  8
0
 62
7
100
AcDbSpline
 70
8
 71
3
 72
8
 73
4
 74
0
 40
0
 40
0
 40
0
 40
0
 40
1
 40
1
 40
1
 40
1
 10
114.110606
 20
65.286940
 30
0.0
 10
111.964870
 20
67.273511
 30
0.0
 10
109.413992
 20
68.473537
 30
0.0
 10
106.511336
 20
68.861908
 30
0.0
  0
SPLINE
  5
201
100
AcDbEntity
  8
0
 62
7
100
AcDbSpline
 70
8
 71
3
 72
8
 73
4
 74
0
 40
0
 40
0
 40
0
 40
0
 40
1
 40
1
 40
1
 40
1
 10
106.511336
 20
68.861908
 30
0.0
 10
105.157320
 20
69.043074
 30
0.0
 10
103.753708
 20
69.075305
 30
0.0
 10
102.954188
 20
68.943596
 30
0.0
  0
LWPOLYLINE
  5
202
100
AcDbEntity
  8
0
 62
7
100
AcDbPolyline
 90
3
 70
0
 10
110.645363
 20
74.812544
 30
0.0
 10
108.248148
 20
74.880507
 30
0.0
 10
109.619846
 20
74.527066
 30
0.0
  0
SPLINE
  5
203
100
AcDbEntity
  8
0
 62
7
100
AcDbSpline
 70
8
 71
3
 72
8
 73
4
 74
0
 40
0
 40
0
 40
0
 40
0
 40
1
 40
1
 40
1
 40
1
 10
103.221065
 20
68.513465
 30
0.0
 10
107.092369
 20
67.995072
 30
0.0
 10
111.233450
 20
65.891323
 30
0.0
 10
113.124792
 20
63.482175
 30
0.0
  0
SPLINE
  5
204
100
AcDbEntity
  8
0
 62
7
100
AcDbSpline
 70
8
 71
3
 72
8
 73
4
 74
0
 40
0
 40
0
 40
0
 40
0
 40
1
 40
1
 40
1
 40
1
 10
113.124792
 20
63.482175
 30
0.0
 10
114.716364
 20
61.454869
 30
0.0
 10
114.657783
 20
61.555191
 30
0.0
 10
114.066021
 20
61.870344
 30
0.0
  0
SPLINE
  5
205
100
AcDbEntity
  8
0
 62
7
100
AcDbSpline
 70
8
 71
3
 72
8
 73
4
 74
0
 40
0
 40
0
 40
0
 40
0
 40
1
 40
1
 40
1
 40
1
 10
114.066021
 20
61.870344
 30
0.0
 10
113.773352
 20
62.026210
 30
0.0
 10
113.297102
 20
62.417396
 30
0.0
 10
113.007688
 20
62.739648
 30
0.0
  0
SPLINE
  5
206
100
AcDbEntity
  8
0
 62
7
100
AcDbSpline
 70
8
 71
3
 72
8
 73
4
 74
0
 40
0
 40
0
 40
0
 40
0
 40
1
 40
1
 40
1
 40
1
 10
113.007688
 20
62.739648
 30
0.0
 10
112.047404
 20
63.808888
 30
0.0
 10
109.464509
 20
65.659828
 30
0.0
 10
107.991992
 20
66.333968
 30
0.0
  0
SPLINE
  5
207
100
AcDbEntity
  8
0
 62
7
100
AcDbSpline
 70
8
 71
3
 72
8
 73
4
 74
0
 40
0
 40
0
 40
0
 40
0
 40
1
 40
1
 40
1
 40
1
 10
107.991992
 20
66.333968
 30
0.0
 10
106.312605
 20
67.102818
 30
0.0
 10
102.310734
 20
67.700501
 30
0.0
 10
101.103957
 20
67.362705
 30
0.0
  0
SPLINE
  5
208
100
AcDbEntity
  8
0
 62
7
100
AcDbSpline
 70
8
 71
3
 72
8
 73
4
 74
0
 40
0
 40
0
 40
0
 40
0
 40
1
 40
1
 40
1
 40
1
 10
101.103957
 20
67.362705
 30
0.0
 10
100.341583
 20
67.149305
 30
0.0
 10
100.362234
 20
67.133039
 30
0.0
 10
101.633565
 20
66.945584
 30
0.0
  0
SPLINE
  5
209
100
AcDbEntity
  8
0
 62
7
100
AcDbSpline
 70
8
 71
3
 72
8
 73
4
 74
0
 40
0
 40
0
 40
0
 40
0
 40
1
 40
1
 40
1
 40
1
 10
101.633565
 20
66.945584
 30
0.0
 10
104.344676
 20
66.545838
 30
0.0
 10
107.465749
 20
64.871865
 30
0.0
 10
108.826684
 20
63.087583
 30
0.0
  0
SPLINE
  5
20a
100
AcDbEntity
  8
0
 62
7
100
AcDbSpline
 70
8
 71
3
 72
8
 73
4
 74
0
 40
0
 40
0
 40
0
 40
0
 40
1
 40
1
 40
1
 40
1
 10
108.826684
 20
63.087583
 30
0.0
 10
109.878868
 20
61.708101
 30
0.0
 10
109.434215
 20
61.810448
 30
0.0
 10
107.991352
 20
63.279853
 30
0.0
  0
SPLINE
  5
20b
100
AcDbEntity
  8
0
 62
7
100
AcDbSpline
 70
8
 71
3
 72
8
 73
4
 74
0
 40
0
 40
0
 40
0
 40
0
 40
1
 40
1
 40
1
 40
1
 10
107.991352
 20
63.279853
 30
0.0
 10
105.575764
 20
65.739886
 30
0.0
 10
102.138813
 20
66.854149
 30
0.0
 10
98.683855
 20
66.297355
 30
0.0
  0
LWPOLYLINE
  5
20c
100
AcDbEntity
  8
0
 62
7
100
AcDbPolyline
 90
3
 70
0
 10
102.954188
 20
68.943596
 30
0.0
 10
101.633565
 20
68.726039
 30
0.0
 10
103.221065
 20
68.513465
 30
0.0
  0
SPLINE
  5
20d
100
AcDbEntity
  8
0
 62
7
100
AcDbSpline
 70
8
 71
3
 72
8
 73
4
 74
0
 40
0
 40
0
 40
0
 40
0
 40
1
 40
1
 40
1
 40
1
 10
99.499216
 20
65.751557
 30
0.0
 10
102.017200
 20
65.344969
 30
0.0
 10
103.511252
 20
64.814640
 30
0.0
 10
105.515844
 20
63.615906
 30
0.0
  0
SPLINE
  5
20e
100
AcDbEntity
  8
0
 62
7
100
AcDbSpline
 70
8
 71
3
 72
8
 73
4
 74
0
 40
0
 40
0
 40
0
 40
0
 40
1
 40
1
 40
1
 40
1
 10
105.515844
 20
63.615906
 30
0.0
 10
107.183489
 20
62.618662
 30
0.0
 10
109.247718
 20
60.492008
 30
0.0
 10
110.183306
 20
58.807297
 30
0.0
  0
SPLINE
  5
20f
100
AcDbEntity
  8
0
 62
7
100
AcDbSpline
 70
8
 71
3
 72
8
 73
4
 74
0
 40
0
 40
0
 40
0
 40
0
 40
1
 40
1
 40
1
 40
1
 10
110.183306
 20
58.807297
 30
0.0
 10
110.878078
 20
57.556223
 30
0.0
 10
110.598627
 20
57.278212
 30
0.0
 10
109.875981
 20
58.501555
 30
0.0
  0
SPLINE
  5
210
100
AcDbEntity
  8
0
 62
7
100
AcDbSpline
 70
8
 71
3
 72
8
 73
4
 74
0
 40
0
 40
0
 40
0
 40
0
 40
1
 40
1
 40
1
 40
1
 10
109.875981
 20
58.501555
 30
0.0
 10
109.029431
 20
59.934650
 30
0.0
 10
106.597709
 20
62.345488
 30
0.0
 10
105.269691
 20
63.068285
 30
0.0
  0
SPLINE
  5
211
100
AcDbEntity
  8
0
 62
7
100
AcDbSpline
 70
8
 71
3
 72
8
 73
4
 74
0
 40
0
 40
0
 40
0
 40
0
 40
1
 40
1
 40
1
 40
1
 10
105.269691
 20
63.068285
 30
0.0
 10
103.780323
 20
63.878902
 30
0.0
 10
101.067478
 20
64.583032
 30
0.0
 10
99.516898
 20
64.561447
 30
0.0
  0
LWPOLYLINE
  5
212
100
AcDbEntity
  8
0
 62
7
100
AcDbPolyline
 90
3
 70
0
 10
98.683855
 20
66.297355
 30
0.0
 10
97.400232
 20
66.090490
 30
0.0
 10
99.499216
 20
65.751557
 30
0.0
  0
SPLINE
  5
213
100
AcDbEntity
  8
0
 62
7
100
AcDbSpline
 70
8
 71
3
 72
8
 73
4
 74
0
 40
0
 40
0
 40
0
 40
0
 40
1
 40
1
 40
1
 40
1
 10
99.425670
 20
64.191012
 30
0.0
 10
100.869806
 20
63.659864
 30
0.0
 10
101.758501
 20
63.002067
 30
0.0
 10
102.598405
 20
61.842613
 30
0.0
  0
SPLINE
  5
214
100
AcDbEntity
  8
0
 62
7
100
AcDbSpline
 70
8
 71
3
 72
8
 73
4
 74
0
 40
0
 40
0
 40
0
 40
0
 40
1
 40
1
 40
1
 40
1
 10
102.598405
 20
61.842613
 30
0.0
 10
103.692574
 20
60.332160
 30
0.0
 10
103.562065
 20
59.789176
 30
0.0
 10
102.387231
 20
60.964011
 30
0.0
  0
SPLINE
  5
215
100
AcDbEntity
  8
0
 62
7
100
AcDbSpline
 70
8
 71
3
 72
8
 73
4
 74
0
 40
0
 40
0
 40
0
 40
0
 40
1
 40
1
 40
1
 40
1
 10
102.387231
 20
60.964011
 30
0.0
 10
101.854077
 20
61.497165
 30
0.0
 10
100.757416
 20
62.178454
 30
0.0
 10
99.940163
 20
62.484228
 30
0.0
  0
SPLINE
  5
216
100
AcDbEntity
  8
0
 62
7
100
AcDbSpline
 70
8
 71
3
 72
8
 73
4
 74
0
 40
0
 40
0
 40
0
 40
0
 40
1
 40
1
 40
1
 40
1
 10
99.940163
 20
62.484228
 30
0.0
 10
98.283355
 20
63.104120
 30
0.0
 10
94.396192
 20
63.521355
 30
0.0
 10
95.237263
 20
62.989023
 30
0.0
  0
SPLINE
  5
217
100
AcDbEntity
  8
0
 62
7
100
AcDbSpline
 70
8
 71
3
 72
8
 73
4
 74
0
 40
0
 40
0
 40
0
 40
0
 40
1
 40
1
 40
1
 40
1
 10
95.237263
 20
62.989023
 30
0.0
 10
95.502838
 20
62.820934
 30
0.0
 10
95.780722
 20
62.744001
 30
0.0
 10
95.854782
 20
62.818060
 30
0.0
  0
SPLINE
  5
218
100
AcDbEntity
  8
0
 62
7
100
AcDbSpline
 70
8
 71
3
 72
8
 73
4
 74
0
 40
0
 40
0
 40
0
 40
0
 40
1
 40
1
 40
1
 40
1
 10
95.854782
 20
62.818060
 30
0.0
 10
96.074383
 20
63.037659
 30
0.0
 10
98.687848
 20
62.049514
 30
0.0
 10
99.941859
 20
61.272743
 30
0.0
  0
SPLINE
  5
219
100
AcDbEntity
  8
0
 62
7
100
AcDbSpline
 70
8
 71
3
 72
8
 73
4
 74
0
 40
0
 40
0
 40
0
 40
0
 40
1
 40
1
 40
1
 40
1
 10
99.941859
 20
61.272743
 30
0.0
 10
102.282001
 20
59.823197
 30
0.0
 10
104.196983
 20
57.531992
 30
0.0
 10
104.832055
 20
55.421810
 30
0.0
  0
SPLINE
  5
21a
100
AcDbEntity
  8
0
 62
7
100
AcDbSpline
 70
8
 71
3
 72
8
 73
4
 74
0
 40
0
 40
0
 40
0
 40
0
 40
1
 40
1
 40
1
 40
1
 10
104.832055
 20
55.421810
 30
0.0
 10
105.277473
 20
53.941800
 30
0.0
 10
105.108634
 20
53.941932
 30
0.0
 10
104.453883
 20
55.422075
 30
0.0
  0
SPLINE
  5
21b
100
AcDbEntity
  8
0
 62
7
100
AcDbSpline
 70
8
 71
3
 72
8
 73
4
 74
0
 40
0
 40
0
 40
0
 40
0
 40
1
 40
1
 40
1
 40
1
 10
104.453883
 20
55.422075
 30
0.0
 10
103.659138
 20
57.218728
 30
0.0
 10
102.252806
 20
58.583026
 30
0.0
 10
100.252382
 20
59.498000
 30
0.0
  0
SPLINE
  5
21c
100
AcDbEntity
  8
0
 62
7
100
AcDbSpline
 70
8
 71
3
 72
8
 73
4
 74
0
 40
0
 40
0
 40
0
 40
0
 40
1
 40
1
 40
1
 40
1
 10
100.252382
 20
59.498000
 30
0.0
 10
99.265782
 20
59.949263
 30
0.0
 10
98.101378
 20
60.402047
 30
0.0
 10
97.664815
 20
60.504192
 30
0.0
  0
SPLINE
  5
21d
100
AcDbEntity
  8
0
 62
7
100
AcDbSpline
 70
8
 71
3
 72
8
 73
4
 74
0
 40
0
 40
0
 40
0
 40
0
 40
1
 40
1
 40
1
 40
1
 10
97.664815
 20
60.504192
 30
0.0
 10
96.939161
 20
60.673972
 30
0.0
 10
96.986529
 20
60.596926
 30
0.0
 10
98.216926
 20
59.606114
 30
0.0
  0
SPLINE
  5
21e
100
AcDbEntity
  8
0
 62
7
100
AcDbSpline
 70
8
 71
3
 72
8
 73
4
 74
0
 40
0
 40
0
 40
0
 40
0
 40
1
 40
1
 40
1
 40
1
 10
98.216926
 20
59.606114
 30
0.0
 10
99.815335
 20
58.318953
 30
0.0
 10
101.172674
 20
55.958491
 30
0.0
 10
101.387040
 20
54.093176
 30
0.0
  0
LWPOLYLINE
  5
21f
100
AcDbEntity
  8
0
 62
7
100
AcDbPolyline
 90
3
 70
0
 10
99.516898
 20
64.561447
 30
0.0
 10
98.458565
 20
64.546710
 30
0.0
 10
99.425670
 20
64.191012
 30
0.0
  0
SPLINE
  5
220
100
AcDbEntity
  8
0
 62
7
100
AcDbSpline
 70
8
 71
3
 72
8
 73
4
 74
0
 40
0
 40
0
 40
0
 40
0
 40
1
 40
1
 40
1
 40
1
 10
100.919992
 20
54.543759
 30
0.0
 10
100.227606
 20
56.497225
 30
0.0
 10
99.047911
 20
58.129694
 30
0.0
 10
97.804375
 20
58.855171
 30
0.0
  0
SPLINE
  5
221
100
AcDbEntity
  8
0
 62
7
100
AcDbSpline
 70
8
 71
3
 72
8
 73
4
 74
0
 40
0
 40
0
 40
0
 40
0
 40
1
 40
1
 40
1
 40
1
 10
97.804375
 20
58.855171
 30
0.0
 10
96.969808
 20
59.342054
 30
0.0
 10
96.971268
 20
59.337371
 30
0.0
 10
98.155683
 20
57.728456
 30
0.0
  0
SPLINE
  5
222
100
AcDbEntity
  8
0
 62
7
100
AcDbSpline
 70
8
 71
3
 72
8
 73
4
 74
0
 40
0
 40
0
 40
0
 40
0
 40
1
 40
1
 40
1
 40
1
 10
98.155683
 20
57.728456
 30
0.0
 10
98.809831
 20
56.839858
 30
0.0
 10
99.462315
 20
55.726875
 30
0.0
 10
99.605645
 20
55.255163
 30
0.0
  0
SPLINE
  5
223
100
AcDbEntity
  8
0
 62
7
100
AcDbSpline
 70
8
 71
3
 72
8
 73
4
 74
0
 40
0
 40
0
 40
0
 40
0
 40
1
 40
1
 40
1
 40
1
 10
99.605645
 20
55.255163
 30
0.0
 10
100.098288
 20
53.633836
 30
0.0
 10
100.191927
 20
52.942294
 30
0.0
 10
99.918814
 20
52.942294
 30
0.0
  0
SPLINE
  5
224
100
AcDbEntity
  8
0
 62
7
100
AcDbSpline
 70
8
 71
3
 72
8
 73
4
 74
0
 40
0
 40
0
 40
0
 40
0
 40
1
 40
1
 40
1
 40
1
 10
99.918814
 20
52.942294
 30
0.0
 10
99.770520
 20
52.942294
 30
0.0
 10
99.646576
 20
53.150654
 30
0.0
 10
99.643380
 20
53.405315
 30
0.0
  0
SPLINE
  5
225
100
AcDbEntity
  8
0
 62
7
100
AcDbSpline
 70
8
 71
3
 72
8
 73
4
 74
0
 40
0
 40
0
 40
0
 40
0
 40
1
 40
1
 40
1
 40
1
 10
99.643380
 20
53.405315
 30
0.0
 10
99.627690
 20
54.655739
 30
0.0
 10
97.662137
 20
57.598191
 30
0.0
 10
96.386518
 20
58.280882
 30
0.0
  0
SPLINE
  5
226
100
AcDbEntity
  8
0
 62
7
100
AcDbSpline
 70
8
 71
3
 72
8
 73
4
 74
0
 40
0
 40
0
 40
0
 40
0
 40
1
 40
1
 40
1
 40
1
 10
96.386518
 20
58.280882
 30
0.0
 10
95.956284
 20
58.511136
 30
0.0
 10
96.011299
 20
58.356571
 30
0.0
 10
96.649103
 20
57.543168
 30
0.0
  0
SPLINE
  5
227
100
AcDbEntity
  8
0
 62
7
100
AcDbSpline
 70
8
 71
3
 72
8
 73
4
 74
0
 40
0
 40
0
 40
0
 40
0
 40
1
 40
1
 40
1
 40
1
 10
96.649103
 20
57.543168
 30
0.0
 10
98.419550
 20
55.285278
 30
0.0
 10
98.564163
 20
54.228807
 30
0.0
 10
96.863217
 20
55.978952
 30
0.0
  0
SPLINE
  5
228
100
AcDbEntity
  8
0
 62
7
100
AcDbSpline
 70
8
 71
3
 72
8
 73
4
 74
0
 40
0
 40
0
 40
0
 40
0
 40
1
 40
1
 40
1
 40
1
 10
96.863217
 20
55.978952
 30
0.0
 10
95.641009
 20
57.236511
 30
0.0
 10
93.638701
 20
58.310418
 30
0.0
 10
91.976273
 20
58.599988
 30
0.0
  0
SPLINE
  5
229
100
AcDbEntity
  8
0
 62
7
100
AcDbSpline
 70
8
 71
3
 72
8
 73
4
 74
0
 40
0
 40
0
 40
0
 40
0
 40
1
 40
1
 40
1
 40
1
 10
91.976273
 20
58.599988
 30
0.0
 10
91.243610
 20
58.727607
 30
0.0
 10
91.436989
 20
58.570942
 30
0.0
 10
92.902315
 20
57.849759
 30
0.0
  0
SPLINE
  5
22a
100
AcDbEntity
  8
0
 62
7
100
AcDbSpline
 70
8
 71
3
 72
8
 73
4
 74
0
 40
0
 40
0
 40
0
 40
0
 40
1
 40
1
 40
1
 40
1
 10
92.902315
 20
57.849759
 30
0.0
 10
96.522648
 20
56.067957
 30
0.0
 10
98.846195
 20
53.159914
 30
0.0
 10
99.752020
 20
49.276992
 30
0.0
  0
SPLINE
  5
22b
100
AcDbEntity
  8
0
 62
7
100
AcDbSpline
 70
8
 71
3
 72
8
 73
4
 74
0
 40
0
 40
0
 40
0
 40
0
 40
1
 40
1
 40
1
 40
1
 10
99.752020
 20
49.276992
 30
0.0
 10
100.181124
 20
47.437596
 30
0.0
 10
99.910858
 20
47.056122
 30
0.0
 10
99.396447
 20
48.775107
 30
0.0
  0
SPLINE
  5
22c
100
AcDbEntity
  8
0
 62
7
100
AcDbSpline
 70
8
 71
3
 72
8
 73
4
 74
0
 40
0
 40
0
 40
0
 40
0
 40
1
 40
1
 40
1
 40
1
 10
99.396447
 20
48.775107
 30
0.0
 10
98.820785
 20
50.698773
 30
0.0
 10
97.608766
 20
52.824359
 30
0.0
 10
96.398781
 20
54.032282
 30
0.0
  0
SPLINE
  5
22d
100
AcDbEntity
  8
0
 62
7
100
AcDbSpline
 70
8
 71
3
 72
8
 73
4
 74
0
 40
0
 40
0
 40
0
 40
0
 40
1
 40
1
 40
1
 40
1
 10
96.398781
 20
54.032282
 30
0.0
 10
95.158880
 20
55.270077
 30
0.0
 10
91.867220
 20
57.068450
 30
0.0
 10
90.370541
 20
57.325765
 30
0.0
  0
SPLINE
  5
22e
100
AcDbEntity
  8
0
 62
7
100
AcDbSpline
 70
8
 71
3
 72
8
 73
4
 74
0
 40
0
 40
0
 40
0
 40
0
 40
1
 40
1
 40
1
 40
1
 10
90.370541
 20
57.325765
 30
0.0
 10
89.532918
 20
57.469775
 30
0.0
 10
89.575238
 20
57.417957
 30
0.0
 10
90.917940
 20
56.655507
 30
0.0
  0
SPLINE
  5
22f
100
AcDbEntity
  8
0
 62
7
100
AcDbSpline
 70
8
 71
3
 72
8
 73
4
 74
0
 40
0
 40
0
 40
0
 40
0
 40
1
 40
1
 40
1
 40
1
 10
90.917940
 20
56.655507
 30
0.0
 10
93.719608
 20
55.064586
 30
0.0
 10
95.955318
 20
52.349186
 30
0.0
 10
96.988373
 20
49.282607
 30
0.0
  0
SPLINE
  5
230
100
AcDbEntity
  8
0
 62
7
100
AcDbSpline
 70
8
 71
3
 72
8
 73
4
 74
0
 40
0
 40
0
 40
0
 40
0
 40
1
 40
1
 40
1
 40
1
 10
96.988373
 20
49.282607
 30
0.0
 10
97.664529
 20
47.275470
 30
0.0
 10
97.723402
 20
45.970095
 30
0.0
 10
97.073908
 20
47.386044
 30
0.0
  0
SPLINE
  5
231
100
AcDbEntity
  8
0
 62
7
100
AcDbSpline
 70
8
 71
3
 72
8
 73
4
 74
0
 40
0
 40
0
 40
0
 40
0
 40
1
 40
1
 40
1
 40
1
 10
97.073908
 20
47.386044
 30
0.0
 10
95.200721
 20
51.469742
 30
0.0
 10
94.764283
 20
52.184750
 30
0.0
 10
93.281481
 20
53.599104
 30
0.0
  0
SPLINE
  5
232
100
AcDbEntity
  8
0
 62
7
100
AcDbSpline
 70
8
 71
3
 72
8
 73
4
 74
0
 40
0
 40
0
 40
0
 40
0
 40
1
 40
1
 40
1
 40
1
 10
93.281481
 20
53.599104
 30
0.0
 10
91.917631
 20
54.899997
 30
0.0
 10
88.440903
 20
56.903451
 30
0.0
 10
88.114190
 20
56.576738
 30
0.0
  0
SPLINE
  5
233
100
AcDbEntity
  8
0
 62
7
100
AcDbSpline
 70
8
 71
3
 72
8
 73
4
 74
0
 40
0
 40
0
 40
0
 40
0
 40
1
 40
1
 40
1
 40
1
 10
88.114190
 20
56.576738
 30
0.0
 10
88.058715
 20
56.521265
 30
0.0
 10
88.560955
 20
56.067775
 30
0.0
 10
89.230279
 20
55.568982
 30
0.0
  0
SPLINE
  5
234
100
AcDbEntity
  8
0
 62
7
100
AcDbSpline
 70
8
 71
3
 72
8
 73
4
 74
0
 40
0
 40
0
 40
0
 40
0
 40
1
 40
1
 40
1
 40
1
 10
89.230279
 20
55.568982
 30
0.0
 10
89.899601
 20
55.070190
 30
0.0
 10
90.904486
 20
54.025779
 30
0.0
 10
91.463357
 20
53.248073
 30
0.0
  0
SPLINE
  5
235
100
AcDbEntity
  8
0
 62
7
100
AcDbSpline
 70
8
 71
3
 72
8
 73
4
 74
0
 40
0
 40
0
 40
0
 40
0
 40
1
 40
1
 40
1
 40
1
 10
91.463357
 20
53.248073
 30
0.0
 10
92.462781
 20
51.857307
 30
0.0
 10
93.499959
 20
49.350700
 30
0.0
 10
93.200082
 20
49.050826
 30
0.0
  0
SPLINE
  5
236
100
AcDbEntity
  8
0
 62
7
100
AcDbSpline
 70
8
 71
3
 72
8
 73
4
 74
0
 40
0
 40
0
 40
0
 40
0
 40
1
 40
1
 40
1
 40
1
 10
93.200082
 20
49.050826
 30
0.0
 10
93.115921
 20
48.966665
 30
0.0
 10
92.969106
 20
49.123206
 30
0.0
 10
92.873827
 20
49.398695
 30
0.0
  0
SPLINE
  5
237
100
AcDbEntity
  8
0
 62
7
100
AcDbSpline
 70
8
 71
3
 72
8
 73
4
 74
0
 40
0
 40
0
 40
0
 40
0
 40
1
 40
1
 40
1
 40
1
 10
92.873827
 20
49.398695
 30
0.0
 10
92.113161
 20
51.598063
 30
0.0
 10
91.230191
 20
53.088283
 30
0.0
 10
90.069265
 20
54.132054
 30
0.0
  0
SPLINE
  5
238
100
AcDbEntity
  8
0
 62
7
100
AcDbSpline
 70
8
 71
3
 72
8
 73
4
 74
0
 40
0
 40
0
 40
0
 40
0
 40
1
 40
1
 40
1
 40
1
 10
90.069265
 20
54.132054
 30
0.0
 10
88.826406
 20
55.249493
 30
0.0
 10
86.661175
 20
56.275600
 30
0.0
 10
84.971655
 20
56.547824
 30
0.0
  0
SPLINE
  5
239
100
AcDbEntity
  8
0
 62
7
100
AcDbSpline
 70
8
 71
3
 72
8
 73
4
 74
0
 40
0
 40
0
 40
0
 40
0
 40
1
 40
1
 40
1
 40
1
 10
84.971655
 20
56.547824
 30
0.0
 10
84.327021
 20
56.651692
 30
0.0
 10
84.435619
 20
56.543935
 30
0.0
 10
85.529145
 20
55.994665
 30
0.0
  0
SPLINE
  5
23a
100
AcDbEntity
  8
0
 62
7
100
AcDbSpline
 70
8
 71
3
 72
8
 73
4
 74
0
 40
0
 40
0
 40
0
 40
0
 40
1
 40
1
 40
1
 40
1
 10
85.529145
 20
55.994665
 30
0.0
 10
88.187382
 20
54.659451
 30
0.0
 10
90.638865
 20
51.903884
 30
0.0
 10
91.605238
 20
49.164891
 30
0.0
  0
SPLINE
  5
23b
100
AcDbEntity
  8
0
 62
7
100
AcDbSpline
 70
8
 71
3
 72
8
 73
4
 74
0
 40
0
 40
0
 40
0
 40
0
 40
1
 40
1
 40
1
 40
1
 10
91.605238
 20
49.164891
 30
0.0
 10
92.089007
 20
47.793746
 30
0.0
 10
92.537780
 20
44.742007
 30
0.0
 10
92.309873
 20
44.373247
 30
0.0
  0
SPLINE
  5
23c
100
AcDbEntity
  8
0
 62
7
100
AcDbSpline
 70
8
 71
3
 72
8
 73
4
 74
0
 40
0
 40
0
 40
0
 40
0
 40
1
 40
1
 40
1
 40
1
 10
92.309873
 20
44.373247
 30
0.0
 10
92.216967
 20
44.222921
 30
0.0
 10
91.990696
 20
44.989522
 30
0.0
 10
91.807046
 20
46.076807
 30
0.0
  0
SPLINE
  5
23d
100
AcDbEntity
  8
0
 62
7
100
AcDbSpline
 70
8
 71
3
 72
8
 73
4
 74
0
 40
0
 40
0
 40
0
 40
0
 40
1
 40
1
 40
1
 40
1
 10
91.807046
 20
46.076807
 30
0.0
 10
91.198758
 20
49.678122
 30
0.0
 10
89.744849
 20
52.079390
 30
0.0
 10
87.161772
 20
53.748911
 30
0.0
  0
SPLINE
  5
23e
100
AcDbEntity
  8
0
 62
7
100
AcDbSpline
 70
8
 71
3
 72
8
 73
4
 74
0
 40
0
 40
0
 40
0
 40
0
 40
1
 40
1
 40
1
 40
1
 10
87.161772
 20
53.748911
 30
0.0
 10
85.329813
 20
54.932964
 30
0.0
 10
84.833439
 20
55.065078
 30
0.0
 10
85.470468
 20
54.199065
 30
0.0
  0
SPLINE
  5
23f
100
AcDbEntity
  8
0
 62
7
100
AcDbSpline
 70
8
 71
3
 72
8
 73
4
 74
0
 40
0
 40
0
 40
0
 40
0
 40
1
 40
1
 40
1
 40
1
 10
85.470468
 20
54.199065
 30
0.0
 10
86.232815
 20
53.162689
 30
0.0
 10
86.884277
 20
51.531311
 30
0.0
 10
87.076227
 20
50.177946
 30
0.0
  0
SPLINE
  5
240
100
AcDbEntity
  8
0
 62
7
100
AcDbSpline
 70
8
 71
3
 72
8
 73
4
 74
0
 40
0
 40
0
 40
0
 40
0
 40
1
 40
1
 40
1
 40
1
 10
87.076227
 20
50.177946
 30
0.0
 10
87.240110
 20
49.022471
 30
0.0
 10
87.214490
 20
48.908155
 30
0.0
 10
86.857970
 20
49.204041
 30
0.0
  0
SPLINE
  5
241
100
AcDbEntity
  8
0
 62
7
100
AcDbSpline
 70
8
 71
3
 72
8
 73
4
 74
0
 40
0
 40
0
 40
0
 40
0
 40
1
 40
1
 40
1
 40
1
 10
86.857970
 20
49.204041
 30
0.0
 10
86.635807
 20
49.388419
 30
0.0
 10
86.378076
 20
49.885118
 30
0.0
 10
86.285237
 20
50.307817
 30
0.0
  0
SPLINE
  5
242
100
AcDbEntity
  8
0
 62
7
100
AcDbSpline
 70
8
 71
3
 72
8
 73
4
 74
0
 40
0
 40
0
 40
0
 40
0
 40
1
 40
1
 40
1
 40
1
 10
86.285237
 20
50.307817
 30
0.0
 10
86.045588
 20
51.398937
 30
0.0
 10
83.927482
 20
53.649451
 30
0.0
 10
82.422391
 20
54.412137
 30
0.0
  0
SPLINE
  5
243
100
AcDbEntity
  8
0
 62
7
100
AcDbSpline
 70
8
 71
3
 72
8
 73
4
 74
0
 40
0
 40
0
 40
0
 40
0
 40
1
 40
1
 40
1
 40
1
 10
82.422391
 20
54.412137
 30
0.0
 10
81.720349
 20
54.767930
 30
0.0
 10
81.091297
 20
55.059001
 30
0.0
 10
81.024502
 20
55.059001
 30
0.0
  0
SPLINE
  5
244
100
AcDbEntity
  8
0
 62
7
100
AcDbSpline
 70
8
 71
3
 72
8
 73
4
 74
0
 40
0
 40
0
 40
0
 40
0
 40
1
 40
1
 40
1
 40
1
 10
81.024502
 20
55.059001
 30
0.0
 10
80.957708
 20
55.059001
 30
0.0
 10
81.594500
 20
54.399476
 30
0.0
 10
82.439597
 20
53.593391
 30
0.0
  0
SPLINE
  5
245
100
AcDbEntity
  8
0
 62
7
100
AcDbSpline
 70
8
 71
3
 72
8
 73
4
 74
0
 40
0
 40
0
 40
0
 40
0
 40
1
 40
1
 40
1
 40
1
 10
82.439597
 20
53.593391
 30
0.0
 10
83.284692
 20
52.787307
 30
0.0
 10
84.341166
 20
51.442914
 30
0.0
 10
84.787314
 20
50.605854
 30
0.0
  0
SPLINE
  5
246
100
AcDbEntity
  8
0
 62
7
100
AcDbSpline
 70
8
 71
3
 72
8
 73
4
 74
0
 40
0
 40
0
 40
0
 40
0
 40
1
 40
1
 40
1
 40
1
 10
84.787314
 20
50.605854
 30
0.0
 10
85.683098
 20
48.925189
 30
0.0
 10
86.269796
 20
46.015754
 30
0.0
 10
86.001410
 20
44.585139
 30
0.0
  0
SPLINE
  5
247
100
AcDbEntity
  8
0
 62
7
100
AcDbSpline
 70
8
 71
3
 72
8
 73
4
 74
0
 40
0
 40
0
 40
0
 40
0
 40
1
 40
1
 40
1
 40
1
 10
86.001410
 20
44.585139
 30
0.0
 10
85.726199
 20
43.118132
 30
0.0
 10
85.494998
 20
43.345227
 30
0.0
 10
85.480607
 20
45.096692
 30
0.0
  0
SPLINE
  5
248
100
AcDbEntity
  8
0
 62
7
100
AcDbSpline
 70
8
 71
3
 72
8
 73
4
 74
0
 40
0
 40
0
 40
0
 40
0
 40
1
 40
1
 40
1
 40
1
 10
85.480607
 20
45.096692
 30
0.0
 10
85.462880
 20
47.252514
 30
0.0
 10
84.729746
 20
48.823282
 30
0.0
 10
82.876017
 20
50.677011
 30
0.0
  0
SPLINE
  5
249
100
AcDbEntity
  8
0
 62
7
100
AcDbSpline
 70
8
 71
3
 72
8
 73
4
 74
0
 40
0
 40
0
 40
0
 40
0
 40
1
 40
1
 40
1
 40
1
 10
82.876017
 20
50.677011
 30
0.0
 10
82.066651
 20
51.486377
 30
0.0
 10
81.348024
 20
52.148584
 30
0.0
 10
81.279069
 20
52.148584
 30
0.0
  0
SPLINE
  5
24a
100
AcDbEntity
  8
0
 62
7
100
AcDbSpline
 70
8
 71
3
 72
8
 73
4
 74
0
 40
0
 40
0
 40
0
 40
0
 40
1
 40
1
 40
1
 40
1
 10
81.279069
 20
52.148584
 30
0.0
 10
81.210113
 20
52.148584
 30
0.0
 10
81.475413
 20
51.528480
 30
0.0
 10
81.868629
 20
50.770576
 30
0.0
  0
SPLINE
  5
24b
100
AcDbEntity
  8
0
 62
7
100
AcDbSpline
 70
8
 71
3
 72
8
 73
4
 74
0
 40
0
 40
0
 40
0
 40
0
 40
1
 40
1
 40
1
 40
1
 10
81.868629
 20
50.770576
 30
0.0
 10
82.476181
 20
49.599548
 30
0.0
 10
82.581972
 20
49.072980
 30
0.0
 10
82.572966
 20
47.264847
 30
0.0
  0
SPLINE
  5
24c
100
AcDbEntity
  8
0
 62
7
100
AcDbSpline
 70
8
 71
3
 72
8
 73
4
 74
0
 40
0
 40
0
 40
0
 40
0
 40
1
 40
1
 40
1
 40
1
 10
82.572966
 20
47.264847
 30
0.0
 10
82.565690
 20
45.806580
 30
0.0
 10
82.419251
 20
44.845761
 30
0.0
 10
82.107506
 20
44.211084
 30
0.0
  0
LWPOLYLINE
  5
24d
100
AcDbEntity
  8
0
 62
7
100
AcDbPolyline
 90
3
 70
0
 10
101.387040
 20
54.093176
 30
0.0
 10
101.534502
 20
52.810003
 30
0.0
 10
100.919992
 20
54.543759
 30
0.0
  0
SPLINE
  5
24e
100
AcDbEntity
  8
0
 62
7
100
AcDbSpline
 70
8
 71
3
 72
8
 73
4
 74
0
 40
0
 40
0
 40
0
 40
0
 40
1
 40
1
 40
1
 40
1
 10
75.954935
 20
67.362226
 30
0.0
 10
75.563497
 20
68.030161
 30
0.0
 10
75.297038
 20
68.630459
 30
0.0
 10
75.362800
 20
68.696224
 30
0.0
  0
SPLINE
  5
24f
100
AcDbEntity
  8
0
 62
7
100
AcDbSpline
 70
8
 71
3
 72
8
 73
4
 74
0
 40
0
 40
0
 40
0
 40
0
 40
1
 40
1
 40
1
 40
1
 10
75.362800
 20
68.696224
 30
0.0
 10
75.428565
 20
68.761986
 30
0.0
 10
76.044795
 20
68.624154
 30
0.0
 10
76.732204
 20
68.389931
 30
0.0
  0
SPLINE
  5
250
100
AcDbEntity
  8
0
 62
7
100
AcDbSpline
 70
8
 71
3
 72
8
 73
4
 74
0
 40
0
 40
0
 40
0
 40
0
 40
1
 40
1
 40
1
 40
1
 10
76.732204
 20
68.389931
 30
0.0
 10
77.419610
 20
68.155706
 30
0.0
 10
78.042828
 20
68.024862
 30
0.0
 10
78.117128
 20
68.099162
 30
0.0
  0
SPLINE
  5
251
100
AcDbEntity
  8
0
 62
7
100
AcDbSpline
 70
8
 71
3
 72
8
 73
4
 74
0
 40
0
 40
0
 40
0
 40
0
 40
1
 40
1
 40
1
 40
1
 10
78.117128
 20
68.099162
 30
0.0
 10
78.191429
 20
68.173462
 30
0.0
 10
77.638503
 20
68.438099
 30
0.0
 10
76.888403
 20
68.687241
 30
0.0
  0
SPLINE
  5
252
100
AcDbEntity
  8
0
 62
7
100
AcDbSpline
 70
8
 71
3
 72
8
 73
4
 74
0
 40
0
 40
0
 40
0
 40
0
 40
1
 40
1
 40
1
 40
1
 10
76.888403
 20
68.687241
 30
0.0
 10
76.138302
 20
68.936383
 30
0.0
 10
75.624574
 20
69.233815
 30
0.0
 10
75.746785
 20
69.348199
 30
0.0
  0
SPLINE
  5
253
100
AcDbEntity
  8
0
 62
7
100
AcDbSpline
 70
8
 71
3
 72
8
 73
4
 74
0
 40
0
 40
0
 40
0
 40
0
 40
1
 40
1
 40
1
 40
1
 10
75.746785
 20
69.348199
 30
0.0
 10
75.868993
 20
69.462581
 30
0.0
 10
76.802419
 20
69.859676
 30
0.0
 10
77.821065
 20
70.230630
 30
0.0
  0
SPLINE
  5
254
100
AcDbEntity
  8
0
 62
7
100
AcDbSpline
 70
8
 71
3
 72
8
 73
4
 74
0
 40
0
 40
0
 40
0
 40
0
 40
1
 40
1
 40
1
 40
1
 10
77.821065
 20
70.230630
 30
0.0
 10
78.839711
 20
70.601586
 30
0.0
 10
79.490427
 20
70.911596
 30
0.0
 10
79.267103
 20
70.919546
 30
0.0
  0
SPLINE
  5
255
100
AcDbEntity
  8
0
 62
7
100
AcDbSpline
 70
8
 71
3
 72
8
 73
4
 74
0
 40
0
 40
0
 40
0
 40
0
 40
1
 40
1
 40
1
 40
1
 10
79.267103
 20
70.919546
 30
0.0
 10
79.043779
 20
70.927484
 30
0.0
 10
78.166666
 20
70.689941
 30
0.0
 10
77.317965
 20
70.391647
 30
0.0
  0
SPLINE
  5
256
100
AcDbEntity
  8
0
 62
7
100
AcDbSpline
 70
8
 71
3
 72
8
 73
4
 74
0
 40
0
 40
0
 40
0
 40
0
 40
1
 40
1
 40
1
 40
1
 10
77.317965
 20
70.391647
 30
0.0
 10
76.469261
 20
70.093353
 30
0.0
 10
75.716260
 20
69.907904
 30
0.0
 10
75.644624
 20
69.979537
 30
0.0
  0
SPLINE
  5
257
100
AcDbEntity
  8
0
 62
7
100
AcDbSpline
 70
8
 71
3
 72
8
 73
4
 74
0
 40
0
 40
0
 40
0
 40
0
 40
1
 40
1
 40
1
 40
1
 10
75.644624
 20
69.979537
 30
0.0
 10
75.572990
 20
70.051173
 30
0.0
 10
75.773600
 20
70.473827
 30
0.0
 10
76.090425
 20
70.918766
 30
0.0
  0
SPLINE
  5
258
100
AcDbEntity
  8
0
 62
7
100
AcDbSpline
 70
8
 71
3
 72
8
 73
4
 74
0
 40
0
 40
0
 40
0
 40
0
 40
1
 40
1
 40
1
 40
1
 10
76.090425
 20
70.918766
 30
0.0
 10
76.407251
 20
71.363708
 30
0.0
 10
76.551065
 20
71.727751
 30
0.0
 10
76.410008
 20
71.727751
 30
0.0
  0
SPLINE
  5
259
100
AcDbEntity
  8
0
 62
7
100
AcDbSpline
 70
8
 71
3
 72
8
 73
4
 74
0
 40
0
 40
0
 40
0
 40
0
 40
1
 40
1
 40
1
 40
1
 10
76.410008
 20
71.727751
 30
0.0
 10
76.268950
 20
71.727751
 30
0.0
 10
75.879807
 20
71.281266
 30
0.0
 10
75.545244
 20
70.735563
 30
0.0
  0
LWPOLYLINE
  5
25a
100
AcDbEntity
  8
0
 62
7
100
AcDbPolyline
 90
3
 70
0
 10
82.107506
 20
44.211084
 30
0.0
 10
81.652647
 20
43.285042
 30
0.0
 10
81.773342
 20
44.107841
 30
0.0
  0
SPLINE
  5
25b
100
AcDbEntity
  8
0
 62
7
100
AcDbSpline
 70
8
 71
3
 72
8
 73
4
 74
0
 40
0
 40
0
 40
0
 40
0
 40
1
 40
1
 40
1
 40
1
 10
72.504260
 20
69.566607
 30
0.0
 10
71.316329
 20
69.532788
 30
0.0
 10
71.195536
 20
69.498866
 30
0.0
 10
72.000232
 20
69.425058
 30
0.0
  0
SPLINE
  5
25c
100
AcDbEntity
  8
0
 62
7
100
AcDbSpline
 70
8
 71
3
 72
8
 73
4
 74
0
 40
0
 40
0
 40
0
 40
0
 40
1
 40
1
 40
1
 40
1
 10
72.000232
 20
69.425058
 30
0.0
 10
73.810000
 20
69.259061
 30
0.0
 10
73.948851
 20
69.121756
 30
0.0
 10
73.058565
 20
68.378493
 30
0.0
  0
LWPOLYLINE
  5
25d
100
AcDbEntity
  8
0
 62
7
100
AcDbPolyline
 90
11
 70
0
 10
75.545244
 20
70.735563
 30
0.0
 10
74.936945
 20
69.743376
 30
0.0
 10
74.760188
 20
70.669417
 30
0.0
 10
74.583433
 20
71.595459
 30
0.0
 10
74.548603
 20
70.729464
 30
0.0
 10
74.513773
 20
69.863467
 30
0.0
 10
73.786169
 20
70.322205
 30
0.0
 10
73.058565
 20
70.780939
 30
0.0
 10
73.562594
 20
70.196011
 30
0.0
 10
74.066622
 20
69.611084
 30
0.0
 10
72.504260
 20
69.566607
 30
0.0
  0
SPLINE
  5
25e
100
AcDbEntity
  8
0
 62
7
100
AcDbSpline
 70
8
 71
3
 72
8
 73
4
 74
0
 40
0
 40
0
 40
0
 40
0
 40
1
 40
1
 40
1
 40
1
 10
73.111572
 20
68.134286
 30
0.0
 10
73.577289
 20
68.364441
 30
0.0
 10
74.018076
 20
68.552751
 30
0.0
 10
74.091104
 20
68.552751
 30
0.0
  0
SPLINE
  5
25f
100
AcDbEntity
  8
0
 62
7
100
AcDbSpline
 70
8
 71
3
 72
8
 73
4
 74
0
 40
0
 40
0
 40
0
 40
0
 40
1
 40
1
 40
1
 40
1
 10
74.091104
 20
68.552751
 30
0.0
 10
74.164129
 20
68.552751
 30
0.0
 10
74.052269
 20
67.987204
 30
0.0
 10
73.842523
 20
67.295980
 30
0.0
  0
SPLINE
  5
260
100
AcDbEntity
  8
0
 62
7
100
AcDbSpline
 70
8
 71
3
 72
8
 73
4
 74
0
 40
0
 40
0
 40
0
 40
0
 40
1
 40
1
 40
1
 40
1
 10
73.842523
 20
67.295980
 30
0.0
 10
73.390355
 20
65.805846
 30
0.0
 10
73.394337
 20
65.837924
 30
0.0
 10
73.683730
 20
66.016778
 30
0.0
  0
SPLINE
  5
261
100
AcDbEntity
  8
0
 62
7
100
AcDbSpline
 70
8
 71
3
 72
8
 73
4
 74
0
 40
0
 40
0
 40
0
 40
0
 40
1
 40
1
 40
1
 40
1
 10
73.683730
 20
66.016778
 30
0.0
 10
73.809288
 20
66.094377
 30
0.0
 10
74.062283
 20
66.694555
 30
0.0
 10
74.245936
 20
67.350505
 30
0.0
  0
SPLINE
  5
262
100
AcDbEntity
  8
0
 62
7
100
AcDbSpline
 70
8
 71
3
 72
8
 73
4
 74
0
 40
0
 40
0
 40
0
 40
0
 40
1
 40
1
 40
1
 40
1
 10
74.245936
 20
67.350505
 30
0.0
 10
74.429591
 20
68.006455
 30
0.0
 10
74.686313
 20
68.477344
 30
0.0
 10
74.816428
 20
68.396929
 30
0.0
  0
SPLINE
  5
263
100
AcDbEntity
  8
0
 62
7
100
AcDbSpline
 70
8
 71
3
 72
8
 73
4
 74
0
 40
0
 40
0
 40
0
 40
0
 40
1
 40
1
 40
1
 40
1
 10
74.816428
 20
68.396929
 30
0.0
 10
74.946544
 20
68.316515
 30
0.0
 10
75.366946
 20
67.634067
 30
0.0
 10
75.750655
 20
66.880380
 30
0.0
  0
SPLINE
  5
264
100
AcDbEntity
  8
0
 62
7
100
AcDbSpline
 70
8
 71
3
 72
8
 73
4
 74
0
 40
0
 40
0
 40
0
 40
0
 40
1
 40
1
 40
1
 40
1
 10
75.750655
 20
66.880380
 30
0.0
 10
76.134362
 20
66.126693
 30
0.0
 10
76.497431
 20
65.653536
 30
0.0
 10
76.557471
 20
65.828921
 30
0.0
  0
SPLINE
  5
265
100
AcDbEntity
  8
0
 62
7
100
AcDbSpline
 70
8
 71
3
 72
8
 73
4
 74
0
 40
0
 40
0
 40
0
 40
0
 40
1
 40
1
 40
1
 40
1
 10
76.557471
 20
65.828921
 30
0.0
 10
76.617512
 20
66.004302
 30
0.0
 10
76.346370
 20
66.694291
 30
0.0
 10
75.954935
 20
67.362226
 30
0.0
  0
LWPOLYLINE
  5
266
100
AcDbEntity
  8
0
 62
7
100
AcDbPolyline
 90
3
 70
0
 10
73.058565
 20
68.378493
 30
0.0
 10
72.264815
 20
67.715823
 30
0.0
 10
73.111572
 20
68.134286
 30
0.0
  0
SPLINE
  5
267
100
AcDbEntity
  8
0
 62
7
100
AcDbSpline
 70
8
 71
3
 72
8
 73
4
 74
0
 40
0
 40
0
 40
0
 40
0
 40
1
 40
1
 40
1
 40
1
 10
70.568778
 20
66.391697
 30
0.0
 10
70.426083
 20
66.658329
 30
0.0
 10
70.124235
 20
67.030095
 30
0.0
 10
69.898011
 20
67.217846
 30
0.0
  0
SPLINE
  5
268
100
AcDbEntity
  8
0
 62
7
100
AcDbSpline
 70
8
 71
3
 72
8
 73
4
 74
0
 40
0
 40
0
 40
0
 40
0
 40
1
 40
1
 40
1
 40
1
 10
69.898011
 20
67.217846
 30
0.0
 10
69.557053
 20
67.500815
 30
0.0
 10
69.486690
 20
67.491298
 30
0.0
 10
69.486690
 20
67.162212
 30
0.0
  0
SPLINE
  5
269
100
AcDbEntity
  8
0
 62
7
100
AcDbSpline
 70
8
 71
3
 72
8
 73
4
 74
0
 40
0
 40
0
 40
0
 40
0
 40
1
 40
1
 40
1
 40
1
 10
69.486690
 20
67.162212
 30
0.0
 10
69.486690
 20
66.943862
 30
0.0
 10
69.754581
 20
66.578340
 30
0.0
 10
70.082003
 20
66.349941
 30
0.0
  0
SPLINE
  5
26a
100
AcDbEntity
  8
0
 62
7
100
AcDbSpline
 70
8
 71
3
 72
8
 73
4
 74
0
 40
0
 40
0
 40
0
 40
0
 40
1
 40
1
 40
1
 40
1
 10
70.082003
 20
66.349941
 30
0.0
 10
70.851855
 20
65.812921
 30
0.0
 10
70.877359
 20
65.815109
 30
0.0
 10
70.568778
 20
66.391697
 30
0.0
  0
LWPOLYLINE
  5
26b
100
AcDbEntity
  8
0
 62
7
100
AcDbPolyline
 90
1
 70
1
 10
75.954935
 20
67.362226
 30
0.0
  0
SPLINE
  5
26c
100
AcDbEntity
  8
0
 62
7
100
AcDbSpline
 70
8
 71
3
 72
8
 73
4
 74
0
 40
0
 40
0
 40
0
 40
0
 40
1
 40
1
 40
1
 40
1
 10
65.517940
 20
70.647369
 30
0.0
 10
65.517940
 20
70.926283
 30
0.0
 10
65.376552
 20
71.201616
 30
0.0
 10
65.203747
 20
71.259218
 30
0.0
  0
SPLINE
  5
26d
100
AcDbEntity
  8
0
 62
7
100
AcDbSpline
 70
8
 71
3
 72
8
 73
4
 74
0
 40
0
 40
0
 40
0
 40
0
 40
1
 40
1
 40
1
 40
1
 10
65.203747
 20
71.259218
 30
0.0
 10
65.001529
 20
71.326624
 30
0.0
 10
65.095826
 20
71.570220
 30
0.0
 10
65.468331
 20
71.942725
 30
0.0
  0
SPLINE
  5
26e
100
AcDbEntity
  8
0
 62
7
100
AcDbSpline
 70
8
 71
3
 72
8
 73
4
 74
0
 40
0
 40
0
 40
0
 40
0
 40
1
 40
1
 40
1
 40
1
 10
65.468331
 20
71.942725
 30
0.0
 10
66.221520
 20
72.695914
 30
0.0
 10
66.198729
 20
73.187682
 30
0.0
 10
65.372335
 20
74.014076
 30
0.0
  0
SPLINE
  5
26f
100
AcDbEntity
  8
0
 62
7
100
AcDbSpline
 70
8
 71
3
 72
8
 73
4
 74
0
 40
0
 40
0
 40
0
 40
0
 40
1
 40
1
 40
1
 40
1
 10
65.372335
 20
74.014076
 30
0.0
 10
64.845200
 20
74.541211
 30
0.0
 10
64.541598
 20
74.649706
 30
0.0
 10
63.984751
 20
74.509945
 30
0.0
  0
SPLINE
  5
270
100
AcDbEntity
  8
0
 62
7
100
AcDbSpline
 70
8
 71
3
 72
8
 73
4
 74
0
 40
0
 40
0
 40
0
 40
0
 40
1
 40
1
 40
1
 40
1
 10
63.984751
 20
74.509945
 30
0.0
 10
62.984481
 20
74.258895
 30
0.0
 10
62.607523
 20
73.882059
 30
0.0
 10
62.607523
 20
73.133167
 30
0.0
  0
SPLINE
  5
271
100
AcDbEntity
  8
0
 62
7
100
AcDbSpline
 70
8
 71
3
 72
8
 73
4
 74
0
 40
0
 40
0
 40
0
 40
0
 40
1
 40
1
 40
1
 40
1
 10
62.607523
 20
73.133167
 30
0.0
 10
62.607523
 20
72.177079
 30
0.0
 10
63.034950
 20
71.546069
 30
0.0
 10
63.815225
 20
71.350232
 30
0.0
  0
SPLINE
  5
272
100
AcDbEntity
  8
0
 62
7
100
AcDbSpline
 70
8
 71
3
 72
8
 73
4
 74
0
 40
0
 40
0
 40
0
 40
0
 40
1
 40
1
 40
1
 40
1
 10
63.815225
 20
71.350232
 30
0.0
 10
64.252152
 20
71.240571
 30
0.0
 10
64.456747
 20
71.043594
 30
0.0
 10
64.369601
 20
70.816496
 30
0.0
  0
SPLINE
  5
273
100
AcDbEntity
  8
0
 62
7
100
AcDbSpline
 70
8
 71
3
 72
8
 73
4
 74
0
 40
0
 40
0
 40
0
 40
0
 40
1
 40
1
 40
1
 40
1
 10
64.369601
 20
70.816496
 30
0.0
 10
64.195259
 20
70.362167
 30
0.0
 10
64.412916
 20
70.140251
 30
0.0
 10
65.032871
 20
70.140251
 30
0.0
  0
SPLINE
  5
274
100
AcDbEntity
  8
0
 62
7
100
AcDbSpline
 70
8
 71
3
 72
8
 73
4
 74
0
 40
0
 40
0
 40
0
 40
0
 40
1
 40
1
 40
1
 40
1
 10
65.032871
 20
70.140251
 30
0.0
 10
65.334520
 20
70.140251
 30
0.0
 10
65.517940
 20
70.332007
 30
0.0
 10
65.517940
 20
70.647369
 30
0.0
  0
LWPOLYLINE
  5
275
100
AcDbEntity
  8
0
 62
7
100
AcDbPolyline
 90
1
 70
1
 10
70.568778
 20
66.391697
 30
0.0
  0
SPLINE
  5
276
100
AcDbEntity
  8
0
 62
7
100
AcDbSpline
 70
8
 71
3
 72
8
 73
4
 74
0
 40
0
 40
0
 40
0
 40
0
 40
1
 40
1
 40
1
 40
1
 10
79.607003
 20
77.084703
 30
0.0
 10
79.134060
 20
77.236418
 30
0.0
 10
78.747107
 20
77.462388
 30
0.0
 10
78.747107
 20
77.586859
 30
0.0
  0
SPLINE
  5
277
100
AcDbEntity
  8
0
 62
7
100
AcDbSpline
 70
8
 71
3
 72
8
 73
4
 74
0
 40
0
 40
0
 40
0
 40
0
 40
1
 40
1
 40
1
 40
1
 10
78.747107
 20
77.586859
 30
0.0
 10
78.747107
 20
77.711329
 30
0.0
 10
78.598279
 20
77.809206
 30
0.0
 10
78.416378
 20
77.804365
 30
0.0
  0
SPLINE
  5
278
100
AcDbEntity
  8
0
 62
7
100
AcDbSpline
 70
8
 71
3
 72
8
 73
4
 74
0
 40
0
 40
0
 40
0
 40
0
 40
1
 40
1
 40
1
 40
1
 10
78.416378
 20
77.804365
 30
0.0
 10
78.234476
 20
77.799523
 30
0.0
 10
78.366728
 20
77.561398
 30
0.0
 10
78.710271
 20
77.275198
 30
0.0
  0
SPLINE
  5
279
100
AcDbEntity
  8
0
 62
7
100
AcDbSpline
 70
8
 71
3
 72
8
 73
4
 74
0
 40
0
 40
0
 40
0
 40
0
 40
1
 40
1
 40
1
 40
1
 10
78.710271
 20
77.275198
 30
0.0
 10
79.053817
 20
76.988998
 30
0.0
 10
79.589598
 20
76.766989
 30
0.0
 10
79.900896
 20
76.781845
 30
0.0
  0
SPLINE
  5
27a
100
AcDbEntity
  8
0
 62
7
100
AcDbSpline
 70
8
 71
3
 72
8
 73
4
 74
0
 40
0
 40
0
 40
0
 40
0
 40
1
 40
1
 40
1
 40
1
 10
79.900896
 20
76.781845
 30
0.0
 10
80.323391
 20
76.802006
 30
0.0
 10
80.248874
 20
76.878796
 30
0.0
 10
79.607003
 20
77.084703
 30
0.0
  0
LWPOLYLINE
  5
27b
100
AcDbEntity
  8
0
 62
7
100
AcDbPolyline
 90
1
 70
1
 10
65.517940
 20
70.647369
 30
0.0
  0
SPLINE
  5
27c
100
AcDbEntity
  8
0
 62
7
100
AcDbSpline
 70
8
 71
3
 72
8
 73
4
 74
0
 40
0
 40
0
 40
0
 40
0
 40
1
 40
1
 40
1
 40
1
 10
94.357523
 20
88.495502
 30
0.0
 10
94.357523
 20
88.641023
 30
0.0
 10
94.000336
 20
88.417879
 30
0.0
 10
93.563773
 20
87.999626
 30
0.0
  0
SPLINE
  5
27d
100
AcDbEntity
  8
0
 62
7
100
AcDbSpline
 70
8
 71
3
 72
8
 73
4
 74
0
 40
0
 40
0
 40
0
 40
0
 40
1
 40
1
 40
1
 40
1
 10
93.563773
 20
87.999626
 30
0.0
 10
93.127211
 20
87.581372
 30
0.0
 10
92.770023
 20
87.120103
 30
0.0
 10
92.770023
 20
86.974582
 30
0.0
  0
SPLINE
  5
27e
100
AcDbEntity
  8
0
 62
7
100
AcDbSpline
 70
8
 71
3
 72
8
 73
4
 74
0
 40
0
 40
0
 40
0
 40
0
 40
1
 40
1
 40
1
 40
1
 10
92.770023
 20
86.974582
 30
0.0
 10
92.770023
 20
86.829061
 30
0.0
 10
93.127211
 20
87.052206
 30
0.0
 10
93.563773
 20
87.470459
 30
0.0
  0
SPLINE
  5
27f
100
AcDbEntity
  8
0
 62
7
100
AcDbSpline
 70
8
 71
3
 72
8
 73
4
 74
0
 40
0
 40
0
 40
0
 40
0
 40
1
 40
1
 40
1
 40
1
 10
93.563773
 20
87.470459
 30
0.0
 10
94.000336
 20
87.888712
 30
0.0
 10
94.357523
 20
88.349982
 30
0.0
 10
94.357523
 20
88.495502
 30
0.0
  0
LWPOLYLINE
  5
280
100
AcDbEntity
  8
0
 62
7
100
AcDbPolyline
 90
1
 70
1
 10
79.607003
 20
77.084703
 30
0.0
  0
SPLINE
  5
281
100
AcDbEntity
  8
0
 62
7
100
AcDbSpline
 70
8
 71
3
 72
8
 73
4
 74
0
 40
0
 40
0
 40
0
 40
0
 40
1
 40
1
 40
1
 40
1
 10
77.822981
 20
90.087286
 30
0.0
 10
78.482044
 20
91.409856
 30
0.0
 10
78.756105
 20
93.952751
 30
0.0
 10
78.239580
 20
93.952751
 30
0.0
  0
SPLINE
  5
282
100
AcDbEntity
  8
0
 62
7
100
AcDbSpline
 70
8
 71
3
 72
8
 73
4
 74
0
 40
0
 40
0
 40
0
 40
0
 40
1
 40
1
 40
1
 40
1
 10
78.239580
 20
93.952751
 30
0.0
 10
78.105960
 20
93.952751
 30
0.0
 10
77.808304
 20
94.025019
 30
0.0
 10
77.578122
 20
94.113350
 30
0.0
  0
SPLINE
  5
283
100
AcDbEntity
  8
0
 62
7
100
AcDbSpline
 70
8
 71
3
 72
8
 73
4
 74
0
 40
0
 40
0
 40
0
 40
0
 40
1
 40
1
 40
1
 40
1
 10
77.578122
 20
94.113350
 30
0.0
 10
77.236209
 20
94.244554
 30
0.0
 10
77.159033
 20
94.062950
 30
0.0
 10
77.156466
 20
93.121162
 30
0.0
  0
SPLINE
  5
284
100
AcDbEntity
  8
0
 62
7
100
AcDbSpline
 70
8
 71
3
 72
8
 73
4
 74
0
 40
0
 40
0
 40
0
 40
0
 40
1
 40
1
 40
1
 40
1
 10
77.156466
 20
93.121162
 30
0.0
 10
77.153027
 20
91.856481
 30
0.0
 10
76.685304
 20
89.905152
 30
0.0
 10
75.993538
 20
88.269379
 30
0.0
  0
LWPOLYLINE
  5
285
100
AcDbEntity
  8
0
 62
7
100
AcDbPolyline
 90
1
 70
1
 10
94.357523
 20
88.495502
 30
0.0
  0
SPLINE
  5
286
100
AcDbEntity
  8
0
 62
7
100
AcDbSpline
 70
8
 71
3
 72
8
 73
4
 74
0
 40
0
 40
0
 40
0
 40
0
 40
1
 40
1
 40
1
 40
1
 10
76.355797
 20
87.989987
 30
0.0
 10
76.799998
 20
88.415561
 30
0.0
 10
77.460232
 20
89.359346
 30
0.0
 10
77.822981
 20
90.087286
 30
0.0
  0
LWPOLYLINE
  5
287
100
AcDbEntity
  8
0
 62
7
100
AcDbPolyline
 90
3
 70
0
 10
75.993538
 20
88.269379
 30
0.0
 10
75.548154
 20
87.216218
 30
0.0
 10
76.355797
 20
87.989987
 30
0.0
  0
SPLINE
  5
288
100
AcDbEntity
  8
0
 62
7
100
AcDbSpline
 70
8
 71
3
 72
8
 73
4
 74
0
 40
0
 40
0
 40
0
 40
0
 40
1
 40
1
 40
1
 40
1
 10
91.168281
 20
88.771659
 30
0.0
 10
91.669769
 20
89.292927
 30
0.0
 10
91.932890
 20
89.719417
 30
0.0
 10
91.752994
 20
89.719417
 30
0.0
  0
SPLINE
  5
289
100
AcDbEntity
  8
0
 62
7
100
AcDbSpline
 70
8
 71
3
 72
8
 73
4
 74
0
 40
0
 40
0
 40
0
 40
0
 40
1
 40
1
 40
1
 40
1
 10
91.752994
 20
89.719417
 30
0.0
 10
91.469668
 20
89.719417
 30
0.0
 10
89.330440
 20
87.687235
 30
0.0
 10
89.330440
 20
87.418085
 30
0.0
  0
SPLINE
  5
28a
100
AcDbEntity
  8
0
 62
7
100
AcDbSpline
 70
8
 71
3
 72
8
 73
4
 74
0
 40
0
 40
0
 40
0
 40
0
 40
1
 40
1
 40
1
 40
1
 10
89.330440
 20
87.418085
 30
0.0
 10
89.330440
 20
87.168204
 30
0.0
 10
90.343416
 20
87.914263
 30
0.0
 10
91.168281
 20
88.771659
 30
0.0
  0
LWPOLYLINE
  5
28b
100
AcDbEntity
  8
0
 62
7
100
AcDbPolyline
 90
1
 70
1
 10
77.822981
 20
90.087286
 30
0.0
  0
SPLINE
  5
28c
100
AcDbEntity
  8
0
 62
7
100
AcDbSpline
 70
8
 71
3
 72
8
 73
4
 74
0
 40
0
 40
0
 40
0
 40
0
 40
1
 40
1
 40
1
 40
1
 10
68.941847
 20
89.761571
 30
0.0
 10
69.300447
 20
91.433674
 30
0.0
 10
69.303328
 20
93.871322
 30
0.0
 10
68.946953
 20
94.091569
 30
0.0
  0
SPLINE
  5
28d
100
AcDbEntity
  8
0
 62
7
100
AcDbSpline
 70
8
 71
3
 72
8
 73
4
 74
0
 40
0
 40
0
 40
0
 40
0
 40
1
 40
1
 40
1
 40
1
 10
68.946953
 20
94.091569
 30
0.0
 10
68.614666
 20
94.296934
 30
0.0
 10
65.018055
 20
93.685032
 30
0.0
 10
64.837175
 20
93.392360
 30
0.0
  0
SPLINE
  5
28e
100
AcDbEntity
  8
0
 62
7
100
AcDbSpline
 70
8
 71
3
 72
8
 73
4
 74
0
 40
0
 40
0
 40
0
 40
0
 40
1
 40
1
 40
1
 40
1
 10
64.837175
 20
93.392360
 30
0.0
 10
64.766875
 20
93.278616
 30
0.0
 10
64.946326
 20
93.058729
 30
0.0
 10
65.235955
 20
92.903725
 30
0.0
  0
SPLINE
  5
28f
100
AcDbEntity
  8
0
 62
7
100
AcDbSpline
 70
8
 71
3
 72
8
 73
4
 74
0
 40
0
 40
0
 40
0
 40
0
 40
1
 40
1
 40
1
 40
1
 10
65.235955
 20
92.903725
 30
0.0
 10
66.070350
 20
92.457169
 30
0.0
 10
67.367161
 20
90.369602
 30
0.0
 10
67.712018
 20
88.917830
 30
0.0
  0
SPLINE
  5
290
100
AcDbEntity
  8
0
 62
7
100
AcDbSpline
 70
8
 71
3
 72
8
 73
4
 74
0
 40
0
 40
0
 40
0
 40
0
 40
1
 40
1
 40
1
 40
1
 10
67.712018
 20
88.917830
 30
0.0
 10
67.980541
 20
87.787416
 30
0.0
 10
68.075366
 20
87.653072
 30
0.0
 10
68.344727
 20
88.021446
 30
0.0
  0
SPLINE
  5
291
100
AcDbEntity
  8
0
 62
7
100
AcDbSpline
 70
8
 71
3
 72
8
 73
4
 74
0
 40
0
 40
0
 40
0
 40
0
 40
1
 40
1
 40
1
 40
1
 10
68.344727
 20
88.021446
 30
0.0
 10
68.518992
 20
88.259769
 30
0.0
 10
68.787693
 20
89.042825
 30
0.0
 10
68.941836
 20
89.761571
 30
0.0
  0
LWPOLYLINE
  5
292
100
AcDbEntity
  8
0
 62
7
100
AcDbPolyline
 90
1
 70
1
 10
91.168281
 20
88.771659
 30
0.0
  0
SPLINE
  5
293
100
AcDbEntity
  8
0
 62
7
100
AcDbSpline
 70
8
 71
3
 72
8
 73
4
 74
0
 40
0
 40
0
 40
0
 40
0
 40
1
 40
1
 40
1
 40
1
 10
89.259733
 20
90.829577
 30
0.0
 10
89.057080
 20
90.959874
 30
0.0
 10
88.757032
 20
90.814443
 30
0.0
 10
88.467385
 20
90.445497
 30
0.0
  0
SPLINE
  5
294
100
AcDbEntity
  8
0
 62
7
100
AcDbSpline
 70
8
 71
3
 72
8
 73
4
 74
0
 40
0
 40
0
 40
0
 40
0
 40
1
 40
1
 40
1
 40
1
 10
88.467385
 20
90.445497
 30
0.0
 10
88.210988
 20
90.118914
 30
0.0
 10
87.645441
 20
89.413233
 30
0.0
 10
87.210614
 20
88.877317
 30
0.0
  0
SPLINE
  5
295
100
AcDbEntity
  8
0
 62
7
100
AcDbSpline
 70
8
 71
3
 72
8
 73
4
 74
0
 40
0
 40
0
 40
0
 40
0
 40
1
 40
1
 40
1
 40
1
 10
87.210614
 20
88.877317
 30
0.0
 10
85.921802
 20
87.288873
 30
0.0
 10
86.306110
 20
87.374299
 30
0.0
 10
88.002962
 20
89.053445
 30
0.0
  0
SPLINE
  5
296
100
AcDbEntity
  8
0
 62
7
100
AcDbSpline
 70
8
 71
3
 72
8
 73
4
 74
0
 40
0
 40
0
 40
0
 40
0
 40
1
 40
1
 40
1
 40
1
 10
88.002962
 20
89.053445
 30
0.0
 10
89.108862
 20
90.147804
 30
0.0
 10
89.487605
 20
90.683067
 30
0.0
 10
89.259733
 20
90.829577
 30
0.0
  0
LWPOLYLINE
  5
297
100
AcDbEntity
  8
0
 62
7
100
AcDbPolyline
 90
1
 70
1
 10
68.941836
 20
89.761571
 30
0.0
  0
SPLINE
  5
298
100
AcDbEntity
  8
0
 62
7
100
AcDbSpline
 70
8
 71
3
 72
8
 73
4
 74
0
 40
0
 40
0
 40
0
 40
0
 40
1
 40
1
 40
1
 40
1
 10
81.967578
 20
91.938120
 30
0.0
 10
82.576919
 20
93.117718
 30
0.0
 10
82.374587
 20
93.412657
 30
0.0
 10
80.951313
 20
93.419533
 30
0.0
  0
LWPOLYLINE
  5
299
100
AcDbEntity
  8
0
 62
7
100
AcDbPolyline
 90
1
 70
1
 10
89.259733
 20
90.829577
 30
0.0
  0
SPLINE
  5
29a
100
AcDbEntity
  8
0
 62
7
100
AcDbSpline
 70
8
 71
3
 72
8
 73
4
 74
0
 40
0
 40
0
 40
0
 40
0
 40
1
 40
1
 40
1
 40
1
 10
80.105480
 20
91.890284
 30
0.0
 10
80.101459
 20
91.046972
 30
0.0
 10
79.972757
 20
90.027191
 30
0.0
 10
79.819505
 20
89.624104
 30
0.0
  0
SPLINE
  5
29b
100
AcDbEntity
  8
0
 62
7
100
AcDbSpline
 70
8
 71
3
 72
8
 73
4
 74
0
 40
0
 40
0
 40
0
 40
0
 40
1
 40
1
 40
1
 40
1
 10
79.819505
 20
89.624104
 30
0.0
 10
79.666251
 20
89.221014
 30
0.0
 10
79.540862
 20
88.750518
 30
0.0
 10
79.540862
 20
88.578558
 30
0.0
  0
SPLINE
  5
29c
100
AcDbEntity
  8
0
 62
7
100
AcDbSpline
 70
8
 71
3
 72
8
 73
4
 74
0
 40
0
 40
0
 40
0
 40
0
 40
1
 40
1
 40
1
 40
1
 10
79.540862
 20
88.578558
 30
0.0
 10
79.540862
 20
88.186358
 30
0.0
 10
81.256370
 20
90.561316
 30
0.0
 10
81.967583
 20
91.938118
 30
0.0
  0
LWPOLYLINE
  5
29d
100
AcDbEntity
  8
0
 62
7
100
AcDbPolyline
 90
3
 70
0
 10
80.951313
 20
93.419533
 30
0.0
 10
80.112809
 20
93.423581
 30
0.0
 10
80.105480
 20
91.890284
 30
0.0
  0
SPLINE
  5
29e
100
AcDbEntity
  8
0
 62
7
100
AcDbSpline
 70
8
 71
3
 72
8
 73
4
 74
0
 40
0
 40
0
 40
0
 40
0
 40
1
 40
1
 40
1
 40
1
 10
86.126159
 20
90.066238
 30
0.0
 10
87.276892
 20
91.412973
 30
0.0
 10
87.448065
 20
91.836084
 30
0.0
 10
86.842155
 20
91.836084
 30
0.0
  0
SPLINE
  5
29f
100
AcDbEntity
  8
0
 62
7
100
AcDbSpline
 70
8
 71
3
 72
8
 73
4
 74
0
 40
0
 40
0
 40
0
 40
0
 40
1
 40
1
 40
1
 40
1
 10
86.842155
 20
91.836084
 30
0.0
 10
86.637765
 20
91.836084
 30
0.0
 10
86.072297
 20
91.151475
 30
0.0
 10
85.585562
 20
90.314730
 30
0.0
  0
SPLINE
  5
2a0
100
AcDbEntity
  8
0
 62
7
100
AcDbSpline
 70
8
 71
3
 72
8
 73
4
 74
0
 40
0
 40
0
 40
0
 40
0
 40
1
 40
1
 40
1
 40
1
 10
85.585562
 20
90.314730
 30
0.0
 10
84.147406
 20
87.842405
 30
0.0
 10
84.203818
 20
87.816476
 30
0.0
 10
86.126159
 20
90.066238
 30
0.0
  0
LWPOLYLINE
  5
2a1
100
AcDbEntity
  8
0
 62
7
100
AcDbPolyline
 90
1
 70
1
 10
81.967583
 20
91.938118
 30
0.0
  0
SPLINE
  5
2a2
100
AcDbEntity
  8
0
 62
7
100
AcDbSpline
 70
8
 71
3
 72
8
 73
4
 74
0
 40
0
 40
0
 40
0
 40
0
 40
1
 40
1
 40
1
 40
1
 10
84.646095
 20
91.026549
 30
0.0
 10
85.149325
 20
91.756159
 30
0.0
 10
85.340698
 20
92.239957
 30
0.0
 10
85.151079
 20
92.303163
 30
0.0
  0
SPLINE
  5
2a3
100
AcDbEntity
  8
0
 62
7
100
AcDbSpline
 70
8
 71
3
 72
8
 73
4
 74
0
 40
0
 40
0
 40
0
 40
0
 40
1
 40
1
 40
1
 40
1
 10
85.151079
 20
92.303163
 30
0.0
 10
84.649797
 20
92.470256
 30
0.0
 10
84.506692
 20
92.307264
 30
0.0
 10
83.636289
 20
90.577868
 30
0.0
  0
SPLINE
  5
2a4
100
AcDbEntity
  8
0
 62
7
100
AcDbSpline
 70
8
 71
3
 72
8
 73
4
 74
0
 40
0
 40
0
 40
0
 40
0
 40
1
 40
1
 40
1
 40
1
 10
83.636289
 20
90.577868
 30
0.0
 10
82.696661
 20
88.710921
 30
0.0
 10
83.204627
 20
88.936621
 30
0.0
 10
84.646095
 20
91.026549
 30
0.0
  0
LWPOLYLINE
  5
2a5
100
AcDbEntity
  8
0
 62
7
100
AcDbPolyline
 90
1
 70
1
 10
86.126159
 20
90.066238
 30
0.0
  0
SPLINE
  5
2a6
100
AcDbEntity
  8
0
 62
7
100
AcDbSpline
 70
8
 71
3
 72
8
 73
4
 74
0
 40
0
 40
0
 40
0
 40
0
 40
1
 40
1
 40
1
 40
1
 10
72.252877
 20
91.558848
 30
0.0
 10
72.467594
 20
93.222561
 30
0.0
 10
72.121503
 20
94.326800
 30
0.0
 10
71.350172
 20
94.439015
 30
0.0
  0
SPLINE
  5
2a7
100
AcDbEntity
  8
0
 62
7
100
AcDbSpline
 70
8
 71
3
 72
8
 73
4
 74
0
 40
0
 40
0
 40
0
 40
0
 40
1
 40
1
 40
1
 40
1
 10
71.350172
 20
94.439015
 30
0.0
 10
70.816266
 20
94.516686
 30
0.0
 10
70.760238
 20
94.447323
 30
0.0
 10
70.922703
 20
93.909848
 30
0.0
  0
SPLINE
  5
2a8
100
AcDbEntity
  8
0
 62
7
100
AcDbSpline
 70
8
 71
3
 72
8
 73
4
 74
0
 40
0
 40
0
 40
0
 40
0
 40
1
 40
1
 40
1
 40
1
 10
70.922703
 20
93.909848
 30
0.0
 10
71.025536
 20
93.569642
 30
0.0
 10
71.246370
 20
92.492280
 30
0.0
 10
71.413444
 20
91.515708
 30
0.0
  0
SPLINE
  5
2a9
100
AcDbEntity
  8
0
 62
7
100
AcDbSpline
 70
8
 71
3
 72
8
 73
4
 74
0
 40
0
 40
0
 40
0
 40
0
 40
1
 40
1
 40
1
 40
1
 10
71.413444
 20
91.515708
 30
0.0
 10
71.738847
 20
89.613684
 30
0.0
 10
72.003589
 20
89.627289
 30
0.0
 10
72.252877
 20
91.558848
 30
0.0
  0
LWPOLYLINE
  5
2aa
100
AcDbEntity
  8
0
 62
7
100
AcDbPolyline
 90
1
 70
1
 10
84.646095
 20
91.026549
 30
0.0
  0
SPLINE
  5
2ab
100
AcDbEntity
  8
0
 62
7
100
AcDbSpline
 70
8
 71
3
 72
8
 73
4
 74
0
 40
0
 40
0
 40
0
 40
0
 40
1
 40
1
 40
1
 40
1
 10
74.337077
 20
91.836084
 30
0.0
 10
74.569206
 20
92.490928
 30
0.0
 10
74.793221
 20
93.324365
 30
0.0
 10
74.834888
 20
93.688167
 30
0.0
  0
SPLINE
  5
2ac
100
AcDbEntity
  8
0
 62
7
100
AcDbSpline
 70
8
 71
3
 72
8
 73
4
 74
0
 40
0
 40
0
 40
0
 40
0
 40
1
 40
1
 40
1
 40
1
 10
74.834888
 20
93.688167
 30
0.0
 10
74.900959
 20
94.265022
 30
0.0
 10
74.795936
 20
94.360582
 30
0.0
 10
74.013774
 20
94.435292
 30
0.0
  0
SPLINE
  5
2ad
100
AcDbEntity
  8
0
 62
7
100
AcDbSpline
 70
8
 71
3
 72
8
 73
4
 74
0
 40
0
 40
0
 40
0
 40
0
 40
1
 40
1
 40
1
 40
1
 10
74.013774
 20
94.435292
 30
0.0
 10
73.134162
 20
94.519311
 30
0.0
 10
73.120160
 20
94.504671
 30
0.0
 10
73.286170
 20
93.674615
 30
0.0
  0
SPLINE
  5
2ae
100
AcDbEntity
  8
0
 62
7
100
AcDbSpline
 70
8
 71
3
 72
8
 73
4
 74
0
 40
0
 40
0
 40
0
 40
0
 40
1
 40
1
 40
1
 40
1
 10
73.286170
 20
93.674615
 30
0.0
 10
73.379269
 20
93.209126
 30
0.0
 10
73.455440
 20
92.224029
 30
0.0
 10
73.455440
 20
91.485511
 30
0.0
  0
SPLINE
  5
2af
100
AcDbEntity
  8
0
 62
7
100
AcDbSpline
 70
8
 71
3
 72
8
 73
4
 74
0
 40
0
 40
0
 40
0
 40
0
 40
1
 40
1
 40
1
 40
1
 10
73.455440
 20
91.485511
 30
0.0
 10
73.455440
 20
89.966758
 30
0.0
 10
73.710374
 20
90.068130
 30
0.0
 10
74.337077
 20
91.836084
 30
0.0
  0
LWPOLYLINE
  5
2b0
100
AcDbEntity
  8
0
 62
7
100
AcDbPolyline
 90
1
 70
1
 10
72.252877
 20
91.558848
 30
0.0
  0
SPLINE
  5
2b1
100
AcDbEntity
  8
0
 62
7
100
AcDbSpline
 70
8
 71
3
 72
8
 73
4
 74
0
 40
0
 40
0
 40
0
 40
0
 40
1
 40
1
 40
1
 40
1
 10
30.148681
 20
83.000620
 30
0.0
 10
29.597826
 20
84.436125
 30
0.0
 10
35.433974
 20
92.092185
 30
0.0
 10
40.782714
 20
96.950707
 30
0.0
  0
SPLINE
  5
2b2
100
AcDbEntity
  8
0
 62
7
100
AcDbSpline
 70
8
 71
3
 72
8
 73
4
 74
0
 40
0
 40
0
 40
0
 40
0
 40
1
 40
1
 40
1
 40
1
 10
40.782714
 20
96.950707
 30
0.0
 10
46.753545
 20
102.374306
 30
0.0
 10
52.144454
 20
106.162512
 30
0.0
 10
57.977315
 20
109.033405
 30
0.0
  0
SPLINE
  5
2b3
100
AcDbEntity
  8
0
 62
7
100
AcDbSpline
 70
8
 71
3
 72
8
 73
4
 74
0
 40
0
 40
0
 40
0
 40
0
 40
1
 40
1
 40
1
 40
1
 10
57.977315
 20
109.033405
 30
0.0
 10
66.076833
 20
113.019927
 30
0.0
 10
71.012592
 20
113.821374
 30
0.0
 10
87.081482
 20
113.759210
 30
0.0
  0
SPLINE
  5
2b4
100
AcDbEntity
  8
0
 62
7
100
AcDbSpline
 70
8
 71
3
 72
8
 73
4
 74
0
 40
0
 40
0
 40
0
 40
0
 40
1
 40
1
 40
1
 40
1
 10
87.081482
 20
113.759210
 30
0.0
 10
100.076532
 20
113.708937
 30
0.0
 10
108.296797
 20
113.462483
 30
0.0
 10
105.999190
 20
113.192033
 30
0.0
  0
SPLINE
  5
2b5
100
AcDbEntity
  8
0
 62
7
100
AcDbSpline
 70
8
 71
3
 72
8
 73
4
 74
0
 40
0
 40
0
 40
0
 40
0
 40
1
 40
1
 40
1
 40
1
 10
105.999190
 20
113.192033
 30
0.0
 10
103.001239
 20
112.839145
 30
0.0
 10
95.438066
 20
112.478794
 30
0.0
 10
90.973860
 20
112.476142
 30
0.0
  0
SPLINE
  5
2b6
100
AcDbEntity
  8
0
 62
7
100
AcDbSpline
 70
8
 71
3
 72
8
 73
4
 74
0
 40
0
 40
0
 40
0
 40
0
 40
1
 40
1
 40
1
 40
1
 10
90.973860
 20
112.476142
 30
0.0
 10
88.603521
 20
112.474820
 30
0.0
 10
84.614927
 20
112.351243
 30
0.0
 10
82.110318
 20
112.201717
 30
0.0
  0
SPLINE
  5
2b7
100
AcDbEntity
  8
0
 62
7
100
AcDbSpline
 70
8
 71
3
 72
8
 73
4
 74
0
 40
0
 40
0
 40
0
 40
0
 40
1
 40
1
 40
1
 40
1
 10
82.110318
 20
112.201717
 30
0.0
 10
71.242457
 20
111.552897
 30
0.0
 10
65.550079
 20
110.126161
 30
0.0
 10
59.646664
 20
106.571431
 30
0.0
  0
SPLINE
  5
2b8
100
AcDbEntity
  8
0
 62
7
100
AcDbSpline
 70
8
 71
3
 72
8
 73
4
 74
0
 40
0
 40
0
 40
0
 40
0
 40
1
 40
1
 40
1
 40
1
 10
59.646664
 20
106.571431
 30
0.0
 10
54.209344
 20
103.297358
 30
0.0
 10
50.929482
 20
100.612697
 30
0.0
 10
41.264168
 20
91.524820
 30
0.0
  0
SPLINE
  5
2b9
100
AcDbEntity
  8
0
 62
7
100
AcDbSpline
 70
8
 71
3
 72
8
 73
4
 74
0
 40
0
 40
0
 40
0
 40
0
 40
1
 40
1
 40
1
 40
1
 10
41.264168
 20
91.524820
 30
0.0
 10
35.373786
 20
85.986350
 30
0.0
 10
31.260759
 20
82.575667
 30
0.0
 10
30.472160
 20
82.575667
 30
0.0
  0
SPLINE
  5
2ba
100
AcDbEntity
  8
0
 62
7
100
AcDbSpline
 70
8
 71
3
 72
8
 73
4
 74
0
 40
0
 40
0
 40
0
 40
0
 40
1
 40
1
 40
1
 40
1
 10
30.472160
 20
82.575667
 30
0.0
 10
30.383935
 20
82.575667
 30
0.0
 10
30.238367
 20
82.766895
 30
0.0
 10
30.148681
 20
83.000620
 30
0.0
  0
LWPOLYLINE
  5
2bb
100
AcDbEntity
  8
0
 62
7
100
AcDbPolyline
 90
1
 70
1
 10
74.337077
 20
91.836084
 30
0.0
  0
LWPOLYLINE
  5
2bc
100
AcDbEntity
  8
0
 62
7
100
AcDbPolyline
 90
1
 70
1
 10
30.148681
 20
83.000620
 30
0.0
  0
ENDSEC
  0
SECTION
  2
OBJECTS
  0
DICTIONARY
  5
C
330
0
100
AcDbDictionary
  3
ACAD_GROUP
350
D
  3
ACAD_MLINESTYLE
350
17
  0
DICTIONARY
  5
D
330
C
100
AcDbDictionary
  0
DICTIONARY
  5
1A
330
C
100
AcDbDictionary
  0
DICTIONARY
  5
17
330
C
100
AcDbDictionary
  3
STANDARD
350
18
  0
DICTIONARY
  5
19
330
C
100
AcDbDictionary
  0
ENDSEC
  0
EOF
