  0
SECTION
  2
HEADER
  9
$ACADVER
  1
AC1018
  9
$ACADMAINTVER
 70
     0
  9
$DWGCODEPAGE
  3
ANSI_1256
  9
$INSBASE
 10
0.0
 20
0.0
 30
0.0
  9
$EXTMIN
 10
0.0
 20
0.0
 30
0.0
  9
$EXTMAX
 10
176.022
 20
358.648
 30
0.0
  9
$LIMMIN
 10
0.0
 20
0.0
  9
$LIMMAX
 10
12.0
 20
9.0
  9
$ORTHOMODE
 70
     0
  9
$REGENMODE
 70
     1
  9
$FILLMODE
 70
     1
  9
$QTEXTMODE
 70
     0
  9
$MIRRTEXT
 70
     1
  9
$LTSCALE
 40
1.0
  9
$ATTMODE
 70
     1
  9
$TEXTSIZE
 40
0.2
  9
$TRACEWID
 40
0.05
  9
$TEXTSTYLE
  7
Standard
  9
$CLAYER
  8
0
  9
$CELTYPE
  6
ByBlock
  9
$CECOLOR
 62
   256
  9
$CELTSCALE
 40
1.0
  9
$DISPSILH
 70
     0
  9
$DIMSCALE
 40
1.0
  9
$DIMASZ
 40
0.18
  9
$DIMEXO
 40
0.0625
  9
$DIMDLI
 40
0.38
  9
$DIMRND
 40
0.0
  9
$DIMDLE
 40
0.0
  9
$DIMEXE
 40
0.18
  9
$DIMTP
 40
0.0
  9
$DIMTM
 40
0.0
  9
$DIMTXT
 40
0.18
  9
$DIMCEN
 40
0.09
  9
$DIMTSZ
 40
0.0
  9
$DIMTOL
 70
     0
  9
$DIMLIM
 70
     0
  9
$DIMTIH
 70
     1
  9
$DIMTOH
 70
     1
  9
$DIMSE1
 70
     0
  9
$DIMSE2
 70
     0
  9
$DIMTAD
 70
     0
  9
$DIMZIN
 70
     0
  9
$DIMBLK
  1

  9
$DIMASO
 70
     1
  9
$DIMSHO
 70
     1
  9
$DIMPOST
  1

  9
$DIMAPOST
  1

  9
$DIMALT
 70
     0
  9
$DIMALTD
 70
     2
  9
$DIMALTF
 40
25.4
  9
$DIMLFAC
 40
1.0
  9
$DIMTOFL
 70
     0
  9
$DIMTVP
 40
0.0
  9
$DIMTIX
 70
     0
  9
$DIMSOXD
 70
     0
  9
$DIMSAH
 70
     0
  9
$DIMBLK1
  1

  9
$DIMBLK2
  1

  9
$DIMSTYLE
  2
Standard
  9
$DIMCLRD
 70
     0
  9
$DIMCLRE
 70
     0
  9
$DIMCLRT
 70
     0
  9
$DIMTFAC
 40
1.0
  9
$DIMGAP
 40
0.09
  9
$DIMJUST
 70
     0
  9
$DIMSD1
 70
     0
  9
$DIMSD2
 70
     0
  9
$DIMTOLJ
 70
     1
  9
$DIMTZIN
 70
     0
  9
$DIMALTZ
 70
     0
  9
$DIMALTTZ
 70
     0
  9
$DIMUPT
 70
     0
  9
$DIMDEC
 70
     4
  9
$DIMTDEC
 70
     4
  9
$DIMALTU
 70
     2
  9
$DIMALTTD
 70
     2
  9
$DIMTXSTY
  7
Standard
  9
$DIMAUNIT
 70
     0
  9
$DIMADEC
 70
     0
  9
$DIMALTRND
 40
0.0
  9
$DIMAZIN
 70
     0
  9
$DIMDSEP
 70
    46
  9
$DIMATFIT
 70
     3
  9
$DIMFRAC
 70
     0
  9
$DIMLDRBLK
  1

  9
$DIMLUNIT
 70
     2
  9
$DIMLWD
 70
    -2
  9
$DIMLWE
 70
    -2
  9
$DIMTMOVE
 70
     2
  9
$LUNITS
 70
     2
  9
$LUPREC
 70
     4
  9
$SKETCHINC
 40
0.1
  9
$FILLETRAD
 40
0.5
  9
$AUNITS
 70
     0
  9
$AUPREC
 70
     0
  9
$MENU
  1
.
  9
$ELEVATION
 40
0.0
  9
$PELEVATION
 40
0.0
  9
$THICKNESS
 40
0.0
  9
$LIMCHECK
 70
     0
  9
$CHAMFERA
 40
0.0
  9
$CHAMFERB
 40
0.0
  9
$CHAMFERC
 40
0.0
  9
$CHAMFERD
 40
0.0
  9
$SKPOLY
 70
     0
  9
$TDCREATE
 40
2457948.494220776
  9
$TDUCREATE
 40
2457948.369220776
  9
$TDUPDATE
 40
2457948.494221354
  9
$TDUUPDATE
 40
2457948.369221354
  9
$TDINDWG
 40
0.0000000116
  9
$TDUSRTIMER
 40
0.0000000116
  9
$USRTIMER
 70
     1
  9
$ANGBASE
 50
0.0
  9
$ANGDIR
 70
     0
  9
$PDMODE
 70
     0
  9
$PDSIZE
 40
0.0
  9
$PLINEWID
 40
0.0
  9
$SPLFRAME
 70
     0
  9
$SPLINETYPE
 70
     6
  9
$SPLINESEGS
 70
     8
  9
$HANDSEED
  5
101A
  9
$SURFTAB1
 70
     6
  9
$SURFTAB2
 70
     6
  9
$SURFTYPE
 70
     6
  9
$SURFU
 70
     6
  9
$SURFV
 70
     6
  9
$UCSBASE
  2

  9
$UCSNAME
  2

  9
$UCSORG
 10
0.0
 20
0.0
 30
0.0
  9
$UCSXDIR
 10
1.0
 20
0.0
 30
0.0
  9
$UCSYDIR
 10
0.0
 20
1.0
 30
0.0
  9
$UCSORTHOREF
  2

  9
$UCSORTHOVIEW
 70
     0
  9
$UCSORGTOP
 10
0.0
 20
0.0
 30
0.0
  9
$UCSORGBOTTOM
 10
0.0
 20
0.0
 30
0.0
  9
$UCSORGLEFT
 10
0.0
 20
0.0
 30
0.0
  9
$UCSORGRIGHT
 10
0.0
 20
0.0
 30
0.0
  9
$UCSORGFRONT
 10
0.0
 20
0.0
 30
0.0
  9
$UCSORGBACK
 10
0.0
 20
0.0
 30
0.0
  9
$PUCSBASE
  2

  9
$PUCSNAME
  2

  9
$PUCSORG
 10
0.0
 20
0.0
 30
0.0
  9
$PUCSXDIR
 10
1.0
 20
0.0
 30
0.0
  9
$PUCSYDIR
 10
0.0
 20
1.0
 30
0.0
  9
$PUCSORTHOREF
  2

  9
$PUCSORTHOVIEW
 70
     0
  9
$PUCSORGTOP
 10
0.0
 20
0.0
 30
0.0
  9
$PUCSORGBOTTOM
 10
0.0
 20
0.0
 30
0.0
  9
$PUCSORGLEFT
 10
0.0
 20
0.0
 30
0.0
  9
$PUCSORGRIGHT
 10
0.0
 20
0.0
 30
0.0
  9
$PUCSORGFRONT
 10
0.0
 20
0.0
 30
0.0
  9
$PUCSORGBACK
 10
0.0
 20
0.0
 30
0.0
  9
$USERI1
 70
     0
  9
$USERI2
 70
     0
  9
$USERI3
 70
     0
  9
$USERI4
 70
     0
  9
$USERI5
 70
     0
  9
$USERR1
 40
0.0
  9
$USERR2
 40
0.0
  9
$USERR3
 40
0.0
  9
$USERR4
 40
0.0
  9
$USERR5
 40
0.0
  9
$WORLDVIEW
 70
     1
  9
$SHADEDGE
 70
     3
  9
$SHADEDIF
 70
    70
  9
$TILEMODE
 70
     1
  9
$MAXACTVP
 70
    64
  9
$PINSBASE
 10
0.0
 20
0.0
 30
0.0
  9
$PLIMCHECK
 70
     0
  9
$PEXTMIN
 10
1.000000000000000E+20
 20
1.000000000000000E+20
 30
1.000000000000000E+20
  9
$PEXTMAX
 10
-1.000000000000000E+20
 20
-1.000000000000000E+20
 30
-1.000000000000000E+20
  9
$PLIMMIN
 10
0.0
 20
0.0
  9
$PLIMMAX
 10
12.0
 20
9.0
  9
$UNITMODE
 70
     0
  9
$VISRETAIN
 70
     1
  9
$PLINEGEN
 70
     0
  9
$PSLTSCALE
 70
     1
  9
$TREEDEPTH
 70
  3020
  9
$CMLSTYLE
  2
Standard
  9
$CMLJUST
 70
     0
  9
$CMLSCALE
 40
1.0
  9
$PROXYGRAPHICS
 70
     1
  9
$MEASUREMENT
 70
     0
  9
$CELWEIGHT
370
    -1
  9
$ENDCAPS
280
     0
  9
$JOINSTYLE
280
     0
  9
$LWDISPLAY
290
     0
  9
$INSUNITS
 70
     0
  9
$HYPERLINKBASE
  1

  9
$STYLESHEET
  1

  9
$XEDIT
290
     1
  9
$CEPSNTYPE
380
     0
  9
$PSTYLEMODE
290
     1
  9
$FINGERPRINTGUID
  2
{1A67D4B1-FEB6-47E6-8DE3-1F4D33C80FB8}
  9
$VERSIONGUID
  2
{FAEB1C32-E019-11D5-929B-00C0DF256EC4}
  9
$EXTNAMES
290
     1
  9
$PSVPSCALE
 40
0.0
  9
$OLESTARTUP
290
     0
  9
$SORTENTS
280
   127
  9
$INDEXCTL
280
     0
  9
$HIDETEXT
280
     1
  9
$XCLIPFRAME
290
     0
  9
$HALOGAP
280
     0
  9
$OBSCOLOR
 70
   257
  9
$OBSLTYPE
280
     0
  9
$INTERSECTIONDISPLAY
280
     0
  9
$INTERSECTIONCOLOR
 70
   257
  9
$DIMASSOC
280
     2
  9
$PROJECTNAME
  1

  0
ENDSEC
  0
SECTION
  2
CLASSES
  0
CLASS
  1
ACDBDICTIONARYWDFLT
  2
AcDbDictionaryWithDefault
  3
ObjectDBX Classes
 90
        0
 91
        4
280
     0
281
     0
  0
CLASS
  1
SCALE
  2
AcDbScale
  3
ObjectDBX Classes
 90
     1153
 91
        4
280
     0
281
     0
  0
CLASS
  1
VISUALSTYLE
  2
AcDbVisualStyle
  3
ObjectDBX Classes
 90
     4095
 91
        4
280
     0
281
     0
  0
CLASS
  1
MATERIAL
  2
AcDbMaterial
  3
ObjectDBX Classes
 90
     1153
 91
        4
280
     0
281
     0
  0
CLASS
  1
TABLESTYLE
  2
AcDbTableStyle
  3
ObjectDBX Classes
 90
     4095
 91
        4
280
     0
281
     0
  0
CLASS
  1
MLEADERSTYLE
  2
AcDbMLeaderStyle
  3
ACDB_MLEADERSTYLE_CLASS
 90
     4095
 91
        4
280
     0
281
     0
  0
CLASS
  1
DICTIONARYVAR
  2
AcDbDictionaryVar
  3
ObjectDBX Classes
 90
        0
 91
        4
280
     0
281
     0
  0
CLASS
  1
CELLSTYLEMAP
  2
AcDbCellStyleMap
  3
ObjectDBX Classes
 90
     1152
 91
        4
280
     0
281
     0
  0
ENDSEC
  0
SECTION
  2
TABLES
  0
TABLE
  2
VPORT
  5
8
102
{ACAD_XDICTIONARY
360
FD3
102
}
330
0
100
AcDbSymbolTable
 70
     1
  0
VPORT
  5
21
330
8
100
AcDbSymbolTableRecord
100
AcDbViewportTableRecord
  2
*Active
 70
     0
 10
0.0
 20
0.0
 11
1.0
 21
1.0
 12
10.42990654205607
 22
4.5
 13
0.0
 23
0.0
 14
0.5
 24
0.5
 15
0.5
 25
0.5
 16
0.0
 26
0.0
 36
1.0
 17
0.0
 27
0.0
 37
0.0
 40
9.0
 41
1.972972972850329
 42
50.0
 43
0.0
 44
0.0
 50
0.0
 51
0.0
 71
     0
 72
   100
 73
     1
 74
     3
 75
     0
 76
     0
 77
     0
 78
     0
281
     0
 65
     1
110
0.0
120
0.0
130
0.0
111
1.0
121
0.0
131
0.0
112
0.0
122
1.0
132
0.0
 79
     0
146
0.0
  0
ENDTAB
  0
TABLE
  2
LTYPE
  5
5
330
0
100
AcDbSymbolTable
 70
     1
  0
LTYPE
  5
14
330
5
100
AcDbSymbolTableRecord
100
AcDbLinetypeTableRecord
  2
ByBlock
 70
     0
  3

 72
    65
 73
     0
 40
0.0
  0
LTYPE
  5
15
330
5
100
AcDbSymbolTableRecord
100
AcDbLinetypeTableRecord
  2
ByLayer
 70
     0
  3

 72
    65
 73
     0
 40
0.0
  0
LTYPE
  5
16
330
5
100
AcDbSymbolTableRecord
100
AcDbLinetypeTableRecord
  2
Continuous
 70
     0
  3
Solid line
 72
    65
 73
     0
 40
0.0
  0
ENDTAB
  0
TABLE
  2
LAYER
  5
2
330
0
100
AcDbSymbolTable
 70
     1
  0
LAYER
  5
10
330
2
100
AcDbSymbolTableRecord
100
AcDbLayerTableRecord
  2
0
 70
     0
 62
     7
  6
Continuous
370
    -3
390
F
  0
ENDTAB
  0
TABLE
  2
STYLE
  5
3
330
0
100
AcDbSymbolTable
 70
     1
  0
STYLE
  5
11
330
3
100
AcDbSymbolTableRecord
100
AcDbTextStyleTableRecord
  2
Standard
 70
     0
 40
0.0
 41
1.0
 50
0.0
 71
     0
 42
0.2
  3
txt
  4

  0
ENDTAB
  0
TABLE
  2
VIEW
  5
6
330
0
100
AcDbSymbolTable
 70
     0
  0
ENDTAB
  0
TABLE
  2
UCS
  5
7
330
0
100
AcDbSymbolTable
 70
     0
  0
ENDTAB
  0
TABLE
  2
APPID
  5
9
330
0
100
AcDbSymbolTable
 70
     2
  0
APPID
  5
12
330
9
100
AcDbSymbolTableRecord
100
AcDbRegAppTableRecord
  2
ACAD
 70
     0
  0
APPID
  5
1011
330
9
100
AcDbSymbolTableRecord
100
AcDbRegAppTableRecord
  2
ACAD_MLEADERVER
 70
     0
  0
ENDTAB
  0
TABLE
  2
DIMSTYLE
  5
A
330
0
100
AcDbSymbolTable
 70
     1
100
AcDbDimStyleTable
  0
DIMSTYLE
105
20
330
A
100
AcDbSymbolTableRecord
100
AcDbDimStyleTableRecord
  2
Standard
 70
     0
178
     0
340
11
  0
ENDTAB
  0
TABLE
  2
BLOCK_RECORD
  5
1
330
0
100
AcDbSymbolTable
 70
     0
  0
BLOCK_RECORD
  5
1D
330
1
100
AcDbSymbolTableRecord
100
AcDbBlockTableRecord
  2
*Model_Space
340
1E
  0
BLOCK_RECORD
  5
1B
330
1
100
AcDbSymbolTableRecord
100
AcDbBlockTableRecord
  2
*Paper_Space
340
1C
  0
ENDTAB
  0
ENDSEC
  0
SECTION
  2
BLOCKS
  0
BLOCK
  5
FAE
330
1D
100
AcDbEntity
  8
0
100
AcDbBlockBegin
  2
*Model_Space
 70
     0
 10
0.0
 20
0.0
 30
0.0
  3
*Model_Space
  1

  0
ENDBLK
  5
FAF
330
1D
100
AcDbEntity
  8
0
100
AcDbBlockEnd
  0
BLOCK
  5
FB0
330
1B
100
AcDbEntity
 67
     1
  8
0
100
AcDbBlockBegin
  2
*Paper_Space
 70
     0
 10
0.0
 20
0.0
 30
0.0
  3
*Paper_Space
  1

  0
ENDBLK
  5
FB1
330
1B
100
AcDbEntity
 67
     1
  8
0
100
AcDbBlockEnd
  0
ENDSEC
  0
SECTION
  2
ENTITIES
  0
LWPOLYLINE
  5
22
330
1D
100
AcDbEntity
  8
0
100
AcDbPolyline
 90
        8
 70
     1
 43
0.0
 10
88.011
 20
358.620412
 10
0.0
 20
358.61047
 10
0.0
 20
179.305235
 10
0.0
 20
0.0
 10
88.011
 20
0.0
 10
176.022
 20
0.0
 10
176.022
 20
179.315177
 10
176.022
 20
358.630355
  0
LWPOLYLINE
  5
2C
330
1D
100
AcDbEntity
  8
0
100
AcDbPolyline
 90
       68
 70
     1
 43
0.0
 10
160.9725
 20
352.252084
 42
-0.000984
 10
166.450447
 20
352.270217
 42
-0.012507
 10
168.508783
 20
352.221486
 42
-0.032567
 10
169.608607
 20
352.09579
 42
-0.152796
 10
170.165833
 20
351.804167
 42
-0.059653
 10
170.36814
 20
351.546825
 42
-0.028204
 10
170.56743
 20
351.173802
 42
-0.027468
 10
170.734417
 20
350.754944
 42
-0.034762
 10
170.839504
 20
350.351711
 42
-0.04285
 10
170.904269
 20
349.7049
 42
-0.002674
 10
170.9212
 20
347.781383
 42
-0.003936
 10
170.911059
 20
345.486453
 42
-0.00291
 10
170.865077
 20
342.947812
 42
-0.002851
 10
170.779503
 20
340.060683
 42
-0.007709
 10
170.675512
 20
338.013377
 42
-0.005178
 10
170.559344
 20
336.498314
 42
-0.152629
 10
170.414305
 20
336.145269
 42
-0.10689
 10
170.239154
 20
336.007896
 42
-0.039526
 10
169.94551
 20
335.892948
 42
-0.036949
 10
169.594561
 20
335.814379
 42
-0.036611
 10
169.23478
 20
335.788
 42
-0.083037
 10
168.673274
 20
335.881899
 42
-0.07646
 10
168.155
 20
336.154366
 42
-0.038211
 10
167.494908
 20
336.725208
 42
-0.006089
 10
166.305709
 20
337.953536
 42
0.013522
 10
165.392739
 20
338.868918
 42
0.010113
 10
164.340035
 20
339.829071
 42
0.01024
 10
163.311021
 20
340.693595
 42
0.022894
 10
162.487236
 20
341.297373
 42
0.020433
 10
161.650968
 20
341.805329
 42
0.01131
 10
160.592473
 20
342.359585
 42
0.011263
 10
159.492947
 20
342.873498
 42
0.017784
 10
158.525909
 20
343.258776
 42
0.014344
 10
157.134879
 20
343.711862
 42
0.0388
 10
156.119861
 20
343.926759
 42
0.028426
 10
154.9211
 20
344.015919
 42
0.004962
 10
152.654
 20
344.03288
 42
0.005342
 10
150.475235
 20
344.004277
 42
0.024795
 10
149.220513
 20
343.912025
 42
0.033721
 10
148.168719
 20
343.709321
 42
0.016096
 10
146.848429
 20
343.315339
 42
-0.007775
 10
145.679282
 20
342.945164
 42
-0.036076
 10
144.988277
 20
342.791394
 42
-0.062578
 10
144.486623
 20
342.780431
 42
-0.072515
 10
144.023878
 20
342.897565
 42
-0.052558
 10
143.734079
 20
343.055026
 42
-0.036733
 10
143.443813
 20
343.28792
 42
-0.037144
 10
143.195873
 20
343.555706
 42
-0.061366
 10
143.034949
 20
343.818119
 42
-0.014427
 10
142.925107
 20
344.078882
 42
-0.015109
 10
142.832291
 20
344.341598
 42
-0.014922
 10
142.765967
 20
344.572638
 42
-0.062508
 10
142.748
 20
344.715798
 42
-0.12328
 10
142.794971
 20
344.903409
 42
-0.001998
 10
143.314987
 20
345.867534
 42
-0.005086
 10
143.938439
 20
346.985237
 42
-0.003337
 10
144.678167
 20
348.26041
 42
-0.003809
 10
145.438977
 20
349.529773
 42
-0.005632
 10
146.12722
 20
350.630386
 42
-0.002733
 10
146.726039
 20
351.553281
 42
-0.103766
 10
146.900667
 20
351.727064
 42
-0.109318
 10
147.11698
 20
351.808092
 42
-0.005769
 10
147.853252
 20
351.903678
 42
-0.008861
 10
148.738688
 20
351.992376
 42
-0.006315
 10
149.733
 20
352.061584
 42
-0.008569
 10
151.21574
 20
352.120514
 42
-0.001409
 10
154.082353
 20
352.177184
 42
-0.00155
 10
157.455599
 20
352.223901
 42
-0.001368
  0
LWPOLYLINE
  5
72
330
1D
100
AcDbEntity
  8
0
100
AcDbPolyline
 90
       64
 70
     1
 43
0.0
 10
17.653
 20
351.887818
 42
-0.001951
 10
21.871311
 20
351.812922
 42
-0.003062
 10
25.496061
 20
351.712207
 42
-0.000819
 10
28.653059
 20
351.599962
 42
-0.113287
 10
29.015504
 20
351.50246
 42
-0.115703
 10
29.26459
 20
351.28453
 42
-0.005837
 10
29.887377
 20
350.393382
 42
-0.009098
 10
30.601633
 20
349.303412
 42
-0.006442
 10
31.365004
 20
348.05555
 42
-0.006773
 10
32.096298
 20
346.785924
 42
-0.009451
 10
32.713232
 20
345.629659
 42
-0.00633
 10
33.196481
 20
344.650772
 42
-0.111942
 10
33.274
 20
344.308865
 42
-0.055058
 10
33.24715
 20
344.065774
 42
-0.029343
 10
33.163822
 20
343.774545
 42
-0.028825
 10
33.04255
 20
343.48365
 42
-0.03962
 10
32.898926
 20
343.239539
 42
-0.055531
 10
32.707809
 20
343.022495
 42
-0.035063
 10
32.442539
 20
342.813286
 42
-0.034955
 10
32.149008
 20
342.642163
 42
-0.053056
 10
31.871969
 20
342.540434
 42
-0.084994
 10
31.473041
 20
342.509926
 42
-0.022864
 10
30.841773
 20
342.598225
 42
-0.020093
 10
30.055274
 20
342.778131
 42
-0.012009
 10
29.135543
 20
343.051661
 42
0.017288
 10
28.015042
 20
343.372064
 42
0.019352
 10
26.916263
 20
343.6008
 42
0.018039
 10
25.738733
 20
343.755307
 42
0.011916
 10
24.377134
 20
343.851543
 42
0.010828
 10
23.028891
 20
343.885357
 42
0.016307
 10
21.853846
 20
343.851045
 42
0.01777
 10
20.764576
 20
343.744681
 42
0.017412
 10
19.678134
 20
343.560762
 42
0.022333
 10
18.689959
 20
343.31141
 42
0.013606
 10
17.54654
 20
342.933708
 42
0.013117
 10
16.360824
 20
342.470418
 42
0.014478
 10
15.24
 20
341.959538
 42
0.016003
 10
13.815213
 20
341.20208
 42
0.033452
 10
12.770286
 20
340.506202
 42
0.02681
 10
11.693549
 20
339.584457
 42
0.007104
 10
10.077525
 20
337.999115
 42
-0.003417
 10
8.367901
 20
336.297031
 42
-0.035509
 10
7.612898
 20
335.654145
 42
-0.095057
 10
7.078882
 20
335.39958
 42
-0.112772
 10
6.521525
 20
335.382467
 42
-0.038226
 10
6.189463
 20
335.474481
 42
-0.03321
 10
5.858651
 20
335.619494
 42
-0.034644
 10
5.576241
 20
335.79217
 42
-0.07826
 10
5.3975
 20
335.966969
 42
-0.142561
 10
5.235187
 20
336.401966
 42
-0.007913
 10
5.150169
 20
337.863673
 42
-0.008374
 10
5.095167
 20
340.017962
 42
-0.002195
 10
5.08
 20
343.473245
 42
-0.002725
 10
5.096665
 20
346.530925
 42
-0.006189
 10
5.150462
 20
348.841478
 42
-0.003913
 10
5.227735
 20
350.617393
 42
-0.110468
 10
5.350604
 20
351.059026
 42
-0.053745
 10
5.494549
 20
351.269979
 42
-0.03298
 10
5.704719
 20
351.485813
 42
-0.032806
 10
5.943835
 20
351.674154
 42
-0.049433
 10
6.176104
 20
351.801887
 42
-0.09805
 10
6.651197
 20
351.902422
 42
-0.001393
 10
9.57657
 20
351.932475
 42
-0.003537
 10
13.154282
 20
351.933956
 42
-0.001798
  0
LWPOLYLINE
  5
B4
330
1D
100
AcDbEntity
  8
0
100
AcDbPolyline
 90
       56
 70
     1
 43
0.0
 10
129.850124
 20
351.917
 42
-0.001674
 10
133.421701
 20
351.905045
 42
-0.018572
 10
134.846912
 20
351.842532
 42
-0.049909
 10
135.627548
 20
351.699908
 42
-0.131801
 10
136.110079
 20
351.409
 42
-0.029859
 10
136.308576
 20
351.176408
 42
-0.021973
 10
136.500715
 20
350.897259
 42
-0.022349
 10
136.659522
 20
350.616131
 42
-0.045282
 10
136.753459
 20
350.380266
 42
-0.156222
 10
136.745194
 20
349.994629
 42
-0.022608
 10
136.452352
 20
349.254096
 42
-0.018564
 10
135.944938
 20
348.227134
 42
-0.006438
 10
135.139702
 20
346.783875
 42
-0.003969
 10
133.890906
 20
344.651177
 42
-0.000168
 10
129.401279
 20
337.127233
 42
-0.000289
 10
124.071525
 20
328.213862
 42
-0.000205
 10
118.087798
 20
318.229208
 42
-0.000112
 10
112.131507
 20
308.304631
 42
-0.000165
 10
106.888744
 20
299.579905
 42
-0.000076
 10
102.417283
 20
292.146859
 42
-0.003061
 10
101.425433
 20
290.521257
 42
-0.010108
 10
100.760936
 20
289.494028
 42
-0.025826
 10
100.22742
 20
288.78642
 42
-0.03485
 10
99.785245
 20
288.327988
 42
-0.122576
 10
99.426334
 20
288.136623
 42
-0.038681
 10
99.14294
 20
288.08839
 42
-0.023392
 10
98.802636
 20
288.073243
 42
-0.023361
 10
98.461226
 20
288.089989
 42
-0.037563
 10
98.174213
 20
288.139497
 42
-0.064191
 10
97.901819
 20
288.246439
 42
-0.036744
 10
97.605127
 20
288.439035
 42
-0.036074
 10
97.330601
 20
288.680467
 42
-0.049364
 10
97.124088
 20
288.936531
 42
-0.075867
 10
96.910911
 20
289.403081
 42
-0.079781
 10
96.851584
 20
289.903821
 42
-0.034558
 10
96.9374
 20
290.678094
 42
-0.003846
 10
97.26823
 20
292.424998
 42
-0.001284
 10
97.635169
 20
294.259412
 42
-0.00011
 10
98.587421
 20
298.951868
 42
-0.000145
 10
99.726177
 20
304.548693
 42
-0.000113
 10
100.969227
 20
310.642
 42
-0.000002
 10
102.355846
 20
317.431125
 42
-0.000001
 10
103.930871
 20
325.142495
 42
-0.000001
 10
105.448946
 20
332.574849
 42
-0.000002
 10
106.644141
 20
338.426197
 42
-0.001595
 10
107.797953
 20
343.984305
 42
-0.004466
 10
108.653697
 20
347.869314
 42
-0.002058
 10
109.341403
 20
350.808337
 42
-0.138599
 10
109.589898
 20
351.253197
 42
-0.160272
 10
110.049546
 20
351.485583
 42
-0.019582
 10
111.186147
 20
351.612377
 42
-0.011765
 10
113.113598
 20
351.705753
 42
-0.00171
 10
117.039129
 20
351.79
 42
-0.001211
 10
120.155201
 20
351.838664
 42
-0.00082
 10
123.706306
 20
351.879694
 42
-0.000826
 10
127.13734
 20
351.908037
 42
-0.001652
  0
LWPOLYLINE
  5
EE
330
1D
100
AcDbEntity
  8
0
100
AcDbPolyline
 90
       50
 70
     1
 43
0.0
 10
53.2588
 20
351.79
 10
65.809091
 20
351.79
 10
66.422216
 20
351.176875
 42
-0.031422
 10
66.667531
 20
350.898625
 42
-0.024803
 10
66.897603
 20
350.569551
 42
-0.025416
 10
67.081045
 20
350.2414
 42
-0.055174
 10
67.179572
 20
349.970375
 42
-0.008227
 10
67.276924
 20
349.539059
 42
-0.000215
 10
67.677945
 20
347.611379
 42
-0.000454
 10
68.145953
 20
345.346492
 42
-0.00031
 10
68.673627
 20
342.773
 42
0.000311
 10
69.468006
 20
338.898813
 42
0.00005
 10
71.029671
 20
331.310415
 42
0.000055
 10
72.871487
 20
322.370174
 42
0.000048
 10
74.798703
 20
313.025135
 42
-0.000832
 10
76.908125
 20
302.714892
 42
-0.002327
 10
78.341329
 20
295.477265
 42
-0.000714
 10
79.420932
 20
289.845813
 42
-0.1089
 10
79.402127
 20
289.196651
 42
-0.067903
 10
79.275568
 20
288.881165
 42
-0.061933
 10
79.065923
 20
288.600064
 42
-0.057329
 10
78.777447
 20
288.361124
 42
-0.044827
 10
78.417923
 20
288.170456
 42
-0.029433
 10
77.977087
 20
288.014924
 42
-0.063308
 10
77.621729
 20
287.959806
 42
-0.067073
 10
77.277035
 20
287.99666
 42
-0.036757
 10
76.872365
 20
288.128046
 42
-0.099774
 10
76.433238
 20
288.419725
 42
-0.030104
 10
75.899167
 20
289.022051
 42
-0.021377
 10
75.23413
 20
289.948747
 42
-0.007351
 10
74.350152
 20
291.343108
 42
-0.000978
 10
73.318237
 20
293.032402
 42
-0.000169
 10
71.370322
 20
296.237732
 42
-0.000184
 10
69.086435
 20
300.001882
 42
-0.000164
 10
66.718307
 20
303.911
 42
-0.000259
 10
63.748265
 20
308.823095
 42
-0.000088
 10
59.433201
 20
315.970909
 42
-0.000087
 10
54.667936
 20
323.870736
 42
-0.000101
 10
50.122747
 20
331.412135
 42
-0.001021
 10
45.125144
 20
339.746426
 42
-0.003412
 10
41.894738
 20
345.243571
 42
-0.001469
 10
39.548215
 20
349.327369
 42
-0.130379
 10
39.37
 20
349.9992
 42
-0.058967
 10
39.412206
 20
350.355829
 42
-0.062891
 10
39.536391
 20
350.684547
 42
-0.059548
 10
39.745487
 20
350.986422
 42
-0.044916
 10
40.039254
 20
351.263565
 42
-0.131962
 10
40.791206
 20
351.585134
 42
-0.025481
 10
42.278166
 20
351.72045
 42
-0.00934
 10
45.098276
 20
351.780028
 42
-0.000611
  0
LWPOLYLINE
  5
122
330
1D
100
AcDbEntity
  8
0
100
AcDbPolyline
 90
       50
 70
     1
 43
0.0
 10
88.1838
 20
351.79
 10
96.289091
 20
351.79
 10
96.945401
 20
351.133689
 42
-0.036309
 10
97.303062
 20
350.719938
 42
-0.097976
 10
97.469489
 20
350.370872
 42
-0.07596
 10
97.512455
 20
349.933576
 42
-0.016051
 10
97.446568
 20
349.167434
 42
-0.032873
 10
97.332642
 20
348.553937
 42
-0.015602
 10
97.109977
 20
347.78114
 42
-0.015389
 10
96.825911
 20
346.984455
 42
-0.021049
 10
96.518588
 20
346.287634
 42
-0.026672
 10
96.10253
 20
345.545214
 42
-0.021705
 10
95.582039
 20
344.79658
 42
-0.021379
 10
94.988718
 20
344.083073
 42
-0.023477
 10
94.354027
 20
343.445821
 42
-0.022439
 10
93.707518
 20
342.906124
 42
-0.018984
 10
92.978988
 20
342.393938
 42
-0.019587
 10
92.25567
 20
341.964645
 42
-0.035583
 10
91.629651
 20
341.681075
 42
-0.014626
 10
91.031075
 20
341.479428
 42
-0.009635
 10
90.332049
 20
341.281128
 42
-0.009698
 10
89.643981
 20
341.114383
 42
-0.018432
 10
89.083663
 20
341.011554
 42
-0.030373
 10
88.506335
 20
340.962995
 42
-0.016991
 10
87.801329
 20
340.970603
 42
-0.016711
 10
87.072118
 20
341.027737
 42
-0.022356
 10
86.416663
 20
341.131036
 42
-0.021632
 10
85.771881
 20
341.29175
 42
-0.013628
 10
85.033808
 20
341.532077
 42
-0.013679
 10
84.319527
 20
341.808624
 42
-0.024322
 10
83.750385
 20
342.080321
 42
-0.028964
 10
83.205753
 20
342.415688
 42
-0.015117
 10
82.566294
 20
342.891871
 42
-0.014985
 10
81.937713
 20
343.421616
 42
-0.022136
 10
81.422256
 20
343.925968
 42
-0.02089
 10
80.945217
 20
344.480688
 42
-0.013153
 10
80.433271
 20
345.165179
 42
-0.013203
 10
79.964432
 20
345.866221
 42
-0.023512
 10
79.621967
 20
346.469879
 42
-0.026962
 10
79.341822
 20
347.105528
 42
-0.019142
 10
79.094552
 20
347.844456
 42
-0.019251
 10
78.906645
 20
348.59238
 42
-0.029312
 10
78.807228
 20
349.254497
 42
-0.012446
 10
78.750359
 20
350.120958
 42
-0.080339
 10
78.802525
 20
350.554738
 42
-0.117182
 10
78.982466
 20
350.87394
 42
-0.039436
 10
79.377885
 20
351.23889
 42
-0.108057
 10
80.049218
 20
351.564206
 42
-0.043391
 10
81.063449
 20
351.716693
 42
-0.014597
 10
82.939016
 20
351.779195
 42
-0.00103
  0
LWPOLYLINE
  5
156
330
1D
100
AcDbEntity
  8
0
100
AcDbPolyline
 90
       88
 70
     1
 43
0.0
 10
77.851
 20
338.166755
 42
-0.046118
 10
78.127831
 20
338.05634
 42
-0.008988
 10
78.602426
 20
337.803401
 42
-0.009478
 10
79.146678
 20
337.486999
 42
-0.008646
 10
79.695685
 20
337.140623
 42
0.01015
 10
80.287254
 20
336.769876
 42
0.007343
 10
80.960556
 20
336.380022
 42
0.007422
 10
81.611402
 20
336.028409
 42
0.016002
 10
82.124583
 20
335.78148
 42
0.015452
 10
82.649304
 20
335.568502
 42
0.00737
 10
83.335986
 20
335.325651
 42
0.007298
 10
84.061453
 20
335.092786
 42
0.0103
 10
84.714763
 20
334.908171
 42
0.023594
 10
85.42588
 20
334.758365
 42
0.011741
 10
86.33825
 20
334.632613
 42
0.011627
 10
87.291515
 20
334.546361
 42
0.016747
 10
88.138
 20
334.518
 42
0.016317
 10
88.98121
 20
334.545525
 42
0.011566
 10
89.924282
 20
334.629105
 42
0.011691
 10
90.822167
 20
334.750975
 42
0.024134
 10
91.515389
 20
334.896229
 42
0.01865
 10
92.182539
 20
335.096843
 42
0.009847
 10
92.99513
 20
335.392623
 42
0.009785
 10
93.81598
 20
335.728458
 42
0.014891
 10
94.513659
 20
336.054953
 42
0.009745
 10
95.180968
 20
336.408293
 42
0.007127
 10
95.908251
 20
336.825396
 42
0.007206
 10
96.586159
 20
337.240445
 42
0.015782
 10
97.090015
 20
337.581724
 42
-0.023326
 10
97.525732
 20
337.867359
 42
-0.023874
 10
97.982871
 20
338.108781
 42
-0.024483
 10
98.398164
 20
338.279096
 42
-0.085264
 10
98.682856
 20
338.328
 42
-0.069974
 10
98.946002
 20
338.290992
 42
-0.031112
 10
99.276811
 20
338.17336
 42
-0.030036
 10
99.617188
 20
338.003061
 42
-0.035654
 10
99.914746
 20
337.801565
 42
-0.044611
 10
100.224062
 20
337.510108
 42
-0.067545
 10
100.429834
 20
337.20349
 42
-0.068071
 10
100.545438
 20
336.854938
 42
-0.046113
 10
100.584
 20
336.437701
 42
-0.040383
 10
100.539571
 20
335.888492
 42
-0.002826
 10
100.28226
 20
334.362936
 42
-0.003991
 10
99.950233
 20
332.5458
 42
-0.002994
 10
99.556801
 20
330.550636
 42
-0.00004
 10
98.946622
 20
327.552278
 42
-0.000006
 10
97.714437
 20
321.500312
 42
-0.000007
 10
96.258418
 20
314.349904
 42
-0.000006
 10
94.72737
 20
306.832
 42
-0.000066
 10
93.239935
 20
299.533627
 42
-0.000095
 10
91.91792
 20
293.057572
 42
-0.000051
 10
90.797464
 20
287.577037
 42
-0.001445
 10
90.502589
 20
286.156372
 42
-0.015807
 10
90.293502
 20
285.298834
 42
-0.020358
 10
90.044944
 20
284.526816
 42
-0.022165
 10
89.781717
 20
283.898117
 42
-0.067485
 10
89.530219
 20
283.510538
 42
-0.046524
 10
89.235692
 20
283.226399
 42
-0.059277
 10
88.915363
 20
283.027327
 42
-0.060033
 10
88.560658
 20
282.910681
 42
-0.049488
 10
88.164088
 20
282.871333
 42
-0.049423
 10
87.803176
 20
282.907095
 42
-0.041977
 10
87.435115
 20
283.013505
 42
-0.043056
 10
87.101024
 20
283.175465
 42
-0.062065
 10
86.842108
 20
283.377004
 42
-0.113645
 10
86.545105
 20
283.8517
 42
-0.015385
 10
86.19357
 20
284.980145
 42
-0.012294
 10
85.766401
 20
286.676836
 42
-0.003526
 10
85.188139
 20
289.324837
 42
-0.000703
 10
84.609722
 20
292.08536
 42
-0.000242
 10
83.780964
 20
296.078252
 42
-0.000241
 10
82.871492
 20
300.481394
 42
-0.000279
 10
82.010259
 20
304.673
 42
-0.000062
 10
81.072068
 20
309.255044
 42
-0.000034
 10
79.91912
 20
314.891461
 42
-0.000034
 10
78.746331
 20
320.628823
 42
-0.000053
 10
77.741538
 20
325.548696
 42
-0.00124
 10
76.554565
 20
331.438245
 42
-0.007317
 10
75.985529
 20
334.53437
 42
-0.008379
 10
75.690247
 20
336.483242
 42
-0.150139
 10
75.792704
 20
337.10069
 42
-0.052483
 10
75.949529
 20
337.346786
 42
-0.031195
 10
76.182795
 20
337.605041
 42
-0.030952
 10
76.450535
 20
337.836077
 42
-0.046017
 10
76.713006
 20
337.999935
 42
-0.044611
 10
76.991522
 20
338.110197
 42
-0.035575
 10
77.307164
 20
338.179679
 42
-0.036734
 10
77.611033
 20
338.201632
 42
-0.07163
  0
LWPOLYLINE
  5
1B0
330
1D
100
AcDbEntity
  8
0
100
AcDbPolyline
 90
      100
 70
     1
 43
0.0
 10
153.289
 20
337.644791
 42
-0.018838
 10
153.98267
 20
337.559001
 42
-0.01076
 10
154.813
 20
337.405984
 42
-0.010736
 10
155.642927
 20
337.215833
 42
-0.017487
 10
156.337
 20
337.014993
 42
-0.015622
 10
156.991089
 20
336.7778
 42
-0.011679
 10
157.696699
 20
336.477408
 42
-0.011834
 10
158.348603
 20
336.162902
 42
-0.026251
 10
158.825677
 20
335.886152
 42
-0.014099
 10
159.270005
 20
335.578014
 42
-0.007071
 10
159.814506
 20
335.165213
 42
-0.007015
 10
160.366117
 20
334.722011
 42
-0.010303
 10
160.837252
 20
334.315838
 42
-0.024912
 10
161.30843
 20
333.847939
 42
-0.012089
 10
161.864997
 20
333.206794
 42
-0.011958
 10
162.413589
 20
332.509792
 42
-0.016869
 10
162.865848
 20
331.861547
 42
-0.022275
 10
163.281924
 20
331.152852
 42
-0.01288
 10
163.721316
 20
330.267286
 42
-0.012856
 10
164.11717
 20
329.354283
 42
-0.021017
 10
164.399525
 20
328.559547
 42
-0.020066
 10
164.65731
 20
327.587449
 42
-0.022186
 10
164.826374
 20
326.62973
 42
-0.020237
 10
164.920254
 20
325.588226
 42
-0.012474
 10
164.950376
 20
324.358
 42
-0.01186
 10
164.922128
 20
323.190246
 42
-0.018619
 10
164.83677
 20
322.190067
 42
-0.021428
 10
164.691665
 20
321.319824
 42
-0.028714
 10
164.481804
 20
320.548
 42
-0.009023
 10
164.265993
 20
319.939729
 42
-0.006431
 10
164.00334
 20
319.266246
 42
-0.006495
 10
163.736161
 20
318.630237
 42
-0.013761
 10
163.509401
 20
318.146327
 42
-0.035278
 10
163.220615
 20
317.660448
 42
-0.012422
 10
162.741587
 20
317.00569
 42
-0.012261
 10
162.177599
 20
316.309668
 42
-0.014067
 10
161.604658
 20
315.674126
 42
-0.013885
 10
160.982968
 20
315.057572
 42
-0.01067
 10
160.271804
 20
314.418389
 42
-0.010815
 10
159.58059
 20
313.848863
 42
-0.025094
 10
159.032937
 20
313.460059
 42
-0.022225
 10
158.466473
 20
313.133652
 42
-0.010955
 10
157.720275
 20
312.767291
 42
-0.010848
 10
156.927716
 20
312.420183
 42
-0.01555
 10
156.21
 20
312.150031
 42
-0.021679
 10
155.30282
 20
311.883703
 42
-0.025016
 10
154.418121
 20
311.711555
 42
-0.022557
 10
153.447479
 20
311.617053
 42
-0.012987
 10
152.273
 20
311.586541
 42
-0.01291
 10
151.101117
 20
311.616805
 42
-0.022556
 10
150.134559
 20
311.710605
 42
-0.025159
 10
149.257736
 20
311.881195
 42
-0.02223
 10
148.364811
 20
312.144656
 42
-0.017362
 10
147.649168
 20
312.419008
 42
-0.011126
 10
146.837615
 20
312.784404
 42
-0.011181
 10
146.057813
 20
313.178229
 42
-0.020476
 10
145.443811
 20
313.538786
 42
-0.021526
 10
144.860924
 20
313.950498
 42
-0.011614
 10
144.177955
 20
314.504185
 42
-0.011548
 10
143.507134
 20
315.10157
 42
-0.017803
 10
142.958376
 20
315.65127
 42
-0.022032
 10
142.446995
 20
316.252422
 42
-0.013129
 10
141.889959
 20
317.009124
 42
-0.01313
 10
141.373547
 20
317.793811
 42
-0.022083
 10
140.987536
 20
318.481262
 42
-0.017613
 10
140.659872
 20
319.191484
 42
-0.010945
 10
140.323555
 20
320.045531
 42
-0.010978
 10
140.028322
 20
320.903822
 42
-0.019452
 10
139.828415
 20
321.624892
 42
-0.018237
 10
139.684373
 20
322.353892
 42
-0.010666
 10
139.562534
 20
323.235864
 42
-0.010657
 10
139.478158
 20
324.124851
 42
-0.017766
 10
139.449754
 20
324.876135
 42
-0.019014
 10
139.476393
 20
325.620671
 42
-0.01193
 10
139.561349
 20
326.487932
 42
-0.011973
 10
139.686003
 20
327.338891
 42
-0.021355
 10
139.834923
 20
328.030445
 42
-0.019662
 10
140.040442
 20
328.708929
 42
-0.010923
 10
140.341204
 20
329.519536
 42
-0.010881
 10
140.681987
 20
330.328053
 42
-0.017261
 10
141.012288
 20
331.00289
 42
-0.024733
 10
141.407568
 20
331.66359
 42
-0.013696
 10
141.950746
 20
332.430918
 42
-0.01363
 10
142.544934
 20
333.179922
 42
-0.021329
 10
143.099865
 20
333.786993
 42
-0.011577
 10
143.667209
 20
334.331035
 42
-0.009472
 10
144.29782
 20
334.886738
 42
-0.009595
 10
144.897514
 20
335.375872
 42
-0.02474
 10
145.353693
 20
335.698485
 42
-0.017739
 10
145.813048
 20
335.968
 42
-0.008745
 10
146.414373
 20
336.279252
 42
-0.008666
 10
147.050517
 20
336.580926
 42
-0.012505
 10
147.623884
 20
336.823663
 42
-0.01769
 10
148.229773
 20
337.038048
 42
-0.010387
 10
148.967967
 20
337.253471
 42
-0.010382
 10
149.715896
 20
337.438406
 42
-0.017393
 10
150.352191
 20
337.558704
 42
-0.019647
 10
151.003119
 20
337.632431
 42
-0.011048
 10
151.797662
 20
337.673306
 42
-0.011013
 10
152.602867
 20
337.679168
 42
-0.01766
  0
LWPOLYLINE
  5
216
330
1D
100
AcDbEntity
  8
0
100
AcDbPolyline
 90
       92
 70
     1
 43
0.0
 10
24.481334
 20
337.419863
 42
-0.016333
 10
25.266295
 20
337.328734
 42
-0.010048
 10
26.183671
 20
337.172831
 42
-0.010072
 10
27.085739
 20
336.981906
 42
-0.017716
 10
27.821417
 20
336.782931
 42
-0.024618
 10
28.542135
 20
336.520828
 42
-0.013483
 10
29.398531
 20
336.133247
 42
-0.01341
 10
30.248976
 20
335.69182
 42
-0.020797
 10
30.955093
 20
335.26163
 42
-0.017777
 10
31.620797
 20
334.782024
 42
-0.01196
 10
32.347274
 20
334.189986
 42
-0.012056
 10
33.023623
 20
333.582494
 42
-0.023275
 10
33.529173
 20
333.059383
 42
-0.025196
 10
33.987473
 20
332.482575
 42
-0.012244
 10
34.516383
 20
331.703698
 42
-0.012111
 10
35.028577
 20
330.864207
 42
-0.017094
 10
35.440481
 20
330.090898
 42
-0.019695
 10
35.834429
 20
329.198827
 42
-0.019143
 10
36.161065
 20
328.270098
 42
-0.019346
 10
36.4125
 20
327.329553
 42
-0.02131
 10
36.581189
 20
326.402116
 42
-0.016251
 10
36.680995
 20
325.453329
 42
-0.017598
 10
36.715467
 20
324.524974
 42
-0.017765
 10
36.68453
 20
323.604707
 42
-0.017269
 10
36.588342
 20
322.680168
 42
-0.01513
 10
36.452701
 20
321.882614
 42
-0.010749
 10
36.254543
 20
320.997362
 42
-0.010865
 10
36.028658
 20
320.159849
 42
-0.022578
 10
35.809246
 20
319.519939
 42
-0.018309
 10
35.543656
 20
318.912327
 42
-0.009754
 10
35.173358
 20
318.18008
 42
-0.009697
 10
34.765457
 20
317.445856
 42
-0.014876
 10
34.381331
 20
316.828017
 42
-0.019668
 10
33.951793
 20
316.233065
 42
-0.012222
 10
33.404251
 20
315.568423
 42
-0.012258
 10
32.830993
 20
314.938142
 42
-0.021613
 10
32.323452
 20
314.450888
 42
-0.023999
 10
31.758504
 20
313.999802
 42
-0.011876
 10
31.001915
 20
313.479904
 42
-0.011757
 10
30.189992
 20
312.976741
 42
-0.016853
 10
29.446038
 20
312.572657
 42
-0.02187
 10
28.653659
 20
312.218672
 42
-0.013376
 10
27.691586
 20
311.867866
 42
-0.0134
 10
26.718272
 20
311.570938
 42
-0.023119
 10
25.892621
 20
311.38364
 42
-0.015988
 10
24.884484
 20
311.23656
 42
-0.026129
 10
24.022586
 20
311.184219
 42
-0.02503
 10
23.134297
 20
311.221231
 42
-0.013261
 10
22.0396
 20
311.351244
 42
-0.019701
 10
21.039767
 20
311.537451
 42
-0.018974
 10
20.044914
 20
311.803668
 42
-0.018794
 10
19.063677
 20
312.147453
 42
-0.018437
 10
18.104614
 20
312.565943
 42
-0.020592
 10
17.147111
 20
313.076043
 42
-0.02347
 10
16.277072
 20
313.643091
 42
-0.023145
 10
15.453792
 20
314.296433
 42
-0.019016
 10
14.636493
 20
315.065689
 42
-0.018184
 10
13.990347
 20
315.771522
 42
-0.01394
 10
13.335104
 20
316.586731
 42
-0.014153
 10
12.764219
 20
317.384946
 42
-0.032153
 10
12.390542
 20
318.025249
 42
-0.016857
 10
12.09784
 20
318.663011
 42
-0.009873
 10
11.788625
 20
319.444396
 42
-0.009867
 10
11.509852
 20
320.239203
 42
-0.016517
 10
11.311042
 20
320.918865
 42
-0.02079
 10
11.161813
 20
321.619112
 42
-0.011714
 10
11.036281
 20
322.478968
 42
-0.011676
 10
10.950073
 20
323.354113
 42
-0.018712
 10
10.922
 20
324.104
 42
-0.018589
 10
10.949889
 20
324.853887
 42
-0.011601
 10
11.035532
 20
325.729032
 42
-0.011639
 10
11.16024
 20
326.588893
 42
-0.020667
 10
11.308491
 20
327.289135
 42
-0.01786
 10
11.5131
 20
327.98577
 42
-0.009391
 10
11.814224
 20
328.836561
 42
-0.009331
 10
12.155738
 20
329.697548
 42
-0.014171
 10
12.487402
 20
330.431114
 42
-0.026989
 10
12.919568
 20
331.209332
 42
-0.018939
 10
13.484589
 20
332.037416
 42
-0.018306
 10
14.137337
 20
332.855857
 42
-0.019538
 10
14.834769
 20
333.606114
 42
-0.016515
 10
15.526369
 20
334.250112
 42
-0.012801
 10
16.319249
 20
334.906031
 42
-0.012993
 10
17.09131
 20
335.480336
 42
-0.030207
 10
17.704771
 20
335.859141
 42
-0.021835
 10
18.340434
 20
336.165511
 42
-0.010519
 10
19.1789
 20
336.504709
 42
-0.010409
 10
20.069493
 20
336.822318
 42
-0.014679
 10
20.876412
 20
337.065218
 42
-0.016001
 10
21.855742
 20
337.295595
 42
-0.02525
 10
22.709203
 20
337.423318
 42
-0.026187
 10
23.548162
 20
337.461685
 42
-0.019064
  0
LWPOLYLINE
  5
274
330
1D
100
AcDbEntity
  8
0
100
AcDbPolyline
 90
       76
 70
     1
 43
0.0
 10
127.338647
 20
317.5
 42
-0.054399
 10
127.595018
 20
317.472025
 42
-0.029386
 10
127.900884
 20
317.38535
 42
-0.028904
 10
128.205545
 20
317.259161
 42
-0.040156
 10
128.460197
 20
317.109701
 42
-0.074153
 10
128.693442
 20
316.888435
 42
-0.03252
 10
128.934075
 20
316.535716
 42
-0.031285
 10
129.145204
 20
316.121237
 42
-0.036402
 10
129.290904
 20
315.703789
 42
-0.015689
 10
129.477412
 20
314.913138
 42
-0.000115
 10
130.819805
 20
308.292659
 42
-0.000436
 10
132.34894
 20
300.708353
 42
-0.000279
 10
134.111646
 20
291.900589
 42
0.000107
 10
136.093873
 20
281.978124
 42
0.000079
 10
138.292349
 20
270.994348
 42
0.000079
 10
140.373677
 20
260.612904
 42
0.000178
 10
141.958305
 20
252.73
 42
0.000277
 10
143.453942
 20
245.324683
 42
0.000168
 10
145.230058
 20
236.570838
 42
0.000169
 10
146.997575
 20
227.889422
 42
0.000298
 10
148.462999
 20
220.726
 42
-0.000192
 10
149.827958
 20
214.060919
 42
-0.000158
 10
151.278998
 20
206.950236
 42
-0.000159
 10
152.606926
 20
200.421714
 42
-0.000425
 10
153.548319
 20
195.765654
 42
-0.00235
 10
154.257687
 20
192.154092
 42
-0.00368
 10
154.830323
 20
189.040593
 42
-0.001051
 10
155.302025
 20
186.33207
 42
-0.128409
 10
155.272561
 20
185.986654
 42
-0.034309
 10
155.185746
 20
185.78642
 42
-0.017141
 10
155.050402
 20
185.545577
 42
-0.016932
 10
154.892606
 20
185.304791
 42
-0.023913
 10
154.735025
 20
185.1025
 42
-0.081652
 10
154.528582
 20
184.929234
 42
-0.044624
 10
154.229627
 20
184.786253
 42
-0.042324
 10
153.886003
 20
184.690291
 42
-0.046967
 10
153.543
 20
184.658
 42
-0.047769
 10
153.19985
 20
184.690859
 42
-0.040796
 10
152.849779
 20
184.788679
 42
-0.042592
 10
152.541226
 20
184.933623
 42
-0.077893
 10
152.325505
 20
185.107983
 42
-0.081556
 10
152.101307
 20
185.455608
 42
-0.003686
 10
151.542616
 20
186.767198
 42
-0.00609
 10
150.907755
 20
188.342321
 42
-0.004315
 10
150.232203
 20
190.124483
 42
-0.00021
 10
149.26076
 20
192.758925
 42
-0.000037
 10
147.436217
 20
197.714417
 42
-0.00004
 10
145.297367
 20
203.526334
 42
-0.000036
 10
143.08163
 20
209.55
 42
-0.000084
 10
140.815998
 20
215.713862
 42
-0.000081
 10
138.527311
 20
221.946788
 42
-0.00008
 10
136.514645
 20
227.433462
 42
-0.000298
 10
135.251118
 20
230.886
 42
0.00002
 10
134.142531
 20
233.920399
 42
0.00001
 10
132.748256
 20
237.736063
 42
0.00001
 10
131.309853
 20
241.671997
 42
0.000015
 10
130.053224
 20
245.11
 42
-0.000247
 10
128.501893
 20
249.360394
 42
-0.000057
 10
125.894242
 20
256.518451
 42
-0.000059
 10
122.893184
 20
264.762372
 42
-0.000058
 10
119.871671
 20
273.068513
 42
-0.001125
 10
117.054289
 20
280.87088
 42
-0.001785
 10
114.680966
 20
287.565192
 42
-0.000374
 10
112.619721
 20
293.459958
 42
-0.084106
 10
112.522
 20
294.036783
 42
-0.124769
 10
112.687976
 20
294.691562
 42
-0.003896
 10
114.034445
 20
297.131243
 42
-0.005655
 10
115.980541
 20
300.503479
 42
-0.001714
 10
119.007943
 20
305.575269
 42
-0.001884
 10
121.539932
 20
309.74858
 42
-0.002854
 10
123.776706
 20
313.357745
 42
-0.001081
 10
125.723298
 20
316.444169
 42
-0.069412
 10
126.134107
 20
316.9285
 42
-0.038453
 10
126.420705
 20
317.147223
 42
-0.033013
 10
126.752032
 20
317.332122
 42
-0.03438
 10
127.076794
 20
317.459683
 42
-0.076533
  0
LWPOLYLINE
  5
2C2
330
1D
100
AcDbEntity
  8
0
100
AcDbPolyline
 90
       72
 70
     1
 43
0.0
 10
48.753836
 20
317.246
 42
-0.060683
 10
49.089702
 20
317.205087
 42
-0.038114
 10
49.465825
 20
317.081017
 42
-0.037448
 10
49.828628
 20
316.896872
 42
-0.04935
 10
50.125336
 20
316.6745
 42
-0.051303
 10
50.466136
 20
316.29099
 42
-0.006368
 10
51.107671
 20
315.375528
 42
-0.007458
 10
51.84168
 20
314.263933
 42
-0.00611
 10
52.593671
 20
313.055
 42
0.000004
 10
53.598282
 20
311.395085
 42
0.000001
 10
55.264708
 20
308.641714
 42
0.000001
 10
57.177629
 20
305.481096
 42
0.000001
 10
59.096172
 20
302.311217
 42
-0.002605
 10
61.186903
 20
298.815879
 42
-0.00718
 10
62.611968
 20
296.323996
 42
-0.005384
 10
63.609825
 20
294.472698
 42
-0.121491
 10
63.754
 20
293.888099
 42
-0.075145
 10
63.678128
 20
293.386113
 42
-0.002681
 10
63.090229
 20
291.521184
 42
-0.004895
 10
62.360103
 20
289.321868
 42
-0.003403
 10
61.494354
 20
286.851882
 42
-0.000848
 10
60.181595
 20
283.206178
 42
-0.000147
 10
57.684808
 20
276.315315
 42
-0.00016
 10
54.749646
 20
268.230065
 42
-0.000143
 10
51.698808
 20
259.842
 42
-0.000179
 10
48.424387
 20
250.857242
 42
-0.000135
 10
44.813668
 20
240.969006
 42
-0.000136
 10
41.410618
 20
231.66511
 42
-0.000312
 10
38.842363
 20
224.663
 42
-0.000107
 10
36.468163
 20
218.206711
 42
-0.00007
 10
33.723959
 20
210.75238
 42
-0.00007
 10
31.044875
 20
203.48121
 42
-0.000134
 10
28.88941
 20
197.638505
 42
-0.001173
 10
26.375859
 20
190.879595
 42
-0.00699
 10
25.00678
 20
187.374392
 42
-0.008556
 10
24.087266
 20
185.220319
 42
-0.128135
 10
23.580611
 20
184.58792
 42
-0.038564
 10
23.23744
 20
184.371152
 42
-0.059088
 10
22.909636
 20
184.24467
 42
-0.064761
 10
22.584635
 20
184.205196
 42
-0.059427
 10
22.250324
 20
184.247948
 42
-0.064176
 10
21.968406
 20
184.358619
 42
-0.036745
 10
21.66136
 20
184.55791
 42
-0.036076
 10
21.377268
 20
184.807727
 42
-0.049377
 10
21.163578
 20
185.072676
 42
-0.059761
 10
20.935924
 20
185.531404
 42
-0.083838
 10
20.85692
 20
185.980871
 42
-0.04073
 10
20.905938
 20
186.635797
 42
-0.004999
 10
21.143577
 20
188.053143
 42
-0.005396
 10
21.441946
 20
189.630827
 42
-0.000286
 10
22.451022
 20
194.653273
 42
-0.000449
 10
23.659911
 20
200.62478
 42
-0.000327
 10
25.014709
 20
207.264
 42
0.000086
 10
26.569644
 20
214.865275
 42
0.000053
 10
28.391071
 20
223.781938
 42
0.000054
 10
30.185916
 20
232.578062
 42
0.000097
 10
31.652395
 20
239.776
 42
0.000501
 10
33.273167
 20
247.78023
 42
0.000164
 10
35.645199
 20
259.5753
 42
0.000164
 10
38.269677
 20
272.670121
 42
0.000185
 10
40.780226
 20
285.242
 42
-0.000066
 10
43.070617
 20
296.725627
 42
-0.000107
 10
45.021587
 20
306.489807
 42
-0.000013
 10
46.764026
 20
315.199454
 42
-0.008871
 10
46.865789
 20
315.664961
 42
-0.049007
 10
46.954273
 20
315.922537
 42
-0.02636
 10
47.109966
 20
316.220473
 42
-0.025992
 10
47.302365
 20
316.510189
 42
-0.036818
 10
47.504461
 20
316.744461
 42
-0.061902
 10
47.751088
 20
316.936563
 42
-0.039111
 10
48.07835
 20
317.098673
 42
-0.038847
 10
48.430762
 20
317.209266
 42
-0.056668
  0
LWPOLYLINE
  5
30C
330
1D
100
AcDbEntity
  8
0
100
AcDbPolyline
 90
       46
 70
     1
 43
0.0
 10
168.531458
 20
313.944
 42
-0.049049
 10
168.893213
 20
313.908427
 42
-0.033118
 10
169.293976
 20
313.800848
 42
-0.033369
 10
169.6714
 20
313.643416
 42
-0.055192
 10
169.961361
 20
313.456674
 10
170.561
 20
312.969348
 10
170.518857
 20
306.801383
 42
-0.001677
 10
170.48164
 20
303.14819
 42
-0.01555
 10
170.411143
 20
301.569962
 42
-0.03471
 10
170.284069
 20
300.700512
 42
-0.183237
 10
170.02581
 20
300.303709
 42
-0.059475
 10
169.801005
 20
300.177205
 42
-0.030199
 10
169.493889
 20
300.070852
 42
-0.029502
 10
169.159488
 20
299.998176
 42
-0.038774
 10
168.8482
 20
299.974
 42
-0.101997
 10
168.400143
 20
300.066362
 42
-0.047667
 10
167.878275
 20
300.352711
 42
-0.030755
 10
167.210386
 20
300.869563
 42
-0.009458
 10
166.268255
 20
301.728096
 42
0.013446
 10
165.452429
 20
302.459708
 42
0.010636
 10
164.533049
 20
303.207546
 42
0.010785
 10
163.649604
 20
303.865347
 42
0.026169
 10
162.963591
 20
304.301325
 42
-0.017672
 10
162.379118
 20
304.658982
 42
-0.017822
 10
161.823053
 20
305.056065
 42
-0.017938
 10
161.364568
 20
305.435734
 42
-0.065907
 10
161.119082
 20
305.720379
 42
-0.05031
 10
160.968534
 20
306.009906
 42
-0.047709
 10
160.875571
 20
306.328837
 42
-0.048893
 10
160.846275
 20
306.651413
 42
-0.059763
 10
160.884472
 20
306.951702
 42
-0.098815
 10
161.032975
 20
307.264787
 42
-0.026837
 10
161.385047
 20
307.688299
 42
-0.025474
 10
161.853796
 20
308.145247
 42
-0.021367
 10
162.394064
 20
308.581236
 42
0.011508
 10
162.990465
 20
309.043412
 42
0.007204
 10
163.667813
 20
309.610119
 42
0.007229
 10
164.319183
 20
310.187857
 42
0.013067
 10
164.832912
 20
310.682184
 42
0.006456
 10
165.314123
 20
311.182838
 42
0.00409
 10
165.862639
 20
311.778151
 42
0.004107
 10
166.391852
 20
312.371752
 42
0.007568
 10
166.810917
 20
312.8645
 42
-0.019429
 10
167.303681
 20
313.416809
 42
-0.060856
 10
167.689289
 20
313.729848
 42
-0.081796
 10
168.070913
 20
313.889897
 42
-0.058537
  0
LWPOLYLINE
  5
33C
330
1D
100
AcDbEntity
  8
0
100
AcDbPolyline
 90
       52
 70
     1
 43
0.0
 10
7.482732
 20
313.682276
 42
-0.16366
 10
7.78597
 20
313.585499
 42
-0.017981
 10
8.366691
 20
313.126054
 42
-0.018859
 10
9.076171
 20
312.474316
 42
-0.010394
 10
9.895732
 20
311.627919
 42
0.011717
 10
10.745222
 20
310.755243
 42
0.008905
 10
11.714989
 20
309.837912
 42
0.009017
 10
12.655824
 20
309.009777
 42
0.020742
 10
13.399422
 20
308.429966
 42
-0.01752
 10
14.017836
 20
307.954138
 42
-0.021136
 10
14.562418
 20
307.463708
 42
-0.020332
 10
14.980262
 20
307.019429
 42
-0.117583
 10
15.128008
 20
306.735632
 42
-0.05373
 10
15.164283
 20
306.475491
 42
-0.029322
 10
15.155432
 20
306.152982
 42
-0.028872
 10
15.107593
 20
305.822583
 42
-0.040472
 10
15.024539
 20
305.536364
 42
-0.09819
 10
14.817564
 20
305.205555
 42
-0.030184
 10
14.386968
 20
304.799869
 42
-0.026081
 10
13.79391
 20
304.355428
 42
-0.01628
 10
13.057366
 20
303.895278
 42
0.02122
 10
12.278702
 20
303.398056
 42
0.011258
 10
11.355762
 20
302.720537
 42
0.011185
 10
10.441672
 20
301.984182
 42
0.017014
 10
9.684957
 20
301.300805
 42
-0.011747
 10
9.011818
 20
300.67991
 42
-0.014352
 10
8.352795
 20
300.132828
 42
-0.012878
 10
7.778602
 20
299.706747
 42
-0.091941
 10
7.465374
 20
299.56337
 42
-0.041453
 10
7.207452
 20
299.52094
 42
-0.026446
 10
6.903426
 20
299.512635
 42
-0.026525
 10
6.602335
 20
299.536352
 42
-0.04395
 10
6.353781
 20
299.5918
 42
-0.077172
 10
6.129151
 20
299.703476
 42
-0.04587
 10
5.901445
 20
299.898045
 42
-0.044663
 10
5.705002
 20
300.139598
 42
-0.057609
 10
5.57345
 20
300.39327
 42
-0.078183
 10
5.478147
 20
300.846463
 42
-0.003278
 10
5.404338
 20
302.49773
 42
-0.00559
 10
5.351407
 20
304.462654
 42
-0.003938
 10
5.334
 20
306.672988
 42
-0.002884
 10
5.3497
 20
309.394682
 42
-0.010229
 10
5.405541
 20
311.139502
 42
-0.010415
 10
5.492772
 20
312.327762
 42
-0.145844
 10
5.6515
 20
312.720875
 42
-0.034205
 10
5.809589
 20
312.893393
 42
-0.018652
 10
6.024959
 20
313.08356
 42
-0.018509
 10
6.259311
 20
313.261352
 42
-0.027882
 10
6.477
 20
313.396698
 42
-0.033235
 10
6.707832
 20
313.503699
 42
-0.02274
 10
6.981984
 20
313.595202
 42
-0.022983
 10
7.255479
 20
313.659444
 42
-0.042335
  0
LWPOLYLINE
  5
372
330
1D
100
AcDbEntity
  8
0
100
AcDbPolyline
 90
       56
 70
     1
 43
0.0
 10
138.093837
 20
310.642
 42
-0.055893
 10
138.273723
 20
310.621828
 42
-0.021588
 10
138.516239
 20
310.555621
 42
-0.021053
 10
138.775367
 20
310.46051
 42
-0.024385
 10
139.012845
 20
310.347944
 42
-0.025824
 10
139.303552
 20
310.172484
 42
-0.006119
 10
139.768824
 20
309.849434
 42
-0.00628
 10
140.29499
 20
309.464423
 42
-0.006157
 10
140.814826
 20
309.063818
 42
0.024418
 10
141.459002
 20
308.603869
 42
0.009305
 10
142.398102
 20
308.024696
 42
0.00919
 10
143.443392
 20
307.432235
 42
0.011125
 10
144.445825
 20
306.916692
 42
-0.010769
 10
145.374839
 20
306.439744
 42
-0.014229
 10
146.198425
 20
305.963479
 42
-0.0116
 10
146.857834
 20
305.535261
 42
-0.120643
 10
147.072146
 20
305.296516
 42
-0.042187
 10
147.167207
 20
305.076036
 42
-0.023335
 10
147.247193
 20
304.793724
 42
-0.023119
 10
147.301971
 20
304.498067
 42
-0.034256
 10
147.32
 20
304.235222
 42
-0.126618
 10
147.228242
 20
303.878688
 42
-0.034452
 10
146.910382
 20
303.385681
 42
-0.026917
 10
146.400812
 20
302.774976
 42
-0.012062
 10
145.670153
 20
302.026432
 42
0.015361
 10
144.956289
 20
301.285375
 42
0.009914
 10
144.17377
 20
300.386237
 42
0.009967
 10
143.44298
 20
299.475851
 42
0.018484
 10
142.892889
 20
298.704506
 42
-0.01176
 10
142.430552
 20
298.037417
 42
-0.015185
 10
141.973713
 20
297.448717
 42
-0.012941
 10
141.568985
 20
296.983699
 42
-0.116097
 10
141.346962
 20
296.832597
 42
-0.029847
 10
141.152516
 20
296.771011
 42
-0.017212
 10
140.912427
 20
296.719175
 42
-0.017158
 10
140.66695
 20
296.683604
 42
-0.027405
 10
140.45539
 20
296.672
 42
-0.08595
 10
140.228638
 20
296.711269
 42
-0.031832
 10
139.929961
 20
296.839878
 42
-0.03041
 10
139.61513
 20
297.024785
 42
-0.032101
 10
139.330994
 20
297.2435
 42
-0.099738
 10
138.936354
 20
297.760717
 42
-0.041347
 10
138.616623
 20
298.584304
 42
-0.019526
 10
138.259261
 20
299.991984
 42
-0.002817
 10
137.658899
 20
302.895
 42
-0.002413
 10
137.265337
 20
304.903765
 42
-0.003193
 10
136.927498
 20
306.736796
 42
-0.002293
 10
136.661331
 20
308.275469
 42
-0.031372
 10
136.602434
 20
308.839838
 42
-0.039894
 10
136.618876
 20
309.266856
 42
-0.067229
 10
136.708284
 20
309.613411
 42
-0.072172
 10
136.880556
 20
309.906867
 42
-0.053853
 10
137.145505
 20
310.173338
 42
-0.027954
 10
137.394236
 20
310.352705
 42
-0.027477
 10
137.662822
 20
310.50433
 42
-0.028576
 10
137.912467
 20
310.610426
 42
-0.086394
  0
LWPOLYLINE
  5
3AC
330
1D
100
AcDbEntity
  8
0
100
AcDbPolyline
 90
       56
 70
     1
 43
0.0
 10
38.227
 20
310.260313
 42
-0.041385
 10
38.542022
 20
310.177952
 42
-0.034907
 10
38.858428
 20
310.041097
 42
-0.036333
 10
39.130523
 20
309.87403
 42
-0.076942
 10
39.3065
 20
309.701031
 42
-0.048907
 10
39.428143
 20
309.499297
 42
-0.03104
 10
39.530734
 20
309.244528
 42
-0.031051
 10
39.60094
 20
308.979202
 42
-0.049188
 10
39.624
 20
308.745365
 42
-0.04233
 10
39.592162
 20
308.369963
 42
-0.001332
 10
39.329137
 20
306.854787
 42
-0.002584
 10
39.004809
 20
305.069543
 42
-0.001787
 10
38.620212
 20
303.052966
 42
-0.004827
 10
38.206831
 20
301.031169
 42
-0.006705
 10
37.794837
 20
299.228972
 42
-0.004332
 10
37.416735
 20
297.728298
 42
-0.081318
 10
37.219999
 20
297.285087
 42
-0.052989
 10
37.020596
 20
297.041466
 42
-0.036496
 10
36.748934
 20
296.80983
 42
-0.036823
 10
36.451094
 20
296.623321
 42
-0.060059
 10
36.173057
 20
296.516796
 42
-0.049272
 10
35.881632
 20
296.473514
 42
-0.032699
 10
35.54337
 20
296.479062
 42
-0.032874
 10
35.212213
 20
296.528264
 42
-0.053627
 10
34.942935
 20
296.617612
 42
-0.09264
 10
34.639375
 20
296.830808
 42
-0.013358
 10
34.122548
 20
297.388876
 42
-0.014768
 10
33.542267
 20
298.090811
 42
-0.012145
 10
32.964038
 20
298.872348
 42
0.014284
 10
32.323904
 20
299.729862
 42
0.009952
 10
31.555321
 20
300.661617
 42
0.010048
 10
30.781677
 20
301.526582
 42
0.020426
 10
30.133372
 20
302.168092
 42
-0.016937
 10
29.58525
 20
302.702954
 42
-0.021972
 10
29.122466
 20
303.230781
 42
-0.020389
 10
28.781528
 20
303.693387
 42
-0.149692
 10
28.702
 20
303.953075
 42
-0.061917
 10
28.729851
 20
304.177116
 42
-0.028613
 10
28.818041
 20
304.457671
 42
-0.027806
 10
28.94581
 20
304.745813
 42
-0.034524
 10
29.097035
 20
304.996958
 42
-0.08616
 10
29.37398
 20
305.275285
 42
-0.014306
 10
30.005391
 20
305.695659
 42
-0.015331
 10
30.785344
 20
306.150669
 42
-0.013037
 10
31.634584
 20
306.583529
 42
0.014396
 10
32.55282
 20
307.054705
 42
0.010657
 10
33.540909
 20
307.625971
 42
0.01079
 10
34.451579
 20
308.205952
 42
0.023718
 10
35.115564
 20
308.696304
 42
-0.004377
 10
35.665068
 20
309.135935
 42
-0.004702
 10
36.209341
 20
309.555403
 42
-0.004459
 10
36.683201
 20
309.906956
 42
-0.022172
 10
36.959515
 20
310.089984
 42
-0.067294
 10
37.207928
 20
310.196866
 42
-0.0346
 10
37.540351
 20
310.265206
 42
-0.033634
 10
37.898163
 20
310.288978
 42
-0.04305
  0
LWPOLYLINE
  5
3E6
330
1D
100
AcDbEntity
  8
0
100
AcDbPolyline
 90
       68
 70
     1
 43
0.0
 10
156.054164
 20
299.826777
 42
-0.020235
 10
156.725451
 20
299.73647
 42
-0.012323
 10
157.510061
 20
299.578375
 42
-0.012343
 10
158.281435
 20
299.38292
 42
-0.021297
 10
158.910816
 20
299.177533
 42
-0.034493
 10
159.549719
 20
298.886849
 42
-0.019585
 10
160.280815
 20
298.453458
 42
-0.019003
 10
161.014193
 20
297.938402
 42
-0.022552
 10
161.664027
 20
297.396179
 42
-0.023618
 10
162.317725
 20
296.739475
 42
-0.022957
 10
162.913131
 20
296.018023
 42
-0.022965
 10
163.439678
 20
295.245297
 42
-0.023678
 10
163.887375
 20
294.435199
 42
-0.016929
 10
164.362819
 20
293.380957
 42
-0.049063
 10
164.592732
 20
292.615447
 42
-0.040006
 10
164.692948
 20
291.73825
 42
-0.008446
 10
164.719
 20
290.196141
 42
-0.008454
 10
164.692917
 20
288.653522
 42
-0.040042
 10
164.59258
 20
287.776056
 42
-0.049031
 10
164.362317
 20
287.009685
 42
-0.016851
 10
163.885734
 20
285.952608
 42
-0.023059
 10
163.449412
 20
285.160281
 42
-0.022279
 10
162.937294
 20
284.402042
 42
-0.022755
 10
162.372378
 20
283.709261
 42
-0.027232
 10
161.777949
 20
283.113209
 42
-0.026278
 10
161.184636
 20
282.63365
 42
-0.017003
 10
160.452406
 20
282.139958
 42
-0.017099
 10
159.701896
 20
281.705225
 42
-0.030751
 10
159.055214
 20
281.409155
 42
-0.025268
 10
158.262641
 20
281.148844
 42
-0.026589
 10
157.461147
 20
280.974953
 42
-0.023902
 10
156.574149
 20
280.874574
 42
-0.014512
 10
155.518827
 20
280.836702
 42
-0.013169
 10
154.245719
 20
280.861514
 42
-0.048417
 10
153.449258
 20
280.975851
 42
-0.046629
 10
152.674834
 20
281.243302
 42
-0.0116
 10
151.465846
 20
281.8257
 42
-0.016766
 10
150.483304
 20
282.369693
 42
-0.028287
 10
149.70399
 20
282.897985
 42
-0.031309
 10
149.046582
 20
283.468661
 42
-0.027843
 10
148.43767
 20
284.138708
 42
-0.0234
 10
147.988656
 20
284.7479
 42
-0.014603
 10
147.518177
 20
285.499699
 42
-0.014648
 10
147.096913
 20
286.269578
 42
-0.025662
 10
146.800721
 20
286.932708
 42
-0.024321
 10
146.527437
 20
287.757021
 42
-0.028127
 10
146.350745
 20
288.56516
 42
-0.024939
 10
146.252144
 20
289.464943
 42
-0.013583
 10
146.21645
 20
290.576
 42
-0.012246
 10
146.240259
 20
291.794305
 42
-0.035591
 10
146.336998
 20
292.630473
 42
-0.040251
 10
146.54357
 20
293.386292
 42
-0.019486
 10
146.921419
 20
294.315483
 42
-0.026237
 10
147.31163
 20
295.069331
 42
-0.023355
 10
147.79291
 20
295.809056
 42
-0.023123
 10
148.346648
 20
296.508357
 42
-0.024325
 10
148.953773
 20
297.141243
 42
-0.012156
 10
149.51699
 20
297.648549
 42
-0.01115
 10
150.120371
 20
298.143112
 42
-0.011228
 10
150.678396
 20
298.560199
 42
-0.035553
 10
151.076193
 20
298.803175
 42
-0.022019
 10
151.478304
 20
298.989161
 42
-0.009043
 10
152.038432
 20
299.207123
 42
-0.008927
 10
152.64896
 20
299.419771
 42
-0.011317
 10
153.220458
 20
299.593227
 42
-0.025743
 10
153.88487
 20
299.742197
 42
-0.021718
 10
154.599921
 20
299.832528
 42
-0.021356
 10
155.333652
 20
299.861546
 42
-0.022525
  0
LWPOLYLINE
  5
42C
330
1D
100
AcDbEntity
  8
0
100
AcDbPolyline
 90
       72
 70
     1
 43
0.0
 10
21.102534
 20
299.386688
 42
-0.012653
 10
22.297052
 20
299.31637
 42
-0.032774
 10
23.149694
 20
299.187831
 42
-0.037745
 10
23.906165
 20
298.96159
 42
-0.022242
 10
24.771698
 20
298.584849
 42
-0.024799
 10
25.423092
 20
298.225089
 42
-0.01543
 10
26.150872
 20
297.743005
 42
-0.015473
 10
26.841018
 20
297.22178
 42
-0.026909
 10
27.374938
 20
296.742431
 42
-0.027438
 10
27.850705
 20
296.211371
 42
-0.016273
 10
28.360653
 20
295.530914
 42
-0.016259
 10
28.826513
 20
294.81686
 42
-0.026813
 10
29.166774
 20
294.181911
 42
-0.023936
 10
29.535124
 20
293.286991
 42
-0.044833
 10
29.730902
 20
292.529743
 42
-0.033017
 10
29.820821
 20
291.609302
 42
-0.007843
 10
29.845
 20
290.068
 42
-0.007594
 10
29.821109
 20
288.495106
 42
-0.035485
 10
29.729519
 20
287.594209
 42
-0.048364
 10
29.524794
 20
286.851339
 42
-0.022687
 10
29.126208
 20
285.936597
 42
-0.025544
 10
28.765439
 20
285.287633
 42
-0.014784
 10
28.270112
 20
284.544665
 42
-0.014751
 10
27.727777
 20
283.826922
 42
-0.023934
 10
27.221208
 20
283.2545
 42
-0.027083
 10
26.656678
 20
282.734519
 42
-0.016293
 10
25.935774
 20
282.17778
 42
-0.016297
 10
25.180688
 20
281.669541
 42
-0.027254
 10
24.511
 20
281.299024
 42
-0.020762
 10
23.583344
 20
280.896569
 42
-0.045114
 10
22.837306
 20
280.683938
 42
-0.036385
 10
21.971211
 20
280.584117
 42
-0.009558
 10
20.574
 20
280.552122
 42
-0.009477
 10
19.203682
 20
280.572914
 42
-0.034043
 10
18.333994
 20
280.662093
 42
-0.043483
 10
17.598443
 20
280.855527
 42
-0.023601
 10
16.733517
 20
281.212332
 42
-0.021852
 10
16.107983
 20
281.539702
 42
-0.013781
 10
15.406632
 20
281.972997
 42
-0.013834
 10
14.739338
 20
282.438025
 42
-0.024608
 10
14.22101
 20
282.861918
 42
-0.016438
 10
13.764614
 20
283.302338
 42
-0.012295
 10
13.290351
 20
283.815782
 42
-0.012462
 10
12.867231
 20
284.321979
 42
-0.027578
 10
12.57646
 20
284.732586
 42
-0.023811
 10
12.330185
 20
285.169353
 42
-0.010982
 10
12.049912
 20
285.758796
 42
-0.010849
 10
11.781779
 20
286.392664
 42
-0.014792
 10
11.569676
 20
286.975699
 42
-0.024616
 10
11.397193
 20
287.598681
 42
-0.01449
 10
11.249786
 20
288.35737
 42
-0.014476
 10
11.146204
 20
289.12588
 42
-0.023906
 10
11.108749
 20
289.779723
 42
-0.025661
 10
11.136474
 20
290.441147
 42
-0.014695
 10
11.234185
 20
291.23421
 42
-0.014652
 10
11.379668
 20
292.027929
 42
-0.023544
 10
11.554964
 20
292.693141
 42
-0.024773
 10
11.797283
 20
293.348267
 42
-0.01426
 10
12.149898
 20
294.112417
 42
-0.014226
 10
12.548773
 20
294.861492
 42
-0.023018
 10
12.934477
 20
295.471566
 42
-0.028536
 10
13.386436
 20
296.045731
 42
-0.016475
 10
13.990374
 20
296.685154
 42
-0.016429
 10
14.640902
 20
297.288913
 42
-0.026373
 10
15.237628
 20
297.754467
 42
-0.017799
 10
15.851528
 20
298.151615
 42
-0.013382
 10
16.552825
 20
298.545602
 42
-0.013573
 10
17.233195
 20
298.880954
 42
-0.030079
 10
17.772076
 20
299.090379
 42
-0.035825
 10
18.401706
 20
299.243731
 42
-0.019641
 10
19.189453
 20
299.345126
 42
-0.017487
 10
20.098802
 20
299.394065
 42
-0.013073
  0
LWPOLYLINE
  5
476
330
1D
100
AcDbEntity
  8
0
100
AcDbPolyline
 90
      100
 70
     1
 43
0.0
 10
107.820629
 20
285.496
 42
-0.045288
 10
107.998054
 20
285.479896
 42
-0.014852
 10
108.25488
 20
285.424959
 42
-0.01466
 10
108.53779
 20
285.346737
 42
-0.016064
 10
108.807021
 20
285.254158
 42
-0.050912
 10
109.072274
 20
285.121064
 42
-0.034903
 10
109.343308
 20
284.920709
 42
-0.035218
 10
109.579744
 20
284.688326
 42
-0.058125
 10
109.739443
 20
284.458619
 42
-0.029406
 10
109.919616
 20
284.068443
 42
-0.001464
 10
110.431141
 20
282.753051
 42
-0.002355
 10
111.02736
 20
281.184503
 42
-0.0017
 10
111.678039
 20
279.429961
 42
-0.000494
 10
112.459854
 20
277.293092
 42
-0.000229
 10
113.471308
 20
274.516126
 42
-0.000227
 10
114.53107
 20
271.598257
 42
-0.000316
 10
115.476623
 20
268.986
 42
0.000315
 10
116.450624
 20
266.295134
 42
0.000194
 10
117.600336
 20
263.128919
 42
0.000195
 10
118.739649
 20
259.998928
 42
0.000349
 10
119.678265
 20
257.429
 42
-0.00004
 10
120.589704
 20
254.938254
 42
-0.000026
 10
121.640741
 20
252.064838
 42
-0.000026
 10
122.665024
 20
249.263649
 42
-0.00005
 10
123.486874
 20
247.015
 42
0.000167
 10
124.234178
 20
244.971789
 42
0.000143
 10
125.021533
 20
242.823206
 42
0.000144
 10
125.7374
 20
240.873179
 42
0.000416
 10
126.235146
 20
239.522
 42
-0.000105
 10
126.733832
 20
238.170863
 42
-0.000036
 10
127.45295
 20
236.220794
 42
-0.000036
 10
128.244919
 20
234.072211
 42
-0.000042
 10
128.997687
 20
232.029
 42
-0.000203
 10
129.926435
 20
229.504314
 42
-0.00006
 10
131.347098
 20
225.636138
 42
-0.00006
 10
132.943303
 20
221.28676
 42
-0.000065
 10
134.499542
 20
217.043
 42
-0.00006
 10
136.098737
 20
212.678738
 42
-0.000047
 10
137.824889
 20
207.964881
 42
-0.000048
 10
139.424374
 20
203.594347
 42
-0.00012
 10
140.589998
 20
200.406
 42
0.000196
 10
141.715105
 20
197.329916
 42
0.000093
 10
143.166289
 20
193.369406
 42
0.000092
 10
144.685093
 20
189.229092
 42
0.000131
 10
146.037668
 20
185.547
 42
0.000208
 10
147.246897
 20
182.262012
 42
0.000292
 10
148.329979
 20
179.328763
 42
0.000172
 10
149.245467
 20
176.856456
 42
0.003923
 10
149.514044
 20
176.149
 42
-0.023114
 10
149.665349
 20
175.699145
 42
-0.016823
 10
149.793192
 20
175.186942
 42
-0.017061
 10
149.881662
 20
174.691867
 42
-0.035409
 10
149.909851
 20
174.300631
 42
-0.03518
 10
149.885729
 20
173.952557
 42
-0.030795
 10
149.812861
 20
173.595096
 42
-0.032051
 10
149.706012
 20
173.279807
 42
-0.075618
 10
149.578339
 20
173.06767
 42
-0.045879
 10
149.409164
 20
172.898163
 42
-0.024429
 10
149.172298
 20
172.719647
 42
-0.024107
 10
148.910457
 20
172.559548
 42
-0.034328
 10
148.662932
 20
172.445443
 42
-0.055632
 10
148.376998
 20
172.37177
 42
-0.048556
 10
148.068191
 20
172.358178
 42
-0.047233
 10
147.754089
 20
172.404829
 42
-0.046455
 10
147.452484
 20
172.509717
 42
-0.141664
 10
146.969039
 20
172.924397
 42
-0.001954
 10
144.836009
 20
176.205434
 42
-0.004124
 10
141.992338
 20
180.698176
 42
-0.001253
 10
137.755958
 20
187.553313
 42
0.000009
 10
134.066248
 20
193.5572
 42
0.00001
 10
130.479186
 20
199.393567
 42
0.000009
 10
127.406843
 20
204.392031
 42
0.000048
 10
125.719193
 20
207.137
 42
-0.000183
 10
124.184933
 20
209.633987
 42
-0.000057
 10
121.8853
 20
213.380638
 42
-0.000057
 10
119.317869
 20
217.56574
 42
-0.000063
 10
116.835111
 20
221.615
 42
-0.000199
 10
113.95513
 20
226.317631
 42
-0.000083
 10
110.083607
 20
232.647331
 42
-0.000082
 10
105.946024
 20
239.417067
 42
-0.000107
 10
102.159319
 20
245.618
 42
-0.000726
 10
98.777222
 20
251.177182
 42
-0.001122
 10
95.872121
 20
255.992316
 42
-0.000338
 10
93.361134
 20
260.181816
 42
-0.034991
 10
93.056601
 20
260.782351
 42
-0.032577
 10
92.918348
 20
261.180478
 42
-0.047698
 10
92.854262
 20
261.545544
 42
-0.053071
 10
92.863617
 20
261.884529
 42
-0.057486
 10
92.9448
 20
262.204499
 42
-0.042472
 10
93.160056
 20
262.652154
 42
-0.000399
 10
95.019852
 20
265.798107
 42
-0.00134
 10
97.172855
 20
269.411292
 42
-0.000867
 10
99.683772
 20
273.583149
 42
-0.001867
 10
102.223974
 20
277.751906
 42
-0.002829
 10
104.46756
 20
281.357234
 42
-0.001071
 10
106.419855
 20
284.440598
 42
-0.068837
 10
106.830804
 20
284.9245
 42
-0.024702
 10
107.101361
 20
285.143241
 42
-0.026727
 10
107.385369
 20
285.328122
 42
-0.027562
 10
107.64383
 20
285.458926
 42
-0.103719
  0
LWPOLYLINE
  5
4DC
330
1D
100
AcDbEntity
  8
0
100
AcDbPolyline
 90
       80
 70
     1
 43
0.0
 10
68.199
 20
285.242
 42
-0.035039
 10
68.531976
 20
285.218637
 42
-0.029759
 10
68.877532
 20
285.148734
 42
-0.030841
 10
69.185359
 20
285.046464
 42
-0.070444
 10
69.396859
 20
284.9245
 42
-0.057805
 10
69.609368
 20
284.714601
 42
-0.009347
 10
69.96512
 20
284.253753
 42
-0.010211
 10
70.364569
 20
283.692196
 42
-0.008819
 10
70.761301
 20
283.086957
 42
-0.003448
 10
71.391552
 20
282.072009
 42
-0.000228
 10
73.182692
 20
279.139683
 42
-0.00033
 10
75.313876
 20
275.641879
 42
-0.000247
 10
77.658374
 20
271.783957
 42
-0.001519
 10
80.738993
 20
266.674159
 42
-0.007917
 10
82.383656
 20
263.825967
 42
-0.008179
 10
83.380545
 20
261.963616
 42
-0.168388
 10
83.468934
 20
261.343021
 42
-0.078064
 10
83.306433
 20
260.895049
 42
-0.002186
 10
82.30353
 20
259.094373
 42
-0.004425
 10
81.092888
 20
256.986754
 42
-0.00302
 10
79.681382
 20
254.612021
 42
-0.000504
 10
77.928977
 20
251.710506
 42
-0.000232
 10
75.641339
 20
247.93535
 42
-0.00023
 10
73.231424
 20
243.966681
 42
-0.000318
 10
71.066951
 20
240.411
 42
-0.000161
 10
68.696137
 20
236.524738
 42
-0.000074
 10
65.604518
 20
231.462263
 42
-0.000073
 10
62.350017
 20
226.13659
 42
-0.000101
 10
59.429385
 20
221.361
 42
0.000027
 10
56.671781
 20
216.853492
 42
0.000027
 10
53.912166
 20
212.341619
 42
0.000026
 10
51.501857
 20
208.39992
 42
0.000105
 10
50.031524
 20
205.994
 42
-0.000428
 10
48.540361
 20
203.557535
 42
-0.000099
 10
46.026561
 20
199.45985
 42
-0.000102
 10
43.130059
 20
194.742594
 42
-0.0001
 10
40.210439
 20
189.992
 42
-0.000037
 10
37.354641
 20
185.348115
 42
-0.000044
 10
34.650281
 20
180.952094
 42
-0.000039
 10
32.365415
 20
177.239349
 42
-0.000277
 10
31.260721
 20
175.44683
 42
-0.007043
 10
30.520359
 20
174.283951
 42
-0.009722
 10
29.821114
 20
173.262901
 42
-0.006738
 10
29.211588
 20
172.432845
 42
-0.108557
 10
28.949143
 20
172.20833
 42
-0.038417
 10
28.731124
 20
172.112378
 42
-0.023367
 10
28.461275
 20
172.031534
 42
-0.023349
 10
28.184502
 20
171.976102
 42
-0.037762
 10
27.945153
 20
171.958
 42
-0.086914
 10
27.695421
 20
172.001741
 42
-0.036639
 10
27.383291
 20
172.14114
 42
-0.034837
 10
27.063598
 20
172.342874
 42
-0.038226
 10
26.785455
 20
172.581455
 42
-0.041332
 10
26.546933
 20
172.863044
 42
-0.035959
 10
26.345393
 20
173.193039
 42
-0.037632
 10
26.206724
 20
173.519963
 42
-0.082037
 10
26.162862
 20
173.787955
 42
-0.084655
 10
26.239096
 20
174.231033
 42
-0.000411
 10
27.772582
 20
178.564562
 42
-0.001879
 10
29.541674
 20
183.492035
 42
-0.001186
 10
31.641547
 20
189.23
 42
0.000162
 10
34.302012
 20
196.45393
 42
0.000069
 10
37.864475
 20
206.140844
 42
0.000068
 10
41.664443
 20
216.482312
 42
0.000089
 10
45.133721
 20
225.933
 42
0.000089
 10
48.247058
 20
234.423426
 42
0.000133
 10
50.964826
 20
241.845306
 42
0.000055
 10
53.292329
 20
248.208825
 42
0.002903
 10
53.730093
 20
249.428
 42
-0.002333
 10
54.152746
 20
250.60932
 42
-0.00007
 10
55.935404
 20
255.517334
 42
-0.00014
 10
58.037657
 20
261.297699
 42
-0.000096
 10
60.42023
 20
267.839223
 42
-0.001398
 10
62.91919
 20
274.63703
 42
-0.00274
 10
64.953697
 20
280.033072
 42
-0.000609
 10
66.699247
 20
284.570441
 42
-0.143716
 10
66.967721
 20
284.920723
 42
-0.064557
 10
67.192253
 20
285.044097
 42
-0.029575
 10
67.51065
 20
285.147625
 42
-0.028683
 10
67.863576
 20
285.218391
 42
-0.035149
  0
LWPOLYLINE
  5
52E
330
1D
100
AcDbEntity
  8
0
100
AcDbPolyline
 90
       44
 70
     1
 43
0.0
 10
168.501089
 20
280.924
 42
-0.041749
 10
168.944768
 20
280.886889
 42
-0.06942
 10
169.301994
 20
280.774224
 42
-0.07056
 10
169.610792
 20
280.569688
 42
-0.044624
 10
169.907565
 20
280.254746
 42
-0.07971
 10
170.197429
 20
279.733401
 42
-0.057964
 10
170.35062
 20
279.086578
 42
-0.025896
 10
170.419038
 20
278.034995
 42
-0.003297
 10
170.434
 20
275.766246
 42
-0.003709
 10
170.418556
 20
273.684343
 42
-0.020748
 10
170.355788
 20
272.571173
 42
-0.039368
 10
170.234521
 20
271.891305
 42
-0.12067
 10
170.013633
 20
271.4825
 42
-0.074718
 10
169.786965
 20
271.296914
 42
-0.046061
 10
169.475228
 20
271.1483
 42
-0.043425
 10
169.117481
 20
271.050827
 42
-0.044833
 10
168.752112
 20
271.018
 42
-0.064362
 10
168.283987
 20
271.07851
 42
-0.057117
 10
167.826016
 20
271.256774
 42
-0.042898
 10
167.317148
 20
271.583702
 42
-0.017358
 10
166.681296
 20
272.110113
 42
0.009784
 10
166.141629
 20
272.570844
 42
0.007564
 10
165.536421
 20
273.052259
 42
0.007657
 10
164.957467
 20
273.484686
 42
0.01816
 10
164.510605
 20
273.783815
 42
-0.021449
 10
164.131965
 20
274.040896
 42
-0.020742
 10
163.772333
 20
274.332213
 42
-0.021181
 10
163.477852
 20
274.614731
 42
-0.068199
 10
163.318787
 20
274.834004
 42
-0.046383
 10
163.222523
 20
275.062519
 42
-0.023048
 10
163.141669
 20
275.366566
 42
-0.022656
 10
163.086325
 20
275.691865
 42
-0.030813
 10
163.068
 20
275.98895
 42
-0.08953
 10
163.136552
 20
276.368726
 42
-0.062059
 10
163.338946
 20
276.756422
 42
-0.044404
 10
163.699897
 20
277.190359
 42
-0.017681
 10
164.265345
 20
277.720148
 42
0.005192
 10
164.802053
 20
278.19841
 42
0.003143
 10
165.427979
 20
278.775178
 42
0.003148
 10
166.042264
 20
279.35568
 42
0.00553
 10
166.54187
 20
279.8445
 42
-0.018127
 10
167.127014
 20
280.38885
 42
-0.05241
 10
167.580601
 20
280.704739
 42
-0.069752
 10
168.010075
 20
280.868516
 42
-0.05632
  0
LWPOLYLINE
  5
55C
330
1D
100
AcDbEntity
  8
0
100
AcDbPolyline
 90
       44
 70
     1
 43
0.0
 10
7.491509
 20
280.67
 42
-0.111473
 10
7.885368
 20
280.581086
 42
-0.037605
 10
8.399364
 20
280.287317
 42
-0.027922
 10
9.040927
 20
279.79936
 42
-0.011619
 10
9.852554
 20
279.074042
 42
0.00355
 10
10.544066
 20
278.435697
 42
0.0041
 10
11.212356
 20
277.837462
 42
0.003678
 10
11.786106
 20
277.339714
 42
0.023907
 10
12.08819
 20
277.105542
 42
-0.035214
 10
12.312745
 20
276.923202
 42
-0.022308
 10
12.548482
 20
276.681918
 42
-0.022383
 10
12.759842
 20
276.422888
 42
-0.03801
 10
12.909214
 20
276.186562
 42
-0.054467
 10
13.029086
 20
275.885438
 42
-0.065398
 10
13.071426
 20
275.583704
 42
-0.056731
 10
13.036244
 20
275.24837
 42
-0.029397
 10
12.921047
 20
274.842651
 42
-0.068018
 10
12.71933
 20
274.446775
 42
-0.037411
 10
12.37607
 20
274.023915
 42
-0.032443
 10
11.911182
 20
273.591453
 42
-0.022884
 10
11.338023
 20
273.165909
 42
0.006274
 10
10.758422
 20
272.764734
 42
0.003991
 10
10.093447
 20
272.283982
 42
0.004008
 10
9.448448
 20
271.801774
 42
0.007422
 10
8.933754
 20
271.398321
 42
-0.022533
 10
8.471903
 20
271.058304
 42
-0.024427
 10
7.993283
 20
270.770944
 42
-0.024903
 10
7.562204
 20
270.566911
 42
-0.098383
 10
7.275771
 20
270.51
 42
-0.055361
 10
7.021064
 20
270.538288
 42
-0.029322
 10
6.715336
 20
270.62615
 42
-0.028787
 10
6.409568
 20
270.753997
 42
-0.039377
 10
6.152517
 20
270.905403
 42
-0.123308
 10
5.830048
 20
271.277245
 42
-0.085968
 10
5.666509
 20
271.810613
 42
-0.029144
 10
5.600167
 20
272.788657
 42
-0.002364
 10
5.588
 20
275.361948
 42
-0.002443
 10
5.600787
 20
277.978809
 42
-0.030644
 10
5.670997
 20
278.965453
 42
-0.083587
 10
5.850135
 20
279.546421
 42
-0.080049
 10
6.211455
 20
280.046545
 42
-0.045921
 10
6.498435
 20
280.285152
 42
-0.037168
 10
6.844645
 20
280.48686
 42
-0.038493
 10
7.194983
 20
280.625284
 42
-0.074975
  0
LWPOLYLINE
  5
58A
330
1D
100
AcDbEntity
  8
0
100
AcDbPolyline
 90
       48
 70
     1
 43
0.0
 10
144.589657
 20
278.384
 42
-0.057967
 10
144.932194
 20
278.344155
 42
-0.02957
 10
145.347742
 20
278.219819
 42
-0.028923
 10
145.766237
 20
278.03908
 42
-0.038335
 10
146.121502
 20
277.825086
 42
0.017055
 10
146.547598
 20
277.543069
 42
0.004677
 10
147.237799
 20
277.128206
 42
0.004721
 10
148.029466
 20
276.672387
 42
0.004909
 10
148.819432
 20
276.237586
 42
-0.010674
 10
149.836419
 20
275.662458
 42
-0.043708
 10
150.411468
 20
275.248977
 42
-0.071313
 10
150.753912
 20
274.856689
 42
-0.074477
 10
150.966226
 20
274.389561
 42
-0.030318
 10
151.057402
 20
273.976594
 42
-0.061957
 10
151.068307
 20
273.645481
 42
-0.073353
 10
150.999112
 20
273.359352
 42
-0.061523
 10
150.847505
 20
273.086147
 42
-0.011317
 10
150.634168
 20
272.806757
 42
-0.001789
 10
150.200912
 20
272.269174
 42
-0.001985
 10
149.685449
 20
271.639379
 42
-0.001734
 10
149.141344
 20
270.984586
 42
0.000451
 10
148.596804
 20
270.332682
 42
0.000523
 10
148.080056
 20
269.711594
 42
0.000465
 10
147.643721
 20
269.185042
 42
0.003134
 10
147.42933
 20
268.9225
 42
-0.085014
 10
147.226481
 20
268.74363
 42
-0.049992
 10
146.934956
 20
268.601676
 42
-0.045849
 10
146.589367
 20
268.509147
 42
-0.042519
 10
146.223762
 20
268.478
 42
-0.046038
 10
145.825159
 20
268.51478
 42
-0.052511
 10
145.458061
 20
268.623906
 42
-0.054004
 10
145.130427
 20
268.803648
 42
-0.05388
 10
144.848605
 20
269.0495
 42
-0.088223
 10
144.569645
 20
269.484894
 42
-0.023689
 10
144.289626
 20
270.260532
 42
-0.018104
 10
143.993508
 20
271.360879
 42
-0.007064
 10
143.661329
 20
272.90007
 42
-0.003463
 10
143.408828
 20
274.20245
 42
-0.004454
 10
143.195678
 20
275.403305
 42
-0.003434
 10
143.033097
 20
276.411429
 42
-0.038275
 10
143.002
 20
276.81707
 42
-0.05497
 10
143.032681
 20
277.095296
 42
-0.036174
 10
143.125483
 20
277.404055
 42
-0.03625
 10
143.261348
 20
277.695093
 42
-0.056644
 10
143.422367
 20
277.9195
 42
-0.072349
 10
143.637659
 20
278.097473
 42
-0.041929
 10
143.93866
 20
278.247553
 42
-0.040929
 10
144.27283
 20
278.349794
 42
-0.053826
  0
LWPOLYLINE
  5
5BC
330
1D
100
AcDbEntity
  8
0
100
AcDbPolyline
 90
       48
 70
     1
 43
0.0
 10
31.558688
 20
278.13
 42
-0.060589
 10
31.863601
 20
278.092915
 42
-0.039075
 10
32.201802
 20
277.980775
 42
-0.038941
 10
32.520308
 20
277.816524
 42
-0.057923
 10
32.766
 20
277.622
 42
-0.038816
 10
32.960413
 20
277.394808
 42
-0.03504
 10
33.12483
 20
277.132653
 42
-0.036819
 10
33.238396
 20
276.87594
 42
-0.085831
 10
33.274186
 20
276.6695
 42
-0.041136
 10
33.249232
 20
276.365144
 42
-0.001931
 10
33.07689
 20
275.348303
 42
-0.003174
 10
32.859732
 20
274.141941
 42
-0.002275
 10
32.602276
 20
272.796
 42
-0.006721
 10
32.266446
 20
271.196802
 42
-0.01703
 10
31.967512
 20
270.047624
 42
-0.021771
 10
31.687468
 20
269.23555
 42
-0.089786
 10
31.414814
 20
268.7955
 42
-0.054996
 10
31.124886
 20
268.537539
 42
-0.061443
 10
30.795837
 20
268.360119
 42
-0.056389
 10
30.409839
 20
268.257802
 42
-0.03663
 10
29.949068
 20
268.224
 42
-0.042531
 10
29.407344
 20
268.270164
 42
-0.094258
 10
29.020595
 20
268.414848
 42
-0.073998
 10
28.658653
 20
268.715812
 42
-0.018999
 10
28.172224
 20
269.3035
 42
0.008429
 10
27.779482
 20
269.798956
 42
0.004439
 10
27.275943
 20
270.401653
 42
0.004415
 10
26.749238
 20
271.009855
 42
0.006786
 10
26.281617
 20
271.526
 42
-0.009923
 10
25.864253
 20
271.992522
 42
-0.011837
 10
25.490262
 20
272.44907
 42
-0.010656
 10
25.193781
 20
272.846165
 42
-0.072381
 10
25.081971
 20
273.063302
 42
-0.091955
 10
25.051657
 20
273.267167
 42
-0.031023
 10
25.081109
 20
273.567325
 42
-0.02964
 10
25.155745
 20
273.902515
 42
-0.029926
 10
25.269314
 20
274.225426
 42
-0.066753
 10
25.497178
 20
274.613138
 42
-0.051441
 10
25.838162
 20
274.966599
 42
-0.041541
 10
26.314593
 20
275.304959
 42
-0.021739
 10
26.95658
 20
275.648238
 42
0.014213
 10
27.57081
 20
275.964884
 42
0.008178
 10
28.293025
 20
276.379131
 42
0.008167
 10
29.005398
 20
276.819283
 42
0.013504
 10
29.590188
 20
277.216613
 42
-0.022406
 10
30.137646
 20
277.574505
 42
-0.024944
 10
30.696106
 20
277.868315
 42
-0.026388
 10
31.199661
 20
278.070418
 42
-0.082413
  0
LWPOLYLINE
  5
5EE
330
1D
100
AcDbEntity
  8
0
100
AcDbPolyline
 90
       64
 70
     1
 43
0.0
 10
158.059944
 20
269.230058
 42
-0.017339
 10
158.970612
 20
269.203728
 42
-0.035281
 10
159.679727
 20
269.108052
 42
-0.039085
 10
160.320336
 20
268.921915
 42
-0.027036
 10
161.011358
 20
268.617487
 42
-0.025912
 10
161.533459
 20
268.317972
 42
-0.018427
 10
162.086751
 20
267.931679
 42
-0.018668
 10
162.588642
 20
267.522755
 42
-0.037196
 10
162.947187
 20
267.156987
 42
-0.021735
 10
163.251698
 20
266.762685
 42
-0.012749
 10
163.58281
 20
266.266709
 42
-0.012738
 10
163.88921
 20
265.752853
 42
-0.021126
 10
164.117695
 20
265.303
 42
-0.039671
 10
164.322902
 20
264.738049
 42
-0.027282
 10
164.46805
 20
264.071972
 42
-0.023686
 10
164.555779
 20
263.29647
 42
-0.015583
 10
164.586422
 20
262.398694
 42
-0.014823
 10
164.560959
 20
261.444893
 42
-0.029056
 10
164.474254
 20
260.69049
 42
-0.034559
 10
164.315138
 20
260.044814
 42
-0.035047
 10
164.069159
 20
259.430342
 42
-0.032664
 10
163.79774
 20
258.952032
 42
-0.018104
 10
163.408896
 20
258.404653
 42
-0.01799
 10
162.973175
 20
257.876544
 42
-0.027575
 10
162.55566
 20
257.455296
 42
-0.034569
 10
162.05543
 20
257.062556
 42
-0.024796
 10
161.448117
 20
256.692787
 42
-0.02439
 10
160.792996
 20
256.377492
 42
-0.029228
 10
160.148141
 20
256.148404
 42
-0.020809
 10
159.464888
 20
255.98026
 42
-0.025987
 10
158.818777
 20
255.884114
 42
-0.028154
 10
158.215543
 20
255.860294
 42
-0.035879
 10
157.66114
 20
255.909517
 42
-0.019887
 10
157.177644
 20
256.007551
 42
-0.011584
 10
156.606066
 20
256.161431
 42
-0.01157
 10
156.039804
 20
256.342378
 42
-0.019148
 10
155.572149
 20
256.524151
 42
-0.030755
 10
155.121687
 20
256.753255
 42
-0.017695
 10
154.60805
 20
257.080586
 42
-0.017635
 10
154.113554
 20
257.447251
 42
-0.028032
 10
153.720838
 20
257.798238
 42
-0.023481
 10
153.36158
 20
258.192924
 42
-0.013896
 10
152.969209
 20
258.694645
 42
-0.013889
 10
152.604668
 20
259.218303
 42
-0.023121
 10
152.331086
 20
259.680849
 42
-0.035847
 10
152.055511
 20
260.304249
 42
-0.041444
 10
151.887525
 20
260.931376
 42
-0.032397
 10
151.800183
 20
261.69348
 42
-0.012335
 10
151.773793
 20
262.763
 42
-0.012267
 10
151.799875
 20
263.825946
 42
-0.031966
 10
151.886069
 20
264.585633
 42
-0.041236
 10
152.050638
 20
265.205983
 42
-0.037643
 10
152.318639
 20
265.811
 42
-0.02498
 10
152.588483
 20
266.258944
 42
-0.014717
 10
152.952465
 20
266.767101
 42
-0.014702
 10
153.346982
 20
267.254566
 42
-0.024275
 10
153.711242
 20
267.639088
 42
-0.023767
 10
154.100668
 20
267.97816
 42
-0.016398
 10
154.571115
 20
268.325564
 42
-0.016568
 10
155.046628
 20
268.630449
 42
-0.032218
 10
155.448
 20
268.835646
 42
-0.047193
 10
155.908675
 20
268.98518
 42
-0.017422
 10
156.580585
 20
269.110721
 42
-0.017012
 10
157.331881
 20
269.198149
 42
-0.019017
  0
LWPOLYLINE
  5
630
330
1D
100
AcDbEntity
  8
0
100
AcDbPolyline
 90
       68
 70
     1
 43
0.0
 10
18.161
 20
268.961687
 42
-0.031015
 10
18.790266
 20
268.932232
 42
-0.028234
 10
19.431471
 20
268.825306
 42
-0.027519
 10
20.072904
 20
268.643138
 42
-0.026024
 10
20.702849
 20
268.388767
 42
-0.030292
 10
21.252205
 20
268.09123
 42
-0.019453
 10
21.852373
 20
267.684283
 42
-0.01955
 10
22.410826
 20
267.238344
 42
-0.034346
 10
22.830123
 20
266.822221
 42
-0.020056
 10
23.185704
 20
266.38289
 42
-0.014557
 10
23.546799
 20
265.867569
 42
-0.014747
 10
23.861339
 20
265.357527
 42
-0.030925
 10
24.068634
 20
264.940473
 42
-0.04439
 10
24.217359
 20
264.477343
 42
-0.016825
 10
24.344655
 20
263.809543
 42
-0.016509
 10
24.435097
 20
263.070051
 42
-0.019384
 10
24.470331
 20
262.364824
 42
-0.019299
 10
24.445261
 20
261.451327
 42
-0.038451
 10
24.342302
 20
260.735718
 42
-0.038805
 10
24.131732
 20
260.048512
 42
-0.020031
 10
23.769047
 20
259.225235
 42
-0.02458
 10
23.378105
 20
258.516651
 42
-0.032514
 10
22.950979
 20
257.916228
 42
-0.034368
 10
22.47098
 20
257.403082
 42
-0.033616
 10
21.921826
 20
256.956411
 42
-0.013881
 10
21.430955
 20
256.62925
 42
-0.011292
 10
20.888082
 20
256.30565
 42
-0.011455
 10
20.374206
 20
256.030204
 42
-0.028986
 10
19.98575
 20
255.860824
 42
-0.034632
 10
19.588503
 20
255.744876
 42
-0.015261
 10
19.050164
 20
255.64456
 42
-0.01502
 10
18.470651
 20
255.572522
 42
-0.019518
 10
17.936469
 20
255.543324
 42
-0.021589
 10
17.385337
 20
255.558536
 42
-0.014162
 10
16.753237
 20
255.621376
 42
-0.014255
 10
16.140017
 20
255.71777
 42
-0.026441
 10
15.650469
 20
255.836168
 42
-0.049872
 10
15.132751
 20
256.048873
 42
-0.025914
 10
14.53348
 20
256.409155
 42
-0.023824
 10
13.905103
 20
256.87775
 42
-0.020941
 10
13.295417
 20
257.423668
 42
-0.019346
 10
12.640538
 20
258.112742
 42
-0.036985
 10
12.180369
 20
258.721422
 42
-0.041064
 10
11.846118
 20
259.34609
 42
-0.030948
 10
11.580917
 20
260.078601
 42
-0.014124
 10
11.425892
 20
260.6679
 42
-0.012006
 10
11.294944
 20
261.297747
 42
-0.012175
 10
11.203451
 20
261.877117
 42
-0.033081
 10
11.176
 20
262.291573
 42
-0.041975
 10
11.210817
 20
262.705573
 42
-0.01525
 10
11.326979
 20
263.283669
 42
-0.014997
 10
11.493207
 20
263.911596
 42
-0.017312
 10
11.689972
 20
264.498657
 42
-0.028871
 10
11.951879
 20
265.091897
 42
-0.019266
 10
12.315832
 20
265.739508
 42
-0.019425
 10
12.718802
 20
266.342167
 42
-0.035655
 10
13.098809
 20
266.793784
 42
-0.019067
 10
13.500831
 20
267.177331
 42
-0.014429
 10
13.969338
 20
267.567881
 42
-0.014647
 10
14.431171
 20
267.909408
 42
-0.032564
 10
14.805692
 20
268.135108
 42
-0.01103
 10
15.16313
 20
268.310064
 42
-0.008124
 10
15.566195
 20
268.488557
 42
-0.008218
 10
15.95303
 20
268.644951
 42
-0.01812
 10
16.254356
 20
268.748678
 42
-0.034564
 10
16.584423
 20
268.824636
 42
-0.011459
 10
17.077048
 20
268.891133
 42
-0.011347
 10
17.628078
 20
268.940063
 42
-0.01266
  0
LWPOLYLINE
  5
676
330
1D
100
AcDbEntity
  8
0
100
AcDbPolyline
 90
       80
 70
     1
 43
0.0
 10
168.386819
 20
254.499922
 42
-0.039963
 10
168.665295
 20
254.474143
 42
-0.030162
 10
168.964394
 20
254.403324
 42
-0.030851
 10
169.238965
 20
254.301701
 42
-0.059725
 10
169.440011
 20
254.182422
 42
-0.039123
 10
169.615664
 20
254.02428
 42
-0.019967
 10
169.811437
 20
253.80092
 42
-0.019711
 10
169.995958
 20
253.553258
 42
-0.027888
 10
170.138511
 20
253.318198
 42
-0.121098
 10
170.301339
 20
252.676138
 42
-0.000271
 10
170.369342
 20
242.679592
 42
-0.001267
 10
170.420349
 20
228.995748
 42
-0.000298
 10
170.434
 20
206.125085
 42
-0.00022
 10
170.422372
 20
179.743056
 42
-0.001741
 10
170.369016
 20
167.516958
 42
-0.000896
 10
170.293628
 20
159.69562
 42
-0.116984
 10
170.062394
 20
158.768166
 42
-0.032285
 10
169.889872
 20
158.481525
 42
-0.030683
 10
169.679167
 20
158.214303
 42
-0.032144
 10
169.463341
 20
158.001862
 42
-0.086923
 10
169.27962
 20
157.89178
 42
-0.03503
 10
169.08121
 20
157.831192
 42
-0.01692
 10
168.820368
 20
157.780348
 42
-0.016687
 10
168.54376
 20
157.745507
 42
-0.022986
 10
168.293593
 20
157.734
 42
-0.067114
 10
168.042825
 20
157.767813
 42
-0.042033
 10
167.764445
 20
157.870083
 42
-0.041545
 10
167.50221
 20
158.019926
 42
-0.058332
 10
167.299488
 20
158.197262
 42
-0.125099
 10
167.047174
 20
158.674131
 42
-0.002292
 10
166.381832
 20
161.475661
 42
-0.004622
 10
165.560335
 20
165.160632
 42
-0.001747
 10
164.477729
 20
170.325762
 42
-0.000122
 10
163.332809
 20
175.891723
 42
-0.000057
 10
161.849529
 20
183.115699
 42
-0.000056
 10
160.293909
 20
190.700691
 42
-0.000078
 10
158.904408
 20
197.485
 42
-0.000179
 10
157.416623
 20
204.768233
 42
-0.000089
 10
155.540055
 20
213.979863
 42
-0.000089
 10
153.601324
 20
223.513992
 42
-0.000131
 10
151.903916
 20
231.880193
 42
-0.00115
 10
150.446356
 20
239.159857
 42
-0.001855
 10
149.242537
 20
245.365696
 42
-0.000285
 10
148.199091
 20
250.870715
 42
-0.124153
 10
148.221756
 20
251.246189
 42
-0.040248
 10
148.305775
 20
251.451884
 42
-0.022692
 10
148.438304
 20
251.686817
 42
-0.022527
 10
148.594515
 20
251.913185
 42
-0.034092
 10
148.751782
 20
252.093496
 42
-0.063788
 10
148.941368
 20
252.240027
 42
-0.039129
 10
149.195724
 20
252.36364
 42
-0.038685
 10
149.471372
 20
252.447949
 42
-0.054928
 10
149.72594
 20
252.476
 42
-0.081108
 10
150.064787
 20
252.42067
 42
-0.012347
 10
150.710906
 20
252.185977
 42
-0.013546
 10
151.465652
 20
251.866701
 42
-0.011361
 10
152.248181
 20
251.488688
 42
0.018334
 10
153.108869
 20
251.087621
 42
0.013018
 10
154.100465
 20
250.699168
 42
0.013166
 10
155.067738
 20
250.377546
 42
0.027051
 10
155.842794
 20
250.187397
 42
0.019787
 10
156.616772
 20
250.072855
 42
0.015523
 10
157.462849
 20
250.008163
 42
0.015748
 10
158.291926
 20
249.996741
 42
0.02374
 10
159.012785
 20
250.043798
 42
0.017121
 10
159.692808
 20
250.144416
 42
0.010164
 10
160.495643
 20
250.30838
 42
0.010166
 10
161.290577
 20
250.5047
 42
0.01723
 10
161.946053
 20
250.705243
 42
0.012725
 10
162.556667
 20
250.932861
 42
0.009787
 10
163.211443
 20
251.211113
 42
0.009916
 10
163.813708
 20
251.495559
 42
0.023131
 10
164.249467
 20
251.737774
 42
0.017362
 10
164.675522
 20
252.021991
 42
0.006554
 10
165.25172
 20
252.447534
 42
0.006482
 10
165.867069
 20
252.927277
 42
0.007853
 10
166.431108
 20
253.39362
 42
-0.018506
 10
167.021975
 20
253.861318
 42
-0.029448
 10
167.563293
 20
254.211102
 42
-0.034697
 10
168.031348
 20
254.434568
 42
-0.097429
  0
LWPOLYLINE
  5
6C8
330
1D
100
AcDbEntity
  8
0
100
AcDbPolyline
 90
       74
 70
     1
 43
0.0
 10
7.469808
 20
254.0
 42
-0.073423
 10
7.95016
 20
253.92908
 42
-0.048194
 10
8.468384
 20
253.716376
 42
-0.034438
 10
9.086912
 20
253.333189
 42
-0.013201
 10
9.892893
 20
252.720612
 42
0.009048
 10
10.570997
 20
252.196286
 42
0.008194
 10
11.290179
 20
251.678808
 42
0.008234
 10
11.949232
 20
251.236711
 42
0.025837
 10
12.41102
 20
250.970631
 42
0.018338
 10
12.862296
 20
250.76126
 42
0.008242
 10
13.468839
 20
250.518125
 42
0.008147
 10
14.118808
 20
250.281997
 42
0.010989
 10
14.714601
 20
250.091019
 42
0.028234
 10
15.379439
 20
249.934112
 42
0.013244
 10
16.253649
 20
249.803035
 42
0.013075
 10
17.179689
 20
249.71368
 42
0.017905
 10
18.016601
 20
249.685015
 42
0.015405
 10
18.849916
 20
249.712004
 42
0.011539
 10
19.764888
 20
249.791127
 42
0.011692
 10
20.62358
 20
249.905769
 42
0.026026
 10
21.268677
 20
250.042016
 42
0.024655
 10
21.893784
 20
250.241901
 42
0.011344
 10
22.687336
 20
250.560212
 42
0.011205
 10
23.508673
 20
250.93349
 42
0.015233
 10
24.230948
 20
251.309001
 42
-0.012647
 10
24.89488
 20
251.658552
 42
-0.014971
 10
25.539723
 20
251.953807
 42
-0.013867
 10
26.094225
 20
252.169968
 42
-0.086206
 10
26.393771
 20
252.222
 42
-0.075487
 10
26.633535
 20
252.185594
 42
-0.038436
 10
26.91747
 20
252.072775
 42
-0.037081
 10
27.198513
 20
251.908419
 42
-0.045556
 10
27.432
 20
251.714
 42
-0.061856
 10
27.640793
 20
251.445996
 42
-0.046294
 10
27.802325
 20
251.107953
 42
-0.044215
 10
27.905311
 20
250.728273
 42
-0.044154
 10
27.94
 20
250.336223
 42
-0.04673
 10
27.878889
 20
249.683769
 42
-0.00057
 10
27.086957
 20
245.519344
 42
-0.001693
 10
26.14899
 20
240.705776
 42
-0.001106
 10
25.036025
 20
235.159723
 42
-0.000208
 10
23.676287
 20
228.475099
 42
-0.000107
 10
21.968816
 20
220.107977
 42
-0.000106
 10
20.208485
 20
211.500588
 42
-0.000161
 10
18.672387
 20
204.010029
 42
-0.000124
 10
17.129534
 20
196.508254
 42
-0.000081
 10
15.348282
 20
187.865276
 42
-0.000082
 10
13.610609
 20
179.447622
 42
-0.000157
 10
12.214535
 20
172.701
 42
-0.001243
 10
10.775889
 20
165.845417
 42
-0.004366
 10
9.800367
 20
161.443041
 42
-0.002519
 10
9.056364
 20
158.291558
 42
-0.125323
 10
8.759806
 20
157.730471
 42
-0.054173
 10
8.542746
 20
157.537392
 42
-0.040986
 10
8.26851
 20
157.374188
 42
-0.041947
 10
7.981818
 20
157.262643
 42
-0.071926
 10
7.728407
 20
157.226
 42
-0.022986
 10
7.47824
 20
157.237507
 42
-0.016687
 10
7.201632
 20
157.272348
 42
-0.01692
 10
6.94079
 20
157.323192
 42
-0.03503
 10
6.74238
 20
157.38378
 42
-0.086923
 10
6.558659
 20
157.493862
 42
-0.032144
 10
6.342833
 20
157.706303
 42
-0.030683
 10
6.132128
 20
157.973525
 42
-0.032285
 10
5.959606
 20
158.260166
 42
-0.117
 10
5.728321
 20
159.187947
 42
-0.000889
 10
5.652978
 20
167.043667
 42
-0.001734
 10
5.599625
 20
179.3217
 42
-0.000219
 10
5.588
 20
205.820132
 10
5.588
 20
252.661492
 10
6.114435
 20
253.330746
 42
-0.044618
 10
6.404781
 20
253.638875
 42
-0.066917
 10
6.710973
 20
253.844905
 42
-0.067747
 10
7.057804
 20
253.96114
 42
-0.047055
  0
LWPOLYLINE
  5
714
330
1D
100
AcDbEntity
  8
0
100
AcDbPolyline
 90
       92
 70
     1
 43
0.0
 10
88.168247
 20
252.73
 42
-0.099651
 10
88.399555
 20
252.683437
 42
-0.030435
 10
88.721211
 20
252.524816
 42
-0.029127
 10
89.06823
 20
252.298829
 42
-0.028096
 10
89.391047
 20
252.0315
 42
-0.059888
 10
89.855058
 20
251.484319
 42
-0.00224
 10
91.332651
 20
249.225197
 42
-0.004025
 10
93.049876
 20
246.526476
 42
-0.002817
 10
94.943274
 20
243.459
 42
0.000018
 10
97.138802
 20
239.857086
 42
0.00001
 10
99.788645
 20
235.510388
 42
0.00001
 10
102.453437
 20
231.139572
 42
0.000017
 10
104.698898
 20
227.457
 42
-0.000402
 10
106.619403
 20
224.301903
 42
-0.000608
 10
108.284678
 20
221.553627
 42
-0.000222
 10
109.715525
 20
219.183362
 42
-0.015141
 10
109.945678
 20
218.774198
 42
-0.043481
 10
110.057073
 20
218.507154
 42
-0.022756
 10
110.150718
 20
218.159042
 42
-0.022456
 10
110.214833
 20
217.790784
 42
-0.031879
 10
110.236
 20
217.459134
 42
-0.056394
 10
110.193672
 20
217.085033
 42
-0.065902
 10
110.068866
 20
216.750366
 42
-0.061892
 10
109.853526
 20
216.443694
 42
-0.042141
 10
109.541509
 20
216.152584
 42
-0.038172
 10
109.199342
 20
215.92338
 42
-0.053071
 10
108.861014
 20
215.777193
 42
-0.058952
 10
108.52963
 20
215.715504
 42
-0.067271
 10
108.208009
 20
215.737427
 42
-0.053531
 10
107.846069
 20
215.853111
 42
-0.008473
 10
107.168028
 20
216.166758
 42
-0.009315
 10
106.379092
 20
216.56636
 42
-0.008025
 10
105.564982
 20
217.014838
 42
0.01146
 10
104.633313
 20
217.519766
 42
0.006433
 10
103.479982
 20
218.092426
 42
0.006416
 10
102.299624
 20
218.641163
 42
0.010405
 10
101.281263
 20
219.073552
 42
0.011361
 10
100.222934
 20
219.469489
 42
0.006297
 10
98.915029
 20
219.906808
 42
0.006276
 10
97.578518
 20
220.316631
 42
0.010063
 10
96.427281
 20
220.628879
 42
0.014788
 10
94.955426
 20
220.950537
 42
0.017073
 10
93.535819
 20
221.167182
 42
0.01424
 10
91.908192
 20
221.312131
 42
0.006376
 10
89.761513
 20
221.414372
 42
0.00661
 10
87.899246
 20
221.454638
 42
0.008493
 10
86.186265
 20
221.439928
 42
0.009412
 10
84.698278
 20
221.373825
 42
0.019358
 10
83.538513
 20
221.255199
 42
0.010465
 10
82.553711
 20
221.094683
 42
0.005599
 10
81.344003
 20
220.857389
 42
0.005571
 10
80.11425
 20
220.587502
 42
0.008665
 10
79.06103
 20
220.324719
 42
0.009985
 10
78.015433
 20
220.022003
 42
0.006325
 10
76.808711
 20
219.629555
 42
0.006352
 10
75.632868
 20
219.213903
 42
0.011657
 10
74.687904
 20
218.841067
 42
0.010249
 10
73.765323
 20
218.429501
 42
0.005745
 10
72.660342
 20
217.893556
 42
0.00573
 10
71.555942
 20
217.326226
 42
0.009295
 10
70.632209
 20
216.816061
 42
-0.013536
 10
69.763136
 20
216.345658
 42
-0.018383
 10
68.953224
 20
215.971974
 42
-0.019369
 10
68.266642
 20
215.716056
 42
-0.079682
 10
67.829835
 20
215.646
 42
-0.054315
 10
67.492388
 20
215.682765
 42
-0.04009
 10
67.132858
 20
215.792872
 42
-0.040545
 10
66.801187
 20
215.956523
 42
-0.061574
 10
66.548
 20
216.154
 42
-0.059751
 10
66.353453
 20
216.401571
 42
-0.039042
 10
66.189225
 20
216.725975
 42
-0.038991
 10
66.077145
 20
217.072708
 42
-0.058743
 10
66.04
 20
217.387787
 42
-0.111012
 10
66.157869
 20
217.912128
 42
-0.009478
 10
66.775073
 20
219.154144
 42
-0.010415
 10
67.669038
 20
220.786732
 42
-0.004574
 10
68.91717
 20
222.912287
 42
-0.001049
 10
70.443184
 20
225.445403
 42
-0.000294
 10
72.838692
 20
229.397797
 42
-0.000296
 10
75.553057
 20
233.864377
 42
-0.000312
 10
78.226753
 20
238.252
 42
0.000072
 10
80.755231
 20
242.396844
 42
0.000099
 10
83.029794
 20
246.12832
 42
0.000063
 10
84.940649
 20
249.265418
 42
0.001167
 10
85.54478
 20
250.262751
 42
-0.014733
 10
85.930381
 20
250.862012
 42
-0.014051
 10
86.356499
 20
251.44727
 42
-0.014144
 10
86.761754
 20
251.942596
 42
-0.047606
 10
87.064451
 20
252.231251
 42
-0.0318
 10
87.341717
 20
252.422136
 42
-0.02875
 10
87.65024
 20
252.583492
 42
-0.029906
 10
87.943776
 20
252.695523
 42
-0.076348
  0
LWPOLYLINE
  5
772
330
1D
100
AcDbEntity
  8
0
100
AcDbPolyline
 90
       12
 70
     1
 43
0.0
 10
26.315458
 20
219.895208
 42
-0.126455
 10
26.364541
 20
219.812167
 42
-0.060344
 10
26.38465
 20
219.688899
 42
-0.05415
 10
26.375144
 20
219.54728
 42
-0.051402
 10
26.335511
 20
219.408375
 42
-0.054073
 10
26.279237
 20
219.302539
 42
-0.470617
 10
26.232946
 20
219.298159
 42
-0.168741
 10
26.19705
 20
219.372267
 42
-0.018894
 10
26.182053
 20
219.561833
 42
-0.028489
 10
26.184846
 20
219.738663
 42
-0.077125
 10
26.212969
 20
219.860581
 42
-0.208169
 10
26.259869
 20
219.906947
 42
-0.296942
  0
LWPOLYLINE
  5
780
330
1D
100
AcDbEntity
  8
0
100
AcDbPolyline
 90
       12
 70
     1
 43
0.0
 10
25.807458
 20
217.355208
 42
-0.126455
 10
25.856541
 20
217.272167
 42
-0.060344
 10
25.87665
 20
217.148899
 42
-0.05415
 10
25.867144
 20
217.00728
 42
-0.051402
 10
25.827511
 20
216.868375
 42
-0.054073
 10
25.771237
 20
216.762539
 42
-0.470617
 10
25.724946
 20
216.758159
 42
-0.168741
 10
25.68905
 20
216.832267
 42
-0.018894
 10
25.674053
 20
217.021833
 42
-0.028489
 10
25.676846
 20
217.198663
 42
-0.077125
 10
25.704969
 20
217.320581
 42
-0.208169
 10
25.751869
 20
217.366947
 42
-0.296942
  0
LWPOLYLINE
  5
78E
330
1D
100
AcDbEntity
  8
0
100
AcDbPolyline
 90
       12
 70
     1
 43
0.0
 10
25.553458
 20
216.085208
 42
-0.126455
 10
25.602541
 20
216.002167
 42
-0.060344
 10
25.62265
 20
215.878899
 42
-0.05415
 10
25.613144
 20
215.73728
 42
-0.051402
 10
25.573511
 20
215.598375
 42
-0.054073
 10
25.517237
 20
215.492539
 42
-0.470617
 10
25.470946
 20
215.488159
 42
-0.168741
 10
25.43505
 20
215.562267
 42
-0.018894
 10
25.420053
 20
215.751833
 42
-0.028489
 10
25.422846
 20
215.928663
 42
-0.077125
 10
25.450969
 20
216.050581
 42
-0.208169
 10
25.497869
 20
216.096947
 42
-0.296942
  0
LWPOLYLINE
  5
79C
330
1D
100
AcDbEntity
  8
0
100
AcDbPolyline
 90
      156
 70
     1
 43
0.0
 10
88.168228
 20
216.123027
 42
-0.012301
 10
89.359358
 20
216.1074
 42
-0.008397
 10
90.711227
 20
216.03363
 42
-0.008467
 10
92.013095
 20
215.918449
 42
-0.016869
 10
93.037646
 20
215.775202
 42
-0.010513
 10
94.022445
 20
215.58205
 42
-0.00616
 10
95.193207
 20
215.311602
 42
-0.006158
 10
96.358191
 20
215.012079
 42
-0.010414
 10
97.325418
 20
214.728918
 42
-0.013586
 10
98.291106
 20
214.395128
 42
-0.007488
 10
99.453754
 20
213.937561
 42
-0.00746
 10
100.619731
 20
213.437935
 42
-0.011868
 10
101.6
 20
212.972256
 42
-0.011115
 10
102.562476
 20
212.459554
 42
-0.00682
 10
103.674387
 20
211.815027
 42
-0.006836
 10
104.757894
 20
211.146784
 42
-0.012104
 10
105.629956
 20
210.562238
 42
-0.013402
 10
106.469891
 20
209.934876
 42
-0.007618
 10
107.453346
 20
209.133779
 42
-0.007602
 10
108.42
 20
208.296161
 42
-0.012441
 10
109.209942
 20
207.554198
 42
-0.013265
 10
109.978343
 20
206.754269
 42
-0.007212
 10
110.881418
 20
205.733598
 42
-0.00718
 10
111.770654
 20
204.668302
 42
-0.01129
 10
112.50016
 20
203.725668
 42
-0.014499
 10
113.185549
 20
202.738834
 42
-0.008838
 10
113.939886
 20
201.53665
 42
-0.008855
 10
114.645984
 20
200.317573
 42
-0.015485
 10
115.180962
 20
199.280668
 42
-0.010119
 10
115.651306
 20
198.241736
 42
-0.006515
 10
116.156226
 20
197.019806
 42
-0.006548
 10
116.619136
 20
195.811008
 42
-0.012232
 10
116.956872
 20
194.819056
 42
-0.01286
 10
117.242306
 20
193.818846
 42
-0.007139
 10
117.541407
 20
192.585879
 42
-0.007116
 10
117.808807
 20
191.3281
 42
-0.011406
 10
117.997087
 20
190.247056
 42
-0.010671
 10
118.136567
 20
189.165725
 42
-0.006882
 10
118.254104
 20
187.907923
 42
-0.006918
 10
118.335123
 20
186.674202
 42
-0.012936
 10
118.361005
 20
185.674
 42
-0.013276
 10
118.33429
 20
184.668057
 42
-0.006899
 10
118.250329
 20
183.41493
 42
-0.006855
 10
118.128623
 20
182.129621
 42
-0.010371
 10
117.984236
 20
181.015336
 42
-0.014883
 10
117.77539
 20
179.863499
 42
-0.007979
 10
117.452811
 20
178.454668
 42
-0.007938
 10
117.077643
 20
177.026714
 42
-0.012306
 10
116.70421
 20
175.808336
 42
-0.013525
 10
116.265718
 20
174.603598
 42
-0.008453
 10
115.690676
 20
173.216594
 42
-0.008482
 10
115.077325
 20
171.868167
 42
-0.015251
 10
114.522285
 20
170.787176
 42
-0.014134
 10
113.907053
 20
169.744614
 42
-0.008016
 10
113.106945
 20
168.516483
 42
-0.007998
 10
112.260374
 20
167.303796
 42
-0.01305
 10
111.499686
 20
166.306356
 42
-0.012574
 10
110.706023
 20
165.369403
 42
-0.0086
 10
109.760325
 20
164.344313
 42
-0.008673
 10
108.81417
 20
163.387275
 42
-0.017307
 10
108.027378
 20
162.670075
 42
-0.010621
 10
107.219189
 20
162.01209
 42
-0.005938
 10
106.209811
 20
161.244449
 42
-0.005921
 10
105.170552
 20
160.492307
 42
-0.009577
 10
104.267
 20
159.880133
 42
-0.010978
 10
103.359316
 20
159.318154
 42
-0.007598
 10
102.309613
 20
158.721002
 42
-0.007666
 10
101.282987
 20
158.177765
 42
-0.015578
 10
100.457
 20
157.788694
 42
-0.006707
 10
99.656252
 20
157.454247
 42
-0.004273
 10
98.716306
 20
157.085687
 42
-0.004292
 10
97.78807
 20
156.739945
 42
-0.007958
 10
97.028
 20
156.477858
 42
-0.014012
 10
96.233703
 20
156.242459
 42
-0.006501
 10
95.190469
 20
155.979309
 42
-0.006434
 10
94.086898
 20
155.731115
 42
-0.008913
 10
93.091
 20
155.539042
 42
-0.016791
 10
91.80501
 20
155.358971
 42
-0.015057
 10
90.462191
 20
155.257492
 42
-0.012675
 10
88.915766
 20
155.226608
 42
-0.006679
 10
86.995
 20
155.262602
 42
-0.006882
 10
84.972506
 20
155.355417
 42
-0.015812
 10
83.45495
 20
155.494273
 42
-0.018775
 10
82.118776
 20
155.710472
 42
-0.014846
 10
80.692453
 20
156.040903
 42
-0.010476
 10
79.590483
 20
156.355741
 42
-0.006909
 10
78.336735
 20
156.761585
 42
-0.006954
 10
77.127868
 20
157.190273
 42
-0.013346
 10
76.173159
 20
157.573127
 42
-0.012933
 10
75.239713
 20
158.005682
 42
-0.006734
 10
74.097607
 20
158.590541
 42
-0.006691
 10
72.940652
 20
159.22277
 42
-0.010144
 10
71.953518
 20
159.806187
 42
-0.02007
 10
70.870293
 20
160.538095
 42
-0.012401
 10
69.65513
 20
161.479531
 42
-0.011717
 10
68.395306
 20
162.556659
 42
-0.011344
 10
67.173397
 20
163.703
 42
-0.011607
 10
66.084377
 20
164.822954
 42
-0.009031
 10
64.951357
 20
166.08871
 42
-0.009149
 10
63.937746
 20
167.307465
 42
-0.021794
 10
63.242131
 20
168.257756
 42
-0.012668
 10
62.647072
 20
169.200666
 42
-0.007002
 10
61.965982
 20
170.380272
 42
-0.006977
 10
61.308748
 20
171.595814
 42
-0.011142
 10
60.785166
 20
172.65411
 42
-0.012749
 10
60.314189
 20
173.732851
 42
-0.008104
 10
59.818626
 20
175.010714
 42
-0.008139
 10
59.372782
 20
176.281335
 42
-0.014925
 10
59.057652
 20
177.332218
 42
-0.012263
 10
58.80046
 20
178.397188
 42
-0.006744
 10
58.535479
 20
179.711456
 42
-0.006719
 10
58.30242
 20
181.052878
 42
-0.010687
 10
58.143079
 20
182.206865
 42
-0.013177
 10
58.035256
 20
183.408564
 42
-0.009077
 10
57.973789
 20
184.774227
 42
-0.009095
 10
57.96203
 20
186.135947
 42
-0.0136
 10
58.005752
 20
187.325
 42
-0.008724
 10
58.095696
 20
188.427528
 42
-0.00649
 10
58.231982
 20
189.641163
 42
-0.006563
 10
58.390459
 20
190.782818
 42
-0.01475
 10
58.547481
 20
191.643
 42
-0.00761
 10
58.730931
 20
192.443513
 42
-0.004636
 10
58.970766
 20
193.383694
 42
-0.004645
 10
59.225885
 20
194.311545
 42
-0.008196
 10
59.456138
 20
195.072
 42
-0.0121
 10
59.72634
 20
195.849182
 42
-0.005758
 10
60.109622
 20
196.836461
 42
-0.005704
 10
60.534107
 20
197.859711
 42
-0.008062
 10
60.937089
 20
198.76025
 42
-0.011283
 10
61.391066
 20
199.677805
 42
-0.006596
 10
61.974
 20
200.757109
 42
-0.006593
 10
62.586224
 20
201.822449
 42
-0.011116
 10
63.13104
 20
202.69725
 42
-0.022145
 10
63.783648
 20
203.604614
 42
-0.008745
 10
64.757
 20
204.795332
 42
-0.008635
 10
65.854828
 20
206.046914
 42
-0.010691
 10
66.921313
 20
207.171925
 42
-0.011587
 10
68.130778
 20
208.338948
 42
-0.011466
 10
69.397191
 20
209.452902
 42
-0.012024
 10
70.633504
 20
210.441379
 42
-0.018738
 10
71.748971
 20
211.225891
 42
-0.012033
 10
72.779457
 20
211.859678
 42
-0.007885
 10
73.995178
 20
212.542209
 42
-0.007933
 10
75.201141
 20
213.169947
 42
-0.015067
 10
76.193971
 20
213.630021
 42
-0.010494
 10
77.173463
 20
214.024448
 42
-0.006623
 10
78.331821
 20
214.445429
 42
-0.006649
 10
79.481984
 20
214.82919
 42
-0.012144
 10
80.431504
 20
215.106817
 42
-0.006752
 10
81.333519
 20
215.333939
 42
-0.005083
 10
82.330987
 20
215.560135
 42
-0.00514
 10
83.273362
 20
215.75367
 42
-0.011796
 10
83.987504
 20
215.875289
 42
-0.015917
 10
84.740186
 20
215.960903
 42
-0.00556
 10
85.827534
 20
216.037477
 42
-0.005515
 10
87.026802
 20
216.095277
 42
-0.006412
  0
LWPOLYLINE
  5
83A
330
1D
100
AcDbEntity
  8
0
100
AcDbPolyline
 90
       12
 70
     1
 43
0.0
 10
25.299458
 20
214.815208
 42
-0.126455
 10
25.348541
 20
214.732167
 42
-0.060344
 10
25.36865
 20
214.608899
 42
-0.05415
 10
25.359144
 20
214.46728
 42
-0.051402
 10
25.319511
 20
214.328375
 42
-0.054073
 10
25.263237
 20
214.222539
 42
-0.470617
 10
25.216946
 20
214.218159
 42
-0.168741
 10
25.18105
 20
214.292267
 42
-0.018894
 10
25.166053
 20
214.481833
 42
-0.028489
 10
25.168846
 20
214.658663
 42
-0.077125
 10
25.196969
 20
214.780581
 42
-0.208169
 10
25.243869
 20
214.826947
 42
-0.296942
  0
LWPOLYLINE
  5
848
330
1D
100
AcDbEntity
  8
0
100
AcDbPolyline
 90
       12
 70
     1
 43
0.0
 10
24.791458
 20
212.275208
 42
-0.126455
 10
24.840541
 20
212.192167
 42
-0.060344
 10
24.86065
 20
212.068899
 42
-0.05415
 10
24.851144
 20
211.92728
 42
-0.051402
 10
24.811511
 20
211.788375
 42
-0.054073
 10
24.755237
 20
211.682539
 42
-0.470617
 10
24.708946
 20
211.678159
 42
-0.168741
 10
24.67305
 20
211.752267
 42
-0.018894
 10
24.658053
 20
211.941833
 42
-0.028489
 10
24.660846
 20
212.118663
 42
-0.077125
 10
24.688969
 20
212.240581
 42
-0.208169
 10
24.735869
 20
212.286947
 42
-0.296942
  0
LWPOLYLINE
  5
856
330
1D
100
AcDbEntity
  8
0
100
AcDbPolyline
 90
       12
 70
     1
 43
0.0
 10
24.552219
 20
211.1375
 42
-0.057986
 10
24.591928
 20
210.992718
 42
-0.037979
 10
24.605066
 20
210.82
 42
-0.037979
 10
24.591928
 20
210.647282
 42
-0.057986
 10
24.552219
 20
210.5025
 42
-0.174857
 10
24.50465
 20
210.449317
 42
-0.447206
 10
24.461739
 20
210.464797
 42
-0.078554
 10
24.432029
 20
210.593574
 42
-0.017491
 10
24.424105
 20
210.82
 42
-0.017491
 10
24.432029
 20
211.046426
 42
-0.078554
 10
24.461739
 20
211.175203
 42
-0.447206
 10
24.50465
 20
211.190683
 42
-0.174857
  0
LWPOLYLINE
  5
864
330
1D
100
AcDbEntity
  8
0
100
AcDbPolyline
 90
       16
 70
     1
 43
0.0
 10
24.036642
 20
208.712025
 42
-0.200119
 10
24.073037
 20
208.623579
 42
-0.011459
 10
24.064758
 20
208.323281
 42
-0.016042
 10
24.034443
 20
207.956929
 42
-0.010981
 10
23.9776
 20
207.5434
 42
-0.011909
 10
23.904235
 20
207.145608
 42
-0.022691
 10
23.82329
 20
206.83067
 42
-0.02442
 10
23.745357
 20
206.61434
 42
-0.533898
 10
23.689958
 20
206.603375
 42
-0.198513
 10
23.651154
 20
206.696853
 42
-0.013004
 10
23.658464
 20
206.995496
 42
-0.017282
 10
23.689624
 20
207.361029
 42
-0.011943
 10
23.749
 20
207.772
 42
-0.011223
 10
23.824928
 20
208.167198
 42
-0.021175
 10
23.906687
 20
208.481353
 42
-0.021254
 10
23.984366
 20
208.701334
 42
-0.537971
  0
LWPOLYLINE
  5
876
330
1D
100
AcDbEntity
  8
0
100
AcDbPolyline
 90
       12
 70
     1
 43
0.0
 10
23.521458
 20
206.179208
 42
-0.126455
 10
23.570541
 20
206.096167
 42
-0.060344
 10
23.59065
 20
205.972899
 42
-0.05415
 10
23.581144
 20
205.83128
 42
-0.051402
 10
23.541511
 20
205.692375
 42
-0.054073
 10
23.485237
 20
205.586539
 42
-0.470617
 10
23.438946
 20
205.582159
 42
-0.168741
 10
23.40305
 20
205.656267
 42
-0.018894
 10
23.388053
 20
205.845833
 42
-0.028489
 10
23.390846
 20
206.022663
 42
-0.077125
 10
23.418969
 20
206.144581
 42
-0.208169
 10
23.465869
 20
206.190947
 42
-0.296942
  0
LWPOLYLINE
  5
884
330
1D
100
AcDbEntity
  8
0
100
AcDbPolyline
 90
       12
 70
     1
 43
0.0
 10
23.267458
 20
204.909208
 42
-0.126455
 10
23.316541
 20
204.826167
 42
-0.060344
 10
23.33665
 20
204.702899
 42
-0.05415
 10
23.327144
 20
204.56128
 42
-0.051402
 10
23.287511
 20
204.422375
 42
-0.054073
 10
23.231237
 20
204.316539
 42
-0.470617
 10
23.184946
 20
204.312159
 42
-0.168741
 10
23.14905
 20
204.386267
 42
-0.018894
 10
23.134053
 20
204.575833
 42
-0.028489
 10
23.136846
 20
204.752663
 42
-0.077125
 10
23.164969
 20
204.874581
 42
-0.208169
 10
23.211869
 20
204.920947
 42
-0.296942
  0
LWPOLYLINE
  5
892
330
1D
100
AcDbEntity
  8
0
100
AcDbPolyline
 90
       12
 70
     1
 43
0.0
 10
23.028219
 20
203.7715
 42
-0.057986
 10
23.067928
 20
203.626718
 42
-0.037979
 10
23.081066
 20
203.454
 42
-0.037979
 10
23.067928
 20
203.281282
 42
-0.057986
 10
23.028219
 20
203.1365
 42
-0.174857
 10
22.98065
 20
203.083317
 42
-0.447206
 10
22.937739
 20
203.098797
 42
-0.078554
 10
22.908029
 20
203.227574
 42
-0.017491
 10
22.900105
 20
203.454
 42
-0.017491
 10
22.908029
 20
203.680426
 42
-0.078554
 10
22.937739
 20
203.809203
 42
-0.447206
 10
22.98065
 20
203.824683
 42
-0.174857
  0
LWPOLYLINE
  5
8A0
330
1D
100
AcDbEntity
  8
0
100
AcDbPolyline
 90
       12
 70
     1
 43
0.0
 10
22.774219
 20
202.5015
 42
-0.057986
 10
22.813928
 20
202.356718
 42
-0.037979
 10
22.827066
 20
202.184
 42
-0.037979
 10
22.813928
 20
202.011282
 42
-0.057986
 10
22.774219
 20
201.8665
 42
-0.174857
 10
22.72665
 20
201.813317
 42
-0.447206
 10
22.683739
 20
201.828797
 42
-0.078554
 10
22.654029
 20
201.957574
 42
-0.017491
 10
22.646105
 20
202.184
 42
-0.017491
 10
22.654029
 20
202.410426
 42
-0.078554
 10
22.683739
 20
202.539203
 42
-0.447206
 10
22.72665
 20
202.554683
 42
-0.174857
  0
LWPOLYLINE
  5
8AE
330
1D
100
AcDbEntity
  8
0
100
AcDbPolyline
 90
       12
 70
     1
 43
0.0
 10
22.505458
 20
201.099208
 42
-0.126455
 10
22.554541
 20
201.016167
 42
-0.060344
 10
22.57465
 20
200.892899
 42
-0.05415
 10
22.565144
 20
200.75128
 42
-0.051402
 10
22.525511
 20
200.612375
 42
-0.054073
 10
22.469237
 20
200.506539
 42
-0.470617
 10
22.422946
 20
200.502159
 42
-0.168741
 10
22.38705
 20
200.576267
 42
-0.018894
 10
22.372053
 20
200.765833
 42
-0.028489
 10
22.374846
 20
200.942663
 42
-0.077125
 10
22.402969
 20
201.064581
 42
-0.208169
 10
22.449869
 20
201.110947
 42
-0.296942
  0
LWPOLYLINE
  5
8BC
330
1D
100
AcDbEntity
  8
0
100
AcDbPolyline
 90
       12
 70
     1
 43
0.0
 10
22.012219
 20
198.6915
 42
-0.057986
 10
22.051928
 20
198.546718
 42
-0.037979
 10
22.065066
 20
198.374
 42
-0.037979
 10
22.051928
 20
198.201282
 42
-0.057986
 10
22.012219
 20
198.0565
 42
-0.174857
 10
21.96465
 20
198.003317
 42
-0.447206
 10
21.921739
 20
198.018797
 42
-0.078554
 10
21.892029
 20
198.147574
 42
-0.017491
 10
21.884105
 20
198.374
 42
-0.017491
 10
21.892029
 20
198.600426
 42
-0.078554
 10
21.921739
 20
198.729203
 42
-0.447206
 10
21.96465
 20
198.744683
 42
-0.174857
  0
LWPOLYLINE
  5
8CA
330
1D
100
AcDbEntity
  8
0
100
AcDbPolyline
 90
       12
 70
     1
 43
0.0
 10
21.250219
 20
194.8815
 42
-0.057986
 10
21.289928
 20
194.736718
 42
-0.037979
 10
21.303066
 20
194.564
 42
-0.037979
 10
21.289928
 20
194.391282
 42
-0.057986
 10
21.250219
 20
194.2465
 42
-0.174857
 10
21.20265
 20
194.193317
 42
-0.447206
 10
21.159739
 20
194.208797
 42
-0.078554
 10
21.130029
 20
194.337574
 42
-0.017491
 10
21.122105
 20
194.564
 42
-0.017491
 10
21.130029
 20
194.790426
 42
-0.078554
 10
21.159739
 20
194.919203
 42
-0.447206
 10
21.20265
 20
194.934683
 42
-0.174857
  0
LWPOLYLINE
  5
8D8
330
1D
100
AcDbEntity
  8
0
100
AcDbPolyline
 90
       12
 70
     1
 43
0.0
 10
20.996219
 20
193.6115
 42
-0.057986
 10
21.035928
 20
193.466718
 42
-0.037979
 10
21.049066
 20
193.294
 42
-0.037979
 10
21.035928
 20
193.121282
 42
-0.057986
 10
20.996219
 20
192.9765
 42
-0.174857
 10
20.94865
 20
192.923317
 42
-0.447206
 10
20.905739
 20
192.938797
 42
-0.078554
 10
20.876029
 20
193.067574
 42
-0.017491
 10
20.868105
 20
193.294
 42
-0.017491
 10
20.876029
 20
193.520426
 42
-0.078554
 10
20.905739
 20
193.649203
 42
-0.447206
 10
20.94865
 20
193.664683
 42
-0.174857
  0
LWPOLYLINE
  5
8E6
330
1D
100
AcDbEntity
  8
0
100
AcDbPolyline
 90
       12
 70
     1
 43
0.0
 10
20.473458
 20
191.193208
 42
-0.126455
 10
20.522541
 20
191.110167
 42
-0.060344
 10
20.54265
 20
190.986899
 42
-0.05415
 10
20.533144
 20
190.84528
 42
-0.051402
 10
20.493511
 20
190.706375
 42
-0.054073
 10
20.437237
 20
190.600539
 42
-0.470617
 10
20.390946
 20
190.596159
 42
-0.168741
 10
20.35505
 20
190.670267
 42
-0.018894
 10
20.340053
 20
190.859833
 42
-0.028489
 10
20.342846
 20
191.036663
 42
-0.077125
 10
20.370969
 20
191.158581
 42
-0.208169
 10
20.417869
 20
191.204947
 42
-0.296942
  0
LWPOLYLINE
  5
8F4
330
1D
100
AcDbEntity
  8
0
100
AcDbPolyline
 90
       16
 70
     1
 43
0.0
 10
39.99001
 20
184.912
 42
-0.151918
 10
40.043534
 20
184.895353
 42
-0.038439
 10
40.11523
 20
184.837388
 42
-0.035638
 10
40.190676
 20
184.755225
 42
-0.029505
 10
40.259
 20
184.658
 42
-0.082592
 10
40.298754
 20
184.560947
 42
-0.161196
 10
40.290852
 20
184.478613
 42
-0.182303
 10
40.237146
 20
184.423885
 42
-0.108972
 10
40.14699
 20
184.404
 42
-0.093332
 10
40.04431
 20
184.423335
 42
-0.09642
 10
39.957016
 20
184.478613
 42
-0.099167
 10
39.89859
 20
184.561085
 42
-0.105053
 10
39.878
 20
184.658
 42
-0.042167
 10
39.886216
 20
184.755244
 42
-0.061769
 10
39.910903
 20
184.837388
 42
-0.081139
 10
39.947177
 20
184.893087
 42
-0.210953
  0
LWPOLYLINE
  5
906
330
1D
100
AcDbEntity
  8
0
100
AcDbPolyline
 90
      116
 70
     1
 43
0.0
 10
131.191
 20
182.600899
 42
-0.077798
 10
131.32514
 20
182.583725
 42
-0.019063
 10
131.53701
 20
182.513338
 42
-0.019066
 10
131.776429
 20
182.412961
 42
-0.018004
 10
132.012226
 20
182.29285
 42
-0.090077
 10
132.310757
 20
182.048065
 42
-0.0115
 10
132.835668
 20
181.400717
 42
-0.013158
 10
133.426205
 20
180.594205
 42
-0.010608
 10
134.018905
 20
179.698351
 42
-0.001706
 10
134.754317
 20
178.524991
 42
-0.000551
 10
135.835301
 20
176.782841
 42
-0.00055
 10
137.033069
 20
174.842952
 42
-0.000617
 10
138.18102
 20
172.974
 42
0.000184
 10
139.48373
 20
170.848961
 42
0.000085
 10
141.182417
 20
168.081325
 42
0.000084
 10
142.970568
 20
165.170128
 42
0.000116
 10
144.57523
 20
162.56
 42
0.000249
 10
146.510718
 20
159.416897
 42
0.000071
 10
149.51868
 20
154.539156
 42
0.000071
 10
152.915538
 20
149.034286
 42
0.000076
 10
156.248204
 20
143.637
 42
-0.000211
 10
159.363403
 20
138.588844
 42
-0.00031
 10
162.098721
 20
134.145926
 42
-0.000144
 10
164.425935
 20
130.358179
 42
-0.005739
 10
164.928815
 20
129.517684
 42
-0.024636
 10
165.18879
 20
129.016409
 42
-0.022146
 10
165.408489
 20
128.47407
 42
-0.022756
 10
165.561779
 20
127.969792
 42
-0.062481
 10
165.608
 20
127.601358
 42
-0.124791
 10
165.446077
 20
126.96268
 42
-0.004623
 10
164.231991
 20
124.770842
 42
-0.00626
 10
162.464271
 20
121.737217
 42
-0.001931
 10
159.725709
 20
117.209673
 42
-0.000206
 10
157.082651
 20
112.881895
 42
-0.00013
 10
153.990757
 20
107.826817
 42
-0.00013
 10
150.946316
 20
102.855126
 42
-0.000239
 10
148.462707
 20
98.806
 42
0.000136
 10
146.118989
 20
94.986707
 42
0.0001
 10
143.522988
 20
90.751819
 42
0.000101
 10
141.068317
 20
86.743875
 42
0.000225
 10
139.202536
 20
83.693
 42
-0.00025
 10
137.544808
 20
80.98264
 42
-0.000205
 10
135.771431
 20
78.089125
 42
-0.000207
 10
134.139472
 20
75.431284
 42
-0.00055
 10
132.96993
 20
73.533
 42
0.000549
 10
131.869555
 20
71.746992
 42
0.000279
 10
130.489777
 20
69.499162
 42
0.000277
 10
129.069199
 20
67.179077
 42
0.000415
 10
127.831275
 20
65.151
 42
-0.000183
 10
126.384696
 20
62.778607
 42
-0.000056
 10
124.199464
 20
59.198669
 42
-0.000056
 10
121.752985
 20
55.192769
 42
-0.000062
 10
119.379228
 20
51.308
 42
0.000065
 10
116.982789
 20
47.386056
 42
0.000056
 10
114.467951
 20
43.268106
 42
0.000056
 10
112.189312
 20
39.535039
 42
0.000164
 10
110.617256
 20
36.957
 42
0.000251
 10
109.173026
 20
34.584154
 42
0.00013
 10
107.369471
 20
31.615856
 42
0.000129
 10
105.516858
 20
28.563261
 42
0.000196
 10
103.907744
 20
25.908
 42
-0.002839
 10
102.485382
 20
23.588663
 42
-0.004137
 10
101.203146
 20
21.561822
 42
-0.002095
 10
100.095397
 20
19.858169
 42
-0.070332
 10
99.775693
 20
19.4945
 42
-0.053615
 10
99.52793
 20
19.324238
 42
-0.034747
 10
99.210906
 20
19.180572
 42
-0.034776
 10
98.87756
 20
19.082367
 42
-0.054297
 10
98.580377
 20
19.05
 42
-0.04759
 10
98.279899
 20
19.078664
 42
-0.029516
 10
97.936176
 20
19.16615
 42
-0.029469
 10
97.603999
 20
19.293908
 42
-0.046264
 10
97.338517
 20
19.445403
 42
-0.061616
 10
97.097124
 20
19.663213
 42
-0.063683
 10
96.91919
 20
19.931021
 42
-0.061884
 10
96.810708
 20
20.242007
 42
-0.053056
 10
96.774
 20
20.586975
 42
-0.046951
 10
96.827355
 20
21.153913
 42
-0.000424
 10
97.627631
 20
25.348636
 42
-0.001451
 10
98.566169
 20
30.169779
 42
-0.000937
 10
99.679976
 20
35.749072
 42
-0.000167
 10
100.977436
 20
42.174394
 42
-0.000109
 10
102.47839
 20
49.586334
 42
-0.00011
 10
103.944816
 20
56.811494
 42
-0.00021
 10
105.125757
 20
62.611
 42
0.000041
 10
106.309579
 20
68.414631
 42
0.000022
 10
107.785291
 20
75.6539
 42
0.000021
 10
109.2996
 20
83.085778
 42
0.000033
 10
110.612956
 20
89.535
 42
-0.000055
 10
111.815981
 20
95.441121
 42
-0.000058
 10
112.993438
 20
101.215031
 42
-0.000055
 10
114.006607
 20
106.177552
 42
-0.000275
 10
114.577829
 20
108.966
 42
0.000289
 10
115.147827
 20
111.748865
 42
0.000059
 10
116.154197
 20
116.679663
 42
0.000062
 10
117.32282
 20
122.4125
 42
0.000058
 10
118.515388
 20
128.27
 42
-0.000045
 10
119.707799
 20
134.1275
 42
-0.000048
 10
120.875951
 20
139.860338
 42
-0.000046
 10
121.881646
 20
144.791155
 42
-0.000225
 10
122.450811
 20
147.574
 42
0.000122
 10
123.020436
 20
150.356163
 42
0.000025
 10
124.027727
 20
155.28333
 42
0.000026
 10
125.198142
 20
161.011398
 42
0.000025
 10
126.393232
 20
166.863252
 42
-0.000982
 10
127.533551
 20
172.392908
 42
-0.001553
 10
128.534931
 20
177.127342
 42
-0.000338
 10
129.430213
 20
181.282439
 42
-0.069737
 10
129.573759
 20
181.673079
 42
-0.05789
 10
129.711051
 20
181.870754
 42
-0.03412
 10
129.915758
 20
182.073216
 42
-0.033728
 10
130.15108
 20
182.249979
 42
-0.048488
 10
130.382104
 20
182.370227
 42
-0.013165
 10
130.61318
 20
182.456331
 42
-0.01314
 10
130.848612
 20
182.530211
 42
-0.013079
 10
131.057335
 20
182.583871
 42
-0.049425
  0
LWPOLYLINE
  5
97C
330
1D
100
AcDbEntity
  8
0
100
AcDbPolyline
 90
       96
 70
     1
 43
0.0
 10
44.856597
 20
182.36183
 42
-0.174016
 10
44.876942
 20
182.362514
 42
-0.000685
 10
45.099363
 20
182.290686
 42
-0.003341
 10
45.352014
 20
182.206844
 42
-0.002083
 10
45.647087
 20
182.105357
 42
-0.056688
 10
45.96428
 20
181.95265
 42
-0.04052
 10
46.279819
 20
181.716276
 42
-0.040937
 10
46.548583
 20
181.436339
 42
-0.064008
 10
46.724445
 20
181.152928
 42
-0.05221
 10
46.903639
 20
180.617933
 42
-0.000709
 10
47.650802
 20
177.236395
 42
-0.002002
 10
48.495934
 20
173.310572
 42
-0.001314
 10
49.439222
 20
168.783071
 42
-0.000122
 10
50.46864
 20
163.770131
 42
-0.000097
 10
51.575628
 20
158.367433
 42
-0.000098
 10
52.598182
 20
153.366875
 42
-0.000249
 10
53.338633
 20
149.733
 42
0.000122
 10
54.071772
 20
146.130333
 42
0.00005
 10
55.067114
 20
141.247813
 42
0.00005
 10
56.136146
 20
136.009165
 42
0.000064
 10
57.120512
 20
131.191
 42
-0.000069
 10
58.288723
 20
125.472666
 42
-0.000023
 10
60.004163
 20
117.067806
 42
-0.000023
 10
61.90596
 20
107.745556
 42
-0.000026
 10
63.728784
 20
98.806
 42
-0.000021
 10
65.599667
 20
89.626356
 42
-0.000016
 10
67.647592
 20
79.574231
 42
-0.000016
 10
69.566366
 20
70.15292
 42
-0.000038
 10
70.998119
 20
63.119
 42
-0.00018
 10
72.32753
 20
56.573246
 42
-0.000109
 10
73.894958
 20
48.832556
 42
-0.00011
 10
75.446351
 20
41.153754
 42
-0.000194
 10
76.722981
 20
34.815106
 42
-0.000603
 10
77.788285
 20
29.481817
 42
-0.000959
 10
78.685663
 20
24.914972
 42
-0.000188
 10
79.467453
 20
20.887572
 42
-0.047876
 10
79.502
 20
20.527606
 42
-0.083604
 10
79.466115
 20
20.31449
 42
-0.037258
 10
79.352775
 20
20.052372
 42
-0.035537
 10
79.188401
 20
19.786452
 42
-0.040199
 10
78.994
 20
19.558
 42
-0.061726
 10
78.730218
 20
19.352387
 42
-0.04466
 10
78.394207
 20
19.190263
 42
-0.043169
 10
78.020874
 20
19.085331
 42
-0.046963
 10
77.645547
 20
19.05
 42
-0.033087
 10
77.292876
 20
19.073363
 42
-0.028572
 10
76.928285
 20
19.143266
 42
-0.029612
 10
76.604462
 20
19.245485
 42
-0.07039
 10
76.384014
 20
19.3675
 42
-0.088253
 10
76.119063
 20
19.652659
 42
-0.001278
 10
74.866656
 20
21.606272
 42
-0.003472
 10
73.43197
 20
23.891721
 42
-0.002278
 10
71.809841
 20
26.543
 42
0.000421
 10
69.818221
 20
29.825523
 42
0.000192
 10
67.2116
 20
34.109819
 42
0.00019
 10
64.462058
 20
38.621252
 42
0.000262
 10
61.98826
 20
42.672
 42
0.000232
 10
59.260689
 20
47.128381
 42
0.000104
 10
55.669094
 20
52.987575
 42
0.000103
 10
51.868998
 20
59.181158
 42
0.00014
 10
48.436209
 20
64.77
 42
0.000145
 10
45.204092
 20
70.025424
 42
0.000151
 10
42.011694
 20
75.2094
 42
0.000145
 10
39.24822
 20
79.690938
 42
0.000659
 10
37.636059
 20
82.296
 42
-0.00035
 10
36.371457
 20
84.336622
 42
-0.000262
 10
34.982138
 20
86.584631
 42
-0.000265
 10
33.676906
 20
88.701574
 42
-0.000609
 10
32.697068
 20
90.297
 42
0.000631
 10
31.548766
 20
92.16654
 42
0.000122
 10
29.470385
 20
95.538925
 42
0.00013
 10
27.044734
 20
99.470342
 42
0.00012
 10
24.55259
 20
103.505
 42
0.000023
 10
21.915311
 20
107.771884
 42
0.000018
 10
19.051924
 20
112.403731
 42
0.000018
 10
16.38614
 20
116.715227
 42
0.000045
 10
14.423868
 20
119.888
 42
-0.002898
 10
12.538942
 20
122.974956
 42
-0.009408
 10
11.339454
 20
125.052653
 42
-0.009661
 10
10.563103
 20
126.524291
 42
-0.116535
 10
10.415609
 20
127.142802
 42
-0.132343
 10
10.611022
 20
127.874177
 42
-0.00235
 10
12.682957
 20
131.418981
 42
-0.00405
 10
15.707379
 20
136.444584
 42
-0.000991
 10
20.770375
 20
144.668802
 42
0.000139
 10
25.191006
 20
151.82222
 42
0.000114
 10
29.910846
 20
159.468434
 42
0.000115
 10
34.246488
 20
166.499423
 42
0.000303
 10
37.343875
 20
171.531783
 42
-0.002128
 10
40.045459
 20
175.8854
 42
-0.004994
 10
42.110028
 20
179.10905
 42
-0.002544
 10
43.753376
 20
181.591771
 42
-0.119104
 10
44.196
 20
181.999113
 42
-0.000455
 10
44.441256
 20
182.134986
 42
-0.000717
 10
44.651988
 20
182.251087
 42
-0.000161
 10
44.837169
 20
182.352688
 42
-0.03084
  0
LWPOLYLINE
  5
9DE
330
1D
100
AcDbEntity
  8
0
100
AcDbPolyline
 90
       76
 70
     1
 43
0.0
 10
58.085965
 20
164.07383
 42
-0.134229
 10
58.120552
 20
164.071974
 42
-0.002002
 10
58.314492
 20
164.006738
 42
-0.00527
 10
58.539697
 20
163.92732
 42
-0.003438
 10
58.797979
 20
163.831148
 42
-0.087212
 10
59.187032
 20
163.599362
 42
-0.007066
 10
60.080093
 20
162.807481
 42
-0.009344
 10
61.120929
 20
161.821701
 42
-0.007045
 10
62.22872
 20
160.701393
 42
0.010848
 10
63.481129
 20
159.453955
 42
0.008779
 10
64.876783
 20
158.168918
 42
0.008988
 10
66.232877
 20
157.006558
 42
0.018144
 10
67.349452
 20
156.150017
 42
0.008369
 10
68.381859
 20
155.44167
 42
0.006329
 10
69.537705
 20
154.697625
 42
0.006402
 10
70.641256
 20
154.026353
 42
0.014747
 10
71.491746
 20
153.557088
 42
0.009189
 10
72.363656
 20
153.129088
 42
0.004001
 10
73.536426
 20
152.591314
 42
0.003958
 10
74.792035
 20
152.039568
 42
0.005262
 10
75.942599
 20
151.559095
 42
-0.007024
 10
77.341099
 20
150.969287
 42
-0.031715
 10
78.128221
 20
150.562932
 42
-0.057312
 10
78.590689
 20
150.208086
 42
-0.116435
 10
78.836587
 20
149.824449
 42
-0.043879
 10
78.912948
 20
149.52598
 42
-0.028044
 10
78.951101
 20
149.169742
 42
-0.028117
 10
78.949107
 20
148.813551
 42
-0.046054
 10
78.902898
 20
148.515599
 42
-0.111905
 10
78.713751
 20
148.142116
 42
-0.044731
 10
78.307689
 20
147.732523
 42
-0.030546
 10
77.65995
 20
147.251007
 42
-0.01073
 10
76.675709
 20
146.638429
 42
0.013744
 10
75.748953
 20
146.053851
 42
0.007891
 10
74.663061
 20
145.301331
 42
0.007879
 10
73.594876
 20
144.510083
 42
0.01301
 10
72.721273
 20
143.804612
 42
0.018201
 10
71.88721
 20
143.040374
 42
0.01058
 10
70.940219
 20
142.066692
 42
0.010568
 10
70.03133
 20
141.049459
 42
0.017518
 10
69.314014
 20
140.149684
 42
0.015329
 10
68.653072
 20
139.198671
 42
0.008968
 10
67.917538
 20
138.022247
 42
0.008963
 10
67.223104
 20
136.817521
 42
0.015028
 10
66.688809
 20
135.778399
 42
-0.008151
 10
66.233436
 20
134.861999
 42
-0.010391
 10
65.782509
 20
134.033157
 42
-0.008532
 10
65.380819
 20
133.357079
 42
-0.081405
 10
65.161234
 20
133.104494
 42
-0.068753
 10
64.946544
 20
132.971255
 42
-0.033066
 10
64.641801
 20
132.859312
 42
-0.032011
 10
64.303009
 20
132.782865
 42
-0.039503
 10
63.980355
 20
132.757333
 42
-0.056301
 10
63.642411
 20
132.795508
 42
-0.041447
 10
63.283046
 20
132.909756
 42
-0.041517
 10
62.948229
 20
133.081371
 42
-0.057253
 10
62.683836
 20
133.291275
 42
-0.116304
 10
62.354259
 20
133.824237
 42
-0.016077
 10
61.979108
 20
135.080876
 42
-0.011423
 10
61.502598
 20
137.070093
 42
-0.00251
 10
60.77948
 20
140.509108
 42
0.000142
 10
60.145381
 20
143.597339
 42
0.000077
 10
59.365118
 20
147.389017
 42
0.000077
 10
58.570589
 20
151.244009
 42
0.000122
 10
57.889044
 20
154.544183
 42
-0.003001
 10
57.262802
 20
157.667246
 42
-0.006138
 10
56.816469
 20
160.125356
 42
-0.004133
 10
56.507898
 20
162.048722
 42
-0.092012
 10
56.526304
 20
162.611466
 42
-0.063963
 10
56.636661
 20
162.919559
 42
-0.046179
 10
56.831969
 20
163.228329
 42
-0.045733
 10
57.083413
 20
163.499486
 42
-0.058613
 10
57.361293
 20
163.695613
 42
-0.001631
 10
57.624423
 20
163.837403
 42
-0.002491
 10
57.853719
 20
163.958534
 42
-0.000873
 10
58.052186
 20
164.061676
 42
-0.066169
  0
LWPOLYLINE
  5
A2C
330
1D
100
AcDbEntity
  8
0
100
AcDbPolyline
 90
       76
 70
     1
 43
0.0
 10
118.028065
 20
164.076102
 42
-0.049075
 10
118.429067
 20
164.040607
 42
-0.06862
 10
118.769818
 20
163.926405
 42
-0.066957
 10
119.072943
 20
163.721632
 42
-0.044139
 10
119.361565
 20
163.414746
 42
-0.022059
 10
119.563066
 20
163.133926
 42
-0.023888
 10
119.73336
 20
162.843633
 42
-0.024294
 10
119.854348
 20
162.582707
 42
-0.0967
 10
119.888
 20
162.410335
 42
-0.048691
 10
119.862205
 20
162.146079
 42
-0.000113
 10
119.105005
 20
158.309029
 42
-0.000746
 10
118.244346
 20
153.98681
 42
-0.000464
 10
117.222484
 20
148.919089
 42
-0.00048
 10
116.179958
 20
143.79881
 42
-0.000709
 10
115.254326
 20
139.307312
 42
-0.000317
 10
114.456285
 20
135.474744
 42
-0.013835
 10
114.265437
 20
134.672655
 42
-0.032604
 10
114.114925
 20
134.228091
 42
-0.029999
 10
113.904306
 20
133.793866
 42
-0.031315
 10
113.668813
 20
133.42984
 42
-0.080918
 10
113.445437
 20
133.212155
 42
-0.047645
 10
113.196339
 20
133.070918
 42
-0.030151
 10
112.883622
 20
132.953106
 42
-0.030165
 10
112.559321
 20
132.873848
 42
-0.048029
 10
112.274983
 20
132.850078
 42
-0.042796
 10
111.997218
 20
132.877421
 42
-0.030379
 10
111.693329
 20
132.953206
 42
-0.030834
 10
111.409973
 20
133.062063
 42
-0.055354
 10
111.196393
 20
133.189808
 42
-0.084152
 10
110.981496
 20
133.41898
 42
-0.013668
 10
110.657221
 20
133.938489
 42
-0.014739
 10
110.306871
 20
134.577959
 42
-0.012498
 10
109.97402
 20
135.272786
 42
0.015682
 10
109.576776
 20
136.08866
 42
0.007589
 10
109.020447
 20
137.107865
 42
0.007518
 10
108.408245
 20
138.153056
 42
0.010725
 10
107.831232
 20
139.060556
 42
0.017596
 10
107.177247
 20
139.970862
 42
0.009944
 10
106.324814
 20
141.029189
 42
0.009917
 10
105.421627
 20
142.063601
 42
0.016035
 10
104.608605
 20
142.902599
 42
0.01497
 10
103.746853
 20
143.688061
 42
0.009358
 10
102.694122
 20
144.557736
 42
0.00939
 10
101.623793
 20
145.376427
 42
0.01684
 10
100.711
 20
146.001586
 42
-0.002989
 10
99.881828
 20
146.536355
 42
-0.003118
 10
99.070716
 20
147.073617
 42
-0.002997
 10
98.375369
 20
147.546534
 42
-0.013679
 10
97.9805
 20
147.834806
 42
-0.043202
 10
97.691659
 20
148.100836
 42
-0.05073
 10
97.469846
 20
148.399526
 42
-0.055641
 10
97.329342
 20
148.708973
 42
-0.078926
 10
97.282
 20
149.007017
 42
-0.032485
 10
97.299932
 20
149.282739
 42
-0.022912
 10
97.354237
 20
149.588611
 42
-0.023223
 10
97.433559
 20
149.877513
 42
-0.044278
 10
97.527912
 20
150.098888
 42
-0.128995
 10
97.735813
 20
150.322964
 42
-0.015595
 10
98.319517
 20
150.668949
 42
-0.017698
 10
99.053878
 20
151.040581
 42
-0.013715
 10
99.877412
 20
151.394278
 42
0.006198
 10
100.822041
 20
151.783268
 42
0.003795
 10
101.926641
 20
152.264171
 42
0.003804
 10
103.01324
 20
152.757013
 42
0.006759
 10
103.899535
 20
153.181801
 42
0.012108
 10
104.80447
 20
153.658305
 42
0.005587
 10
105.959343
 20
154.319631
 42
0.00553
 10
107.158689
 20
155.042295
 42
0.007641
 10
108.217535
 20
155.718942
 42
0.018535
 10
109.505593
 20
156.640405
 42
0.014665
 10
110.829357
 20
157.727122
 42
0.012618
 10
112.270348
 20
159.047999
 42
0.007545
 10
113.919
 20
160.686331
 42
-0.003597
 10
115.789207
 20
162.574409
 42
-0.023301
 10
116.781528
 20
163.473894
 42
-0.048626
 10
117.456998
 20
163.928701
 42
-0.122008
  0
LWPOLYLINE
  5
A7A
330
1D
100
AcDbEntity
  8
0
100
AcDbPolyline
 90
      112
 70
     1
 43
0.0
 10
88.9
 20
143.899513
 42
-0.011649
 10
89.935476
 20
143.830418
 42
-0.0092
 10
91.051856
 20
143.709012
 42
-0.009321
 10
92.084603
 20
143.557821
 42
-0.022707
 10
92.837
 20
143.397916
 42
-0.022178
 10
93.571918
 20
143.17125
 42
-0.009114
 10
94.547531
 20
142.802083
 42
-0.008997
 10
95.581793
 20
142.367282
 42
-0.011408
 10
96.52
 20
141.926998
 42
-0.018518
 10
97.694447
 20
141.287498
 42
-0.02624
 10
98.684297
 20
140.62743
 42
-0.023552
 10
99.674757
 20
139.813817
 42
-0.011473
 10
100.863593
 20
138.689026
 42
-0.012691
 10
101.861818
 20
137.648696
 42
-0.015539
 10
102.73842
 20
136.6253
 42
-0.016974
 10
103.470641
 20
135.648538
 42
-0.025941
 10
104.030669
 20
134.750211
 42
-0.017374
 10
104.446929
 20
133.932451
 42
-0.010455
 10
104.886077
 20
132.936229
 42
-0.010465
 10
105.281676
 20
131.926329
 42
-0.017965
 10
105.563039
 20
131.067211
 42
-0.013182
 10
105.786561
 20
130.206932
 42
-0.008394
 10
106.003253
 20
129.195514
 42
-0.008431
 10
106.182535
 20
128.195551
 42
-0.015478
 10
106.289458
 20
127.375092
 42
-0.02041
 10
106.338742
 20
126.523724
 42
-0.01161
 10
106.332336
 20
125.492126
 42
-0.011427
 10
106.276503
 20
124.425174
 42
-0.015236
 10
106.174217
 20
123.460191
 42
-0.01664
 10
106.009962
 20
122.499567
 42
-0.009934
 10
105.754118
 20
121.368712
 42
-0.00994
 10
105.454177
 20
120.251286
 42
-0.016956
 10
105.153818
 20
119.332719
 42
-0.01848
 10
104.790457
 20
118.440869
 42
-0.011013
 10
104.296066
 20
117.406518
 42
-0.011017
 10
103.757284
 20
116.396231
 42
-0.018689
 10
103.256986
 20
115.579005
 42
-0.020716
 10
102.682163
 20
114.787523
 42
-0.011
 10
101.909307
 20
113.85408
 42
-0.01093
 10
101.076027
 20
112.933047
 42
-0.016653
 10
100.309603
 20
112.174526
 42
-0.018297
 10
99.371065
 20
111.3673
 42
-0.019507
 10
98.395307
 20
110.648778
 42
-0.019095
 10
97.347269
 20
109.995311
 42
-0.016093
 10
96.191713
 20
109.383158
 42
-0.015623
 10
95.147228
 20
108.91203
 42
-0.011114
 10
93.950014
 20
108.447308
 42
-0.011242
 10
92.783537
 20
108.053545
 42
-0.0227
 10
91.845693
 20
107.806386
 42
-0.017282
 10
90.745846
 20
107.608828
 42
-0.019996
 10
89.687196
 20
107.499208
 42
-0.018029
 10
88.535896
 20
107.467957
 42
-0.010328
 10
87.146693
 20
107.509052
 42
-0.01166
 10
85.723838
 20
107.613889
 42
-0.020553
 10
84.556716
 20
107.775942
 42
-0.021809
 10
83.455402
 20
108.025314
 42
-0.015345
 10
82.240589
 20
108.397078
 42
-0.016917
 10
81.273586
 20
108.762711
 42
-0.011456
 10
80.196916
 20
109.241248
 42
-0.011552
 10
79.176814
 20
109.752067
 42
-0.022527
 10
78.393002
 20
110.213847
 42
-0.015656
 10
77.667398
 20
110.719643
 42
-0.009285
 10
76.833333
 20
111.36514
 42
-0.009287
 10
76.024465
 20
112.040619
 42
-0.015768
 10
75.376888
 20
112.638936
 42
-0.015067
 10
74.77654
 20
113.266485
 42
-0.009582
 10
74.114444
 20
114.030657
 42
-0.009625
 10
73.493043
 20
114.80614
 42
-0.017577
 10
73.021204
 20
115.465474
 42
-0.015262
 10
72.597325
 20
116.148431
 42
-0.008739
 10
72.125895
 20
116.99627
 42
-0.008724
 10
71.681234
 20
117.866163
 42
-0.014335
 10
71.33933
 20
118.618751
 42
-0.020817
 10
71.039513
 20
119.424727
 42
-0.010357
 10
70.723917
 20
120.467861
 42
-0.010262
 10
70.441083
 20
121.563845
 42
-0.014847
 10
70.240102
 20
122.543533
 42
-0.007323
 10
70.091416
 20
123.47672
 42
-0.006939
 10
69.967196
 20
124.430751
 42
-0.006912
 10
69.880691
 20
125.277771
 42
-0.02411
 10
69.858862
 20
125.826772
 42
-0.020466
 10
69.885135
 20
126.358242
 42
-0.006902
 10
69.965763
 20
127.129787
 42
-0.006852
 10
70.078517
 20
127.981437
 42
-0.007804
 10
70.210336
 20
128.793398
 42
-0.014612
 10
70.387815
 20
129.643691
 42
-0.009545
 10
70.639706
 20
130.613633
 42
-0.009602
 10
70.921724
 20
131.550562
 42
-0.018077
 10
71.190903
 20
132.293211
 42
-0.012261
 10
71.496804
 20
133.000122
 42
-0.007416
 10
71.891754
 20
133.822449
 42
-0.007427
 10
72.30843
 20
134.627847
 42
-0.012934
 10
72.680928
 20
135.281225
 42
-0.015682
 10
73.09485
 20
135.919414
 42
-0.008496
 10
73.641402
 20
136.678977
 42
-0.008455
 10
74.224494
 20
137.433961
 42
-0.013211
 10
74.754101
 20
138.061499
 42
-0.025695
 10
75.368904
 20
138.684509
 42
-0.011852
 10
76.227768
 20
139.433163
 42
-0.011704
 10
77.170029
 20
140.179422
 42
-0.015913
 10
78.056101
 20
140.80481
 42
-0.01257
 10
78.96441
 20
141.371299
 42
-0.00994
 10
79.973411
 20
141.939181
 42
-0.010075
 10
80.931439
 20
142.428966
 42
-0.024516
 10
81.661
 20
142.740373
 42
-0.011793
 10
82.363736
 20
142.981723
 42
-0.006747
 10
83.222306
 20
143.241436
 42
-0.006736
 10
84.093335
 20
143.479482
 42
-0.011114
 10
84.836
 20
143.654219
 42
-0.02324
 10
85.679635
 20
143.792427
 42
-0.013907
 10
86.692011
 20
143.881846
 42
-0.013131
 10
87.790708
 20
143.919242
 42
-0.012775
  0
LWPOLYLINE
  5
AEC
330
1D
100
AcDbEntity
  8
0
100
AcDbPolyline
 90
       62
 70
     1
 43
0.0
 10
168.787909
 20
115.57
 42
-0.048347
 10
169.130432
 20
115.536803
 42
-0.041276
 10
169.479621
 20
115.438
 42
-0.043042
 10
169.788061
 20
115.291178
 42
-0.07638
 10
170.005986
 20
115.113949
 42
-0.176182
 10
170.268113
 20
114.470371
 42
-0.00347
 10
170.380183
 20
110.862818
 42
-0.003806
 10
170.479164
 20
104.865888
 42
-0.000395
 10
170.593458
 20
90.758508
 10
170.768208
 20
66.859117
 10
170.10465
 20
66.195559
 42
-0.041313
 10
169.778414
 20
65.919198
 42
-0.044915
 10
169.419817
 20
65.708864
 42
-0.047724
 10
169.051833
 20
65.576487
 42
-0.062568
 10
168.697716
 20
65.532
 42
-0.116703
 10
168.201899
 20
65.649325
 42
-0.046639
 10
167.606048
 20
66.021169
 42
-0.026268
 10
166.782063
 20
66.720366
 42
-0.005791
 10
165.447671
 20
68.0085
 42
0.011297
 10
164.346248
 20
69.048559
 42
0.010896
 10
163.18588
 20
70.050714
 42
0.011274
 10
162.108122
 20
70.90112
 42
0.029823
 10
161.29
 20
71.443999
 42
0.017603
 10
160.51178
 20
71.860118
 42
0.009509
 10
159.527081
 20
72.319859
 42
0.00946
 10
158.50518
 20
72.750549
 42
0.014702
 10
157.607
 20
73.078968
 42
0.017208
 10
156.353241
 20
73.448651
 42
0.032921
 10
155.322378
 20
73.643172
 42
0.024355
 10
154.089933
 20
73.732045
 42
0.0057
 10
152.019
 20
73.756659
 42
0.005855
 10
149.983876
 20
73.733813
 42
0.022905
 10
148.730029
 20
73.647491
 42
0.030816
 10
147.684152
 20
73.461329
 42
0.017933
 10
146.456307
 20
73.116714
 42
-0.012904
 10
145.643137
 20
72.879639
 42
-0.015045
 10
144.859219
 20
72.69792
 42
-0.014096
 10
144.191648
 20
72.583666
 42
-0.082738
 10
143.837321
 20
72.592095
 42
-0.069262
 10
143.573392
 20
72.681668
 42
-0.039988
 10
143.286156
 20
72.85597
 42
-0.039129
 10
143.020573
 20
73.081295
 42
-0.052289
 10
142.820829
 20
73.326029
 42
-0.066327
 10
142.62264
 20
73.738858
 42
-0.131567
 10
142.60337
 20
74.098779
 42
-0.06238
 10
142.770294
 20
74.581789
 42
-0.006645
 10
143.310171
 20
75.642958
 42
-0.010946
 10
143.852597
 20
76.622298
 42
-0.001805
 10
144.947321
 20
78.485088
 42
-0.001984
 10
146.251899
 20
80.666945
 42
-0.001752
 10
147.628687
 20
82.931
 42
0.000073
 10
149.45809
 20
85.91673
 42
0.000019
 10
152.377102
 20
90.682762
 42
0.00002
 10
155.696625
 20
96.10368
 42
0.00002
 10
158.983965
 20
101.473
 42
-0.000967
 10
162.062097
 20
106.479312
 42
-0.001496
 10
164.741646
 20
110.789641
 42
-0.000443
 10
167.084602
 20
114.52613
 42
-0.047703
 10
167.44841
 20
114.9985
 42
-0.053523
 10
167.726333
 20
115.238462
 42
-0.050547
 10
168.054058
 20
115.419324
 42
-0.050124
 10
168.414171
 20
115.531946
 42
-0.050779
  0
LWPOLYLINE
  5
B2C
330
1D
100
AcDbEntity
  8
0
100
AcDbPolyline
 90
       70
 70
     1
 43
0.0
 10
7.259875
 20
115.062
 42
-0.052563
 10
7.700648
 20
115.015535
 42
-0.07579
 10
8.066799
 20
114.87715
 42
-0.064508
 10
8.415315
 20
114.616863
 42
-0.027995
 10
8.808008
 20
114.190664
 42
-0.029941
 10
9.283184
 20
113.537117
 42
-0.000889
 10
11.103254
 20
110.67886
 42
-0.001772
 10
13.229412
 20
107.300362
 42
-0.001222
 10
15.614771
 20
103.459164
 42
-0.000081
 10
18.349908
 20
99.028998
 42
-0.000051
 10
21.547524
 20
93.846679
 42
-0.000051
 10
24.694347
 20
88.744351
 42
-0.000093
 10
27.259784
 20
84.582
 42
-0.000495
 10
29.414459
 20
81.076866
 42
-0.000743
 10
31.287891
 20
78.012265
 42
-0.000296
 10
32.890201
 20
75.378891
 42
-0.016678
 10
33.171513
 20
74.879114
 42
-0.031915
 10
33.308061
 20
74.569621
 42
-0.022348
 10
33.423282
 20
74.20619
 42
-0.022634
 10
33.502586
 20
73.846597
 42
-0.042977
 10
33.528
 20
73.551469
 42
-0.071337
 10
33.485413
 20
73.254495
 42
-0.063978
 10
33.360578
 20
72.969343
 42
-0.060474
 10
33.159729
 20
72.711209
 42
-0.052228
 10
32.893478
 20
72.493956
 42
-0.049188
 10
32.586039
 20
72.333218
 42
-0.043956
 10
32.241384
 20
72.228267
 42
-0.04461
 10
31.88933
 20
72.186325
 42
-0.054997
 10
31.559978
 20
72.212885
 42
-0.013716
 10
31.173262
 20
72.298463
 42
-0.002931
 10
30.506731
 20
72.469418
 42
-0.003061
 10
29.73659
 20
72.676815
 42
-0.002911
 10
28.956
 20
72.897059
 42
0.019289
 10
27.91848
 20
73.153434
 42
0.020024
 10
26.877119
 20
73.325373
 42
0.018052
 10
25.734073
 20
73.425635
 42
0.011118
 10
24.384
 20
73.46501
 42
0.011582
 10
23.157724
 20
73.445092
 42
0.012735
 10
21.972006
 20
73.368065
 42
0.013663
 10
20.896167
 20
73.24089
 42
0.023284
 10
20.007586
 20
73.06857
 42
0.014926
 10
19.235285
 20
72.856524
 42
0.008708
 10
18.322253
 20
72.558784
 42
0.008702
 10
17.417634
 20
72.228525
 42
0.014563
 10
16.670736
 20
71.915755
 42
0.013569
 10
15.939773
 20
71.560102
 42
0.007957
 10
15.083922
 20
71.097114
 42
0.007954
 10
14.24208
 20
70.606459
 42
0.013405
 10
13.55415
 20
70.165112
 42
0.023521
 10
12.846936
 20
69.633862
 42
0.009389
 10
11.927556
 20
68.843516
 42
0.009267
 10
10.966314
 20
67.952715
 42
0.011531
 10
10.107954
 20
67.088191
 42
-0.007146
 10
9.032417
 20
65.985763
 42
-0.034555
 10
8.37166
 20
65.412785
 42
-0.063652
 10
7.862068
 20
65.12226
 42
-0.098068
 10
7.365908
 20
65.024
 42
-0.056649
 10
6.988056
 20
65.066948
 42
-0.050444
 10
6.613595
 20
65.194022
 42
-0.047903
 10
6.254539
 20
65.401367
 42
-0.041517
 10
5.922488
 20
65.682421
 10
5.264066
 20
66.340843
 10
5.384521
 20
90.191052
 42
-0.00034
 10
5.469927
 20
105.096725
 42
-0.004373
 10
5.554342
 20
110.666605
 42
-0.005834
 10
5.666705
 20
113.824333
 42
-0.173801
 10
5.966855
 20
114.55163
 42
-0.064877
 10
6.213759
 20
114.761995
 42
-0.050078
 10
6.528421
 20
114.924219
 42
-0.047696
 10
6.885891
 20
115.027251
 42
-0.046358
  0
LWPOLYLINE
  5
B74
330
1D
100
AcDbEntity
  8
0
100
AcDbPolyline
 90
       60
 70
     1
 43
0.0
 10
69.486332
 20
109.474
 42
-0.129012
 10
69.841695
 20
109.380756
 42
-0.018638
 10
70.485936
 20
108.985338
 42
-0.018518
 10
71.275436
 20
108.41598
 42
-0.010737
 10
72.182578
 20
107.677457
 42
0.010061
 10
73.112648
 20
106.918174
 42
0.007633
 10
74.161534
 20
106.122035
 42
0.007725
 10
75.169061
 20
105.404964
 42
0.017803
 10
75.953069
 20
104.90521
 42
0.007701
 10
76.692288
 20
104.485403
 42
0.005253
 10
77.544708
 20
104.030098
 42
0.005295
 10
78.376239
 20
103.60825
 42
0.010627
 10
79.043061
 20
103.296243
 42
-0.022409
 10
79.613002
 20
103.013014
 42
-0.024045
 10
80.141632
 20
102.685925
 42
-0.024513
 10
80.565244
 20
102.363099
 42
-0.095084
 10
80.77209
 20
102.107831
 42
-0.052842
 10
80.875387
 20
101.85351
 42
-0.036111
 10
80.939849
 20
101.54813
 42
-0.036398
 10
80.959248
 20
101.241009
 42
-0.059124
 10
80.925971
 20
100.982032
 42
-0.115468
 10
80.767856
 20
100.675198
 42
-0.014725
 10
80.26644
 20
100.120721
 42
-0.016604
 10
79.620247
 20
99.490411
 42
-0.013122
 10
78.881884
 20
98.851249
 42
0.01202
 10
78.079855
 20
98.160062
 42
0.009386
 10
77.241646
 20
97.37272
 42
0.00951
 10
76.488472
 20
96.609676
 42
0.022748
 10
75.96739
 20
96.00878
 42
0.009082
 10
75.538888
 20
95.445967
 42
0.006911
 10
75.089378
 20
94.814647
 42
0.006993
 10
74.684275
 20
94.210838
 42
0.016231
 10
74.40181
 20
93.744379
 42
-0.031101
 10
74.1453
 20
93.347878
 42
-0.027444
 10
73.831374
 20
92.968502
 42
-0.028442
 10
73.50963
 20
92.657899
 42
-0.070965
 10
73.234979
 20
92.482159
 42
-0.025112
 10
72.964273
 20
92.374878
 42
-0.019254
 10
72.659165
 20
92.284297
 42
-0.019612
 10
72.366432
 20
92.221636
 42
-0.04294
 10
72.138213
 20
92.202
 42
-0.085314
 10
71.90862
 20
92.241462
 42
-0.032593
 10
71.609564
 20
92.369878
 42
-0.031114
 10
71.296112
 20
92.554787
 42
-0.033238
 10
71.015248
 20
92.7735
 42
-0.113364
 10
70.607049
 20
93.348983
 42
-0.03132
 10
70.246997
 20
94.405085
 42
-0.014677
 10
69.799355
 20
96.261668
 42
-0.001871
 10
68.969084
 20
100.285131
 42
-0.001561
 10
68.430675
 20
102.987855
 42
-0.002308
 10
67.976744
 20
105.362241
 42
-0.001039
 10
67.603114
 20
107.39008
 42
-0.045063
 10
67.564
 20
107.823195
 42
-0.085836
 10
67.611223
 20
108.096246
 42
-0.048638
 10
67.754481
 20
108.40078
 42
-0.045425
 10
67.969621
 20
108.697286
 42
-0.046484
 10
68.233254
 20
108.947565
 42
-0.036851
 10
68.53236
 20
109.149069
 42
-0.030373
 10
68.877413
 20
109.31936
 42
-0.031397
 10
69.214918
 20
109.436834
 42
-0.06815
  0
LWPOLYLINE
  5
BB2
330
1D
100
AcDbEntity
  8
0
100
AcDbPolyline
 90
       60
 70
     1
 43
0.0
 10
106.800593
 20
109.474
 42
-0.041885
 10
107.207302
 20
109.43987
 42
-0.044995
 10
107.592626
 20
109.338448
 42
-0.047642
 10
107.932492
 20
109.1774
 42
-0.061997
 10
108.204
 20
108.966
 42
-0.044968
 10
108.398416
 20
108.733073
 42
-0.036935
 10
108.562775
 20
108.453717
 42
-0.038339
 10
108.675643
 20
108.172223
 42
-0.07632
 10
108.712
 20
107.935421
 42
-0.045839
 10
108.676753
 20
107.551758
 42
-0.000848
 10
108.303007
 20
105.55376
 42
-0.002079
 10
107.853237
 20
103.224865
 42
-0.001388
 10
107.319683
 20
100.561473
 42
-0.002144
 10
106.766972
 20
97.90019
 42
-0.003195
 10
106.258649
 20
95.577491
 42
-0.001383
 10
105.806386
 20
93.597923
 42
-0.066101
 10
105.66282
 20
93.215796
 42
-0.0851
 10
105.503068
 20
93.010461
 42
-0.039336
 10
105.235216
 20
92.80207
 42
-0.037474
 10
104.911807
 20
92.622168
 42
-0.042657
 10
104.578637
 20
92.501505
 42
-0.030757
 10
104.22755
 20
92.430075
 42
-0.026114
 10
103.850543
 20
92.397191
 42
-0.026944
 10
103.503306
 20
92.403819
 42
-0.064248
 10
103.251
 20
92.455301
 42
-0.112864
 10
102.991845
 20
92.615756
 42
-0.017634
 10
102.576207
 20
93.056244
 42
-0.018856
 10
102.116321
 20
93.620996
 42
-0.015439
 10
101.667195
 20
94.257039
 42
0.009583
 10
101.19024
 20
94.949561
 42
0.007458
 10
100.646258
 20
95.684476
 42
0.00755
 10
100.118523
 20
96.354419
 42
0.018101
 10
99.702372
 20
96.830326
 42
0.01664
 10
99.24804
 20
97.28231
 42
0.006499
 10
98.59226
 20
97.876941
 42
0.006425
 10
97.86536
 20
98.502599
 42
0.007943
 10
97.171677
 20
99.065794
 42
-0.012016
 10
96.532316
 20
99.593585
 42
-0.01524
 10
95.969218
 20
100.112519
 42
-0.013274
 10
95.527558
 20
100.568752
 42
-0.109255
 10
95.383532
 20
100.81742
 42
-0.067165
 10
95.344587
 20
101.040016
 42
-0.031813
 10
95.351746
 20
101.331817
 42
-0.030821
 10
95.398397
 20
101.640994
 42
-0.038003
 10
95.481005
 20
101.920519
 42
-0.110248
 10
95.71996
 20
102.28292
 42
-0.038319
 10
96.2047
 20
102.684344
 42
-0.027077
 10
96.948523
 20
103.151628
 42
-0.009916
 10
98.046566
 20
103.733001
 42
0.006452
 10
99.022479
 20
104.241085
 42
0.005559
 10
100.035009
 20
104.799546
 42
0.005604
 10
100.942283
 20
105.326703
 42
0.016095
 10
101.555592
 20
105.719599
 42
0.015531
 10
102.12138
 20
106.134727
 42
0.006492
 10
102.858645
 20
106.727327
 42
0.006416
 10
103.631838
 20
107.382365
 42
0.008272
 10
104.324093
 20
108.004666
 42
-0.010706
 10
105.194006
 20
108.779049
 42
-0.042643
 10
105.7746
 20
109.194171
 42
-0.06759
 10
106.267292
 20
109.402776
 42
-0.066482
  0
LWPOLYLINE
  5
BF0
330
1D
100
AcDbEntity
  8
0
100
AcDbPolyline
 90
       76
 70
     1
 43
0.0
 10
88.678215
 20
95.936235
 42
-0.012712
 10
89.907019
 20
95.861351
 42
-0.034899
 10
90.764926
 20
95.726372
 42
-0.038825
 10
91.54303
 20
95.482742
 42
-0.019107
 10
92.490905
 20
95.06029
 42
-0.024365
 10
93.201701
 20
94.666251
 42
-0.015004
 10
93.999409
 20
94.137999
 42
-0.015036
 10
94.758564
 20
93.566865
 42
-0.025925
 10
95.349272
 20
93.04152
 42
-0.027317
 10
95.88784
 20
92.448648
 42
-0.017208
 10
96.452937
 20
91.702834
 42
-0.01715
 10
96.969314
 20
90.914153
 42
-0.025683
 10
97.359637
 20
90.18945
 42
-0.020052
 10
97.739068
 20
89.298454
 42
-0.029931
 10
97.991361
 20
88.490442
 42
-0.028974
 10
98.150623
 20
87.638798
 42
-0.01728
 10
98.245763
 20
86.611866
 42
-0.015694
 10
98.271408
 20
85.642175
 42
-0.021597
 10
98.229469
 20
84.771549
 42
-0.023153
 10
98.116884
 20
83.958641
 42
-0.023475
 10
97.929965
 20
83.163416
 42
-0.023957
 10
97.703227
 20
82.492068
 42
-0.014136
 10
97.372113
 20
81.713003
 42
-0.014126
 10
96.996553
 20
80.95193
 42
-0.023422
 10
96.63255
 20
80.335614
 42
-0.025621
 10
96.207927
 20
79.755131
 42
-0.01505
 10
95.645117
 20
79.104146
 42
-0.015031
 10
95.041688
 20
78.485613
 42
-0.024706
 10
94.491323
 20
78.004562
 42
-0.023378
 10
93.899406
 20
77.580067
 42
-0.014499
 10
93.168534
 20
77.135577
 42
-0.014538
 10
92.419914
 20
76.737874
 42
-0.025314
 10
91.774794
 20
76.458527
 42
-0.020835
 10
91.110233
 20
76.240981
 42
-0.012345
 10
90.302052
 20
76.034615
 42
-0.012343
 10
89.484118
 20
75.868275
 42
-0.020711
 10
88.789323
 20
75.774238
 42
-0.022803
 10
88.009567
 20
75.737162
 42
-0.022192
 10
87.222528
 20
75.770602
 42
-0.021638
 10
86.422498
 20
75.875285
 42
-0.019356
 10
85.603821
 20
76.051567
 42
-0.017153
 10
84.894704
 20
76.259395
 42
-0.012575
 10
84.123017
 20
76.536325
 42
-0.012737
 10
83.40491
 20
76.835855
 42
-0.027369
 10
82.871798
 20
77.110266
 42
-0.024341
 10
82.381329
 20
77.430739
 42
-0.012726
 10
81.801613
 20
77.874085
 42
-0.012628
 10
81.228868
 20
78.360026
 42
-0.018869
 10
80.756062
 20
78.815358
 42
-0.028413
 10
80.303998
 20
79.341646
 42
-0.014271
 10
79.791645
 20
80.052793
 42
-0.014122
 10
79.302185
 20
80.820562
 42
-0.020294
 10
78.916527
 20
81.528659
 42
-0.01804
 10
78.451593
 20
82.564035
 42
-0.050095
 10
78.226887
 20
83.328521
 42
-0.038858
 10
78.129679
 20
84.224291
 42
-0.007605
 10
78.105
 20
85.846659
 42
-0.007811
 10
78.129114
 20
87.390152
 42
-0.032903
 10
78.21881
 20
88.311698
 42
-0.044806
 10
78.413975
 20
89.068574
 42
-0.024118
 10
78.780743
 20
89.960487
 42
-0.024345
 10
79.119043
 20
90.599276
 42
-0.014283
 10
79.581775
 20
91.330361
 42
-0.014266
 10
80.087483
 20
92.036661
 42
-0.023507
 10
80.558743
 20
92.599672
 42
-0.016004
 10
81.055014
 20
93.10543
 42
-0.011747
 10
81.635662
 20
93.634942
 42
-0.011895
 10
82.209478
 20
94.110549
 42
-0.025712
 10
82.677
 20
94.442122
 42
-0.022424
 10
83.165855
 20
94.722432
 42
-0.011309
 10
83.804919
 20
95.03364
 42
-0.011207
 10
84.480963
 20
95.325979
 42
-0.016341
 10
85.09
 20
95.550403
 42
-0.026638
 10
85.868764
 20
95.76351
 42
-0.026689
 10
86.665275
 20
95.892444
 42
-0.023051
 10
87.568354
 20
95.94762
 42
-0.012593
  0
LWPOLYLINE
  5
C3E
330
1D
100
AcDbEntity
  8
0
100
AcDbPolyline
 90
       84
 70
     1
 43
0.0
 10
76.657496
 20
73.66
 42
-0.085335
 10
77.041652
 20
73.593955
 42
-0.021358
 10
77.633934
 20
73.355173
 42
-0.020655
 10
78.313117
 20
73.012527
 42
-0.017098
 10
79.006996
 20
72.594013
 42
0.013407
 10
79.754053
 20
72.135871
 42
0.008456
 10
80.648818
 20
71.639608
 42
0.008489
 10
81.545718
 20
71.181186
 42
0.015415
 10
82.296
 20
70.841895
 42
0.019085
 10
83.064197
 20
70.556506
 42
0.010734
 10
84.016098
 20
70.266142
 42
0.010701
 10
84.991064
 20
70.013864
 42
0.01718
 10
85.833228
 20
69.845389
 42
0.017394
 10
86.692791
 20
69.734496
 42
0.01309
 10
87.643814
 20
69.670358
 42
0.013293
 10
88.56744
 20
69.656894
 42
0.022526
 10
89.339463
 20
69.700987
 42
0.01945
 10
90.102898
 20
69.809344
 42
0.009315
 10
91.07381
 20
70.004656
 42
0.00922
 10
92.081133
 20
70.246454
 42
0.01299
 10
92.96872
 20
70.501684
 42
0.021508
 10
93.914469
 20
70.845826
 42
0.015262
 10
94.944234
 20
71.308808
 42
0.015099
 10
95.960021
 20
71.841824
 42
0.019021
 10
96.864513
 20
72.398203
 42
-0.013501
 10
97.700602
 20
72.925313
 42
-0.021656
 10
98.443635
 20
73.323742
 42
-0.024546
 10
99.062734
 20
73.585356
 42
-0.087908
 10
99.484012
 20
73.66
 42
-0.044615
 10
99.805876
 20
73.631223
 42
-0.029375
 10
100.167488
 20
73.54385
 42
-0.029541
 10
100.512123
 20
73.416143
 42
-0.049309
 10
100.781483
 20
73.264597
 42
-0.061579
 10
101.019271
 20
73.050072
 42
-0.061426
 10
101.197886
 20
72.783927
 42
-0.060518
 10
101.308472
 20
72.478602
 42
-0.056712
 10
101.346
 20
72.148805
 42
-0.045078
 10
101.298547
 20
71.623533
 42
-0.000938
 10
100.822765
 20
69.039254
 42
-0.002181
 10
100.247339
 20
66.019656
 42
-0.001466
 10
99.564775
 20
62.574708
 42
-0.000258
 10
98.80775
 20
58.821871
 42
-0.00022
 10
98.006002
 20
54.866833
 42
-0.000222
 10
97.273762
 20
51.270997
 42
-0.000632
 10
96.759611
 20
48.768
 42
0.000306
 10
96.212077
 20
46.111266
 42
0.00008
 10
95.334775
 20
41.837769
 42
0.000081
 10
94.336595
 20
36.967517
 42
0.000083
 10
93.346976
 20
32.131
 42
-0.00006
 10
92.395664
 20
27.480631
 42
-0.000076
 10
91.512993
 20
23.171767
 42
-0.00006
 10
90.771312
 20
19.556162
 42
-0.000598
 10
90.457969
 20
18.038804
 42
-0.009045
 10
90.171743
 20
16.776213
 42
-0.033183
 10
89.923876
 20
15.995329
 42
-0.052484
 10
89.647962
 20
15.463497
 42
-0.069357
 10
89.287665
 20
15.054304
 42
-0.023472
 10
89.005448
 20
14.833718
 42
-0.025588
 10
88.711582
 20
14.647289
 42
-0.026213
 10
88.445835
 20
14.515045
 42
-0.102693
 10
88.267371
 20
14.478
 42
-0.046078
 10
88.088898
 20
14.494482
 42
-0.014652
 10
87.827666
 20
14.551114
 42
-0.014487
 10
87.538752
 20
14.631621
 42
-0.015649
 10
87.262413
 20
14.7269
 42
-0.05454
 10
86.993059
 20
14.864502
 42
-0.038905
 10
86.725088
 20
15.072062
 42
-0.039433
 10
86.497917
 20
15.313403
 42
-0.064995
 10
86.352526
 20
15.5524
 42
-0.052865
 10
86.199193
 20
16.02928
 42
-0.0001
 10
84.532072
 20
24.036814
 42
-0.000729
 10
82.672653
 20
33.042758
 42
-0.000452
 10
80.513647
 20
43.625817
 42
-0.000505
 10
78.37312
 20
54.221738
 42
-0.000809
 10
76.570196
 20
63.268895
 42
-0.000132
 10
74.988346
 20
71.285421
 42
-0.048677
 10
74.93
 20
71.883317
 42
-0.055944
 10
74.967035
 20
72.213285
 42
-0.039351
 10
75.078313
 20
72.570228
 42
-0.039661
 10
75.242302
 20
72.901097
 42
-0.061571
 10
75.438
 20
73.152
 42
-0.058768
 10
75.684558
 20
73.346534
 42
-0.038993
 10
76.005777
 20
73.510775
 42
-0.039041
 10
76.347904
 20
73.622886
 42
-0.059726
  0
LWPOLYLINE
  5
C94
330
1D
100
AcDbEntity
  8
0
100
AcDbPolyline
 90
       96
 70
     1
 43
0.0
 10
152.283135
 20
67.801284
 42
-0.018043
 10
153.074085
 20
67.780134
 42
-0.012142
 10
153.974326
 20
67.701526
 42
-0.01224
 10
154.842866
 20
67.582795
 42
-0.023621
 10
155.529382
 20
67.43821
 42
-0.013815
 10
156.165907
 20
67.253496
 42
-0.009618
 10
156.874001
 20
67.011514
 42
-0.009709
 10
157.544894
 20
66.752881
 42
-0.019743
 10
158.059247
 20
66.518949
 42
-0.016992
 10
158.556901
 20
66.24688
 42
-0.008221
 10
159.175421
 20
65.86704
 42
-0.008142
 10
159.80752
 20
65.449779
 42
-0.011595
 10
160.353974
 20
65.057239
 42
-0.024068
 10
160.898205
 20
64.604169
 42
-0.012912
 10
161.526908
 20
63.996735
 42
-0.01283
 10
162.137605
 20
63.342668
 42
-0.019585
 10
162.629571
 20
62.742073
 42
-0.023302
 10
163.076875
 20
62.089002
 42
-0.013786
 10
163.551515
 20
61.272141
 42
-0.013779
 10
163.98118
 20
60.428885
 42
-0.022944
 10
164.289954
 20
59.694073
 42
-0.023219
 10
164.544864
 20
58.885778
 42
-0.015229
 10
164.766167
 20
57.934657
 42
-0.014938
 10
164.934747
 20
56.94234
 42
-0.018318
 10
165.030269
 20
56.007
 42
-0.015004
 10
165.066237
 20
54.983691
 42
-0.020684
 10
165.032925
 20
54.064743
 42
-0.021923
 10
164.926883
 20
53.195795
 42
-0.020807
 10
164.743907
 20
52.324
 42
-0.013948
 10
164.538335
 20
51.599245
 42
-0.009438
 10
164.265623
 20
50.784919
 42
-0.009513
 10
163.972023
 20
50.007391
 42
-0.018683
 10
163.70397
 20
49.403
 42
-0.019141
 10
163.397113
 20
48.831946
 42
-0.010741
 10
162.983381
 20
48.161412
 42
-0.010706
 10
162.535771
 20
47.501109
 42
-0.017151
 10
162.122974
 20
46.959721
 42
-0.019508
 10
161.663819
 20
46.4412
 42
-0.011148
 10
161.07193
 20
45.85009
 42
-0.011122
 10
160.449058
 20
45.281123
 42
-0.0181
 10
159.893
 20
44.829838
 42
-0.015281
 10
159.31197
 20
44.419399
 42
-0.009735
 10
158.612884
 20
43.976243
 42
-0.009779
 10
157.909602
 20
43.567995
 42
-0.017885
 10
157.318564
 20
43.267302
 42
-0.029916
 10
156.673876
 20
43.013502
 42
-0.013043
 10
155.791883
 20
42.751122
 42
-0.012854
 10
154.83772
 20
42.520295
 42
-0.016731
 10
153.953113
 20
42.360976
 42
-0.012912
 10
152.842885
 20
42.228333
 42
-0.024167
 10
151.939378
 20
42.187864
 42
-0.025425
 10
151.067252
 20
42.235357
 42
-0.016148
 10
150.059398
 20
42.374853
 42
-0.023006
 10
149.228141
 20
42.557104
 42
-0.012991
 10
148.238487
 20
42.850077
 42
-0.012947
 10
147.253557
 20
43.198137
 42
-0.020687
 10
146.434131
 20
43.551316
 42
-0.022655
 10
145.529407
 20
44.0381
 42
-0.02469
 10
144.698955
 20
44.592081
 42
-0.023762
 10
143.900362
 20
45.244737
 42
-0.018248
 10
143.09089
 20
46.028374
 42
-0.018684
 10
142.440819
 20
46.758061
 42
-0.013487
 10
141.769588
 20
47.616848
 42
-0.013655
 10
141.175102
 20
48.468982
 42
-0.028597
 10
140.770387
 20
49.16826
 42
-0.020536
 10
140.452723
 20
49.867518
 42
-0.01271
 10
140.134831
 20
50.712251
 42
-0.012743
 10
139.862919
 20
51.563958
 42
-0.022325
 10
139.687824
 20
52.282883
 42
-0.023034
 10
139.573705
 20
53.047285
 42
-0.01322
 10
139.503211
 20
53.976729
 42
-0.012984
 10
139.480673
 20
54.943988
 42
-0.01693
 10
139.513004
 20
55.828744
 42
-0.019218
 10
139.606978
 20
56.688946
 42
-0.013107
 10
139.77678
 20
57.658025
 42
-0.013225
 10
139.990119
 20
58.585363
 42
-0.025818
 10
140.217296
 20
59.309
 42
-0.022784
 10
140.511957
 20
60.003268
 42
-0.012035
 10
140.936749
 20
60.837448
 42
-0.011951
 10
141.413387
 20
61.671894
 42
-0.018061
 10
141.871163
 20
62.372143
 42
-0.01733
 10
142.371016
 20
63.029983
 42
-0.012243
 10
142.975284
 20
63.734556
 42
-0.012377
 10
143.586767
 20
64.380305
 42
-0.025361
 10
144.102759
 20
64.848794
 42
-0.016683
 10
144.631984
 20
65.253717
 42
-0.010253
 10
145.280156
 20
65.696435
 42
-0.010277
 10
145.940095
 20
66.108515
 42
-0.018044
 10
146.504305
 20
66.417879
 42
-0.015999
 10
147.084618
 20
66.686462
 42
-0.009416
 10
147.79382
 20
66.9719
 42
-0.009414
 10
148.513991
 20
67.230695
 42
-0.015857
 10
149.128373
 20
67.417012
 42
-0.023736
 10
149.779239
 20
67.55933
 42
-0.01165
 10
150.618818
 20
67.681509
 42
-0.011531
 10
151.498708
 20
67.768147
 42
-0.016436
  0
LWPOLYLINE
  5
CF6
330
1D
100
AcDbEntity
  8
0
100
AcDbPolyline
 90
       96
 70
     1
 43
0.0
 10
23.785745
 20
67.303443
 42
-0.013151
 10
24.931482
 20
67.276538
 42
-0.01885
 10
25.943376
 20
67.187796
 42
-0.020692
 10
26.865903
 20
67.032713
 42
-0.022916
 10
27.741066
 20
66.805749
 42
-0.02247
 10
28.475106
 20
66.542364
 42
-0.012869
 10
29.336366
 20
66.162723
 42
-0.012837
 10
30.184391
 20
65.735593
 42
-0.020797
 10
30.879321
 20
65.324824
 42
-0.016679
 10
31.523318
 20
64.875883
 42
-0.01193
 10
32.21391
 20
64.333242
 42
-0.012066
 10
32.847762
 20
63.784016
 42
-0.025164
 10
33.308244
 20
63.320726
 42
-0.0151
 10
33.709473
 20
62.846149
 42
-0.009353
 10
34.153002
 20
62.266262
 42
-0.00938
 10
34.569869
 20
61.676717
 42
-0.016658
 10
34.887544
 20
61.173828
 42
-0.01395
 10
35.167461
 20
60.664104
 42
-0.008819
 10
35.466601
 20
60.055221
 42
-0.008855
 10
35.739595
 20
59.446056
 42
-0.016105
 10
35.937532
 20
58.937829
 42
-0.019432
 10
36.107608
 20
58.388655
 42
-0.008229
 10
36.294716
 20
57.640316
 42
-0.008127
 10
36.468564
 20
56.833768
 42
-0.010529
 10
36.600295
 20
56.088652
 42
-0.017836
 10
36.707534
 20
55.186086
 42
-0.021335
 10
36.741709
 20
54.330665
 42
-0.020902
 10
36.70295
 20
53.460851
 42
-0.015956
 10
36.59053
 20
52.5145
 42
-0.022287
 10
36.428322
 20
51.692012
 42
-0.014296
 10
36.170719
 20
50.753465
 42
-0.014355
 10
35.863585
 20
49.842466
 42
-0.024789
 10
35.549679
 20
49.10709
 42
-0.022401
 10
35.171171
 20
48.410617
 42
-0.013009
 10
34.658481
 20
47.608322
 42
-0.012989
 10
34.101644
 20
46.829355
 42
-0.021311
 10
33.586213
 20
46.203837
 42
-0.020724
 10
33.017373
 20
45.621025
 42
-0.012338
 10
32.295563
 20
44.973227
 42
-0.012339
 10
31.543001
 20
44.36209
 42
-0.020804
 10
30.879321
 20
43.892498
 42
-0.021083
 10
30.181848
 20
43.481942
 42
-0.01279
 10
29.325572
 20
43.053126
 42
-0.012807
 10
28.452548
 20
42.670471
 42
-0.021966
 10
27.704321
 20
42.4028
 42
-0.022254
 10
26.812164
 20
42.170115
 42
-0.02054
 10
25.878729
 20
42.010315
 42
-0.018827
 10
24.860507
 20
41.917577
 42
-0.013285
 10
23.71176
 20
41.887003
 42
-0.01266
 10
22.532764
 20
41.916812
 42
-0.021532
 10
21.551016
 20
42.009026
 42
-0.024154
 10
20.665696
 20
42.174713
 42
-0.022911
 10
19.784454
 20
42.427279
 42
-0.01311
 10
19.087552
 20
42.68258
 42
-0.009284
 10
18.318869
 20
43.0039
 42
-0.009379
 10
17.595544
 20
43.338491
 42
-0.01952
 10
17.047744
 20
43.631424
 42
-0.026814
 10
16.521281
 20
43.979142
 42
-0.011864
 10
15.86334
 20
44.490881
 42
-0.011703
 10
15.190222
 20
45.067319
 42
-0.015451
 10
14.606252
 20
45.625125
 42
-0.020754
 10
14.047812
 20
46.241767
 42
-0.013399
 10
13.451191
 20
46.998541
 42
-0.013472
 10
12.906774
 20
47.771096
 42
-0.024635
 10
12.512087
 20
48.433026
 42
-0.017985
 10
12.182028
 20
49.11206
 42
-0.010967
 10
11.839256
 20
49.93529
 42
-0.010987
 10
11.534994
 20
50.767181
 42
-0.019084
 10
11.324385
 20
51.471664
 42
-0.021166
 10
11.170245
 20
52.194815
 42
-0.01183
 10
11.041086
 20
53.0854
 42
-0.011786
 10
10.952913
 20
53.993503
 42
-0.01874
 10
10.925015
 20
54.773664
 42
-0.017093
 10
10.952546
 20
55.53991
 42
-0.011808
 10
11.033767
 20
56.40408
 42
-0.01192
 10
11.151434
 20
57.232076
 42
-0.023785
 10
11.291
 20
57.878735
 42
-0.015676
 10
11.476004
 20
58.495366
 42
-0.009051
 10
11.735051
 20
59.225523
 42
-0.009039
 10
12.021846
 20
59.949638
 42
-0.014959
 10
12.292958
 20
60.548512
 42
-0.03356
 10
12.641055
 20
61.153513
 42
-0.014814
 10
13.176503
 20
61.905397
 42
-0.014585
 10
13.793243
 20
62.671783
 42
-0.019011
 10
14.403472
 20
63.333679
 42
-0.013633
 10
15.050595
 20
63.949612
 42
-0.010955
 10
15.778495
 20
64.577209
 42
-0.011111
 10
16.477159
 20
65.127784
 42
-0.027603
 10
17.018
 20
65.489903
 42
-0.019778
 10
17.572913
 20
65.78964
 42
-0.009349
 10
18.310225
 20
66.134055
 42
-0.00925
 10
19.096341
 20
66.466238
 42
-0.012904
 10
19.812
 20
66.731943
 42
-0.02184
 10
20.721328
 20
66.999361
 42
-0.024882
 10
21.61198
 20
67.173046
 42
-0.022306
 10
22.593527
 20
67.26978
 42
-0.012703
  0
LWPOLYLINE
  5
D58
330
1D
100
AcDbEntity
  8
0
100
AcDbPolyline
 90
       56
 70
     1
 43
0.0
 10
127.472379
 20
48.006
 42
-0.031539
 10
127.872257
 20
47.980751
 42
-0.027599
 10
128.284354
 20
47.905209
 42
-0.028593
 10
128.649499
 20
47.79479
 42
-0.070252
 10
128.896149
 20
47.662881
 42
-0.166524
 10
129.198584
 20
47.229614
 42
-0.008559
 10
129.648037
 20
45.555363
 42
-0.008471
 10
130.248287
 20
42.970907
 42
-0.001805
 10
131.199686
 20
38.455381
 42
0.000078
 10
132.058859
 20
34.30661
 42
0.00004
 10
133.138689
 20
29.098493
 42
0.000039
 10
134.252331
 20
23.731575
 42
0.000059
 10
135.224729
 20
19.05
 42
-0.001206
 10
136.06427
 20
14.960996
 42
-0.001836
 10
136.771728
 20
11.40565
 42
-0.00065
 10
137.366637
 20
8.336269
 42
-0.047845
 10
137.414739
 20
7.828935
 42
-0.068669
 10
137.369983
 20
7.507174
 42
-0.057961
 10
137.238829
 20
7.189126
 42
-0.054002
 10
137.027263
 20
6.889506
 42
-0.045422
 10
136.744746
 20
6.622435
 42
-0.112906
 10
136.091862
 20
6.313748
 42
-0.039136
 10
135.053477
 20
6.168937
 42
-0.013996
 10
133.142962
 20
6.107126
 42
-0.001088
 10
128.02964
 20
6.096
 42
-0.001128
 10
123.029665
 20
6.107283
 42
-0.013182
 10
121.078705
 20
6.167538
 42
-0.033555
 10
120.021702
 20
6.29963
 42
-0.140569
 10
119.456505
 20
6.58724
 42
-0.0673
 10
119.211577
 20
6.886203
 42
-0.016257
 10
118.893322
 20
7.442736
 42
-0.016392
 10
118.5671
 20
8.11093
 42
-0.015623
 10
118.279728
 20
8.80974
 42
-0.000999
 10
117.889488
 20
9.856298
 42
-0.000133
 10
117.070752
 20
12.067282
 42
-0.000154
 10
116.101634
 20
14.688991
 42
-0.000129
 10
115.076118
 20
17.468114
 42
-0.001978
 10
114.097233
 20
20.155691
 42
-0.00303
 10
113.272272
 20
22.493215
 42
-0.001048
 10
112.577133
 20
24.5153
 42
-0.082441
 10
112.522
 20
24.847404
 42
-0.12803
 10
112.605188
 20
25.166955
 42
-0.001585
 10
113.652429
 20
27.028162
 42
-0.004563
 10
114.895337
 20
29.174916
 42
-0.002957
 10
116.37027
 20
31.63629
 42
0.000153
 10
118.028825
 20
34.36921
 42
0.000119
 10
119.831171
 20
37.342698
 42
0.00012
 10
121.510147
 20
40.115635
 42
0.000291
 10
122.748108
 20
42.164
 42
-0.001956
 10
123.762118
 20
43.829253
 42
-0.002446
 10
124.716766
 20
45.366384
 42
-0.001973
 10
125.529215
 20
46.649118
 42
-0.018929
 10
125.897764
 20
47.1805
 42
-0.031154
 10
126.26017
 20
47.6051
 42
-0.079947
 10
126.58254
 20
47.846332
 42
-0.083969
 10
126.954498
 20
47.967666
 42
-0.03696
  0
LWPOLYLINE
  5
D92
330
1D
100
AcDbEntity
  8
0
100
AcDbPolyline
 90
       54
 70
     1
 43
0.0
 10
48.669139
 20
47.752
 42
-0.044408
 10
49.040379
 20
47.718963
 42
-0.039433
 10
49.415568
 20
47.620622
 42
-0.041271
 10
49.748335
 20
47.47295
 42
-0.071431
 10
49.990103
 20
47.291897
 42
-0.038569
 10
50.235727
 20
47.005145
 42
-0.006386
 10
50.657814
 20
46.411939
 42
-0.006979
 10
51.136582
 20
45.699498
 42
-0.006123
 10
51.617058
 20
44.942397
 42
-0.0011
 10
52.346476
 20
43.755469
 42
-0.000114
 10
54.055524
 20
40.959267
 42
-0.000142
 10
56.089809
 20
37.627107
 42
-0.000113
 10
58.279664
 20
34.036
 42
-0.00158
 10
61.184673
 20
29.235632
 42
-0.008952
 10
62.6782
 20
26.646057
 42
-0.010425
 10
63.551376
 20
24.986682
 42
-0.178905
 10
63.617413
 20
24.385909
 42
-0.024282
 10
63.479071
 20
23.927575
 42
-0.000513
 10
62.684221
 20
21.699853
 42
-0.001189
 10
61.745698
 20
19.097481
 42
-0.000801
 10
60.662473
 20
16.130909
 42
-0.000797
 10
59.55681
 20
13.13265
 42
-0.001083
 10
58.5488
 20
10.43053
 42
-0.000715
 10
57.694151
 20
8.164426
 42
-0.012236
 10
57.394597
 20
7.42847
 42
-0.031189
 10
57.151865
 20
6.95459
 42
-0.042523
 10
56.872819
 20
6.564323
 42
-0.048643
 10
56.57064
 20
6.272561
 42
-0.076984
 10
56.258292
 20
6.09497
 42
-0.081008
 10
55.736146
 20
5.988225
 42
-0.00259
 10
53.573661
 20
5.912911
 42
-0.004706
 10
50.921785
 20
5.859281
 42
-0.002702
 10
47.723919
 20
5.842
 10
39.854909
 20
5.842
 10
39.231455
 20
6.465455
 42
-0.02745
 10
38.99284
 20
6.731812
 42
-0.029564
 10
38.79114
 20
7.016434
 42
-0.030905
 10
38.649091
 20
7.279185
 42
-0.108884
 10
38.608
 20
7.465639
 42
-0.049571
 10
38.637038
 20
7.757817
 42
-0.000233
 10
39.237074
 20
10.739504
 42
-0.001091
 10
39.928621
 20
14.129486
 42
-0.000689
 10
40.749528
 20
18.081685
 42
0.000061
 10
41.709773
 20
22.67571
 42
0.000038
 10
42.829188
 20
28.036557
 42
0.000039
 10
43.928571
 20
33.305525
 42
0.000071
 10
44.821972
 20
37.592
 42
-0.001578
 10
45.871731
 20
42.553771
 42
-0.009052
 10
46.483979
 20
45.171521
 42
-0.011931
 10
46.931773
 20
46.778769
 42
-0.144796
 10
47.280583
 20
47.3075
 42
-0.063587
 10
47.544751
 20
47.477954
 42
-0.034068
 10
47.906146
 20
47.621428
 42
-0.033292
 10
48.300847
 20
47.719378
 42
-0.044201
  0
LWPOLYLINE
  5
DCA
330
1D
100
AcDbEntity
  8
0
100
AcDbPolyline
 90
       48
 70
     1
 43
0.0
 10
169.214797
 20
44.196
 42
-0.038269
 10
169.600226
 20
44.166456
 42
-0.042634
 10
169.962508
 20
44.078483
 42
-0.047025
 10
170.264617
 20
43.944504
 42
-0.091782
 10
170.466399
 20
43.776452
 42
-0.14211
 10
170.647544
 20
43.360777
 42
-0.013976
 10
170.758465
 20
42.262895
 42
-0.011521
 10
170.841813
 20
40.587211
 42
-0.002834
 10
170.899687
 20
37.830342
 42
-0.003326
 10
170.921385
 20
35.327838
 42
-0.008733
 10
170.893652
 20
33.532642
 42
-0.007878
 10
170.830111
 20
32.228074
 42
-0.107151
 10
170.70025
 20
31.77289
 42
-0.045699
 10
170.5468
 20
31.540064
 42
-0.02357
 10
170.316225
 20
31.277805
 42
-0.023219
 10
170.051721
 20
31.028393
 42
-0.032404
 10
169.791914
 20
30.833
 42
-0.047771
 10
169.494045
 20
30.676192
 42
-0.046787
 10
169.169762
 20
30.577443
 42
-0.04867
 10
168.846318
 20
30.543413
 42
-0.063451
 10
168.55106
 20
30.578767
 42
-0.089314
 10
168.218086
 20
30.729088
 42
-0.014065
 10
167.635086
 20
31.154468
 42
-0.015237
 10
166.970208
 20
31.702033
 42
-0.012781
 10
166.298771
 20
32.321267
 42
0.016961
 10
165.547867
 20
33.002266
 42
0.011133
 10
164.640283
 20
33.736846
 42
0.011204
 10
163.723565
 20
34.413364
 42
0.021085
 10
162.94972
 20
34.910676
 42
-0.010396
 10
162.284142
 20
35.318579
 42
-0.01412
 10
161.70216
 20
35.71575
 42
-0.010991
 10
161.239178
 20
36.06703
 42
-0.134131
 10
161.108764
 20
36.244744
 42
-0.073487
 10
161.070526
 20
36.415984
 42
-0.026489
 10
161.065519
 20
36.666108
 42
-0.025598
 10
161.089021
 20
36.944798
 42
-0.027654
 10
161.140658
 20
37.212413
 42
-0.106827
 10
161.309223
 20
37.55371
 42
-0.027977
 10
161.717589
 20
38.012294
 42
-0.02459
 10
162.292955
 20
38.535705
 42
-0.015036
 10
163.018729
 20
39.097713
 42
0.01785
 10
163.804782
 20
39.713505
 42
0.008889
 10
164.757504
 20
40.545755
 42
0.008811
 10
165.715006
 20
41.443873
 42
0.012811
 10
166.524575
 20
42.271868
 42
-0.007175
 10
167.567198
 20
43.362548
 42
-0.043201
 10
168.16268
 20
43.871514
 42
-0.081987
 10
168.653399
 20
44.112973
 42
-0.073547
  0
LWPOLYLINE
  5
DFC
330
1D
100
AcDbEntity
  8
0
100
AcDbPolyline
 90
       46
 70
     1
 43
0.0
 10
6.889465
 20
43.688
 42
-0.092777
 10
7.38336
 20
43.59556
 42
-0.067507
 10
7.873629
 20
43.324624
 42
-0.037143
 10
8.494289
 20
42.786904
 42
-0.007779
 10
9.492965
 20
41.750925
 42
0.012217
 10
10.302321
 20
40.926113
 42
0.008932
 10
11.239054
 20
40.048966
 42
0.009034
 10
12.156954
 20
39.249364
 42
0.019655
 10
12.895346
 20
38.677171
 42
-0.011859
 10
13.524834
 20
38.204888
 42
-0.013798
 10
14.099474
 20
37.725782
 42
-0.012843
 10
14.561461
 20
37.296893
 42
-0.076512
 10
14.758444
 20
37.034588
 42
-0.056216
 10
14.8519
 20
36.79998
 42
-0.036326
 10
14.908372
 20
36.512777
 42
-0.036299
 10
14.922716
 20
36.220042
 42
-0.055633
 10
14.888631
 20
35.968629
 42
-0.106511
 10
14.760806
 20
35.709412
 42
-0.035796
 10
14.474218
 20
35.396748
 42
-0.033225
 10
14.093144
 20
35.081658
 42
-0.029922
 10
13.660533
 20
34.807625
 42
0.011485
 10
13.17063
 20
34.522035
 42
0.006634
 10
12.594013
 20
34.157284
 42
0.006627
 10
12.024755
 20
33.775684
 42
0.01104
 10
11.557
 20
33.437582
 42
0.01125
 10
11.067117
 20
33.049107
 42
0.004549
 10
10.415967
 20
32.498362
 42
0.004498
 10
9.725704
 20
31.892774
 42
0.005697
 10
9.099356
 20
31.320243
 42
-0.014568
 10
8.415713
 20
30.717249
 42
-0.03112
 10
7.847559
 20
30.301742
 42
-0.040803
 10
7.374042
 20
30.050594
 42
-0.101875
 10
6.992311
 20
29.972
 42
-0.07388
 10
6.69163
 20
30.016672
 42
-0.03891
 10
6.339188
 20
30.154494
 42
-0.037563
 10
5.991724
 20
30.356047
 42
-0.0462
 10
5.703455
 20
30.595455
 10
5.08
 20
31.218909
 10
5.08
 20
36.945455
 42
-0.001707
 10
5.092072
 20
40.482074
 42
-0.018621
 10
5.154766
 20
41.903948
 42
-0.049606
 10
5.297658
 20
42.687272
 42
-0.127137
 10
5.588
 20
43.18
 42
-0.061596
 10
5.84447
 20
43.38002
 42
-0.04182
 10
6.177374
 20
43.543191
 42
-0.041108
 10
6.540862
 20
43.651649
 42
-0.051997
  0
LWPOLYLINE
  5
E2C
330
1D
100
AcDbEntity
  8
0
100
AcDbPolyline
 90
       52
 70
     1
 43
0.0
 10
138.614394
 20
41.148
 42
-0.091895
 10
139.027953
 20
41.071345
 42
-0.029026
 10
139.602752
 20
40.811487
 42
-0.024285
 10
140.297402
 20
40.403378
 42
-0.013594
 10
141.102439
 20
39.844397
 42
0.014712
 10
141.919198
 20
39.279978
 42
0.008983
 10
142.913904
 20
38.660073
 42
0.009
 10
143.922417
 20
38.080838
 42
0.01576
 10
144.78
 20
37.643246
 42
-0.006603
 10
145.541941
 20
37.271879
 42
-0.007682
 10
146.255978
 20
36.898251
 42
-0.006923
 10
146.849836
 20
36.565062
 42
-0.044997
 10
147.1295
 20
36.367481
 42
-0.055045
 10
147.299606
 20
36.187
 42
-0.04257
 10
147.443428
 20
35.957982
 42
-0.043732
 10
147.541687
 20
35.717745
 42
-0.075352
 10
147.574
 20
35.50455
 42
-0.151358
 10
147.48635
 20
35.221638
 42
-0.012472
 10
147.028908
 20
34.588696
 42
-0.015803
 10
146.429146
 20
33.850592
 42
-0.011507
 10
145.718369
 20
33.067417
 42
0.009713
 10
144.930122
 20
32.205117
 42
0.007301
 10
144.095685
 20
31.227479
 42
0.007387
 10
143.33755
 20
30.284499
 42
0.016812
 10
142.800121
 20
29.54549
 42
-0.016257
 10
142.355422
 20
28.932565
 42
-0.019669
 10
141.897938
 20
28.388873
 42
-0.018646
 10
141.483495
 20
27.966669
 42
-0.112991
 10
141.221045
 20
27.812062
 42
-0.053912
 10
140.968514
 20
27.760973
 42
-0.024096
 10
140.629355
 20
27.746139
 42
-0.023517
 10
140.265676
 20
27.764884
 42
-0.029429
 10
139.932023
 20
27.817827
 42
-0.052125
 10
139.612418
 20
27.923869
 42
-0.048279
 10
139.312732
 20
28.095855
 42
-0.05108
 10
139.070081
 20
28.308485
 42
-0.085124
 10
138.921726
 20
28.535255
 42
-0.04404
 10
138.790833
 20
28.928302
 42
-0.001853
 10
138.455376
 20
30.362693
 42
-0.003182
 10
138.074513
 20
32.068524
 42
-0.002256
 10
137.667995
 20
33.987148
 42
-0.001902
 10
137.278721
 20
35.902814
 42
-0.002751
 10
136.950448
 20
37.599017
 42
-0.001419
 10
136.684262
 20
39.038678
 42
-0.045028
 10
136.652
 20
39.396194
 42
-0.090593
 10
136.695378
 20
39.633641
 42
-0.035866
 10
136.83514
 20
39.935917
 42
-0.034022
 10
137.036874
 20
40.248715
 42
-0.036159
 10
137.275455
 20
40.524545
 42
-0.045671
 10
137.575482
 20
40.774254
 42
-0.04179
 10
137.924618
 20
40.973836
 42
-0.043555
 10
138.284108
 20
41.104539
 42
-0.06551
  0
LWPOLYLINE
  5
E62
330
1D
100
AcDbEntity
  8
0
100
AcDbPolyline
 90
       48
 70
     1
 43
0.0
 10
37.452402
 20
40.894
 42
-0.06855
 10
37.72197
 20
40.856868
 42
-0.031337
 10
38.057977
 20
40.73936
 42
-0.0303
 10
38.401986
 20
40.569067
 42
-0.036585
 10
38.700746
 20
40.367565
 42
-0.045062
 10
39.03557
 20
40.051504
 42
-0.082208
 10
39.23472
 20
39.733931
 42
-0.072237
 10
39.335794
 20
39.341103
 42
-0.02819
 10
39.364572
 20
38.780065
 42
-0.037887
 10
39.311656
 20
38.127028
 42
-0.00427
 10
39.067154
 20
36.659846
 42
-0.005158
 10
38.74281
 20
34.91692
 42
-0.004168
 10
38.359707
 20
33.052305
 42
-0.005177
 10
37.911962
 20
31.062477
 42
-0.010257
 10
37.508294
 20
29.495959
 42
-0.00875
 10
37.152793
 20
28.305569
 42
-0.107373
 10
36.917779
 20
27.896661
 42
-0.066349
 10
36.652514
 20
27.671992
 42
-0.073683
 10
36.346615
 20
27.534239
 42
-0.059921
 10
35.963478
 20
27.473853
 42
-0.02773
 10
35.458633
 20
27.483356
 42
-0.052693
 10
34.835386
 20
27.596482
 42
-0.10417
 10
34.394316
 20
27.833124
 42
-0.05732
 10
33.935583
 20
28.319404
 42
-0.007646
 10
33.107248
 20
29.464
 42
0.013966
 10
32.496296
 20
30.286133
 42
0.009667
 10
31.761995
 20
31.182469
 42
0.009756
 10
31.022407
 20
32.016928
 42
0.01969
 10
30.401968
 20
32.639
 42
-0.010378
 10
29.855225
 20
33.167141
 42
-0.011249
 10
29.345703
 20
33.703816
 42
-0.010801
 10
28.930183
 20
34.182042
 42
-0.052415
 10
28.730773
 20
34.4805
 42
-0.041929
 10
28.605046
 20
34.77748
 42
-0.073776
 10
28.560205
 20
35.039679
 42
-0.077508
 10
28.594212
 20
35.294611
 42
-0.051064
 10
28.706723
 20
35.568825
 42
-0.112469
 10
28.929421
 20
35.825109
 42
-0.01567
 10
29.51361
 20
36.224834
 42
-0.017272
 10
30.247768
 20
36.659133
 42
-0.013878
 10
31.06516
 20
37.076291
 42
0.016278
 10
31.997218
 20
37.55762
 42
0.009519
 10
33.082761
 20
38.191157
 42
0.009513
 10
34.146092
 20
38.867248
 42
0.015917
 10
35.010156
 20
39.480466
 42
-0.013781
 10
35.765965
 20
40.021725
 42
-0.017311
 10
36.496117
 20
40.478774
 42
-0.015582
 10
37.124605
 20
40.816842
 42
-0.116105
  0
LWPOLYLINE
  5
E94
330
1D
100
AcDbEntity
  8
0
100
AcDbPolyline
 90
       76
 70
     1
 43
0.0
 10
156.513632
 20
30.380939
 42
-0.016856
 10
157.487943
 20
30.295591
 42
-0.02448
 10
158.338441
 20
30.149566
 42
-0.02649
 10
159.11645
 20
29.932609
 42
-0.026109
 10
159.871021
 20
29.633735
 42
-0.02697
 10
160.496813
 20
29.305342
 42
-0.015095
 10
161.221912
 20
28.843259
 42
-0.015026
 10
161.928573
 20
28.330603
 42
-0.023595
 10
162.499971
 20
27.84457
 42
-0.022171
 10
163.011206
 20
27.322004
 42
-0.016157
 10
163.533448
 20
26.699188
 42
-0.016383
 10
163.991018
 20
26.075187
 42
-0.034205
 10
164.296301
 20
25.556023
 42
-0.022095
 10
164.536137
 20
25.017526
 42
-0.01192
 10
164.785855
 20
24.335503
 42
-0.011851
 10
165.007618
 20
23.627248
 42
-0.018249
 10
165.16225
 20
23.004141
 42
-0.022461
 10
165.289987
 20
22.221766
 42
-0.030505
 10
165.329984
 20
21.507474
 42
-0.027382
 10
165.283855
 20
20.737085
 42
-0.013819
 10
165.145919
 20
19.773566
 42
-0.020564
 10
164.977327
 20
18.986258
 42
-0.014912
 10
164.727897
 20
18.12499
 42
-0.015109
 10
164.441465
 20
17.320214
 42
-0.031581
 10
164.161192
 20
16.717529
 42
-0.02808
 10
163.818379
 20
16.164088
 42
-0.014935
 10
163.336551
 20
15.517738
 42
-0.014821
 10
162.803235
 20
14.884686
 42
-0.022263
 10
162.298381
 20
14.368453
 42
-0.016371
 10
161.768281
 20
13.90419
 42
-0.012455
 10
161.159071
 20
13.42978
 42
-0.012632
 10
160.564969
 20
13.013255
 42
-0.028622
 10
160.091261
 20
12.736355
 42
-0.030257
 10
159.585353
 20
12.51572
 42
-0.012955
 10
158.886135
 20
12.280243
 42
-0.012763
 10
158.12583
 20
12.06703
 42
-0.016419
 10
157.416682
 20
11.912134
 42
-0.016441
 10
156.513221
 20
11.776204
 42
-0.029984
 10
155.768813
 20
11.734097
 42
-0.030363
 10
155.031008
 20
11.781494
 42
-0.017351
 10
154.149246
 20
11.923392
 42
-0.015816
 10
153.460074
 20
12.08177
 42
-0.012242
 10
152.72013
 20
12.296145
 42
-0.012421
 10
152.038798
 20
12.530524
 42
-0.028904
 10
151.544671
 20
12.747613
 42
-0.030198
 10
151.075238
 20
13.024001
 42
-0.012385
 10
150.472164
 20
13.452059
 42
-0.012201
 10
149.845571
 20
13.944858
 42
-0.015297
 10
149.290573
 20
14.433037
 42
-0.023227
 10
148.76066
 20
14.976988
 42
-0.015929
 10
148.20939
 20
15.639471
 42
-0.016086
 10
147.718316
 20
16.312989
 42
-0.031138
 10
147.378291
 20
16.88597
 42
-0.028869
 10
147.059814
 20
17.607638
 42
-0.032934
 10
146.842506
 20
18.330478
 42
-0.028412
 10
146.700694
 20
19.159681
 42
-0.014367
 10
146.611904
 20
20.216206
 42
-0.014118
 10
146.584868
 20
21.221922
 42
-0.020541
 10
146.622504
 20
22.108319
 42
-0.02285
 10
146.726373
 20
22.907766
 42
-0.027011
 10
146.899347
 20
23.650189
 42
-0.024032
 10
147.111155
 20
24.266623
 42
-0.014118
 10
147.42004
 20
24.98268
 42
-0.014103
 10
147.770077
 20
25.682679
 42
-0.023286
 10
148.109063
 20
26.250174
 42
-0.029686
 10
148.515822
 20
26.791528
 42
-0.015833
 10
149.077854
 20
27.412774
 42
-0.015709
 10
149.693977
 20
28.012988
 42
-0.023556
 10
150.271179
 20
28.493074
 42
-0.023757
 10
150.895964
 20
28.919772
 42
-0.015227
 10
151.657911
 20
29.357285
 42
-0.015303
 10
152.43209
 20
29.741028
 42
-0.027503
 10
153.0917
 20
30.000354
 42
-0.023318
 10
153.897714
 20
30.226001
 42
-0.028901
 10
154.665662
 20
30.356679
 42
-0.026288
 10
155.499931
 20
30.405289
 42
-0.014827
  0
LWPOLYLINE
  5
EE2
330
1D
100
AcDbEntity
  8
0
100
AcDbPolyline
 90
       80
 70
     1
 43
0.0
 10
19.956399
 20
29.962837
 42
-0.021535
 10
20.645136
 20
29.93726
 42
-0.013691
 10
21.443062
 20
29.8511
 42
-0.013752
 10
22.222867
 20
29.723298
 42
-0.024687
 10
22.852864
 20
29.569588
 42
-0.017902
 10
23.441331
 20
29.371652
 42
-0.012518
 10
24.089951
 20
29.108584
 42
-0.012649
 10
24.699615
 20
28.824808
 42
-0.025546
 10
25.161363
 20
28.565302
 42
-0.020879
 10
25.592158
 20
28.267503
 42
-0.010978
 10
26.103026
 20
27.863965
 42
-0.010903
 10
26.60907
 20
27.426965
 42
-0.016475
 10
27.028166
 20
27.022958
 42
-0.026636
 10
27.423713
 20
26.56971
 42
-0.014789
 10
27.858874
 20
25.978714
 42
-0.014716
 10
28.265222
 20
25.352613
 42
-0.022971
 10
28.573498
 20
24.788744
 42
-0.021611
 10
28.834882
 20
24.189268
 42
-0.012692
 10
29.09773
 20
23.452237
 42
-0.012681
 10
29.323515
 20
22.700633
 42
-0.021062
 10
29.470686
 20
22.05568
 42
-0.022171
 10
29.571964
 20
21.32588
 42
-0.022084
 10
29.608394
 20
20.589014
 42
-0.02166
 10
29.579792
 20
19.838206
 42
-0.019574
 10
29.486341
 20
19.066642
 42
-0.024882
 10
29.340498
 20
18.380473
 42
-0.015802
 10
29.106198
 20
17.597559
 42
-0.015869
 10
28.826786
 20
16.841788
 42
-0.028151
 10
28.542706
 20
16.241708
 42
-0.02576
 10
28.199299
 20
15.681522
 42
-0.015336
 10
27.736919
 20
15.05017
 42
-0.015331
 10
27.236131
 20
14.447646
 42
-0.025499
 10
26.774237
 20
13.976136
 42
-0.021356
 10
26.269895
 20
13.549601
 42
-0.012849
 10
25.638254
 20
13.085565
 42
-0.012859
 10
24.985352
 20
12.655757
 42
-0.021866
 10
24.415803
 20
12.335116
 42
-0.02806
 10
23.809172
 20
12.069347
 42
-0.015348
 10
23.039773
 20
11.809139
 42
-0.015255
 10
22.239637
 20
11.592066
 42
-0.023437
 10
21.534543
 20
11.458255
 42
-0.020052
 10
20.811905
 20
11.385324
 42
-0.014398
 10
20.000769
 20
11.35961
 42
-0.014573
 10
19.211863
 20
11.380322
 42
-0.025353
 10
18.560869
 20
11.449644
 42
-0.024367
 10
17.93827
 20
11.579424
 42
-0.013933
 10
17.200613
 20
11.793216
 42
-0.013894
 10
16.468919
 20
12.050192
 42
-0.022373
 10
15.863082
 20
12.313705
 42
-0.032422
 10
15.271198
 20
12.652466
 42
-0.016989
 10
14.579545
 20
13.144816
 42
-0.016829
 10
13.902046
 20
13.699733
 42
-0.02472
 10
13.349102
 20
14.235202
 42
-0.023111
 10
12.843111
 20
14.8289
 42
-0.014722
 10
12.308187
 20
15.562324
 42
-0.014789
 10
11.824987
 20
16.3143
 42
-0.026471
 10
11.480324
 20
16.962611
 42
-0.023226
 10
11.121218
 20
17.83808
 42
-0.042148
 10
10.92349
 20
18.585665
 42
-0.033418
 10
10.828637
 20
19.464524
 42
-0.0097
 10
10.79959
 20
20.828
 42
-0.009634
 10
10.821962
 20
22.116264
 42
-0.028356
 10
10.904538
 20
22.998478
 42
-0.037838
 10
11.06842
 20
23.712327
 42
-0.032915
 10
11.343866
 20
24.42862
 42
-0.028177
 10
11.630382
 20
24.966746
 42
-0.014476
 10
12.045649
 20
25.608186
 42
-0.01434
 10
12.512558
 20
26.245649
 42
-0.020968
 10
12.962167
 20
26.77644
 42
-0.014612
 10
13.433993
 20
27.259211
 42
-0.011788
 10
13.967576
 20
27.750414
 42
-0.011963
 10
14.48202
 20
28.180714
 42
-0.029776
 10
14.883077
 20
28.462881
 42
-0.021236
 10
15.303565
 20
28.698697
 42
-0.009345
 10
15.878123
 20
28.976207
 42
-0.009229
 10
16.499332
 20
29.24828
 42
-0.012233
 10
17.074777
 20
29.471398
 42
-0.028131
 10
17.700291
 20
29.657497
 42
-0.016004
 10
18.473938
 20
29.815066
 42
-0.015929
 10
19.267416
 20
29.924507
 42
-0.02482
  0
LWPOLYLINE
  5
F34
330
1D
100
AcDbEntity
  8
0
100
AcDbPolyline
 90
       44
 70
     1
 43
0.0
 10
68.326
 20
16.1028
 42
-0.053151
 10
68.60747
 20
16.012307
 42
-0.029139
 10
68.929826
 20
15.846313
 42
-0.02871
 10
69.240935
 20
15.637471
 42
-0.040457
 10
69.489875
 20
15.41493
 42
-0.042665
 10
69.796373
 20
15.032155
 42
-0.003744
 10
70.480256
 20
13.99381
 42
-0.004887
 10
71.275855
 20
12.739232
 42
-0.003783
 10
72.118712
 20
11.357741
 42
-0.005326
 10
73.108009
 20
9.667737
 42
-0.017542
 10
73.708871
 20
8.524406
 42
-0.022568
 10
74.052319
 20
7.720291
 42
-0.152982
 10
74.075769
 20
7.293741
 42
-0.065736
 10
73.978994
 20
7.051427
 42
-0.037409
 10
73.804193
 20
6.788106
 42
-0.036664
 10
73.584815
 20
6.54499
 42
-0.049618
 10
73.351932
 20
6.362664
 42
-0.09491
 10
72.896261
 20
6.182867
 42
-0.021674
 10
72.072153
 20
6.064018
 42
-0.015869
 10
70.872298
 20
5.982121
 42
-0.005099
 10
69.088
 20
5.935334
 42
-0.006613
 10
67.628975
 20
5.931263
 42
-0.008573
 10
66.291672
 20
5.968158
 42
-0.006721
 10
65.177679
 20
6.033032
 42
-0.073361
 10
64.740456
 20
6.12992
 42
-0.053396
 10
64.461967
 20
6.271811
 42
-0.035025
 10
64.174627
 20
6.489314
 42
-0.035109
 10
63.921626
 20
6.74371
 42
-0.055322
 10
63.747418
 20
6.997298
 42
-0.122363
 10
63.623976
 20
7.485045
 42
-0.05841
 10
63.696949
 20
8.132004
 42
-0.025521
 10
63.998194
 20
9.179463
 42
-0.00336
 10
64.764828
 20
11.362048
 42
-0.003276
 10
65.300341
 20
12.824277
 42
-0.004695
 10
65.79566
 20
14.11277
 42
-0.002605
 10
66.229293
 20
15.193422
 42
-0.070587
 10
66.384048
 20
15.458913
 42
-0.047309
 10
66.525654
 20
15.606938
 42
-0.023932
 10
66.728892
 20
15.766358
 42
-0.023534
 10
66.95629
 20
15.912189
 42
-0.032267
 10
67.174182
 20
16.019783
 42
-0.051766
 10
67.417985
 20
16.092727
 42
-0.02884
 10
67.725716
 20
16.132838
 42
-0.02847
 10
68.045072
 20
16.137638
 42
-0.040764
  0
LWPOLYLINE
  5
F62
330
1D
100
AcDbEntity
  8
0
100
AcDbPolyline
 90
       40
 70
     1
 43
0.0
 10
108.204
 20
16.256
 42
-0.052211
 10
108.513258
 20
16.223618
 42
-0.033891
 10
108.859397
 20
16.125428
 42
-0.033946
 10
109.188063
 20
15.981785
 42
-0.05353
 10
109.444126
 20
15.8115
 42
-0.100236
 10
109.722617
 20
15.465121
 42
-0.010295
 10
110.188175
 20
14.517812
 42
-0.012104
 10
110.710338
 20
13.322934
 42
-0.008193
 10
111.249735
 20
11.938
 42
-0.005951
 10
111.736621
 20
10.575098
 42
-0.007767
 10
112.147678
 20
9.3165
 42
-0.005963
 10
112.461778
 20
8.257049
 42
-0.068987
 10
112.521469
 20
7.828935
 42
-0.068576
 10
112.477332
 20
7.506776
 42
-0.058321
 10
112.346873
 20
7.18904
 42
-0.054297
 10
112.135654
 20
6.889775
 42
-0.045328
 10
111.852746
 20
6.622435
 42
-0.080668
 10
111.327896
 20
6.331929
 42
-0.057595
 10
110.67283
 20
6.17891
 42
-0.025438
 10
109.602257
 20
6.110782
 42
-0.003171
 10
107.271809
 20
6.096
 42
-0.00402
 10
105.201091
 20
6.112648
 42
-0.018521
 10
104.003473
 20
6.176322
 42
-0.031936
 10
103.232844
 20
6.29595
 42
-0.090795
 10
102.734063
 20
6.506213
 42
-0.053712
 10
102.479124
 20
6.715494
 42
-0.056461
 10
102.279418
 20
6.97106
 42
-0.059866
 10
102.151426
 20
7.249463
 42
-0.077991
 10
102.108
 20
7.526177
 42
-0.112831
 10
102.196996
 20
7.915536
 42
-0.006504
 10
102.746987
 20
9.018878
 42
-0.009634
 10
103.449982
 20
10.322061
 42
-0.006915
 10
104.283275
 20
11.751465
 42
-0.004741
 10
105.154361
 20
13.168705
 42
-0.006359
 10
105.972273
 20
14.435508
 42
-0.004523
 10
106.67879
 20
15.479212
 42
-0.064908
 10
106.978414
 20
15.8115
 42
-0.055228
 10
107.228899
 20
15.981788
 42
-0.034712
 10
107.552874
 20
16.125428
 42
-0.034592
 10
107.895779
 20
16.223577
 42
-0.052452
  0
ENDSEC
  0
SECTION
  2
OBJECTS
  0
DICTIONARY
  5
C
330
0
100
AcDbDictionary
281
     1
  3
ACAD_DETAILVIEWSTYLE
350
1018
  3
ACAD_GROUP
350
D
  3
ACAD_LAYOUT
350
1A
  3
ACAD_MATERIAL
350
FCB
  3
ACAD_MLEADERSTYLE
350
FD1
  3
ACAD_MLINESTYLE
350
17
  3
ACAD_PLOTSETTINGS
350
19
  3
ACAD_PLOTSTYLENAME
350
E
  3
ACAD_SCALELIST
350
F8C
  3
ACAD_SECTIONVIEWSTYLE
350
1019
  3
ACAD_TABLESTYLE
350
FCF
  3
ACAD_VISUALSTYLE
350
FB2
  3
ACDB_RECOMPOSE_DATA
350
1014
  3
AcDbVariableDictionary
350
FD5
  0
DICTIONARY
  5
FD3
330
8
100
AcDbDictionary
280
     1
281
     1
  3
ACAD_XREC_ROUNDTRIP
360
FD4
  0
DICTIONARY
  5
1018
102
{ACAD_REACTORS
330
C
102
}
330
C
100
AcDbDictionary
281
     1
  0
DICTIONARY
  5
D
102
{ACAD_REACTORS
330
C
102
}
330
C
100
AcDbDictionary
281
     1
  0
DICTIONARY
  5
1A
102
{ACAD_REACTORS
330
C
102
}
330
C
100
AcDbDictionary
281
     1
  3
Layout1
350
1C
  3
Model
350
1E
  0
DICTIONARY
  5
FCB
102
{ACAD_REACTORS
330
C
102
}
330
C
100
AcDbDictionary
281
     1
  3
ByBlock
350
FCD
  3
ByLayer
350
FCC
  3
Global
350
FCE
  0
DICTIONARY
  5
FD1
102
{ACAD_REACTORS
330
C
102
}
330
C
100
AcDbDictionary
281
     1
  3
Standard
350
FD2
  0
DICTIONARY
  5
17
102
{ACAD_REACTORS
330
C
102
}
330
C
100
AcDbDictionary
281
     1
  3
Standard
350
18
  0
DICTIONARY
  5
19
102
{ACAD_REACTORS
330
C
102
}
330
C
100
AcDbDictionary
281
     1
  0
ACDBDICTIONARYWDFLT
  5
E
102
{ACAD_REACTORS
330
C
102
}
330
C
100
AcDbDictionary
281
     1
  3
Normal
350
F
100
AcDbDictionaryWithDefault
340
F
  0
DICTIONARY
  5
F8C
102
{ACAD_REACTORS
330
C
102
}
330
C
100
AcDbDictionary
281
     1
  3
A0
350
F8D
  3
A1
350
F8E
  3
A2
350
F8F
  3
A3
350
F90
  3
A4
350
F91
  3
A5
350
F92
  3
A6
350
F93
  3
A7
350
F94
  3
A8
350
F95
  3
A9
350
F96
  3
B0
350
F97
  3
B1
350
F98
  3
B2
350
F99
  3
B3
350
F9A
  3
B4
350
F9B
  3
B5
350
F9C
  3
B6
350
F9D
  3
B7
350
F9E
  3
B8
350
F9F
  3
B9
350
FA0
  3
C0
350
FA1
  3
C1
350
FA2
  3
C2
350
FA3
  3
C3
350
FA4
  3
C4
350
FA5
  3
C5
350
FA6
  3
C6
350
FA7
  3
C7
350
FA8
  3
C8
350
FA9
  3
C9
350
FAA
  3
D0
350
FAB
  3
D1
350
FAC
  3
D2
350
FAD
  0
DICTIONARY
  5
1019
102
{ACAD_REACTORS
330
C
102
}
330
C
100
AcDbDictionary
281
     1
  0
DICTIONARY
  5
FCF
102
{ACAD_REACTORS
330
C
102
}
330
C
100
AcDbDictionary
281
     1
  3
Standard
350
FD0
  0
DICTIONARY
  5
FB2
102
{ACAD_REACTORS
330
C
102
}
330
C
100
AcDbDictionary
281
     1
  3
2dWireframe
350
FB7
  3
Basic
350
FBA
  3
Brighten
350
FBE
  3
ColorChange
350
FC2
  3
Conceptual
350
FBC
  3
Dim
350
FBD
  3
EdgeColorOff
350
FC5
  3
Facepattern
350
FC1
  3
Flat
350
FB3
  3
FlatWithEdges
350
FB4
  3
Gouraud
350
FB5
  3
GouraudWithEdges
350
FB6
  3
Hidden
350
FB9
  3
JitterOff
350
FC3
  3
Linepattern
350
FC0
  3
OverhangOff
350
FC4
  3
Realistic
350
FBB
  3
Shaded
350
FCA
  3
Shaded with edges
350
FC9
  3
Shades of Gray
350
FC6
  3
Sketchy
350
FC7
  3
Thicken
350
FBF
  3
Wireframe
350
FB8
  3
X-Ray
350
FC8
  0
XRECORD
  5
1014
102
{ACAD_REACTORS
330
C
102
}
330
C
100
AcDbXrecord
280
     1
 90
        1
330
FD0
  0
DICTIONARY
  5
FD5
102
{ACAD_REACTORS
330
C
102
}
330
C
100
AcDbDictionary
281
     1
  3
CANNOSCALE
350
FD6
  3
CMLEADERSTYLE
350
1016
  3
CTABLESTYLE
350
1015
  3
MSLTSCALE
350
1017
  3
XCLIPFRAME
350
FD7
  0
XRECORD
  5
FD4
102
{ACAD_REACTORS
330
FD3
102
}
330
FD3
100
AcDbXrecord
280
     1
102
VTR_0.000_0.000_1.000_1.000_VISUALSTYLE
340
FB7
102
VTR_0.000_0.000_1.000_1.000_GRIDDISPLAY
 70
     3
102
VTR_0.000_0.000_1.000_1.000_GRIDMAJOR
 70
     5
102
VTR_0.000_0.000_1.000_1.000_DEFAULTLIGHTING
280
     1
102
VTR_0.000_0.000_1.000_1.000_DEFAULTLIGHTINGTYPE
 70
     1
102
VTR_0.000_0.000_1.000_1.000_BRIGHTNESS
141
0.0
102
VTR_0.000_0.000_1.000_1.000_CONTRAST
142
0.0
  0
LAYOUT
  5
1C
102
{ACAD_REACTORS
330
1A
102
}
330
1A
100
AcDbPlotSettings
  1

  2
none_device
  4

  6

 40
0.0
 41
0.0
 42
0.0
 43
0.0
 44
0.0
 45
0.0
 46
0.0
 47
0.0
 48
0.0
 49
0.0
140
0.0
141
0.0
142
1.0
143
1.0
 70
   688
 72
     0
 73
     0
 74
     5
  7

 75
    16
 76
     0
 77
     2
 78
   300
147
1.0
148
0.0
149
0.0
100
AcDbLayout
  1
Layout1
 70
     1
 71
     1
 10
0.0
 20
0.0
 11
12.0
 21
9.0
 12
0.0
 22
0.0
 32
0.0
 14
1.000000000000000E+20
 24
1.000000000000000E+20
 34
1.000000000000000E+20
 15
-1.000000000000000E+20
 25
-1.000000000000000E+20
 35
-1.000000000000000E+20
146
0.0
 13
0.0
 23
0.0
 33
0.0
 16
1.0
 26
0.0
 36
0.0
 17
0.0
 27
1.0
 37
0.0
 76
     0
330
1B
  0
LAYOUT
  5
1E
102
{ACAD_REACTORS
330
1A
102
}
330
1A
100
AcDbPlotSettings
  1

  2
none_device
  4
Letter_(8.50_x_11.00_Inches)
  6

 40
6.35
 41
6.35
 42
6.35000508
 43
6.35000508
 44
215.9
 45
279.4
 46
0.0
 47
0.0
 48
0.0
 49
0.0
140
0.0
141
0.0
142
1.0
143
1.0
 70
  1712
 72
     0
 73
     0
 74
     0
  7

 75
     0
 76
     0
 77
     2
 78
   300
147
1.0
148
0.0
149
0.0
100
AcDbLayout
  1
Model
 70
     1
 71
     0
 10
0.0
 20
0.0
 11
12.0
 21
9.0
 12
0.0
 22
0.0
 32
0.0
 14
0.0
 24
0.0
 34
0.0
 15
176.022
 25
358.648
 35
0.0
146
0.0
 13
0.0
 23
0.0
 33
0.0
 16
1.0
 26
0.0
 36
0.0
 17
0.0
 27
1.0
 37
0.0
 76
     0
330
1D
331
21
  0
MATERIAL
  5
FCD
102
{ACAD_REACTORS
330
FCB
102
}
102
{ACAD_XDICTIONARY
360
100A
102
}
330
FCB
100
AcDbMaterial
  1
ByBlock
  0
MATERIAL
  5
FCC
102
{ACAD_REACTORS
330
FCB
102
}
102
{ACAD_XDICTIONARY
360
1008
102
}
330
FCB
100
AcDbMaterial
  1
ByLayer
  0
MATERIAL
  5
FCE
102
{ACAD_REACTORS
330
FCB
102
}
102
{ACAD_XDICTIONARY
360
100C
102
}
330
FCB
100
AcDbMaterial
  1
Global
  0
MLEADERSTYLE
  5
FD2
102
{ACAD_REACTORS
330
FD1
102
}
102
{ACAD_XDICTIONARY
360
1012
102
}
330
FD1
100
AcDbMLeaderStyle
170
     2
171
     1
172
     0
 90
        2
 40
0.0
 41
0.0
173
     1
 91
-1056964608
340
14
 92
       -2
290
     1
 42
0.09
291
     1
 43
0.36
  3
Standard
341
0
 44
0.18
300

342
11
174
     1
178
     6
175
     1
176
     0
 93
-1056964608
 45
0.18
292
     0
297
     0
 46
0.18
343
0
 94
-1056964608
 47
1.0
 49
1.0
140
1.0
293
     1
141
0.0
294
     1
177
     0
142
1.0
295
     0
296
     0
143
0.125
1001
ACAD_MLEADERVER
1070
     2
  0
MLINESTYLE
  5
18
102
{ACAD_REACTORS
330
17
102
}
330
17
100
AcDbMlineStyle
  2
Standard
 70
     0
  3

 62
   256
 51
90.0
 52
90.0
 71
     2
 49
0.5
 62
   256
  6
BYLAYER
 49
-0.5
 62
   256
  6
BYLAYER
  0
ACDBPLACEHOLDER
  5
F
102
{ACAD_REACTORS
330
E
102
}
330
E
  0
SCALE
  5
F8D
102
{ACAD_REACTORS
330
F8C
102
}
330
F8C
100
AcDbScale
 70
     0
300
1:1
140
1.0
141
1.0
290
     1
  0
SCALE
  5
F8E
102
{ACAD_REACTORS
330
F8C
102
}
330
F8C
100
AcDbScale
 70
     0
300
1:2
140
1.0
141
2.0
290
     0
  0
SCALE
  5
F8F
102
{ACAD_REACTORS
330
F8C
102
}
330
F8C
100
AcDbScale
 70
     0
300
1:4
140
1.0
141
4.0
290
     0
  0
SCALE
  5
F90
102
{ACAD_REACTORS
330
F8C
102
}
330
F8C
100
AcDbScale
 70
     0
300
1:5
140
1.0
141
5.0
290
     0
  0
SCALE
  5
F91
102
{ACAD_REACTORS
330
F8C
102
}
330
F8C
100
AcDbScale
 70
     0
300
1:8
140
1.0
141
8.0
290
     0
  0
SCALE
  5
F92
102
{ACAD_REACTORS
330
F8C
102
}
330
F8C
100
AcDbScale
 70
     0
300
1:10
140
1.0
141
10.0
290
     0
  0
SCALE
  5
F93
102
{ACAD_REACTORS
330
F8C
102
}
330
F8C
100
AcDbScale
 70
     0
300
1:16
140
1.0
141
16.0
290
     0
  0
SCALE
  5
F94
102
{ACAD_REACTORS
330
F8C
102
}
330
F8C
100
AcDbScale
 70
     0
300
1:20
140
1.0
141
20.0
290
     0
  0
SCALE
  5
F95
102
{ACAD_REACTORS
330
F8C
102
}
330
F8C
100
AcDbScale
 70
     0
300
1:30
140
1.0
141
30.0
290
     0
  0
SCALE
  5
F96
102
{ACAD_REACTORS
330
F8C
102
}
330
F8C
100
AcDbScale
 70
     0
300
1:40
140
1.0
141
40.0
290
     0
  0
SCALE
  5
F97
102
{ACAD_REACTORS
330
F8C
102
}
330
F8C
100
AcDbScale
 70
     0
300
1:50
140
1.0
141
50.0
290
     0
  0
SCALE
  5
F98
102
{ACAD_REACTORS
330
F8C
102
}
330
F8C
100
AcDbScale
 70
     0
300
1:100
140
1.0
141
100.0
290
     0
  0
SCALE
  5
F99
102
{ACAD_REACTORS
330
F8C
102
}
330
F8C
100
AcDbScale
 70
     0
300
2:1
140
2.0
141
1.0
290
     0
  0
SCALE
  5
F9A
102
{ACAD_REACTORS
330
F8C
102
}
330
F8C
100
AcDbScale
 70
     0
300
4:1
140
4.0
141
1.0
290
     0
  0
SCALE
  5
F9B
102
{ACAD_REACTORS
330
F8C
102
}
330
F8C
100
AcDbScale
 70
     0
300
8:1
140
8.0
141
1.0
290
     0
  0
SCALE
  5
F9C
102
{ACAD_REACTORS
330
F8C
102
}
330
F8C
100
AcDbScale
 70
     0
300
10:1
140
10.0
141
1.0
290
     0
  0
SCALE
  5
F9D
102
{ACAD_REACTORS
330
F8C
102
}
330
F8C
100
AcDbScale
 70
     0
300
100:1
140
100.0
141
1.0
290
     0
  0
SCALE
  5
F9E
102
{ACAD_REACTORS
330
F8C
102
}
330
F8C
100
AcDbScale
 70
     0
300
1/128\" = 1\'-0\"
140
0.0078125
141
12.0
290
     0
  0
SCALE
  5
F9F
102
{ACAD_REACTORS
330
F8C
102
}
330
F8C
100
AcDbScale
 70
     0
300
1/64\" = 1\'-0\"
140
0.015625
141
12.0
290
     0
  0
SCALE
  5
FA0
102
{ACAD_REACTORS
330
F8C
102
}
330
F8C
100
AcDbScale
 70
     0
300
1/32\" = 1\'-0\"
140
0.03125
141
12.0
290
     0
  0
SCALE
  5
FA1
102
{ACAD_REACTORS
330
F8C
102
}
330
F8C
100
AcDbScale
 70
     0
300
1/16\" = 1\'-0\"
140
0.0625
141
12.0
290
     0
  0
SCALE
  5
FA2
102
{ACAD_REACTORS
330
F8C
102
}
330
F8C
100
AcDbScale
 70
     0
300
3/32\" = 1\'-0\"
140
0.09375
141
12.0
290
     0
  0
SCALE
  5
FA3
102
{ACAD_REACTORS
330
F8C
102
}
330
F8C
100
AcDbScale
 70
     0
300
1/8\" = 1\'-0\"
140
0.125
141
12.0
290
     0
  0
SCALE
  5
FA4
102
{ACAD_REACTORS
330
F8C
102
}
330
F8C
100
AcDbScale
 70
     0
300
3/16\" = 1\'-0\"
140
0.1875
141
12.0
290
     0
  0
SCALE
  5
FA5
102
{ACAD_REACTORS
330
F8C
102
}
330
F8C
100
AcDbScale
 70
     0
300
1/4\" = 1\'-0\"
140
0.25
141
12.0
290
     0
  0
SCALE
  5
FA6
102
{ACAD_REACTORS
330
F8C
102
}
330
F8C
100
AcDbScale
 70
     0
300
3/8\" = 1\'-0\"
140
0.375
141
12.0
290
     0
  0
SCALE
  5
FA7
102
{ACAD_REACTORS
330
F8C
102
}
330
F8C
100
AcDbScale
 70
     0
300
1/2\" = 1\'-0\"
140
0.5
141
12.0
290
     0
  0
SCALE
  5
FA8
102
{ACAD_REACTORS
330
F8C
102
}
330
F8C
100
AcDbScale
 70
     0
300
3/4\" = 1\'-0\"
140
0.75
141
12.0
290
     0
  0
SCALE
  5
FA9
102
{ACAD_REACTORS
330
F8C
102
}
330
F8C
100
AcDbScale
 70
     0
300
1\" = 1\'-0\"
140
1.0
141
12.0
290
     0
  0
SCALE
  5
FAA
102
{ACAD_REACTORS
330
F8C
102
}
330
F8C
100
AcDbScale
 70
     0
300
1-1/2\" = 1\'-0\"
140
1.5
141
12.0
290
     0
  0
SCALE
  5
FAB
102
{ACAD_REACTORS
330
F8C
102
}
330
F8C
100
AcDbScale
 70
     0
300
3\" = 1\'-0\"
140
3.0
141
12.0
290
     0
  0
SCALE
  5
FAC
102
{ACAD_REACTORS
330
F8C
102
}
330
F8C
100
AcDbScale
 70
     0
300
6\" = 1\'-0\"
140
6.0
141
12.0
290
     0
  0
SCALE
  5
FAD
102
{ACAD_REACTORS
330
F8C
102
}
330
F8C
100
AcDbScale
 70
     0
300
1\'-0\" = 1\'-0\"
140
12.0
141
12.0
290
     0
  0
TABLESTYLE
  5
FD0
102
{ACAD_REACTORS
330
FCF
102
}
102
{ACAD_XDICTIONARY
360
100E
102
}
330
FCF
100
AcDbTableStyle
  3
Standard
 70
     0
 71
     0
 40
0.06
 41
0.06
280
     0
281
     0
  7
Standard
140
0.18
170
     2
 62
     0
 63
   257
283
     0
274
    -2
284
     1
 64
     0
275
    -2
285
     1
 65
     0
276
    -2
286
     1
 66
     0
277
    -2
287
     1
 67
     0
278
    -2
288
     1
 68
     0
279
    -2
289
     1
 69
     0
  7
Standard
140
0.25
170
     5
 62
     0
 63
   257
283
     0
274
    -2
284
     1
 64
     0
275
    -2
285
     1
 65
     0
276
    -2
286
     1
 66
     0
277
    -2
287
     1
 67
     0
278
    -2
288
     1
 68
     0
279
    -2
289
     1
 69
     0
  7
Standard
140
0.18
170
     5
 62
     0
 63
   257
283
     0
274
    -2
284
     1
 64
     0
275
    -2
285
     1
 65
     0
276
    -2
286
     1
 66
     0
277
    -2
287
     1
 67
     0
278
    -2
288
     1
 68
     0
279
    -2
289
     1
 69
     0
  0
VISUALSTYLE
  5
FB7
102
{ACAD_REACTORS
330
FB2
102
}
102
{ACAD_XDICTIONARY
360
FE0
102
}
330
FB2
100
AcDbVisualStyle
  2
2dWireframe
 70
     4
 71
     0
 72
     2
 73
     0
 90
        0
 40
0.6
 41
30.0
 62
     5
 63
     7
421
 16777215
 74
     1
 91
        4
 64
     7
 65
   257
 75
     1
175
     1
 42
1.0
 92
        0
 66
   257
 43
1.0
 76
     1
 77
     6
 78
     2
 67
     7
 79
     5
170
     0
171
     0
290
     0
174
     0
 93
        1
 44
0.0
173
     0
291
     0
 45
0.0
1001
ACAD
1000
AcDbSavedByObjectVersion
1070
     0
  0
VISUALSTYLE
  5
FBA
102
{ACAD_REACTORS
330
FB2
102
}
102
{ACAD_XDICTIONARY
360
FE6
102
}
330
FB2
100
AcDbVisualStyle
  2
Basic
 70
     7
 71
     1
 72
     0
 73
     1
 90
        0
 40
0.6
 41
30.0
 62
     5
 63
     7
421
 16777215
 74
     0
 91
        4
 64
     7
 65
   257
 75
     1
175
     1
 42
1.0
 92
        8
 66
     7
 43
1.0
 76
     1
 77
     6
 78
     2
 67
     7
 79
     5
170
     0
171
     0
290
     0
174
     0
 93
        1
 44
0.0
173
     0
291
     1
 45
0.0
1001
ACAD
1000
AcDbSavedByObjectVersion
1070
     0
  0
VISUALSTYLE
  5
FBE
102
{ACAD_REACTORS
330
FB2
102
}
102
{ACAD_XDICTIONARY
360
FEE
102
}
330
FB2
100
AcDbVisualStyle
  2
Brighten
 70
    12
 71
     2
 72
     2
 73
     0
 90
        0
 40
0.6
 41
30.0
 62
     5
 63
     7
421
 16777215
 74
     1
 91
        4
 64
     7
 65
   257
 75
     1
175
     1
 42
1.0
 92
        8
 66
     7
 43
1.0
 76
     1
 77
     6
 78
     2
 67
     7
 79
     5
170
     0
171
     0
290
     0
174
     0
 93
        1
 44
50.0
173
     0
291
     1
 45
0.0
1001
ACAD
1000
AcDbSavedByObjectVersion
1070
     0
  0
VISUALSTYLE
  5
FC2
102
{ACAD_REACTORS
330
FB2
102
}
102
{ACAD_XDICTIONARY
360
FF6
102
}
330
FB2
100
AcDbVisualStyle
  2
ColorChange
 70
    16
 71
     2
 72
     2
 73
     3
 90
        0
 40
0.6
 41
30.0
 62
     5
 63
     8
421
  8421504
 74
     1
 91
        4
 64
     7
 65
   257
 75
     1
175
     1
 42
1.0
 92
        8
 66
     8
424
  8421504
 43
1.0
 76
     1
 77
     6
 78
     2
 67
     7
 79
     5
170
     0
171
     0
290
     0
174
     0
 93
        1
 44
0.0
173
     0
291
     1
 45
0.0
1001
ACAD
1000
AcDbSavedByObjectVersion
1070
     0
  0
VISUALSTYLE
  5
FBC
102
{ACAD_REACTORS
330
FB2
102
}
102
{ACAD_XDICTIONARY
360
FEA
102
}
330
FB2
100
AcDbVisualStyle
  2
Conceptual
 70
     9
 71
     3
 72
     2
 73
     0
 90
        0
 40
0.6
 41
30.0
 62
     5
 63
     7
421
 16777215
 74
     2
 91
        2
 64
     7
 65
   257
 75
     1
175
     1
 42
179.0
 92
        8
 66
     7
 43
1.0
 76
     1
 77
     6
 78
     2
 67
     7
 79
     3
170
     0
171
     0
290
     0
174
     0
 93
        1
 44
0.0
173
     0
291
     0
 45
0.0
1001
ACAD
1000
AcDbSavedByObjectVersion
1070
     0
  0
VISUALSTYLE
  5
FBD
102
{ACAD_REACTORS
330
FB2
102
}
102
{ACAD_XDICTIONARY
360
FEC
102
}
330
FB2
100
AcDbVisualStyle
  2
Dim
 70
    11
 71
     2
 72
     2
 73
     0
 90
        0
 40
0.6
 41
30.0
 62
     5
 63
     7
421
 16777215
 74
     1
 91
        4
 64
     7
 65
   257
 75
     1
175
     1
 42
1.0
 92
        8
 66
     7
 43
1.0
 76
     1
 77
     6
 78
     2
 67
     7
 79
     5
170
     0
171
     0
290
     0
174
     0
 93
        1
 44
-50.0
173
     0
291
     1
 45
0.0
1001
ACAD
1000
AcDbSavedByObjectVersion
1070
     0
  0
VISUALSTYLE
  5
FC5
102
{ACAD_REACTORS
330
FB2
102
}
102
{ACAD_XDICTIONARY
360
FFC
102
}
330
FB2
100
AcDbVisualStyle
  2
EdgeColorOff
 70
    22
 71
     2
 72
     2
 73
     0
 90
        0
 40
0.6
 41
30.0
 62
     5
 63
     7
421
 16777215
 74
     1
 91
        4
 64
     7
 65
   257
 75
     1
175
     1
 42
1.0
 92
        8
 66
     7
 43
1.0
 76
     1
 77
     6
 78
     2
 67
     7
 79
     5
170
     0
171
     0
290
     0
174
     0
 93
        1
 44
0.0
173
     0
291
     1
 45
0.0
1001
ACAD
1000
AcDbSavedByObjectVersion
1070
     0
  0
VISUALSTYLE
  5
FC1
102
{ACAD_REACTORS
330
FB2
102
}
102
{ACAD_XDICTIONARY
360
FF4
102
}
330
FB2
100
AcDbVisualStyle
  2
Facepattern
 70
    15
 71
     2
 72
     2
 73
     0
 90
        0
 40
0.6
 41
30.0
 62
     5
 63
     7
421
 16777215
 74
     1
 91
        4
 64
     7
 65
   257
 75
     1
175
     1
 42
1.0
 92
        8
 66
     7
 43
1.0
 76
     1
 77
     6
 78
     2
 67
     7
 79
     5
170
     0
171
     0
290
     0
174
     0
 93
        1
 44
0.0
173
     0
291
     1
 45
0.0
1001
ACAD
1000
AcDbSavedByObjectVersion
1070
     0
  0
VISUALSTYLE
  5
FB3
102
{ACAD_REACTORS
330
FB2
102
}
102
{ACAD_XDICTIONARY
360
FD8
102
}
330
FB2
100
AcDbVisualStyle
  2
Flat
 70
     0
 71
     2
 72
     1
 73
     1
 90
        2
 40
0.6
 41
30.0
 62
     5
 63
     7
421
 16777215
 74
     0
 91
        0
 64
     7
 65
   257
 75
     1
175
     1
 42
1.0
 92
        8
 66
     7
 43
1.0
 76
     1
 77
     6
 78
     2
 67
     7
 79
     5
170
     0
171
     0
290
     0
174
     0
 93
       13
 44
0.0
173
     0
291
     1
 45
0.0
1001
ACAD
1000
AcDbSavedByObjectVersion
1070
     0
  0
VISUALSTYLE
  5
FB4
102
{ACAD_REACTORS
330
FB2
102
}
102
{ACAD_XDICTIONARY
360
FDA
102
}
330
FB2
100
AcDbVisualStyle
  2
FlatWithEdges
 70
     1
 71
     2
 72
     1
 73
     1
 90
        2
 40
0.6
 41
30.0
 62
     5
 63
     7
421
 16777215
 74
     1
 91
        0
 64
     7
 65
   257
 75
     1
175
     1
 42
1.0
 92
        0
 66
   257
 43
1.0
 76
     1
 77
     6
 78
     2
 67
     7
 79
     5
170
     0
171
     0
290
     0
174
     0
 93
       13
 44
0.0
173
     0
291
     1
 45
0.0
1001
ACAD
1000
AcDbSavedByObjectVersion
1070
     0
  0
VISUALSTYLE
  5
FB5
102
{ACAD_REACTORS
330
FB2
102
}
102
{ACAD_XDICTIONARY
360
FDC
102
}
330
FB2
100
AcDbVisualStyle
  2
Gouraud
 70
     2
 71
     2
 72
     2
 73
     1
 90
        2
 40
0.6
 41
30.0
 62
     5
 63
     7
421
 16777215
 74
     0
 91
        0
 64
     7
 65
   257
 75
     1
175
     1
 42
1.0
 92
        0
 66
     7
 43
1.0
 76
     1
 77
     6
 78
     2
 67
     7
 79
     5
170
     0
171
     0
290
     0
174
     0
 93
       13
 44
0.0
173
     0
291
     1
 45
0.0
1001
ACAD
1000
AcDbSavedByObjectVersion
1070
     0
  0
VISUALSTYLE
  5
FB6
102
{ACAD_REACTORS
330
FB2
102
}
102
{ACAD_XDICTIONARY
360
FDE
102
}
330
FB2
100
AcDbVisualStyle
  2
GouraudWithEdges
 70
     3
 71
     2
 72
     2
 73
     1
 90
        2
 40
0.6
 41
30.0
 62
     5
 63
     7
421
 16777215
 74
     1
 91
        0
 64
     7
 65
   257
 75
     1
175
     1
 42
1.0
 92
        0
 66
   257
 43
1.0
 76
     1
 77
     6
 78
     2
 67
     7
 79
     5
170
     0
171
     0
290
     0
174
     0
 93
       13
 44
0.0
173
     0
291
     1
 45
0.0
1001
ACAD
1000
AcDbSavedByObjectVersion
1070
     0
  0
VISUALSTYLE
  5
FB9
102
{ACAD_REACTORS
330
FB2
102
}
102
{ACAD_XDICTIONARY
360
FE4
102
}
330
FB2
100
AcDbVisualStyle
  2
Hidden
 70
     6
 71
     1
 72
     2
 73
     2
 90
        0
 40
0.6
 41
30.0
 62
     5
 63
     7
421
 16777215
 74
     2
 91
        2
 64
     7
 65
   257
 75
     2
175
     1
 42
40.0
 92
        0
 66
   257
 43
1.0
 76
     1
 77
     6
 78
     2
 67
     7
 79
     3
170
     0
171
     0
290
     0
174
     0
 93
        1
 44
0.0
173
     0
291
     0
 45
0.0
1001
ACAD
1000
AcDbSavedByObjectVersion
1070
     0
  0
VISUALSTYLE
  5
FC3
102
{ACAD_REACTORS
330
FB2
102
}
102
{ACAD_XDICTIONARY
360
FF8
102
}
330
FB2
100
AcDbVisualStyle
  2
JitterOff
 70
    20
 71
     2
 72
     2
 73
     0
 90
        0
 40
0.6
 41
30.0
 62
     5
 63
     7
421
 16777215
 74
     1
 91
        4
 64
     7
 65
   257
 75
     1
175
     1
 42
1.0
 92
       10
 66
     7
 43
1.0
 76
     1
 77
     6
 78
     2
 67
     7
 79
     5
170
     0
171
     0
290
     0
174
     0
 93
        1
 44
0.0
173
     0
291
     1
 45
0.0
1001
ACAD
1000
AcDbSavedByObjectVersion
1070
     0
  0
VISUALSTYLE
  5
FC0
102
{ACAD_REACTORS
330
FB2
102
}
102
{ACAD_XDICTIONARY
360
FF2
102
}
330
FB2
100
AcDbVisualStyle
  2
Linepattern
 70
    14
 71
     2
 72
     2
 73
     0
 90
        0
 40
0.6
 41
30.0
 62
     5
 63
     7
421
 16777215
 74
     1
 91
        4
 64
     7
 65
   257
 75
     7
175
     7
 42
1.0
 92
        8
 66
     7
 43
1.0
 76
     1
 77
     6
 78
     2
 67
     7
 79
     5
170
     0
171
     0
290
     0
174
     0
 93
        1
 44
0.0
173
     0
291
     1
 45
0.0
1001
ACAD
1000
AcDbSavedByObjectVersion
1070
     0
  0
VISUALSTYLE
  5
FC4
102
{ACAD_REACTORS
330
FB2
102
}
102
{ACAD_XDICTIONARY
360
FFA
102
}
330
FB2
100
AcDbVisualStyle
  2
OverhangOff
 70
    21
 71
     2
 72
     2
 73
     0
 90
        0
 40
0.6
 41
30.0
 62
     5
 63
     7
421
 16777215
 74
     1
 91
        4
 64
     7
 65
   257
 75
     1
175
     1
 42
1.0
 92
        9
 66
     7
 43
1.0
 76
     1
 77
     6
 78
     2
 67
     7
 79
     5
170
     0
171
     0
290
     0
174
     0
 93
        1
 44
0.0
173
     0
291
     1
 45
0.0
1001
ACAD
1000
AcDbSavedByObjectVersion
1070
     0
  0
VISUALSTYLE
  5
FBB
102
{ACAD_REACTORS
330
FB2
102
}
102
{ACAD_XDICTIONARY
360
FE8
102
}
330
FB2
100
AcDbVisualStyle
  2
Realistic
 70
     8
 71
     2
 72
     3
 73
     0
 90
        2
 40
0.6
 41
30.0
 62
     5
 63
     7
421
 16777215
 74
     0
 91
        0
 64
     7
 65
   257
 75
     1
175
     1
 42
1.0
 92
        8
 66
   257
 43
1.0
 76
     1
 77
     6
 78
     2
 67
     7
 79
     3
170
     0
171
     0
290
     0
174
     0
 93
       13
 44
0.0
173
     0
291
     0
 45
0.0
1001
ACAD
1000
AcDbSavedByObjectVersion
1070
     0
  0
VISUALSTYLE
  5
FCA
102
{ACAD_REACTORS
330
FB2
102
}
102
{ACAD_XDICTIONARY
360
1006
102
}
330
FB2
100
AcDbVisualStyle
  2
Shaded
 70
    27
 71
     2
 72
     2
 73
     1
 90
        2
 40
0.6
 41
30.0
 62
     5
 63
     7
421
 16777215
 74
     0
 91
        4
 64
     7
 65
   257
 75
     1
175
     1
 42
1.0
 92
        8
 66
   257
 43
1.0
 76
     1
 77
     6
 78
     2
 67
     8
425
  7895160
 79
     3
170
     0
171
     0
290
     0
174
     0
 93
        5
 44
0.0
173
     0
291
     0
 45
0.0
1001
ACAD
1000
AcDbSavedByObjectVersion
1070
     0
  0
VISUALSTYLE
  5
FC9
102
{ACAD_REACTORS
330
FB2
102
}
102
{ACAD_XDICTIONARY
360
1004
102
}
330
FB2
100
AcDbVisualStyle
  2
Shaded with edges
 70
    26
 71
     2
 72
     2
 73
     1
 90
        2
 40
0.6
 41
30.0
 62
     5
 63
     7
421
 16777215
 74
     1
 91
       10
 64
     7
 65
   257
 75
     2
175
     1
 42
1.0
 92
        8
 66
   257
 43
1.0
 76
     1
 77
     6
 78
     2
 67
     7
 79
     3
170
     0
171
     0
290
     0
174
     0
 93
        5
 44
0.0
173
     0
291
     0
 45
0.0
1001
ACAD
1000
AcDbSavedByObjectVersion
1070
     0
  0
VISUALSTYLE
  5
FC6
102
{ACAD_REACTORS
330
FB2
102
}
102
{ACAD_XDICTIONARY
360
FFE
102
}
330
FB2
100
AcDbVisualStyle
  2
Shades of Gray
 70
    23
 71
     2
 72
     2
 73
     3
 90
        0
 40
0.6
 41
30.0
 62
     5
 63
     7
421
 16777215
 74
     2
 91
        2
 64
     7
 65
     7
 75
     1
175
     1
 42
40.0
 92
        8
 66
     7
 43
1.0
 76
     1
 77
     6
 78
     2
 67
     7
 79
     3
170
     0
171
     0
290
     0
174
     0
 93
        1
 44
0.0
173
     0
291
     0
 45
0.0
1001
ACAD
1000
AcDbSavedByObjectVersion
1070
     0
  0
VISUALSTYLE
  5
FC7
102
{ACAD_REACTORS
330
FB2
102
}
102
{ACAD_XDICTIONARY
360
1000
102
}
330
FB2
100
AcDbVisualStyle
  2
Sketchy
 70
    24
 71
     1
 72
     2
 73
     2
 90
        0
 40
0.6
 41
30.0
 62
     5
 63
     7
421
 16777215
 74
     2
 91
        2
 64
     7
 65
     7
 75
     1
175
     1
 42
40.0
 92
       11
 66
     7
 43
1.0
 76
     1
 77
     6
 78
     2
 67
     7
 79
     6
170
     0
171
     0
290
     0
174
     0
 93
        1
 44
0.0
173
     0
291
     0
 45
0.0
1001
ACAD
1000
AcDbSavedByObjectVersion
1070
     0
  0
VISUALSTYLE
  5
FBF
102
{ACAD_REACTORS
330
FB2
102
}
102
{ACAD_XDICTIONARY
360
FF0
102
}
330
FB2
100
AcDbVisualStyle
  2
Thicken
 70
    13
 71
     2
 72
     2
 73
     0
 90
        0
 40
0.6
 41
30.0
 62
     5
 63
     7
421
 16777215
 74
     1
 91
        4
 64
     7
 65
   257
 75
     1
175
     1
 42
1.0
 92
       12
 66
     7
 43
1.0
 76
     1
 77
     6
 78
     2
 67
     7
 79
     5
170
     0
171
     0
290
     0
174
     0
 93
        1
 44
0.0
173
     0
291
     1
 45
0.0
1001
ACAD
1000
AcDbSavedByObjectVersion
1070
     0
  0
VISUALSTYLE
  5
FB8
102
{ACAD_REACTORS
330
FB2
102
}
102
{ACAD_XDICTIONARY
360
FE2
102
}
330
FB2
100
AcDbVisualStyle
  2
Wireframe
 70
     5
 71
     0
 72
     2
 73
     0
 90
        0
 40
0.6
 41
30.0
 62
     5
 63
     7
421
 16777215
 74
     1
 91
        4
 64
     7
 65
   257
 75
     1
175
     1
 42
1.0
 92
        0
 66
   257
 43
1.0
 76
     1
 77
     6
 78
     2
 67
     7
 79
     3
170
     0
171
     0
290
     0
174
     0
 93
        1
 44
0.0
173
     0
291
     0
 45
0.0
1001
ACAD
1000
AcDbSavedByObjectVersion
1070
     0
  0
VISUALSTYLE
  5
FC8
102
{ACAD_REACTORS
330
FB2
102
}
102
{ACAD_XDICTIONARY
360
1002
102
}
330
FB2
100
AcDbVisualStyle
  2
X-Ray
 70
    25
 71
     2
 72
     2
 73
     1
 90
        1
 40
0.5
 41
30.0
 62
     5
 63
     7
421
 16777215
 74
     1
 91
        0
 64
     7
 65
   257
 75
     1
175
     1
 42
1.0
 92
        8
 66
     7
 43
1.0
 76
     1
 77
     6
 78
     2
 67
     7
 79
     3
170
     0
171
     0
290
     0
174
     0
 93
       13
 44
0.0
173
     0
291
     0
 45
0.0
1001
ACAD
1000
AcDbSavedByObjectVersion
1070
     0
  0
DICTIONARYVAR
  5
FD6
102
{ACAD_REACTORS
330
FD5
102
}
330
FD5
100
DictionaryVariables
280
     0
  1
1:1
  0
DICTIONARYVAR
  5
1016
102
{ACAD_REACTORS
330
FD5
102
}
330
FD5
100
DictionaryVariables
280
     0
  1
Standard
  0
DICTIONARYVAR
  5
1015
102
{ACAD_REACTORS
330
FD5
102
}
330
FD5
100
DictionaryVariables
280
     0
  1
Standard
  0
DICTIONARYVAR
  5
1017
102
{ACAD_REACTORS
330
FD5
102
}
330
FD5
100
DictionaryVariables
280
     0
  1
0
  0
DICTIONARYVAR
  5
FD7
102
{ACAD_REACTORS
330
FD5
102
}
330
FD5
100
DictionaryVariables
280
     0
  1
2
  0
DICTIONARY
  5
100A
330
FCD
100
AcDbDictionary
280
     1
281
     1
  3
ACAD_XREC_ROUNDTRIP
360
100B
  0
DICTIONARY
  5
1008
330
FCC
100
AcDbDictionary
280
     1
281
     1
  3
ACAD_XREC_ROUNDTRIP
360
1009
  0
DICTIONARY
  5
100C
330
FCE
100
AcDbDictionary
280
     1
281
     1
  3
ACAD_XREC_ROUNDTRIP
360
100D
  0
DICTIONARY
  5
1012
330
FD2
100
AcDbDictionary
280
     1
281
     1
  3
ACAD_XREC_ROUNDTRIP
360
1013
  0
DICTIONARY
  5
100E
330
FD0
100
AcDbDictionary
280
     1
281
     1
  3
ACAD_ROUNDTRIP_2008_TABLESTYLE_CELLSTYLEMAP
360
1010
  3
ACAD_XREC_ROUNDTRIP
360
100F
  0
DICTIONARY
  5
FE0
330
FB7
100
AcDbDictionary
280
     1
281
     1
  3
ACAD_XREC_ROUNDTRIP
360
FE1
  0
DICTIONARY
  5
FE6
330
FBA
100
AcDbDictionary
280
     1
281
     1
  3
ACAD_XREC_ROUNDTRIP
360
FE7
  0
DICTIONARY
  5
FEE
330
FBE
100
AcDbDictionary
280
     1
281
     1
  3
ACAD_XREC_ROUNDTRIP
360
FEF
  0
DICTIONARY
  5
FF6
330
FC2
100
AcDbDictionary
280
     1
281
     1
  3
ACAD_XREC_ROUNDTRIP
360
FF7
  0
DICTIONARY
  5
FEA
330
FBC
100
AcDbDictionary
280
     1
281
     1
  3
ACAD_XREC_ROUNDTRIP
360
FEB
  0
DICTIONARY
  5
FEC
330
FBD
100
AcDbDictionary
280
     1
281
     1
  3
ACAD_XREC_ROUNDTRIP
360
FED
  0
DICTIONARY
  5
FFC
330
FC5
100
AcDbDictionary
280
     1
281
     1
  3
ACAD_XREC_ROUNDTRIP
360
FFD
  0
DICTIONARY
  5
FF4
330
FC1
100
AcDbDictionary
280
     1
281
     1
  3
ACAD_XREC_ROUNDTRIP
360
FF5
  0
DICTIONARY
  5
FD8
330
FB3
100
AcDbDictionary
280
     1
281
     1
  3
ACAD_XREC_ROUNDTRIP
360
FD9
  0
DICTIONARY
  5
FDA
330
FB4
100
AcDbDictionary
280
     1
281
     1
  3
ACAD_XREC_ROUNDTRIP
360
FDB
  0
DICTIONARY
  5
FDC
330
FB5
100
AcDbDictionary
280
     1
281
     1
  3
ACAD_XREC_ROUNDTRIP
360
FDD
  0
DICTIONARY
  5
FDE
330
FB6
100
AcDbDictionary
280
     1
281
     1
  3
ACAD_XREC_ROUNDTRIP
360
FDF
  0
DICTIONARY
  5
FE4
330
FB9
100
AcDbDictionary
280
     1
281
     1
  3
ACAD_XREC_ROUNDTRIP
360
FE5
  0
DICTIONARY
  5
FF8
330
FC3
100
AcDbDictionary
280
     1
281
     1
  3
ACAD_XREC_ROUNDTRIP
360
FF9
  0
DICTIONARY
  5
FF2
330
FC0
100
AcDbDictionary
280
     1
281
     1
  3
ACAD_XREC_ROUNDTRIP
360
FF3
  0
DICTIONARY
  5
FFA
330
FC4
100
AcDbDictionary
280
     1
281
     1
  3
ACAD_XREC_ROUNDTRIP
360
FFB
  0
DICTIONARY
  5
FE8
330
FBB
100
AcDbDictionary
280
     1
281
     1
  3
ACAD_XREC_ROUNDTRIP
360
FE9
  0
DICTIONARY
  5
1006
330
FCA
100
AcDbDictionary
280
     1
281
     1
  3
ACAD_XREC_ROUNDTRIP
360
1007
  0
DICTIONARY
  5
1004
330
FC9
100
AcDbDictionary
280
     1
281
     1
  3
ACAD_XREC_ROUNDTRIP
360
1005
  0
DICTIONARY
  5
FFE
330
FC6
100
AcDbDictionary
280
     1
281
     1
  3
ACAD_XREC_ROUNDTRIP
360
FFF
  0
DICTIONARY
  5
1000
330
FC7
100
AcDbDictionary
280
     1
281
     1
  3
ACAD_XREC_ROUNDTRIP
360
1001
  0
DICTIONARY
  5
FF0
330
FBF
100
AcDbDictionary
280
     1
281
     1
  3
ACAD_XREC_ROUNDTRIP
360
FF1
  0
DICTIONARY
  5
FE2
330
FB8
100
AcDbDictionary
280
     1
281
     1
  3
ACAD_XREC_ROUNDTRIP
360
FE3
  0
DICTIONARY
  5
1002
330
FC8
100
AcDbDictionary
280
     1
281
     1
  3
ACAD_XREC_ROUNDTRIP
360
1003
  0
XRECORD
  5
100B
102
{ACAD_REACTORS
330
100A
102
}
330
100A
100
AcDbXrecord
280
     1
102
MATERIAL
148
0.0
149
0.0
149
0.0
 93
        0
 94
      127
282
     0
 72
     1
 77
     1
171
     1
175
     1
179
     1
273
     0
  0
XRECORD
  5
1009
102
{ACAD_REACTORS
330
1008
102
}
330
1008
100
AcDbXrecord
280
     1
102
MATERIAL
148
0.0
149
0.0
149
0.0
 93
        0
 94
      127
282
     0
 72
     1
 77
     1
171
     1
175
     1
179
     1
273
     0
  0
XRECORD
  5
100D
102
{ACAD_REACTORS
330
100C
102
}
330
100C
100
AcDbXrecord
280
     1
102
MATERIAL
148
0.0
149
0.0
149
0.0
 93
        0
 94
      127
282
     0
 72
     1
 77
     1
171
     1
175
     1
179
     1
273
     0
  0
XRECORD
  5
1013
102
{ACAD_REACTORS
330
1012
102
}
330
1012
100
AcDbXrecord
280
     1
102
ACAD_ROUNDTRIP_2010_MLEADER_STYLE
  0
CELLSTYLEMAP
  5
1010
102
{ACAD_REACTORS
330
100E
102
}
330
100E
100
AcDbCellStyleMap
 90
        3
300
CELLSTYLE
  1
TABLEFORMAT_BEGIN
 90
        5
170
     1
 91
        0
 92
    32768
 62
   257
 93
        1
300
CONTENTFORMAT
  1
CONTENTFORMAT_BEGIN
 90
        0
 91
        0
 92
        4
 93
        0
300

 40
0.0
140
1.0
 94
        5
 62
     0
340
11
144
0.25
309
CONTENTFORMAT_END
171
     1
301
MARGIN
  1
CELLMARGIN_BEGIN
 40
0.06
 40
0.06
 40
0.06
 40
0.06
 40
0.06
 40
0.06
309
CELLMARGIN_END
 94
        6
 95
        1
302
GRIDFORMAT
  1
GRIDFORMAT_BEGIN
 90
        0
 91
        1
 62
     0
 92
       -2
340
14
 93
        0
 40
0.045
309
GRIDFORMAT_END
 95
        2
302
GRIDFORMAT
  1
GRIDFORMAT_BEGIN
 90
        0
 91
        1
 62
     0
 92
       -2
340
14
 93
        0
 40
0.045
309
GRIDFORMAT_END
 95
        4
302
GRIDFORMAT
  1
GRIDFORMAT_BEGIN
 90
        0
 91
        1
 62
     0
 92
       -2
340
14
 93
        0
 40
0.045
309
GRIDFORMAT_END
 95
        8
302
GRIDFORMAT
  1
GRIDFORMAT_BEGIN
 90
        0
 91
        1
 62
     0
 92
       -2
340
14
 93
        0
 40
0.045
309
GRIDFORMAT_END
 95
       16
302
GRIDFORMAT
  1
GRIDFORMAT_BEGIN
 90
        0
 91
        1
 62
     0
 92
       -2
340
14
 93
        0
 40
0.045
309
GRIDFORMAT_END
 95
       32
302
GRIDFORMAT
  1
GRIDFORMAT_BEGIN
 90
        0
 91
        1
 62
     0
 92
       -2
340
14
 93
        0
 40
0.045
309
GRIDFORMAT_END
309
TABLEFORMAT_END
  1
CELLSTYLE_BEGIN
 90
        1
 91
        1
300
_TITLE
309
CELLSTYLE_END
300
CELLSTYLE
  1
TABLEFORMAT_BEGIN
 90
        5
170
     1
 91
        0
 92
        0
 62
   257
 93
        1
300
CONTENTFORMAT
  1
CONTENTFORMAT_BEGIN
 90
        0
 91
        0
 92
        4
 93
        0
300

 40
0.0
140
1.0
 94
        5
 62
     0
340
11
144
0.18
309
CONTENTFORMAT_END
171
     1
301
MARGIN
  1
CELLMARGIN_BEGIN
 40
0.06
 40
0.06
 40
0.06
 40
0.06
 40
0.06
 40
0.06
309
CELLMARGIN_END
 94
        6
 95
        1
302
GRIDFORMAT
  1
GRIDFORMAT_BEGIN
 90
        0
 91
        1
 62
     0
 92
       -2
340
14
 93
        0
 40
0.045
309
GRIDFORMAT_END
 95
        2
302
GRIDFORMAT
  1
GRIDFORMAT_BEGIN
 90
        0
 91
        1
 62
     0
 92
       -2
340
14
 93
        0
 40
0.045
309
GRIDFORMAT_END
 95
        4
302
GRIDFORMAT
  1
GRIDFORMAT_BEGIN
 90
        0
 91
        1
 62
     0
 92
       -2
340
14
 93
        0
 40
0.045
309
GRIDFORMAT_END
 95
        8
302
GRIDFORMAT
  1
GRIDFORMAT_BEGIN
 90
        0
 91
        1
 62
     0
 92
       -2
340
14
 93
        0
 40
0.045
309
GRIDFORMAT_END
 95
       16
302
GRIDFORMAT
  1
GRIDFORMAT_BEGIN
 90
        0
 91
        1
 62
     0
 92
       -2
340
14
 93
        0
 40
0.045
309
GRIDFORMAT_END
 95
       32
302
GRIDFORMAT
  1
GRIDFORMAT_BEGIN
 90
        0
 91
        1
 62
     0
 92
       -2
340
14
 93
        0
 40
0.045
309
GRIDFORMAT_END
309
TABLEFORMAT_END
  1
CELLSTYLE_BEGIN
 90
        2
 91
        1
300
_HEADER
309
CELLSTYLE_END
300
CELLSTYLE
  1
TABLEFORMAT_BEGIN
 90
        5
170
     1
 91
        0
 92
        0
 62
   257
 93
        1
300
CONTENTFORMAT
  1
CONTENTFORMAT_BEGIN
 90
        0
 91
        0
 92
        4
 93
        0
300

 40
0.0
140
1.0
 94
        2
 62
     0
340
11
144
0.18
309
CONTENTFORMAT_END
171
     1
301
MARGIN
  1
CELLMARGIN_BEGIN
 40
0.06
 40
0.06
 40
0.06
 40
0.06
 40
0.06
 40
0.06
309
CELLMARGIN_END
 94
        6
 95
        1
302
GRIDFORMAT
  1
GRIDFORMAT_BEGIN
 90
        0
 91
        1
 62
     0
 92
       -2
340
14
 93
        0
 40
0.045
309
GRIDFORMAT_END
 95
        2
302
GRIDFORMAT
  1
GRIDFORMAT_BEGIN
 90
        0
 91
        1
 62
     0
 92
       -2
340
14
 93
        0
 40
0.045
309
GRIDFORMAT_END
 95
        4
302
GRIDFORMAT
  1
GRIDFORMAT_BEGIN
 90
        0
 91
        1
 62
     0
 92
       -2
340
14
 93
        0
 40
0.045
309
GRIDFORMAT_END
 95
        8
302
GRIDFORMAT
  1
GRIDFORMAT_BEGIN
 90
        0
 91
        1
 62
     0
 92
       -2
340
14
 93
        0
 40
0.045
309
GRIDFORMAT_END
 95
       16
302
GRIDFORMAT
  1
GRIDFORMAT_BEGIN
 90
        0
 91
        1
 62
     0
 92
       -2
340
14
 93
        0
 40
0.045
309
GRIDFORMAT_END
 95
       32
302
GRIDFORMAT
  1
GRIDFORMAT_BEGIN
 90
        0
 91
        1
 62
     0
 92
       -2
340
14
 93
        0
 40
0.045
309
GRIDFORMAT_END
309
TABLEFORMAT_END
  1
CELLSTYLE_BEGIN
 90
        3
 91
        2
300
_DATA
309
CELLSTYLE_END
  0
XRECORD
  5
100F
102
{ACAD_REACTORS
330
100E
102
}
330
100E
100
AcDbXrecord
280
     1
102
ACAD_ROUNDTRIP_PRE2007_TABLESTYLE
 90
        4
 91
        0
  1

 92
        4
 93
        0
  2

 94
        4
 95
        0
  3

  0
XRECORD
  5
FE1
102
{ACAD_REACTORS
330
FE0
102
}
330
FE0
100
AcDbXrecord
280
     1
102
RTVSPropertyOp0
 70
     1
102
RTVSPropertyOp1
 70
     1
102
RTVSPropertyOp2
 70
     1
102
RTVSPropertyOp3
 70
     1
102
RTVSPropertyOp4
 70
     1
102
RTVSPropertyOp5
 70
     1
102
RTVSPropertyOp6
 70
     1
102
RTVSPropertyOp7
 70
     1
102
RTVSPropertyOp8
 70
     1
102
RTVSPropertyOp9
 70
     1
102
RTVSPropertyOp10
 70
     1
102
RTVSPropertyOp11
 70
     1
102
RTVSPropertyOp12
 70
     1
102
RTVSPropertyOp13
 70
     1
102
RTVSPropertyOp14
 70
     1
102
RTVSPropertyOp15
 70
     1
102
RTVSPropertyOp16
 70
     1
102
RTVSPropertyOp17
 70
     1
102
RTVSPropertyOp18
 70
     1
102
RTVSPropertyOp19
 70
     1
102
RTVSPropertyOp20
 70
     1
102
RTVSPropertyOp21
 70
     1
102
RTVSPropertyOp22
 70
     1
102
RTVSPropertyOp23
 70
     1
102
RTVSPropertyOp24
 70
     1
102
RTVSPropertyOp25
 70
     1
102
RTVSPropertyOp26
 70
     1
102
RTVSPropertyOp27
 70
     1
102
RTVSPropertyOp28
 70
     1
102
RTVSPropertyOp29
 70
     1
102
RTVSPropertyOp30
 70
     1
102
RTVSPropertyOp31
 70
     1
102
RTVSPropertyOp32
 70
     1
102
RTVSPropertyOp33
 70
     1
102
RTVSPropertyOp34
 70
     1
102
RTVSPropertyOp35
 70
     1
102
RTVSPropertyOp36
 70
     1
102
RTVSPropertyOp37
 70
     1
102
RTVSPropertyOp38
 70
     1
102
RTVSPropertyOp39
 70
     1
102
RTVSPropertyOp40
 70
     1
102
RTVSPropertyOp41
 70
     1
102
RTVSPropertyOp42
 70
     1
102
RTVSPropertyOp43
 70
     1
102
RTVSPropertyOp44
 70
     1
102
RTVSPropertyOp45
 70
     1
102
RTVSPropertyOp46
 70
     1
102
RTVSPropertyOp47
 70
     1
102
RTVSPropertyOp48
 70
     1
102
RTVSPropertyOp49
 70
     1
102
RTVSPropertyOp50
 70
     1
102
RTVSPropertyOp51
 70
     0
102
RTVSPropertyOp52
 70
     0
102
RTVSPropertyOp53
 70
     1
102
RTVSPropertyOp54
 70
     1
102
RTVSPropertyOp55
 70
     1
102
RTVSPropertyOp56
 70
     1
102
RTVSPropertyOp57
 70
     1
102
RTVSPost2010Prop28
280
     1
102
RTVSPost2010PropOp28
 70
     1
102
RTVSPost2010Prop29
280
     1
102
RTVSPost2010PropOp29
 70
     1
102
RTVSPost2010Prop30
280
     0
102
RTVSPost2010PropOp30
 70
     1
102
RTVSPost2010Prop31
280
     0
102
RTVSPost2010PropOp31
 70
     1
102
RTVSPost2010Prop32
280
     0
102
RTVSPost2010PropOp32
 70
     1
102
RTVSPost2010Prop33
280
     0
102
RTVSPost2010PropOp33
 70
     1
102
RTVSPost2010Prop34
280
     0
102
RTVSPost2010PropOp34
 70
     1
102
RTVSPost2010Prop35
280
     0
102
RTVSPost2010PropOp35
 70
     1
102
RTVSPost2010Prop36
280
     0
102
RTVSPost2010PropOp36
 70
     1
102
RTVSPost2010Prop37
 90
       50
102
RTVSPost2010PropOp37
 70
     1
102
RTVSPost2010Prop38
140
0.0
102
RTVSPost2010PropOp38
 70
     1
102
RTVSPost2010Prop39
140
1.0
102
RTVSPost2010PropOp39
 70
     1
102
RTVSPost2010Prop40
 90
        0
102
RTVSPost2010PropOp40
 70
     1
102
RTVSPost2010Prop41ColorIndex
 90
       18
102
RTVSPost2010Prop41ColorRGB
 90
        0
102
RTVSPost2010PropOp41
 70
     1
102
RTVSPost2010Prop42
 90
       50
102
RTVSPost2010PropOp42
 70
     1
102
RTVSPost2010Prop43
 90
        3
102
RTVSPost2010PropOp43
 70
     1
102
RTVSPost2010Prop44ColorIndex
 90
        5
102
RTVSPost2010Prop44ColorRGB
 90
      255
102
RTVSPost2010PropOp44
 70
     1
102
RTVSPost2010Prop45
280
     0
102
RTVSPost2010PropOp45
 70
     1
102
RTVSPost2010Prop46
 90
       50
102
RTVSPost2010PropOp46
 70
     1
102
RTVSPost2010Prop47
 90
       50
102
RTVSPost2010PropOp47
 70
     1
102
RTVSPost2010Prop48
 90
       50
102
RTVSPost2010PropOp48
 70
     1
102
RTVSPost2010Prop49
280
     0
102
RTVSPost2010PropOp49
 70
     1
102
RTVSPost2010Prop50
 90
       50
102
RTVSPost2010PropOp50
 70
     1
102
RTVSPost2010Prop51ColorIndex
 90
      256
102
RTVSPost2010Prop51ColorRGB
 90
-16777216
102
RTVSPost2010PropOp51
 70
     0
102
RTVSPost2010Prop52
140
1.0
102
RTVSPost2010PropOp52
 70
     0
102
RTVSPost2010Prop53
 90
        2
102
RTVSPost2010PropOp53
 70
     1
102
RTVSPost2010Prop54
  1
strokes_ogs.tif
102
RTVSPost2010PropOp54
 70
     1
102
RTVSPost2010Prop55
280
     0
102
RTVSPost2010PropOp55
 70
     1
102
RTVSPost2010Prop56
140
1.0
102
RTVSPost2010PropOp56
 70
     1
102
RTVSPost2010Prop57
140
1.0
102
RTVSPost2010PropOp57
 70
     1
  0
XRECORD
  5
FE7
102
{ACAD_REACTORS
330
FE6
102
}
330
FE6
100
AcDbXrecord
280
     1
102
RTVSPropertyOp0
 70
     1
102
RTVSPropertyOp1
 70
     1
102
RTVSPropertyOp2
 70
     1
102
RTVSPropertyOp3
 70
     1
102
RTVSPropertyOp4
 70
     1
102
RTVSPropertyOp5
 70
     1
102
RTVSPropertyOp6
 70
     1
102
RTVSPropertyOp7
 70
     1
102
RTVSPropertyOp8
 70
     1
102
RTVSPropertyOp9
 70
     1
102
RTVSPropertyOp10
 70
     1
102
RTVSPropertyOp11
 70
     1
102
RTVSPropertyOp12
 70
     1
102
RTVSPropertyOp13
 70
     1
102
RTVSPropertyOp14
 70
     1
102
RTVSPropertyOp15
 70
     1
102
RTVSPropertyOp16
 70
     1
102
RTVSPropertyOp17
 70
     1
102
RTVSPropertyOp18
 70
     1
102
RTVSPropertyOp19
 70
     1
102
RTVSPropertyOp20
 70
     1
102
RTVSPropertyOp21
 70
     1
102
RTVSPropertyOp22
 70
     1
102
RTVSPropertyOp23
 70
     1
102
RTVSPropertyOp24
 70
     1
102
RTVSPropertyOp25
 70
     1
102
RTVSPropertyOp26
 70
     1
102
RTVSPropertyOp27
 70
     1
102
RTVSPropertyOp28
 70
     1
102
RTVSPropertyOp29
 70
     1
102
RTVSPropertyOp30
 70
     1
102
RTVSPropertyOp31
 70
     1
102
RTVSPropertyOp32
 70
     1
102
RTVSPropertyOp33
 70
     1
102
RTVSPropertyOp34
 70
     1
102
RTVSPropertyOp35
 70
     1
102
RTVSPropertyOp36
 70
     1
102
RTVSPropertyOp37
 70
     1
102
RTVSPropertyOp38
 70
     1
102
RTVSPropertyOp39
 70
     1
102
RTVSPropertyOp40
 70
     1
102
RTVSPropertyOp41
 70
     1
102
RTVSPropertyOp42
 70
     1
102
RTVSPropertyOp43
 70
     1
102
RTVSPropertyOp44
 70
     1
102
RTVSPropertyOp45
 70
     1
102
RTVSPropertyOp46
 70
     1
102
RTVSPropertyOp47
 70
     1
102
RTVSPropertyOp48
 70
     1
102
RTVSPropertyOp49
 70
     1
102
RTVSPropertyOp50
 70
     1
102
RTVSPropertyOp51
 70
     0
102
RTVSPropertyOp52
 70
     0
102
RTVSPropertyOp53
 70
     1
102
RTVSPropertyOp54
 70
     1
102
RTVSPropertyOp55
 70
     1
102
RTVSPropertyOp56
 70
     1
102
RTVSPropertyOp57
 70
     1
102
RTVSPost2010Prop28
280
     0
102
RTVSPost2010PropOp28
 70
     1
102
RTVSPost2010Prop29
280
     1
102
RTVSPost2010PropOp29
 70
     1
102
RTVSPost2010Prop30
280
     1
102
RTVSPost2010PropOp30
 70
     1
102
RTVSPost2010Prop31
280
     0
102
RTVSPost2010PropOp31
 70
     1
102
RTVSPost2010Prop32
280
     0
102
RTVSPost2010PropOp32
 70
     1
102
RTVSPost2010Prop33
280
     0
102
RTVSPost2010PropOp33
 70
     1
102
RTVSPost2010Prop34
280
     0
102
RTVSPost2010PropOp34
 70
     1
102
RTVSPost2010Prop35
280
     0
102
RTVSPost2010PropOp35
 70
     1
102
RTVSPost2010Prop36
280
     0
102
RTVSPost2010PropOp36
 70
     1
102
RTVSPost2010Prop37
 90
       50
102
RTVSPost2010PropOp37
 70
     1
102
RTVSPost2010Prop38
140
0.0
102
RTVSPost2010PropOp38
 70
     1
102
RTVSPost2010Prop39
140
1.0
102
RTVSPost2010PropOp39
 70
     1
102
RTVSPost2010Prop40
 90
        0
102
RTVSPost2010PropOp40
 70
     1
102
RTVSPost2010Prop41ColorIndex
 90
       18
102
RTVSPost2010Prop41ColorRGB
 90
        0
102
RTVSPost2010PropOp41
 70
     1
102
RTVSPost2010Prop42
 90
       50
102
RTVSPost2010PropOp42
 70
     1
102
RTVSPost2010Prop43
 90
        3
102
RTVSPost2010PropOp43
 70
     1
102
RTVSPost2010Prop44ColorIndex
 90
        5
102
RTVSPost2010Prop44ColorRGB
 90
      255
102
RTVSPost2010PropOp44
 70
     1
102
RTVSPost2010Prop45
280
     0
102
RTVSPost2010PropOp45
 70
     1
102
RTVSPost2010Prop46
 90
       50
102
RTVSPost2010PropOp46
 70
     1
102
RTVSPost2010Prop47
 90
       50
102
RTVSPost2010PropOp47
 70
     1
102
RTVSPost2010Prop48
 90
       50
102
RTVSPost2010PropOp48
 70
     1
102
RTVSPost2010Prop49
280
     0
102
RTVSPost2010PropOp49
 70
     1
102
RTVSPost2010Prop50
 90
       50
102
RTVSPost2010PropOp50
 70
     1
102
RTVSPost2010Prop51ColorIndex
 90
      256
102
RTVSPost2010Prop51ColorRGB
 90
-16777216
102
RTVSPost2010PropOp51
 70
     0
102
RTVSPost2010Prop52
140
1.0
102
RTVSPost2010PropOp52
 70
     0
102
RTVSPost2010Prop53
 90
        2
102
RTVSPost2010PropOp53
 70
     1
102
RTVSPost2010Prop54
  1
strokes_ogs.tif
102
RTVSPost2010PropOp54
 70
     1
102
RTVSPost2010Prop55
280
     0
102
RTVSPost2010PropOp55
 70
     1
102
RTVSPost2010Prop56
140
1.0
102
RTVSPost2010PropOp56
 70
     1
102
RTVSPost2010Prop57
140
1.0
102
RTVSPost2010PropOp57
 70
     1
  0
XRECORD
  5
FEF
102
{ACAD_REACTORS
330
FEE
102
}
330
FEE
100
AcDbXrecord
280
     1
102
RTVSPropertyOp0
 70
     1
102
RTVSPropertyOp1
 70
     1
102
RTVSPropertyOp2
 70
     1
102
RTVSPropertyOp3
 70
     1
102
RTVSPropertyOp4
 70
     1
102
RTVSPropertyOp5
 70
     1
102
RTVSPropertyOp6
 70
     1
102
RTVSPropertyOp7
 70
     1
102
RTVSPropertyOp8
 70
     1
102
RTVSPropertyOp9
 70
     1
102
RTVSPropertyOp10
 70
     1
102
RTVSPropertyOp11
 70
     1
102
RTVSPropertyOp12
 70
     1
102
RTVSPropertyOp13
 70
     1
102
RTVSPropertyOp14
 70
     1
102
RTVSPropertyOp15
 70
     1
102
RTVSPropertyOp16
 70
     1
102
RTVSPropertyOp17
 70
     1
102
RTVSPropertyOp18
 70
     1
102
RTVSPropertyOp19
 70
     1
102
RTVSPropertyOp20
 70
     1
102
RTVSPropertyOp21
 70
     1
102
RTVSPropertyOp22
 70
     1
102
RTVSPropertyOp23
 70
     1
102
RTVSPropertyOp24
 70
     1
102
RTVSPropertyOp25
 70
     1
102
RTVSPropertyOp26
 70
     1
102
RTVSPropertyOp27
 70
     1
102
RTVSPropertyOp28
 70
     1
102
RTVSPropertyOp29
 70
     1
102
RTVSPropertyOp30
 70
     1
102
RTVSPropertyOp31
 70
     1
102
RTVSPropertyOp32
 70
     1
102
RTVSPropertyOp33
 70
     1
102
RTVSPropertyOp34
 70
     1
102
RTVSPropertyOp35
 70
     1
102
RTVSPropertyOp36
 70
     1
102
RTVSPropertyOp37
 70
     1
102
RTVSPropertyOp38
 70
     1
102
RTVSPropertyOp39
 70
     1
102
RTVSPropertyOp40
 70
     1
102
RTVSPropertyOp41
 70
     1
102
RTVSPropertyOp42
 70
     1
102
RTVSPropertyOp43
 70
     1
102
RTVSPropertyOp44
 70
     1
102
RTVSPropertyOp45
 70
     1
102
RTVSPropertyOp46
 70
     1
102
RTVSPropertyOp47
 70
     1
102
RTVSPropertyOp48
 70
     1
102
RTVSPropertyOp49
 70
     1
102
RTVSPropertyOp50
 70
     1
102
RTVSPropertyOp51
 70
     0
102
RTVSPropertyOp52
 70
     0
102
RTVSPropertyOp53
 70
     1
102
RTVSPropertyOp54
 70
     1
102
RTVSPropertyOp55
 70
     1
102
RTVSPropertyOp56
 70
     1
102
RTVSPropertyOp57
 70
     1
102
RTVSPost2010Prop28
280
     0
102
RTVSPost2010PropOp28
 70
     1
102
RTVSPost2010Prop29
280
     1
102
RTVSPost2010PropOp29
 70
     1
102
RTVSPost2010Prop30
280
     1
102
RTVSPost2010PropOp30
 70
     1
102
RTVSPost2010Prop31
280
     0
102
RTVSPost2010PropOp31
 70
     1
102
RTVSPost2010Prop32
280
     0
102
RTVSPost2010PropOp32
 70
     1
102
RTVSPost2010Prop33
280
     0
102
RTVSPost2010PropOp33
 70
     1
102
RTVSPost2010Prop34
280
     0
102
RTVSPost2010PropOp34
 70
     1
102
RTVSPost2010Prop35
280
     0
102
RTVSPost2010PropOp35
 70
     1
102
RTVSPost2010Prop36
280
     0
102
RTVSPost2010PropOp36
 70
     1
102
RTVSPost2010Prop37
 90
       50
102
RTVSPost2010PropOp37
 70
     1
102
RTVSPost2010Prop38
140
0.0
102
RTVSPost2010PropOp38
 70
     1
102
RTVSPost2010Prop39
140
1.0
102
RTVSPost2010PropOp39
 70
     1
102
RTVSPost2010Prop40
 90
        0
102
RTVSPost2010PropOp40
 70
     1
102
RTVSPost2010Prop41ColorIndex
 90
       18
102
RTVSPost2010Prop41ColorRGB
 90
        0
102
RTVSPost2010PropOp41
 70
     1
102
RTVSPost2010Prop42
 90
       50
102
RTVSPost2010PropOp42
 70
     1
102
RTVSPost2010Prop43
 90
        3
102
RTVSPost2010PropOp43
 70
     1
102
RTVSPost2010Prop44ColorIndex
 90
        5
102
RTVSPost2010Prop44ColorRGB
 90
      255
102
RTVSPost2010PropOp44
 70
     1
102
RTVSPost2010Prop45
280
     0
102
RTVSPost2010PropOp45
 70
     1
102
RTVSPost2010Prop46
 90
       50
102
RTVSPost2010PropOp46
 70
     1
102
RTVSPost2010Prop47
 90
       50
102
RTVSPost2010PropOp47
 70
     1
102
RTVSPost2010Prop48
 90
       50
102
RTVSPost2010PropOp48
 70
     1
102
RTVSPost2010Prop49
280
     0
102
RTVSPost2010PropOp49
 70
     1
102
RTVSPost2010Prop50
 90
       50
102
RTVSPost2010PropOp50
 70
     1
102
RTVSPost2010Prop51ColorIndex
 90
      256
102
RTVSPost2010Prop51ColorRGB
 90
-16777216
102
RTVSPost2010PropOp51
 70
     0
102
RTVSPost2010Prop52
140
1.0
102
RTVSPost2010PropOp52
 70
     0
102
RTVSPost2010Prop53
 90
        2
102
RTVSPost2010PropOp53
 70
     1
102
RTVSPost2010Prop54
  1
strokes_ogs.tif
102
RTVSPost2010PropOp54
 70
     1
102
RTVSPost2010Prop55
280
     0
102
RTVSPost2010PropOp55
 70
     1
102
RTVSPost2010Prop56
140
1.0
102
RTVSPost2010PropOp56
 70
     1
102
RTVSPost2010Prop57
140
1.0
102
RTVSPost2010PropOp57
 70
     1
  0
XRECORD
  5
FF7
102
{ACAD_REACTORS
330
FF6
102
}
330
FF6
100
AcDbXrecord
280
     1
102
RTVSPropertyOp0
 70
     1
102
RTVSPropertyOp1
 70
     1
102
RTVSPropertyOp2
 70
     1
102
RTVSPropertyOp3
 70
     1
102
RTVSPropertyOp4
 70
     1
102
RTVSPropertyOp5
 70
     1
102
RTVSPropertyOp6
 70
     1
102
RTVSPropertyOp7
 70
     1
102
RTVSPropertyOp8
 70
     1
102
RTVSPropertyOp9
 70
     1
102
RTVSPropertyOp10
 70
     1
102
RTVSPropertyOp11
 70
     1
102
RTVSPropertyOp12
 70
     1
102
RTVSPropertyOp13
 70
     1
102
RTVSPropertyOp14
 70
     1
102
RTVSPropertyOp15
 70
     1
102
RTVSPropertyOp16
 70
     1
102
RTVSPropertyOp17
 70
     1
102
RTVSPropertyOp18
 70
     1
102
RTVSPropertyOp19
 70
     1
102
RTVSPropertyOp20
 70
     1
102
RTVSPropertyOp21
 70
     1
102
RTVSPropertyOp22
 70
     1
102
RTVSPropertyOp23
 70
     1
102
RTVSPropertyOp24
 70
     1
102
RTVSPropertyOp25
 70
     1
102
RTVSPropertyOp26
 70
     1
102
RTVSPropertyOp27
 70
     1
102
RTVSPropertyOp28
 70
     1
102
RTVSPropertyOp29
 70
     1
102
RTVSPropertyOp30
 70
     1
102
RTVSPropertyOp31
 70
     1
102
RTVSPropertyOp32
 70
     1
102
RTVSPropertyOp33
 70
     1
102
RTVSPropertyOp34
 70
     1
102
RTVSPropertyOp35
 70
     1
102
RTVSPropertyOp36
 70
     1
102
RTVSPropertyOp37
 70
     1
102
RTVSPropertyOp38
 70
     1
102
RTVSPropertyOp39
 70
     1
102
RTVSPropertyOp40
 70
     1
102
RTVSPropertyOp41
 70
     1
102
RTVSPropertyOp42
 70
     1
102
RTVSPropertyOp43
 70
     1
102
RTVSPropertyOp44
 70
     1
102
RTVSPropertyOp45
 70
     1
102
RTVSPropertyOp46
 70
     1
102
RTVSPropertyOp47
 70
     1
102
RTVSPropertyOp48
 70
     1
102
RTVSPropertyOp49
 70
     1
102
RTVSPropertyOp50
 70
     1
102
RTVSPropertyOp51
 70
     0
102
RTVSPropertyOp52
 70
     0
102
RTVSPropertyOp53
 70
     1
102
RTVSPropertyOp54
 70
     1
102
RTVSPropertyOp55
 70
     1
102
RTVSPropertyOp56
 70
     1
102
RTVSPropertyOp57
 70
     1
102
RTVSPost2010Prop28
280
     0
102
RTVSPost2010PropOp28
 70
     1
102
RTVSPost2010Prop29
280
     1
102
RTVSPost2010PropOp29
 70
     1
102
RTVSPost2010Prop30
280
     1
102
RTVSPost2010PropOp30
 70
     1
102
RTVSPost2010Prop31
280
     0
102
RTVSPost2010PropOp31
 70
     1
102
RTVSPost2010Prop32
280
     0
102
RTVSPost2010PropOp32
 70
     1
102
RTVSPost2010Prop33
280
     0
102
RTVSPost2010PropOp33
 70
     1
102
RTVSPost2010Prop34
280
     0
102
RTVSPost2010PropOp34
 70
     1
102
RTVSPost2010Prop35
280
     0
102
RTVSPost2010PropOp35
 70
     1
102
RTVSPost2010Prop36
280
     0
102
RTVSPost2010PropOp36
 70
     1
102
RTVSPost2010Prop37
 90
       50
102
RTVSPost2010PropOp37
 70
     1
102
RTVSPost2010Prop38
140
0.0
102
RTVSPost2010PropOp38
 70
     1
102
RTVSPost2010Prop39
140
1.0
102
RTVSPost2010PropOp39
 70
     1
102
RTVSPost2010Prop40
 90
        0
102
RTVSPost2010PropOp40
 70
     1
102
RTVSPost2010Prop41ColorIndex
 90
       18
102
RTVSPost2010Prop41ColorRGB
 90
        0
102
RTVSPost2010PropOp41
 70
     1
102
RTVSPost2010Prop42
 90
       50
102
RTVSPost2010PropOp42
 70
     1
102
RTVSPost2010Prop43
 90
        3
102
RTVSPost2010PropOp43
 70
     1
102
RTVSPost2010Prop44ColorIndex
 90
        5
102
RTVSPost2010Prop44ColorRGB
 90
      255
102
RTVSPost2010PropOp44
 70
     1
102
RTVSPost2010Prop45
280
     0
102
RTVSPost2010PropOp45
 70
     1
102
RTVSPost2010Prop46
 90
       50
102
RTVSPost2010PropOp46
 70
     1
102
RTVSPost2010Prop47
 90
       50
102
RTVSPost2010PropOp47
 70
     1
102
RTVSPost2010Prop48
 90
       50
102
RTVSPost2010PropOp48
 70
     1
102
RTVSPost2010Prop49
280
     0
102
RTVSPost2010PropOp49
 70
     1
102
RTVSPost2010Prop50
 90
       50
102
RTVSPost2010PropOp50
 70
     1
102
RTVSPost2010Prop51ColorIndex
 90
      256
102
RTVSPost2010Prop51ColorRGB
 90
-16777216
102
RTVSPost2010PropOp51
 70
     0
102
RTVSPost2010Prop52
140
1.0
102
RTVSPost2010PropOp52
 70
     0
102
RTVSPost2010Prop53
 90
        2
102
RTVSPost2010PropOp53
 70
     1
102
RTVSPost2010Prop54
  1
strokes_ogs.tif
102
RTVSPost2010PropOp54
 70
     1
102
RTVSPost2010Prop55
280
     0
102
RTVSPost2010PropOp55
 70
     1
102
RTVSPost2010Prop56
140
1.0
102
RTVSPost2010PropOp56
 70
     1
102
RTVSPost2010Prop57
140
1.0
102
RTVSPost2010PropOp57
 70
     1
  0
XRECORD
  5
FEB
102
{ACAD_REACTORS
330
FEA
102
}
330
FEA
100
AcDbXrecord
280
     1
102
RTVSPropertyOp0
 70
     1
102
RTVSPropertyOp1
 70
     1
102
RTVSPropertyOp2
 70
     1
102
RTVSPropertyOp3
 70
     1
102
RTVSPropertyOp4
 70
     1
102
RTVSPropertyOp5
 70
     1
102
RTVSPropertyOp6
 70
     1
102
RTVSPropertyOp7
 70
     1
102
RTVSPropertyOp8
 70
     1
102
RTVSPropertyOp9
 70
     1
102
RTVSPropertyOp10
 70
     1
102
RTVSPropertyOp11
 70
     1
102
RTVSPropertyOp12
 70
     1
102
RTVSPropertyOp13
 70
     1
102
RTVSPropertyOp14
 70
     1
102
RTVSPropertyOp15
 70
     1
102
RTVSPropertyOp16
 70
     1
102
RTVSPropertyOp17
 70
     1
102
RTVSPropertyOp18
 70
     1
102
RTVSPropertyOp19
 70
     1
102
RTVSPropertyOp20
 70
     1
102
RTVSPropertyOp21
 70
     1
102
RTVSPropertyOp22
 70
     1
102
RTVSPropertyOp23
 70
     1
102
RTVSPropertyOp24
 70
     1
102
RTVSPropertyOp25
 70
     1
102
RTVSPropertyOp26
 70
     1
102
RTVSPropertyOp27
 70
     1
102
RTVSPropertyOp28
 70
     1
102
RTVSPropertyOp29
 70
     1
102
RTVSPropertyOp30
 70
     1
102
RTVSPropertyOp31
 70
     1
102
RTVSPropertyOp32
 70
     1
102
RTVSPropertyOp33
 70
     1
102
RTVSPropertyOp34
 70
     1
102
RTVSPropertyOp35
 70
     1
102
RTVSPropertyOp36
 70
     1
102
RTVSPropertyOp37
 70
     1
102
RTVSPropertyOp38
 70
     1
102
RTVSPropertyOp39
 70
     1
102
RTVSPropertyOp40
 70
     1
102
RTVSPropertyOp41
 70
     1
102
RTVSPropertyOp42
 70
     1
102
RTVSPropertyOp43
 70
     1
102
RTVSPropertyOp44
 70
     1
102
RTVSPropertyOp45
 70
     1
102
RTVSPropertyOp46
 70
     1
102
RTVSPropertyOp47
 70
     1
102
RTVSPropertyOp48
 70
     1
102
RTVSPropertyOp49
 70
     1
102
RTVSPropertyOp50
 70
     1
102
RTVSPropertyOp51
 70
     0
102
RTVSPropertyOp52
 70
     0
102
RTVSPropertyOp53
 70
     1
102
RTVSPropertyOp54
 70
     1
102
RTVSPropertyOp55
 70
     1
102
RTVSPropertyOp56
 70
     1
102
RTVSPropertyOp57
 70
     1
102
RTVSPost2010Prop28
280
     0
102
RTVSPost2010PropOp28
 70
     1
102
RTVSPost2010Prop29
280
     1
102
RTVSPost2010PropOp29
 70
     1
102
RTVSPost2010Prop30
280
     1
102
RTVSPost2010PropOp30
 70
     1
102
RTVSPost2010Prop31
280
     0
102
RTVSPost2010PropOp31
 70
     1
102
RTVSPost2010Prop32
280
     0
102
RTVSPost2010PropOp32
 70
     1
102
RTVSPost2010Prop33
280
     0
102
RTVSPost2010PropOp33
 70
     1
102
RTVSPost2010Prop34
280
     0
102
RTVSPost2010PropOp34
 70
     1
102
RTVSPost2010Prop35
280
     0
102
RTVSPost2010PropOp35
 70
     1
102
RTVSPost2010Prop36
280
     0
102
RTVSPost2010PropOp36
 70
     1
102
RTVSPost2010Prop37
 90
       50
102
RTVSPost2010PropOp37
 70
     1
102
RTVSPost2010Prop38
140
0.0
102
RTVSPost2010PropOp38
 70
     1
102
RTVSPost2010Prop39
140
1.0
102
RTVSPost2010PropOp39
 70
     1
102
RTVSPost2010Prop40
 90
        0
102
RTVSPost2010PropOp40
 70
     1
102
RTVSPost2010Prop41ColorIndex
 90
       18
102
RTVSPost2010Prop41ColorRGB
 90
        0
102
RTVSPost2010PropOp41
 70
     1
102
RTVSPost2010Prop42
 90
       50
102
RTVSPost2010PropOp42
 70
     1
102
RTVSPost2010Prop43
 90
        3
102
RTVSPost2010PropOp43
 70
     1
102
RTVSPost2010Prop44ColorIndex
 90
        5
102
RTVSPost2010Prop44ColorRGB
 90
      255
102
RTVSPost2010PropOp44
 70
     1
102
RTVSPost2010Prop45
280
     0
102
RTVSPost2010PropOp45
 70
     1
102
RTVSPost2010Prop46
 90
       50
102
RTVSPost2010PropOp46
 70
     1
102
RTVSPost2010Prop47
 90
       50
102
RTVSPost2010PropOp47
 70
     1
102
RTVSPost2010Prop48
 90
       50
102
RTVSPost2010PropOp48
 70
     1
102
RTVSPost2010Prop49
280
     0
102
RTVSPost2010PropOp49
 70
     1
102
RTVSPost2010Prop50
 90
       50
102
RTVSPost2010PropOp50
 70
     1
102
RTVSPost2010Prop51ColorIndex
 90
      256
102
RTVSPost2010Prop51ColorRGB
 90
-16777216
102
RTVSPost2010PropOp51
 70
     0
102
RTVSPost2010Prop52
140
1.0
102
RTVSPost2010PropOp52
 70
     0
102
RTVSPost2010Prop53
 90
        2
102
RTVSPost2010PropOp53
 70
     1
102
RTVSPost2010Prop54
  1
strokes_ogs.tif
102
RTVSPost2010PropOp54
 70
     1
102
RTVSPost2010Prop55
280
     0
102
RTVSPost2010PropOp55
 70
     1
102
RTVSPost2010Prop56
140
1.0
102
RTVSPost2010PropOp56
 70
     1
102
RTVSPost2010Prop57
140
1.0
102
RTVSPost2010PropOp57
 70
     1
  0
XRECORD
  5
FED
102
{ACAD_REACTORS
330
FEC
102
}
330
FEC
100
AcDbXrecord
280
     1
102
RTVSPropertyOp0
 70
     1
102
RTVSPropertyOp1
 70
     1
102
RTVSPropertyOp2
 70
     1
102
RTVSPropertyOp3
 70
     1
102
RTVSPropertyOp4
 70
     1
102
RTVSPropertyOp5
 70
     1
102
RTVSPropertyOp6
 70
     1
102
RTVSPropertyOp7
 70
     1
102
RTVSPropertyOp8
 70
     1
102
RTVSPropertyOp9
 70
     1
102
RTVSPropertyOp10
 70
     1
102
RTVSPropertyOp11
 70
     1
102
RTVSPropertyOp12
 70
     1
102
RTVSPropertyOp13
 70
     1
102
RTVSPropertyOp14
 70
     1
102
RTVSPropertyOp15
 70
     1
102
RTVSPropertyOp16
 70
     1
102
RTVSPropertyOp17
 70
     1
102
RTVSPropertyOp18
 70
     1
102
RTVSPropertyOp19
 70
     1
102
RTVSPropertyOp20
 70
     1
102
RTVSPropertyOp21
 70
     1
102
RTVSPropertyOp22
 70
     1
102
RTVSPropertyOp23
 70
     1
102
RTVSPropertyOp24
 70
     1
102
RTVSPropertyOp25
 70
     1
102
RTVSPropertyOp26
 70
     1
102
RTVSPropertyOp27
 70
     1
102
RTVSPropertyOp28
 70
     1
102
RTVSPropertyOp29
 70
     1
102
RTVSPropertyOp30
 70
     1
102
RTVSPropertyOp31
 70
     1
102
RTVSPropertyOp32
 70
     1
102
RTVSPropertyOp33
 70
     1
102
RTVSPropertyOp34
 70
     1
102
RTVSPropertyOp35
 70
     1
102
RTVSPropertyOp36
 70
     1
102
RTVSPropertyOp37
 70
     1
102
RTVSPropertyOp38
 70
     1
102
RTVSPropertyOp39
 70
     1
102
RTVSPropertyOp40
 70
     1
102
RTVSPropertyOp41
 70
     1
102
RTVSPropertyOp42
 70
     1
102
RTVSPropertyOp43
 70
     1
102
RTVSPropertyOp44
 70
     1
102
RTVSPropertyOp45
 70
     1
102
RTVSPropertyOp46
 70
     1
102
RTVSPropertyOp47
 70
     1
102
RTVSPropertyOp48
 70
     1
102
RTVSPropertyOp49
 70
     1
102
RTVSPropertyOp50
 70
     1
102
RTVSPropertyOp51
 70
     0
102
RTVSPropertyOp52
 70
     0
102
RTVSPropertyOp53
 70
     1
102
RTVSPropertyOp54
 70
     1
102
RTVSPropertyOp55
 70
     1
102
RTVSPropertyOp56
 70
     1
102
RTVSPropertyOp57
 70
     1
102
RTVSPost2010Prop28
280
     0
102
RTVSPost2010PropOp28
 70
     1
102
RTVSPost2010Prop29
280
     1
102
RTVSPost2010PropOp29
 70
     1
102
RTVSPost2010Prop30
280
     1
102
RTVSPost2010PropOp30
 70
     1
102
RTVSPost2010Prop31
280
     0
102
RTVSPost2010PropOp31
 70
     1
102
RTVSPost2010Prop32
280
     0
102
RTVSPost2010PropOp32
 70
     1
102
RTVSPost2010Prop33
280
     0
102
RTVSPost2010PropOp33
 70
     1
102
RTVSPost2010Prop34
280
     0
102
RTVSPost2010PropOp34
 70
     1
102
RTVSPost2010Prop35
280
     0
102
RTVSPost2010PropOp35
 70
     1
102
RTVSPost2010Prop36
280
     0
102
RTVSPost2010PropOp36
 70
     1
102
RTVSPost2010Prop37
 90
       50
102
RTVSPost2010PropOp37
 70
     1
102
RTVSPost2010Prop38
140
0.0
102
RTVSPost2010PropOp38
 70
     1
102
RTVSPost2010Prop39
140
1.0
102
RTVSPost2010PropOp39
 70
     1
102
RTVSPost2010Prop40
 90
        0
102
RTVSPost2010PropOp40
 70
     1
102
RTVSPost2010Prop41ColorIndex
 90
       18
102
RTVSPost2010Prop41ColorRGB
 90
        0
102
RTVSPost2010PropOp41
 70
     1
102
RTVSPost2010Prop42
 90
       50
102
RTVSPost2010PropOp42
 70
     1
102
RTVSPost2010Prop43
 90
        3
102
RTVSPost2010PropOp43
 70
     1
102
RTVSPost2010Prop44ColorIndex
 90
        5
102
RTVSPost2010Prop44ColorRGB
 90
      255
102
RTVSPost2010PropOp44
 70
     1
102
RTVSPost2010Prop45
280
     0
102
RTVSPost2010PropOp45
 70
     1
102
RTVSPost2010Prop46
 90
       50
102
RTVSPost2010PropOp46
 70
     1
102
RTVSPost2010Prop47
 90
       50
102
RTVSPost2010PropOp47
 70
     1
102
RTVSPost2010Prop48
 90
       50
102
RTVSPost2010PropOp48
 70
     1
102
RTVSPost2010Prop49
280
     0
102
RTVSPost2010PropOp49
 70
     1
102
RTVSPost2010Prop50
 90
       50
102
RTVSPost2010PropOp50
 70
     1
102
RTVSPost2010Prop51ColorIndex
 90
      256
102
RTVSPost2010Prop51ColorRGB
 90
-16777216
102
RTVSPost2010PropOp51
 70
     0
102
RTVSPost2010Prop52
140
1.0
102
RTVSPost2010PropOp52
 70
     0
102
RTVSPost2010Prop53
 90
        2
102
RTVSPost2010PropOp53
 70
     1
102
RTVSPost2010Prop54
  1
strokes_ogs.tif
102
RTVSPost2010PropOp54
 70
     1
102
RTVSPost2010Prop55
280
     0
102
RTVSPost2010PropOp55
 70
     1
102
RTVSPost2010Prop56
140
1.0
102
RTVSPost2010PropOp56
 70
     1
102
RTVSPost2010Prop57
140
1.0
102
RTVSPost2010PropOp57
 70
     1
  0
XRECORD
  5
FFD
102
{ACAD_REACTORS
330
FFC
102
}
330
FFC
100
AcDbXrecord
280
     1
102
RTVSPropertyOp0
 70
     0
102
RTVSPropertyOp1
 70
     0
102
RTVSPropertyOp2
 70
     0
102
RTVSPropertyOp3
 70
     0
102
RTVSPropertyOp4
 70
     0
102
RTVSPropertyOp5
 70
     0
102
RTVSPropertyOp6
 70
     0
102
RTVSPropertyOp7
 70
     0
102
RTVSPropertyOp8
 70
     0
102
RTVSPropertyOp9
 70
     0
102
RTVSPropertyOp10
 70
     0
102
RTVSPropertyOp11
 70
     0
102
RTVSPropertyOp12
 70
     0
102
RTVSPropertyOp13
 70
     0
102
RTVSPropertyOp14
 70
     2
102
RTVSPropertyOp15
 70
     0
102
RTVSPropertyOp16
 70
     0
102
RTVSPropertyOp17
 70
     0
102
RTVSPropertyOp18
 70
     0
102
RTVSPropertyOp19
 70
     0
102
RTVSPropertyOp20
 70
     0
102
RTVSPropertyOp21
 70
     0
102
RTVSPropertyOp22
 70
     0
102
RTVSPropertyOp23
 70
     0
102
RTVSPropertyOp24
 70
     0
102
RTVSPropertyOp25
 70
     0
102
RTVSPropertyOp26
 70
     0
102
RTVSPropertyOp27
 70
     0
102
RTVSPropertyOp28
 70
     0
102
RTVSPropertyOp29
 70
     0
102
RTVSPropertyOp30
 70
     0
102
RTVSPropertyOp31
 70
     0
102
RTVSPropertyOp32
 70
     0
102
RTVSPropertyOp33
 70
     0
102
RTVSPropertyOp34
 70
     0
102
RTVSPropertyOp35
 70
     0
102
RTVSPropertyOp36
 70
     0
102
RTVSPropertyOp37
 70
     0
102
RTVSPropertyOp38
 70
     0
102
RTVSPropertyOp39
 70
     0
102
RTVSPropertyOp40
 70
     0
102
RTVSPropertyOp41
 70
     0
102
RTVSPropertyOp42
 70
     0
102
RTVSPropertyOp43
 70
     0
102
RTVSPropertyOp44
 70
     0
102
RTVSPropertyOp45
 70
     0
102
RTVSPropertyOp46
 70
     0
102
RTVSPropertyOp47
 70
     0
102
RTVSPropertyOp48
 70
     0
102
RTVSPropertyOp49
 70
     0
102
RTVSPropertyOp50
 70
     0
102
RTVSPropertyOp51
 70
     0
102
RTVSPropertyOp52
 70
     0
102
RTVSPropertyOp53
 70
     0
102
RTVSPropertyOp54
 70
     0
102
RTVSPropertyOp55
 70
     0
102
RTVSPropertyOp56
 70
     0
102
RTVSPropertyOp57
 70
     0
102
RTVSPost2010Prop28
280
     0
102
RTVSPost2010PropOp28
 70
     0
102
RTVSPost2010Prop29
280
     1
102
RTVSPost2010PropOp29
 70
     0
102
RTVSPost2010Prop30
280
     1
102
RTVSPost2010PropOp30
 70
     0
102
RTVSPost2010Prop31
280
     0
102
RTVSPost2010PropOp31
 70
     0
102
RTVSPost2010Prop32
280
     0
102
RTVSPost2010PropOp32
 70
     0
102
RTVSPost2010Prop33
280
     0
102
RTVSPost2010PropOp33
 70
     0
102
RTVSPost2010Prop34
280
     0
102
RTVSPost2010PropOp34
 70
     0
102
RTVSPost2010Prop35
280
     0
102
RTVSPost2010PropOp35
 70
     0
102
RTVSPost2010Prop36
280
     0
102
RTVSPost2010PropOp36
 70
     0
102
RTVSPost2010Prop37
 90
       50
102
RTVSPost2010PropOp37
 70
     0
102
RTVSPost2010Prop38
140
0.0
102
RTVSPost2010PropOp38
 70
     0
102
RTVSPost2010Prop39
140
1.0
102
RTVSPost2010PropOp39
 70
     0
102
RTVSPost2010Prop40
 90
        0
102
RTVSPost2010PropOp40
 70
     0
102
RTVSPost2010Prop41ColorIndex
 90
       18
102
RTVSPost2010Prop41ColorRGB
 90
        0
102
RTVSPost2010PropOp41
 70
     0
102
RTVSPost2010Prop42
 90
       50
102
RTVSPost2010PropOp42
 70
     0
102
RTVSPost2010Prop43
 90
        3
102
RTVSPost2010PropOp43
 70
     0
102
RTVSPost2010Prop44ColorIndex
 90
        5
102
RTVSPost2010Prop44ColorRGB
 90
      255
102
RTVSPost2010PropOp44
 70
     0
102
RTVSPost2010Prop45
280
     0
102
RTVSPost2010PropOp45
 70
     0
102
RTVSPost2010Prop46
 90
       50
102
RTVSPost2010PropOp46
 70
     0
102
RTVSPost2010Prop47
 90
       50
102
RTVSPost2010PropOp47
 70
     0
102
RTVSPost2010Prop48
 90
       50
102
RTVSPost2010PropOp48
 70
     0
102
RTVSPost2010Prop49
280
     0
102
RTVSPost2010PropOp49
 70
     0
102
RTVSPost2010Prop50
 90
       50
102
RTVSPost2010PropOp50
 70
     0
102
RTVSPost2010Prop51ColorIndex
 90
      256
102
RTVSPost2010Prop51ColorRGB
 90
-16777216
102
RTVSPost2010PropOp51
 70
     0
102
RTVSPost2010Prop52
140
1.0
102
RTVSPost2010PropOp52
 70
     0
102
RTVSPost2010Prop53
 90
        2
102
RTVSPost2010PropOp53
 70
     0
102
RTVSPost2010Prop54
  1
strokes_ogs.tif
102
RTVSPost2010PropOp54
 70
     0
102
RTVSPost2010Prop55
280
     0
102
RTVSPost2010PropOp55
 70
     0
102
RTVSPost2010Prop56
140
1.0
102
RTVSPost2010PropOp56
 70
     0
102
RTVSPost2010Prop57
140
1.0
102
RTVSPost2010PropOp57
 70
     0
  0
XRECORD
  5
FF5
102
{ACAD_REACTORS
330
FF4
102
}
330
FF4
100
AcDbXrecord
280
     1
102
RTVSPropertyOp0
 70
     1
102
RTVSPropertyOp1
 70
     1
102
RTVSPropertyOp2
 70
     1
102
RTVSPropertyOp3
 70
     1
102
RTVSPropertyOp4
 70
     1
102
RTVSPropertyOp5
 70
     1
102
RTVSPropertyOp6
 70
     1
102
RTVSPropertyOp7
 70
     1
102
RTVSPropertyOp8
 70
     1
102
RTVSPropertyOp9
 70
     1
102
RTVSPropertyOp10
 70
     1
102
RTVSPropertyOp11
 70
     1
102
RTVSPropertyOp12
 70
     1
102
RTVSPropertyOp13
 70
     1
102
RTVSPropertyOp14
 70
     1
102
RTVSPropertyOp15
 70
     1
102
RTVSPropertyOp16
 70
     1
102
RTVSPropertyOp17
 70
     1
102
RTVSPropertyOp18
 70
     1
102
RTVSPropertyOp19
 70
     1
102
RTVSPropertyOp20
 70
     1
102
RTVSPropertyOp21
 70
     1
102
RTVSPropertyOp22
 70
     1
102
RTVSPropertyOp23
 70
     1
102
RTVSPropertyOp24
 70
     1
102
RTVSPropertyOp25
 70
     1
102
RTVSPropertyOp26
 70
     1
102
RTVSPropertyOp27
 70
     1
102
RTVSPropertyOp28
 70
     1
102
RTVSPropertyOp29
 70
     1
102
RTVSPropertyOp30
 70
     1
102
RTVSPropertyOp31
 70
     1
102
RTVSPropertyOp32
 70
     1
102
RTVSPropertyOp33
 70
     1
102
RTVSPropertyOp34
 70
     1
102
RTVSPropertyOp35
 70
     1
102
RTVSPropertyOp36
 70
     1
102
RTVSPropertyOp37
 70
     1
102
RTVSPropertyOp38
 70
     1
102
RTVSPropertyOp39
 70
     1
102
RTVSPropertyOp40
 70
     1
102
RTVSPropertyOp41
 70
     1
102
RTVSPropertyOp42
 70
     1
102
RTVSPropertyOp43
 70
     1
102
RTVSPropertyOp44
 70
     1
102
RTVSPropertyOp45
 70
     1
102
RTVSPropertyOp46
 70
     1
102
RTVSPropertyOp47
 70
     1
102
RTVSPropertyOp48
 70
     1
102
RTVSPropertyOp49
 70
     1
102
RTVSPropertyOp50
 70
     1
102
RTVSPropertyOp51
 70
     0
102
RTVSPropertyOp52
 70
     0
102
RTVSPropertyOp53
 70
     1
102
RTVSPropertyOp54
 70
     1
102
RTVSPropertyOp55
 70
     1
102
RTVSPropertyOp56
 70
     1
102
RTVSPropertyOp57
 70
     1
102
RTVSPost2010Prop28
280
     0
102
RTVSPost2010PropOp28
 70
     1
102
RTVSPost2010Prop29
280
     1
102
RTVSPost2010PropOp29
 70
     1
102
RTVSPost2010Prop30
280
     1
102
RTVSPost2010PropOp30
 70
     1
102
RTVSPost2010Prop31
280
     0
102
RTVSPost2010PropOp31
 70
     1
102
RTVSPost2010Prop32
280
     0
102
RTVSPost2010PropOp32
 70
     1
102
RTVSPost2010Prop33
280
     0
102
RTVSPost2010PropOp33
 70
     1
102
RTVSPost2010Prop34
280
     0
102
RTVSPost2010PropOp34
 70
     1
102
RTVSPost2010Prop35
280
     0
102
RTVSPost2010PropOp35
 70
     1
102
RTVSPost2010Prop36
280
     0
102
RTVSPost2010PropOp36
 70
     1
102
RTVSPost2010Prop37
 90
       50
102
RTVSPost2010PropOp37
 70
     1
102
RTVSPost2010Prop38
140
0.0
102
RTVSPost2010PropOp38
 70
     1
102
RTVSPost2010Prop39
140
1.0
102
RTVSPost2010PropOp39
 70
     1
102
RTVSPost2010Prop40
 90
        0
102
RTVSPost2010PropOp40
 70
     1
102
RTVSPost2010Prop41ColorIndex
 90
       18
102
RTVSPost2010Prop41ColorRGB
 90
        0
102
RTVSPost2010PropOp41
 70
     1
102
RTVSPost2010Prop42
 90
       50
102
RTVSPost2010PropOp42
 70
     1
102
RTVSPost2010Prop43
 90
        3
102
RTVSPost2010PropOp43
 70
     1
102
RTVSPost2010Prop44ColorIndex
 90
        5
102
RTVSPost2010Prop44ColorRGB
 90
      255
102
RTVSPost2010PropOp44
 70
     1
102
RTVSPost2010Prop45
280
     0
102
RTVSPost2010PropOp45
 70
     1
102
RTVSPost2010Prop46
 90
       50
102
RTVSPost2010PropOp46
 70
     1
102
RTVSPost2010Prop47
 90
       50
102
RTVSPost2010PropOp47
 70
     1
102
RTVSPost2010Prop48
 90
       50
102
RTVSPost2010PropOp48
 70
     1
102
RTVSPost2010Prop49
280
     0
102
RTVSPost2010PropOp49
 70
     1
102
RTVSPost2010Prop50
 90
       50
102
RTVSPost2010PropOp50
 70
     1
102
RTVSPost2010Prop51ColorIndex
 90
      256
102
RTVSPost2010Prop51ColorRGB
 90
-16777216
102
RTVSPost2010PropOp51
 70
     0
102
RTVSPost2010Prop52
140
1.0
102
RTVSPost2010PropOp52
 70
     0
102
RTVSPost2010Prop53
 90
        2
102
RTVSPost2010PropOp53
 70
     1
102
RTVSPost2010Prop54
  1
strokes_ogs.tif
102
RTVSPost2010PropOp54
 70
     1
102
RTVSPost2010Prop55
280
     0
102
RTVSPost2010PropOp55
 70
     1
102
RTVSPost2010Prop56
140
1.0
102
RTVSPost2010PropOp56
 70
     1
102
RTVSPost2010Prop57
140
1.0
102
RTVSPost2010PropOp57
 70
     1
  0
XRECORD
  5
FD9
102
{ACAD_REACTORS
330
FD8
102
}
330
FD8
100
AcDbXrecord
280
     1
102
RTVSPropertyOp0
 70
     1
102
RTVSPropertyOp1
 70
     1
102
RTVSPropertyOp2
 70
     1
102
RTVSPropertyOp3
 70
     1
102
RTVSPropertyOp4
 70
     1
102
RTVSPropertyOp5
 70
     1
102
RTVSPropertyOp6
 70
     1
102
RTVSPropertyOp7
 70
     1
102
RTVSPropertyOp8
 70
     1
102
RTVSPropertyOp9
 70
     1
102
RTVSPropertyOp10
 70
     1
102
RTVSPropertyOp11
 70
     1
102
RTVSPropertyOp12
 70
     1
102
RTVSPropertyOp13
 70
     1
102
RTVSPropertyOp14
 70
     1
102
RTVSPropertyOp15
 70
     1
102
RTVSPropertyOp16
 70
     1
102
RTVSPropertyOp17
 70
     1
102
RTVSPropertyOp18
 70
     1
102
RTVSPropertyOp19
 70
     1
102
RTVSPropertyOp20
 70
     1
102
RTVSPropertyOp21
 70
     1
102
RTVSPropertyOp22
 70
     1
102
RTVSPropertyOp23
 70
     1
102
RTVSPropertyOp24
 70
     1
102
RTVSPropertyOp25
 70
     1
102
RTVSPropertyOp26
 70
     1
102
RTVSPropertyOp27
 70
     1
102
RTVSPropertyOp28
 70
     1
102
RTVSPropertyOp29
 70
     1
102
RTVSPropertyOp30
 70
     1
102
RTVSPropertyOp31
 70
     1
102
RTVSPropertyOp32
 70
     1
102
RTVSPropertyOp33
 70
     1
102
RTVSPropertyOp34
 70
     1
102
RTVSPropertyOp35
 70
     1
102
RTVSPropertyOp36
 70
     1
102
RTVSPropertyOp37
 70
     1
102
RTVSPropertyOp38
 70
     1
102
RTVSPropertyOp39
 70
     1
102
RTVSPropertyOp40
 70
     1
102
RTVSPropertyOp41
 70
     1
102
RTVSPropertyOp42
 70
     1
102
RTVSPropertyOp43
 70
     1
102
RTVSPropertyOp44
 70
     1
102
RTVSPropertyOp45
 70
     1
102
RTVSPropertyOp46
 70
     1
102
RTVSPropertyOp47
 70
     1
102
RTVSPropertyOp48
 70
     1
102
RTVSPropertyOp49
 70
     1
102
RTVSPropertyOp50
 70
     1
102
RTVSPropertyOp51
 70
     0
102
RTVSPropertyOp52
 70
     0
102
RTVSPropertyOp53
 70
     1
102
RTVSPropertyOp54
 70
     1
102
RTVSPropertyOp55
 70
     1
102
RTVSPropertyOp56
 70
     1
102
RTVSPropertyOp57
 70
     1
102
RTVSPost2010Prop28
280
     0
102
RTVSPost2010PropOp28
 70
     1
102
RTVSPost2010Prop29
280
     1
102
RTVSPost2010PropOp29
 70
     1
102
RTVSPost2010Prop30
280
     1
102
RTVSPost2010PropOp30
 70
     1
102
RTVSPost2010Prop31
280
     0
102
RTVSPost2010PropOp31
 70
     1
102
RTVSPost2010Prop32
280
     0
102
RTVSPost2010PropOp32
 70
     1
102
RTVSPost2010Prop33
280
     0
102
RTVSPost2010PropOp33
 70
     1
102
RTVSPost2010Prop34
280
     0
102
RTVSPost2010PropOp34
 70
     1
102
RTVSPost2010Prop35
280
     0
102
RTVSPost2010PropOp35
 70
     1
102
RTVSPost2010Prop36
280
     0
102
RTVSPost2010PropOp36
 70
     1
102
RTVSPost2010Prop37
 90
       50
102
RTVSPost2010PropOp37
 70
     1
102
RTVSPost2010Prop38
140
0.0
102
RTVSPost2010PropOp38
 70
     1
102
RTVSPost2010Prop39
140
1.0
102
RTVSPost2010PropOp39
 70
     1
102
RTVSPost2010Prop40
 90
        0
102
RTVSPost2010PropOp40
 70
     1
102
RTVSPost2010Prop41ColorIndex
 90
       18
102
RTVSPost2010Prop41ColorRGB
 90
        0
102
RTVSPost2010PropOp41
 70
     1
102
RTVSPost2010Prop42
 90
       50
102
RTVSPost2010PropOp42
 70
     1
102
RTVSPost2010Prop43
 90
        3
102
RTVSPost2010PropOp43
 70
     1
102
RTVSPost2010Prop44ColorIndex
 90
        5
102
RTVSPost2010Prop44ColorRGB
 90
      255
102
RTVSPost2010PropOp44
 70
     1
102
RTVSPost2010Prop45
280
     0
102
RTVSPost2010PropOp45
 70
     1
102
RTVSPost2010Prop46
 90
       50
102
RTVSPost2010PropOp46
 70
     1
102
RTVSPost2010Prop47
 90
       50
102
RTVSPost2010PropOp47
 70
     1
102
RTVSPost2010Prop48
 90
       50
102
RTVSPost2010PropOp48
 70
     1
102
RTVSPost2010Prop49
280
     0
102
RTVSPost2010PropOp49
 70
     1
102
RTVSPost2010Prop50
 90
       50
102
RTVSPost2010PropOp50
 70
     1
102
RTVSPost2010Prop51ColorIndex
 90
      256
102
RTVSPost2010Prop51ColorRGB
 90
-16777216
102
RTVSPost2010PropOp51
 70
     0
102
RTVSPost2010Prop52
140
1.0
102
RTVSPost2010PropOp52
 70
     0
102
RTVSPost2010Prop53
 90
        2
102
RTVSPost2010PropOp53
 70
     1
102
RTVSPost2010Prop54
  1
strokes_ogs.tif
102
RTVSPost2010PropOp54
 70
     1
102
RTVSPost2010Prop55
280
     0
102
RTVSPost2010PropOp55
 70
     1
102
RTVSPost2010Prop56
140
1.0
102
RTVSPost2010PropOp56
 70
     1
102
RTVSPost2010Prop57
140
1.0
102
RTVSPost2010PropOp57
 70
     1
  0
XRECORD
  5
FDB
102
{ACAD_REACTORS
330
FDA
102
}
330
FDA
100
AcDbXrecord
280
     1
102
RTVSPropertyOp0
 70
     1
102
RTVSPropertyOp1
 70
     1
102
RTVSPropertyOp2
 70
     1
102
RTVSPropertyOp3
 70
     1
102
RTVSPropertyOp4
 70
     1
102
RTVSPropertyOp5
 70
     1
102
RTVSPropertyOp6
 70
     1
102
RTVSPropertyOp7
 70
     1
102
RTVSPropertyOp8
 70
     1
102
RTVSPropertyOp9
 70
     1
102
RTVSPropertyOp10
 70
     1
102
RTVSPropertyOp11
 70
     1
102
RTVSPropertyOp12
 70
     1
102
RTVSPropertyOp13
 70
     1
102
RTVSPropertyOp14
 70
     1
102
RTVSPropertyOp15
 70
     1
102
RTVSPropertyOp16
 70
     1
102
RTVSPropertyOp17
 70
     1
102
RTVSPropertyOp18
 70
     1
102
RTVSPropertyOp19
 70
     1
102
RTVSPropertyOp20
 70
     1
102
RTVSPropertyOp21
 70
     1
102
RTVSPropertyOp22
 70
     1
102
RTVSPropertyOp23
 70
     1
102
RTVSPropertyOp24
 70
     1
102
RTVSPropertyOp25
 70
     1
102
RTVSPropertyOp26
 70
     1
102
RTVSPropertyOp27
 70
     1
102
RTVSPropertyOp28
 70
     1
102
RTVSPropertyOp29
 70
     1
102
RTVSPropertyOp30
 70
     1
102
RTVSPropertyOp31
 70
     1
102
RTVSPropertyOp32
 70
     1
102
RTVSPropertyOp33
 70
     1
102
RTVSPropertyOp34
 70
     1
102
RTVSPropertyOp35
 70
     1
102
RTVSPropertyOp36
 70
     1
102
RTVSPropertyOp37
 70
     1
102
RTVSPropertyOp38
 70
     1
102
RTVSPropertyOp39
 70
     1
102
RTVSPropertyOp40
 70
     1
102
RTVSPropertyOp41
 70
     1
102
RTVSPropertyOp42
 70
     1
102
RTVSPropertyOp43
 70
     1
102
RTVSPropertyOp44
 70
     1
102
RTVSPropertyOp45
 70
     1
102
RTVSPropertyOp46
 70
     1
102
RTVSPropertyOp47
 70
     1
102
RTVSPropertyOp48
 70
     1
102
RTVSPropertyOp49
 70
     1
102
RTVSPropertyOp50
 70
     1
102
RTVSPropertyOp51
 70
     0
102
RTVSPropertyOp52
 70
     0
102
RTVSPropertyOp53
 70
     1
102
RTVSPropertyOp54
 70
     1
102
RTVSPropertyOp55
 70
     1
102
RTVSPropertyOp56
 70
     1
102
RTVSPropertyOp57
 70
     1
102
RTVSPost2010Prop28
280
     0
102
RTVSPost2010PropOp28
 70
     1
102
RTVSPost2010Prop29
280
     1
102
RTVSPost2010PropOp29
 70
     1
102
RTVSPost2010Prop30
280
     1
102
RTVSPost2010PropOp30
 70
     1
102
RTVSPost2010Prop31
280
     0
102
RTVSPost2010PropOp31
 70
     1
102
RTVSPost2010Prop32
280
     0
102
RTVSPost2010PropOp32
 70
     1
102
RTVSPost2010Prop33
280
     0
102
RTVSPost2010PropOp33
 70
     1
102
RTVSPost2010Prop34
280
     0
102
RTVSPost2010PropOp34
 70
     1
102
RTVSPost2010Prop35
280
     0
102
RTVSPost2010PropOp35
 70
     1
102
RTVSPost2010Prop36
280
     0
102
RTVSPost2010PropOp36
 70
     1
102
RTVSPost2010Prop37
 90
       50
102
RTVSPost2010PropOp37
 70
     1
102
RTVSPost2010Prop38
140
0.0
102
RTVSPost2010PropOp38
 70
     1
102
RTVSPost2010Prop39
140
1.0
102
RTVSPost2010PropOp39
 70
     1
102
RTVSPost2010Prop40
 90
        0
102
RTVSPost2010PropOp40
 70
     1
102
RTVSPost2010Prop41ColorIndex
 90
       18
102
RTVSPost2010Prop41ColorRGB
 90
        0
102
RTVSPost2010PropOp41
 70
     1
102
RTVSPost2010Prop42
 90
       50
102
RTVSPost2010PropOp42
 70
     1
102
RTVSPost2010Prop43
 90
        3
102
RTVSPost2010PropOp43
 70
     1
102
RTVSPost2010Prop44ColorIndex
 90
        5
102
RTVSPost2010Prop44ColorRGB
 90
      255
102
RTVSPost2010PropOp44
 70
     1
102
RTVSPost2010Prop45
280
     0
102
RTVSPost2010PropOp45
 70
     1
102
RTVSPost2010Prop46
 90
       50
102
RTVSPost2010PropOp46
 70
     1
102
RTVSPost2010Prop47
 90
       50
102
RTVSPost2010PropOp47
 70
     1
102
RTVSPost2010Prop48
 90
       50
102
RTVSPost2010PropOp48
 70
     1
102
RTVSPost2010Prop49
280
     0
102
RTVSPost2010PropOp49
 70
     1
102
RTVSPost2010Prop50
 90
       50
102
RTVSPost2010PropOp50
 70
     1
102
RTVSPost2010Prop51ColorIndex
 90
      256
102
RTVSPost2010Prop51ColorRGB
 90
-16777216
102
RTVSPost2010PropOp51
 70
     0
102
RTVSPost2010Prop52
140
1.0
102
RTVSPost2010PropOp52
 70
     0
102
RTVSPost2010Prop53
 90
        2
102
RTVSPost2010PropOp53
 70
     1
102
RTVSPost2010Prop54
  1
strokes_ogs.tif
102
RTVSPost2010PropOp54
 70
     1
102
RTVSPost2010Prop55
280
     0
102
RTVSPost2010PropOp55
 70
     1
102
RTVSPost2010Prop56
140
1.0
102
RTVSPost2010PropOp56
 70
     1
102
RTVSPost2010Prop57
140
1.0
102
RTVSPost2010PropOp57
 70
     1
  0
XRECORD
  5
FDD
102
{ACAD_REACTORS
330
FDC
102
}
330
FDC
100
AcDbXrecord
280
     1
102
RTVSPropertyOp0
 70
     1
102
RTVSPropertyOp1
 70
     1
102
RTVSPropertyOp2
 70
     1
102
RTVSPropertyOp3
 70
     1
102
RTVSPropertyOp4
 70
     1
102
RTVSPropertyOp5
 70
     1
102
RTVSPropertyOp6
 70
     1
102
RTVSPropertyOp7
 70
     1
102
RTVSPropertyOp8
 70
     1
102
RTVSPropertyOp9
 70
     1
102
RTVSPropertyOp10
 70
     1
102
RTVSPropertyOp11
 70
     1
102
RTVSPropertyOp12
 70
     1
102
RTVSPropertyOp13
 70
     1
102
RTVSPropertyOp14
 70
     1
102
RTVSPropertyOp15
 70
     1
102
RTVSPropertyOp16
 70
     1
102
RTVSPropertyOp17
 70
     1
102
RTVSPropertyOp18
 70
     1
102
RTVSPropertyOp19
 70
     1
102
RTVSPropertyOp20
 70
     1
102
RTVSPropertyOp21
 70
     1
102
RTVSPropertyOp22
 70
     1
102
RTVSPropertyOp23
 70
     1
102
RTVSPropertyOp24
 70
     1
102
RTVSPropertyOp25
 70
     1
102
RTVSPropertyOp26
 70
     1
102
RTVSPropertyOp27
 70
     1
102
RTVSPropertyOp28
 70
     1
102
RTVSPropertyOp29
 70
     1
102
RTVSPropertyOp30
 70
     1
102
RTVSPropertyOp31
 70
     1
102
RTVSPropertyOp32
 70
     1
102
RTVSPropertyOp33
 70
     1
102
RTVSPropertyOp34
 70
     1
102
RTVSPropertyOp35
 70
     1
102
RTVSPropertyOp36
 70
     1
102
RTVSPropertyOp37
 70
     1
102
RTVSPropertyOp38
 70
     1
102
RTVSPropertyOp39
 70
     1
102
RTVSPropertyOp40
 70
     1
102
RTVSPropertyOp41
 70
     1
102
RTVSPropertyOp42
 70
     1
102
RTVSPropertyOp43
 70
     1
102
RTVSPropertyOp44
 70
     1
102
RTVSPropertyOp45
 70
     1
102
RTVSPropertyOp46
 70
     1
102
RTVSPropertyOp47
 70
     1
102
RTVSPropertyOp48
 70
     1
102
RTVSPropertyOp49
 70
     1
102
RTVSPropertyOp50
 70
     1
102
RTVSPropertyOp51
 70
     0
102
RTVSPropertyOp52
 70
     0
102
RTVSPropertyOp53
 70
     1
102
RTVSPropertyOp54
 70
     1
102
RTVSPropertyOp55
 70
     1
102
RTVSPropertyOp56
 70
     1
102
RTVSPropertyOp57
 70
     1
102
RTVSPost2010Prop28
280
     0
102
RTVSPost2010PropOp28
 70
     1
102
RTVSPost2010Prop29
280
     1
102
RTVSPost2010PropOp29
 70
     1
102
RTVSPost2010Prop30
280
     1
102
RTVSPost2010PropOp30
 70
     1
102
RTVSPost2010Prop31
280
     0
102
RTVSPost2010PropOp31
 70
     1
102
RTVSPost2010Prop32
280
     0
102
RTVSPost2010PropOp32
 70
     1
102
RTVSPost2010Prop33
280
     0
102
RTVSPost2010PropOp33
 70
     1
102
RTVSPost2010Prop34
280
     0
102
RTVSPost2010PropOp34
 70
     1
102
RTVSPost2010Prop35
280
     0
102
RTVSPost2010PropOp35
 70
     1
102
RTVSPost2010Prop36
280
     0
102
RTVSPost2010PropOp36
 70
     1
102
RTVSPost2010Prop37
 90
       50
102
RTVSPost2010PropOp37
 70
     1
102
RTVSPost2010Prop38
140
0.0
102
RTVSPost2010PropOp38
 70
     1
102
RTVSPost2010Prop39
140
1.0
102
RTVSPost2010PropOp39
 70
     1
102
RTVSPost2010Prop40
 90
        0
102
RTVSPost2010PropOp40
 70
     1
102
RTVSPost2010Prop41ColorIndex
 90
       18
102
RTVSPost2010Prop41ColorRGB
 90
        0
102
RTVSPost2010PropOp41
 70
     1
102
RTVSPost2010Prop42
 90
       50
102
RTVSPost2010PropOp42
 70
     1
102
RTVSPost2010Prop43
 90
        3
102
RTVSPost2010PropOp43
 70
     1
102
RTVSPost2010Prop44ColorIndex
 90
        5
102
RTVSPost2010Prop44ColorRGB
 90
      255
102
RTVSPost2010PropOp44
 70
     1
102
RTVSPost2010Prop45
280
     0
102
RTVSPost2010PropOp45
 70
     1
102
RTVSPost2010Prop46
 90
       50
102
RTVSPost2010PropOp46
 70
     1
102
RTVSPost2010Prop47
 90
       50
102
RTVSPost2010PropOp47
 70
     1
102
RTVSPost2010Prop48
 90
       50
102
RTVSPost2010PropOp48
 70
     1
102
RTVSPost2010Prop49
280
     0
102
RTVSPost2010PropOp49
 70
     1
102
RTVSPost2010Prop50
 90
       50
102
RTVSPost2010PropOp50
 70
     1
102
RTVSPost2010Prop51ColorIndex
 90
      256
102
RTVSPost2010Prop51ColorRGB
 90
-16777216
102
RTVSPost2010PropOp51
 70
     0
102
RTVSPost2010Prop52
140
1.0
102
RTVSPost2010PropOp52
 70
     0
102
RTVSPost2010Prop53
 90
        2
102
RTVSPost2010PropOp53
 70
     1
102
RTVSPost2010Prop54
  1
strokes_ogs.tif
102
RTVSPost2010PropOp54
 70
     1
102
RTVSPost2010Prop55
280
     0
102
RTVSPost2010PropOp55
 70
     1
102
RTVSPost2010Prop56
140
1.0
102
RTVSPost2010PropOp56
 70
     1
102
RTVSPost2010Prop57
140
1.0
102
RTVSPost2010PropOp57
 70
     1
  0
XRECORD
  5
FDF
102
{ACAD_REACTORS
330
FDE
102
}
330
FDE
100
AcDbXrecord
280
     1
102
RTVSPropertyOp0
 70
     1
102
RTVSPropertyOp1
 70
     1
102
RTVSPropertyOp2
 70
     1
102
RTVSPropertyOp3
 70
     1
102
RTVSPropertyOp4
 70
     1
102
RTVSPropertyOp5
 70
     1
102
RTVSPropertyOp6
 70
     1
102
RTVSPropertyOp7
 70
     1
102
RTVSPropertyOp8
 70
     1
102
RTVSPropertyOp9
 70
     1
102
RTVSPropertyOp10
 70
     1
102
RTVSPropertyOp11
 70
     1
102
RTVSPropertyOp12
 70
     1
102
RTVSPropertyOp13
 70
     1
102
RTVSPropertyOp14
 70
     1
102
RTVSPropertyOp15
 70
     1
102
RTVSPropertyOp16
 70
     1
102
RTVSPropertyOp17
 70
     1
102
RTVSPropertyOp18
 70
     1
102
RTVSPropertyOp19
 70
     1
102
RTVSPropertyOp20
 70
     1
102
RTVSPropertyOp21
 70
     1
102
RTVSPropertyOp22
 70
     1
102
RTVSPropertyOp23
 70
     1
102
RTVSPropertyOp24
 70
     1
102
RTVSPropertyOp25
 70
     1
102
RTVSPropertyOp26
 70
     1
102
RTVSPropertyOp27
 70
     1
102
RTVSPropertyOp28
 70
     1
102
RTVSPropertyOp29
 70
     1
102
RTVSPropertyOp30
 70
     1
102
RTVSPropertyOp31
 70
     1
102
RTVSPropertyOp32
 70
     1
102
RTVSPropertyOp33
 70
     1
102
RTVSPropertyOp34
 70
     1
102
RTVSPropertyOp35
 70
     1
102
RTVSPropertyOp36
 70
     1
102
RTVSPropertyOp37
 70
     1
102
RTVSPropertyOp38
 70
     1
102
RTVSPropertyOp39
 70
     1
102
RTVSPropertyOp40
 70
     1
102
RTVSPropertyOp41
 70
     1
102
RTVSPropertyOp42
 70
     1
102
RTVSPropertyOp43
 70
     1
102
RTVSPropertyOp44
 70
     1
102
RTVSPropertyOp45
 70
     1
102
RTVSPropertyOp46
 70
     1
102
RTVSPropertyOp47
 70
     1
102
RTVSPropertyOp48
 70
     1
102
RTVSPropertyOp49
 70
     1
102
RTVSPropertyOp50
 70
     1
102
RTVSPropertyOp51
 70
     0
102
RTVSPropertyOp52
 70
     0
102
RTVSPropertyOp53
 70
     1
102
RTVSPropertyOp54
 70
     1
102
RTVSPropertyOp55
 70
     1
102
RTVSPropertyOp56
 70
     1
102
RTVSPropertyOp57
 70
     1
102
RTVSPost2010Prop28
280
     0
102
RTVSPost2010PropOp28
 70
     1
102
RTVSPost2010Prop29
280
     1
102
RTVSPost2010PropOp29
 70
     1
102
RTVSPost2010Prop30
280
     1
102
RTVSPost2010PropOp30
 70
     1
102
RTVSPost2010Prop31
280
     0
102
RTVSPost2010PropOp31
 70
     1
102
RTVSPost2010Prop32
280
     0
102
RTVSPost2010PropOp32
 70
     1
102
RTVSPost2010Prop33
280
     0
102
RTVSPost2010PropOp33
 70
     1
102
RTVSPost2010Prop34
280
     0
102
RTVSPost2010PropOp34
 70
     1
102
RTVSPost2010Prop35
280
     0
102
RTVSPost2010PropOp35
 70
     1
102
RTVSPost2010Prop36
280
     0
102
RTVSPost2010PropOp36
 70
     1
102
RTVSPost2010Prop37
 90
       50
102
RTVSPost2010PropOp37
 70
     1
102
RTVSPost2010Prop38
140
0.0
102
RTVSPost2010PropOp38
 70
     1
102
RTVSPost2010Prop39
140
1.0
102
RTVSPost2010PropOp39
 70
     1
102
RTVSPost2010Prop40
 90
        0
102
RTVSPost2010PropOp40
 70
     1
102
RTVSPost2010Prop41ColorIndex
 90
       18
102
RTVSPost2010Prop41ColorRGB
 90
        0
102
RTVSPost2010PropOp41
 70
     1
102
RTVSPost2010Prop42
 90
       50
102
RTVSPost2010PropOp42
 70
     1
102
RTVSPost2010Prop43
 90
        3
102
RTVSPost2010PropOp43
 70
     1
102
RTVSPost2010Prop44ColorIndex
 90
        5
102
RTVSPost2010Prop44ColorRGB
 90
      255
102
RTVSPost2010PropOp44
 70
     1
102
RTVSPost2010Prop45
280
     0
102
RTVSPost2010PropOp45
 70
     1
102
RTVSPost2010Prop46
 90
       50
102
RTVSPost2010PropOp46
 70
     1
102
RTVSPost2010Prop47
 90
       50
102
RTVSPost2010PropOp47
 70
     1
102
RTVSPost2010Prop48
 90
       50
102
RTVSPost2010PropOp48
 70
     1
102
RTVSPost2010Prop49
280
     0
102
RTVSPost2010PropOp49
 70
     1
102
RTVSPost2010Prop50
 90
       50
102
RTVSPost2010PropOp50
 70
     1
102
RTVSPost2010Prop51ColorIndex
 90
      256
102
RTVSPost2010Prop51ColorRGB
 90
-16777216
102
RTVSPost2010PropOp51
 70
     0
102
RTVSPost2010Prop52
140
1.0
102
RTVSPost2010PropOp52
 70
     0
102
RTVSPost2010Prop53
 90
        2
102
RTVSPost2010PropOp53
 70
     1
102
RTVSPost2010Prop54
  1
strokes_ogs.tif
102
RTVSPost2010PropOp54
 70
     1
102
RTVSPost2010Prop55
280
     0
102
RTVSPost2010PropOp55
 70
     1
102
RTVSPost2010Prop56
140
1.0
102
RTVSPost2010PropOp56
 70
     1
102
RTVSPost2010Prop57
140
1.0
102
RTVSPost2010PropOp57
 70
     1
  0
XRECORD
  5
FE5
102
{ACAD_REACTORS
330
FE4
102
}
330
FE4
100
AcDbXrecord
280
     1
102
RTVSPropertyOp0
 70
     1
102
RTVSPropertyOp1
 70
     1
102
RTVSPropertyOp2
 70
     1
102
RTVSPropertyOp3
 70
     1
102
RTVSPropertyOp4
 70
     1
102
RTVSPropertyOp5
 70
     1
102
RTVSPropertyOp6
 70
     1
102
RTVSPropertyOp7
 70
     1
102
RTVSPropertyOp8
 70
     1
102
RTVSPropertyOp9
 70
     1
102
RTVSPropertyOp10
 70
     1
102
RTVSPropertyOp11
 70
     1
102
RTVSPropertyOp12
 70
     1
102
RTVSPropertyOp13
 70
     1
102
RTVSPropertyOp14
 70
     1
102
RTVSPropertyOp15
 70
     1
102
RTVSPropertyOp16
 70
     1
102
RTVSPropertyOp17
 70
     1
102
RTVSPropertyOp18
 70
     1
102
RTVSPropertyOp19
 70
     1
102
RTVSPropertyOp20
 70
     1
102
RTVSPropertyOp21
 70
     1
102
RTVSPropertyOp22
 70
     1
102
RTVSPropertyOp23
 70
     1
102
RTVSPropertyOp24
 70
     1
102
RTVSPropertyOp25
 70
     1
102
RTVSPropertyOp26
 70
     1
102
RTVSPropertyOp27
 70
     1
102
RTVSPropertyOp28
 70
     1
102
RTVSPropertyOp29
 70
     1
102
RTVSPropertyOp30
 70
     1
102
RTVSPropertyOp31
 70
     1
102
RTVSPropertyOp32
 70
     1
102
RTVSPropertyOp33
 70
     1
102
RTVSPropertyOp34
 70
     1
102
RTVSPropertyOp35
 70
     1
102
RTVSPropertyOp36
 70
     1
102
RTVSPropertyOp37
 70
     1
102
RTVSPropertyOp38
 70
     1
102
RTVSPropertyOp39
 70
     1
102
RTVSPropertyOp40
 70
     1
102
RTVSPropertyOp41
 70
     1
102
RTVSPropertyOp42
 70
     1
102
RTVSPropertyOp43
 70
     1
102
RTVSPropertyOp44
 70
     1
102
RTVSPropertyOp45
 70
     1
102
RTVSPropertyOp46
 70
     1
102
RTVSPropertyOp47
 70
     1
102
RTVSPropertyOp48
 70
     1
102
RTVSPropertyOp49
 70
     1
102
RTVSPropertyOp50
 70
     1
102
RTVSPropertyOp51
 70
     0
102
RTVSPropertyOp52
 70
     0
102
RTVSPropertyOp53
 70
     1
102
RTVSPropertyOp54
 70
     1
102
RTVSPropertyOp55
 70
     1
102
RTVSPropertyOp56
 70
     1
102
RTVSPropertyOp57
 70
     1
102
RTVSPost2010Prop28
280
     0
102
RTVSPost2010PropOp28
 70
     1
102
RTVSPost2010Prop29
280
     1
102
RTVSPost2010PropOp29
 70
     1
102
RTVSPost2010Prop30
280
     1
102
RTVSPost2010PropOp30
 70
     1
102
RTVSPost2010Prop31
280
     0
102
RTVSPost2010PropOp31
 70
     1
102
RTVSPost2010Prop32
280
     0
102
RTVSPost2010PropOp32
 70
     1
102
RTVSPost2010Prop33
280
     0
102
RTVSPost2010PropOp33
 70
     1
102
RTVSPost2010Prop34
280
     0
102
RTVSPost2010PropOp34
 70
     1
102
RTVSPost2010Prop35
280
     0
102
RTVSPost2010PropOp35
 70
     1
102
RTVSPost2010Prop36
280
     0
102
RTVSPost2010PropOp36
 70
     1
102
RTVSPost2010Prop37
 90
       50
102
RTVSPost2010PropOp37
 70
     1
102
RTVSPost2010Prop38
140
0.0
102
RTVSPost2010PropOp38
 70
     1
102
RTVSPost2010Prop39
140
1.0
102
RTVSPost2010PropOp39
 70
     1
102
RTVSPost2010Prop40
 90
        0
102
RTVSPost2010PropOp40
 70
     1
102
RTVSPost2010Prop41ColorIndex
 90
       18
102
RTVSPost2010Prop41ColorRGB
 90
        0
102
RTVSPost2010PropOp41
 70
     1
102
RTVSPost2010Prop42
 90
       50
102
RTVSPost2010PropOp42
 70
     1
102
RTVSPost2010Prop43
 90
        3
102
RTVSPost2010PropOp43
 70
     1
102
RTVSPost2010Prop44ColorIndex
 90
        5
102
RTVSPost2010Prop44ColorRGB
 90
      255
102
RTVSPost2010PropOp44
 70
     1
102
RTVSPost2010Prop45
280
     0
102
RTVSPost2010PropOp45
 70
     1
102
RTVSPost2010Prop46
 90
       50
102
RTVSPost2010PropOp46
 70
     1
102
RTVSPost2010Prop47
 90
       50
102
RTVSPost2010PropOp47
 70
     1
102
RTVSPost2010Prop48
 90
       50
102
RTVSPost2010PropOp48
 70
     1
102
RTVSPost2010Prop49
280
     0
102
RTVSPost2010PropOp49
 70
     1
102
RTVSPost2010Prop50
 90
       50
102
RTVSPost2010PropOp50
 70
     1
102
RTVSPost2010Prop51ColorIndex
 90
      256
102
RTVSPost2010Prop51ColorRGB
 90
-16777216
102
RTVSPost2010PropOp51
 70
     0
102
RTVSPost2010Prop52
140
1.0
102
RTVSPost2010PropOp52
 70
     0
102
RTVSPost2010Prop53
 90
        2
102
RTVSPost2010PropOp53
 70
     1
102
RTVSPost2010Prop54
  1
strokes_ogs.tif
102
RTVSPost2010PropOp54
 70
     1
102
RTVSPost2010Prop55
280
     0
102
RTVSPost2010PropOp55
 70
     1
102
RTVSPost2010Prop56
140
1.0
102
RTVSPost2010PropOp56
 70
     1
102
RTVSPost2010Prop57
140
1.0
102
RTVSPost2010PropOp57
 70
     1
  0
XRECORD
  5
FF9
102
{ACAD_REACTORS
330
FF8
102
}
330
FF8
100
AcDbXrecord
280
     1
102
RTVSPropertyOp0
 70
     0
102
RTVSPropertyOp1
 70
     0
102
RTVSPropertyOp2
 70
     0
102
RTVSPropertyOp3
 70
     0
102
RTVSPropertyOp4
 70
     0
102
RTVSPropertyOp5
 70
     0
102
RTVSPropertyOp6
 70
     0
102
RTVSPropertyOp7
 70
     0
102
RTVSPropertyOp8
 70
     0
102
RTVSPropertyOp9
 70
     0
102
RTVSPropertyOp10
 70
     0
102
RTVSPropertyOp11
 70
     0
102
RTVSPropertyOp12
 70
     0
102
RTVSPropertyOp13
 70
     0
102
RTVSPropertyOp14
 70
     2
102
RTVSPropertyOp15
 70
     0
102
RTVSPropertyOp16
 70
     0
102
RTVSPropertyOp17
 70
     0
102
RTVSPropertyOp18
 70
     0
102
RTVSPropertyOp19
 70
     0
102
RTVSPropertyOp20
 70
     0
102
RTVSPropertyOp21
 70
     0
102
RTVSPropertyOp22
 70
     0
102
RTVSPropertyOp23
 70
     0
102
RTVSPropertyOp24
 70
     0
102
RTVSPropertyOp25
 70
     0
102
RTVSPropertyOp26
 70
     0
102
RTVSPropertyOp27
 70
     0
102
RTVSPropertyOp28
 70
     0
102
RTVSPropertyOp29
 70
     0
102
RTVSPropertyOp30
 70
     0
102
RTVSPropertyOp31
 70
     0
102
RTVSPropertyOp32
 70
     0
102
RTVSPropertyOp33
 70
     0
102
RTVSPropertyOp34
 70
     0
102
RTVSPropertyOp35
 70
     0
102
RTVSPropertyOp36
 70
     0
102
RTVSPropertyOp37
 70
     0
102
RTVSPropertyOp38
 70
     0
102
RTVSPropertyOp39
 70
     0
102
RTVSPropertyOp40
 70
     0
102
RTVSPropertyOp41
 70
     0
102
RTVSPropertyOp42
 70
     0
102
RTVSPropertyOp43
 70
     0
102
RTVSPropertyOp44
 70
     0
102
RTVSPropertyOp45
 70
     0
102
RTVSPropertyOp46
 70
     0
102
RTVSPropertyOp47
 70
     0
102
RTVSPropertyOp48
 70
     0
102
RTVSPropertyOp49
 70
     0
102
RTVSPropertyOp50
 70
     0
102
RTVSPropertyOp51
 70
     0
102
RTVSPropertyOp52
 70
     0
102
RTVSPropertyOp53
 70
     0
102
RTVSPropertyOp54
 70
     0
102
RTVSPropertyOp55
 70
     0
102
RTVSPropertyOp56
 70
     0
102
RTVSPropertyOp57
 70
     0
102
RTVSPost2010Prop28
280
     0
102
RTVSPost2010PropOp28
 70
     0
102
RTVSPost2010Prop29
280
     1
102
RTVSPost2010PropOp29
 70
     0
102
RTVSPost2010Prop30
280
     1
102
RTVSPost2010PropOp30
 70
     0
102
RTVSPost2010Prop31
280
     0
102
RTVSPost2010PropOp31
 70
     0
102
RTVSPost2010Prop32
280
     0
102
RTVSPost2010PropOp32
 70
     0
102
RTVSPost2010Prop33
280
     0
102
RTVSPost2010PropOp33
 70
     0
102
RTVSPost2010Prop34
280
     0
102
RTVSPost2010PropOp34
 70
     0
102
RTVSPost2010Prop35
280
     0
102
RTVSPost2010PropOp35
 70
     0
102
RTVSPost2010Prop36
280
     0
102
RTVSPost2010PropOp36
 70
     0
102
RTVSPost2010Prop37
 90
       50
102
RTVSPost2010PropOp37
 70
     0
102
RTVSPost2010Prop38
140
0.0
102
RTVSPost2010PropOp38
 70
     0
102
RTVSPost2010Prop39
140
1.0
102
RTVSPost2010PropOp39
 70
     0
102
RTVSPost2010Prop40
 90
        0
102
RTVSPost2010PropOp40
 70
     0
102
RTVSPost2010Prop41ColorIndex
 90
       18
102
RTVSPost2010Prop41ColorRGB
 90
        0
102
RTVSPost2010PropOp41
 70
     0
102
RTVSPost2010Prop42
 90
       50
102
RTVSPost2010PropOp42
 70
     0
102
RTVSPost2010Prop43
 90
        3
102
RTVSPost2010PropOp43
 70
     0
102
RTVSPost2010Prop44ColorIndex
 90
        5
102
RTVSPost2010Prop44ColorRGB
 90
      255
102
RTVSPost2010PropOp44
 70
     0
102
RTVSPost2010Prop45
280
     0
102
RTVSPost2010PropOp45
 70
     0
102
RTVSPost2010Prop46
 90
       50
102
RTVSPost2010PropOp46
 70
     0
102
RTVSPost2010Prop47
 90
       50
102
RTVSPost2010PropOp47
 70
     0
102
RTVSPost2010Prop48
 90
       50
102
RTVSPost2010PropOp48
 70
     0
102
RTVSPost2010Prop49
280
     0
102
RTVSPost2010PropOp49
 70
     0
102
RTVSPost2010Prop50
 90
       50
102
RTVSPost2010PropOp50
 70
     0
102
RTVSPost2010Prop51ColorIndex
 90
      256
102
RTVSPost2010Prop51ColorRGB
 90
-16777216
102
RTVSPost2010PropOp51
 70
     0
102
RTVSPost2010Prop52
140
1.0
102
RTVSPost2010PropOp52
 70
     0
102
RTVSPost2010Prop53
 90
        2
102
RTVSPost2010PropOp53
 70
     0
102
RTVSPost2010Prop54
  1
strokes_ogs.tif
102
RTVSPost2010PropOp54
 70
     0
102
RTVSPost2010Prop55
280
     0
102
RTVSPost2010PropOp55
 70
     0
102
RTVSPost2010Prop56
140
1.0
102
RTVSPost2010PropOp56
 70
     0
102
RTVSPost2010Prop57
140
1.0
102
RTVSPost2010PropOp57
 70
     0
  0
XRECORD
  5
FF3
102
{ACAD_REACTORS
330
FF2
102
}
330
FF2
100
AcDbXrecord
280
     1
102
RTVSPropertyOp0
 70
     1
102
RTVSPropertyOp1
 70
     1
102
RTVSPropertyOp2
 70
     1
102
RTVSPropertyOp3
 70
     1
102
RTVSPropertyOp4
 70
     1
102
RTVSPropertyOp5
 70
     1
102
RTVSPropertyOp6
 70
     1
102
RTVSPropertyOp7
 70
     1
102
RTVSPropertyOp8
 70
     1
102
RTVSPropertyOp9
 70
     1
102
RTVSPropertyOp10
 70
     1
102
RTVSPropertyOp11
 70
     1
102
RTVSPropertyOp12
 70
     1
102
RTVSPropertyOp13
 70
     1
102
RTVSPropertyOp14
 70
     1
102
RTVSPropertyOp15
 70
     1
102
RTVSPropertyOp16
 70
     1
102
RTVSPropertyOp17
 70
     1
102
RTVSPropertyOp18
 70
     1
102
RTVSPropertyOp19
 70
     1
102
RTVSPropertyOp20
 70
     1
102
RTVSPropertyOp21
 70
     1
102
RTVSPropertyOp22
 70
     1
102
RTVSPropertyOp23
 70
     1
102
RTVSPropertyOp24
 70
     1
102
RTVSPropertyOp25
 70
     1
102
RTVSPropertyOp26
 70
     1
102
RTVSPropertyOp27
 70
     1
102
RTVSPropertyOp28
 70
     1
102
RTVSPropertyOp29
 70
     1
102
RTVSPropertyOp30
 70
     1
102
RTVSPropertyOp31
 70
     1
102
RTVSPropertyOp32
 70
     1
102
RTVSPropertyOp33
 70
     1
102
RTVSPropertyOp34
 70
     1
102
RTVSPropertyOp35
 70
     1
102
RTVSPropertyOp36
 70
     1
102
RTVSPropertyOp37
 70
     1
102
RTVSPropertyOp38
 70
     1
102
RTVSPropertyOp39
 70
     1
102
RTVSPropertyOp40
 70
     1
102
RTVSPropertyOp41
 70
     1
102
RTVSPropertyOp42
 70
     1
102
RTVSPropertyOp43
 70
     1
102
RTVSPropertyOp44
 70
     1
102
RTVSPropertyOp45
 70
     1
102
RTVSPropertyOp46
 70
     1
102
RTVSPropertyOp47
 70
     1
102
RTVSPropertyOp48
 70
     1
102
RTVSPropertyOp49
 70
     1
102
RTVSPropertyOp50
 70
     1
102
RTVSPropertyOp51
 70
     0
102
RTVSPropertyOp52
 70
     0
102
RTVSPropertyOp53
 70
     1
102
RTVSPropertyOp54
 70
     1
102
RTVSPropertyOp55
 70
     1
102
RTVSPropertyOp56
 70
     1
102
RTVSPropertyOp57
 70
     1
102
RTVSPost2010Prop28
280
     0
102
RTVSPost2010PropOp28
 70
     1
102
RTVSPost2010Prop29
280
     1
102
RTVSPost2010PropOp29
 70
     1
102
RTVSPost2010Prop30
280
     1
102
RTVSPost2010PropOp30
 70
     1
102
RTVSPost2010Prop31
280
     0
102
RTVSPost2010PropOp31
 70
     1
102
RTVSPost2010Prop32
280
     0
102
RTVSPost2010PropOp32
 70
     1
102
RTVSPost2010Prop33
280
     0
102
RTVSPost2010PropOp33
 70
     1
102
RTVSPost2010Prop34
280
     0
102
RTVSPost2010PropOp34
 70
     1
102
RTVSPost2010Prop35
280
     0
102
RTVSPost2010PropOp35
 70
     1
102
RTVSPost2010Prop36
280
     0
102
RTVSPost2010PropOp36
 70
     1
102
RTVSPost2010Prop37
 90
       50
102
RTVSPost2010PropOp37
 70
     1
102
RTVSPost2010Prop38
140
0.0
102
RTVSPost2010PropOp38
 70
     1
102
RTVSPost2010Prop39
140
1.0
102
RTVSPost2010PropOp39
 70
     1
102
RTVSPost2010Prop40
 90
        0
102
RTVSPost2010PropOp40
 70
     1
102
RTVSPost2010Prop41ColorIndex
 90
       18
102
RTVSPost2010Prop41ColorRGB
 90
        0
102
RTVSPost2010PropOp41
 70
     1
102
RTVSPost2010Prop42
 90
       50
102
RTVSPost2010PropOp42
 70
     1
102
RTVSPost2010Prop43
 90
        3
102
RTVSPost2010PropOp43
 70
     1
102
RTVSPost2010Prop44ColorIndex
 90
        5
102
RTVSPost2010Prop44ColorRGB
 90
      255
102
RTVSPost2010PropOp44
 70
     1
102
RTVSPost2010Prop45
280
     0
102
RTVSPost2010PropOp45
 70
     1
102
RTVSPost2010Prop46
 90
       50
102
RTVSPost2010PropOp46
 70
     1
102
RTVSPost2010Prop47
 90
       50
102
RTVSPost2010PropOp47
 70
     1
102
RTVSPost2010Prop48
 90
       50
102
RTVSPost2010PropOp48
 70
     1
102
RTVSPost2010Prop49
280
     0
102
RTVSPost2010PropOp49
 70
     1
102
RTVSPost2010Prop50
 90
       50
102
RTVSPost2010PropOp50
 70
     1
102
RTVSPost2010Prop51ColorIndex
 90
      256
102
RTVSPost2010Prop51ColorRGB
 90
-16777216
102
RTVSPost2010PropOp51
 70
     0
102
RTVSPost2010Prop52
140
1.0
102
RTVSPost2010PropOp52
 70
     0
102
RTVSPost2010Prop53
 90
        2
102
RTVSPost2010PropOp53
 70
     1
102
RTVSPost2010Prop54
  1
strokes_ogs.tif
102
RTVSPost2010PropOp54
 70
     1
102
RTVSPost2010Prop55
280
     0
102
RTVSPost2010PropOp55
 70
     1
102
RTVSPost2010Prop56
140
1.0
102
RTVSPost2010PropOp56
 70
     1
102
RTVSPost2010Prop57
140
1.0
102
RTVSPost2010PropOp57
 70
     1
  0
XRECORD
  5
FFB
102
{ACAD_REACTORS
330
FFA
102
}
330
FFA
100
AcDbXrecord
280
     1
102
RTVSPropertyOp0
 70
     0
102
RTVSPropertyOp1
 70
     0
102
RTVSPropertyOp2
 70
     0
102
RTVSPropertyOp3
 70
     0
102
RTVSPropertyOp4
 70
     0
102
RTVSPropertyOp5
 70
     0
102
RTVSPropertyOp6
 70
     0
102
RTVSPropertyOp7
 70
     0
102
RTVSPropertyOp8
 70
     0
102
RTVSPropertyOp9
 70
     0
102
RTVSPropertyOp10
 70
     0
102
RTVSPropertyOp11
 70
     0
102
RTVSPropertyOp12
 70
     0
102
RTVSPropertyOp13
 70
     0
102
RTVSPropertyOp14
 70
     2
102
RTVSPropertyOp15
 70
     0
102
RTVSPropertyOp16
 70
     0
102
RTVSPropertyOp17
 70
     0
102
RTVSPropertyOp18
 70
     0
102
RTVSPropertyOp19
 70
     0
102
RTVSPropertyOp20
 70
     0
102
RTVSPropertyOp21
 70
     0
102
RTVSPropertyOp22
 70
     0
102
RTVSPropertyOp23
 70
     0
102
RTVSPropertyOp24
 70
     0
102
RTVSPropertyOp25
 70
     0
102
RTVSPropertyOp26
 70
     0
102
RTVSPropertyOp27
 70
     0
102
RTVSPropertyOp28
 70
     0
102
RTVSPropertyOp29
 70
     0
102
RTVSPropertyOp30
 70
     0
102
RTVSPropertyOp31
 70
     0
102
RTVSPropertyOp32
 70
     0
102
RTVSPropertyOp33
 70
     0
102
RTVSPropertyOp34
 70
     0
102
RTVSPropertyOp35
 70
     0
102
RTVSPropertyOp36
 70
     0
102
RTVSPropertyOp37
 70
     0
102
RTVSPropertyOp38
 70
     0
102
RTVSPropertyOp39
 70
     0
102
RTVSPropertyOp40
 70
     0
102
RTVSPropertyOp41
 70
     0
102
RTVSPropertyOp42
 70
     0
102
RTVSPropertyOp43
 70
     0
102
RTVSPropertyOp44
 70
     0
102
RTVSPropertyOp45
 70
     0
102
RTVSPropertyOp46
 70
     0
102
RTVSPropertyOp47
 70
     0
102
RTVSPropertyOp48
 70
     0
102
RTVSPropertyOp49
 70
     0
102
RTVSPropertyOp50
 70
     0
102
RTVSPropertyOp51
 70
     0
102
RTVSPropertyOp52
 70
     0
102
RTVSPropertyOp53
 70
     0
102
RTVSPropertyOp54
 70
     0
102
RTVSPropertyOp55
 70
     0
102
RTVSPropertyOp56
 70
     0
102
RTVSPropertyOp57
 70
     0
102
RTVSPost2010Prop28
280
     0
102
RTVSPost2010PropOp28
 70
     0
102
RTVSPost2010Prop29
280
     1
102
RTVSPost2010PropOp29
 70
     0
102
RTVSPost2010Prop30
280
     1
102
RTVSPost2010PropOp30
 70
     0
102
RTVSPost2010Prop31
280
     0
102
RTVSPost2010PropOp31
 70
     0
102
RTVSPost2010Prop32
280
     0
102
RTVSPost2010PropOp32
 70
     0
102
RTVSPost2010Prop33
280
     0
102
RTVSPost2010PropOp33
 70
     0
102
RTVSPost2010Prop34
280
     0
102
RTVSPost2010PropOp34
 70
     0
102
RTVSPost2010Prop35
280
     0
102
RTVSPost2010PropOp35
 70
     0
102
RTVSPost2010Prop36
280
     0
102
RTVSPost2010PropOp36
 70
     0
102
RTVSPost2010Prop37
 90
       50
102
RTVSPost2010PropOp37
 70
     0
102
RTVSPost2010Prop38
140
0.0
102
RTVSPost2010PropOp38
 70
     0
102
RTVSPost2010Prop39
140
1.0
102
RTVSPost2010PropOp39
 70
     0
102
RTVSPost2010Prop40
 90
        0
102
RTVSPost2010PropOp40
 70
     0
102
RTVSPost2010Prop41ColorIndex
 90
       18
102
RTVSPost2010Prop41ColorRGB
 90
        0
102
RTVSPost2010PropOp41
 70
     0
102
RTVSPost2010Prop42
 90
       50
102
RTVSPost2010PropOp42
 70
     0
102
RTVSPost2010Prop43
 90
        3
102
RTVSPost2010PropOp43
 70
     0
102
RTVSPost2010Prop44ColorIndex
 90
        5
102
RTVSPost2010Prop44ColorRGB
 90
      255
102
RTVSPost2010PropOp44
 70
     0
102
RTVSPost2010Prop45
280
     0
102
RTVSPost2010PropOp45
 70
     0
102
RTVSPost2010Prop46
 90
       50
102
RTVSPost2010PropOp46
 70
     0
102
RTVSPost2010Prop47
 90
       50
102
RTVSPost2010PropOp47
 70
     0
102
RTVSPost2010Prop48
 90
       50
102
RTVSPost2010PropOp48
 70
     0
102
RTVSPost2010Prop49
280
     0
102
RTVSPost2010PropOp49
 70
     0
102
RTVSPost2010Prop50
 90
       50
102
RTVSPost2010PropOp50
 70
     0
102
RTVSPost2010Prop51ColorIndex
 90
      256
102
RTVSPost2010Prop51ColorRGB
 90
-16777216
102
RTVSPost2010PropOp51
 70
     0
102
RTVSPost2010Prop52
140
1.0
102
RTVSPost2010PropOp52
 70
     0
102
RTVSPost2010Prop53
 90
        2
102
RTVSPost2010PropOp53
 70
     0
102
RTVSPost2010Prop54
  1
strokes_ogs.tif
102
RTVSPost2010PropOp54
 70
     0
102
RTVSPost2010Prop55
280
     0
102
RTVSPost2010PropOp55
 70
     0
102
RTVSPost2010Prop56
140
1.0
102
RTVSPost2010PropOp56
 70
     0
102
RTVSPost2010Prop57
140
1.0
102
RTVSPost2010PropOp57
 70
     0
  0
XRECORD
  5
FE9
102
{ACAD_REACTORS
330
FE8
102
}
330
FE8
100
AcDbXrecord
280
     1
102
RTVSPropertyOp0
 70
     1
102
RTVSPropertyOp1
 70
     1
102
RTVSPropertyOp2
 70
     1
102
RTVSPropertyOp3
 70
     1
102
RTVSPropertyOp4
 70
     1
102
RTVSPropertyOp5
 70
     1
102
RTVSPropertyOp6
 70
     1
102
RTVSPropertyOp7
 70
     1
102
RTVSPropertyOp8
 70
     1
102
RTVSPropertyOp9
 70
     1
102
RTVSPropertyOp10
 70
     1
102
RTVSPropertyOp11
 70
     1
102
RTVSPropertyOp12
 70
     1
102
RTVSPropertyOp13
 70
     1
102
RTVSPropertyOp14
 70
     1
102
RTVSPropertyOp15
 70
     1
102
RTVSPropertyOp16
 70
     1
102
RTVSPropertyOp17
 70
     1
102
RTVSPropertyOp18
 70
     1
102
RTVSPropertyOp19
 70
     1
102
RTVSPropertyOp20
 70
     1
102
RTVSPropertyOp21
 70
     1
102
RTVSPropertyOp22
 70
     1
102
RTVSPropertyOp23
 70
     1
102
RTVSPropertyOp24
 70
     1
102
RTVSPropertyOp25
 70
     1
102
RTVSPropertyOp26
 70
     1
102
RTVSPropertyOp27
 70
     1
102
RTVSPropertyOp28
 70
     1
102
RTVSPropertyOp29
 70
     1
102
RTVSPropertyOp30
 70
     1
102
RTVSPropertyOp31
 70
     1
102
RTVSPropertyOp32
 70
     1
102
RTVSPropertyOp33
 70
     1
102
RTVSPropertyOp34
 70
     1
102
RTVSPropertyOp35
 70
     1
102
RTVSPropertyOp36
 70
     1
102
RTVSPropertyOp37
 70
     1
102
RTVSPropertyOp38
 70
     1
102
RTVSPropertyOp39
 70
     1
102
RTVSPropertyOp40
 70
     1
102
RTVSPropertyOp41
 70
     1
102
RTVSPropertyOp42
 70
     1
102
RTVSPropertyOp43
 70
     1
102
RTVSPropertyOp44
 70
     1
102
RTVSPropertyOp45
 70
     1
102
RTVSPropertyOp46
 70
     1
102
RTVSPropertyOp47
 70
     1
102
RTVSPropertyOp48
 70
     1
102
RTVSPropertyOp49
 70
     1
102
RTVSPropertyOp50
 70
     1
102
RTVSPropertyOp51
 70
     0
102
RTVSPropertyOp52
 70
     0
102
RTVSPropertyOp53
 70
     1
102
RTVSPropertyOp54
 70
     1
102
RTVSPropertyOp55
 70
     1
102
RTVSPropertyOp56
 70
     1
102
RTVSPropertyOp57
 70
     1
102
RTVSPost2010Prop28
280
     0
102
RTVSPost2010PropOp28
 70
     1
102
RTVSPost2010Prop29
280
     1
102
RTVSPost2010PropOp29
 70
     1
102
RTVSPost2010Prop30
280
     1
102
RTVSPost2010PropOp30
 70
     1
102
RTVSPost2010Prop31
280
     0
102
RTVSPost2010PropOp31
 70
     1
102
RTVSPost2010Prop32
280
     0
102
RTVSPost2010PropOp32
 70
     1
102
RTVSPost2010Prop33
280
     0
102
RTVSPost2010PropOp33
 70
     1
102
RTVSPost2010Prop34
280
     0
102
RTVSPost2010PropOp34
 70
     1
102
RTVSPost2010Prop35
280
     0
102
RTVSPost2010PropOp35
 70
     1
102
RTVSPost2010Prop36
280
     0
102
RTVSPost2010PropOp36
 70
     1
102
RTVSPost2010Prop37
 90
       50
102
RTVSPost2010PropOp37
 70
     1
102
RTVSPost2010Prop38
140
0.0
102
RTVSPost2010PropOp38
 70
     1
102
RTVSPost2010Prop39
140
1.0
102
RTVSPost2010PropOp39
 70
     1
102
RTVSPost2010Prop40
 90
        0
102
RTVSPost2010PropOp40
 70
     1
102
RTVSPost2010Prop41ColorIndex
 90
       18
102
RTVSPost2010Prop41ColorRGB
 90
        0
102
RTVSPost2010PropOp41
 70
     1
102
RTVSPost2010Prop42
 90
       50
102
RTVSPost2010PropOp42
 70
     1
102
RTVSPost2010Prop43
 90
        3
102
RTVSPost2010PropOp43
 70
     1
102
RTVSPost2010Prop44ColorIndex
 90
        5
102
RTVSPost2010Prop44ColorRGB
 90
      255
102
RTVSPost2010PropOp44
 70
     1
102
RTVSPost2010Prop45
280
     0
102
RTVSPost2010PropOp45
 70
     1
102
RTVSPost2010Prop46
 90
       50
102
RTVSPost2010PropOp46
 70
     1
102
RTVSPost2010Prop47
 90
       50
102
RTVSPost2010PropOp47
 70
     1
102
RTVSPost2010Prop48
 90
       50
102
RTVSPost2010PropOp48
 70
     1
102
RTVSPost2010Prop49
280
     0
102
RTVSPost2010PropOp49
 70
     1
102
RTVSPost2010Prop50
 90
       50
102
RTVSPost2010PropOp50
 70
     1
102
RTVSPost2010Prop51ColorIndex
 90
      256
102
RTVSPost2010Prop51ColorRGB
 90
-16777216
102
RTVSPost2010PropOp51
 70
     0
102
RTVSPost2010Prop52
140
1.0
102
RTVSPost2010PropOp52
 70
     0
102
RTVSPost2010Prop53
 90
        2
102
RTVSPost2010PropOp53
 70
     1
102
RTVSPost2010Prop54
  1
strokes_ogs.tif
102
RTVSPost2010PropOp54
 70
     1
102
RTVSPost2010Prop55
280
     0
102
RTVSPost2010PropOp55
 70
     1
102
RTVSPost2010Prop56
140
1.0
102
RTVSPost2010PropOp56
 70
     1
102
RTVSPost2010Prop57
140
1.0
102
RTVSPost2010PropOp57
 70
     1
  0
XRECORD
  5
1007
102
{ACAD_REACTORS
330
1006
102
}
330
1006
100
AcDbXrecord
280
     1
102
RTVSPropertyOp0
 70
     1
102
RTVSPropertyOp1
 70
     1
102
RTVSPropertyOp2
 70
     1
102
RTVSPropertyOp3
 70
     1
102
RTVSPropertyOp4
 70
     1
102
RTVSPropertyOp5
 70
     1
102
RTVSPropertyOp6
 70
     1
102
RTVSPropertyOp7
 70
     1
102
RTVSPropertyOp8
 70
     1
102
RTVSPropertyOp9
 70
     1
102
RTVSPropertyOp10
 70
     1
102
RTVSPropertyOp11
 70
     1
102
RTVSPropertyOp12
 70
     1
102
RTVSPropertyOp13
 70
     1
102
RTVSPropertyOp14
 70
     1
102
RTVSPropertyOp15
 70
     1
102
RTVSPropertyOp16
 70
     1
102
RTVSPropertyOp17
 70
     1
102
RTVSPropertyOp18
 70
     1
102
RTVSPropertyOp19
 70
     1
102
RTVSPropertyOp20
 70
     1
102
RTVSPropertyOp21
 70
     1
102
RTVSPropertyOp22
 70
     1
102
RTVSPropertyOp23
 70
     1
102
RTVSPropertyOp24
 70
     1
102
RTVSPropertyOp25
 70
     1
102
RTVSPropertyOp26
 70
     1
102
RTVSPropertyOp27
 70
     1
102
RTVSPropertyOp28
 70
     1
102
RTVSPropertyOp29
 70
     1
102
RTVSPropertyOp30
 70
     1
102
RTVSPropertyOp31
 70
     1
102
RTVSPropertyOp32
 70
     1
102
RTVSPropertyOp33
 70
     1
102
RTVSPropertyOp34
 70
     1
102
RTVSPropertyOp35
 70
     1
102
RTVSPropertyOp36
 70
     1
102
RTVSPropertyOp37
 70
     1
102
RTVSPropertyOp38
 70
     1
102
RTVSPropertyOp39
 70
     1
102
RTVSPropertyOp40
 70
     1
102
RTVSPropertyOp41
 70
     1
102
RTVSPropertyOp42
 70
     1
102
RTVSPropertyOp43
 70
     1
102
RTVSPropertyOp44
 70
     1
102
RTVSPropertyOp45
 70
     1
102
RTVSPropertyOp46
 70
     1
102
RTVSPropertyOp47
 70
     1
102
RTVSPropertyOp48
 70
     1
102
RTVSPropertyOp49
 70
     1
102
RTVSPropertyOp50
 70
     1
102
RTVSPropertyOp51
 70
     0
102
RTVSPropertyOp52
 70
     0
102
RTVSPropertyOp53
 70
     1
102
RTVSPropertyOp54
 70
     1
102
RTVSPropertyOp55
 70
     1
102
RTVSPropertyOp56
 70
     1
102
RTVSPropertyOp57
 70
     1
102
RTVSPost2010Prop28
280
     0
102
RTVSPost2010PropOp28
 70
     1
102
RTVSPost2010Prop29
280
     1
102
RTVSPost2010PropOp29
 70
     1
102
RTVSPost2010Prop30
280
     1
102
RTVSPost2010PropOp30
 70
     1
102
RTVSPost2010Prop31
280
     0
102
RTVSPost2010PropOp31
 70
     1
102
RTVSPost2010Prop32
280
     0
102
RTVSPost2010PropOp32
 70
     1
102
RTVSPost2010Prop33
280
     0
102
RTVSPost2010PropOp33
 70
     1
102
RTVSPost2010Prop34
280
     0
102
RTVSPost2010PropOp34
 70
     1
102
RTVSPost2010Prop35
280
     0
102
RTVSPost2010PropOp35
 70
     1
102
RTVSPost2010Prop36
280
     0
102
RTVSPost2010PropOp36
 70
     1
102
RTVSPost2010Prop37
 90
       50
102
RTVSPost2010PropOp37
 70
     1
102
RTVSPost2010Prop38
140
0.0
102
RTVSPost2010PropOp38
 70
     1
102
RTVSPost2010Prop39
140
1.0
102
RTVSPost2010PropOp39
 70
     1
102
RTVSPost2010Prop40
 90
        0
102
RTVSPost2010PropOp40
 70
     1
102
RTVSPost2010Prop41ColorIndex
 90
       18
102
RTVSPost2010Prop41ColorRGB
 90
        0
102
RTVSPost2010PropOp41
 70
     1
102
RTVSPost2010Prop42
 90
       50
102
RTVSPost2010PropOp42
 70
     1
102
RTVSPost2010Prop43
 90
        3
102
RTVSPost2010PropOp43
 70
     1
102
RTVSPost2010Prop44ColorIndex
 90
        5
102
RTVSPost2010Prop44ColorRGB
 90
      255
102
RTVSPost2010PropOp44
 70
     1
102
RTVSPost2010Prop45
280
     0
102
RTVSPost2010PropOp45
 70
     1
102
RTVSPost2010Prop46
 90
       50
102
RTVSPost2010PropOp46
 70
     1
102
RTVSPost2010Prop47
 90
       50
102
RTVSPost2010PropOp47
 70
     1
102
RTVSPost2010Prop48
 90
       50
102
RTVSPost2010PropOp48
 70
     1
102
RTVSPost2010Prop49
280
     0
102
RTVSPost2010PropOp49
 70
     1
102
RTVSPost2010Prop50
 90
       50
102
RTVSPost2010PropOp50
 70
     1
102
RTVSPost2010Prop51ColorIndex
 90
      256
102
RTVSPost2010Prop51ColorRGB
 90
-16777216
102
RTVSPost2010PropOp51
 70
     0
102
RTVSPost2010Prop52
140
1.0
102
RTVSPost2010PropOp52
 70
     0
102
RTVSPost2010Prop53
 90
        2
102
RTVSPost2010PropOp53
 70
     1
102
RTVSPost2010Prop54
  1
strokes_ogs.tif
102
RTVSPost2010PropOp54
 70
     1
102
RTVSPost2010Prop55
280
     0
102
RTVSPost2010PropOp55
 70
     1
102
RTVSPost2010Prop56
140
1.0
102
RTVSPost2010PropOp56
 70
     1
102
RTVSPost2010Prop57
140
1.0
102
RTVSPost2010PropOp57
 70
     1
  0
XRECORD
  5
1005
102
{ACAD_REACTORS
330
1004
102
}
330
1004
100
AcDbXrecord
280
     1
102
RTVSPropertyOp0
 70
     1
102
RTVSPropertyOp1
 70
     1
102
RTVSPropertyOp2
 70
     1
102
RTVSPropertyOp3
 70
     1
102
RTVSPropertyOp4
 70
     1
102
RTVSPropertyOp5
 70
     1
102
RTVSPropertyOp6
 70
     1
102
RTVSPropertyOp7
 70
     1
102
RTVSPropertyOp8
 70
     1
102
RTVSPropertyOp9
 70
     1
102
RTVSPropertyOp10
 70
     1
102
RTVSPropertyOp11
 70
     1
102
RTVSPropertyOp12
 70
     1
102
RTVSPropertyOp13
 70
     1
102
RTVSPropertyOp14
 70
     1
102
RTVSPropertyOp15
 70
     1
102
RTVSPropertyOp16
 70
     1
102
RTVSPropertyOp17
 70
     1
102
RTVSPropertyOp18
 70
     1
102
RTVSPropertyOp19
 70
     1
102
RTVSPropertyOp20
 70
     1
102
RTVSPropertyOp21
 70
     1
102
RTVSPropertyOp22
 70
     1
102
RTVSPropertyOp23
 70
     1
102
RTVSPropertyOp24
 70
     1
102
RTVSPropertyOp25
 70
     1
102
RTVSPropertyOp26
 70
     1
102
RTVSPropertyOp27
 70
     1
102
RTVSPropertyOp28
 70
     1
102
RTVSPropertyOp29
 70
     1
102
RTVSPropertyOp30
 70
     1
102
RTVSPropertyOp31
 70
     1
102
RTVSPropertyOp32
 70
     1
102
RTVSPropertyOp33
 70
     1
102
RTVSPropertyOp34
 70
     1
102
RTVSPropertyOp35
 70
     1
102
RTVSPropertyOp36
 70
     1
102
RTVSPropertyOp37
 70
     1
102
RTVSPropertyOp38
 70
     1
102
RTVSPropertyOp39
 70
     1
102
RTVSPropertyOp40
 70
     1
102
RTVSPropertyOp41
 70
     1
102
RTVSPropertyOp42
 70
     1
102
RTVSPropertyOp43
 70
     1
102
RTVSPropertyOp44
 70
     1
102
RTVSPropertyOp45
 70
     1
102
RTVSPropertyOp46
 70
     1
102
RTVSPropertyOp47
 70
     1
102
RTVSPropertyOp48
 70
     1
102
RTVSPropertyOp49
 70
     1
102
RTVSPropertyOp50
 70
     1
102
RTVSPropertyOp51
 70
     0
102
RTVSPropertyOp52
 70
     0
102
RTVSPropertyOp53
 70
     1
102
RTVSPropertyOp54
 70
     1
102
RTVSPropertyOp55
 70
     1
102
RTVSPropertyOp56
 70
     1
102
RTVSPropertyOp57
 70
     1
102
RTVSPost2010Prop28
280
     0
102
RTVSPost2010PropOp28
 70
     1
102
RTVSPost2010Prop29
280
     1
102
RTVSPost2010PropOp29
 70
     1
102
RTVSPost2010Prop30
280
     1
102
RTVSPost2010PropOp30
 70
     1
102
RTVSPost2010Prop31
280
     0
102
RTVSPost2010PropOp31
 70
     1
102
RTVSPost2010Prop32
280
     0
102
RTVSPost2010PropOp32
 70
     1
102
RTVSPost2010Prop33
280
     0
102
RTVSPost2010PropOp33
 70
     1
102
RTVSPost2010Prop34
280
     0
102
RTVSPost2010PropOp34
 70
     1
102
RTVSPost2010Prop35
280
     0
102
RTVSPost2010PropOp35
 70
     1
102
RTVSPost2010Prop36
280
     0
102
RTVSPost2010PropOp36
 70
     1
102
RTVSPost2010Prop37
 90
       50
102
RTVSPost2010PropOp37
 70
     1
102
RTVSPost2010Prop38
140
0.0
102
RTVSPost2010PropOp38
 70
     1
102
RTVSPost2010Prop39
140
1.0
102
RTVSPost2010PropOp39
 70
     1
102
RTVSPost2010Prop40
 90
        0
102
RTVSPost2010PropOp40
 70
     1
102
RTVSPost2010Prop41ColorIndex
 90
       18
102
RTVSPost2010Prop41ColorRGB
 90
        0
102
RTVSPost2010PropOp41
 70
     1
102
RTVSPost2010Prop42
 90
       50
102
RTVSPost2010PropOp42
 70
     1
102
RTVSPost2010Prop43
 90
        3
102
RTVSPost2010PropOp43
 70
     1
102
RTVSPost2010Prop44ColorIndex
 90
        5
102
RTVSPost2010Prop44ColorRGB
 90
      255
102
RTVSPost2010PropOp44
 70
     1
102
RTVSPost2010Prop45
280
     0
102
RTVSPost2010PropOp45
 70
     1
102
RTVSPost2010Prop46
 90
       50
102
RTVSPost2010PropOp46
 70
     1
102
RTVSPost2010Prop47
 90
       50
102
RTVSPost2010PropOp47
 70
     1
102
RTVSPost2010Prop48
 90
       50
102
RTVSPost2010PropOp48
 70
     1
102
RTVSPost2010Prop49
280
     0
102
RTVSPost2010PropOp49
 70
     1
102
RTVSPost2010Prop50
 90
       50
102
RTVSPost2010PropOp50
 70
     1
102
RTVSPost2010Prop51ColorIndex
 90
      256
102
RTVSPost2010Prop51ColorRGB
 90
-16777216
102
RTVSPost2010PropOp51
 70
     0
102
RTVSPost2010Prop52
140
1.0
102
RTVSPost2010PropOp52
 70
     0
102
RTVSPost2010Prop53
 90
        2
102
RTVSPost2010PropOp53
 70
     1
102
RTVSPost2010Prop54
  1
strokes_ogs.tif
102
RTVSPost2010PropOp54
 70
     1
102
RTVSPost2010Prop55
280
     0
102
RTVSPost2010PropOp55
 70
     1
102
RTVSPost2010Prop56
140
1.0
102
RTVSPost2010PropOp56
 70
     1
102
RTVSPost2010Prop57
140
1.0
102
RTVSPost2010PropOp57
 70
     1
  0
XRECORD
  5
FFF
102
{ACAD_REACTORS
330
FFE
102
}
330
FFE
100
AcDbXrecord
280
     1
102
RTVSPropertyOp0
 70
     1
102
RTVSPropertyOp1
 70
     1
102
RTVSPropertyOp2
 70
     1
102
RTVSPropertyOp3
 70
     1
102
RTVSPropertyOp4
 70
     1
102
RTVSPropertyOp5
 70
     1
102
RTVSPropertyOp6
 70
     1
102
RTVSPropertyOp7
 70
     1
102
RTVSPropertyOp8
 70
     1
102
RTVSPropertyOp9
 70
     1
102
RTVSPropertyOp10
 70
     1
102
RTVSPropertyOp11
 70
     1
102
RTVSPropertyOp12
 70
     1
102
RTVSPropertyOp13
 70
     1
102
RTVSPropertyOp14
 70
     1
102
RTVSPropertyOp15
 70
     1
102
RTVSPropertyOp16
 70
     1
102
RTVSPropertyOp17
 70
     1
102
RTVSPropertyOp18
 70
     1
102
RTVSPropertyOp19
 70
     1
102
RTVSPropertyOp20
 70
     1
102
RTVSPropertyOp21
 70
     1
102
RTVSPropertyOp22
 70
     1
102
RTVSPropertyOp23
 70
     1
102
RTVSPropertyOp24
 70
     1
102
RTVSPropertyOp25
 70
     1
102
RTVSPropertyOp26
 70
     1
102
RTVSPropertyOp27
 70
     1
102
RTVSPropertyOp28
 70
     1
102
RTVSPropertyOp29
 70
     1
102
RTVSPropertyOp30
 70
     1
102
RTVSPropertyOp31
 70
     1
102
RTVSPropertyOp32
 70
     1
102
RTVSPropertyOp33
 70
     1
102
RTVSPropertyOp34
 70
     1
102
RTVSPropertyOp35
 70
     1
102
RTVSPropertyOp36
 70
     1
102
RTVSPropertyOp37
 70
     1
102
RTVSPropertyOp38
 70
     1
102
RTVSPropertyOp39
 70
     1
102
RTVSPropertyOp40
 70
     1
102
RTVSPropertyOp41
 70
     1
102
RTVSPropertyOp42
 70
     1
102
RTVSPropertyOp43
 70
     1
102
RTVSPropertyOp44
 70
     1
102
RTVSPropertyOp45
 70
     1
102
RTVSPropertyOp46
 70
     1
102
RTVSPropertyOp47
 70
     1
102
RTVSPropertyOp48
 70
     1
102
RTVSPropertyOp49
 70
     1
102
RTVSPropertyOp50
 70
     1
102
RTVSPropertyOp51
 70
     0
102
RTVSPropertyOp52
 70
     0
102
RTVSPropertyOp53
 70
     1
102
RTVSPropertyOp54
 70
     1
102
RTVSPropertyOp55
 70
     1
102
RTVSPropertyOp56
 70
     1
102
RTVSPropertyOp57
 70
     1
102
RTVSPost2010Prop28
280
     0
102
RTVSPost2010PropOp28
 70
     1
102
RTVSPost2010Prop29
280
     1
102
RTVSPost2010PropOp29
 70
     1
102
RTVSPost2010Prop30
280
     1
102
RTVSPost2010PropOp30
 70
     1
102
RTVSPost2010Prop31
280
     0
102
RTVSPost2010PropOp31
 70
     1
102
RTVSPost2010Prop32
280
     0
102
RTVSPost2010PropOp32
 70
     1
102
RTVSPost2010Prop33
280
     0
102
RTVSPost2010PropOp33
 70
     1
102
RTVSPost2010Prop34
280
     0
102
RTVSPost2010PropOp34
 70
     1
102
RTVSPost2010Prop35
280
     0
102
RTVSPost2010PropOp35
 70
     1
102
RTVSPost2010Prop36
280
     0
102
RTVSPost2010PropOp36
 70
     1
102
RTVSPost2010Prop37
 90
       50
102
RTVSPost2010PropOp37
 70
     1
102
RTVSPost2010Prop38
140
0.0
102
RTVSPost2010PropOp38
 70
     1
102
RTVSPost2010Prop39
140
1.0
102
RTVSPost2010PropOp39
 70
     1
102
RTVSPost2010Prop40
 90
        0
102
RTVSPost2010PropOp40
 70
     1
102
RTVSPost2010Prop41ColorIndex
 90
       18
102
RTVSPost2010Prop41ColorRGB
 90
        0
102
RTVSPost2010PropOp41
 70
     1
102
RTVSPost2010Prop42
 90
       50
102
RTVSPost2010PropOp42
 70
     1
102
RTVSPost2010Prop43
 90
        3
102
RTVSPost2010PropOp43
 70
     1
102
RTVSPost2010Prop44ColorIndex
 90
        5
102
RTVSPost2010Prop44ColorRGB
 90
      255
102
RTVSPost2010PropOp44
 70
     1
102
RTVSPost2010Prop45
280
     0
102
RTVSPost2010PropOp45
 70
     1
102
RTVSPost2010Prop46
 90
       50
102
RTVSPost2010PropOp46
 70
     1
102
RTVSPost2010Prop47
 90
       50
102
RTVSPost2010PropOp47
 70
     1
102
RTVSPost2010Prop48
 90
       50
102
RTVSPost2010PropOp48
 70
     1
102
RTVSPost2010Prop49
280
     0
102
RTVSPost2010PropOp49
 70
     1
102
RTVSPost2010Prop50
 90
       50
102
RTVSPost2010PropOp50
 70
     1
102
RTVSPost2010Prop51ColorIndex
 90
      256
102
RTVSPost2010Prop51ColorRGB
 90
-16777216
102
RTVSPost2010PropOp51
 70
     0
102
RTVSPost2010Prop52
140
1.0
102
RTVSPost2010PropOp52
 70
     0
102
RTVSPost2010Prop53
 90
        2
102
RTVSPost2010PropOp53
 70
     1
102
RTVSPost2010Prop54
  1
strokes_ogs.tif
102
RTVSPost2010PropOp54
 70
     1
102
RTVSPost2010Prop55
280
     0
102
RTVSPost2010PropOp55
 70
     1
102
RTVSPost2010Prop56
140
1.0
102
RTVSPost2010PropOp56
 70
     1
102
RTVSPost2010Prop57
140
1.0
102
RTVSPost2010PropOp57
 70
     1
  0
XRECORD
  5
1001
102
{ACAD_REACTORS
330
1000
102
}
330
1000
100
AcDbXrecord
280
     1
102
RTVSPropertyOp0
 70
     1
102
RTVSPropertyOp1
 70
     1
102
RTVSPropertyOp2
 70
     1
102
RTVSPropertyOp3
 70
     1
102
RTVSPropertyOp4
 70
     1
102
RTVSPropertyOp5
 70
     1
102
RTVSPropertyOp6
 70
     1
102
RTVSPropertyOp7
 70
     1
102
RTVSPropertyOp8
 70
     1
102
RTVSPropertyOp9
 70
     1
102
RTVSPropertyOp10
 70
     1
102
RTVSPropertyOp11
 70
     1
102
RTVSPropertyOp12
 70
     1
102
RTVSPropertyOp13
 70
     1
102
RTVSPropertyOp14
 70
     1
102
RTVSPropertyOp15
 70
     1
102
RTVSPropertyOp16
 70
     1
102
RTVSPropertyOp17
 70
     1
102
RTVSPropertyOp18
 70
     1
102
RTVSPropertyOp19
 70
     1
102
RTVSPropertyOp20
 70
     1
102
RTVSPropertyOp21
 70
     1
102
RTVSPropertyOp22
 70
     1
102
RTVSPropertyOp23
 70
     1
102
RTVSPropertyOp24
 70
     1
102
RTVSPropertyOp25
 70
     1
102
RTVSPropertyOp26
 70
     1
102
RTVSPropertyOp27
 70
     1
102
RTVSPropertyOp28
 70
     1
102
RTVSPropertyOp29
 70
     1
102
RTVSPropertyOp30
 70
     1
102
RTVSPropertyOp31
 70
     1
102
RTVSPropertyOp32
 70
     1
102
RTVSPropertyOp33
 70
     1
102
RTVSPropertyOp34
 70
     1
102
RTVSPropertyOp35
 70
     1
102
RTVSPropertyOp36
 70
     1
102
RTVSPropertyOp37
 70
     1
102
RTVSPropertyOp38
 70
     1
102
RTVSPropertyOp39
 70
     1
102
RTVSPropertyOp40
 70
     1
102
RTVSPropertyOp41
 70
     1
102
RTVSPropertyOp42
 70
     1
102
RTVSPropertyOp43
 70
     1
102
RTVSPropertyOp44
 70
     1
102
RTVSPropertyOp45
 70
     1
102
RTVSPropertyOp46
 70
     1
102
RTVSPropertyOp47
 70
     1
102
RTVSPropertyOp48
 70
     1
102
RTVSPropertyOp49
 70
     1
102
RTVSPropertyOp50
 70
     1
102
RTVSPropertyOp51
 70
     0
102
RTVSPropertyOp52
 70
     0
102
RTVSPropertyOp53
 70
     1
102
RTVSPropertyOp54
 70
     1
102
RTVSPropertyOp55
 70
     1
102
RTVSPropertyOp56
 70
     1
102
RTVSPropertyOp57
 70
     1
102
RTVSPost2010Prop28
280
     0
102
RTVSPost2010PropOp28
 70
     1
102
RTVSPost2010Prop29
280
     1
102
RTVSPost2010PropOp29
 70
     1
102
RTVSPost2010Prop30
280
     1
102
RTVSPost2010PropOp30
 70
     1
102
RTVSPost2010Prop31
280
     0
102
RTVSPost2010PropOp31
 70
     1
102
RTVSPost2010Prop32
280
     0
102
RTVSPost2010PropOp32
 70
     1
102
RTVSPost2010Prop33
280
     0
102
RTVSPost2010PropOp33
 70
     1
102
RTVSPost2010Prop34
280
     0
102
RTVSPost2010PropOp34
 70
     1
102
RTVSPost2010Prop35
280
     0
102
RTVSPost2010PropOp35
 70
     1
102
RTVSPost2010Prop36
280
     0
102
RTVSPost2010PropOp36
 70
     1
102
RTVSPost2010Prop37
 90
       50
102
RTVSPost2010PropOp37
 70
     1
102
RTVSPost2010Prop38
140
0.0
102
RTVSPost2010PropOp38
 70
     1
102
RTVSPost2010Prop39
140
1.0
102
RTVSPost2010PropOp39
 70
     1
102
RTVSPost2010Prop40
 90
        0
102
RTVSPost2010PropOp40
 70
     1
102
RTVSPost2010Prop41ColorIndex
 90
       18
102
RTVSPost2010Prop41ColorRGB
 90
        0
102
RTVSPost2010PropOp41
 70
     1
102
RTVSPost2010Prop42
 90
       50
102
RTVSPost2010PropOp42
 70
     1
102
RTVSPost2010Prop43
 90
        3
102
RTVSPost2010PropOp43
 70
     1
102
RTVSPost2010Prop44ColorIndex
 90
        5
102
RTVSPost2010Prop44ColorRGB
 90
      255
102
RTVSPost2010PropOp44
 70
     1
102
RTVSPost2010Prop45
280
     0
102
RTVSPost2010PropOp45
 70
     1
102
RTVSPost2010Prop46
 90
       50
102
RTVSPost2010PropOp46
 70
     1
102
RTVSPost2010Prop47
 90
       50
102
RTVSPost2010PropOp47
 70
     1
102
RTVSPost2010Prop48
 90
       50
102
RTVSPost2010PropOp48
 70
     1
102
RTVSPost2010Prop49
280
     0
102
RTVSPost2010PropOp49
 70
     1
102
RTVSPost2010Prop50
 90
       50
102
RTVSPost2010PropOp50
 70
     1
102
RTVSPost2010Prop51ColorIndex
 90
      256
102
RTVSPost2010Prop51ColorRGB
 90
-16777216
102
RTVSPost2010PropOp51
 70
     0
102
RTVSPost2010Prop52
140
1.0
102
RTVSPost2010PropOp52
 70
     0
102
RTVSPost2010Prop53
 90
        2
102
RTVSPost2010PropOp53
 70
     1
102
RTVSPost2010Prop54
  1
strokes_ogs.tif
102
RTVSPost2010PropOp54
 70
     1
102
RTVSPost2010Prop55
280
     0
102
RTVSPost2010PropOp55
 70
     1
102
RTVSPost2010Prop56
140
1.0
102
RTVSPost2010PropOp56
 70
     1
102
RTVSPost2010Prop57
140
1.0
102
RTVSPost2010PropOp57
 70
     1
  0
XRECORD
  5
FF1
102
{ACAD_REACTORS
330
FF0
102
}
330
FF0
100
AcDbXrecord
280
     1
102
RTVSPropertyOp0
 70
     1
102
RTVSPropertyOp1
 70
     1
102
RTVSPropertyOp2
 70
     1
102
RTVSPropertyOp3
 70
     1
102
RTVSPropertyOp4
 70
     1
102
RTVSPropertyOp5
 70
     1
102
RTVSPropertyOp6
 70
     1
102
RTVSPropertyOp7
 70
     1
102
RTVSPropertyOp8
 70
     1
102
RTVSPropertyOp9
 70
     1
102
RTVSPropertyOp10
 70
     1
102
RTVSPropertyOp11
 70
     1
102
RTVSPropertyOp12
 70
     1
102
RTVSPropertyOp13
 70
     1
102
RTVSPropertyOp14
 70
     1
102
RTVSPropertyOp15
 70
     1
102
RTVSPropertyOp16
 70
     1
102
RTVSPropertyOp17
 70
     1
102
RTVSPropertyOp18
 70
     1
102
RTVSPropertyOp19
 70
     1
102
RTVSPropertyOp20
 70
     1
102
RTVSPropertyOp21
 70
     1
102
RTVSPropertyOp22
 70
     1
102
RTVSPropertyOp23
 70
     1
102
RTVSPropertyOp24
 70
     1
102
RTVSPropertyOp25
 70
     1
102
RTVSPropertyOp26
 70
     1
102
RTVSPropertyOp27
 70
     1
102
RTVSPropertyOp28
 70
     1
102
RTVSPropertyOp29
 70
     1
102
RTVSPropertyOp30
 70
     1
102
RTVSPropertyOp31
 70
     1
102
RTVSPropertyOp32
 70
     1
102
RTVSPropertyOp33
 70
     1
102
RTVSPropertyOp34
 70
     1
102
RTVSPropertyOp35
 70
     1
102
RTVSPropertyOp36
 70
     1
102
RTVSPropertyOp37
 70
     1
102
RTVSPropertyOp38
 70
     1
102
RTVSPropertyOp39
 70
     1
102
RTVSPropertyOp40
 70
     1
102
RTVSPropertyOp41
 70
     1
102
RTVSPropertyOp42
 70
     1
102
RTVSPropertyOp43
 70
     1
102
RTVSPropertyOp44
 70
     1
102
RTVSPropertyOp45
 70
     1
102
RTVSPropertyOp46
 70
     1
102
RTVSPropertyOp47
 70
     1
102
RTVSPropertyOp48
 70
     1
102
RTVSPropertyOp49
 70
     1
102
RTVSPropertyOp50
 70
     1
102
RTVSPropertyOp51
 70
     0
102
RTVSPropertyOp52
 70
     0
102
RTVSPropertyOp53
 70
     1
102
RTVSPropertyOp54
 70
     1
102
RTVSPropertyOp55
 70
     1
102
RTVSPropertyOp56
 70
     1
102
RTVSPropertyOp57
 70
     1
102
RTVSPost2010Prop28
280
     0
102
RTVSPost2010PropOp28
 70
     1
102
RTVSPost2010Prop29
280
     1
102
RTVSPost2010PropOp29
 70
     1
102
RTVSPost2010Prop30
280
     1
102
RTVSPost2010PropOp30
 70
     1
102
RTVSPost2010Prop31
280
     0
102
RTVSPost2010PropOp31
 70
     1
102
RTVSPost2010Prop32
280
     0
102
RTVSPost2010PropOp32
 70
     1
102
RTVSPost2010Prop33
280
     0
102
RTVSPost2010PropOp33
 70
     1
102
RTVSPost2010Prop34
280
     0
102
RTVSPost2010PropOp34
 70
     1
102
RTVSPost2010Prop35
280
     0
102
RTVSPost2010PropOp35
 70
     1
102
RTVSPost2010Prop36
280
     0
102
RTVSPost2010PropOp36
 70
     1
102
RTVSPost2010Prop37
 90
       50
102
RTVSPost2010PropOp37
 70
     1
102
RTVSPost2010Prop38
140
0.0
102
RTVSPost2010PropOp38
 70
     1
102
RTVSPost2010Prop39
140
1.0
102
RTVSPost2010PropOp39
 70
     1
102
RTVSPost2010Prop40
 90
        0
102
RTVSPost2010PropOp40
 70
     1
102
RTVSPost2010Prop41ColorIndex
 90
       18
102
RTVSPost2010Prop41ColorRGB
 90
        0
102
RTVSPost2010PropOp41
 70
     1
102
RTVSPost2010Prop42
 90
       50
102
RTVSPost2010PropOp42
 70
     1
102
RTVSPost2010Prop43
 90
        3
102
RTVSPost2010PropOp43
 70
     1
102
RTVSPost2010Prop44ColorIndex
 90
        5
102
RTVSPost2010Prop44ColorRGB
 90
      255
102
RTVSPost2010PropOp44
 70
     1
102
RTVSPost2010Prop45
280
     0
102
RTVSPost2010PropOp45
 70
     1
102
RTVSPost2010Prop46
 90
       50
102
RTVSPost2010PropOp46
 70
     1
102
RTVSPost2010Prop47
 90
       50
102
RTVSPost2010PropOp47
 70
     1
102
RTVSPost2010Prop48
 90
       50
102
RTVSPost2010PropOp48
 70
     1
102
RTVSPost2010Prop49
280
     0
102
RTVSPost2010PropOp49
 70
     1
102
RTVSPost2010Prop50
 90
       50
102
RTVSPost2010PropOp50
 70
     1
102
RTVSPost2010Prop51ColorIndex
 90
      256
102
RTVSPost2010Prop51ColorRGB
 90
-16777216
102
RTVSPost2010PropOp51
 70
     0
102
RTVSPost2010Prop52
140
1.0
102
RTVSPost2010PropOp52
 70
     0
102
RTVSPost2010Prop53
 90
        2
102
RTVSPost2010PropOp53
 70
     1
102
RTVSPost2010Prop54
  1
strokes_ogs.tif
102
RTVSPost2010PropOp54
 70
     1
102
RTVSPost2010Prop55
280
     0
102
RTVSPost2010PropOp55
 70
     1
102
RTVSPost2010Prop56
140
1.0
102
RTVSPost2010PropOp56
 70
     1
102
RTVSPost2010Prop57
140
1.0
102
RTVSPost2010PropOp57
 70
     1
  0
XRECORD
  5
FE3
102
{ACAD_REACTORS
330
FE2
102
}
330
FE2
100
AcDbXrecord
280
     1
102
RTVSPropertyOp0
 70
     1
102
RTVSPropertyOp1
 70
     1
102
RTVSPropertyOp2
 70
     1
102
RTVSPropertyOp3
 70
     1
102
RTVSPropertyOp4
 70
     1
102
RTVSPropertyOp5
 70
     1
102
RTVSPropertyOp6
 70
     1
102
RTVSPropertyOp7
 70
     1
102
RTVSPropertyOp8
 70
     1
102
RTVSPropertyOp9
 70
     1
102
RTVSPropertyOp10
 70
     1
102
RTVSPropertyOp11
 70
     1
102
RTVSPropertyOp12
 70
     1
102
RTVSPropertyOp13
 70
     1
102
RTVSPropertyOp14
 70
     1
102
RTVSPropertyOp15
 70
     1
102
RTVSPropertyOp16
 70
     1
102
RTVSPropertyOp17
 70
     1
102
RTVSPropertyOp18
 70
     1
102
RTVSPropertyOp19
 70
     1
102
RTVSPropertyOp20
 70
     1
102
RTVSPropertyOp21
 70
     1
102
RTVSPropertyOp22
 70
     1
102
RTVSPropertyOp23
 70
     1
102
RTVSPropertyOp24
 70
     1
102
RTVSPropertyOp25
 70
     1
102
RTVSPropertyOp26
 70
     1
102
RTVSPropertyOp27
 70
     1
102
RTVSPropertyOp28
 70
     1
102
RTVSPropertyOp29
 70
     1
102
RTVSPropertyOp30
 70
     1
102
RTVSPropertyOp31
 70
     1
102
RTVSPropertyOp32
 70
     1
102
RTVSPropertyOp33
 70
     1
102
RTVSPropertyOp34
 70
     1
102
RTVSPropertyOp35
 70
     1
102
RTVSPropertyOp36
 70
     1
102
RTVSPropertyOp37
 70
     1
102
RTVSPropertyOp38
 70
     1
102
RTVSPropertyOp39
 70
     1
102
RTVSPropertyOp40
 70
     1
102
RTVSPropertyOp41
 70
     1
102
RTVSPropertyOp42
 70
     1
102
RTVSPropertyOp43
 70
     1
102
RTVSPropertyOp44
 70
     1
102
RTVSPropertyOp45
 70
     1
102
RTVSPropertyOp46
 70
     1
102
RTVSPropertyOp47
 70
     1
102
RTVSPropertyOp48
 70
     1
102
RTVSPropertyOp49
 70
     1
102
RTVSPropertyOp50
 70
     1
102
RTVSPropertyOp51
 70
     0
102
RTVSPropertyOp52
 70
     0
102
RTVSPropertyOp53
 70
     1
102
RTVSPropertyOp54
 70
     1
102
RTVSPropertyOp55
 70
     1
102
RTVSPropertyOp56
 70
     1
102
RTVSPropertyOp57
 70
     1
102
RTVSPost2010Prop28
280
     0
102
RTVSPost2010PropOp28
 70
     1
102
RTVSPost2010Prop29
280
     1
102
RTVSPost2010PropOp29
 70
     1
102
RTVSPost2010Prop30
280
     1
102
RTVSPost2010PropOp30
 70
     1
102
RTVSPost2010Prop31
280
     0
102
RTVSPost2010PropOp31
 70
     1
102
RTVSPost2010Prop32
280
     0
102
RTVSPost2010PropOp32
 70
     1
102
RTVSPost2010Prop33
280
     0
102
RTVSPost2010PropOp33
 70
     1
102
RTVSPost2010Prop34
280
     0
102
RTVSPost2010PropOp34
 70
     1
102
RTVSPost2010Prop35
280
     0
102
RTVSPost2010PropOp35
 70
     1
102
RTVSPost2010Prop36
280
     0
102
RTVSPost2010PropOp36
 70
     1
102
RTVSPost2010Prop37
 90
       50
102
RTVSPost2010PropOp37
 70
     1
102
RTVSPost2010Prop38
140
0.0
102
RTVSPost2010PropOp38
 70
     1
102
RTVSPost2010Prop39
140
1.0
102
RTVSPost2010PropOp39
 70
     1
102
RTVSPost2010Prop40
 90
        0
102
RTVSPost2010PropOp40
 70
     1
102
RTVSPost2010Prop41ColorIndex
 90
       18
102
RTVSPost2010Prop41ColorRGB
 90
        0
102
RTVSPost2010PropOp41
 70
     1
102
RTVSPost2010Prop42
 90
       50
102
RTVSPost2010PropOp42
 70
     1
102
RTVSPost2010Prop43
 90
        3
102
RTVSPost2010PropOp43
 70
     1
102
RTVSPost2010Prop44ColorIndex
 90
        5
102
RTVSPost2010Prop44ColorRGB
 90
      255
102
RTVSPost2010PropOp44
 70
     1
102
RTVSPost2010Prop45
280
     0
102
RTVSPost2010PropOp45
 70
     1
102
RTVSPost2010Prop46
 90
       50
102
RTVSPost2010PropOp46
 70
     1
102
RTVSPost2010Prop47
 90
       50
102
RTVSPost2010PropOp47
 70
     1
102
RTVSPost2010Prop48
 90
       50
102
RTVSPost2010PropOp48
 70
     1
102
RTVSPost2010Prop49
280
     0
102
RTVSPost2010PropOp49
 70
     1
102
RTVSPost2010Prop50
 90
       50
102
RTVSPost2010PropOp50
 70
     1
102
RTVSPost2010Prop51ColorIndex
 90
      256
102
RTVSPost2010Prop51ColorRGB
 90
-16777216
102
RTVSPost2010PropOp51
 70
     0
102
RTVSPost2010Prop52
140
1.0
102
RTVSPost2010PropOp52
 70
     0
102
RTVSPost2010Prop53
 90
        2
102
RTVSPost2010PropOp53
 70
     1
102
RTVSPost2010Prop54
  1
strokes_ogs.tif
102
RTVSPost2010PropOp54
 70
     1
102
RTVSPost2010Prop55
280
     0
102
RTVSPost2010PropOp55
 70
     1
102
RTVSPost2010Prop56
140
1.0
102
RTVSPost2010PropOp56
 70
     1
102
RTVSPost2010Prop57
140
1.0
102
RTVSPost2010PropOp57
 70
     1
  0
XRECORD
  5
1003
102
{ACAD_REACTORS
330
1002
102
}
330
1002
100
AcDbXrecord
280
     1
102
RTVSPropertyOp0
 70
     1
102
RTVSPropertyOp1
 70
     1
102
RTVSPropertyOp2
 70
     1
102
RTVSPropertyOp3
 70
     1
102
RTVSPropertyOp4
 70
     1
102
RTVSPropertyOp5
 70
     1
102
RTVSPropertyOp6
 70
     1
102
RTVSPropertyOp7
 70
     1
102
RTVSPropertyOp8
 70
     1
102
RTVSPropertyOp9
 70
     1
102
RTVSPropertyOp10
 70
     1
102
RTVSPropertyOp11
 70
     1
102
RTVSPropertyOp12
 70
     1
102
RTVSPropertyOp13
 70
     1
102
RTVSPropertyOp14
 70
     1
102
RTVSPropertyOp15
 70
     1
102
RTVSPropertyOp16
 70
     1
102
RTVSPropertyOp17
 70
     1
102
RTVSPropertyOp18
 70
     1
102
RTVSPropertyOp19
 70
     1
102
RTVSPropertyOp20
 70
     1
102
RTVSPropertyOp21
 70
     1
102
RTVSPropertyOp22
 70
     1
102
RTVSPropertyOp23
 70
     1
102
RTVSPropertyOp24
 70
     1
102
RTVSPropertyOp25
 70
     1
102
RTVSPropertyOp26
 70
     1
102
RTVSPropertyOp27
 70
     1
102
RTVSPropertyOp28
 70
     1
102
RTVSPropertyOp29
 70
     1
102
RTVSPropertyOp30
 70
     1
102
RTVSPropertyOp31
 70
     1
102
RTVSPropertyOp32
 70
     1
102
RTVSPropertyOp33
 70
     1
102
RTVSPropertyOp34
 70
     1
102
RTVSPropertyOp35
 70
     1
102
RTVSPropertyOp36
 70
     1
102
RTVSPropertyOp37
 70
     1
102
RTVSPropertyOp38
 70
     1
102
RTVSPropertyOp39
 70
     1
102
RTVSPropertyOp40
 70
     1
102
RTVSPropertyOp41
 70
     1
102
RTVSPropertyOp42
 70
     1
102
RTVSPropertyOp43
 70
     1
102
RTVSPropertyOp44
 70
     1
102
RTVSPropertyOp45
 70
     1
102
RTVSPropertyOp46
 70
     1
102
RTVSPropertyOp47
 70
     1
102
RTVSPropertyOp48
 70
     1
102
RTVSPropertyOp49
 70
     1
102
RTVSPropertyOp50
 70
     1
102
RTVSPropertyOp51
 70
     0
102
RTVSPropertyOp52
 70
     0
102
RTVSPropertyOp53
 70
     1
102
RTVSPropertyOp54
 70
     1
102
RTVSPropertyOp55
 70
     1
102
RTVSPropertyOp56
 70
     1
102
RTVSPropertyOp57
 70
     1
102
RTVSPost2010Prop28
280
     0
102
RTVSPost2010PropOp28
 70
     1
102
RTVSPost2010Prop29
280
     1
102
RTVSPost2010PropOp29
 70
     1
102
RTVSPost2010Prop30
280
     1
102
RTVSPost2010PropOp30
 70
     1
102
RTVSPost2010Prop31
280
     0
102
RTVSPost2010PropOp31
 70
     1
102
RTVSPost2010Prop32
280
     0
102
RTVSPost2010PropOp32
 70
     1
102
RTVSPost2010Prop33
280
     0
102
RTVSPost2010PropOp33
 70
     1
102
RTVSPost2010Prop34
280
     0
102
RTVSPost2010PropOp34
 70
     1
102
RTVSPost2010Prop35
280
     0
102
RTVSPost2010PropOp35
 70
     1
102
RTVSPost2010Prop36
280
     0
102
RTVSPost2010PropOp36
 70
     1
102
RTVSPost2010Prop37
 90
       50
102
RTVSPost2010PropOp37
 70
     1
102
RTVSPost2010Prop38
140
0.0
102
RTVSPost2010PropOp38
 70
     1
102
RTVSPost2010Prop39
140
1.0
102
RTVSPost2010PropOp39
 70
     1
102
RTVSPost2010Prop40
 90
        0
102
RTVSPost2010PropOp40
 70
     1
102
RTVSPost2010Prop41ColorIndex
 90
       18
102
RTVSPost2010Prop41ColorRGB
 90
        0
102
RTVSPost2010PropOp41
 70
     1
102
RTVSPost2010Prop42
 90
       50
102
RTVSPost2010PropOp42
 70
     1
102
RTVSPost2010Prop43
 90
        3
102
RTVSPost2010PropOp43
 70
     1
102
RTVSPost2010Prop44ColorIndex
 90
        5
102
RTVSPost2010Prop44ColorRGB
 90
      255
102
RTVSPost2010PropOp44
 70
     1
102
RTVSPost2010Prop45
280
     0
102
RTVSPost2010PropOp45
 70
     1
102
RTVSPost2010Prop46
 90
       50
102
RTVSPost2010PropOp46
 70
     1
102
RTVSPost2010Prop47
 90
       50
102
RTVSPost2010PropOp47
 70
     1
102
RTVSPost2010Prop48
 90
       50
102
RTVSPost2010PropOp48
 70
     1
102
RTVSPost2010Prop49
280
     0
102
RTVSPost2010PropOp49
 70
     1
102
RTVSPost2010Prop50
 90
       50
102
RTVSPost2010PropOp50
 70
     1
102
RTVSPost2010Prop51ColorIndex
 90
      256
102
RTVSPost2010Prop51ColorRGB
 90
-16777216
102
RTVSPost2010PropOp51
 70
     0
102
RTVSPost2010Prop52
140
1.0
102
RTVSPost2010PropOp52
 70
     0
102
RTVSPost2010Prop53
 90
        2
102
RTVSPost2010PropOp53
 70
     1
102
RTVSPost2010Prop54
  1
strokes_ogs.tif
102
RTVSPost2010PropOp54
 70
     1
102
RTVSPost2010Prop55
280
     0
102
RTVSPost2010PropOp55
 70
     1
102
RTVSPost2010Prop56
140
1.0
102
RTVSPost2010PropOp56
 70
     1
102
RTVSPost2010Prop57
140
1.0
102
RTVSPost2010PropOp57
 70
     1
  0
ENDSEC
  0
EOF
