  0
SECTION
  2
HEADER
  9
$ACADVER
  1
AC1006
  9
$EXTMIN
 10
-4.385311
 20
-1.304091
  9
$EXTMAX
 10
3.395134
 20
4.293516
  9
$LTSCALE
 40
0.000394
  9
$PDMODE
 70
    35
  9
$PDSIZE
 40
0.000315
  0
ENDSEC
  0
SECTION
  2
TABLES
  0
TABLE
  2
LTYPE
 70
     9
  0
LTYPE
  2
CONTINUOUS
 70
    64
  3
Solid line
 72
    65
 73
     0
 40
0.000000
  0
LTYPE
  2
DASHED
 70
    64
  3
__ __ __ __ __ __ __ __ __ __ __ __ __ __ __
 72
    65
 73
     2
 40
0.000003
 49
0.000002
 49
-0.000001
  0
LTYPE
  2
HIDDEN
 70
    64
  3
 _ _ _ _ _ _ _ _ _ _ _ _ _ _ _ _ _ _ _ _ _ _
 72
    65
 73
     2
 40
0.000001
 49
0.000001
 49
-0.000000
  0
LTYPE
  2
CENTER
 70
    64
  3
____ _ ____ _ ____ _ ____ _ ____ _ ____ _ ____
 72
    65
 73
     4
 40
0.000008
 49
0.000005
 49
-0.000001
 49
0.000001
 49
-0.000001
  0
LTYPE
  2
PHANTOM
 70
    64
  3
_____ _ _ _____ _ _ _____ _ _ _____ _ _ ____
 72
    65
 73
     6
 40
0.000010
 49
0.000005
 49
-0.000001
 49
0.000001
 49
-0.000001
 49
0.000001
 49
-0.000001
  0
LTYPE
  2
DOT
 70
    64
  3
...............................................
 72
    65
 73
     2
 40
0.000001
 49
0.000000
 49
-0.000001
  0
LTYPE
  2
DASHDOT
 70
    64
  3
__ . __ . __ . __ . __ . __ . __ . __ . __ . __
 72
    65
 73
     4
 40
0.000004
 49
0.000002
 49
-0.000001
 49
0.000000
 49
-0.000001
  0
LTYPE
  2
BORDER
 70
    64
  3
__ __ . __ __ . __ __ . __ __ . __ __ . __ __
 72
    65
 73
     6
 40
0.000007
 49
0.000002
 49
-0.000001
 49
0.000002
 49
-0.000001
 49
0.000000
 49
-0.000001
  0
LTYPE
  2
DIVIDE
 70
    64
  3
__ . . __ . . __ . . __ . . __ . . __ . . __
 72
    65
 73
     6
 40
0.000005
 49
0.000002
 49
-0.000001
 49
0.000000
 49
-0.000001
 49
0.000000
 49
-0.000001
  0
LTYPE
  2
DOTDOT
 70
    64
  3
 . .  . .  . .  . .  . .  . . 
 72
    65
 73
     5
 40
0.000002
 49
-0.000001
 49
0.000000
 49
-0.000001
 49
0.000000
 49
-0.000001
  0
ENDTAB
  0
TABLE
  2
STYLE
 70
     0
  0
ENDTAB
  0
TABLE
  2
LAYER
 70
     3
  0
LAYER
  2
FOREGROUND
 70
    64
 62
     7
  6
CONTINUOUS
  0
LAYER
  2
BACKGROUND
 70
    65
 62
    -7
  6
CONTINUOUS
  0
LAYER
  2
EBENE_1
 70
    64
 62
     7
  6
CONTINUOUS
  0
ENDTAB
  0
ENDSEC
  0
SECTION
  2
ENTITIES
  0
POLYLINE
  8
EBENE_1
 62
     1
  6
CONTINUOUS
 66
     1
 40
0.003000
 41
0.003000
  0
VERTEX
  8
EBENE_1
 62
     1
  6
CONTINUOUS
 10
1.068299
 20
3.789256
  0
VERTEX
  8
EBENE_1
 62
     1
  6
CONTINUOUS
 10
1.035955
 20
3.707158
  0
VERTEX
  8
EBENE_1
 62
     1
  6
CONTINUOUS
 10
1.011758
 20
3.635562
  0
VERTEX
  8
EBENE_1
 62
     1
  6
CONTINUOUS
 10
0.994373
 20
3.573117
  0
VERTEX
  8
EBENE_1
 62
     1
  6
CONTINUOUS
 10
0.982465
 20
3.518475
  0
VERTEX
  8
EBENE_1
 62
     1
  6
CONTINUOUS
 10
0.974700
 20
3.470284
  0
VERTEX
  8
EBENE_1
 62
     1
  6
CONTINUOUS
 10
0.969744
 20
3.427196
  0
VERTEX
  8
EBENE_1
 62
     1
  6
CONTINUOUS
 10
0.966261
 20
3.387859
  0
VERTEX
  8
EBENE_1
 62
     1
  6
CONTINUOUS
 10
0.962917
 20
3.350925
  0
SEQEND
  8
0
  0
POLYLINE
  8
EBENE_1
 62
     1
  6
CONTINUOUS
 66
     1
 40
0.003000
 41
0.003000
  0
VERTEX
  8
EBENE_1
 62
     1
  6
CONTINUOUS
 10
0.962917
 20
3.350925
  0
VERTEX
  8
EBENE_1
 62
     1
  6
CONTINUOUS
 10
0.960289
 20
3.280815
  0
VERTEX
  8
EBENE_1
 62
     1
  6
CONTINUOUS
 10
0.964581
 20
3.214874
  0
VERTEX
  8
EBENE_1
 62
     1
  6
CONTINUOUS
 10
0.971756
 20
3.152618
  0
VERTEX
  8
EBENE_1
 62
     1
  6
CONTINUOUS
 10
0.977776
 20
3.093563
  0
SEQEND
  8
0
  0
POLYLINE
  8
EBENE_1
 62
     1
  6
CONTINUOUS
 66
     1
 40
0.003000
 41
0.003000
  0
VERTEX
  8
EBENE_1
 62
     1
  6
CONTINUOUS
 10
0.977776
 20
3.093563
  0
VERTEX
  8
EBENE_1
 62
     1
  6
CONTINUOUS
 10
0.976941
 20
3.091400
  0
VERTEX
  8
EBENE_1
 62
     1
  6
CONTINUOUS
 10
0.976121
 20
3.089207
  0
VERTEX
  8
EBENE_1
 62
     1
  6
CONTINUOUS
 10
0.975331
 20
3.086945
  0
SEQEND
  8
0
  0
POLYLINE
  8
EBENE_1
 62
     1
  6
CONTINUOUS
 66
     1
 40
0.003000
 41
0.003000
  0
VERTEX
  8
EBENE_1
 62
     1
  6
CONTINUOUS
 10
0.975331
 20
3.086945
  0
VERTEX
  8
EBENE_1
 62
     1
  6
CONTINUOUS
 10
0.906415
 20
3.078588
  0
VERTEX
  8
EBENE_1
 62
     1
  6
CONTINUOUS
 10
0.838308
 20
3.071013
  0
VERTEX
  8
EBENE_1
 62
     1
  6
CONTINUOUS
 10
0.768988
 20
3.059764
  0
SEQEND
  8
0
  0
POLYLINE
  8
EBENE_1
 62
     1
  6
CONTINUOUS
 66
     1
 40
0.003000
 41
0.003000
  0
VERTEX
  8
EBENE_1
 62
     1
  6
CONTINUOUS
 10
0.768988
 20
3.059764
  0
VERTEX
  8
EBENE_1
 62
     1
  6
CONTINUOUS
 10
0.700827
 20
3.034710
  0
VERTEX
  8
EBENE_1
 62
     1
  6
CONTINUOUS
 10
0.638098
 20
3.005975
  0
VERTEX
  8
EBENE_1
 62
     1
  6
CONTINUOUS
 10
0.578674
 20
2.970912
  0
VERTEX
  8
EBENE_1
 62
     1
  6
CONTINUOUS
 10
0.520425
 20
2.926870
  0
SEQEND
  8
0
  0
POLYLINE
  8
EBENE_1
 62
     1
  6
CONTINUOUS
 66
     1
 40
0.003000
 41
0.003000
  0
VERTEX
  8
EBENE_1
 62
     1
  6
CONTINUOUS
 10
0.520425
 20
2.926870
  0
VERTEX
  8
EBENE_1
 62
     1
  6
CONTINUOUS
 10
0.478826
 20
2.880957
  0
VERTEX
  8
EBENE_1
 62
     1
  6
CONTINUOUS
 10
0.444392
 20
2.835124
  0
VERTEX
  8
EBENE_1
 62
     1
  6
CONTINUOUS
 10
0.415363
 20
2.786217
  0
VERTEX
  8
EBENE_1
 62
     1
  6
CONTINUOUS
 10
0.389979
 20
2.731085
  0
VERTEX
  8
EBENE_1
 62
     1
  6
CONTINUOUS
 10
0.366480
 20
2.666575
  0
SEQEND
  8
0
  0
POLYLINE
  8
EBENE_1
 62
     1
  6
CONTINUOUS
 66
     1
 40
0.003000
 41
0.003000
  0
VERTEX
  8
EBENE_1
 62
     1
  6
CONTINUOUS
 10
0.366480
 20
2.666575
  0
VERTEX
  8
EBENE_1
 62
     1
  6
CONTINUOUS
 10
0.361483
 20
2.641520
  0
VERTEX
  8
EBENE_1
 62
     1
  6
CONTINUOUS
 10
0.358303
 20
2.622874
  0
VERTEX
  8
EBENE_1
 62
     1
  6
CONTINUOUS
 10
0.354217
 20
2.594654
  0
SEQEND
  8
0
  0
POLYLINE
  8
EBENE_1
 62
     1
  6
CONTINUOUS
 66
     1
 40
0.003000
 41
0.003000
  0
VERTEX
  8
EBENE_1
 62
     1
  6
CONTINUOUS
 10
0.354217
 20
2.594654
  0
VERTEX
  8
EBENE_1
 62
     1
  6
CONTINUOUS
 10
0.354749
 20
2.540435
  0
VERTEX
  8
EBENE_1
 62
     1
  6
CONTINUOUS
 10
0.359852
 20
2.486841
  0
VERTEX
  8
EBENE_1
 62
     1
  6
CONTINUOUS
 10
0.368358
 20
2.432087
  0
SEQEND
  8
0
  0
POLYLINE
  8
EBENE_1
 62
     1
  6
CONTINUOUS
 66
     1
 40
0.003000
 41
0.003000
  0
VERTEX
  8
EBENE_1
 62
     1
  6
CONTINUOUS
 10
0.368358
 20
2.432087
  0
VERTEX
  8
EBENE_1
 62
     1
  6
CONTINUOUS
 10
0.365909
 20
2.413952
  0
VERTEX
  8
EBENE_1
 62
     1
  6
CONTINUOUS
 10
0.362721
 20
2.396521
  0
VERTEX
  8
EBENE_1
 62
     1
  6
CONTINUOUS
 10
0.358067
 20
2.378004
  0
SEQEND
  8
0
  0
POLYLINE
  8
EBENE_1
 62
     1
  6
CONTINUOUS
 66
     1
 40
0.003000
 41
0.003000
  0
VERTEX
  8
EBENE_1
 62
     1
  6
CONTINUOUS
 10
0.358067
 20
2.378004
  0
VERTEX
  8
EBENE_1
 62
     1
  6
CONTINUOUS
 10
0.345916
 20
2.368294
  0
VERTEX
  8
EBENE_1
 62
     1
  6
CONTINUOUS
 10
0.328896
 20
2.359252
  0
VERTEX
  8
EBENE_1
 62
     1
  6
CONTINUOUS
 10
0.316811
 20
2.349445
  0
SEQEND
  8
0
  0
POLYLINE
  8
EBENE_1
 62
     1
  6
CONTINUOUS
 66
     1
 40
0.003000
 41
0.003000
  0
VERTEX
  8
EBENE_1
 62
     1
  6
CONTINUOUS
 10
0.316811
 20
2.349445
  0
VERTEX
  8
EBENE_1
 62
     1
  6
CONTINUOUS
 10
0.294593
 20
2.326021
  0
VERTEX
  8
EBENE_1
 62
     1
  6
CONTINUOUS
 10
0.274805
 20
2.305625
  0
VERTEX
  8
EBENE_1
 62
     1
  6
CONTINUOUS
 10
0.253370
 20
2.279902
  0
SEQEND
  8
0
  0
POLYLINE
  8
EBENE_1
 62
     1
  6
CONTINUOUS
 66
     1
 40
0.003000
 41
0.003000
  0
VERTEX
  8
EBENE_1
 62
     1
  6
CONTINUOUS
 10
0.253370
 20
2.279902
  0
VERTEX
  8
EBENE_1
 62
     1
  6
CONTINUOUS
 10
0.244736
 20
2.266332
  0
VERTEX
  8
EBENE_1
 62
     1
  6
CONTINUOUS
 10
0.232379
 20
2.247902
  0
VERTEX
  8
EBENE_1
 62
     1
  6
CONTINUOUS
 10
0.222906
 20
2.219772
  0
SEQEND
  8
0
  0
POLYLINE
  8
EBENE_1
 62
     1
  6
CONTINUOUS
 66
     1
 40
0.003000
 41
0.003000
  0
VERTEX
  8
EBENE_1
 62
     1
  6
CONTINUOUS
 10
0.222906
 20
2.219772
  0
VERTEX
  8
EBENE_1
 62
     1
  6
CONTINUOUS
 10
0.224345
 20
2.175872
  0
VERTEX
  8
EBENE_1
 62
     1
  6
CONTINUOUS
 10
0.236192
 20
2.119757
  0
VERTEX
  8
EBENE_1
 62
     1
  6
CONTINUOUS
 10
0.252287
 20
2.060996
  0
SEQEND
  8
0
  0
POLYLINE
  8
EBENE_1
 62
     1
  6
CONTINUOUS
 66
     1
 40
0.003000
 41
0.003000
  0
VERTEX
  8
EBENE_1
 62
     1
  6
CONTINUOUS
 10
0.252287
 20
2.060996
  0
VERTEX
  8
EBENE_1
 62
     1
  6
CONTINUOUS
 10
0.257587
 20
2.048973
  0
VERTEX
  8
EBENE_1
 62
     1
  6
CONTINUOUS
 10
0.262916
 20
2.036887
  0
VERTEX
  8
EBENE_1
 62
     1
  6
CONTINUOUS
 10
0.268256
 20
2.024772
  0
SEQEND
  8
0
  0
POLYLINE
  8
EBENE_1
 62
     1
  6
CONTINUOUS
 66
     1
 40
0.003000
 41
0.003000
  0
VERTEX
  8
EBENE_1
 62
     1
  6
CONTINUOUS
 10
0.268256
 20
2.024772
  0
VERTEX
  8
EBENE_1
 62
     1
  6
CONTINUOUS
 10
0.290827
 20
1.989676
  0
VERTEX
  8
EBENE_1
 62
     1
  6
CONTINUOUS
 10
0.318631
 20
1.963561
  0
VERTEX
  8
EBENE_1
 62
     1
  6
CONTINUOUS
 10
0.355984
 20
1.946543
  0
SEQEND
  8
0
  0
POLYLINE
  8
EBENE_1
 62
     1
  6
CONTINUOUS
 66
     1
 40
0.003000
 41
0.003000
  0
VERTEX
  8
EBENE_1
 62
     1
  6
CONTINUOUS
 10
0.355984
 20
1.946543
  0
VERTEX
  8
EBENE_1
 62
     1
  6
CONTINUOUS
 10
0.373728
 20
1.945811
  0
VERTEX
  8
EBENE_1
 62
     1
  6
CONTINUOUS
 10
0.398142
 20
1.950458
  0
VERTEX
  8
EBENE_1
 62
     1
  6
CONTINUOUS
 10
0.421217
 20
1.953909
  0
SEQEND
  8
0
  0
POLYLINE
  8
EBENE_1
 62
     1
  6
CONTINUOUS
 66
     1
 40
0.003000
 41
0.003000
  0
VERTEX
  8
EBENE_1
 62
     1
  6
CONTINUOUS
 10
0.421217
 20
1.953909
  0
VERTEX
  8
EBENE_1
 62
     1
  6
CONTINUOUS
 10
0.451218
 20
1.965923
  0
VERTEX
  8
EBENE_1
 62
     1
  6
CONTINUOUS
 10
0.477796
 20
1.981809
  0
VERTEX
  8
EBENE_1
 62
     1
  6
CONTINUOUS
 10
0.504724
 20
1.998894
  0
SEQEND
  8
0
  0
POLYLINE
  8
EBENE_1
 62
     1
  6
CONTINUOUS
 66
     1
 40
0.003000
 41
0.003000
  0
VERTEX
  8
EBENE_1
 62
     1
  6
CONTINUOUS
 10
0.504724
 20
1.998894
  0
VERTEX
  8
EBENE_1
 62
     1
  6
CONTINUOUS
 10
0.485552
 20
1.956801
  0
VERTEX
  8
EBENE_1
 62
     1
  6
CONTINUOUS
 10
0.453418
 20
1.912337
  0
VERTEX
  8
EBENE_1
 62
     1
  6
CONTINUOUS
 10
0.430539
 20
1.877291
  0
SEQEND
  8
0
  0
POLYLINE
  8
EBENE_1
 62
     1
  6
CONTINUOUS
 66
     1
 40
0.003000
 41
0.003000
  0
VERTEX
  8
EBENE_1
 62
     1
  6
CONTINUOUS
 10
0.430539
 20
1.877291
  0
VERTEX
  8
EBENE_1
 62
     1
  6
CONTINUOUS
 10
0.465272
 20
1.843082
  0
VERTEX
  8
EBENE_1
 62
     1
  6
CONTINUOUS
 10
0.526318
 20
1.808834
  0
VERTEX
  8
EBENE_1
 62
     1
  6
CONTINUOUS
 10
0.569240
 20
1.787402
  0
SEQEND
  8
0
  0
POLYLINE
  8
EBENE_1
 62
     1
  6
CONTINUOUS
 66
     1
 40
0.003000
 41
0.003000
  0
VERTEX
  8
EBENE_1
 62
     1
  6
CONTINUOUS
 10
0.569240
 20
1.787402
  0
VERTEX
  8
EBENE_1
 62
     1
  6
CONTINUOUS
 10
0.621727
 20
1.763104
  0
VERTEX
  8
EBENE_1
 62
     1
  6
CONTINUOUS
 10
0.668386
 20
1.743698
  0
VERTEX
  8
EBENE_1
 62
     1
  6
CONTINUOUS
 10
0.723854
 20
1.730799
  0
SEQEND
  8
0
  0
POLYLINE
  8
EBENE_1
 62
     1
  6
CONTINUOUS
 66
     1
 40
0.003000
 41
0.003000
  0
VERTEX
  8
EBENE_1
 62
     1
  6
CONTINUOUS
 10
0.723854
 20
1.730799
  0
VERTEX
  8
EBENE_1
 62
     1
  6
CONTINUOUS
 10
0.769381
 20
1.733267
  0
VERTEX
  8
EBENE_1
 62
     1
  6
CONTINUOUS
 10
0.796783
 20
1.735570
  0
VERTEX
  8
EBENE_1
 62
     1
  6
CONTINUOUS
 10
0.829551
 20
1.739681
  0
SEQEND
  8
0
  0
POLYLINE
  8
EBENE_1
 62
     1
  6
CONTINUOUS
 66
     1
 40
0.003000
 41
0.003000
  0
VERTEX
  8
EBENE_1
 62
     1
  6
CONTINUOUS
 10
0.829551
 20
1.739681
  0
VERTEX
  8
EBENE_1
 62
     1
  6
CONTINUOUS
 10
0.859100
 20
1.733700
  0
VERTEX
  8
EBENE_1
 62
     1
  6
CONTINUOUS
 10
0.917476
 20
1.715441
  0
VERTEX
  8
EBENE_1
 62
     1
  6
CONTINUOUS
 10
0.966413
 20
1.681713
  0
SEQEND
  8
0
  0
POLYLINE
  8
EBENE_1
 62
     1
  6
CONTINUOUS
 66
     1
 40
0.003000
 41
0.003000
  0
VERTEX
  8
EBENE_1
 62
     1
  6
CONTINUOUS
 10
0.966413
 20
1.681713
  0
VERTEX
  8
EBENE_1
 62
     1
  6
CONTINUOUS
 10
0.950908
 20
1.644228
  0
VERTEX
  8
EBENE_1
 62
     1
  6
CONTINUOUS
 10
0.917882
 20
1.622060
  0
VERTEX
  8
EBENE_1
 62
     1
  6
CONTINUOUS
 10
0.889650
 20
1.605429
  0
SEQEND
  8
0
  0
POLYLINE
  8
EBENE_1
 62
     1
  6
CONTINUOUS
 66
     1
 40
0.003000
 41
0.003000
  0
VERTEX
  8
EBENE_1
 62
     1
  6
CONTINUOUS
 10
0.889650
 20
1.605429
  0
VERTEX
  8
EBENE_1
 62
     1
  6
CONTINUOUS
 10
0.850988
 20
1.559888
  0
VERTEX
  8
EBENE_1
 62
     1
  6
CONTINUOUS
 10
0.818316
 20
1.511371
  0
VERTEX
  8
EBENE_1
 62
     1
  6
CONTINUOUS
 10
0.795146
 20
1.478992
  0
SEQEND
  8
0
  0
POLYLINE
  8
EBENE_1
 62
     1
  6
CONTINUOUS
 66
     1
 40
0.003000
 41
0.003000
  0
VERTEX
  8
EBENE_1
 62
     1
  6
CONTINUOUS
 10
0.795146
 20
1.478992
  0
VERTEX
  8
EBENE_1
 62
     1
  6
CONTINUOUS
 10
0.766120
 20
1.437914
  0
VERTEX
  8
EBENE_1
 62
     1
  6
CONTINUOUS
 10
0.737679
 20
1.389858
  0
VERTEX
  8
EBENE_1
 62
     1
  6
CONTINUOUS
 10
0.709873
 20
1.336980
  0
VERTEX
  8
EBENE_1
 62
     1
  6
CONTINUOUS
 10
0.682754
 20
1.281437
  0
VERTEX
  8
EBENE_1
 62
     1
  6
CONTINUOUS
 10
0.656372
 20
1.225384
  0
VERTEX
  8
EBENE_1
 62
     1
  6
CONTINUOUS
 10
0.630778
 20
1.170976
  0
VERTEX
  8
EBENE_1
 62
     1
  6
CONTINUOUS
 10
0.606024
 20
1.120369
  0
VERTEX
  8
EBENE_1
 62
     1
  6
CONTINUOUS
 10
0.582161
 20
1.075720
  0
SEQEND
  8
0
  0
POLYLINE
  8
EBENE_1
 62
     1
  6
CONTINUOUS
 66
     1
 40
0.003000
 41
0.003000
  0
VERTEX
  8
EBENE_1
 62
     1
  6
CONTINUOUS
 10
0.582161
 20
1.075720
  0
VERTEX
  8
EBENE_1
 62
     1
  6
CONTINUOUS
 10
0.566529
 20
1.079755
  0
VERTEX
  8
EBENE_1
 62
     1
  6
CONTINUOUS
 10
0.539075
 20
1.090593
  0
VERTEX
  8
EBENE_1
 62
     1
  6
CONTINUOUS
 10
0.491319
 20
1.106339
  0
SEQEND
  8
0
  0
POLYLINE
  8
EBENE_1
 62
     1
  6
CONTINUOUS
 66
     1
 40
0.003000
 41
0.003000
  0
VERTEX
  8
EBENE_1
 62
     1
  6
CONTINUOUS
 10
0.491319
 20
1.106339
  0
VERTEX
  8
EBENE_1
 62
     1
  6
CONTINUOUS
 10
0.423045
 20
1.097639
  0
VERTEX
  8
EBENE_1
 62
     1
  6
CONTINUOUS
 10
0.376741
 20
1.071540
  0
VERTEX
  8
EBENE_1
 62
     1
  6
CONTINUOUS
 10
0.325197
 20
1.028039
  0
SEQEND
  8
0
  0
POLYLINE
  8
EBENE_1
 62
     1
  6
CONTINUOUS
 66
     1
 40
0.003000
 41
0.003000
  0
VERTEX
  8
EBENE_1
 62
     1
  6
CONTINUOUS
 10
0.325197
 20
1.028039
  0
VERTEX
  8
EBENE_1
 62
     1
  6
CONTINUOUS
 10
0.292933
 20
0.967272
  0
VERTEX
  8
EBENE_1
 62
     1
  6
CONTINUOUS
 10
0.272366
 20
0.913963
  0
VERTEX
  8
EBENE_1
 62
     1
  6
CONTINUOUS
 10
0.264904
 20
0.864362
  0
VERTEX
  8
EBENE_1
 62
     1
  6
CONTINUOUS
 10
0.271956
 20
0.814719
  0
VERTEX
  8
EBENE_1
 62
     1
  6
CONTINUOUS
 10
0.294929
 20
0.761284
  0
VERTEX
  8
EBENE_1
 62
     1
  6
CONTINUOUS
 10
0.335232
 20
0.700307
  0
SEQEND
  8
0
  0
POLYLINE
  8
EBENE_1
 62
     1
  6
CONTINUOUS
 66
     1
 40
0.003000
 41
0.003000
  0
VERTEX
  8
EBENE_1
 62
     1
  6
CONTINUOUS
 10
0.335232
 20
0.700307
  0
VERTEX
  8
EBENE_1
 62
     1
  6
CONTINUOUS
 10
0.335232
 20
0.691777
  0
VERTEX
  8
EBENE_1
 62
     1
  6
CONTINUOUS
 10
0.335232
 20
0.683245
  0
VERTEX
  8
EBENE_1
 62
     1
  6
CONTINUOUS
 10
0.335232
 20
0.674713
  0
SEQEND
  8
0
  0
POLYLINE
  8
EBENE_1
 62
     1
  6
CONTINUOUS
 66
     1
 40
0.003000
 41
0.003000
  0
VERTEX
  8
EBENE_1
 62
     1
  6
CONTINUOUS
 10
0.335232
 20
0.674713
  0
VERTEX
  8
EBENE_1
 62
     1
  6
CONTINUOUS
 10
0.313908
 20
0.615334
  0
VERTEX
  8
EBENE_1
 62
     1
  6
CONTINUOUS
 10
0.292680
 20
0.555859
  0
VERTEX
  8
EBENE_1
 62
     1
  6
CONTINUOUS
 10
0.271524
 20
0.496311
  0
VERTEX
  8
EBENE_1
 62
     1
  6
CONTINUOUS
 10
0.250417
 20
0.436715
  0
VERTEX
  8
EBENE_1
 62
     1
  6
CONTINUOUS
 10
0.229335
 20
0.377094
  0
SEQEND
  8
0
  0
POLYLINE
  8
EBENE_1
 62
     1
  6
CONTINUOUS
 66
     1
 40
0.003000
 41
0.003000
  0
VERTEX
  8
EBENE_1
 62
     1
  6
CONTINUOUS
 10
0.229335
 20
0.377094
  0
VERTEX
  8
EBENE_1
 62
     1
  6
CONTINUOUS
 10
0.215989
 20
0.323685
  0
VERTEX
  8
EBENE_1
 62
     1
  6
CONTINUOUS
 10
0.203580
 20
0.270441
  0
VERTEX
  8
EBENE_1
 62
     1
  6
CONTINUOUS
 10
0.192074
 20
0.217278
  0
VERTEX
  8
EBENE_1
 62
     1
  6
CONTINUOUS
 10
0.181438
 20
0.164113
  0
VERTEX
  8
EBENE_1
 62
     1
  6
CONTINUOUS
 10
0.171635
 20
0.110862
  0
VERTEX
  8
EBENE_1
 62
     1
  6
CONTINUOUS
 10
0.162634
 20
0.057441
  0
VERTEX
  8
EBENE_1
 62
     1
  6
CONTINUOUS
 10
0.154400
 20
0.003768
  0
VERTEX
  8
EBENE_1
 62
     1
  6
CONTINUOUS
 10
0.146899
 20
-0.050243
  0
VERTEX
  8
EBENE_1
 62
     1
  6
CONTINUOUS
 10
0.140096
 20
-0.104674
  0
VERTEX
  8
EBENE_1
 62
     1
  6
CONTINUOUS
 10
0.133959
 20
-0.159610
  0
VERTEX
  8
EBENE_1
 62
     1
  6
CONTINUOUS
 10
0.128453
 20
-0.215134
  0
SEQEND
  8
0
  0
POLYLINE
  8
EBENE_1
 62
     1
  6
CONTINUOUS
 66
     1
 40
0.003000
 41
0.003000
  0
VERTEX
  8
EBENE_1
 62
     1
  6
CONTINUOUS
 10
0.128453
 20
-0.215134
  0
VERTEX
  8
EBENE_1
 62
     1
  6
CONTINUOUS
 10
0.128453
 20
-0.294081
  0
VERTEX
  8
EBENE_1
 62
     1
  6
CONTINUOUS
 10
0.128453
 20
-0.373250
  0
VERTEX
  8
EBENE_1
 62
     1
  6
CONTINUOUS
 10
0.128453
 20
-0.452528
  0
SEQEND
  8
0
  0
POLYLINE
  8
EBENE_1
 62
     1
  6
CONTINUOUS
 66
     1
 40
0.003000
 41
0.003000
  0
VERTEX
  8
EBENE_1
 62
     1
  6
CONTINUOUS
 10
0.128453
 20
-0.452528
  0
VERTEX
  8
EBENE_1
 62
     1
  6
CONTINUOUS
 10
0.135148
 20
-0.522950
  0
VERTEX
  8
EBENE_1
 62
     1
  6
CONTINUOUS
 10
0.140607
 20
-0.579067
  0
VERTEX
  8
EBENE_1
 62
     1
  6
CONTINUOUS
 10
0.145479
 20
-0.626434
  0
VERTEX
  8
EBENE_1
 62
     1
  6
CONTINUOUS
 10
0.150410
 20
-0.670600
  0
VERTEX
  8
EBENE_1
 62
     1
  6
CONTINUOUS
 10
0.156047
 20
-0.717119
  0
VERTEX
  8
EBENE_1
 62
     1
  6
CONTINUOUS
 10
0.163036
 20
-0.771542
  0
VERTEX
  8
EBENE_1
 62
     1
  6
CONTINUOUS
 10
0.172025
 20
-0.839422
  0
VERTEX
  8
EBENE_1
 62
     1
  6
CONTINUOUS
 10
0.183661
 20
-0.926311
  0
SEQEND
  8
0
  0
POLYLINE
  8
EBENE_1
 62
     1
  6
CONTINUOUS
 66
     1
 40
0.003000
 41
0.003000
  0
VERTEX
  8
EBENE_1
 62
     1
  6
CONTINUOUS
 10
0.183661
 20
-0.926311
  0
VERTEX
  8
EBENE_1
 62
     1
  6
CONTINUOUS
 10
0.150054
 20
-0.965308
  0
VERTEX
  8
EBENE_1
 62
     1
  6
CONTINUOUS
 10
0.141892
 20
-1.001741
  0
VERTEX
  8
EBENE_1
 62
     1
  6
CONTINUOUS
 10
0.128028
 20
-1.057803
  0
SEQEND
  8
0
  0
POLYLINE
  8
EBENE_1
 62
     1
  6
CONTINUOUS
 66
     1
 40
0.003000
 41
0.003000
  0
VERTEX
  8
EBENE_1
 62
     1
  6
CONTINUOUS
 10
0.128028
 20
-1.057803
  0
VERTEX
  8
EBENE_1
 62
     1
  6
CONTINUOUS
 10
0.123528
 20
-1.119695
  0
VERTEX
  8
EBENE_1
 62
     1
  6
CONTINUOUS
 10
0.126526
 20
-1.173967
  0
VERTEX
  8
EBENE_1
 62
     1
  6
CONTINUOUS
 10
0.139182
 20
-1.220006
  0
VERTEX
  8
EBENE_1
 62
     1
  6
CONTINUOUS
 10
0.163653
 20
-1.257199
  0
VERTEX
  8
EBENE_1
 62
     1
  6
CONTINUOUS
 10
0.202099
 20
-1.284933
  0
VERTEX
  8
EBENE_1
 62
     1
  6
CONTINUOUS
 10
0.256677
 20
-1.302594
  0
SEQEND
  8
0
  0
POLYLINE
  8
EBENE_1
 62
     1
  6
CONTINUOUS
 66
     1
 40
0.003000
 41
0.003000
  0
VERTEX
  8
EBENE_1
 62
     1
  6
CONTINUOUS
 10
0.256677
 20
-1.302594
  0
VERTEX
  8
EBENE_1
 62
     1
  6
CONTINUOUS
 10
0.326927
 20
-1.297417
  0
VERTEX
  8
EBENE_1
 62
     1
  6
CONTINUOUS
 10
0.380368
 20
-1.288199
  0
VERTEX
  8
EBENE_1
 62
     1
  6
CONTINUOUS
 10
0.422698
 20
-1.276340
  0
VERTEX
  8
EBENE_1
 62
     1
  6
CONTINUOUS
 10
0.459613
 20
-1.263244
  0
VERTEX
  8
EBENE_1
 62
     1
  6
CONTINUOUS
 10
0.496811
 20
-1.250310
  0
VERTEX
  8
EBENE_1
 62
     1
  6
CONTINUOUS
 10
0.539988
 20
-1.238942
  0
VERTEX
  8
EBENE_1
 62
     1
  6
CONTINUOUS
 10
0.594843
 20
-1.230539
  0
SEQEND
  8
0
  0
POLYLINE
  8
EBENE_1
 62
     1
  6
CONTINUOUS
 66
     1
 40
0.003000
 41
0.003000
  0
VERTEX
  8
EBENE_1
 62
     1
  6
CONTINUOUS
 10
0.594843
 20
-1.230539
  0
VERTEX
  8
EBENE_1
 62
     1
  6
CONTINUOUS
 10
0.654232
 20
-1.227730
  0
VERTEX
  8
EBENE_1
 62
     1
  6
CONTINUOUS
 10
0.711967
 20
-1.220483
  0
VERTEX
  8
EBENE_1
 62
     1
  6
CONTINUOUS
 10
0.768721
 20
-1.210575
  0
VERTEX
  8
EBENE_1
 62
     1
  6
CONTINUOUS
 10
0.825168
 20
-1.199779
  0
VERTEX
  8
EBENE_1
 62
     1
  6
CONTINUOUS
 10
0.881983
 20
-1.189871
  0
VERTEX
  8
EBENE_1
 62
     1
  6
CONTINUOUS
 10
0.939840
 20
-1.182625
  0
VERTEX
  8
EBENE_1
 62
     1
  6
CONTINUOUS
 10
0.999413
 20
-1.179815
  0
SEQEND
  8
0
  0
POLYLINE
  8
EBENE_1
 62
     1
  6
CONTINUOUS
 66
     1
 40
0.003000
 41
0.003000
  0
VERTEX
  8
EBENE_1
 62
     1
  6
CONTINUOUS
 10
0.999413
 20
-1.179815
  0
VERTEX
  8
EBENE_1
 62
     1
  6
CONTINUOUS
 10
1.058349
 20
-1.160565
  0
VERTEX
  8
EBENE_1
 62
     1
  6
CONTINUOUS
 10
1.102499
 20
-1.133761
  0
VERTEX
  8
EBENE_1
 62
     1
  6
CONTINUOUS
 10
1.136138
 20
-1.097935
  0
VERTEX
  8
EBENE_1
 62
     1
  6
CONTINUOUS
 10
1.163545
 20
-1.051618
  0
VERTEX
  8
EBENE_1
 62
     1
  6
CONTINUOUS
 10
1.188996
 20
-0.993343
  0
SEQEND
  8
0
  0
POLYLINE
  8
EBENE_1
 62
     1
  6
CONTINUOUS
 66
     1
 40
0.003000
 41
0.003000
  0
VERTEX
  8
EBENE_1
 62
     1
  6
CONTINUOUS
 10
1.188996
 20
-0.993343
  0
VERTEX
  8
EBENE_1
 62
     1
  6
CONTINUOUS
 10
1.186898
 20
-0.946386
  0
VERTEX
  8
EBENE_1
 62
     1
  6
CONTINUOUS
 10
1.181521
 20
-0.898067
  0
VERTEX
  8
EBENE_1
 62
     1
  6
CONTINUOUS
 10
1.174244
 20
-0.848830
  0
VERTEX
  8
EBENE_1
 62
     1
  6
CONTINUOUS
 10
1.166446
 20
-0.799118
  0
VERTEX
  8
EBENE_1
 62
     1
  6
CONTINUOUS
 10
1.159505
 20
-0.749375
  0
VERTEX
  8
EBENE_1
 62
     1
  6
CONTINUOUS
 10
1.154798
 20
-0.700045
  0
VERTEX
  8
EBENE_1
 62
     1
  6
CONTINUOUS
 10
1.153705
 20
-0.651571
  0
VERTEX
  8
EBENE_1
 62
     1
  6
CONTINUOUS
 10
1.157604
 20
-0.604397
  0
VERTEX
  8
EBENE_1
 62
     1
  6
CONTINUOUS
 10
1.167872
 20
-0.558967
  0
VERTEX
  8
EBENE_1
 62
     1
  6
CONTINUOUS
 10
1.185888
 20
-0.515725
  0
VERTEX
  8
EBENE_1
 62
     1
  6
CONTINUOUS
 10
1.213031
 20
-0.475114
  0
SEQEND
  8
0
  0
POLYLINE
  8
EBENE_1
 62
     1
  6
CONTINUOUS
 66
     1
 40
0.003000
 41
0.003000
  0
VERTEX
  8
EBENE_1
 62
     1
  6
CONTINUOUS
 10
1.213031
 20
-0.475114
  0
VERTEX
  8
EBENE_1
 62
     1
  6
CONTINUOUS
 10
1.273729
 20
-0.432323
  0
VERTEX
  8
EBENE_1
 62
     1
  6
CONTINUOUS
 10
1.326644
 20
-0.396351
  0
VERTEX
  8
EBENE_1
 62
     1
  6
CONTINUOUS
 10
1.373151
 20
-0.364860
  0
VERTEX
  8
EBENE_1
 62
     1
  6
CONTINUOUS
 10
1.414623
 20
-0.335515
  0
VERTEX
  8
EBENE_1
 62
     1
  6
CONTINUOUS
 10
1.452433
 20
-0.305976
  0
SEQEND
  8
0
  0
POLYLINE
  8
EBENE_1
 62
     1
  6
CONTINUOUS
 66
     1
 40
0.003000
 41
0.003000
  0
VERTEX
  8
EBENE_1
 62
     1
  6
CONTINUOUS
 10
1.452433
 20
-0.305976
  0
VERTEX
  8
EBENE_1
 62
     1
  6
CONTINUOUS
 10
1.458975
 20
-0.305976
  0
VERTEX
  8
EBENE_1
 62
     1
  6
CONTINUOUS
 10
1.465630
 20
-0.305976
  0
VERTEX
  8
EBENE_1
 62
     1
  6
CONTINUOUS
 10
1.472508
 20
-0.305976
  0
SEQEND
  8
0
  0
POLYLINE
  8
EBENE_1
 62
     1
  6
CONTINUOUS
 66
     1
 40
0.003000
 41
0.003000
  0
VERTEX
  8
EBENE_1
 62
     1
  6
CONTINUOUS
 10
1.472508
 20
-0.305976
  0
VERTEX
  8
EBENE_1
 62
     1
  6
CONTINUOUS
 10
1.525183
 20
-0.334145
  0
VERTEX
  8
EBENE_1
 62
     1
  6
CONTINUOUS
 10
1.578006
 20
-0.358738
  0
VERTEX
  8
EBENE_1
 62
     1
  6
CONTINUOUS
 10
1.631264
 20
-0.380225
  0
VERTEX
  8
EBENE_1
 62
     1
  6
CONTINUOUS
 10
1.685246
 20
-0.399077
  0
VERTEX
  8
EBENE_1
 62
     1
  6
CONTINUOUS
 10
1.740239
 20
-0.415764
  0
VERTEX
  8
EBENE_1
 62
     1
  6
CONTINUOUS
 10
1.796533
 20
-0.430758
  0
VERTEX
  8
EBENE_1
 62
     1
  6
CONTINUOUS
 10
1.854415
 20
-0.444529
  0
VERTEX
  8
EBENE_1
 62
     1
  6
CONTINUOUS
 10
1.914173
 20
-0.457547
  0
SEQEND
  8
0
  0
POLYLINE
  8
EBENE_1
 62
     1
  6
CONTINUOUS
 66
     1
 40
0.003000
 41
0.003000
  0
VERTEX
  8
EBENE_1
 62
     1
  6
CONTINUOUS
 10
1.914173
 20
-0.457547
  0
VERTEX
  8
EBENE_1
 62
     1
  6
CONTINUOUS
 10
1.927370
 20
-0.466598
  0
VERTEX
  8
EBENE_1
 62
     1
  6
CONTINUOUS
 10
1.940790
 20
-0.475762
  0
VERTEX
  8
EBENE_1
 62
     1
  6
CONTINUOUS
 10
1.954323
 20
-0.485150
  0
SEQEND
  8
0
  0
POLYLINE
  8
EBENE_1
 62
     1
  6
CONTINUOUS
 66
     1
 40
0.003000
 41
0.003000
  0
VERTEX
  8
EBENE_1
 62
     1
  6
CONTINUOUS
 10
1.954323
 20
-0.485150
  0
VERTEX
  8
EBENE_1
 62
     1
  6
CONTINUOUS
 10
1.962360
 20
-0.551399
  0
VERTEX
  8
EBENE_1
 62
     1
  6
CONTINUOUS
 10
1.961410
 20
-0.619154
  0
VERTEX
  8
EBENE_1
 62
     1
  6
CONTINUOUS
 10
1.950016
 20
-0.686156
  0
VERTEX
  8
EBENE_1
 62
     1
  6
CONTINUOUS
 10
1.926717
 20
-0.750150
  0
SEQEND
  8
0
  0
POLYLINE
  8
EBENE_1
 62
     1
  6
CONTINUOUS
 66
     1
 40
0.003000
 41
0.003000
  0
VERTEX
  8
EBENE_1
 62
     1
  6
CONTINUOUS
 10
1.926717
 20
-0.750150
  0
VERTEX
  8
EBENE_1
 62
     1
  6
CONTINUOUS
 10
1.907161
 20
-0.763346
  0
VERTEX
  8
EBENE_1
 62
     1
  6
CONTINUOUS
 10
1.887719
 20
-0.776767
  0
VERTEX
  8
EBENE_1
 62
     1
  6
CONTINUOUS
 10
1.868500
 20
-0.790299
  0
SEQEND
  8
0
  0
POLYLINE
  8
EBENE_1
 62
     1
  6
CONTINUOUS
 66
     1
 40
0.003000
 41
0.003000
  0
VERTEX
  8
EBENE_1
 62
     1
  6
CONTINUOUS
 10
1.868500
 20
-0.790299
  0
VERTEX
  8
EBENE_1
 62
     1
  6
CONTINUOUS
 10
1.811023
 20
-0.810191
  0
VERTEX
  8
EBENE_1
 62
     1
  6
CONTINUOUS
 10
1.761669
 20
-0.830011
  0
VERTEX
  8
EBENE_1
 62
     1
  6
CONTINUOUS
 10
1.720983
 20
-0.852089
  0
VERTEX
  8
EBENE_1
 62
     1
  6
CONTINUOUS
 10
1.689513
 20
-0.878755
  0
VERTEX
  8
EBENE_1
 62
     1
  6
CONTINUOUS
 10
1.667807
 20
-0.912338
  0
VERTEX
  8
EBENE_1
 62
     1
  6
CONTINUOUS
 10
1.656410
 20
-0.955167
  0
VERTEX
  8
EBENE_1
 62
     1
  6
CONTINUOUS
 10
1.655871
 20
-1.009570
  0
VERTEX
  8
EBENE_1
 62
     1
  6
CONTINUOUS
 10
1.666736
 20
-1.077878
  0
SEQEND
  8
0
  0
POLYLINE
  8
EBENE_1
 62
     1
  6
CONTINUOUS
 66
     1
 40
0.003000
 41
0.003000
  0
VERTEX
  8
EBENE_1
 62
     1
  6
CONTINUOUS
 10
1.666736
 20
-1.077878
  0
VERTEX
  8
EBENE_1
 62
     1
  6
CONTINUOUS
 10
1.700443
 20
-1.118988
  0
VERTEX
  8
EBENE_1
 62
     1
  6
CONTINUOUS
 10
1.739847
 20
-1.144891
  0
VERTEX
  8
EBENE_1
 62
     1
  6
CONTINUOUS
 10
1.784010
 20
-1.158513
  0
VERTEX
  8
EBENE_1
 62
     1
  6
CONTINUOUS
 10
1.831991
 20
-1.162776
  0
VERTEX
  8
EBENE_1
 62
     1
  6
CONTINUOUS
 10
1.882851
 20
-1.160604
  0
VERTEX
  8
EBENE_1
 62
     1
  6
CONTINUOUS
 10
1.935652
 20
-1.154920
  0
VERTEX
  8
EBENE_1
 62
     1
  6
CONTINUOUS
 10
1.989453
 20
-1.148650
  0
SEQEND
  8
0
  0
POLYLINE
  8
EBENE_1
 62
     1
  6
CONTINUOUS
 66
     1
 40
0.003000
 41
0.003000
  0
VERTEX
  8
EBENE_1
 62
     1
  6
CONTINUOUS
 10
1.989453
 20
-1.148650
  0
VERTEX
  8
EBENE_1
 62
     1
  6
CONTINUOUS
 10
2.040763
 20
-1.130369
  0
VERTEX
  8
EBENE_1
 62
     1
  6
CONTINUOUS
 10
2.089444
 20
-1.108873
  0
VERTEX
  8
EBENE_1
 62
     1
  6
CONTINUOUS
 10
2.135306
 20
-1.084083
  0
VERTEX
  8
EBENE_1
 62
     1
  6
CONTINUOUS
 10
2.178159
 20
-1.055919
  0
VERTEX
  8
EBENE_1
 62
     1
  6
CONTINUOUS
 10
2.217813
 20
-1.024304
  0
VERTEX
  8
EBENE_1
 62
     1
  6
CONTINUOUS
 10
2.254078
 20
-0.989156
  0
VERTEX
  8
EBENE_1
 62
     1
  6
CONTINUOUS
 10
2.286763
 20
-0.950398
  0
VERTEX
  8
EBENE_1
 62
     1
  6
CONTINUOUS
 10
2.315680
 20
-0.907949
  0
VERTEX
  8
EBENE_1
 62
     1
  6
CONTINUOUS
 10
2.340637
 20
-0.861732
  0
VERTEX
  8
EBENE_1
 62
     1
  6
CONTINUOUS
 10
2.361445
 20
-0.811666
  0
VERTEX
  8
EBENE_1
 62
     1
  6
CONTINUOUS
 10
2.377913
 20
-0.757673
  0
SEQEND
  8
0
  0
POLYLINE
  8
EBENE_1
 62
     1
  6
CONTINUOUS
 66
     1
 40
0.003000
 41
0.003000
  0
VERTEX
  8
EBENE_1
 62
     1
  6
CONTINUOUS
 10
2.377913
 20
-0.757673
  0
VERTEX
  8
EBENE_1
 62
     1
  6
CONTINUOUS
 10
2.387695
 20
-0.711657
  0
VERTEX
  8
EBENE_1
 62
     1
  6
CONTINUOUS
 10
2.398152
 20
-0.662575
  0
VERTEX
  8
EBENE_1
 62
     1
  6
CONTINUOUS
 10
2.408470
 20
-0.611245
  0
VERTEX
  8
EBENE_1
 62
     1
  6
CONTINUOUS
 10
2.417830
 20
-0.558481
  0
VERTEX
  8
EBENE_1
 62
     1
  6
CONTINUOUS
 10
2.425417
 20
-0.505103
  0
VERTEX
  8
EBENE_1
 62
     1
  6
CONTINUOUS
 10
2.430414
 20
-0.451926
  0
VERTEX
  8
EBENE_1
 62
     1
  6
CONTINUOUS
 10
2.432003
 20
-0.399766
  0
VERTEX
  8
EBENE_1
 62
     1
  6
CONTINUOUS
 10
2.429368
 20
-0.349442
  0
VERTEX
  8
EBENE_1
 62
     1
  6
CONTINUOUS
 10
2.421693
 20
-0.301769
  0
VERTEX
  8
EBENE_1
 62
     1
  6
CONTINUOUS
 10
2.408160
 20
-0.257565
  0
VERTEX
  8
EBENE_1
 62
     1
  6
CONTINUOUS
 10
2.387953
 20
-0.217646
  0
SEQEND
  8
0
  0
POLYLINE
  8
EBENE_1
 62
     1
  6
CONTINUOUS
 66
     1
 40
0.003000
 41
0.003000
  0
VERTEX
  8
EBENE_1
 62
     1
  6
CONTINUOUS
 10
2.387953
 20
-0.217646
  0
VERTEX
  8
EBENE_1
 62
     1
  6
CONTINUOUS
 10
2.336502
 20
-0.190527
  0
VERTEX
  8
EBENE_1
 62
     1
  6
CONTINUOUS
 10
2.284507
 20
-0.172846
  0
VERTEX
  8
EBENE_1
 62
     1
  6
CONTINUOUS
 10
2.233433
 20
-0.158484
  0
VERTEX
  8
EBENE_1
 62
     1
  6
CONTINUOUS
 10
2.184742
 20
-0.141320
  0
VERTEX
  8
EBENE_1
 62
     1
  6
CONTINUOUS
 10
2.139900
 20
-0.115234
  0
VERTEX
  8
EBENE_1
 62
     1
  6
CONTINUOUS
 10
2.100370
 20
-0.074106
  0
SEQEND
  8
0
  0
POLYLINE
  8
EBENE_1
 62
     1
  6
CONTINUOUS
 66
     1
 40
0.003000
 41
0.003000
  0
VERTEX
  8
EBENE_1
 62
     1
  6
CONTINUOUS
 10
2.100370
 20
-0.074106
  0
VERTEX
  8
EBENE_1
 62
     1
  6
CONTINUOUS
 10
2.085686
 20
-0.034531
  0
VERTEX
  8
EBENE_1
 62
     1
  6
CONTINUOUS
 10
2.076577
 20
-0.005775
  0
VERTEX
  8
EBENE_1
 62
     1
  6
CONTINUOUS
 10
2.065236
 20
0.036811
  0
SEQEND
  8
0
  0
POLYLINE
  8
EBENE_1
 62
     1
  6
CONTINUOUS
 66
     1
 40
0.003000
 41
0.003000
  0
VERTEX
  8
EBENE_1
 62
     1
  6
CONTINUOUS
 10
2.065236
 20
0.036811
  0
VERTEX
  8
EBENE_1
 62
     1
  6
CONTINUOUS
 10
2.067747
 20
0.041179
  0
VERTEX
  8
EBENE_1
 62
     1
  6
CONTINUOUS
 10
2.070257
 20
0.045324
  0
VERTEX
  8
EBENE_1
 62
     1
  6
CONTINUOUS
 10
2.072768
 20
0.049358
  0
SEQEND
  8
0
  0
POLYLINE
  8
EBENE_1
 62
     1
  6
CONTINUOUS
 66
     1
 40
0.003000
 41
0.003000
  0
VERTEX
  8
EBENE_1
 62
     1
  6
CONTINUOUS
 10
2.072768
 20
0.049358
  0
VERTEX
  8
EBENE_1
 62
     1
  6
CONTINUOUS
 10
2.130811
 20
0.060936
  0
VERTEX
  8
EBENE_1
 62
     1
  6
CONTINUOUS
 10
2.185355
 20
0.074219
  0
VERTEX
  8
EBENE_1
 62
     1
  6
CONTINUOUS
 10
2.236570
 20
0.090349
  0
VERTEX
  8
EBENE_1
 62
     1
  6
CONTINUOUS
 10
2.284627
 20
0.110466
  0
VERTEX
  8
EBENE_1
 62
     1
  6
CONTINUOUS
 10
2.329696
 20
0.135711
  0
VERTEX
  8
EBENE_1
 62
     1
  6
CONTINUOUS
 10
2.371948
 20
0.167226
  0
VERTEX
  8
EBENE_1
 62
     1
  6
CONTINUOUS
 10
2.411553
 20
0.206152
  0
VERTEX
  8
EBENE_1
 62
     1
  6
CONTINUOUS
 10
2.448681
 20
0.253630
  0
SEQEND
  8
0
  0
POLYLINE
  8
EBENE_1
 62
     1
  6
CONTINUOUS
 66
     1
 40
0.003000
 41
0.003000
  0
VERTEX
  8
EBENE_1
 62
     1
  6
CONTINUOUS
 10
2.448681
 20
0.253630
  0
VERTEX
  8
EBENE_1
 62
     1
  6
CONTINUOUS
 10
2.461878
 20
0.284747
  0
VERTEX
  8
EBENE_1
 62
     1
  6
CONTINUOUS
 10
2.475298
 20
0.315863
  0
VERTEX
  8
EBENE_1
 62
     1
  6
CONTINUOUS
 10
2.488831
 20
0.346980
  0
SEQEND
  8
0
  0
POLYLINE
  8
EBENE_1
 62
     1
  6
CONTINUOUS
 66
     1
 40
0.003000
 41
0.003000
  0
VERTEX
  8
EBENE_1
 62
     1
  6
CONTINUOUS
 10
2.488831
 20
0.346980
  0
VERTEX
  8
EBENE_1
 62
     1
  6
CONTINUOUS
 10
2.504390
 20
0.409911
  0
VERTEX
  8
EBENE_1
 62
     1
  6
CONTINUOUS
 10
2.515264
 20
0.468994
  0
VERTEX
  8
EBENE_1
 62
     1
  6
CONTINUOUS
 10
2.521955
 20
0.526154
  0
VERTEX
  8
EBENE_1
 62
     1
  6
CONTINUOUS
 10
2.524966
 20
0.583314
  0
VERTEX
  8
EBENE_1
 62
     1
  6
CONTINUOUS
 10
2.524798
 20
0.642398
  0
VERTEX
  8
EBENE_1
 62
     1
  6
CONTINUOUS
 10
2.521953
 20
0.705331
  0
SEQEND
  8
0
  0
POLYLINE
  8
EBENE_1
 62
     1
  6
CONTINUOUS
 66
     1
 40
0.003000
 41
0.003000
  0
VERTEX
  8
EBENE_1
 62
     1
  6
CONTINUOUS
 10
2.521953
 20
0.705331
  0
VERTEX
  8
EBENE_1
 62
     1
  6
CONTINUOUS
 10
2.460129
 20
0.724896
  0
VERTEX
  8
EBENE_1
 62
     1
  6
CONTINUOUS
 10
2.404514
 20
0.735756
  0
VERTEX
  8
EBENE_1
 62
     1
  6
CONTINUOUS
 10
2.348899
 20
0.739559
  0
VERTEX
  8
EBENE_1
 62
     1
  6
CONTINUOUS
 10
2.287075
 20
0.737953
  0
SEQEND
  8
0
  0
POLYLINE
  8
EBENE_1
 62
     1
  6
CONTINUOUS
 66
     1
 40
0.003000
 41
0.003000
  0
VERTEX
  8
EBENE_1
 62
     1
  6
CONTINUOUS
 10
2.287075
 20
0.737953
  0
VERTEX
  8
EBENE_1
 62
     1
  6
CONTINUOUS
 10
2.249078
 20
0.724753
  0
VERTEX
  8
EBENE_1
 62
     1
  6
CONTINUOUS
 10
2.211306
 20
0.711332
  0
VERTEX
  8
EBENE_1
 62
     1
  6
CONTINUOUS
 10
2.173646
 20
0.697799
  0
SEQEND
  8
0
  0
POLYLINE
  8
EBENE_1
 62
     1
  6
CONTINUOUS
 66
     1
 40
0.003000
 41
0.003000
  0
VERTEX
  8
EBENE_1
 62
     1
  6
CONTINUOUS
 10
2.173646
 20
0.697799
  0
VERTEX
  8
EBENE_1
 62
     1
  6
CONTINUOUS
 10
2.115580
 20
0.656216
  0
VERTEX
  8
EBENE_1
 62
     1
  6
CONTINUOUS
 10
2.095983
 20
0.643324
  0
VERTEX
  8
EBENE_1
 62
     1
  6
CONTINUOUS
 10
2.081752
 20
0.637205
  0
SEQEND
  8
0
  0
POLYLINE
  8
EBENE_1
 62
     1
  6
CONTINUOUS
 66
     1
 40
0.003000
 41
0.003000
  0
VERTEX
  8
EBENE_1
 62
     1
  6
CONTINUOUS
 10
2.081752
 20
0.637205
  0
VERTEX
  8
EBENE_1
 62
     1
  6
CONTINUOUS
 10
2.082671
 20
0.691677
  0
VERTEX
  8
EBENE_1
 62
     1
  6
CONTINUOUS
 10
2.082997
 20
0.744859
  0
VERTEX
  8
EBENE_1
 62
     1
  6
CONTINUOUS
 10
2.082591
 20
0.796938
  0
VERTEX
  8
EBENE_1
 62
     1
  6
CONTINUOUS
 10
2.081312
 20
0.848102
  0
VERTEX
  8
EBENE_1
 62
     1
  6
CONTINUOUS
 10
2.079021
 20
0.898538
  0
VERTEX
  8
EBENE_1
 62
     1
  6
CONTINUOUS
 10
2.075578
 20
0.948433
  0
VERTEX
  8
EBENE_1
 62
     1
  6
CONTINUOUS
 10
2.070842
 20
0.997975
  0
VERTEX
  8
EBENE_1
 62
     1
  6
CONTINUOUS
 10
2.064673
 20
1.047351
  0
VERTEX
  8
EBENE_1
 62
     1
  6
CONTINUOUS
 10
2.056932
 20
1.096748
  0
VERTEX
  8
EBENE_1
 62
     1
  6
CONTINUOUS
 10
2.047479
 20
1.146354
  0
VERTEX
  8
EBENE_1
 62
     1
  6
CONTINUOUS
 10
2.036174
 20
1.196356
  0
VERTEX
  8
EBENE_1
 62
     1
  6
CONTINUOUS
 10
2.022876
 20
1.246941
  0
VERTEX
  8
EBENE_1
 62
     1
  6
CONTINUOUS
 10
2.007446
 20
1.298296
  0
VERTEX
  8
EBENE_1
 62
     1
  6
CONTINUOUS
 10
1.989744
 20
1.350610
  0
SEQEND
  8
0
  0
POLYLINE
  8
EBENE_1
 62
     1
  6
CONTINUOUS
 66
     1
 40
0.003000
 41
0.003000
  0
VERTEX
  8
EBENE_1
 62
     1
  6
CONTINUOUS
 10
1.989744
 20
1.350610
  0
VERTEX
  8
EBENE_1
 62
     1
  6
CONTINUOUS
 10
1.960341
 20
1.401225
  0
VERTEX
  8
EBENE_1
 62
     1
  6
CONTINUOUS
 10
1.929399
 20
1.450131
  0
VERTEX
  8
EBENE_1
 62
     1
  6
CONTINUOUS
 10
1.896992
 20
1.497148
  0
VERTEX
  8
EBENE_1
 62
     1
  6
CONTINUOUS
 10
1.863195
 20
1.542095
  0
VERTEX
  8
EBENE_1
 62
     1
  6
CONTINUOUS
 10
1.828083
 20
1.584792
  0
VERTEX
  8
EBENE_1
 62
     1
  6
CONTINUOUS
 10
1.791730
 20
1.625058
  0
VERTEX
  8
EBENE_1
 62
     1
  6
CONTINUOUS
 10
1.754213
 20
1.662713
  0
SEQEND
  8
0
  0
POLYLINE
  8
EBENE_1
 62
     1
  6
CONTINUOUS
 66
     1
 40
0.003000
 41
0.003000
  0
VERTEX
  8
EBENE_1
 62
     1
  6
CONTINUOUS
 10
1.754213
 20
1.662713
  0
VERTEX
  8
EBENE_1
 62
     1
  6
CONTINUOUS
 10
1.715644
 20
1.694808
  0
VERTEX
  8
EBENE_1
 62
     1
  6
CONTINUOUS
 10
1.674418
 20
1.733383
  0
VERTEX
  8
EBENE_1
 62
     1
  6
CONTINUOUS
 10
1.651909
 20
1.767154
  0
SEQEND
  8
0
  0
POLYLINE
  8
EBENE_1
 62
     1
  6
CONTINUOUS
 66
     1
 40
0.003000
 41
0.003000
  0
VERTEX
  8
EBENE_1
 62
     1
  6
CONTINUOUS
 10
1.651909
 20
1.767154
  0
VERTEX
  8
EBENE_1
 62
     1
  6
CONTINUOUS
 10
1.703101
 20
1.798547
  0
VERTEX
  8
EBENE_1
 62
     1
  6
CONTINUOUS
 10
1.754167
 20
1.826729
  0
VERTEX
  8
EBENE_1
 62
     1
  6
CONTINUOUS
 10
1.805575
 20
1.852075
  0
VERTEX
  8
EBENE_1
 62
     1
  6
CONTINUOUS
 10
1.857794
 20
1.874958
  0
VERTEX
  8
EBENE_1
 62
     1
  6
CONTINUOUS
 10
1.911291
 20
1.895756
  0
VERTEX
  8
EBENE_1
 62
     1
  6
CONTINUOUS
 10
1.966534
 20
1.914843
  0
VERTEX
  8
EBENE_1
 62
     1
  6
CONTINUOUS
 10
2.023992
 20
1.932594
  0
SEQEND
  8
0
  0
POLYLINE
  8
EBENE_1
 62
     1
  6
CONTINUOUS
 66
     1
 40
0.003000
 41
0.003000
  0
VERTEX
  8
EBENE_1
 62
     1
  6
CONTINUOUS
 10
2.023992
 20
1.932594
  0
VERTEX
  8
EBENE_1
 62
     1
  6
CONTINUOUS
 10
2.046676
 20
1.919820
  0
VERTEX
  8
EBENE_1
 62
     1
  6
CONTINUOUS
 10
2.063947
 20
1.909866
  0
VERTEX
  8
EBENE_1
 62
     1
  6
CONTINUOUS
 10
2.086965
 20
1.897094
  0
SEQEND
  8
0
  0
POLYLINE
  8
EBENE_1
 62
     1
  6
CONTINUOUS
 66
     1
 40
0.003000
 41
0.003000
  0
VERTEX
  8
EBENE_1
 62
     1
  6
CONTINUOUS
 10
2.086965
 20
1.897094
  0
VERTEX
  8
EBENE_1
 62
     1
  6
CONTINUOUS
 10
2.078961
 20
1.873469
  0
VERTEX
  8
EBENE_1
 62
     1
  6
CONTINUOUS
 10
2.061422
 20
1.838577
  0
VERTEX
  8
EBENE_1
 62
     1
  6
CONTINUOUS
 10
2.036524
 20
1.786177
  0
SEQEND
  8
0
  0
POLYLINE
  8
EBENE_1
 62
     1
  6
CONTINUOUS
 66
     1
 40
0.003000
 41
0.003000
  0
VERTEX
  8
EBENE_1
 62
     1
  6
CONTINUOUS
 10
2.036524
 20
1.786177
  0
VERTEX
  8
EBENE_1
 62
     1
  6
CONTINUOUS
 10
2.028446
 20
1.741453
  0
VERTEX
  8
EBENE_1
 62
     1
  6
CONTINUOUS
 10
2.022934
 20
1.701080
  0
VERTEX
  8
EBENE_1
 62
     1
  6
CONTINUOUS
 10
2.018705
 20
1.662713
  0
SEQEND
  8
0
  0
POLYLINE
  8
EBENE_1
 62
     1
  6
CONTINUOUS
 66
     1
 40
0.003000
 41
0.003000
  0
VERTEX
  8
EBENE_1
 62
     1
  6
CONTINUOUS
 10
2.018705
 20
1.662713
  0
VERTEX
  8
EBENE_1
 62
     1
  6
CONTINUOUS
 10
2.025677
 20
1.539585
  0
VERTEX
  8
EBENE_1
 62
     1
  6
CONTINUOUS
 10
2.027629
 20
1.478690
  0
VERTEX
  8
EBENE_1
 62
     1
  6
CONTINUOUS
 10
2.026236
 20
1.427831
  0
SEQEND
  8
0
  0
POLYLINE
  8
EBENE_1
 62
     1
  6
CONTINUOUS
 66
     1
 40
0.003000
 41
0.003000
  0
VERTEX
  8
EBENE_1
 62
     1
  6
CONTINUOUS
 10
2.026236
 20
1.427831
  0
VERTEX
  8
EBENE_1
 62
     1
  6
CONTINUOUS
 10
2.021924
 20
1.392159
  0
VERTEX
  8
EBENE_1
 62
     1
  6
CONTINUOUS
 10
2.021325
 20
1.360948
  0
VERTEX
  8
EBENE_1
 62
     1
  6
CONTINUOUS
 10
2.017346
 20
1.331969
  0
SEQEND
  8
0
  0
POLYLINE
  8
EBENE_1
 62
     1
  6
CONTINUOUS
 66
     1
 40
0.003000
 41
0.003000
  0
VERTEX
  8
EBENE_1
 62
     1
  6
CONTINUOUS
 10
2.017346
 20
1.331969
  0
VERTEX
  8
EBENE_1
 62
     1
  6
CONTINUOUS
 10
2.074393
 20
1.341487
  0
VERTEX
  8
EBENE_1
 62
     1
  6
CONTINUOUS
 10
2.127952
 20
1.350892
  0
VERTEX
  8
EBENE_1
 62
     1
  6
CONTINUOUS
 10
2.185335
 20
1.360075
  0
SEQEND
  8
0
  0
POLYLINE
  8
EBENE_1
 62
     1
  6
CONTINUOUS
 66
     1
 40
0.003000
 41
0.003000
  0
VERTEX
  8
EBENE_1
 62
     1
  6
CONTINUOUS
 10
2.185335
 20
1.360075
  0
VERTEX
  8
EBENE_1
 62
     1
  6
CONTINUOUS
 10
2.217102
 20
1.376991
  0
VERTEX
  8
EBENE_1
 62
     1
  6
CONTINUOUS
 10
2.249092
 20
1.393683
  0
VERTEX
  8
EBENE_1
 62
     1
  6
CONTINUOUS
 10
2.281193
 20
1.410264
  0
SEQEND
  8
0
  0
POLYLINE
  8
EBENE_1
 62
     1
  6
CONTINUOUS
 66
     1
 40
0.003000
 41
0.003000
  0
VERTEX
  8
EBENE_1
 62
     1
  6
CONTINUOUS
 10
2.281193
 20
1.410264
  0
VERTEX
  8
EBENE_1
 62
     1
  6
CONTINUOUS
 10
2.329746
 20
1.451233
  0
VERTEX
  8
EBENE_1
 62
     1
  6
CONTINUOUS
 10
2.369489
 20
1.488075
  0
VERTEX
  8
EBENE_1
 62
     1
  6
CONTINUOUS
 10
2.399638
 20
1.513654
  0
SEQEND
  8
0
  0
POLYLINE
  8
EBENE_1
 62
     1
  6
CONTINUOUS
 66
     1
 40
0.003000
 41
0.003000
  0
VERTEX
  8
EBENE_1
 62
     1
  6
CONTINUOUS
 10
2.399638
 20
1.513654
  0
VERTEX
  8
EBENE_1
 62
     1
  6
CONTINUOUS
 10
2.406183
 20
1.494564
  0
VERTEX
  8
EBENE_1
 62
     1
  6
CONTINUOUS
 10
2.412837
 20
1.475362
  0
VERTEX
  8
EBENE_1
 62
     1
  6
CONTINUOUS
 10
2.419713
 20
1.455937
  0
SEQEND
  8
0
  0
POLYLINE
  8
EBENE_1
 62
     1
  6
CONTINUOUS
 66
     1
 40
0.003000
 41
0.003000
  0
VERTEX
  8
EBENE_1
 62
     1
  6
CONTINUOUS
 10
2.419713
 20
1.455937
  0
VERTEX
  8
EBENE_1
 62
     1
  6
CONTINUOUS
 10
2.466594
 20
1.411533
  0
VERTEX
  8
EBENE_1
 62
     1
  6
CONTINUOUS
 10
2.518558
 20
1.375345
  0
VERTEX
  8
EBENE_1
 62
     1
  6
CONTINUOUS
 10
2.573581
 20
1.342939
  0
VERTEX
  8
EBENE_1
 62
     1
  6
CONTINUOUS
 10
2.629639
 20
1.309883
  0
VERTEX
  8
EBENE_1
 62
     1
  6
CONTINUOUS
 10
2.684709
 20
1.271744
  0
SEQEND
  8
0
  0
POLYLINE
  8
EBENE_1
 62
     1
  6
CONTINUOUS
 66
     1
 40
0.003000
 41
0.003000
  0
VERTEX
  8
EBENE_1
 62
     1
  6
CONTINUOUS
 10
2.684709
 20
1.271744
  0
VERTEX
  8
EBENE_1
 62
     1
  6
CONTINUOUS
 10
2.697265
 20
1.253232
  0
VERTEX
  8
EBENE_1
 62
     1
  6
CONTINUOUS
 10
2.709856
 20
1.235074
  0
VERTEX
  8
EBENE_1
 62
     1
  6
CONTINUOUS
 10
2.722520
 20
1.217622
  0
SEQEND
  8
0
  0
POLYLINE
  8
EBENE_1
 62
     1
  6
CONTINUOUS
 66
     1
 40
0.003000
 41
0.003000
  0
VERTEX
  8
EBENE_1
 62
     1
  6
CONTINUOUS
 10
2.722520
 20
1.217622
  0
VERTEX
  8
EBENE_1
 62
     1
  6
CONTINUOUS
 10
2.747132
 20
1.282927
  0
VERTEX
  8
EBENE_1
 62
     1
  6
CONTINUOUS
 10
2.759449
 20
1.340133
  0
VERTEX
  8
EBENE_1
 62
     1
  6
CONTINUOUS
 10
2.759032
 20
1.398172
  0
VERTEX
  8
EBENE_1
 62
     1
  6
CONTINUOUS
 10
2.745441
 20
1.465972
  0
SEQEND
  8
0
  0
POLYLINE
  8
EBENE_1
 62
     1
  6
CONTINUOUS
 66
     1
 40
0.003000
 41
0.003000
  0
VERTEX
  8
EBENE_1
 62
     1
  6
CONTINUOUS
 10
2.745441
 20
1.465972
  0
VERTEX
  8
EBENE_1
 62
     1
  6
CONTINUOUS
 10
2.745217
 20
1.499806
  0
VERTEX
  8
EBENE_1
 62
     1
  6
CONTINUOUS
 10
2.748339
 20
1.539883
  0
VERTEX
  8
EBENE_1
 62
     1
  6
CONTINUOUS
 10
2.760496
 20
1.569362
  0
SEQEND
  8
0
  0
POLYLINE
  8
EBENE_1
 62
     1
  6
CONTINUOUS
 66
     1
 40
0.003000
 41
0.003000
  0
VERTEX
  8
EBENE_1
 62
     1
  6
CONTINUOUS
 10
2.760496
 20
1.569362
  0
VERTEX
  8
EBENE_1
 62
     1
  6
CONTINUOUS
 10
2.790554
 20
1.526794
  0
VERTEX
  8
EBENE_1
 62
     1
  6
CONTINUOUS
 10
2.824291
 20
1.497164
  0
VERTEX
  8
EBENE_1
 62
     1
  6
CONTINUOUS
 10
2.876433
 20
1.486047
  0
SEQEND
  8
0
  0
POLYLINE
  8
EBENE_1
 62
     1
  6
CONTINUOUS
 66
     1
 40
0.003000
 41
0.003000
  0
VERTEX
  8
EBENE_1
 62
     1
  6
CONTINUOUS
 10
2.876433
 20
1.486047
  0
VERTEX
  8
EBENE_1
 62
     1
  6
CONTINUOUS
 10
2.897160
 20
1.499581
  0
VERTEX
  8
EBENE_1
 62
     1
  6
CONTINUOUS
 10
2.918109
 20
1.513003
  0
VERTEX
  8
EBENE_1
 62
     1
  6
CONTINUOUS
 10
2.939169
 20
1.526201
  0
SEQEND
  8
0
  0
POLYLINE
  8
EBENE_1
 62
     1
  6
CONTINUOUS
 66
     1
 40
0.003000
 41
0.003000
  0
VERTEX
  8
EBENE_1
 62
     1
  6
CONTINUOUS
 10
2.939169
 20
1.526201
  0
VERTEX
  8
EBENE_1
 62
     1
  6
CONTINUOUS
 10
3.006923
 20
1.552948
  0
VERTEX
  8
EBENE_1
 62
     1
  6
CONTINUOUS
 10
3.045235
 20
1.589624
  0
VERTEX
  8
EBENE_1
 62
     1
  6
CONTINUOUS
 10
3.088232
 20
1.655185
  0
SEQEND
  8
0
  0
POLYLINE
  8
EBENE_1
 62
     1
  6
CONTINUOUS
 66
     1
 40
0.003000
 41
0.003000
  0
VERTEX
  8
EBENE_1
 62
     1
  6
CONTINUOUS
 10
3.088232
 20
1.655185
  0
VERTEX
  8
EBENE_1
 62
     1
  6
CONTINUOUS
 10
3.125352
 20
1.687009
  0
VERTEX
  8
EBENE_1
 62
     1
  6
CONTINUOUS
 10
3.157007
 20
1.718721
  0
VERTEX
  8
EBENE_1
 62
     1
  6
CONTINUOUS
 10
3.184091
 20
1.758571
  0
SEQEND
  8
0
  0
POLYLINE
  8
EBENE_1
 62
     1
  6
CONTINUOUS
 66
     1
 40
0.003000
 41
0.003000
  0
VERTEX
  8
EBENE_1
 62
     1
  6
CONTINUOUS
 10
3.184091
 20
1.758571
  0
VERTEX
  8
EBENE_1
 62
     1
  6
CONTINUOUS
 10
3.198050
 20
1.818575
  0
VERTEX
  8
EBENE_1
 62
     1
  6
CONTINUOUS
 10
3.219148
 20
1.872223
  0
VERTEX
  8
EBENE_1
 62
     1
  6
CONTINUOUS
 10
3.244819
 20
1.927209
  0
SEQEND
  8
0
  0
POLYLINE
  8
EBENE_1
 62
     1
  6
CONTINUOUS
 66
     1
 40
0.003000
 41
0.003000
  0
VERTEX
  8
EBENE_1
 62
     1
  6
CONTINUOUS
 10
3.244819
 20
1.927209
  0
VERTEX
  8
EBENE_1
 62
     1
  6
CONTINUOUS
 10
3.252519
 20
1.993378
  0
VERTEX
  8
EBENE_1
 62
     1
  6
CONTINUOUS
 10
3.255234
 20
2.061337
  0
VERTEX
  8
EBENE_1
 62
     1
  6
CONTINUOUS
 10
3.249479
 20
2.127225
  0
VERTEX
  8
EBENE_1
 62
     1
  6
CONTINUOUS
 10
3.231772
 20
2.187185
  0
SEQEND
  8
0
  0
POLYLINE
  8
EBENE_1
 62
     1
  6
CONTINUOUS
 66
     1
 40
0.003000
 41
0.003000
  0
VERTEX
  8
EBENE_1
 62
     1
  6
CONTINUOUS
 10
3.231772
 20
2.187185
  0
VERTEX
  8
EBENE_1
 62
     1
  6
CONTINUOUS
 10
3.202324
 20
2.197200
  0
VERTEX
  8
EBENE_1
 62
     1
  6
CONTINUOUS
 10
3.170948
 20
2.210330
  0
VERTEX
  8
EBENE_1
 62
     1
  6
CONTINUOUS
 10
3.151469
 20
2.229846
  0
SEQEND
  8
0
  0
POLYLINE
  8
EBENE_1
 62
     1
  6
CONTINUOUS
 66
     1
 40
0.003000
 41
0.003000
  0
VERTEX
  8
EBENE_1
 62
     1
  6
CONTINUOUS
 10
3.151469
 20
2.229846
  0
VERTEX
  8
EBENE_1
 62
     1
  6
CONTINUOUS
 10
3.198879
 20
2.268708
  0
VERTEX
  8
EBENE_1
 62
     1
  6
CONTINUOUS
 10
3.237929
 20
2.319712
  0
VERTEX
  8
EBENE_1
 62
     1
  6
CONTINUOUS
 10
3.270138
 20
2.377533
  0
VERTEX
  8
EBENE_1
 62
     1
  6
CONTINUOUS
 10
3.297023
 20
2.436849
  0
VERTEX
  8
EBENE_1
 62
     1
  6
CONTINUOUS
 10
3.320102
 20
2.492335
  0
SEQEND
  8
0
  0
POLYLINE
  8
EBENE_1
 62
     1
  6
CONTINUOUS
 66
     1
 40
0.003000
 41
0.003000
  0
VERTEX
  8
EBENE_1
 62
     1
  6
CONTINUOUS
 10
3.320102
 20
2.492335
  0
VERTEX
  8
EBENE_1
 62
     1
  6
CONTINUOUS
 10
3.348804
 20
2.530495
  0
VERTEX
  8
EBENE_1
 62
     1
  6
CONTINUOUS
 10
3.377393
 20
2.572114
  0
VERTEX
  8
EBENE_1
 62
     1
  6
CONTINUOUS
 10
3.393378
 20
2.613287
  0
SEQEND
  8
0
  0
POLYLINE
  8
EBENE_1
 62
     1
  6
CONTINUOUS
 66
     1
 40
0.003000
 41
0.003000
  0
VERTEX
  8
EBENE_1
 62
     1
  6
CONTINUOUS
 10
3.393378
 20
2.613287
  0
VERTEX
  8
EBENE_1
 62
     1
  6
CONTINUOUS
 10
3.278632
 20
2.593768
  0
VERTEX
  8
EBENE_1
 62
     1
  6
CONTINUOUS
 10
3.217866
 20
2.585960
  0
VERTEX
  8
EBENE_1
 62
     1
  6
CONTINUOUS
 10
3.158996
 20
2.583173
  0
SEQEND
  8
0
  0
POLYLINE
  8
EBENE_1
 62
     1
  6
CONTINUOUS
 66
     1
 40
0.003000
 41
0.003000
  0
VERTEX
  8
EBENE_1
 62
     1
  6
CONTINUOUS
 10
3.158996
 20
2.583173
  0
VERTEX
  8
EBENE_1
 62
     1
  6
CONTINUOUS
 10
3.107171
 20
2.595721
  0
VERTEX
  8
EBENE_1
 62
     1
  6
CONTINUOUS
 10
3.058916
 20
2.608269
  0
VERTEX
  8
EBENE_1
 62
     1
  6
CONTINUOUS
 10
3.012445
 20
2.620815
  0
SEQEND
  8
0
  0
POLYLINE
  8
EBENE_1
 62
     1
  6
CONTINUOUS
 66
     1
 40
0.003000
 41
0.003000
  0
VERTEX
  8
EBENE_1
 62
     1
  6
CONTINUOUS
 10
3.012445
 20
2.620815
  0
VERTEX
  8
EBENE_1
 62
     1
  6
CONTINUOUS
 10
2.944114
 20
2.616670
  0
VERTEX
  8
EBENE_1
 62
     1
  6
CONTINUOUS
 10
2.887717
 20
2.603045
  0
VERTEX
  8
EBENE_1
 62
     1
  6
CONTINUOUS
 10
2.820724
 20
2.578157
  0
SEQEND
  8
0
  0
POLYLINE
  8
EBENE_1
 62
     1
  6
CONTINUOUS
 66
     1
 40
0.003000
 41
0.003000
  0
VERTEX
  8
EBENE_1
 62
     1
  6
CONTINUOUS
 10
2.820724
 20
2.578157
  0
VERTEX
  8
EBENE_1
 62
     1
  6
CONTINUOUS
 10
2.817973
 20
2.616151
  0
VERTEX
  8
EBENE_1
 62
     1
  6
CONTINUOUS
 10
2.816448
 20
2.653922
  0
VERTEX
  8
EBENE_1
 62
     1
  6
CONTINUOUS
 10
2.815705
 20
2.691583
  0
SEQEND
  8
0
  0
POLYLINE
  8
EBENE_1
 62
     1
  6
CONTINUOUS
 66
     1
 40
0.003000
 41
0.003000
  0
VERTEX
  8
EBENE_1
 62
     1
  6
CONTINUOUS
 10
2.815705
 20
2.691583
  0
VERTEX
  8
EBENE_1
 62
     1
  6
CONTINUOUS
 10
2.799584
 20
2.753751
  0
VERTEX
  8
EBENE_1
 62
     1
  6
CONTINUOUS
 10
2.781004
 20
2.808396
  0
VERTEX
  8
EBENE_1
 62
     1
  6
CONTINUOUS
 10
2.759474
 20
2.857764
  0
VERTEX
  8
EBENE_1
 62
     1
  6
CONTINUOUS
 10
2.734503
 20
2.904103
  0
VERTEX
  8
EBENE_1
 62
     1
  6
CONTINUOUS
 10
2.705597
 20
2.949660
  0
VERTEX
  8
EBENE_1
 62
     1
  6
CONTINUOUS
 10
2.672267
 20
2.996684
  0
VERTEX
  8
EBENE_1
 62
     1
  6
CONTINUOUS
 10
2.634020
 20
3.047421
  0
SEQEND
  8
0
  0
POLYLINE
  8
EBENE_1
 62
     1
  6
CONTINUOUS
 66
     1
 40
0.003000
 41
0.003000
  0
VERTEX
  8
EBENE_1
 62
     1
  6
CONTINUOUS
 10
2.634020
 20
3.047421
  0
VERTEX
  8
EBENE_1
 62
     1
  6
CONTINUOUS
 10
2.609949
 20
3.092016
  0
VERTEX
  8
EBENE_1
 62
     1
  6
CONTINUOUS
 10
2.577290
 20
3.135159
  0
VERTEX
  8
EBENE_1
 62
     1
  6
CONTINUOUS
 10
2.541169
 20
3.158339
  0
SEQEND
  8
0
  0
POLYLINE
  8
EBENE_1
 62
     1
  6
CONTINUOUS
 66
     1
 40
0.003000
 41
0.003000
  0
VERTEX
  8
EBENE_1
 62
     1
  6
CONTINUOUS
 10
2.541169
 20
3.158339
  0
VERTEX
  8
EBENE_1
 62
     1
  6
CONTINUOUS
 10
2.536301
 20
3.093129
  0
VERTEX
  8
EBENE_1
 62
     1
  6
CONTINUOUS
 10
2.521617
 20
3.038516
  0
VERTEX
  8
EBENE_1
 62
     1
  6
CONTINUOUS
 10
2.487972
 20
2.981673
  0
SEQEND
  8
0
  0
POLYLINE
  8
EBENE_1
 62
     1
  6
CONTINUOUS
 66
     1
 40
0.003000
 41
0.003000
  0
VERTEX
  8
EBENE_1
 62
     1
  6
CONTINUOUS
 10
2.487972
 20
2.981673
  0
VERTEX
  8
EBENE_1
 62
     1
  6
CONTINUOUS
 10
2.436937
 20
2.935035
  0
VERTEX
  8
EBENE_1
 62
     1
  6
CONTINUOUS
 10
2.390197
 20
2.886947
  0
VERTEX
  8
EBENE_1
 62
     1
  6
CONTINUOUS
 10
2.341673
 20
2.827594
  0
SEQEND
  8
0
  0
POLYLINE
  8
EBENE_1
 62
     1
  6
CONTINUOUS
 66
     1
 40
0.003000
 41
0.003000
  0
VERTEX
  8
EBENE_1
 62
     1
  6
CONTINUOUS
 10
2.341673
 20
2.827594
  0
VERTEX
  8
EBENE_1
 62
     1
  6
CONTINUOUS
 10
2.320156
 20
2.788669
  0
VERTEX
  8
EBENE_1
 62
     1
  6
CONTINUOUS
 10
2.302209
 20
2.753090
  0
VERTEX
  8
EBENE_1
 62
     1
  6
CONTINUOUS
 10
2.286217
 20
2.719185
  0
SEQEND
  8
0
  0
POLYLINE
  8
EBENE_1
 62
     1
  6
CONTINUOUS
 66
     1
 40
0.003000
 41
0.003000
  0
VERTEX
  8
EBENE_1
 62
     1
  6
CONTINUOUS
 10
2.286217
 20
2.719185
  0
VERTEX
  8
EBENE_1
 62
     1
  6
CONTINUOUS
 10
2.271927
 20
2.647376
  0
VERTEX
  8
EBENE_1
 62
     1
  6
CONTINUOUS
 10
2.267519
 20
2.582107
  0
VERTEX
  8
EBENE_1
 62
     1
  6
CONTINUOUS
 10
2.273086
 20
2.515991
  0
VERTEX
  8
EBENE_1
 62
     1
  6
CONTINUOUS
 10
2.288724
 20
2.441642
  0
SEQEND
  8
0
  0
POLYLINE
  8
EBENE_1
 62
     1
  6
CONTINUOUS
 66
     1
 40
0.003000
 41
0.003000
  0
VERTEX
  8
EBENE_1
 62
     1
  6
CONTINUOUS
 10
2.288724
 20
2.441642
  0
VERTEX
  8
EBENE_1
 62
     1
  6
CONTINUOUS
 10
2.216812
 20
2.450638
  0
VERTEX
  8
EBENE_1
 62
     1
  6
CONTINUOUS
 10
2.148948
 20
2.454128
  0
VERTEX
  8
EBENE_1
 62
     1
  6
CONTINUOUS
 10
2.082213
 20
2.450749
  0
VERTEX
  8
EBENE_1
 62
     1
  6
CONTINUOUS
 10
2.013689
 20
2.439134
  0
SEQEND
  8
0
  0
POLYLINE
  8
EBENE_1
 62
     1
  6
CONTINUOUS
 66
     1
 40
0.003000
 41
0.003000
  0
VERTEX
  8
EBENE_1
 62
     1
  6
CONTINUOUS
 10
2.013689
 20
2.439134
  0
VERTEX
  8
EBENE_1
 62
     1
  6
CONTINUOUS
 10
1.959628
 20
2.415723
  0
VERTEX
  8
EBENE_1
 62
     1
  6
CONTINUOUS
 10
1.901378
 20
2.392092
  0
VERTEX
  8
EBENE_1
 62
     1
  6
CONTINUOUS
 10
1.841254
 20
2.369483
  0
VERTEX
  8
EBENE_1
 62
     1
  6
CONTINUOUS
 10
1.781574
 20
2.349140
  0
VERTEX
  8
EBENE_1
 62
     1
  6
CONTINUOUS
 10
1.724654
 20
2.332303
  0
SEQEND
  8
0
  0
POLYLINE
  8
EBENE_1
 62
     1
  6
CONTINUOUS
 66
     1
 40
0.003000
 41
0.003000
  0
VERTEX
  8
EBENE_1
 62
     1
  6
CONTINUOUS
 10
1.724654
 20
2.332303
  0
VERTEX
  8
EBENE_1
 62
     1
  6
CONTINUOUS
 10
1.737789
 20
2.387320
  0
VERTEX
  8
EBENE_1
 62
     1
  6
CONTINUOUS
 10
1.734633
 20
2.416533
  0
VERTEX
  8
EBENE_1
 62
     1
  6
CONTINUOUS
 10
1.731339
 20
2.475232
  0
SEQEND
  8
0
  0
POLYLINE
  8
EBENE_1
 62
     1
  6
CONTINUOUS
 66
     1
 40
0.003000
 41
0.003000
  0
VERTEX
  8
EBENE_1
 62
     1
  6
CONTINUOUS
 10
1.731339
 20
2.475232
  0
VERTEX
  8
EBENE_1
 62
     1
  6
CONTINUOUS
 10
1.730800
 20
2.497016
  0
VERTEX
  8
EBENE_1
 62
     1
  6
CONTINUOUS
 10
1.731091
 20
2.516731
  0
VERTEX
  8
EBENE_1
 62
     1
  6
CONTINUOUS
 10
1.730453
 20
2.538465
  0
SEQEND
  8
0
  0
POLYLINE
  8
EBENE_1
 62
     1
  6
CONTINUOUS
 66
     1
 40
0.003000
 41
0.003000
  0
VERTEX
  8
EBENE_1
 62
     1
  6
CONTINUOUS
 10
1.730453
 20
2.538465
  0
VERTEX
  8
EBENE_1
 62
     1
  6
CONTINUOUS
 10
1.780535
 20
2.559109
  0
VERTEX
  8
EBENE_1
 62
     1
  6
CONTINUOUS
 10
1.830619
 20
2.580300
  0
VERTEX
  8
EBENE_1
 62
     1
  6
CONTINUOUS
 10
1.880525
 20
2.602227
  0
VERTEX
  8
EBENE_1
 62
     1
  6
CONTINUOUS
 10
1.930073
 20
2.625079
  0
VERTEX
  8
EBENE_1
 62
     1
  6
CONTINUOUS
 10
1.979082
 20
2.649046
  0
VERTEX
  8
EBENE_1
 62
     1
  6
CONTINUOUS
 10
2.027374
 20
2.674315
  0
VERTEX
  8
EBENE_1
 62
     1
  6
CONTINUOUS
 10
2.074768
 20
2.701076
  0
VERTEX
  8
EBENE_1
 62
     1
  6
CONTINUOUS
 10
2.121085
 20
2.729519
  0
VERTEX
  8
EBENE_1
 62
     1
  6
CONTINUOUS
 10
2.166144
 20
2.759832
  0
VERTEX
  8
EBENE_1
 62
     1
  6
CONTINUOUS
 10
2.209766
 20
2.792205
  0
VERTEX
  8
EBENE_1
 62
     1
  6
CONTINUOUS
 10
2.251772
 20
2.826827
  0
SEQEND
  8
0
  0
POLYLINE
  8
EBENE_1
 62
     1
  6
CONTINUOUS
 66
     1
 40
0.003000
 41
0.003000
  0
VERTEX
  8
EBENE_1
 62
     1
  6
CONTINUOUS
 10
2.251772
 20
2.826827
  0
VERTEX
  8
EBENE_1
 62
     1
  6
CONTINUOUS
 10
2.284857
 20
2.861716
  0
VERTEX
  8
EBENE_1
 62
     1
  6
CONTINUOUS
 10
2.315969
 20
2.897254
  0
VERTEX
  8
EBENE_1
 62
     1
  6
CONTINUOUS
 10
2.345250
 20
2.933572
  0
VERTEX
  8
EBENE_1
 62
     1
  6
CONTINUOUS
 10
2.372842
 20
2.970800
  0
VERTEX
  8
EBENE_1
 62
     1
  6
CONTINUOUS
 10
2.398886
 20
3.009067
  0
VERTEX
  8
EBENE_1
 62
     1
  6
CONTINUOUS
 10
2.423524
 20
3.048504
  0
VERTEX
  8
EBENE_1
 62
     1
  6
CONTINUOUS
 10
2.446897
 20
3.089241
  0
VERTEX
  8
EBENE_1
 62
     1
  6
CONTINUOUS
 10
2.469146
 20
3.131408
  0
VERTEX
  8
EBENE_1
 62
     1
  6
CONTINUOUS
 10
2.490414
 20
3.175135
  0
VERTEX
  8
EBENE_1
 62
     1
  6
CONTINUOUS
 10
2.510842
 20
3.220552
  0
VERTEX
  8
EBENE_1
 62
     1
  6
CONTINUOUS
 10
2.530572
 20
3.267789
  0
VERTEX
  8
EBENE_1
 62
     1
  6
CONTINUOUS
 10
2.549744
 20
3.316978
  0
VERTEX
  8
EBENE_1
 62
     1
  6
CONTINUOUS
 10
2.568502
 20
3.368246
  0
VERTEX
  8
EBENE_1
 62
     1
  6
CONTINUOUS
 10
2.586985
 20
3.421725
  0
VERTEX
  8
EBENE_1
 62
     1
  6
CONTINUOUS
 10
2.605336
 20
3.477546
  0
VERTEX
  8
EBENE_1
 62
     1
  6
CONTINUOUS
 10
2.623697
 20
3.535836
  0
VERTEX
  8
EBENE_1
 62
     1
  6
CONTINUOUS
 10
2.642209
 20
3.596728
  0
SEQEND
  8
0
  0
POLYLINE
  8
EBENE_1
 62
     1
  6
CONTINUOUS
 66
     1
 40
0.003000
 41
0.003000
  0
VERTEX
  8
EBENE_1
 62
     1
  6
CONTINUOUS
 10
2.642209
 20
3.596728
  0
VERTEX
  8
EBENE_1
 62
     1
  6
CONTINUOUS
 10
2.614392
 20
3.608173
  0
VERTEX
  8
EBENE_1
 62
     1
  6
CONTINUOUS
 10
2.580369
 20
3.617051
  0
VERTEX
  8
EBENE_1
 62
     1
  6
CONTINUOUS
 10
2.540622
 20
3.623172
  0
VERTEX
  8
EBENE_1
 62
     1
  6
CONTINUOUS
 10
2.495634
 20
3.626344
  0
VERTEX
  8
EBENE_1
 62
     1
  6
CONTINUOUS
 10
2.445890
 20
3.626378
  0
VERTEX
  8
EBENE_1
 62
     1
  6
CONTINUOUS
 10
2.391872
 20
3.623080
  0
VERTEX
  8
EBENE_1
 62
     1
  6
CONTINUOUS
 10
2.334064
 20
3.616260
  0
VERTEX
  8
EBENE_1
 62
     1
  6
CONTINUOUS
 10
2.272948
 20
3.605728
  0
VERTEX
  8
EBENE_1
 62
     1
  6
CONTINUOUS
 10
2.209010
 20
3.591291
  0
VERTEX
  8
EBENE_1
 62
     1
  6
CONTINUOUS
 10
2.142730
 20
3.572759
  0
VERTEX
  8
EBENE_1
 62
     1
  6
CONTINUOUS
 10
2.074594
 20
3.549941
  0
SEQEND
  8
0
  0
POLYLINE
  8
EBENE_1
 62
     1
  6
CONTINUOUS
 66
     1
 40
0.003000
 41
0.003000
  0
VERTEX
  8
EBENE_1
 62
     1
  6
CONTINUOUS
 10
2.074594
 20
3.549941
  0
VERTEX
  8
EBENE_1
 62
     1
  6
CONTINUOUS
 10
2.024960
 20
3.530422
  0
VERTEX
  8
EBENE_1
 62
     1
  6
CONTINUOUS
 10
1.973833
 20
3.507610
  0
VERTEX
  8
EBENE_1
 62
     1
  6
CONTINUOUS
 10
1.922118
 20
3.482189
  0
VERTEX
  8
EBENE_1
 62
     1
  6
CONTINUOUS
 10
1.870721
 20
3.454845
  0
VERTEX
  8
EBENE_1
 62
     1
  6
CONTINUOUS
 10
1.820545
 20
3.426260
  0
VERTEX
  8
EBENE_1
 62
     1
  6
CONTINUOUS
 10
1.772497
 20
3.397120
  0
VERTEX
  8
EBENE_1
 62
     1
  6
CONTINUOUS
 10
1.727482
 20
3.368109
  0
VERTEX
  8
EBENE_1
 62
     1
  6
CONTINUOUS
 10
1.686404
 20
3.339911
  0
VERTEX
  8
EBENE_1
 62
     1
  6
CONTINUOUS
 10
1.650169
 20
3.313211
  0
VERTEX
  8
EBENE_1
 62
     1
  6
CONTINUOUS
 10
1.619681
 20
3.288693
  0
SEQEND
  8
0
  0
POLYLINE
  8
EBENE_1
 62
     1
  6
CONTINUOUS
 66
     1
 40
0.003000
 41
0.003000
  0
VERTEX
  8
EBENE_1
 62
     1
  6
CONTINUOUS
 10
1.619681
 20
3.288693
  0
VERTEX
  8
EBENE_1
 62
     1
  6
CONTINUOUS
 10
1.638914
 20
3.328814
  0
VERTEX
  8
EBENE_1
 62
     1
  6
CONTINUOUS
 10
1.657183
 20
3.372752
  0
VERTEX
  8
EBENE_1
 62
     1
  6
CONTINUOUS
 10
1.674218
 20
3.420040
  0
VERTEX
  8
EBENE_1
 62
     1
  6
CONTINUOUS
 10
1.689749
 20
3.470208
  0
VERTEX
  8
EBENE_1
 62
     1
  6
CONTINUOUS
 10
1.703508
 20
3.522789
  0
VERTEX
  8
EBENE_1
 62
     1
  6
CONTINUOUS
 10
1.715226
 20
3.577315
  0
VERTEX
  8
EBENE_1
 62
     1
  6
CONTINUOUS
 10
1.724633
 20
3.633316
  0
VERTEX
  8
EBENE_1
 62
     1
  6
CONTINUOUS
 10
1.731459
 20
3.690326
  0
VERTEX
  8
EBENE_1
 62
     1
  6
CONTINUOUS
 10
1.735437
 20
3.747875
  0
VERTEX
  8
EBENE_1
 62
     1
  6
CONTINUOUS
 10
1.736296
 20
3.805494
  0
VERTEX
  8
EBENE_1
 62
     1
  6
CONTINUOUS
 10
1.733768
 20
3.862717
  0
VERTEX
  8
EBENE_1
 62
     1
  6
CONTINUOUS
 10
1.727583
 20
3.919075
  0
SEQEND
  8
0
  0
POLYLINE
  8
EBENE_1
 62
     1
  6
CONTINUOUS
 66
     1
 40
0.003000
 41
0.003000
  0
VERTEX
  8
EBENE_1
 62
     1
  6
CONTINUOUS
 10
1.727583
 20
3.919075
  0
VERTEX
  8
EBENE_1
 62
     1
  6
CONTINUOUS
 10
1.708950
 20
4.007260
  0
VERTEX
  8
EBENE_1
 62
     1
  6
CONTINUOUS
 10
1.683299
 20
4.081521
  0
VERTEX
  8
EBENE_1
 62
     1
  6
CONTINUOUS
 10
1.654302
 20
4.143194
  0
VERTEX
  8
EBENE_1
 62
     1
  6
CONTINUOUS
 10
1.625631
 20
4.193616
  0
VERTEX
  8
EBENE_1
 62
     1
  6
CONTINUOUS
 10
1.600959
 20
4.234126
  0
VERTEX
  8
EBENE_1
 62
     1
  6
CONTINUOUS
 10
1.583958
 20
4.266058
  0
VERTEX
  8
EBENE_1
 62
     1
  6
CONTINUOUS
 10
1.578299
 20
4.290752
  0
SEQEND
  8
0
  0
POLYLINE
  8
EBENE_1
 62
     1
  6
CONTINUOUS
 66
     1
 40
0.003000
 41
0.003000
  0
VERTEX
  8
EBENE_1
 62
     1
  6
CONTINUOUS
 10
1.578299
 20
4.290752
  0
VERTEX
  8
EBENE_1
 62
     1
  6
CONTINUOUS
 10
1.520034
 20
4.254665
  0
VERTEX
  8
EBENE_1
 62
     1
  6
CONTINUOUS
 10
1.466204
 20
4.220549
  0
VERTEX
  8
EBENE_1
 62
     1
  6
CONTINUOUS
 10
1.416539
 20
4.187922
  0
VERTEX
  8
EBENE_1
 62
     1
  6
CONTINUOUS
 10
1.370772
 20
4.156301
  0
VERTEX
  8
EBENE_1
 62
     1
  6
CONTINUOUS
 10
1.328632
 20
4.125203
  0
VERTEX
  8
EBENE_1
 62
     1
  6
CONTINUOUS
 10
1.289853
 20
4.094146
  0
VERTEX
  8
EBENE_1
 62
     1
  6
CONTINUOUS
 10
1.254163
 20
4.062647
  0
VERTEX
  8
EBENE_1
 62
     1
  6
CONTINUOUS
 10
1.221296
 20
4.030224
  0
VERTEX
  8
EBENE_1
 62
     1
  6
CONTINUOUS
 10
1.190982
 20
3.996395
  0
VERTEX
  8
EBENE_1
 62
     1
  6
CONTINUOUS
 10
1.162952
 20
3.960676
  0
VERTEX
  8
EBENE_1
 62
     1
  6
CONTINUOUS
 10
1.136938
 20
3.922585
  0
VERTEX
  8
EBENE_1
 62
     1
  6
CONTINUOUS
 10
1.112670
 20
3.881640
  0
VERTEX
  8
EBENE_1
 62
     1
  6
CONTINUOUS
 10
1.089880
 20
3.837358
  0
VERTEX
  8
EBENE_1
 62
     1
  6
CONTINUOUS
 10
1.068299
 20
3.789256
  0
SEQEND
  8
0
  0
POLYLINE
  8
EBENE_1
 62
     1
  6
CONTINUOUS
 66
     1
 40
0.003000
 41
0.003000
  0
VERTEX
  8
EBENE_1
 62
     1
  6
CONTINUOUS
 10
1.697083
 20
2.187874
  0
VERTEX
  8
EBENE_1
 62
     1
  6
CONTINUOUS
 10
1.761368
 20
2.133849
  0
VERTEX
  8
EBENE_1
 62
     1
  6
CONTINUOUS
 10
1.833456
 20
2.079831
  0
VERTEX
  8
EBENE_1
 62
     1
  6
CONTINUOUS
 10
1.867642
 20
2.051173
  0
SEQEND
  8
0
  0
POLYLINE
  8
EBENE_1
 62
     1
  6
CONTINUOUS
 66
     1
 40
0.003000
 41
0.003000
  0
VERTEX
  8
EBENE_1
 62
     1
  6
CONTINUOUS
 10
1.867642
 20
2.051173
  0
VERTEX
  8
EBENE_1
 62
     1
  6
CONTINUOUS
 10
1.814983
 20
2.026012
  0
VERTEX
  8
EBENE_1
 62
     1
  6
CONTINUOUS
 10
1.762394
 20
1.998655
  0
VERTEX
  8
EBENE_1
 62
     1
  6
CONTINUOUS
 10
1.709865
 20
1.969769
  0
VERTEX
  8
EBENE_1
 62
     1
  6
CONTINUOUS
 10
1.657381
 20
1.940024
  0
VERTEX
  8
EBENE_1
 62
     1
  6
CONTINUOUS
 10
1.604932
 20
1.910087
  0
VERTEX
  8
EBENE_1
 62
     1
  6
CONTINUOUS
 10
1.552504
 20
1.880626
  0
SEQEND
  8
0
  0
POLYLINE
  8
EBENE_1
 62
     1
  6
CONTINUOUS
 66
     1
 40
0.003000
 41
0.003000
  0
VERTEX
  8
EBENE_1
 62
     1
  6
CONTINUOUS
 10
1.552504
 20
1.880626
  0
VERTEX
  8
EBENE_1
 62
     1
  6
CONTINUOUS
 10
1.543460
 20
1.891858
  0
VERTEX
  8
EBENE_1
 62
     1
  6
CONTINUOUS
 10
1.524581
 20
1.895793
  0
VERTEX
  8
EBENE_1
 62
     1
  6
CONTINUOUS
 10
1.503410
 20
1.897749
  0
VERTEX
  8
EBENE_1
 62
     1
  6
CONTINUOUS
 10
1.487487
 20
1.903046
  0
VERTEX
  8
EBENE_1
 62
     1
  6
CONTINUOUS
 10
1.484353
 20
1.917000
  0
VERTEX
  8
EBENE_1
 62
     1
  6
CONTINUOUS
 10
1.501549
 20
1.944931
  0
VERTEX
  8
EBENE_1
 62
     1
  6
CONTINUOUS
 10
1.546618
 20
1.992157
  0
SEQEND
  8
0
  0
POLYLINE
  8
EBENE_1
 62
     1
  6
CONTINUOUS
 66
     1
 40
0.003000
 41
0.003000
  0
VERTEX
  8
EBENE_1
 62
     1
  6
CONTINUOUS
 10
1.546618
 20
1.992157
  0
VERTEX
  8
EBENE_1
 62
     1
  6
CONTINUOUS
 10
1.589619
 20
2.037223
  0
VERTEX
  8
EBENE_1
 62
     1
  6
CONTINUOUS
 10
1.629107
 20
2.082432
  0
VERTEX
  8
EBENE_1
 62
     1
  6
CONTINUOUS
 10
1.664966
 20
2.131432
  0
VERTEX
  8
EBENE_1
 62
     1
  6
CONTINUOUS
 10
1.697083
 20
2.187874
  0
SEQEND
  8
0
  0
POLYLINE
  8
EBENE_1
 62
     1
  6
CONTINUOUS
 66
     1
 40
0.003000
 41
0.003000
  0
VERTEX
  8
EBENE_1
 62
     1
  6
CONTINUOUS
 10
0.340248
 20
-0.866083
  0
VERTEX
  8
EBENE_1
 62
     1
  6
CONTINUOUS
 10
0.329674
 20
-0.811395
  0
VERTEX
  8
EBENE_1
 62
     1
  6
CONTINUOUS
 10
0.320105
 20
-0.757472
  0
VERTEX
  8
EBENE_1
 62
     1
  6
CONTINUOUS
 10
0.311465
 20
-0.704090
  0
VERTEX
  8
EBENE_1
 62
     1
  6
CONTINUOUS
 10
0.303678
 20
-0.651026
  0
VERTEX
  8
EBENE_1
 62
     1
  6
CONTINUOUS
 10
0.296666
 20
-0.598056
  0
VERTEX
  8
EBENE_1
 62
     1
  6
CONTINUOUS
 10
0.290354
 20
-0.544956
  0
VERTEX
  8
EBENE_1
 62
     1
  6
CONTINUOUS
 10
0.284666
 20
-0.491502
  0
VERTEX
  8
EBENE_1
 62
     1
  6
CONTINUOUS
 10
0.279524
 20
-0.437472
  0
SEQEND
  8
0
  0
POLYLINE
  8
EBENE_1
 62
     1
  6
CONTINUOUS
 66
     1
 40
0.003000
 41
0.003000
  0
VERTEX
  8
EBENE_1
 62
     1
  6
CONTINUOUS
 10
0.279524
 20
-0.437472
  0
VERTEX
  8
EBENE_1
 62
     1
  6
CONTINUOUS
 10
0.279570
 20
-0.345241
  0
VERTEX
  8
EBENE_1
 62
     1
  6
CONTINUOUS
 10
0.279895
 20
-0.279135
  0
VERTEX
  8
EBENE_1
 62
     1
  6
CONTINUOUS
 10
0.280778
 20
-0.229063
  0
VERTEX
  8
EBENE_1
 62
     1
  6
CONTINUOUS
 10
0.282497
 20
-0.184929
  0
VERTEX
  8
EBENE_1
 62
     1
  6
CONTINUOUS
 10
0.285331
 20
-0.136642
  0
VERTEX
  8
EBENE_1
 62
     1
  6
CONTINUOUS
 10
0.289559
 20
-0.074106
  0
SEQEND
  8
0
  0
POLYLINE
  8
EBENE_1
 62
     1
  6
CONTINUOUS
 66
     1
 40
0.003000
 41
0.003000
  0
VERTEX
  8
EBENE_1
 62
     1
  6
CONTINUOUS
 10
0.289559
 20
-0.074106
  0
VERTEX
  8
EBENE_1
 62
     1
  6
CONTINUOUS
 10
0.304729
 20
0.008511
  0
VERTEX
  8
EBENE_1
 62
     1
  6
CONTINUOUS
 10
0.316334
 20
0.070715
  0
VERTEX
  8
EBENE_1
 62
     1
  6
CONTINUOUS
 10
0.325788
 20
0.119258
  0
VERTEX
  8
EBENE_1
 62
     1
  6
CONTINUOUS
 10
0.334505
 20
0.160892
  0
VERTEX
  8
EBENE_1
 62
     1
  6
CONTINUOUS
 10
0.343898
 20
0.202367
  0
VERTEX
  8
EBENE_1
 62
     1
  6
CONTINUOUS
 10
0.355380
 20
0.250434
  0
VERTEX
  8
EBENE_1
 62
     1
  6
CONTINUOUS
 10
0.370366
 20
0.311846
  0
SEQEND
  8
0
  0
POLYLINE
  8
EBENE_1
 62
     1
  6
CONTINUOUS
 66
     1
 40
0.003000
 41
0.003000
  0
VERTEX
  8
EBENE_1
 62
     1
  6
CONTINUOUS
 10
0.370366
 20
0.311846
  0
VERTEX
  8
EBENE_1
 62
     1
  6
CONTINUOUS
 10
0.391449
 20
0.373880
  0
VERTEX
  8
EBENE_1
 62
     1
  6
CONTINUOUS
 10
0.412556
 20
0.435914
  0
VERTEX
  8
EBENE_1
 62
     1
  6
CONTINUOUS
 10
0.433711
 20
0.497948
  0
VERTEX
  8
EBENE_1
 62
     1
  6
CONTINUOUS
 10
0.454939
 20
0.559982
  0
VERTEX
  8
EBENE_1
 62
     1
  6
CONTINUOUS
 10
0.476264
 20
0.622016
  0
SEQEND
  8
0
  0
POLYLINE
  8
EBENE_1
 62
     1
  6
CONTINUOUS
 66
     1
 40
0.003000
 41
0.003000
  0
VERTEX
  8
EBENE_1
 62
     1
  6
CONTINUOUS
 10
0.476264
 20
0.622016
  0
VERTEX
  8
EBENE_1
 62
     1
  6
CONTINUOUS
 10
0.543759
 20
0.613373
  0
VERTEX
  8
EBENE_1
 62
     1
  6
CONTINUOUS
 10
0.610456
 20
0.607084
  0
VERTEX
  8
EBENE_1
 62
     1
  6
CONTINUOUS
 10
0.678187
 20
0.603242
  0
VERTEX
  8
EBENE_1
 62
     1
  6
CONTINUOUS
 10
0.748787
 20
0.601941
  0
SEQEND
  8
0
  0
POLYLINE
  8
EBENE_1
 62
     1
  6
CONTINUOUS
 66
     1
 40
0.003000
 41
0.003000
  0
VERTEX
  8
EBENE_1
 62
     1
  6
CONTINUOUS
 10
0.748787
 20
0.601941
  0
VERTEX
  8
EBENE_1
 62
     1
  6
CONTINUOUS
 10
0.813694
 20
0.612404
  0
VERTEX
  8
EBENE_1
 62
     1
  6
CONTINUOUS
 10
0.826547
 20
0.615849
  0
VERTEX
  8
EBENE_1
 62
     1
  6
CONTINUOUS
 10
0.820578
 20
0.615530
  0
VERTEX
  8
EBENE_1
 62
     1
  6
CONTINUOUS
 10
0.829020
 20
0.614701
  0
SEQEND
  8
0
  0
POLYLINE
  8
EBENE_1
 62
     1
  6
CONTINUOUS
 66
     1
 40
0.003000
 41
0.003000
  0
VERTEX
  8
EBENE_1
 62
     1
  6
CONTINUOUS
 10
0.829020
 20
0.614701
  0
VERTEX
  8
EBENE_1
 62
     1
  6
CONTINUOUS
 10
0.843032
 20
0.554651
  0
VERTEX
  8
EBENE_1
 62
     1
  6
CONTINUOUS
 10
0.849959
 20
0.489846
  0
VERTEX
  8
EBENE_1
 62
     1
  6
CONTINUOUS
 10
0.856980
 20
0.425042
  0
VERTEX
  8
EBENE_1
 62
     1
  6
CONTINUOUS
 10
0.871276
 20
0.364992
  0
SEQEND
  8
0
  0
POLYLINE
  8
EBENE_1
 62
     1
  6
CONTINUOUS
 66
     1
 40
0.003000
 41
0.003000
  0
VERTEX
  8
EBENE_1
 62
     1
  6
CONTINUOUS
 10
0.871276
 20
0.364992
  0
VERTEX
  8
EBENE_1
 62
     1
  6
CONTINUOUS
 10
0.925703
 20
0.243694
  0
VERTEX
  8
EBENE_1
 62
     1
  6
CONTINUOUS
 10
0.951982
 20
0.174867
  0
VERTEX
  8
EBENE_1
 62
     1
  6
CONTINUOUS
 10
0.960288
 20
0.141516
  0
VERTEX
  8
EBENE_1
 62
     1
  6
CONTINUOUS
 10
0.960795
 20
0.126646
  0
SEQEND
  8
0
  0
POLYLINE
  8
EBENE_1
 62
     1
  6
CONTINUOUS
 66
     1
 40
0.003000
 41
0.003000
  0
VERTEX
  8
EBENE_1
 62
     1
  6
CONTINUOUS
 10
0.960795
 20
0.126646
  0
VERTEX
  8
EBENE_1
 62
     1
  6
CONTINUOUS
 10
0.917814
 20
0.082084
  0
VERTEX
  8
EBENE_1
 62
     1
  6
CONTINUOUS
 10
0.880853
 20
0.039005
  0
VERTEX
  8
EBENE_1
 62
     1
  6
CONTINUOUS
 10
0.848986
 20
-0.003885
  0
VERTEX
  8
EBENE_1
 62
     1
  6
CONTINUOUS
 10
0.821291
 20
-0.047882
  0
VERTEX
  8
EBENE_1
 62
     1
  6
CONTINUOUS
 10
0.796843
 20
-0.094278
  0
VERTEX
  8
EBENE_1
 62
     1
  6
CONTINUOUS
 10
0.774716
 20
-0.144369
  0
VERTEX
  8
EBENE_1
 62
     1
  6
CONTINUOUS
 10
0.753988
 20
-0.199447
  0
VERTEX
  8
EBENE_1
 62
     1
  6
CONTINUOUS
 10
0.733732
 20
-0.260807
  0
SEQEND
  8
0
  0
POLYLINE
  8
EBENE_1
 62
     1
  6
CONTINUOUS
 66
     1
 40
0.003000
 41
0.003000
  0
VERTEX
  8
EBENE_1
 62
     1
  6
CONTINUOUS
 10
0.733732
 20
-0.260807
  0
VERTEX
  8
EBENE_1
 62
     1
  6
CONTINUOUS
 10
0.735323
 20
-0.320031
  0
VERTEX
  8
EBENE_1
 62
     1
  6
CONTINUOUS
 10
0.739590
 20
-0.378885
  0
VERTEX
  8
EBENE_1
 62
     1
  6
CONTINUOUS
 10
0.745775
 20
-0.437561
  0
VERTEX
  8
EBENE_1
 62
     1
  6
CONTINUOUS
 10
0.753118
 20
-0.496255
  0
VERTEX
  8
EBENE_1
 62
     1
  6
CONTINUOUS
 10
0.760861
 20
-0.555161
  0
VERTEX
  8
EBENE_1
 62
     1
  6
CONTINUOUS
 10
0.768245
 20
-0.614473
  0
VERTEX
  8
EBENE_1
 62
     1
  6
CONTINUOUS
 10
0.774511
 20
-0.674385
  0
VERTEX
  8
EBENE_1
 62
     1
  6
CONTINUOUS
 10
0.778902
 20
-0.735091
  0
SEQEND
  8
0
  0
POLYLINE
  8
EBENE_1
 62
     1
  6
CONTINUOUS
 66
     1
 40
0.003000
 41
0.003000
  0
VERTEX
  8
EBENE_1
 62
     1
  6
CONTINUOUS
 10
0.778902
 20
-0.735091
  0
VERTEX
  8
EBENE_1
 62
     1
  6
CONTINUOUS
 10
0.763657
 20
-0.755258
  0
VERTEX
  8
EBENE_1
 62
     1
  6
CONTINUOUS
 10
0.750645
 20
-0.767620
  0
VERTEX
  8
EBENE_1
 62
     1
  6
CONTINUOUS
 10
0.728713
 20
-0.782772
  0
SEQEND
  8
0
  0
POLYLINE
  8
EBENE_1
 62
     1
  6
CONTINUOUS
 66
     1
 40
0.003000
 41
0.003000
  0
VERTEX
  8
EBENE_1
 62
     1
  6
CONTINUOUS
 10
0.728713
 20
-0.782772
  0
VERTEX
  8
EBENE_1
 62
     1
  6
CONTINUOUS
 10
0.675733
 20
-0.806433
  0
VERTEX
  8
EBENE_1
 62
     1
  6
CONTINUOUS
 10
0.619051
 20
-0.821220
  0
VERTEX
  8
EBENE_1
 62
     1
  6
CONTINUOUS
 10
0.561150
 20
-0.829678
  0
VERTEX
  8
EBENE_1
 62
     1
  6
CONTINUOUS
 10
0.504513
 20
-0.834351
  0
VERTEX
  8
EBENE_1
 62
     1
  6
CONTINUOUS
 10
0.451621
 20
-0.837784
  0
VERTEX
  8
EBENE_1
 62
     1
  6
CONTINUOUS
 10
0.404958
 20
-0.842521
  0
VERTEX
  8
EBENE_1
 62
     1
  6
CONTINUOUS
 10
0.367006
 20
-0.851105
  0
VERTEX
  8
EBENE_1
 62
     1
  6
CONTINUOUS
 10
0.340248
 20
-0.866083
  0
SEQEND
  8
0
  0
POLYLINE
  8
EBENE_1
 62
     1
  6
CONTINUOUS
 66
     1
 40
0.003000
 41
0.003000
  0
VERTEX
  8
EBENE_1
 62
     1
  6
CONTINUOUS
 10
2.821500
 20
1.702583
  0
VERTEX
  8
EBENE_1
 62
     1
  6
CONTINUOUS
 10
2.787951
 20
1.748662
  0
VERTEX
  8
EBENE_1
 62
     1
  6
CONTINUOUS
 10
2.785057
 20
1.806380
  0
VERTEX
  8
EBENE_1
 62
     1
  6
CONTINUOUS
 10
2.790508
 20
1.864969
  0
SEQEND
  8
0
  0
POLYLINE
  8
EBENE_1
 62
     1
  6
CONTINUOUS
 66
     1
 40
0.003000
 41
0.003000
  0
VERTEX
  8
EBENE_1
 62
     1
  6
CONTINUOUS
 10
2.790508
 20
1.864969
  0
VERTEX
  8
EBENE_1
 62
     1
  6
CONTINUOUS
 10
2.803458
 20
1.891744
  0
VERTEX
  8
EBENE_1
 62
     1
  6
CONTINUOUS
 10
2.812625
 20
1.916189
  0
VERTEX
  8
EBENE_1
 62
     1
  6
CONTINUOUS
 10
2.825866
 20
1.959256
  0
SEQEND
  8
0
  0
POLYLINE
  8
EBENE_1
 62
     1
  6
CONTINUOUS
 66
     1
 40
0.003000
 41
0.003000
  0
VERTEX
  8
EBENE_1
 62
     1
  6
CONTINUOUS
 10
2.825866
 20
1.959256
  0
VERTEX
  8
EBENE_1
 62
     1
  6
CONTINUOUS
 10
2.867916
 20
2.016961
  0
VERTEX
  8
EBENE_1
 62
     1
  6
CONTINUOUS
 10
2.894545
 20
2.056524
  0
VERTEX
  8
EBENE_1
 62
     1
  6
CONTINUOUS
 10
2.913610
 20
2.081925
  0
SEQEND
  8
0
  0
POLYLINE
  8
EBENE_1
 62
     1
  6
CONTINUOUS
 66
     1
 40
0.003000
 41
0.003000
  0
VERTEX
  8
EBENE_1
 62
     1
  6
CONTINUOUS
 10
2.913610
 20
2.081925
  0
VERTEX
  8
EBENE_1
 62
     1
  6
CONTINUOUS
 10
2.949301
 20
2.108315
  0
VERTEX
  8
EBENE_1
 62
     1
  6
CONTINUOUS
 10
2.995182
 20
2.138511
  0
VERTEX
  8
EBENE_1
 62
     1
  6
CONTINUOUS
 10
3.041965
 20
2.153074
  0
VERTEX
  8
EBENE_1
 62
     1
  6
CONTINUOUS
 10
3.080362
 20
2.132563
  0
SEQEND
  8
0
  0
POLYLINE
  8
EBENE_1
 62
     1
  6
CONTINUOUS
 66
     1
 40
0.003000
 41
0.003000
  0
VERTEX
  8
EBENE_1
 62
     1
  6
CONTINUOUS
 10
3.080362
 20
2.132563
  0
VERTEX
  8
EBENE_1
 62
     1
  6
CONTINUOUS
 10
3.082835
 20
2.067325
  0
VERTEX
  8
EBENE_1
 62
     1
  6
CONTINUOUS
 10
3.077449
 20
2.006162
  0
VERTEX
  8
EBENE_1
 62
     1
  6
CONTINUOUS
 10
3.045000
 20
1.950528
  0
SEQEND
  8
0
  0
POLYLINE
  8
EBENE_1
 62
     1
  6
CONTINUOUS
 66
     1
 40
0.003000
 41
0.003000
  0
VERTEX
  8
EBENE_1
 62
     1
  6
CONTINUOUS
 10
3.045000
 20
1.950528
  0
VERTEX
  8
EBENE_1
 62
     1
  6
CONTINUOUS
 10
3.038696
 20
1.928607
  0
VERTEX
  8
EBENE_1
 62
     1
  6
CONTINUOUS
 10
3.035301
 20
1.907558
  0
VERTEX
  8
EBENE_1
 62
     1
  6
CONTINUOUS
 10
3.031906
 20
1.869339
  0
SEQEND
  8
0
  0
POLYLINE
  8
EBENE_1
 62
     1
  6
CONTINUOUS
 66
     1
 40
0.003000
 41
0.003000
  0
VERTEX
  8
EBENE_1
 62
     1
  6
CONTINUOUS
 10
3.031906
 20
1.869339
  0
VERTEX
  8
EBENE_1
 62
     1
  6
CONTINUOUS
 10
2.997936
 20
1.826784
  0
VERTEX
  8
EBENE_1
 62
     1
  6
CONTINUOUS
 10
2.961251
 20
1.788499
  0
VERTEX
  8
EBENE_1
 62
     1
  6
CONTINUOUS
 10
2.926701
 20
1.744488
  0
SEQEND
  8
0
  0
POLYLINE
  8
EBENE_1
 62
     1
  6
CONTINUOUS
 66
     1
 40
0.003000
 41
0.003000
  0
VERTEX
  8
EBENE_1
 62
     1
  6
CONTINUOUS
 10
2.926701
 20
1.744488
  0
VERTEX
  8
EBENE_1
 62
     1
  6
CONTINUOUS
 10
2.894675
 20
1.725865
  0
VERTEX
  8
EBENE_1
 62
     1
  6
CONTINUOUS
 10
2.854985
 20
1.709568
  0
VERTEX
  8
EBENE_1
 62
     1
  6
CONTINUOUS
 10
2.821500
 20
1.702583
  0
SEQEND
  8
0
  0
POLYLINE
  8
EBENE_1
 62
     1
  6
CONTINUOUS
 66
     1
 40
0.003000
 41
0.003000
  0
VERTEX
  8
EBENE_1
 62
     1
  6
CONTINUOUS
 10
2.557087
 20
1.840094
  0
VERTEX
  8
EBENE_1
 62
     1
  6
CONTINUOUS
 10
2.530665
 20
1.873589
  0
VERTEX
  8
EBENE_1
 62
     1
  6
CONTINUOUS
 10
2.506784
 20
1.907556
  0
VERTEX
  8
EBENE_1
 62
     1
  6
CONTINUOUS
 10
2.485550
 20
1.941766
  0
VERTEX
  8
EBENE_1
 62
     1
  6
CONTINUOUS
 10
2.467069
 20
1.975990
  0
VERTEX
  8
EBENE_1
 62
     1
  6
CONTINUOUS
 10
2.451447
 20
2.009997
  0
VERTEX
  8
EBENE_1
 62
     1
  6
CONTINUOUS
 10
2.438790
 20
2.043556
  0
VERTEX
  8
EBENE_1
 62
     1
  6
CONTINUOUS
 10
2.429203
 20
2.076439
  0
VERTEX
  8
EBENE_1
 62
     1
  6
CONTINUOUS
 10
2.422793
 20
2.108415
  0
VERTEX
  8
EBENE_1
 62
     1
  6
CONTINUOUS
 10
2.419665
 20
2.139254
  0
VERTEX
  8
EBENE_1
 62
     1
  6
CONTINUOUS
 10
2.419925
 20
2.168726
  0
VERTEX
  8
EBENE_1
 62
     1
  6
CONTINUOUS
 10
2.423680
 20
2.196602
  0
VERTEX
  8
EBENE_1
 62
     1
  6
CONTINUOUS
 10
2.431035
 20
2.222650
  0
VERTEX
  8
EBENE_1
 62
     1
  6
CONTINUOUS
 10
2.442096
 20
2.246641
  0
VERTEX
  8
EBENE_1
 62
     1
  6
CONTINUOUS
 10
2.456969
 20
2.268345
  0
VERTEX
  8
EBENE_1
 62
     1
  6
CONTINUOUS
 10
2.475760
 20
2.287533
  0
VERTEX
  8
EBENE_1
 62
     1
  6
CONTINUOUS
 10
2.498575
 20
2.303973
  0
VERTEX
  8
EBENE_1
 62
     1
  6
CONTINUOUS
 10
2.525519
 20
2.317436
  0
VERTEX
  8
EBENE_1
 62
     1
  6
CONTINUOUS
 10
2.556700
 20
2.327693
  0
VERTEX
  8
EBENE_1
 62
     1
  6
CONTINUOUS
 10
2.592221
 20
2.334512
  0
VERTEX
  8
EBENE_1
 62
     1
  6
CONTINUOUS
 10
2.632190
 20
2.337664
  0
VERTEX
  8
EBENE_1
 62
     1
  6
CONTINUOUS
 10
2.676712
 20
2.336919
  0
VERTEX
  8
EBENE_1
 62
     1
  6
CONTINUOUS
 10
2.725894
 20
2.332048
  0
VERTEX
  8
EBENE_1
 62
     1
  6
CONTINUOUS
 10
2.779840
 20
2.322819
  0
VERTEX
  8
EBENE_1
 62
     1
  6
CONTINUOUS
 10
2.838658
 20
2.309003
  0
VERTEX
  8
EBENE_1
 62
     1
  6
CONTINUOUS
 10
2.902453
 20
2.290370
  0
SEQEND
  8
0
  0
POLYLINE
  8
EBENE_1
 62
     1
  6
CONTINUOUS
 66
     1
 40
0.003000
 41
0.003000
  0
VERTEX
  8
EBENE_1
 62
     1
  6
CONTINUOUS
 10
2.466248
 20
1.984138
  0
VERTEX
  8
EBENE_1
 62
     1
  6
CONTINUOUS
 10
2.452006
 20
2.035202
  0
VERTEX
  8
EBENE_1
 62
     1
  6
CONTINUOUS
 10
2.444289
 20
2.083197
  0
VERTEX
  8
EBENE_1
 62
     1
  6
CONTINUOUS
 10
2.443108
 20
2.127836
  0
VERTEX
  8
EBENE_1
 62
     1
  6
CONTINUOUS
 10
2.448473
 20
2.168827
  0
VERTEX
  8
EBENE_1
 62
     1
  6
CONTINUOUS
 10
2.460394
 20
2.205884
  0
VERTEX
  8
EBENE_1
 62
     1
  6
CONTINUOUS
 10
2.478883
 20
2.238716
  0
VERTEX
  8
EBENE_1
 62
     1
  6
CONTINUOUS
 10
2.503949
 20
2.267035
  0
VERTEX
  8
EBENE_1
 62
     1
  6
CONTINUOUS
 10
2.535603
 20
2.290552
  0
VERTEX
  8
EBENE_1
 62
     1
  6
CONTINUOUS
 10
2.573856
 20
2.308978
  0
VERTEX
  8
EBENE_1
 62
     1
  6
CONTINUOUS
 10
2.618718
 20
2.322023
  0
VERTEX
  8
EBENE_1
 62
     1
  6
CONTINUOUS
 10
2.670199
 20
2.329400
  0
VERTEX
  8
EBENE_1
 62
     1
  6
CONTINUOUS
 10
2.728311
 20
2.330819
  0
SEQEND
  8
0
  0
POLYLINE
  8
EBENE_1
 62
     1
  6
CONTINUOUS
 66
     1
 40
0.003000
 41
0.003000
  0
VERTEX
  8
EBENE_1
 62
     1
  6
CONTINUOUS
 10
1.493559
 20
4.075610
  0
VERTEX
  8
EBENE_1
 62
     1
  6
CONTINUOUS
 10
1.488903
 20
4.071840
  0
VERTEX
  8
EBENE_1
 62
     1
  6
CONTINUOUS
 10
1.486794
 20
4.066402
  0
VERTEX
  8
EBENE_1
 62
     1
  6
CONTINUOUS
 10
1.487689
 20
4.060472
  0
SEQEND
  8
0
  0
POLYLINE
  8
EBENE_1
 62
     1
  6
CONTINUOUS
 66
     1
 40
0.003000
 41
0.003000
  0
VERTEX
  8
EBENE_1
 62
     1
  6
CONTINUOUS
 10
1.487689
 20
4.060472
  0
VERTEX
  8
EBENE_1
 62
     1
  6
CONTINUOUS
 10
1.491460
 20
4.055813
  0
VERTEX
  8
EBENE_1
 62
     1
  6
CONTINUOUS
 10
1.496895
 20
4.053709
  0
VERTEX
  8
EBENE_1
 62
     1
  6
CONTINUOUS
 10
1.502819
 20
4.054606
  0
SEQEND
  8
0
  0
POLYLINE
  8
EBENE_1
 62
     1
  6
CONTINUOUS
 66
     1
 40
0.003000
 41
0.003000
  0
VERTEX
  8
EBENE_1
 62
     1
  6
CONTINUOUS
 10
1.502819
 20
4.054606
  0
VERTEX
  8
EBENE_1
 62
     1
  6
CONTINUOUS
 10
1.507479
 20
4.058376
  0
VERTEX
  8
EBENE_1
 62
     1
  6
CONTINUOUS
 10
1.509592
 20
4.063810
  0
VERTEX
  8
EBENE_1
 62
     1
  6
CONTINUOUS
 10
1.508701
 20
4.069740
  0
SEQEND
  8
0
  0
POLYLINE
  8
EBENE_1
 62
     1
  6
CONTINUOUS
 66
     1
 40
0.003000
 41
0.003000
  0
VERTEX
  8
EBENE_1
 62
     1
  6
CONTINUOUS
 10
1.508701
 20
4.069740
  0
VERTEX
  8
EBENE_1
 62
     1
  6
CONTINUOUS
 10
1.504926
 20
4.074399
  0
VERTEX
  8
EBENE_1
 62
     1
  6
CONTINUOUS
 10
1.499486
 20
4.076503
  0
VERTEX
  8
EBENE_1
 62
     1
  6
CONTINUOUS
 10
1.493559
 20
4.075610
  0
SEQEND
  8
0
  0
POLYLINE
  8
EBENE_1
 62
     1
  6
CONTINUOUS
 66
     1
 40
0.003000
 41
0.003000
  0
VERTEX
  8
EBENE_1
 62
     1
  6
CONTINUOUS
 10
1.358319
 20
2.961280
  0
VERTEX
  8
EBENE_1
 62
     1
  6
CONTINUOUS
 10
1.340227
 20
2.980173
  0
VERTEX
  8
EBENE_1
 62
     1
  6
CONTINUOUS
 10
1.318382
 20
2.997011
  0
VERTEX
  8
EBENE_1
 62
     1
  6
CONTINUOUS
 10
1.288059
 20
3.011035
  0
SEQEND
  8
0
  0
POLYLINE
  8
EBENE_1
 62
     1
  6
CONTINUOUS
 66
     1
 40
0.003000
 41
0.003000
  0
VERTEX
  8
EBENE_1
 62
     1
  6
CONTINUOUS
 10
1.288059
 20
3.011035
  0
VERTEX
  8
EBENE_1
 62
     1
  6
CONTINUOUS
 10
1.328880
 20
2.998429
  0
VERTEX
  8
EBENE_1
 62
     1
  6
CONTINUOUS
 10
1.352901
 20
2.996697
  0
VERTEX
  8
EBENE_1
 62
     1
  6
CONTINUOUS
 10
1.370575
 20
3.000768
  0
SEQEND
  8
0
  0
POLYLINE
  8
EBENE_1
 62
     1
  6
CONTINUOUS
 66
     1
 40
0.003000
 41
0.003000
  0
VERTEX
  8
EBENE_1
 62
     1
  6
CONTINUOUS
 10
1.370575
 20
3.000768
  0
VERTEX
  8
EBENE_1
 62
     1
  6
CONTINUOUS
 10
1.383541
 20
3.006203
  0
VERTEX
  8
EBENE_1
 62
     1
  6
CONTINUOUS
 10
1.389261
 20
3.011744
  0
VERTEX
  8
EBENE_1
 62
     1
  6
CONTINUOUS
 10
1.391980
 20
3.017138
  0
SEQEND
  8
0
  0
POLYLINE
  8
EBENE_1
 62
     1
  6
CONTINUOUS
 66
     1
 40
0.003000
 41
0.003000
  0
VERTEX
  8
EBENE_1
 62
     1
  6
CONTINUOUS
 10
1.253500
 20
2.664287
  0
VERTEX
  8
EBENE_1
 62
     1
  6
CONTINUOUS
 10
1.259359
 20
2.695310
  0
VERTEX
  8
EBENE_1
 62
     1
  6
CONTINUOUS
 10
1.267501
 20
2.729371
  0
VERTEX
  8
EBENE_1
 62
     1
  6
CONTINUOUS
 10
1.281835
 20
2.754906
  0
SEQEND
  8
0
  0
POLYLINE
  8
EBENE_1
 62
     1
  6
CONTINUOUS
 66
     1
 40
0.003000
 41
0.003000
  0
VERTEX
  8
EBENE_1
 62
     1
  6
CONTINUOUS
 10
1.281835
 20
2.754906
  0
VERTEX
  8
EBENE_1
 62
     1
  6
CONTINUOUS
 10
1.301023
 20
2.811182
  0
VERTEX
  8
EBENE_1
 62
     1
  6
CONTINUOUS
 10
1.322038
 20
2.867153
  0
VERTEX
  8
EBENE_1
 62
     1
  6
CONTINUOUS
 10
1.345354
 20
2.922296
  0
VERTEX
  8
EBENE_1
 62
     1
  6
CONTINUOUS
 10
1.371451
 20
2.976091
  0
VERTEX
  8
EBENE_1
 62
     1
  6
CONTINUOUS
 10
1.400806
 20
3.028017
  0
VERTEX
  8
EBENE_1
 62
     1
  6
CONTINUOUS
 10
1.433895
 20
3.077553
  0
VERTEX
  8
EBENE_1
 62
     1
  6
CONTINUOUS
 10
1.471197
 20
3.124177
  0
SEQEND
  8
0
  0
POLYLINE
  8
EBENE_1
 62
     1
  6
CONTINUOUS
 66
     1
 40
0.003000
 41
0.003000
  0
VERTEX
  8
EBENE_1
 62
     1
  6
CONTINUOUS
 10
0.343685
 20
2.134744
  0
VERTEX
  8
EBENE_1
 62
     1
  6
CONTINUOUS
 10
0.374420
 20
2.178802
  0
VERTEX
  8
EBENE_1
 62
     1
  6
CONTINUOUS
 10
0.393880
 20
2.222950
  0
VERTEX
  8
EBENE_1
 62
     1
  6
CONTINUOUS
 10
0.388453
 20
2.277693
  0
SEQEND
  8
0
  0
POLYLINE
  8
EBENE_1
 62
     1
  6
CONTINUOUS
 66
     1
 40
0.003000
 41
0.003000
  0
VERTEX
  8
EBENE_1
 62
     1
  6
CONTINUOUS
 10
0.838567
 20
2.351953
  0
VERTEX
  8
EBENE_1
 62
     1
  6
CONTINUOUS
 10
0.876854
 20
2.371185
  0
VERTEX
  8
EBENE_1
 62
     1
  6
CONTINUOUS
 10
0.916329
 20
2.397939
  0
VERTEX
  8
EBENE_1
 62
     1
  6
CONTINUOUS
 10
0.926244
 20
2.430161
  0
SEQEND
  8
0
  0
POLYLINE
  8
EBENE_1
 62
     1
  6
CONTINUOUS
 66
     1
 40
0.003000
 41
0.003000
  0
VERTEX
  8
EBENE_1
 62
     1
  6
CONTINUOUS
 10
0.926244
 20
2.430161
  0
VERTEX
  8
EBENE_1
 62
     1
  6
CONTINUOUS
 10
0.900280
 20
2.451537
  0
VERTEX
  8
EBENE_1
 62
     1
  6
CONTINUOUS
 10
0.887686
 20
2.466031
  0
VERTEX
  8
EBENE_1
 62
     1
  6
CONTINUOUS
 10
0.859843
 20
2.491457
  0
SEQEND
  8
0
  0
POLYLINE
  8
EBENE_1
 62
     1
  6
CONTINUOUS
 66
     1
 40
0.003000
 41
0.003000
  0
VERTEX
  8
EBENE_1
 62
     1
  6
CONTINUOUS
 10
0.859843
 20
2.491457
  0
VERTEX
  8
EBENE_1
 62
     1
  6
CONTINUOUS
 10
0.824091
 20
2.511566
  0
VERTEX
  8
EBENE_1
 62
     1
  6
CONTINUOUS
 10
0.789094
 20
2.521523
  0
VERTEX
  8
EBENE_1
 62
     1
  6
CONTINUOUS
 10
0.748531
 20
2.519598
  0
SEQEND
  8
0
  0
POLYLINE
  8
EBENE_1
 62
     1
  6
CONTINUOUS
 66
     1
 40
0.003000
 41
0.003000
  0
VERTEX
  8
EBENE_1
 62
     1
  6
CONTINUOUS
 10
0.748531
 20
2.519598
  0
VERTEX
  8
EBENE_1
 62
     1
  6
CONTINUOUS
 10
0.740547
 20
2.516080
  0
VERTEX
  8
EBENE_1
 62
     1
  6
CONTINUOUS
 10
0.732504
 20
2.512536
  0
VERTEX
  8
EBENE_1
 62
     1
  6
CONTINUOUS
 10
0.724433
 20
2.508972
  0
SEQEND
  8
0
  0
POLYLINE
  8
EBENE_1
 62
     1
  6
CONTINUOUS
 66
     1
 40
0.003000
 41
0.003000
  0
VERTEX
  8
EBENE_1
 62
     1
  6
CONTINUOUS
 10
0.724433
 20
2.508972
  0
VERTEX
  8
EBENE_1
 62
     1
  6
CONTINUOUS
 10
0.698664
 20
2.487734
  0
VERTEX
  8
EBENE_1
 62
     1
  6
CONTINUOUS
 10
0.679917
 20
2.464391
  0
VERTEX
  8
EBENE_1
 62
     1
  6
CONTINUOUS
 10
0.664256
 20
2.433787
  0
SEQEND
  8
0
  0
POLYLINE
  8
EBENE_1
 62
     1
  6
CONTINUOUS
 66
     1
 40
0.003000
 41
0.003000
  0
VERTEX
  8
EBENE_1
 62
     1
  6
CONTINUOUS
 10
0.664256
 20
2.433787
  0
VERTEX
  8
EBENE_1
 62
     1
  6
CONTINUOUS
 10
0.659335
 20
2.398229
  0
VERTEX
  8
EBENE_1
 62
     1
  6
CONTINUOUS
 10
0.655909
 20
2.367671
  0
VERTEX
  8
EBENE_1
 62
     1
  6
CONTINUOUS
 10
0.646988
 20
2.332016
  0
SEQEND
  8
0
  0
POLYLINE
  8
EBENE_1
 62
     1
  6
CONTINUOUS
 66
     1
 40
0.003000
 41
0.003000
  0
VERTEX
  8
EBENE_1
 62
     1
  6
CONTINUOUS
 10
0.646988
 20
2.332016
  0
VERTEX
  8
EBENE_1
 62
     1
  6
CONTINUOUS
 10
0.648582
 20
2.329148
  0
VERTEX
  8
EBENE_1
 62
     1
  6
CONTINUOUS
 10
0.650158
 20
2.326270
  0
VERTEX
  8
EBENE_1
 62
     1
  6
CONTINUOUS
 10
0.651681
 20
2.323358
  0
SEQEND
  8
0
  0
POLYLINE
  8
EBENE_1
 62
     1
  6
CONTINUOUS
 66
     1
 40
0.003000
 41
0.003000
  0
VERTEX
  8
EBENE_1
 62
     1
  6
CONTINUOUS
 10
0.651681
 20
2.323358
  0
VERTEX
  8
EBENE_1
 62
     1
  6
CONTINUOUS
 10
0.718249
 20
2.316850
  0
VERTEX
  8
EBENE_1
 62
     1
  6
CONTINUOUS
 10
0.776214
 20
2.327453
  0
VERTEX
  8
EBENE_1
 62
     1
  6
CONTINUOUS
 10
0.838567
 20
2.351953
  0
SEQEND
  8
0
  0
POLYLINE
  8
EBENE_1
 62
     1
  6
CONTINUOUS
 66
     1
 40
0.003000
 41
0.003000
  0
VERTEX
  8
EBENE_1
 62
     1
  6
CONTINUOUS
 10
2.400043
 20
3.395823
  0
VERTEX
  8
EBENE_1
 62
     1
  6
CONTINUOUS
 10
2.381604
 20
3.348712
  0
VERTEX
  8
EBENE_1
 62
     1
  6
CONTINUOUS
 10
2.350935
 20
3.284755
  0
VERTEX
  8
EBENE_1
 62
     1
  6
CONTINUOUS
 10
2.313535
 20
3.220728
  0
SEQEND
  8
0
  0
POLYLINE
  8
EBENE_1
 62
     1
  6
CONTINUOUS
 66
     1
 40
0.003000
 41
0.003000
  0
VERTEX
  8
EBENE_1
 62
     1
  6
CONTINUOUS
 10
2.313535
 20
3.220728
  0
VERTEX
  8
EBENE_1
 62
     1
  6
CONTINUOUS
 10
2.270611
 20
3.164761
  0
VERTEX
  8
EBENE_1
 62
     1
  6
CONTINUOUS
 10
2.237023
 20
3.116562
  0
VERTEX
  8
EBENE_1
 62
     1
  6
CONTINUOUS
 10
2.209443
 20
3.074377
  0
VERTEX
  8
EBENE_1
 62
     1
  6
CONTINUOUS
 10
2.184542
 20
3.036452
  0
VERTEX
  8
EBENE_1
 62
     1
  6
CONTINUOUS
 10
2.158994
 20
3.001034
  0
VERTEX
  8
EBENE_1
 62
     1
  6
CONTINUOUS
 10
2.129471
 20
2.966369
  0
VERTEX
  8
EBENE_1
 62
     1
  6
CONTINUOUS
 10
2.092643
 20
2.930704
  0
VERTEX
  8
EBENE_1
 62
     1
  6
CONTINUOUS
 10
2.045185
 20
2.892283
  0
SEQEND
  8
0
  0
POLYLINE
  8
EBENE_1
 62
     1
  6
CONTINUOUS
 66
     1
 40
0.003000
 41
0.003000
  0
VERTEX
  8
EBENE_1
 62
     1
  6
CONTINUOUS
 10
2.045185
 20
2.892283
  0
VERTEX
  8
EBENE_1
 62
     1
  6
CONTINUOUS
 10
1.987569
 20
2.854532
  0
VERTEX
  8
EBENE_1
 62
     1
  6
CONTINUOUS
 10
1.935069
 20
2.819093
  0
VERTEX
  8
EBENE_1
 62
     1
  6
CONTINUOUS
 10
1.882540
 20
2.788450
  0
VERTEX
  8
EBENE_1
 62
     1
  6
CONTINUOUS
 10
1.824842
 20
2.765082
  0
VERTEX
  8
EBENE_1
 62
     1
  6
CONTINUOUS
 10
1.756831
 20
2.751472
  0
SEQEND
  8
0
  0
POLYLINE
  8
EBENE_1
 62
     1
  6
CONTINUOUS
 66
     1
 40
0.003000
 41
0.003000
  0
VERTEX
  8
EBENE_1
 62
     1
  6
CONTINUOUS
 10
1.756831
 20
2.751472
  0
VERTEX
  8
EBENE_1
 62
     1
  6
CONTINUOUS
 10
1.752837
 20
2.755189
  0
VERTEX
  8
EBENE_1
 62
     1
  6
CONTINUOUS
 10
1.749864
 20
2.757725
  0
VERTEX
  8
EBENE_1
 62
     1
  6
CONTINUOUS
 10
1.748720
 20
2.761500
  0
SEQEND
  8
0
  0
POLYLINE
  8
EBENE_1
 62
     1
  6
CONTINUOUS
 66
     1
 40
0.003000
 41
0.003000
  0
VERTEX
  8
EBENE_1
 62
     1
  6
CONTINUOUS
 10
1.748720
 20
2.761500
  0
VERTEX
  8
EBENE_1
 62
     1
  6
CONTINUOUS
 10
1.782130
 20
2.821662
  0
VERTEX
  8
EBENE_1
 62
     1
  6
CONTINUOUS
 10
1.816900
 20
2.882205
  0
VERTEX
  8
EBENE_1
 62
     1
  6
CONTINUOUS
 10
1.852147
 20
2.942121
  0
VERTEX
  8
EBENE_1
 62
     1
  6
CONTINUOUS
 10
1.886992
 20
3.000398
  0
SEQEND
  8
0
  0
POLYLINE
  8
EBENE_1
 62
     1
  6
CONTINUOUS
 66
     1
 40
0.003000
 41
0.003000
  0
VERTEX
  8
EBENE_1
 62
     1
  6
CONTINUOUS
 10
1.886992
 20
3.000398
  0
VERTEX
  8
EBENE_1
 62
     1
  6
CONTINUOUS
 10
1.924009
 20
3.050021
  0
VERTEX
  8
EBENE_1
 62
     1
  6
CONTINUOUS
 10
1.961318
 20
3.097999
  0
VERTEX
  8
EBENE_1
 62
     1
  6
CONTINUOUS
 10
2.000246
 20
3.144142
  0
VERTEX
  8
EBENE_1
 62
     1
  6
CONTINUOUS
 10
2.042114
 20
3.188260
  0
SEQEND
  8
0
  0
POLYLINE
  8
EBENE_1
 62
     1
  6
CONTINUOUS
 66
     1
 40
0.003000
 41
0.003000
  0
VERTEX
  8
EBENE_1
 62
     1
  6
CONTINUOUS
 10
2.042114
 20
3.188260
  0
VERTEX
  8
EBENE_1
 62
     1
  6
CONTINUOUS
 10
2.091256
 20
3.230735
  0
VERTEX
  8
EBENE_1
 62
     1
  6
CONTINUOUS
 10
2.119535
 20
3.254384
  0
VERTEX
  8
EBENE_1
 62
     1
  6
CONTINUOUS
 10
2.151189
 20
3.279476
  0
SEQEND
  8
0
  0
POLYLINE
  8
EBENE_1
 62
     1
  6
CONTINUOUS
 66
     1
 40
0.003000
 41
0.003000
  0
VERTEX
  8
EBENE_1
 62
     1
  6
CONTINUOUS
 10
2.151189
 20
3.279476
  0
VERTEX
  8
EBENE_1
 62
     1
  6
CONTINUOUS
 10
2.197830
 20
3.310511
  0
VERTEX
  8
EBENE_1
 62
     1
  6
CONTINUOUS
 10
2.226569
 20
3.328798
  0
VERTEX
  8
EBENE_1
 62
     1
  6
CONTINUOUS
 10
2.262039
 20
3.350012
  0
SEQEND
  8
0
  0
POLYLINE
  8
EBENE_1
 62
     1
  6
CONTINUOUS
 66
     1
 40
0.003000
 41
0.003000
  0
VERTEX
  8
EBENE_1
 62
     1
  6
CONTINUOUS
 10
2.262039
 20
3.350012
  0
VERTEX
  8
EBENE_1
 62
     1
  6
CONTINUOUS
 10
2.301119
 20
3.366254
  0
VERTEX
  8
EBENE_1
 62
     1
  6
CONTINUOUS
 10
2.354688
 20
3.384473
  0
VERTEX
  8
EBENE_1
 62
     1
  6
CONTINUOUS
 10
2.400043
 20
3.395823
  0
SEQEND
  8
0
  0
POLYLINE
  8
EBENE_1
 62
     1
  6
CONTINUOUS
 66
     1
 40
0.003000
 41
0.003000
  0
VERTEX
  8
EBENE_1
 62
     1
  6
CONTINUOUS
 10
1.521917
 20
2.528417
  0
VERTEX
  8
EBENE_1
 62
     1
  6
CONTINUOUS
 10
1.473101
 20
2.508035
  0
VERTEX
  8
EBENE_1
 62
     1
  6
CONTINUOUS
 10
1.424471
 20
2.504896
  0
VERTEX
  8
EBENE_1
 62
     1
  6
CONTINUOUS
 10
1.372689
 20
2.520169
  0
SEQEND
  8
0
  0
POLYLINE
  8
EBENE_1
 62
     1
  6
CONTINUOUS
 66
     1
 40
0.003000
 41
0.003000
  0
VERTEX
  8
EBENE_1
 62
     1
  6
CONTINUOUS
 10
1.155909
 20
2.176531
  0
VERTEX
  8
EBENE_1
 62
     1
  6
CONTINUOUS
 10
1.117756
 20
2.228456
  0
VERTEX
  8
EBENE_1
 62
     1
  6
CONTINUOUS
 10
1.070415
 20
2.263732
  0
VERTEX
  8
EBENE_1
 62
     1
  6
CONTINUOUS
 10
1.011087
 20
2.288780
  0
SEQEND
  8
0
  0
POLYLINE
  8
EBENE_1
 62
     1
  6
CONTINUOUS
 66
     1
 40
0.003000
 41
0.003000
  0
VERTEX
  8
EBENE_1
 62
     1
  6
CONTINUOUS
 10
0.929677
 20
2.000957
  0
VERTEX
  8
EBENE_1
 62
     1
  6
CONTINUOUS
 10
0.916245
 20
2.037782
  0
VERTEX
  8
EBENE_1
 62
     1
  6
CONTINUOUS
 10
0.896881
 20
2.072860
  0
VERTEX
  8
EBENE_1
 62
     1
  6
CONTINUOUS
 10
0.875654
 20
2.104929
  0
SEQEND
  8
0
  0
POLYLINE
  8
EBENE_1
 62
     1
  6
CONTINUOUS
 66
     1
 40
0.003000
 41
0.003000
  0
VERTEX
  8
EBENE_1
 62
     1
  6
CONTINUOUS
 10
1.062693
 20
2.096807
  0
VERTEX
  8
EBENE_1
 62
     1
  6
CONTINUOUS
 10
1.026505
 20
2.135796
  0
VERTEX
  8
EBENE_1
 62
     1
  6
CONTINUOUS
 10
0.988561
 20
2.167372
  0
VERTEX
  8
EBENE_1
 62
     1
  6
CONTINUOUS
 10
0.944402
 20
2.195539
  0
SEQEND
  8
0
  0
POLYLINE
  8
EBENE_1
 62
     1
  6
CONTINUOUS
 66
     1
 40
0.003000
 41
0.003000
  0
VERTEX
  8
EBENE_1
 62
     1
  6
CONTINUOUS
 10
-2.731717
 20
3.795012
  0
VERTEX
  8
EBENE_1
 62
     1
  6
CONTINUOUS
 10
-2.759643
 20
3.840157
  0
VERTEX
  8
EBENE_1
 62
     1
  6
CONTINUOUS
 10
-2.788195
 20
3.881573
  0
VERTEX
  8
EBENE_1
 62
     1
  6
CONTINUOUS
 10
-2.817661
 20
3.919647
  0
VERTEX
  8
EBENE_1
 62
     1
  6
CONTINUOUS
 10
-2.848331
 20
3.954766
  0
VERTEX
  8
EBENE_1
 62
     1
  6
CONTINUOUS
 10
-2.880495
 20
3.987318
  0
VERTEX
  8
EBENE_1
 62
     1
  6
CONTINUOUS
 10
-2.914442
 20
4.017690
  0
VERTEX
  8
EBENE_1
 62
     1
  6
CONTINUOUS
 10
-2.950461
 20
4.046269
  0
VERTEX
  8
EBENE_1
 62
     1
  6
CONTINUOUS
 10
-2.988843
 20
4.073441
  0
VERTEX
  8
EBENE_1
 62
     1
  6
CONTINUOUS
 10
-3.029876
 20
4.099595
  0
VERTEX
  8
EBENE_1
 62
     1
  6
CONTINUOUS
 10
-3.073852
 20
4.125117
  0
VERTEX
  8
EBENE_1
 62
     1
  6
CONTINUOUS
 10
-3.121058
 20
4.150395
  0
VERTEX
  8
EBENE_1
 62
     1
  6
CONTINUOUS
 10
-3.171784
 20
4.175816
  0
VERTEX
  8
EBENE_1
 62
     1
  6
CONTINUOUS
 10
-3.226321
 20
4.201767
  0
VERTEX
  8
EBENE_1
 62
     1
  6
CONTINUOUS
 10
-3.284958
 20
4.228635
  0
VERTEX
  8
EBENE_1
 62
     1
  6
CONTINUOUS
 10
-3.347984
 20
4.256807
  0
SEQEND
  8
0
  0
POLYLINE
  8
EBENE_1
 62
     1
  6
CONTINUOUS
 66
     1
 40
0.003000
 41
0.003000
  0
VERTEX
  8
EBENE_1
 62
     1
  6
CONTINUOUS
 10
-3.347984
 20
4.256807
  0
VERTEX
  8
EBENE_1
 62
     1
  6
CONTINUOUS
 10
-3.349473
 20
4.233528
  0
VERTEX
  8
EBENE_1
 62
     1
  6
CONTINUOUS
 10
-3.359825
 20
4.203176
  0
VERTEX
  8
EBENE_1
 62
     1
  6
CONTINUOUS
 10
-3.376285
 20
4.165147
  0
VERTEX
  8
EBENE_1
 62
     1
  6
CONTINUOUS
 10
-3.396101
 20
4.118839
  0
VERTEX
  8
EBENE_1
 62
     1
  6
CONTINUOUS
 10
-3.416519
 20
4.063647
  0
VERTEX
  8
EBENE_1
 62
     1
  6
CONTINUOUS
 10
-3.434783
 20
3.998971
  0
VERTEX
  8
EBENE_1
 62
     1
  6
CONTINUOUS
 10
-3.448141
 20
3.924205
  0
VERTEX
  8
EBENE_1
 62
     1
  6
CONTINUOUS
 10
-3.453839
 20
3.838748
  0
SEQEND
  8
0
  0
POLYLINE
  8
EBENE_1
 62
     1
  6
CONTINUOUS
 66
     1
 40
0.003000
 41
0.003000
  0
VERTEX
  8
EBENE_1
 62
     1
  6
CONTINUOUS
 10
-3.453839
 20
3.838748
  0
VERTEX
  8
EBENE_1
 62
     1
  6
CONTINUOUS
 10
-3.452603
 20
3.782441
  0
VERTEX
  8
EBENE_1
 62
     1
  6
CONTINUOUS
 10
-3.447914
 20
3.725764
  0
VERTEX
  8
EBENE_1
 62
     1
  6
CONTINUOUS
 10
-3.440048
 20
3.669081
  0
VERTEX
  8
EBENE_1
 62
     1
  6
CONTINUOUS
 10
-3.429286
 20
3.612753
  0
VERTEX
  8
EBENE_1
 62
     1
  6
CONTINUOUS
 10
-3.415906
 20
3.557143
  0
VERTEX
  8
EBENE_1
 62
     1
  6
CONTINUOUS
 10
-3.400187
 20
3.502614
  0
VERTEX
  8
EBENE_1
 62
     1
  6
CONTINUOUS
 10
-3.382408
 20
3.449529
  0
VERTEX
  8
EBENE_1
 62
     1
  6
CONTINUOUS
 10
-3.362848
 20
3.398250
  0
VERTEX
  8
EBENE_1
 62
     1
  6
CONTINUOUS
 10
-3.341786
 20
3.349140
  0
VERTEX
  8
EBENE_1
 62
     1
  6
CONTINUOUS
 10
-3.319500
 20
3.302561
  0
VERTEX
  8
EBENE_1
 62
     1
  6
CONTINUOUS
 10
-3.296271
 20
3.258876
  0
VERTEX
  8
EBENE_1
 62
     1
  6
CONTINUOUS
 10
-3.272376
 20
3.218447
  0
VERTEX
  8
EBENE_1
 62
     1
  6
CONTINUOUS
 10
-3.248094
 20
3.181638
  0
SEQEND
  8
0
  0
POLYLINE
  8
EBENE_1
 62
     1
  6
CONTINUOUS
 66
     1
 40
0.003000
 41
0.003000
  0
VERTEX
  8
EBENE_1
 62
     1
  6
CONTINUOUS
 10
-3.248094
 20
3.181638
  0
VERTEX
  8
EBENE_1
 62
     1
  6
CONTINUOUS
 10
-3.284150
 20
3.203417
  0
VERTEX
  8
EBENE_1
 62
     1
  6
CONTINUOUS
 10
-3.326652
 20
3.226697
  0
VERTEX
  8
EBENE_1
 62
     1
  6
CONTINUOUS
 10
-3.374537
 20
3.250880
  0
VERTEX
  8
EBENE_1
 62
     1
  6
CONTINUOUS
 10
-3.426740
 20
3.275365
  0
VERTEX
  8
EBENE_1
 62
     1
  6
CONTINUOUS
 10
-3.482198
 20
3.299552
  0
VERTEX
  8
EBENE_1
 62
     1
  6
CONTINUOUS
 10
-3.539846
 20
3.322840
  0
VERTEX
  8
EBENE_1
 62
     1
  6
CONTINUOUS
 10
-3.598619
 20
3.344629
  0
VERTEX
  8
EBENE_1
 62
     1
  6
CONTINUOUS
 10
-3.657454
 20
3.364320
  0
VERTEX
  8
EBENE_1
 62
     1
  6
CONTINUOUS
 10
-3.715286
 20
3.381311
  0
VERTEX
  8
EBENE_1
 62
     1
  6
CONTINUOUS
 10
-3.771051
 20
3.395004
  0
SEQEND
  8
0
  0
POLYLINE
  8
EBENE_1
 62
     1
  6
CONTINUOUS
 66
     1
 40
0.003000
 41
0.003000
  0
VERTEX
  8
EBENE_1
 62
     1
  6
CONTINUOUS
 10
-3.771051
 20
3.395004
  0
VERTEX
  8
EBENE_1
 62
     1
  6
CONTINUOUS
 10
-3.840793
 20
3.408512
  0
VERTEX
  8
EBENE_1
 62
     1
  6
CONTINUOUS
 10
-3.908387
 20
3.418382
  0
VERTEX
  8
EBENE_1
 62
     1
  6
CONTINUOUS
 10
-3.973457
 20
3.424825
  0
VERTEX
  8
EBENE_1
 62
     1
  6
CONTINUOUS
 10
-4.035626
 20
3.428051
  0
VERTEX
  8
EBENE_1
 62
     1
  6
CONTINUOUS
 10
-4.094519
 20
3.428272
  0
VERTEX
  8
EBENE_1
 62
     1
  6
CONTINUOUS
 10
-4.149759
 20
3.425697
  0
VERTEX
  8
EBENE_1
 62
     1
  6
CONTINUOUS
 10
-4.200971
 20
3.420537
  0
VERTEX
  8
EBENE_1
 62
     1
  6
CONTINUOUS
 10
-4.247778
 20
3.413002
  0
VERTEX
  8
EBENE_1
 62
     1
  6
CONTINUOUS
 10
-4.289804
 20
3.403304
  0
VERTEX
  8
EBENE_1
 62
     1
  6
CONTINUOUS
 10
-4.326673
 20
3.391652
  0
VERTEX
  8
EBENE_1
 62
     1
  6
CONTINUOUS
 10
-4.358010
 20
3.378258
  0
VERTEX
  8
EBENE_1
 62
     1
  6
CONTINUOUS
 10
-4.383437
 20
3.363331
  0
SEQEND
  8
0
  0
POLYLINE
  8
EBENE_1
 62
     1
  6
CONTINUOUS
 66
     1
 40
0.003000
 41
0.003000
  0
VERTEX
  8
EBENE_1
 62
     1
  6
CONTINUOUS
 10
-4.383437
 20
3.363331
  0
VERTEX
  8
EBENE_1
 62
     1
  6
CONTINUOUS
 10
-4.356499
 20
3.304407
  0
VERTEX
  8
EBENE_1
 62
     1
  6
CONTINUOUS
 10
-4.330047
 20
3.247945
  0
VERTEX
  8
EBENE_1
 62
     1
  6
CONTINUOUS
 10
-4.303937
 20
3.193845
  0
VERTEX
  8
EBENE_1
 62
     1
  6
CONTINUOUS
 10
-4.278027
 20
3.142008
  0
VERTEX
  8
EBENE_1
 62
     1
  6
CONTINUOUS
 10
-4.252174
 20
3.092333
  0
VERTEX
  8
EBENE_1
 62
     1
  6
CONTINUOUS
 10
-4.226234
 20
3.044721
  0
VERTEX
  8
EBENE_1
 62
     1
  6
CONTINUOUS
 10
-4.200065
 20
2.999073
  0
VERTEX
  8
EBENE_1
 62
     1
  6
CONTINUOUS
 10
-4.173523
 20
2.955287
  0
VERTEX
  8
EBENE_1
 62
     1
  6
CONTINUOUS
 10
-4.146466
 20
2.913266
  0
VERTEX
  8
EBENE_1
 62
     1
  6
CONTINUOUS
 10
-4.118750
 20
2.872908
  0
VERTEX
  8
EBENE_1
 62
     1
  6
CONTINUOUS
 10
-4.090233
 20
2.834114
  0
VERTEX
  8
EBENE_1
 62
     1
  6
CONTINUOUS
 10
-4.060771
 20
2.796784
  0
VERTEX
  8
EBENE_1
 62
     1
  6
CONTINUOUS
 10
-4.030221
 20
2.760818
  0
VERTEX
  8
EBENE_1
 62
     1
  6
CONTINUOUS
 10
-3.998441
 20
2.726118
  0
VERTEX
  8
EBENE_1
 62
     1
  6
CONTINUOUS
 10
-3.965287
 20
2.692582
  0
VERTEX
  8
EBENE_1
 62
     1
  6
CONTINUOUS
 10
-3.930617
 20
2.660111
  0
VERTEX
  8
EBENE_1
 62
     1
  6
CONTINUOUS
 10
-3.894287
 20
2.628605
  0
VERTEX
  8
EBENE_1
 62
     1
  6
CONTINUOUS
 10
-3.856154
 20
2.597965
  0
SEQEND
  8
0
  0
POLYLINE
  8
EBENE_1
 62
     1
  6
CONTINUOUS
 66
     1
 40
0.003000
 41
0.003000
  0
VERTEX
  8
EBENE_1
 62
     1
  6
CONTINUOUS
 10
-3.856154
 20
2.597965
  0
VERTEX
  8
EBENE_1
 62
     1
  6
CONTINUOUS
 10
-3.810562
 20
2.569533
  0
VERTEX
  8
EBENE_1
 62
     1
  6
CONTINUOUS
 10
-3.763780
 20
2.543329
  0
VERTEX
  8
EBENE_1
 62
     1
  6
CONTINUOUS
 10
-3.715936
 20
2.519176
  0
VERTEX
  8
EBENE_1
 62
     1
  6
CONTINUOUS
 10
-3.667156
 20
2.496899
  0
VERTEX
  8
EBENE_1
 62
     1
  6
CONTINUOUS
 10
-3.617567
 20
2.476324
  0
VERTEX
  8
EBENE_1
 62
     1
  6
CONTINUOUS
 10
-3.567295
 20
2.457275
  0
VERTEX
  8
EBENE_1
 62
     1
  6
CONTINUOUS
 10
-3.516468
 20
2.439576
  0
VERTEX
  8
EBENE_1
 62
     1
  6
CONTINUOUS
 10
-3.465213
 20
2.423052
  0
VERTEX
  8
EBENE_1
 62
     1
  6
CONTINUOUS
 10
-3.413655
 20
2.407528
  0
VERTEX
  8
EBENE_1
 62
     1
  6
CONTINUOUS
 10
-3.361923
 20
2.392830
  0
VERTEX
  8
EBENE_1
 62
     1
  6
CONTINUOUS
 10
-3.310143
 20
2.378780
  0
VERTEX
  8
EBENE_1
 62
     1
  6
CONTINUOUS
 10
-3.258441
 20
2.365205
  0
SEQEND
  8
0
  0
POLYLINE
  8
EBENE_1
 62
     1
  6
CONTINUOUS
 66
     1
 40
0.003000
 41
0.003000
  0
VERTEX
  8
EBENE_1
 62
     1
  6
CONTINUOUS
 10
-3.258441
 20
2.365205
  0
VERTEX
  8
EBENE_1
 62
     1
  6
CONTINUOUS
 10
-3.256001
 20
2.341924
  0
VERTEX
  8
EBENE_1
 62
     1
  6
CONTINUOUS
 10
-3.252854
 20
2.320934
  0
VERTEX
  8
EBENE_1
 62
     1
  6
CONTINUOUS
 10
-3.250299
 20
2.297614
  0
SEQEND
  8
0
  0
POLYLINE
  8
EBENE_1
 62
     1
  6
CONTINUOUS
 66
     1
 40
0.003000
 41
0.003000
  0
VERTEX
  8
EBENE_1
 62
     1
  6
CONTINUOUS
 10
-3.250299
 20
2.297614
  0
VERTEX
  8
EBENE_1
 62
     1
  6
CONTINUOUS
 10
-3.239104
 20
2.240231
  0
VERTEX
  8
EBENE_1
 62
     1
  6
CONTINUOUS
 10
-3.224082
 20
2.184907
  0
VERTEX
  8
EBENE_1
 62
     1
  6
CONTINUOUS
 10
-3.205428
 20
2.130909
  0
VERTEX
  8
EBENE_1
 62
     1
  6
CONTINUOUS
 10
-3.183337
 20
2.077500
  0
VERTEX
  8
EBENE_1
 62
     1
  6
CONTINUOUS
 10
-3.158004
 20
2.023945
  0
SEQEND
  8
0
  0
POLYLINE
  8
EBENE_1
 62
     1
  6
CONTINUOUS
 66
     1
 40
0.003000
 41
0.003000
  0
VERTEX
  8
EBENE_1
 62
     1
  6
CONTINUOUS
 10
-3.158004
 20
2.023945
  0
VERTEX
  8
EBENE_1
 62
     1
  6
CONTINUOUS
 10
-3.120179
 20
1.965764
  0
VERTEX
  8
EBENE_1
 62
     1
  6
CONTINUOUS
 10
-3.079579
 20
1.908798
  0
VERTEX
  8
EBENE_1
 62
     1
  6
CONTINUOUS
 10
-3.034629
 20
1.855597
  0
VERTEX
  8
EBENE_1
 62
     1
  6
CONTINUOUS
 10
-2.983756
 20
1.808713
  0
SEQEND
  8
0
  0
POLYLINE
  8
EBENE_1
 62
     1
  6
CONTINUOUS
 66
     1
 40
0.003000
 41
0.003000
  0
VERTEX
  8
EBENE_1
 62
     1
  6
CONTINUOUS
 10
-2.983756
 20
1.808713
  0
VERTEX
  8
EBENE_1
 62
     1
  6
CONTINUOUS
 10
-2.950814
 20
1.784386
  0
VERTEX
  8
EBENE_1
 62
     1
  6
CONTINUOUS
 10
-2.925861
 20
1.762455
  0
VERTEX
  8
EBENE_1
 62
     1
  6
CONTINUOUS
 10
-2.888484
 20
1.736969
  0
SEQEND
  8
0
  0
POLYLINE
  8
EBENE_1
 62
     1
  6
CONTINUOUS
 66
     1
 40
0.003000
 41
0.003000
  0
VERTEX
  8
EBENE_1
 62
     1
  6
CONTINUOUS
 10
-2.888484
 20
1.736969
  0
VERTEX
  8
EBENE_1
 62
     1
  6
CONTINUOUS
 10
-2.860734
 20
1.704064
  0
VERTEX
  8
EBENE_1
 62
     1
  6
CONTINUOUS
 10
-2.849552
 20
1.670069
  0
VERTEX
  8
EBENE_1
 62
     1
  6
CONTINUOUS
 10
-2.846051
 20
1.628807
  0
SEQEND
  8
0
  0
POLYLINE
  8
EBENE_1
 62
     1
  6
CONTINUOUS
 66
     1
 40
0.003000
 41
0.003000
  0
VERTEX
  8
EBENE_1
 62
     1
  6
CONTINUOUS
 10
-2.846051
 20
1.628807
  0
VERTEX
  8
EBENE_1
 62
     1
  6
CONTINUOUS
 10
-2.853866
 20
1.564596
  0
VERTEX
  8
EBENE_1
 62
     1
  6
CONTINUOUS
 10
-2.867403
 20
1.500959
  0
VERTEX
  8
EBENE_1
 62
     1
  6
CONTINUOUS
 10
-2.884880
 20
1.437794
  0
VERTEX
  8
EBENE_1
 62
     1
  6
CONTINUOUS
 10
-2.904512
 20
1.374998
  0
VERTEX
  8
EBENE_1
 62
     1
  6
CONTINUOUS
 10
-2.924516
 20
1.312469
  0
SEQEND
  8
0
  0
POLYLINE
  8
EBENE_1
 62
     1
  6
CONTINUOUS
 66
     1
 40
0.003000
 41
0.003000
  0
VERTEX
  8
EBENE_1
 62
     1
  6
CONTINUOUS
 10
-2.924516
 20
1.312469
  0
VERTEX
  8
EBENE_1
 62
     1
  6
CONTINUOUS
 10
-2.951618
 20
1.250489
  0
VERTEX
  8
EBENE_1
 62
     1
  6
CONTINUOUS
 10
-2.981594
 20
1.190120
  0
VERTEX
  8
EBENE_1
 62
     1
  6
CONTINUOUS
 10
-3.015815
 20
1.130571
  0
SEQEND
  8
0
  0
POLYLINE
  8
EBENE_1
 62
     1
  6
CONTINUOUS
 66
     1
 40
0.003000
 41
0.003000
  0
VERTEX
  8
EBENE_1
 62
     1
  6
CONTINUOUS
 10
-3.015815
 20
1.130571
  0
VERTEX
  8
EBENE_1
 62
     1
  6
CONTINUOUS
 10
-3.036124
 20
1.094377
  0
VERTEX
  8
EBENE_1
 62
     1
  6
CONTINUOUS
 10
-3.049236
 20
1.057832
  0
VERTEX
  8
EBENE_1
 62
     1
  6
CONTINUOUS
 10
-3.070878
 20
1.023094
  0
SEQEND
  8
0
  0
POLYLINE
  8
EBENE_1
 62
     1
  6
CONTINUOUS
 66
     1
 40
0.003000
 41
0.003000
  0
VERTEX
  8
EBENE_1
 62
     1
  6
CONTINUOUS
 10
-3.070878
 20
1.023094
  0
VERTEX
  8
EBENE_1
 62
     1
  6
CONTINUOUS
 10
-3.113298
 20
0.984318
  0
VERTEX
  8
EBENE_1
 62
     1
  6
CONTINUOUS
 10
-3.156228
 20
0.945846
  0
VERTEX
  8
EBENE_1
 62
     1
  6
CONTINUOUS
 10
-3.199089
 20
0.907203
  0
VERTEX
  8
EBENE_1
 62
     1
  6
CONTINUOUS
 10
-3.241299
 20
0.867913
  0
VERTEX
  8
EBENE_1
 62
     1
  6
CONTINUOUS
 10
-3.282278
 20
0.827503
  0
VERTEX
  8
EBENE_1
 62
     1
  6
CONTINUOUS
 10
-3.321445
 20
0.785496
  0
VERTEX
  8
EBENE_1
 62
     1
  6
CONTINUOUS
 10
-3.358219
 20
0.741417
  0
VERTEX
  8
EBENE_1
 62
     1
  6
CONTINUOUS
 10
-3.392020
 20
0.694791
  0
SEQEND
  8
0
  0
POLYLINE
  8
EBENE_1
 62
     1
  6
CONTINUOUS
 66
     1
 40
0.003000
 41
0.003000
  0
VERTEX
  8
EBENE_1
 62
     1
  6
CONTINUOUS
 10
-3.392020
 20
0.694791
  0
VERTEX
  8
EBENE_1
 62
     1
  6
CONTINUOUS
 10
-3.413645
 20
0.657609
  0
VERTEX
  8
EBENE_1
 62
     1
  6
CONTINUOUS
 10
-3.429690
 20
0.628593
  0
VERTEX
  8
EBENE_1
 62
     1
  6
CONTINUOUS
 10
-3.453906
 20
0.582870
  0
SEQEND
  8
0
  0
POLYLINE
  8
EBENE_1
 62
     1
  6
CONTINUOUS
 66
     1
 40
0.003000
 41
0.003000
  0
VERTEX
  8
EBENE_1
 62
     1
  6
CONTINUOUS
 10
-3.453906
 20
0.582870
  0
VERTEX
  8
EBENE_1
 62
     1
  6
CONTINUOUS
 10
-3.471422
 20
0.541071
  0
VERTEX
  8
EBENE_1
 62
     1
  6
CONTINUOUS
 10
-3.486665
 20
0.501510
  0
VERTEX
  8
EBENE_1
 62
     1
  6
CONTINUOUS
 10
-3.512701
 20
0.430276
  0
SEQEND
  8
0
  0
POLYLINE
  8
EBENE_1
 62
     1
  6
CONTINUOUS
 66
     1
 40
0.003000
 41
0.003000
  0
VERTEX
  8
EBENE_1
 62
     1
  6
CONTINUOUS
 10
-3.512701
 20
0.430276
  0
VERTEX
  8
EBENE_1
 62
     1
  6
CONTINUOUS
 10
-3.520820
 20
0.404859
  0
VERTEX
  8
EBENE_1
 62
     1
  6
CONTINUOUS
 10
-3.530318
 20
0.371573
  0
VERTEX
  8
EBENE_1
 62
     1
  6
CONTINUOUS
 10
-3.532059
 20
0.347492
  0
SEQEND
  8
0
  0
POLYLINE
  8
EBENE_1
 62
     1
  6
CONTINUOUS
 66
     1
 40
0.003000
 41
0.003000
  0
VERTEX
  8
EBENE_1
 62
     1
  6
CONTINUOUS
 10
-3.532059
 20
0.347492
  0
VERTEX
  8
EBENE_1
 62
     1
  6
CONTINUOUS
 10
-3.476276
 20
0.334461
  0
VERTEX
  8
EBENE_1
 62
     1
  6
CONTINUOUS
 10
-3.419692
 20
0.325885
  0
VERTEX
  8
EBENE_1
 62
     1
  6
CONTINUOUS
 10
-3.361449
 20
0.319232
  0
SEQEND
  8
0
  0
POLYLINE
  8
EBENE_1
 62
     1
  6
CONTINUOUS
 66
     1
 40
0.003000
 41
0.003000
  0
VERTEX
  8
EBENE_1
 62
     1
  6
CONTINUOUS
 10
-3.361449
 20
0.319232
  0
VERTEX
  8
EBENE_1
 62
     1
  6
CONTINUOUS
 10
-3.342995
 20
0.289642
  0
VERTEX
  8
EBENE_1
 62
     1
  6
CONTINUOUS
 10
-3.322395
 20
0.259064
  0
VERTEX
  8
EBENE_1
 62
     1
  6
CONTINUOUS
 10
-3.313878
 20
0.228878
  0
SEQEND
  8
0
  0
POLYLINE
  8
EBENE_1
 62
     1
  6
CONTINUOUS
 66
     1
 40
0.003000
 41
0.003000
  0
VERTEX
  8
EBENE_1
 62
     1
  6
CONTINUOUS
 10
-3.313878
 20
0.228878
  0
VERTEX
  8
EBENE_1
 62
     1
  6
CONTINUOUS
 10
-3.315363
 20
0.228151
  0
VERTEX
  8
EBENE_1
 62
     1
  6
CONTINUOUS
 10
-3.316834
 20
0.227341
  0
VERTEX
  8
EBENE_1
 62
     1
  6
CONTINUOUS
 10
-3.318240
 20
0.226472
  0
SEQEND
  8
0
  0
POLYLINE
  8
EBENE_1
 62
     1
  6
CONTINUOUS
 66
     1
 40
0.003000
 41
0.003000
  0
VERTEX
  8
EBENE_1
 62
     1
  6
CONTINUOUS
 10
-3.318240
 20
0.226472
  0
VERTEX
  8
EBENE_1
 62
     1
  6
CONTINUOUS
 10
-3.381392
 20
0.233495
  0
VERTEX
  8
EBENE_1
 62
     1
  6
CONTINUOUS
 10
-3.418685
 20
0.238338
  0
VERTEX
  8
EBENE_1
 62
     1
  6
CONTINUOUS
 10
-3.462087
 20
0.245154
  0
SEQEND
  8
0
  0
POLYLINE
  8
EBENE_1
 62
     1
  6
CONTINUOUS
 66
     1
 40
0.003000
 41
0.003000
  0
VERTEX
  8
EBENE_1
 62
     1
  6
CONTINUOUS
 10
-3.462087
 20
0.245154
  0
VERTEX
  8
EBENE_1
 62
     1
  6
CONTINUOUS
 10
-3.462945
 20
0.243329
  0
VERTEX
  8
EBENE_1
 62
     1
  6
CONTINUOUS
 10
-3.462022
 20
0.240907
  0
VERTEX
  8
EBENE_1
 62
     1
  6
CONTINUOUS
 10
-3.462799
 20
0.238933
  0
SEQEND
  8
0
  0
POLYLINE
  8
EBENE_1
 62
     1
  6
CONTINUOUS
 66
     1
 40
0.003000
 41
0.003000
  0
VERTEX
  8
EBENE_1
 62
     1
  6
CONTINUOUS
 10
-3.462799
 20
0.238933
  0
VERTEX
  8
EBENE_1
 62
     1
  6
CONTINUOUS
 10
-3.468767
 20
0.194280
  0
VERTEX
  8
EBENE_1
 62
     1
  6
CONTINUOUS
 10
-3.468061
 20
0.148116
  0
VERTEX
  8
EBENE_1
 62
     1
  6
CONTINUOUS
 10
-3.464627
 20
0.102537
  0
VERTEX
  8
EBENE_1
 62
     1
  6
CONTINUOUS
 10
-3.462408
 20
0.059636
  0
VERTEX
  8
EBENE_1
 62
     1
  6
CONTINUOUS
 10
-3.465351
 20
0.021509
  0
VERTEX
  8
EBENE_1
 62
     1
  6
CONTINUOUS
 10
-3.477400
 20
-0.009750
  0
VERTEX
  8
EBENE_1
 62
     1
  6
CONTINUOUS
 10
-3.502499
 20
-0.032047
  0
VERTEX
  8
EBENE_1
 62
     1
  6
CONTINUOUS
 10
-3.544594
 20
-0.043287
  0
SEQEND
  8
0
  0
POLYLINE
  8
EBENE_1
 62
     1
  6
CONTINUOUS
 66
     1
 40
0.003000
 41
0.003000
  0
VERTEX
  8
EBENE_1
 62
     1
  6
CONTINUOUS
 10
-3.544594
 20
-0.043287
  0
VERTEX
  8
EBENE_1
 62
     1
  6
CONTINUOUS
 10
-3.593246
 20
-0.040208
  0
VERTEX
  8
EBENE_1
 62
     1
  6
CONTINUOUS
 10
-3.642625
 20
-0.030113
  0
VERTEX
  8
EBENE_1
 62
     1
  6
CONTINUOUS
 10
-3.685917
 20
-0.009756
  0
SEQEND
  8
0
  0
POLYLINE
  8
EBENE_1
 62
     1
  6
CONTINUOUS
 66
     1
 40
0.003000
 41
0.003000
  0
VERTEX
  8
EBENE_1
 62
     1
  6
CONTINUOUS
 10
-3.685917
 20
-0.009756
  0
VERTEX
  8
EBENE_1
 62
     1
  6
CONTINUOUS
 10
-3.714813
 20
0.021167
  0
VERTEX
  8
EBENE_1
 62
     1
  6
CONTINUOUS
 10
-3.736292
 20
0.040125
  0
VERTEX
  8
EBENE_1
 62
     1
  6
CONTINUOUS
 10
-3.773091
 20
0.055976
  0
SEQEND
  8
0
  0
POLYLINE
  8
EBENE_1
 62
     1
  6
CONTINUOUS
 66
     1
 40
0.003000
 41
0.003000
  0
VERTEX
  8
EBENE_1
 62
     1
  6
CONTINUOUS
 10
-3.773091
 20
0.055976
  0
VERTEX
  8
EBENE_1
 62
     1
  6
CONTINUOUS
 10
-3.850885
 20
0.064480
  0
VERTEX
  8
EBENE_1
 62
     1
  6
CONTINUOUS
 10
-3.916812
 20
0.056227
  0
VERTEX
  8
EBENE_1
 62
     1
  6
CONTINUOUS
 10
-3.989197
 20
0.028996
  0
SEQEND
  8
0
  0
POLYLINE
  8
EBENE_1
 62
     1
  6
CONTINUOUS
 66
     1
 40
0.003000
 41
0.003000
  0
VERTEX
  8
EBENE_1
 62
     1
  6
CONTINUOUS
 10
-3.989197
 20
0.028996
  0
VERTEX
  8
EBENE_1
 62
     1
  6
CONTINUOUS
 10
-4.033492
 20
-0.006797
  0
VERTEX
  8
EBENE_1
 62
     1
  6
CONTINUOUS
 10
-4.067262
 20
-0.045350
  0
VERTEX
  8
EBENE_1
 62
     1
  6
CONTINUOUS
 10
-4.096413
 20
-0.093839
  0
SEQEND
  8
0
  0
POLYLINE
  8
EBENE_1
 62
     1
  6
CONTINUOUS
 66
     1
 40
0.003000
 41
0.003000
  0
VERTEX
  8
EBENE_1
 62
     1
  6
CONTINUOUS
 10
-4.096413
 20
-0.093839
  0
VERTEX
  8
EBENE_1
 62
     1
  6
CONTINUOUS
 10
-4.106556
 20
-0.140997
  0
VERTEX
  8
EBENE_1
 62
     1
  6
CONTINUOUS
 10
-4.111935
 20
-0.185334
  0
VERTEX
  8
EBENE_1
 62
     1
  6
CONTINUOUS
 10
-4.113264
 20
-0.234547
  0
SEQEND
  8
0
  0
POLYLINE
  8
EBENE_1
 62
     1
  6
CONTINUOUS
 66
     1
 40
0.003000
 41
0.003000
  0
VERTEX
  8
EBENE_1
 62
     1
  6
CONTINUOUS
 10
-4.113264
 20
-0.234547
  0
VERTEX
  8
EBENE_1
 62
     1
  6
CONTINUOUS
 10
-4.103196
 20
-0.297529
  0
VERTEX
  8
EBENE_1
 62
     1
  6
CONTINUOUS
 10
-4.087977
 20
-0.357332
  0
VERTEX
  8
EBENE_1
 62
     1
  6
CONTINUOUS
 10
-4.070185
 20
-0.415770
  0
VERTEX
  8
EBENE_1
 62
     1
  6
CONTINUOUS
 10
-4.052397
 20
-0.474657
  0
VERTEX
  8
EBENE_1
 62
     1
  6
CONTINUOUS
 10
-4.037193
 20
-0.535807
  0
SEQEND
  8
0
  0
POLYLINE
  8
EBENE_1
 62
     1
  6
CONTINUOUS
 66
     1
 40
0.003000
 41
0.003000
  0
VERTEX
  8
EBENE_1
 62
     1
  6
CONTINUOUS
 10
-4.037193
 20
-0.535807
  0
VERTEX
  8
EBENE_1
 62
     1
  6
CONTINUOUS
 10
-4.038052
 20
-0.564951
  0
VERTEX
  8
EBENE_1
 62
     1
  6
CONTINUOUS
 10
-4.038855
 20
-0.594193
  0
VERTEX
  8
EBENE_1
 62
     1
  6
CONTINUOUS
 10
-4.039630
 20
-0.623484
  0
SEQEND
  8
0
  0
POLYLINE
  8
EBENE_1
 62
     1
  6
CONTINUOUS
 66
     1
 40
0.003000
 41
0.003000
  0
VERTEX
  8
EBENE_1
 62
     1
  6
CONTINUOUS
 10
-4.039630
 20
-0.623484
  0
VERTEX
  8
EBENE_1
 62
     1
  6
CONTINUOUS
 10
-4.048883
 20
-0.680902
  0
VERTEX
  8
EBENE_1
 62
     1
  6
CONTINUOUS
 10
-4.056573
 20
-0.734401
  0
VERTEX
  8
EBENE_1
 62
     1
  6
CONTINUOUS
 10
-4.060086
 20
-0.785793
  0
VERTEX
  8
EBENE_1
 62
     1
  6
CONTINUOUS
 10
-4.056808
 20
-0.836888
  0
VERTEX
  8
EBENE_1
 62
     1
  6
CONTINUOUS
 10
-4.044126
 20
-0.889496
  0
VERTEX
  8
EBENE_1
 62
     1
  6
CONTINUOUS
 10
-4.019425
 20
-0.945429
  0
SEQEND
  8
0
  0
POLYLINE
  8
EBENE_1
 62
     1
  6
CONTINUOUS
 66
     1
 40
0.003000
 41
0.003000
  0
VERTEX
  8
EBENE_1
 62
     1
  6
CONTINUOUS
 10
-4.019425
 20
-0.945429
  0
VERTEX
  8
EBENE_1
 62
     1
  6
CONTINUOUS
 10
-3.984036
 20
-0.988267
  0
VERTEX
  8
EBENE_1
 62
     1
  6
CONTINUOUS
 10
-3.941300
 20
-1.025726
  0
VERTEX
  8
EBENE_1
 62
     1
  6
CONTINUOUS
 10
-3.893638
 20
-1.058291
  0
VERTEX
  8
EBENE_1
 62
     1
  6
CONTINUOUS
 10
-3.843469
 20
-1.086450
  0
VERTEX
  8
EBENE_1
 62
     1
  6
CONTINUOUS
 10
-3.793213
 20
-1.110689
  0
SEQEND
  8
0
  0
POLYLINE
  8
EBENE_1
 62
     1
  6
CONTINUOUS
 66
     1
 40
0.003000
 41
0.003000
  0
VERTEX
  8
EBENE_1
 62
     1
  6
CONTINUOUS
 10
-3.793213
 20
-1.110689
  0
VERTEX
  8
EBENE_1
 62
     1
  6
CONTINUOUS
 10
-3.726592
 20
-1.125780
  0
VERTEX
  8
EBENE_1
 62
     1
  6
CONTINUOUS
 10
-3.663741
 20
-1.129672
  0
VERTEX
  8
EBENE_1
 62
     1
  6
CONTINUOUS
 10
-3.596772
 20
-1.114602
  0
SEQEND
  8
0
  0
POLYLINE
  8
EBENE_1
 62
     1
  6
CONTINUOUS
 66
     1
 40
0.003000
 41
0.003000
  0
VERTEX
  8
EBENE_1
 62
     1
  6
CONTINUOUS
 10
-3.596772
 20
-1.114602
  0
VERTEX
  8
EBENE_1
 62
     1
  6
CONTINUOUS
 10
-3.570155
 20
-1.096969
  0
VERTEX
  8
EBENE_1
 62
     1
  6
CONTINUOUS
 10
-3.544777
 20
-1.077628
  0
VERTEX
  8
EBENE_1
 62
     1
  6
CONTINUOUS
 10
-3.520906
 20
-1.056417
  0
SEQEND
  8
0
  0
POLYLINE
  8
EBENE_1
 62
     1
  6
CONTINUOUS
 66
     1
 40
0.003000
 41
0.003000
  0
VERTEX
  8
EBENE_1
 62
     1
  6
CONTINUOUS
 10
-3.520906
 20
-1.056417
  0
VERTEX
  8
EBENE_1
 62
     1
  6
CONTINUOUS
 10
-3.498683
 20
-1.016603
  0
VERTEX
  8
EBENE_1
 62
     1
  6
CONTINUOUS
 10
-3.479192
 20
-0.963696
  0
VERTEX
  8
EBENE_1
 62
     1
  6
CONTINUOUS
 10
-3.480476
 20
-0.919780
  0
SEQEND
  8
0
  0
POLYLINE
  8
EBENE_1
 62
     1
  6
CONTINUOUS
 66
     1
 40
0.003000
 41
0.003000
  0
VERTEX
  8
EBENE_1
 62
     1
  6
CONTINUOUS
 10
-3.480476
 20
-0.919780
  0
VERTEX
  8
EBENE_1
 62
     1
  6
CONTINUOUS
 10
-3.503087
 20
-0.857852
  0
VERTEX
  8
EBENE_1
 62
     1
  6
CONTINUOUS
 10
-3.543951
 20
-0.811272
  0
VERTEX
  8
EBENE_1
 62
     1
  6
CONTINUOUS
 10
-3.593386
 20
-0.768118
  0
SEQEND
  8
0
  0
POLYLINE
  8
EBENE_1
 62
     1
  6
CONTINUOUS
 66
     1
 40
0.003000
 41
0.003000
  0
VERTEX
  8
EBENE_1
 62
     1
  6
CONTINUOUS
 10
-3.593386
 20
-0.768118
  0
VERTEX
  8
EBENE_1
 62
     1
  6
CONTINUOUS
 10
-3.629146
 20
-0.721584
  0
VERTEX
  8
EBENE_1
 62
     1
  6
CONTINUOUS
 10
-3.656963
 20
-0.668916
  0
VERTEX
  8
EBENE_1
 62
     1
  6
CONTINUOUS
 10
-3.676002
 20
-0.612222
  0
VERTEX
  8
EBENE_1
 62
     1
  6
CONTINUOUS
 10
-3.685422
 20
-0.553608
  0
VERTEX
  8
EBENE_1
 62
     1
  6
CONTINUOUS
 10
-3.684386
 20
-0.495181
  0
SEQEND
  8
0
  0
POLYLINE
  8
EBENE_1
 62
     1
  6
CONTINUOUS
 66
     1
 40
0.003000
 41
0.003000
  0
VERTEX
  8
EBENE_1
 62
     1
  6
CONTINUOUS
 10
-3.684386
 20
-0.495181
  0
VERTEX
  8
EBENE_1
 62
     1
  6
CONTINUOUS
 10
-3.669018
 20
-0.457806
  0
VERTEX
  8
EBENE_1
 62
     1
  6
CONTINUOUS
 10
-3.647575
 20
-0.434773
  0
VERTEX
  8
EBENE_1
 62
     1
  6
CONTINUOUS
 10
-3.609551
 20
-0.418366
  0
SEQEND
  8
0
  0
POLYLINE
  8
EBENE_1
 62
     1
  6
CONTINUOUS
 66
     1
 40
0.003000
 41
0.003000
  0
VERTEX
  8
EBENE_1
 62
     1
  6
CONTINUOUS
 10
-3.609551
 20
-0.418366
  0
VERTEX
  8
EBENE_1
 62
     1
  6
CONTINUOUS
 10
-3.530240
 20
-0.416098
  0
VERTEX
  8
EBENE_1
 62
     1
  6
CONTINUOUS
 10
-3.452276
 20
-0.424688
  0
VERTEX
  8
EBENE_1
 62
     1
  6
CONTINUOUS
 10
-3.374256
 20
-0.442953
  0
SEQEND
  8
0
  0
POLYLINE
  8
EBENE_1
 62
     1
  6
CONTINUOUS
 66
     1
 40
0.003000
 41
0.003000
  0
VERTEX
  8
EBENE_1
 62
     1
  6
CONTINUOUS
 10
-3.374256
 20
-0.442953
  0
VERTEX
  8
EBENE_1
 62
     1
  6
CONTINUOUS
 10
-3.365889
 20
-0.465157
  0
VERTEX
  8
EBENE_1
 62
     1
  6
CONTINUOUS
 10
-3.361755
 20
-0.490169
  0
VERTEX
  8
EBENE_1
 62
     1
  6
CONTINUOUS
 10
-3.355181
 20
-0.513933
  0
SEQEND
  8
0
  0
POLYLINE
  8
EBENE_1
 62
     1
  6
CONTINUOUS
 66
     1
 40
0.003000
 41
0.003000
  0
VERTEX
  8
EBENE_1
 62
     1
  6
CONTINUOUS
 10
-3.355181
 20
-0.513933
  0
VERTEX
  8
EBENE_1
 62
     1
  6
CONTINUOUS
 10
-3.354467
 20
-0.527597
  0
VERTEX
  8
EBENE_1
 62
     1
  6
CONTINUOUS
 10
-3.352773
 20
-0.540406
  0
VERTEX
  8
EBENE_1
 62
     1
  6
CONTINUOUS
 10
-3.347492
 20
-0.553925
  0
SEQEND
  8
0
  0
POLYLINE
  8
EBENE_1
 62
     1
  6
CONTINUOUS
 66
     1
 40
0.003000
 41
0.003000
  0
VERTEX
  8
EBENE_1
 62
     1
  6
CONTINUOUS
 10
-3.347492
 20
-0.553925
  0
VERTEX
  8
EBENE_1
 62
     1
  6
CONTINUOUS
 10
-3.290252
 20
-0.566192
  0
VERTEX
  8
EBENE_1
 62
     1
  6
CONTINUOUS
 10
-3.234459
 20
-0.574745
  0
VERTEX
  8
EBENE_1
 62
     1
  6
CONTINUOUS
 10
-3.179729
 20
-0.579957
  0
VERTEX
  8
EBENE_1
 62
     1
  6
CONTINUOUS
 10
-3.125679
 20
-0.582199
  0
VERTEX
  8
EBENE_1
 62
     1
  6
CONTINUOUS
 10
-3.071925
 20
-0.581842
  0
VERTEX
  8
EBENE_1
 62
     1
  6
CONTINUOUS
 10
-3.018083
 20
-0.579257
  0
VERTEX
  8
EBENE_1
 62
     1
  6
CONTINUOUS
 10
-2.963769
 20
-0.574816
  0
VERTEX
  8
EBENE_1
 62
     1
  6
CONTINUOUS
 10
-2.908599
 20
-0.568890
  0
VERTEX
  8
EBENE_1
 62
     1
  6
CONTINUOUS
 10
-2.852189
 20
-0.561850
  0
SEQEND
  8
0
  0
POLYLINE
  8
EBENE_1
 62
     1
  6
CONTINUOUS
 66
     1
 40
0.003000
 41
0.003000
  0
VERTEX
  8
EBENE_1
 62
     1
  6
CONTINUOUS
 10
-2.852189
 20
-0.561850
  0
VERTEX
  8
EBENE_1
 62
     1
  6
CONTINUOUS
 10
-2.794200
 20
-0.550007
  0
VERTEX
  8
EBENE_1
 62
     1
  6
CONTINUOUS
 10
-2.736575
 20
-0.540614
  0
VERTEX
  8
EBENE_1
 62
     1
  6
CONTINUOUS
 10
-2.679755
 20
-0.530139
  0
VERTEX
  8
EBENE_1
 62
     1
  6
CONTINUOUS
 10
-2.624180
 20
-0.515050
  0
VERTEX
  8
EBENE_1
 62
     1
  6
CONTINUOUS
 10
-2.570287
 20
-0.491815
  0
SEQEND
  8
0
  0
POLYLINE
  8
EBENE_1
 62
     1
  6
CONTINUOUS
 66
     1
 40
0.003000
 41
0.003000
  0
VERTEX
  8
EBENE_1
 62
     1
  6
CONTINUOUS
 10
-2.570287
 20
-0.491815
  0
VERTEX
  8
EBENE_1
 62
     1
  6
CONTINUOUS
 10
-2.543678
 20
-0.530770
  0
VERTEX
  8
EBENE_1
 62
     1
  6
CONTINUOUS
 10
-2.511279
 20
-0.578700
  0
VERTEX
  8
EBENE_1
 62
     1
  6
CONTINUOUS
 10
-2.474756
 20
-0.631139
  0
VERTEX
  8
EBENE_1
 62
     1
  6
CONTINUOUS
 10
-2.435775
 20
-0.683620
  0
VERTEX
  8
EBENE_1
 62
     1
  6
CONTINUOUS
 10
-2.396002
 20
-0.731679
  0
VERTEX
  8
EBENE_1
 62
     1
  6
CONTINUOUS
 10
-2.357102
 20
-0.770849
  0
VERTEX
  8
EBENE_1
 62
     1
  6
CONTINUOUS
 10
-2.320740
 20
-0.796665
  0
SEQEND
  8
0
  0
POLYLINE
  8
EBENE_1
 62
     1
  6
CONTINUOUS
 66
     1
 40
0.003000
 41
0.003000
  0
VERTEX
  8
EBENE_1
 62
     1
  6
CONTINUOUS
 10
-2.320740
 20
-0.796665
  0
VERTEX
  8
EBENE_1
 62
     1
  6
CONTINUOUS
 10
-2.292211
 20
-0.790216
  0
VERTEX
  8
EBENE_1
 62
     1
  6
CONTINUOUS
 10
-2.263167
 20
-0.779722
  0
VERTEX
  8
EBENE_1
 62
     1
  6
CONTINUOUS
 10
-2.235346
 20
-0.768921
  0
SEQEND
  8
0
  0
POLYLINE
  8
EBENE_1
 62
     1
  6
CONTINUOUS
 66
     1
 40
0.003000
 41
0.003000
  0
VERTEX
  8
EBENE_1
 62
     1
  6
CONTINUOUS
 10
-2.235346
 20
-0.768921
  0
VERTEX
  8
EBENE_1
 62
     1
  6
CONTINUOUS
 10
-2.193197
 20
-0.749399
  0
VERTEX
  8
EBENE_1
 62
     1
  6
CONTINUOUS
 10
-2.151024
 20
-0.729917
  0
VERTEX
  8
EBENE_1
 62
     1
  6
CONTINUOUS
 10
-2.108803
 20
-0.710531
  0
SEQEND
  8
0
  0
POLYLINE
  8
EBENE_1
 62
     1
  6
CONTINUOUS
 66
     1
 40
0.003000
 41
0.003000
  0
VERTEX
  8
EBENE_1
 62
     1
  6
CONTINUOUS
 10
-2.108803
 20
-0.710531
  0
VERTEX
  8
EBENE_1
 62
     1
  6
CONTINUOUS
 10
-2.066051
 20
-0.745533
  0
VERTEX
  8
EBENE_1
 62
     1
  6
CONTINUOUS
 10
-2.038731
 20
-0.791349
  0
VERTEX
  8
EBENE_1
 62
     1
  6
CONTINUOUS
 10
-2.021898
 20
-0.846232
  0
SEQEND
  8
0
  0
POLYLINE
  8
EBENE_1
 62
     1
  6
CONTINUOUS
 66
     1
 40
0.003000
 41
0.003000
  0
VERTEX
  8
EBENE_1
 62
     1
  6
CONTINUOUS
 10
-2.021898
 20
-0.846232
  0
VERTEX
  8
EBENE_1
 62
     1
  6
CONTINUOUS
 10
-2.016616
 20
-0.915246
  0
VERTEX
  8
EBENE_1
 62
     1
  6
CONTINUOUS
 10
-2.008010
 20
-0.982327
  0
VERTEX
  8
EBENE_1
 62
     1
  6
CONTINUOUS
 10
-1.985382
 20
-1.048409
  0
SEQEND
  8
0
  0
POLYLINE
  8
EBENE_1
 62
     1
  6
CONTINUOUS
 66
     1
 40
0.003000
 41
0.003000
  0
VERTEX
  8
EBENE_1
 62
     1
  6
CONTINUOUS
 10
-1.985382
 20
-1.048409
  0
VERTEX
  8
EBENE_1
 62
     1
  6
CONTINUOUS
 10
-1.971661
 20
-1.067277
  0
VERTEX
  8
EBENE_1
 62
     1
  6
CONTINUOUS
 10
-1.961602
 20
-1.079503
  0
VERTEX
  8
EBENE_1
 62
     1
  6
CONTINUOUS
 10
-1.946583
 20
-1.095567
  0
SEQEND
  8
0
  0
POLYLINE
  8
EBENE_1
 62
     1
  6
CONTINUOUS
 66
     1
 40
0.003000
 41
0.003000
  0
VERTEX
  8
EBENE_1
 62
     1
  6
CONTINUOUS
 10
-1.946583
 20
-1.095567
  0
VERTEX
  8
EBENE_1
 62
     1
  6
CONTINUOUS
 10
-1.905330
 20
-1.121812
  0
VERTEX
  8
EBENE_1
 62
     1
  6
CONTINUOUS
 10
-1.860849
 20
-1.137458
  0
VERTEX
  8
EBENE_1
 62
     1
  6
CONTINUOUS
 10
-1.811583
 20
-1.144874
  0
SEQEND
  8
0
  0
POLYLINE
  8
EBENE_1
 62
     1
  6
CONTINUOUS
 66
     1
 40
0.003000
 41
0.003000
  0
VERTEX
  8
EBENE_1
 62
     1
  6
CONTINUOUS
 10
-1.811583
 20
-1.144874
  0
VERTEX
  8
EBENE_1
 62
     1
  6
CONTINUOUS
 10
-1.756743
 20
-1.138086
  0
VERTEX
  8
EBENE_1
 62
     1
  6
CONTINUOUS
 10
-1.708319
 20
-1.126322
  0
VERTEX
  8
EBENE_1
 62
     1
  6
CONTINUOUS
 10
-1.653665
 20
-1.108587
  0
SEQEND
  8
0
  0
POLYLINE
  8
EBENE_1
 62
     1
  6
CONTINUOUS
 66
     1
 40
0.003000
 41
0.003000
  0
VERTEX
  8
EBENE_1
 62
     1
  6
CONTINUOUS
 10
-1.653665
 20
-1.108587
  0
VERTEX
  8
EBENE_1
 62
     1
  6
CONTINUOUS
 10
-1.613437
 20
-1.084587
  0
VERTEX
  8
EBENE_1
 62
     1
  6
CONTINUOUS
 10
-1.563276
 20
-1.052802
  0
VERTEX
  8
EBENE_1
 62
     1
  6
CONTINUOUS
 10
-1.506960
 20
-1.017297
  0
VERTEX
  8
EBENE_1
 62
     1
  6
CONTINUOUS
 10
-1.448264
 20
-0.982137
  0
VERTEX
  8
EBENE_1
 62
     1
  6
CONTINUOUS
 10
-1.390968
 20
-0.951388
  0
VERTEX
  8
EBENE_1
 62
     1
  6
CONTINUOUS
 10
-1.338848
 20
-0.929117
  0
VERTEX
  8
EBENE_1
 62
     1
  6
CONTINUOUS
 10
-1.295681
 20
-0.919390
  0
SEQEND
  8
0
  0
POLYLINE
  8
EBENE_1
 62
     1
  6
CONTINUOUS
 66
     1
 40
0.003000
 41
0.003000
  0
VERTEX
  8
EBENE_1
 62
     1
  6
CONTINUOUS
 10
-1.295681
 20
-0.919390
  0
VERTEX
  8
EBENE_1
 62
     1
  6
CONTINUOUS
 10
-1.249239
 20
-0.910853
  0
VERTEX
  8
EBENE_1
 62
     1
  6
CONTINUOUS
 10
-1.223437
 20
-0.906618
  0
VERTEX
  8
EBENE_1
 62
     1
  6
CONTINUOUS
 10
-1.196157
 20
-0.903055
  0
SEQEND
  8
0
  0
POLYLINE
  8
EBENE_1
 62
     1
  6
CONTINUOUS
 66
     1
 40
0.003000
 41
0.003000
  0
VERTEX
  8
EBENE_1
 62
     1
  6
CONTINUOUS
 10
-1.196157
 20
-0.903055
  0
VERTEX
  8
EBENE_1
 62
     1
  6
CONTINUOUS
 10
-1.118494
 20
-0.894144
  0
VERTEX
  8
EBENE_1
 62
     1
  6
CONTINUOUS
 10
-1.046881
 20
-0.875264
  0
VERTEX
  8
EBENE_1
 62
     1
  6
CONTINUOUS
 10
-0.975732
 20
-0.845240
  0
SEQEND
  8
0
  0
POLYLINE
  8
EBENE_1
 62
     1
  6
CONTINUOUS
 66
     1
 40
0.003000
 41
0.003000
  0
VERTEX
  8
EBENE_1
 62
     1
  6
CONTINUOUS
 10
-0.975732
 20
-0.845240
  0
VERTEX
  8
EBENE_1
 62
     1
  6
CONTINUOUS
 10
-0.934611
 20
-0.813908
  0
VERTEX
  8
EBENE_1
 62
     1
  6
CONTINUOUS
 10
-0.896924
 20
-0.777272
  0
VERTEX
  8
EBENE_1
 62
     1
  6
CONTINUOUS
 10
-0.863831
 20
-0.736124
  0
VERTEX
  8
EBENE_1
 62
     1
  6
CONTINUOUS
 10
-0.836494
 20
-0.691253
  0
VERTEX
  8
EBENE_1
 62
     1
  6
CONTINUOUS
 10
-0.816075
 20
-0.643449
  0
VERTEX
  8
EBENE_1
 62
     1
  6
CONTINUOUS
 10
-0.803735
 20
-0.593503
  0
VERTEX
  8
EBENE_1
 62
     1
  6
CONTINUOUS
 10
-0.800636
 20
-0.542205
  0
VERTEX
  8
EBENE_1
 62
     1
  6
CONTINUOUS
 10
-0.807940
 20
-0.490345
  0
VERTEX
  8
EBENE_1
 62
     1
  6
CONTINUOUS
 10
-0.826807
 20
-0.438713
  0
SEQEND
  8
0
  0
POLYLINE
  8
EBENE_1
 62
     1
  6
CONTINUOUS
 66
     1
 40
0.003000
 41
0.003000
  0
VERTEX
  8
EBENE_1
 62
     1
  6
CONTINUOUS
 10
-0.826807
 20
-0.438713
  0
VERTEX
  8
EBENE_1
 62
     1
  6
CONTINUOUS
 10
-0.850239
 20
-0.411619
  0
VERTEX
  8
EBENE_1
 62
     1
  6
CONTINUOUS
 10
-0.881684
 20
-0.380577
  0
VERTEX
  8
EBENE_1
 62
     1
  6
CONTINUOUS
 10
-0.897630
 20
-0.364693
  0
SEQEND
  8
0
  0
POLYLINE
  8
EBENE_1
 62
     1
  6
CONTINUOUS
 66
     1
 40
0.003000
 41
0.003000
  0
VERTEX
  8
EBENE_1
 62
     1
  6
CONTINUOUS
 10
-0.897630
 20
-0.364693
  0
VERTEX
  8
EBENE_1
 62
     1
  6
CONTINUOUS
 10
-0.943491
 20
-0.342608
  0
VERTEX
  8
EBENE_1
 62
     1
  6
CONTINUOUS
 10
-0.980847
 20
-0.330230
  0
VERTEX
  8
EBENE_1
 62
     1
  6
CONTINUOUS
 10
-1.032693
 20
-0.321965
  0
SEQEND
  8
0
  0
POLYLINE
  8
EBENE_1
 62
     1
  6
CONTINUOUS
 66
     1
 40
0.003000
 41
0.003000
  0
VERTEX
  8
EBENE_1
 62
     1
  6
CONTINUOUS
 10
-1.032693
 20
-0.321965
  0
VERTEX
  8
EBENE_1
 62
     1
  6
CONTINUOUS
 10
-1.093753
 20
-0.333024
  0
VERTEX
  8
EBENE_1
 62
     1
  6
CONTINUOUS
 10
-1.146243
 20
-0.350350
  0
VERTEX
  8
EBENE_1
 62
     1
  6
CONTINUOUS
 10
-1.203280
 20
-0.370362
  0
SEQEND
  8
0
  0
POLYLINE
  8
EBENE_1
 62
     1
  6
CONTINUOUS
 66
     1
 40
0.003000
 41
0.003000
  0
VERTEX
  8
EBENE_1
 62
     1
  6
CONTINUOUS
 10
-1.203280
 20
-0.370362
  0
VERTEX
  8
EBENE_1
 62
     1
  6
CONTINUOUS
 10
-1.225744
 20
-0.383944
  0
VERTEX
  8
EBENE_1
 62
     1
  6
CONTINUOUS
 10
-1.247609
 20
-0.398395
  0
VERTEX
  8
EBENE_1
 62
     1
  6
CONTINUOUS
 10
-1.287614
 20
-0.426102
  0
SEQEND
  8
0
  0
POLYLINE
  8
EBENE_1
 62
     1
  6
CONTINUOUS
 66
     1
 40
0.003000
 41
0.003000
  0
VERTEX
  8
EBENE_1
 62
     1
  6
CONTINUOUS
 10
-1.287614
 20
-0.426102
  0
VERTEX
  8
EBENE_1
 62
     1
  6
CONTINUOUS
 10
-1.341847
 20
-0.472492
  0
VERTEX
  8
EBENE_1
 62
     1
  6
CONTINUOUS
 10
-1.396284
 20
-0.516974
  0
VERTEX
  8
EBENE_1
 62
     1
  6
CONTINUOUS
 10
-1.453913
 20
-0.558610
  0
SEQEND
  8
0
  0
POLYLINE
  8
EBENE_1
 62
     1
  6
CONTINUOUS
 66
     1
 40
0.003000
 41
0.003000
  0
VERTEX
  8
EBENE_1
 62
     1
  6
CONTINUOUS
 10
-1.453913
 20
-0.558610
  0
VERTEX
  8
EBENE_1
 62
     1
  6
CONTINUOUS
 10
-1.503032
 20
-0.576279
  0
VERTEX
  8
EBENE_1
 62
     1
  6
CONTINUOUS
 10
-1.560747
 20
-0.585826
  0
VERTEX
  8
EBENE_1
 62
     1
  6
CONTINUOUS
 10
-1.619581
 20
-0.582892
  0
VERTEX
  8
EBENE_1
 62
     1
  6
CONTINUOUS
 10
-1.672057
 20
-0.563112
  0
VERTEX
  8
EBENE_1
 62
     1
  6
CONTINUOUS
 10
-1.710697
 20
-0.522126
  0
SEQEND
  8
0
  0
POLYLINE
  8
EBENE_1
 62
     1
  6
CONTINUOUS
 66
     1
 40
0.003000
 41
0.003000
  0
VERTEX
  8
EBENE_1
 62
     1
  6
CONTINUOUS
 10
-1.710697
 20
-0.522126
  0
VERTEX
  8
EBENE_1
 62
     1
  6
CONTINUOUS
 10
-1.682183
 20
-0.494592
  0
VERTEX
  8
EBENE_1
 62
     1
  6
CONTINUOUS
 10
-1.638669
 20
-0.468227
  0
VERTEX
  8
EBENE_1
 62
     1
  6
CONTINUOUS
 10
-1.601047
 20
-0.446024
  0
SEQEND
  8
0
  0
POLYLINE
  8
EBENE_1
 62
     1
  6
CONTINUOUS
 66
     1
 40
0.003000
 41
0.003000
  0
VERTEX
  8
EBENE_1
 62
     1
  6
CONTINUOUS
 10
-1.601047
 20
-0.446024
  0
VERTEX
  8
EBENE_1
 62
     1
  6
CONTINUOUS
 10
-1.592125
 20
-0.386264
  0
VERTEX
  8
EBENE_1
 62
     1
  6
CONTINUOUS
 10
-1.587488
 20
-0.324321
  0
VERTEX
  8
EBENE_1
 62
     1
  6
CONTINUOUS
 10
-1.586563
 20
-0.262372
  0
VERTEX
  8
EBENE_1
 62
     1
  6
CONTINUOUS
 10
-1.588776
 20
-0.202594
  0
SEQEND
  8
0
  0
POLYLINE
  8
EBENE_1
 62
     1
  6
CONTINUOUS
 66
     1
 40
0.003000
 41
0.003000
  0
VERTEX
  8
EBENE_1
 62
     1
  6
CONTINUOUS
 10
-1.588776
 20
-0.202594
  0
VERTEX
  8
EBENE_1
 62
     1
  6
CONTINUOUS
 10
-1.597934
 20
-0.166432
  0
VERTEX
  8
EBENE_1
 62
     1
  6
CONTINUOUS
 10
-1.605728
 20
-0.108358
  0
VERTEX
  8
EBENE_1
 62
     1
  6
CONTINUOUS
 10
-1.608327
 20
-0.069862
  0
SEQEND
  8
0
  0
POLYLINE
  8
EBENE_1
 62
     1
  6
CONTINUOUS
 66
     1
 40
0.003000
 41
0.003000
  0
VERTEX
  8
EBENE_1
 62
     1
  6
CONTINUOUS
 10
-1.608327
 20
-0.069862
  0
VERTEX
  8
EBENE_1
 62
     1
  6
CONTINUOUS
 10
-1.610880
 20
-0.061900
  0
VERTEX
  8
EBENE_1
 62
     1
  6
CONTINUOUS
 10
-1.618103
 20
-0.031480
  0
VERTEX
  8
EBENE_1
 62
     1
  6
CONTINUOUS
 10
-1.637071
 20
0.044429
  0
SEQEND
  8
0
  0
POLYLINE
  8
EBENE_1
 62
     1
  6
CONTINUOUS
 66
     1
 40
0.003000
 41
0.003000
  0
VERTEX
  8
EBENE_1
 62
     1
  6
CONTINUOUS
 10
-1.637071
 20
0.044429
  0
VERTEX
  8
EBENE_1
 62
     1
  6
CONTINUOUS
 10
-1.647080
 20
0.072575
  0
VERTEX
  8
EBENE_1
 62
     1
  6
CONTINUOUS
 10
-1.657115
 20
0.100643
  0
VERTEX
  8
EBENE_1
 62
     1
  6
CONTINUOUS
 10
-1.667161
 20
0.128673
  0
SEQEND
  8
0
  0
POLYLINE
  8
EBENE_1
 62
     1
  6
CONTINUOUS
 66
     1
 40
0.003000
 41
0.003000
  0
VERTEX
  8
EBENE_1
 62
     1
  6
CONTINUOUS
 10
-1.667161
 20
0.128673
  0
VERTEX
  8
EBENE_1
 62
     1
  6
CONTINUOUS
 10
-1.696541
 20
0.188202
  0
VERTEX
  8
EBENE_1
 62
     1
  6
CONTINUOUS
 10
-1.728909
 20
0.244538
  0
VERTEX
  8
EBENE_1
 62
     1
  6
CONTINUOUS
 10
-1.764280
 20
0.298579
  0
VERTEX
  8
EBENE_1
 62
     1
  6
CONTINUOUS
 10
-1.802665
 20
0.351220
  0
SEQEND
  8
0
  0
POLYLINE
  8
EBENE_1
 62
     1
  6
CONTINUOUS
 66
     1
 40
0.003000
 41
0.003000
  0
VERTEX
  8
EBENE_1
 62
     1
  6
CONTINUOUS
 10
-1.802665
 20
0.351220
  0
VERTEX
  8
EBENE_1
 62
     1
  6
CONTINUOUS
 10
-1.827711
 20
0.379369
  0
VERTEX
  8
EBENE_1
 62
     1
  6
CONTINUOUS
 10
-1.852760
 20
0.407516
  0
VERTEX
  8
EBENE_1
 62
     1
  6
CONTINUOUS
 10
-1.877811
 20
0.435661
  0
SEQEND
  8
0
  0
POLYLINE
  8
EBENE_1
 62
     1
  6
CONTINUOUS
 66
     1
 40
0.003000
 41
0.003000
  0
VERTEX
  8
EBENE_1
 62
     1
  6
CONTINUOUS
 10
-1.877811
 20
0.435661
  0
VERTEX
  8
EBENE_1
 62
     1
  6
CONTINUOUS
 10
-1.878598
 20
0.463562
  0
VERTEX
  8
EBENE_1
 62
     1
  6
CONTINUOUS
 10
-1.875292
 20
0.487898
  0
VERTEX
  8
EBENE_1
 62
     1
  6
CONTINUOUS
 10
-1.868329
 20
0.508941
  0
VERTEX
  8
EBENE_1
 62
     1
  6
CONTINUOUS
 10
-1.858142
 20
0.526964
  0
VERTEX
  8
EBENE_1
 62
     1
  6
CONTINUOUS
 10
-1.845167
 20
0.542236
  0
VERTEX
  8
EBENE_1
 62
     1
  6
CONTINUOUS
 10
-1.829837
 20
0.555031
  0
VERTEX
  8
EBENE_1
 62
     1
  6
CONTINUOUS
 10
-1.812587
 20
0.565620
  0
VERTEX
  8
EBENE_1
 62
     1
  6
CONTINUOUS
 10
-1.793852
 20
0.574275
  0
VERTEX
  8
EBENE_1
 62
     1
  6
CONTINUOUS
 10
-1.774066
 20
0.581268
  0
VERTEX
  8
EBENE_1
 62
     1
  6
CONTINUOUS
 10
-1.753663
 20
0.586869
  0
VERTEX
  8
EBENE_1
 62
     1
  6
CONTINUOUS
 10
-1.733077
 20
0.591351
  0
VERTEX
  8
EBENE_1
 62
     1
  6
CONTINUOUS
 10
-1.712744
 20
0.594986
  0
VERTEX
  8
EBENE_1
 62
     1
  6
CONTINUOUS
 10
-1.693098
 20
0.598046
  0
VERTEX
  8
EBENE_1
 62
     1
  6
CONTINUOUS
 10
-1.674573
 20
0.600801
  0
VERTEX
  8
EBENE_1
 62
     1
  6
CONTINUOUS
 10
-1.657604
 20
0.603524
  0
VERTEX
  8
EBENE_1
 62
     1
  6
CONTINUOUS
 10
-1.642625
 20
0.606487
  0
VERTEX
  8
EBENE_1
 62
     1
  6
CONTINUOUS
 10
-1.630070
 20
0.609961
  0
VERTEX
  8
EBENE_1
 62
     1
  6
CONTINUOUS
 10
-1.620374
 20
0.614217
  0
VERTEX
  8
EBENE_1
 62
     1
  6
CONTINUOUS
 10
-1.613972
 20
0.619529
  0
VERTEX
  8
EBENE_1
 62
     1
  6
CONTINUOUS
 10
-1.611298
 20
0.626166
  0
VERTEX
  8
EBENE_1
 62
     1
  6
CONTINUOUS
 10
-1.612785
 20
0.634402
  0
VERTEX
  8
EBENE_1
 62
     1
  6
CONTINUOUS
 10
-1.618870
 20
0.644508
  0
VERTEX
  8
EBENE_1
 62
     1
  6
CONTINUOUS
 10
-1.629986
 20
0.656755
  0
VERTEX
  8
EBENE_1
 62
     1
  6
CONTINUOUS
 10
-1.646568
 20
0.671415
  0
VERTEX
  8
EBENE_1
 62
     1
  6
CONTINUOUS
 10
-1.669050
 20
0.688760
  0
VERTEX
  8
EBENE_1
 62
     1
  6
CONTINUOUS
 10
-1.697866
 20
0.709062
  0
VERTEX
  8
EBENE_1
 62
     1
  6
CONTINUOUS
 10
-1.733451
 20
0.732592
  0
VERTEX
  8
EBENE_1
 62
     1
  6
CONTINUOUS
 10
-1.776240
 20
0.759622
  0
SEQEND
  8
0
  0
POLYLINE
  8
EBENE_1
 62
     1
  6
CONTINUOUS
 66
     1
 40
0.003000
 41
0.003000
  0
VERTEX
  8
EBENE_1
 62
     1
  6
CONTINUOUS
 10
-1.776240
 20
0.759622
  0
VERTEX
  8
EBENE_1
 62
     1
  6
CONTINUOUS
 10
-1.716790
 20
0.781330
  0
VERTEX
  8
EBENE_1
 62
     1
  6
CONTINUOUS
 10
-1.655710
 20
0.802483
  0
VERTEX
  8
EBENE_1
 62
     1
  6
CONTINUOUS
 10
-1.594535
 20
0.825524
  0
SEQEND
  8
0
  0
POLYLINE
  8
EBENE_1
 62
     1
  6
CONTINUOUS
 66
     1
 40
0.003000
 41
0.003000
  0
VERTEX
  8
EBENE_1
 62
     1
  6
CONTINUOUS
 10
-1.594535
 20
0.825524
  0
VERTEX
  8
EBENE_1
 62
     1
  6
CONTINUOUS
 10
-1.554773
 20
0.837671
  0
VERTEX
  8
EBENE_1
 62
     1
  6
CONTINUOUS
 10
-1.506370
 20
0.863522
  0
VERTEX
  8
EBENE_1
 62
     1
  6
CONTINUOUS
 10
-1.477815
 20
0.894992
  0
SEQEND
  8
0
  0
POLYLINE
  8
EBENE_1
 62
     1
  6
CONTINUOUS
 66
     1
 40
0.003000
 41
0.003000
  0
VERTEX
  8
EBENE_1
 62
     1
  6
CONTINUOUS
 10
-1.477815
 20
0.894992
  0
VERTEX
  8
EBENE_1
 62
     1
  6
CONTINUOUS
 10
-1.483491
 20
0.928539
  0
VERTEX
  8
EBENE_1
 62
     1
  6
CONTINUOUS
 10
-1.488983
 20
0.964976
  0
VERTEX
  8
EBENE_1
 62
     1
  6
CONTINUOUS
 10
-1.488441
 20
0.998374
  0
SEQEND
  8
0
  0
POLYLINE
  8
EBENE_1
 62
     1
  6
CONTINUOUS
 66
     1
 40
0.003000
 41
0.003000
  0
VERTEX
  8
EBENE_1
 62
     1
  6
CONTINUOUS
 10
-1.488441
 20
0.998374
  0
VERTEX
  8
EBENE_1
 62
     1
  6
CONTINUOUS
 10
-1.461535
 20
1.000323
  0
VERTEX
  8
EBENE_1
 62
     1
  6
CONTINUOUS
 10
-1.432034
 20
1.001530
  0
VERTEX
  8
EBENE_1
 62
     1
  6
CONTINUOUS
 10
-1.405626
 20
0.997524
  0
SEQEND
  8
0
  0
POLYLINE
  8
EBENE_1
 62
     1
  6
CONTINUOUS
 66
     1
 40
0.003000
 41
0.003000
  0
VERTEX
  8
EBENE_1
 62
     1
  6
CONTINUOUS
 10
-1.405626
 20
0.997524
  0
VERTEX
  8
EBENE_1
 62
     1
  6
CONTINUOUS
 10
-1.399450
 20
0.975192
  0
VERTEX
  8
EBENE_1
 62
     1
  6
CONTINUOUS
 10
-1.397038
 20
0.953911
  0
VERTEX
  8
EBENE_1
 62
     1
  6
CONTINUOUS
 10
-1.390783
 20
0.931441
  0
SEQEND
  8
0
  0
POLYLINE
  8
EBENE_1
 62
     1
  6
CONTINUOUS
 66
     1
 40
0.003000
 41
0.003000
  0
VERTEX
  8
EBENE_1
 62
     1
  6
CONTINUOUS
 10
-1.390783
 20
0.931441
  0
VERTEX
  8
EBENE_1
 62
     1
  6
CONTINUOUS
 10
-1.377703
 20
0.891718
  0
VERTEX
  8
EBENE_1
 62
     1
  6
CONTINUOUS
 10
-1.364619
 20
0.851994
  0
VERTEX
  8
EBENE_1
 62
     1
  6
CONTINUOUS
 10
-1.351535
 20
0.812272
  0
SEQEND
  8
0
  0
POLYLINE
  8
EBENE_1
 62
     1
  6
CONTINUOUS
 66
     1
 40
0.003000
 41
0.003000
  0
VERTEX
  8
EBENE_1
 62
     1
  6
CONTINUOUS
 10
-1.351535
 20
0.812272
  0
VERTEX
  8
EBENE_1
 62
     1
  6
CONTINUOUS
 10
-1.348647
 20
0.793312
  0
VERTEX
  8
EBENE_1
 62
     1
  6
CONTINUOUS
 10
-1.341348
 20
0.751968
  0
VERTEX
  8
EBENE_1
 62
     1
  6
CONTINUOUS
 10
-1.331764
 20
0.692315
  0
SEQEND
  8
0
  0
POLYLINE
  8
EBENE_1
 62
     1
  6
CONTINUOUS
 66
     1
 40
0.003000
 41
0.003000
  0
VERTEX
  8
EBENE_1
 62
     1
  6
CONTINUOUS
 10
-1.331764
 20
0.692315
  0
VERTEX
  8
EBENE_1
 62
     1
  6
CONTINUOUS
 10
-1.325581
 20
0.547528
  0
VERTEX
  8
EBENE_1
 62
     1
  6
CONTINUOUS
 10
-1.322636
 20
0.464413
  0
VERTEX
  8
EBENE_1
 62
     1
  6
CONTINUOUS
 10
-1.321305
 20
0.425891
  0
VERTEX
  8
EBENE_1
 62
     1
  6
CONTINUOUS
 10
-1.319961
 20
0.414882
  0
SEQEND
  8
0
  0
POLYLINE
  8
EBENE_1
 62
     1
  6
CONTINUOUS
 66
     1
 40
0.003000
 41
0.003000
  0
VERTEX
  8
EBENE_1
 62
     1
  6
CONTINUOUS
 10
-1.319961
 20
0.414882
  0
VERTEX
  8
EBENE_1
 62
     1
  6
CONTINUOUS
 10
-1.279692
 20
0.410822
  0
VERTEX
  8
EBENE_1
 62
     1
  6
CONTINUOUS
 10
-1.226857
 20
0.408999
  0
VERTEX
  8
EBENE_1
 62
     1
  6
CONTINUOUS
 10
-1.188657
 20
0.415134
  0
SEQEND
  8
0
  0
POLYLINE
  8
EBENE_1
 62
     1
  6
CONTINUOUS
 66
     1
 40
0.003000
 41
0.003000
  0
VERTEX
  8
EBENE_1
 62
     1
  6
CONTINUOUS
 10
-1.188657
 20
0.415134
  0
VERTEX
  8
EBENE_1
 62
     1
  6
CONTINUOUS
 10
-1.182566
 20
0.467563
  0
VERTEX
  8
EBENE_1
 62
     1
  6
CONTINUOUS
 10
-1.180399
 20
0.517485
  0
VERTEX
  8
EBENE_1
 62
     1
  6
CONTINUOUS
 10
-1.180625
 20
0.565554
  0
VERTEX
  8
EBENE_1
 62
     1
  6
CONTINUOUS
 10
-1.181714
 20
0.612422
  0
VERTEX
  8
EBENE_1
 62
     1
  6
CONTINUOUS
 10
-1.182137
 20
0.658744
  0
VERTEX
  8
EBENE_1
 62
     1
  6
CONTINUOUS
 10
-1.180362
 20
0.705173
  0
VERTEX
  8
EBENE_1
 62
     1
  6
CONTINUOUS
 10
-1.174860
 20
0.752364
  0
VERTEX
  8
EBENE_1
 62
     1
  6
CONTINUOUS
 10
-1.164101
 20
0.800968
  0
VERTEX
  8
EBENE_1
 62
     1
  6
CONTINUOUS
 10
-1.146554
 20
0.851641
  0
VERTEX
  8
EBENE_1
 62
     1
  6
CONTINUOUS
 10
-1.120689
 20
0.905035
  0
SEQEND
  8
0
  0
POLYLINE
  8
EBENE_1
 62
     1
  6
CONTINUOUS
 66
     1
 40
0.003000
 41
0.003000
  0
VERTEX
  8
EBENE_1
 62
     1
  6
CONTINUOUS
 10
-1.120689
 20
0.905035
  0
VERTEX
  8
EBENE_1
 62
     1
  6
CONTINUOUS
 10
-1.102458
 20
0.930051
  0
VERTEX
  8
EBENE_1
 62
     1
  6
CONTINUOUS
 10
-1.090422
 20
0.945205
  0
VERTEX
  8
EBENE_1
 62
     1
  6
CONTINUOUS
 10
-1.074264
 20
0.963488
  0
SEQEND
  8
0
  0
POLYLINE
  8
EBENE_1
 62
     1
  6
CONTINUOUS
 66
     1
 40
0.003000
 41
0.003000
  0
VERTEX
  8
EBENE_1
 62
     1
  6
CONTINUOUS
 10
-1.074264
 20
0.963488
  0
VERTEX
  8
EBENE_1
 62
     1
  6
CONTINUOUS
 10
-1.024685
 20
1.013759
  0
VERTEX
  8
EBENE_1
 62
     1
  6
CONTINUOUS
 10
-0.979469
 20
1.063780
  0
VERTEX
  8
EBENE_1
 62
     1
  6
CONTINUOUS
 10
-0.934840
 20
1.114384
  0
VERTEX
  8
EBENE_1
 62
     1
  6
CONTINUOUS
 10
-0.887020
 20
1.166402
  0
SEQEND
  8
0
  0
POLYLINE
  8
EBENE_1
 62
     1
  6
CONTINUOUS
 66
     1
 40
0.003000
 41
0.003000
  0
VERTEX
  8
EBENE_1
 62
     1
  6
CONTINUOUS
 10
-0.887020
 20
1.166402
  0
VERTEX
  8
EBENE_1
 62
     1
  6
CONTINUOUS
 10
-0.862115
 20
1.198087
  0
VERTEX
  8
EBENE_1
 62
     1
  6
CONTINUOUS
 10
-0.837759
 20
1.230132
  0
VERTEX
  8
EBENE_1
 62
     1
  6
CONTINUOUS
 10
-0.814854
 20
1.262516
  0
SEQEND
  8
0
  0
POLYLINE
  8
EBENE_1
 62
     1
  6
CONTINUOUS
 66
     1
 40
0.003000
 41
0.003000
  0
VERTEX
  8
EBENE_1
 62
     1
  6
CONTINUOUS
 10
-0.814854
 20
1.262516
  0
VERTEX
  8
EBENE_1
 62
     1
  6
CONTINUOUS
 10
-0.780886
 20
1.319093
  0
VERTEX
  8
EBENE_1
 62
     1
  6
CONTINUOUS
 10
-0.738341
 20
1.377865
  0
VERTEX
  8
EBENE_1
 62
     1
  6
CONTINUOUS
 10
-0.696037
 20
1.435676
  0
VERTEX
  8
EBENE_1
 62
     1
  6
CONTINUOUS
 10
-0.662795
 20
1.489370
  0
SEQEND
  8
0
  0
POLYLINE
  8
EBENE_1
 62
     1
  6
CONTINUOUS
 66
     1
 40
0.003000
 41
0.003000
  0
VERTEX
  8
EBENE_1
 62
     1
  6
CONTINUOUS
 10
-0.662795
 20
1.489370
  0
VERTEX
  8
EBENE_1
 62
     1
  6
CONTINUOUS
 10
-0.625219
 20
1.551074
  0
VERTEX
  8
EBENE_1
 62
     1
  6
CONTINUOUS
 10
-0.584736
 20
1.609103
  0
VERTEX
  8
EBENE_1
 62
     1
  6
CONTINUOUS
 10
-0.540385
 20
1.663985
  0
VERTEX
  8
EBENE_1
 62
     1
  6
CONTINUOUS
 10
-0.491205
 20
1.716248
  0
SEQEND
  8
0
  0
POLYLINE
  8
EBENE_1
 62
     1
  6
CONTINUOUS
 66
     1
 40
0.003000
 41
0.003000
  0
VERTEX
  8
EBENE_1
 62
     1
  6
CONTINUOUS
 10
-0.491205
 20
1.716248
  0
VERTEX
  8
EBENE_1
 62
     1
  6
CONTINUOUS
 10
-0.472516
 20
1.730773
  0
VERTEX
  8
EBENE_1
 62
     1
  6
CONTINUOUS
 10
-0.455463
 20
1.745567
  0
VERTEX
  8
EBENE_1
 62
     1
  6
CONTINUOUS
 10
-0.440701
 20
1.763425
  0
SEQEND
  8
0
  0
POLYLINE
  8
EBENE_1
 62
     1
  6
CONTINUOUS
 66
     1
 40
0.003000
 41
0.003000
  0
VERTEX
  8
EBENE_1
 62
     1
  6
CONTINUOUS
 10
-0.440701
 20
1.763425
  0
VERTEX
  8
EBENE_1
 62
     1
  6
CONTINUOUS
 10
-0.500792
 20
1.768936
  0
VERTEX
  8
EBENE_1
 62
     1
  6
CONTINUOUS
 10
-0.561660
 20
1.765401
  0
VERTEX
  8
EBENE_1
 62
     1
  6
CONTINUOUS
 10
-0.622300
 20
1.755102
  0
VERTEX
  8
EBENE_1
 62
     1
  6
CONTINUOUS
 10
-0.681710
 20
1.740320
  0
VERTEX
  8
EBENE_1
 62
     1
  6
CONTINUOUS
 10
-0.738886
 20
1.723335
  0
SEQEND
  8
0
  0
POLYLINE
  8
EBENE_1
 62
     1
  6
CONTINUOUS
 66
     1
 40
0.003000
 41
0.003000
  0
VERTEX
  8
EBENE_1
 62
     1
  6
CONTINUOUS
 10
-0.738886
 20
1.723335
  0
VERTEX
  8
EBENE_1
 62
     1
  6
CONTINUOUS
 10
-0.776917
 20
1.704212
  0
VERTEX
  8
EBENE_1
 62
     1
  6
CONTINUOUS
 10
-0.813945
 20
1.679751
  0
VERTEX
  8
EBENE_1
 62
     1
  6
CONTINUOUS
 10
-0.875677
 20
1.640594
  0
SEQEND
  8
0
  0
POLYLINE
  8
EBENE_1
 62
     1
  6
CONTINUOUS
 66
     1
 40
0.003000
 41
0.003000
  0
VERTEX
  8
EBENE_1
 62
     1
  6
CONTINUOUS
 10
-0.875677
 20
1.640594
  0
VERTEX
  8
EBENE_1
 62
     1
  6
CONTINUOUS
 10
-0.852880
 20
1.693686
  0
VERTEX
  8
EBENE_1
 62
     1
  6
CONTINUOUS
 10
-0.820622
 20
1.759044
  0
VERTEX
  8
EBENE_1
 62
     1
  6
CONTINUOUS
 10
-0.789087
 20
1.801476
  0
SEQEND
  8
0
  0
POLYLINE
  8
EBENE_1
 62
     1
  6
CONTINUOUS
 66
     1
 40
0.003000
 41
0.003000
  0
VERTEX
  8
EBENE_1
 62
     1
  6
CONTINUOUS
 10
-0.789087
 20
1.801476
  0
VERTEX
  8
EBENE_1
 62
     1
  6
CONTINUOUS
 10
-0.729540
 20
1.795541
  0
VERTEX
  8
EBENE_1
 62
     1
  6
CONTINUOUS
 10
-0.670797
 20
1.794852
  0
VERTEX
  8
EBENE_1
 62
     1
  6
CONTINUOUS
 10
-0.610602
 20
1.800469
  0
SEQEND
  8
0
  0
POLYLINE
  8
EBENE_1
 62
     1
  6
CONTINUOUS
 66
     1
 40
0.003000
 41
0.003000
  0
VERTEX
  8
EBENE_1
 62
     1
  6
CONTINUOUS
 10
-0.610602
 20
1.800469
  0
VERTEX
  8
EBENE_1
 62
     1
  6
CONTINUOUS
 10
-0.584421
 20
1.809214
  0
VERTEX
  8
EBENE_1
 62
     1
  6
CONTINUOUS
 10
-0.558238
 20
1.817962
  0
VERTEX
  8
EBENE_1
 62
     1
  6
CONTINUOUS
 10
-0.532051
 20
1.826713
  0
SEQEND
  8
0
  0
POLYLINE
  8
EBENE_1
 62
     1
  6
CONTINUOUS
 66
     1
 40
0.003000
 41
0.003000
  0
VERTEX
  8
EBENE_1
 62
     1
  6
CONTINUOUS
 10
-0.532051
 20
1.826713
  0
VERTEX
  8
EBENE_1
 62
     1
  6
CONTINUOUS
 10
-0.461680
 20
1.860066
  0
VERTEX
  8
EBENE_1
 62
     1
  6
CONTINUOUS
 10
-0.408242
 20
1.905427
  0
VERTEX
  8
EBENE_1
 62
     1
  6
CONTINUOUS
 10
-0.367544
 20
1.954785
  0
VERTEX
  8
EBENE_1
 62
     1
  6
CONTINUOUS
 10
-0.335394
 20
2.000130
  0
SEQEND
  8
0
  0
POLYLINE
  8
EBENE_1
 62
     1
  6
CONTINUOUS
 66
     1
 40
0.003000
 41
0.003000
  0
VERTEX
  8
EBENE_1
 62
     1
  6
CONTINUOUS
 10
-0.335394
 20
2.000130
  0
VERTEX
  8
EBENE_1
 62
     1
  6
CONTINUOUS
 10
-0.316334
 20
2.033069
  0
VERTEX
  8
EBENE_1
 62
     1
  6
CONTINUOUS
 10
-0.297297
 20
2.065934
  0
VERTEX
  8
EBENE_1
 62
     1
  6
CONTINUOUS
 10
-0.278272
 20
2.098760
  0
SEQEND
  8
0
  0
POLYLINE
  8
EBENE_1
 62
     1
  6
CONTINUOUS
 66
     1
 40
0.003000
 41
0.003000
  0
VERTEX
  8
EBENE_1
 62
     1
  6
CONTINUOUS
 10
-0.278272
 20
2.098760
  0
VERTEX
  8
EBENE_1
 62
     1
  6
CONTINUOUS
 10
-0.264302
 20
2.128270
  0
VERTEX
  8
EBENE_1
 62
     1
  6
CONTINUOUS
 10
-0.255437
 20
2.145768
  0
VERTEX
  8
EBENE_1
 62
     1
  6
CONTINUOUS
 10
-0.244079
 20
2.166252
  0
SEQEND
  8
0
  0
POLYLINE
  8
EBENE_1
 62
     1
  6
CONTINUOUS
 66
     1
 40
0.003000
 41
0.003000
  0
VERTEX
  8
EBENE_1
 62
     1
  6
CONTINUOUS
 10
-0.244079
 20
2.166252
  0
VERTEX
  8
EBENE_1
 62
     1
  6
CONTINUOUS
 10
-0.209615
 20
2.213016
  0
VERTEX
  8
EBENE_1
 62
     1
  6
CONTINUOUS
 10
-0.172589
 20
2.255943
  0
VERTEX
  8
EBENE_1
 62
     1
  6
CONTINUOUS
 10
-0.132508
 20
2.297169
  0
SEQEND
  8
0
  0
POLYLINE
  8
EBENE_1
 62
     1
  6
CONTINUOUS
 66
     1
 40
0.003000
 41
0.003000
  0
VERTEX
  8
EBENE_1
 62
     1
  6
CONTINUOUS
 10
-0.132508
 20
2.297169
  0
VERTEX
  8
EBENE_1
 62
     1
  6
CONTINUOUS
 10
-0.080253
 20
2.337459
  0
VERTEX
  8
EBENE_1
 62
     1
  6
CONTINUOUS
 10
-0.027846
 20
2.368886
  0
VERTEX
  8
EBENE_1
 62
     1
  6
CONTINUOUS
 10
0.032232
 20
2.395118
  0
SEQEND
  8
0
  0
POLYLINE
  8
EBENE_1
 62
     1
  6
CONTINUOUS
 66
     1
 40
0.003000
 41
0.003000
  0
VERTEX
  8
EBENE_1
 62
     1
  6
CONTINUOUS
 10
0.032232
 20
2.395118
  0
VERTEX
  8
EBENE_1
 62
     1
  6
CONTINUOUS
 10
0.053274
 20
2.398758
  0
VERTEX
  8
EBENE_1
 62
     1
  6
CONTINUOUS
 10
0.080074
 20
2.405417
  0
VERTEX
  8
EBENE_1
 62
     1
  6
CONTINUOUS
 10
0.097606
 20
2.417650
  0
SEQEND
  8
0
  0
POLYLINE
  8
EBENE_1
 62
     1
  6
CONTINUOUS
 66
     1
 40
0.003000
 41
0.003000
  0
VERTEX
  8
EBENE_1
 62
     1
  6
CONTINUOUS
 10
0.097606
 20
2.417650
  0
VERTEX
  8
EBENE_1
 62
     1
  6
CONTINUOUS
 10
0.035020
 20
2.441591
  0
VERTEX
  8
EBENE_1
 62
     1
  6
CONTINUOUS
 10
-0.027030
 20
2.460203
  0
VERTEX
  8
EBENE_1
 62
     1
  6
CONTINUOUS
 10
-0.089228
 20
2.475354
  0
SEQEND
  8
0
  0
POLYLINE
  8
EBENE_1
 62
     1
  6
CONTINUOUS
 66
     1
 40
0.003000
 41
0.003000
  0
VERTEX
  8
EBENE_1
 62
     1
  6
CONTINUOUS
 10
-0.089228
 20
2.475354
  0
VERTEX
  8
EBENE_1
 62
     1
  6
CONTINUOUS
 10
-0.164840
 20
2.483105
  0
VERTEX
  8
EBENE_1
 62
     1
  6
CONTINUOUS
 10
-0.247262
 20
2.489081
  0
VERTEX
  8
EBENE_1
 62
     1
  6
CONTINUOUS
 10
-0.322535
 20
2.487449
  0
SEQEND
  8
0
  0
POLYLINE
  8
EBENE_1
 62
     1
  6
CONTINUOUS
 66
     1
 40
0.003000
 41
0.003000
  0
VERTEX
  8
EBENE_1
 62
     1
  6
CONTINUOUS
 10
-0.322535
 20
2.487449
  0
VERTEX
  8
EBENE_1
 62
     1
  6
CONTINUOUS
 10
-0.346944
 20
2.480211
  0
VERTEX
  8
EBENE_1
 62
     1
  6
CONTINUOUS
 10
-0.382049
 20
2.473549
  0
VERTEX
  8
EBENE_1
 62
     1
  6
CONTINUOUS
 10
-0.404114
 20
2.482437
  0
SEQEND
  8
0
  0
POLYLINE
  8
EBENE_1
 62
     1
  6
CONTINUOUS
 66
     1
 40
0.003000
 41
0.003000
  0
VERTEX
  8
EBENE_1
 62
     1
  6
CONTINUOUS
 10
-0.404114
 20
2.482437
  0
VERTEX
  8
EBENE_1
 62
     1
  6
CONTINUOUS
 10
-0.393249
 20
2.542494
  0
VERTEX
  8
EBENE_1
 62
     1
  6
CONTINUOUS
 10
-0.382502
 20
2.602145
  0
VERTEX
  8
EBENE_1
 62
     1
  6
CONTINUOUS
 10
-0.372390
 20
2.661716
  0
VERTEX
  8
EBENE_1
 62
     1
  6
CONTINUOUS
 10
-0.363433
 20
2.721534
  0
VERTEX
  8
EBENE_1
 62
     1
  6
CONTINUOUS
 10
-0.356150
 20
2.781925
  0
SEQEND
  8
0
  0
POLYLINE
  8
EBENE_1
 62
     1
  6
CONTINUOUS
 66
     1
 40
0.003000
 41
0.003000
  0
VERTEX
  8
EBENE_1
 62
     1
  6
CONTINUOUS
 10
-0.356150
 20
2.781925
  0
VERTEX
  8
EBENE_1
 62
     1
  6
CONTINUOUS
 10
-0.409642
 20
2.741903
  0
VERTEX
  8
EBENE_1
 62
     1
  6
CONTINUOUS
 10
-0.463258
 20
2.702620
  0
VERTEX
  8
EBENE_1
 62
     1
  6
CONTINUOUS
 10
-0.516942
 20
2.663931
  0
VERTEX
  8
EBENE_1
 62
     1
  6
CONTINUOUS
 10
-0.570644
 20
2.625688
  0
VERTEX
  8
EBENE_1
 62
     1
  6
CONTINUOUS
 10
-0.624311
 20
2.587744
  0
SEQEND
  8
0
  0
POLYLINE
  8
EBENE_1
 62
     1
  6
CONTINUOUS
 66
     1
 40
0.003000
 41
0.003000
  0
VERTEX
  8
EBENE_1
 62
     1
  6
CONTINUOUS
 10
-0.624311
 20
2.587744
  0
VERTEX
  8
EBENE_1
 62
     1
  6
CONTINUOUS
 10
-0.657860
 20
2.624105
  0
VERTEX
  8
EBENE_1
 62
     1
  6
CONTINUOUS
 10
-0.701462
 20
2.694897
  0
VERTEX
  8
EBENE_1
 62
     1
  6
CONTINUOUS
 10
-0.729949
 20
2.747551
  0
SEQEND
  8
0
  0
POLYLINE
  8
EBENE_1
 62
     1
  6
CONTINUOUS
 66
     1
 40
0.003000
 41
0.003000
  0
VERTEX
  8
EBENE_1
 62
     1
  6
CONTINUOUS
 10
-0.729949
 20
2.747551
  0
VERTEX
  8
EBENE_1
 62
     1
  6
CONTINUOUS
 10
-0.762141
 20
2.795015
  0
VERTEX
  8
EBENE_1
 62
     1
  6
CONTINUOUS
 10
-0.803872
 20
2.854254
  0
VERTEX
  8
EBENE_1
 62
     1
  6
CONTINUOUS
 10
-0.849570
 20
2.909064
  0
VERTEX
  8
EBENE_1
 62
     1
  6
CONTINUOUS
 10
-0.893665
 20
2.943240
  0
SEQEND
  8
0
  0
POLYLINE
  8
EBENE_1
 62
     1
  6
CONTINUOUS
 66
     1
 40
0.003000
 41
0.003000
  0
VERTEX
  8
EBENE_1
 62
     1
  6
CONTINUOUS
 10
-0.893665
 20
2.943240
  0
VERTEX
  8
EBENE_1
 62
     1
  6
CONTINUOUS
 10
-0.883688
 20
2.898466
  0
VERTEX
  8
EBENE_1
 62
     1
  6
CONTINUOUS
 10
-0.882471
 20
2.848444
  0
VERTEX
  8
EBENE_1
 62
     1
  6
CONTINUOUS
 10
-0.888537
 20
2.794986
  0
VERTEX
  8
EBENE_1
 62
     1
  6
CONTINUOUS
 10
-0.900409
 20
2.739904
  0
VERTEX
  8
EBENE_1
 62
     1
  6
CONTINUOUS
 10
-0.916610
 20
2.685010
  0
VERTEX
  8
EBENE_1
 62
     1
  6
CONTINUOUS
 10
-0.935660
 20
2.632115
  0
VERTEX
  8
EBENE_1
 62
     1
  6
CONTINUOUS
 10
-0.956083
 20
2.583032
  0
VERTEX
  8
EBENE_1
 62
     1
  6
CONTINUOUS
 10
-0.976402
 20
2.539571
  0
SEQEND
  8
0
  0
POLYLINE
  8
EBENE_1
 62
     1
  6
CONTINUOUS
 66
     1
 40
0.003000
 41
0.003000
  0
VERTEX
  8
EBENE_1
 62
     1
  6
CONTINUOUS
 10
-0.976402
 20
2.539571
  0
VERTEX
  8
EBENE_1
 62
     1
  6
CONTINUOUS
 10
-1.006628
 20
2.490901
  0
VERTEX
  8
EBENE_1
 62
     1
  6
CONTINUOUS
 10
-1.035843
 20
2.441086
  0
VERTEX
  8
EBENE_1
 62
     1
  6
CONTINUOUS
 10
-1.062161
 20
2.389461
  0
SEQEND
  8
0
  0
POLYLINE
  8
EBENE_1
 62
     1
  6
CONTINUOUS
 66
     1
 40
0.003000
 41
0.003000
  0
VERTEX
  8
EBENE_1
 62
     1
  6
CONTINUOUS
 10
-1.062161
 20
2.389461
  0
VERTEX
  8
EBENE_1
 62
     1
  6
CONTINUOUS
 10
-1.073106
 20
2.360762
  0
VERTEX
  8
EBENE_1
 62
     1
  6
CONTINUOUS
 10
-1.081184
 20
2.337760
  0
VERTEX
  8
EBENE_1
 62
     1
  6
CONTINUOUS
 10
-1.093323
 20
2.300736
  0
SEQEND
  8
0
  0
POLYLINE
  8
EBENE_1
 62
     1
  6
CONTINUOUS
 66
     1
 40
0.003000
 41
0.003000
  0
VERTEX
  8
EBENE_1
 62
     1
  6
CONTINUOUS
 10
-1.093323
 20
2.300736
  0
VERTEX
  8
EBENE_1
 62
     1
  6
CONTINUOUS
 10
-1.101119
 20
2.251176
  0
VERTEX
  8
EBENE_1
 62
     1
  6
CONTINUOUS
 10
-1.105496
 20
2.203766
  0
VERTEX
  8
EBENE_1
 62
     1
  6
CONTINUOUS
 10
-1.106398
 20
2.153429
  0
SEQEND
  8
0
  0
POLYLINE
  8
EBENE_1
 62
     1
  6
CONTINUOUS
 66
     1
 40
0.003000
 41
0.003000
  0
VERTEX
  8
EBENE_1
 62
     1
  6
CONTINUOUS
 10
-1.106398
 20
2.153429
  0
VERTEX
  8
EBENE_1
 62
     1
  6
CONTINUOUS
 10
-1.093760
 20
2.089048
  0
VERTEX
  8
EBENE_1
 62
     1
  6
CONTINUOUS
 10
-1.072811
 20
2.030004
  0
VERTEX
  8
EBENE_1
 62
     1
  6
CONTINUOUS
 10
-1.041150
 20
1.971366
  0
SEQEND
  8
0
  0
POLYLINE
  8
EBENE_1
 62
     1
  6
CONTINUOUS
 66
     1
 40
0.003000
 41
0.003000
  0
VERTEX
  8
EBENE_1
 62
     1
  6
CONTINUOUS
 10
-1.041150
 20
1.971366
  0
VERTEX
  8
EBENE_1
 62
     1
  6
CONTINUOUS
 10
-1.015314
 20
1.939350
  0
VERTEX
  8
EBENE_1
 62
     1
  6
CONTINUOUS
 10
-0.986882
 20
1.909683
  0
VERTEX
  8
EBENE_1
 62
     1
  6
CONTINUOUS
 10
-0.955693
 20
1.881378
  0
SEQEND
  8
0
  0
POLYLINE
  8
EBENE_1
 62
     1
  6
CONTINUOUS
 66
     1
 40
0.003000
 41
0.003000
  0
VERTEX
  8
EBENE_1
 62
     1
  6
CONTINUOUS
 10
-0.955693
 20
1.881378
  0
VERTEX
  8
EBENE_1
 62
     1
  6
CONTINUOUS
 10
-0.955785
 20
1.880248
  0
VERTEX
  8
EBENE_1
 62
     1
  6
CONTINUOUS
 10
-0.955820
 20
1.879022
  0
VERTEX
  8
EBENE_1
 62
     1
  6
CONTINUOUS
 10
-0.955823
 20
1.877748
  0
SEQEND
  8
0
  0
POLYLINE
  8
EBENE_1
 62
     1
  6
CONTINUOUS
 66
     1
 40
0.003000
 41
0.003000
  0
VERTEX
  8
EBENE_1
 62
     1
  6
CONTINUOUS
 10
-0.955823
 20
1.877748
  0
VERTEX
  8
EBENE_1
 62
     1
  6
CONTINUOUS
 10
-1.001306
 20
1.802444
  0
VERTEX
  8
EBENE_1
 62
     1
  6
CONTINUOUS
 10
-1.040245
 20
1.737427
  0
VERTEX
  8
EBENE_1
 62
     1
  6
CONTINUOUS
 10
-1.068408
 20
1.691175
  0
VERTEX
  8
EBENE_1
 62
     1
  6
CONTINUOUS
 10
-1.081563
 20
1.672165
  0
SEQEND
  8
0
  0
POLYLINE
  8
EBENE_1
 62
     1
  6
CONTINUOUS
 66
     1
 40
0.003000
 41
0.003000
  0
VERTEX
  8
EBENE_1
 62
     1
  6
CONTINUOUS
 10
-1.081563
 20
1.672165
  0
VERTEX
  8
EBENE_1
 62
     1
  6
CONTINUOUS
 10
-1.113721
 20
1.714044
  0
VERTEX
  8
EBENE_1
 62
     1
  6
CONTINUOUS
 10
-1.155089
 20
1.788460
  0
VERTEX
  8
EBENE_1
 62
     1
  6
CONTINUOUS
 10
-1.185024
 20
1.843551
  0
SEQEND
  8
0
  0
POLYLINE
  8
EBENE_1
 62
     1
  6
CONTINUOUS
 66
     1
 40
0.003000
 41
0.003000
  0
VERTEX
  8
EBENE_1
 62
     1
  6
CONTINUOUS
 10
-1.185024
 20
1.843551
  0
VERTEX
  8
EBENE_1
 62
     1
  6
CONTINUOUS
 10
-1.224253
 20
1.896958
  0
VERTEX
  8
EBENE_1
 62
     1
  6
CONTINUOUS
 10
-1.266245
 20
1.948435
  0
VERTEX
  8
EBENE_1
 62
     1
  6
CONTINUOUS
 10
-1.313193
 20
1.997598
  0
SEQEND
  8
0
  0
POLYLINE
  8
EBENE_1
 62
     1
  6
CONTINUOUS
 66
     1
 40
0.003000
 41
0.003000
  0
VERTEX
  8
EBENE_1
 62
     1
  6
CONTINUOUS
 10
-1.313193
 20
1.997598
  0
VERTEX
  8
EBENE_1
 62
     1
  6
CONTINUOUS
 10
-1.310950
 20
1.939425
  0
VERTEX
  8
EBENE_1
 62
     1
  6
CONTINUOUS
 10
-1.310567
 20
1.878773
  0
VERTEX
  8
EBENE_1
 62
     1
  6
CONTINUOUS
 10
-1.309815
 20
1.819681
  0
SEQEND
  8
0
  0
POLYLINE
  8
EBENE_1
 62
     1
  6
CONTINUOUS
 66
     1
 40
0.003000
 41
0.003000
  0
VERTEX
  8
EBENE_1
 62
     1
  6
CONTINUOUS
 10
-1.309815
 20
1.819681
  0
VERTEX
  8
EBENE_1
 62
     1
  6
CONTINUOUS
 10
-1.312063
 20
1.778193
  0
VERTEX
  8
EBENE_1
 62
     1
  6
CONTINUOUS
 10
-1.312565
 20
1.762319
  0
VERTEX
  8
EBENE_1
 62
     1
  6
CONTINUOUS
 10
-1.311752
 20
1.758453
  0
SEQEND
  8
0
  0
POLYLINE
  8
EBENE_1
 62
     1
  6
CONTINUOUS
 66
     1
 40
0.003000
 41
0.003000
  0
VERTEX
  8
EBENE_1
 62
     1
  6
CONTINUOUS
 10
-1.311752
 20
1.758453
  0
VERTEX
  8
EBENE_1
 62
     1
  6
CONTINUOUS
 10
-1.317499
 20
1.717564
  0
VERTEX
  8
EBENE_1
 62
     1
  6
CONTINUOUS
 10
-1.323387
 20
1.683233
  0
VERTEX
  8
EBENE_1
 62
     1
  6
CONTINUOUS
 10
-1.334465
 20
1.626031
  0
SEQEND
  8
0
  0
POLYLINE
  8
EBENE_1
 62
     1
  6
CONTINUOUS
 66
     1
 40
0.003000
 41
0.003000
  0
VERTEX
  8
EBENE_1
 62
     1
  6
CONTINUOUS
 10
-1.334465
 20
1.626031
  0
VERTEX
  8
EBENE_1
 62
     1
  6
CONTINUOUS
 10
-1.353246
 20
1.569563
  0
VERTEX
  8
EBENE_1
 62
     1
  6
CONTINUOUS
 10
-1.374349
 20
1.514090
  0
VERTEX
  8
EBENE_1
 62
     1
  6
CONTINUOUS
 10
-1.399535
 20
1.458740
  0
SEQEND
  8
0
  0
POLYLINE
  8
EBENE_1
 62
     1
  6
CONTINUOUS
 66
     1
 40
0.003000
 41
0.003000
  0
VERTEX
  8
EBENE_1
 62
     1
  6
CONTINUOUS
 10
-1.399535
 20
1.458740
  0
VERTEX
  8
EBENE_1
 62
     1
  6
CONTINUOUS
 10
-1.426028
 20
1.442752
  0
VERTEX
  8
EBENE_1
 62
     1
  6
CONTINUOUS
 10
-1.455170
 20
1.427302
  0
VERTEX
  8
EBENE_1
 62
     1
  6
CONTINUOUS
 10
-1.485106
 20
1.411248
  0
SEQEND
  8
0
  0
POLYLINE
  8
EBENE_1
 62
     1
  6
CONTINUOUS
 66
     1
 40
0.003000
 41
0.003000
  0
VERTEX
  8
EBENE_1
 62
     1
  6
CONTINUOUS
 10
-1.485106
 20
1.411248
  0
VERTEX
  8
EBENE_1
 62
     1
  6
CONTINUOUS
 10
-1.518627
 20
1.382558
  0
VERTEX
  8
EBENE_1
 62
     1
  6
CONTINUOUS
 10
-1.547022
 20
1.352142
  0
VERTEX
  8
EBENE_1
 62
     1
  6
CONTINUOUS
 10
-1.573965
 20
1.317024
  0
SEQEND
  8
0
  0
POLYLINE
  8
EBENE_1
 62
     1
  6
CONTINUOUS
 66
     1
 40
0.003000
 41
0.003000
  0
VERTEX
  8
EBENE_1
 62
     1
  6
CONTINUOUS
 10
-1.573965
 20
1.317024
  0
VERTEX
  8
EBENE_1
 62
     1
  6
CONTINUOUS
 10
-1.589286
 20
1.332531
  0
VERTEX
  8
EBENE_1
 62
     1
  6
CONTINUOUS
 10
-1.592715
 20
1.359082
  0
VERTEX
  8
EBENE_1
 62
     1
  6
CONTINUOUS
 10
-1.598661
 20
1.385043
  0
SEQEND
  8
0
  0
POLYLINE
  8
EBENE_1
 62
     1
  6
CONTINUOUS
 66
     1
 40
0.003000
 41
0.003000
  0
VERTEX
  8
EBENE_1
 62
     1
  6
CONTINUOUS
 10
-1.598661
 20
1.385043
  0
VERTEX
  8
EBENE_1
 62
     1
  6
CONTINUOUS
 10
-1.611872
 20
1.386135
  0
VERTEX
  8
EBENE_1
 62
     1
  6
CONTINUOUS
 10
-1.622453
 20
1.383900
  0
VERTEX
  8
EBENE_1
 62
     1
  6
CONTINUOUS
 10
-1.635386
 20
1.379169
  0
SEQEND
  8
0
  0
POLYLINE
  8
EBENE_1
 62
     1
  6
CONTINUOUS
 66
     1
 40
0.003000
 41
0.003000
  0
VERTEX
  8
EBENE_1
 62
     1
  6
CONTINUOUS
 10
-1.635386
 20
1.379169
  0
VERTEX
  8
EBENE_1
 62
     1
  6
CONTINUOUS
 10
-1.642816
 20
1.378551
  0
VERTEX
  8
EBENE_1
 62
     1
  6
CONTINUOUS
 10
-1.673221
 20
1.372881
  0
VERTEX
  8
EBENE_1
 62
     1
  6
CONTINUOUS
 10
-1.748921
 20
1.359370
  0
SEQEND
  8
0
  0
POLYLINE
  8
EBENE_1
 62
     1
  6
CONTINUOUS
 66
     1
 40
0.003000
 41
0.003000
  0
VERTEX
  8
EBENE_1
 62
     1
  6
CONTINUOUS
 10
-1.748921
 20
1.359370
  0
VERTEX
  8
EBENE_1
 62
     1
  6
CONTINUOUS
 10
-1.774829
 20
1.357092
  0
VERTEX
  8
EBENE_1
 62
     1
  6
CONTINUOUS
 10
-1.800688
 20
1.354716
  0
VERTEX
  8
EBENE_1
 62
     1
  6
CONTINUOUS
 10
-1.826520
 20
1.352291
  0
SEQEND
  8
0
  0
POLYLINE
  8
EBENE_1
 62
     1
  6
CONTINUOUS
 66
     1
 40
0.003000
 41
0.003000
  0
VERTEX
  8
EBENE_1
 62
     1
  6
CONTINUOUS
 10
-1.826520
 20
1.352291
  0
VERTEX
  8
EBENE_1
 62
     1
  6
CONTINUOUS
 10
-1.890006
 20
1.353286
  0
VERTEX
  8
EBENE_1
 62
     1
  6
CONTINUOUS
 10
-1.951882
 20
1.358300
  0
VERTEX
  8
EBENE_1
 62
     1
  6
CONTINUOUS
 10
-2.013661
 20
1.367732
  0
SEQEND
  8
0
  0
POLYLINE
  8
EBENE_1
 62
     1
  6
CONTINUOUS
 66
     1
 40
0.003000
 41
0.003000
  0
VERTEX
  8
EBENE_1
 62
     1
  6
CONTINUOUS
 10
-2.013661
 20
1.367732
  0
VERTEX
  8
EBENE_1
 62
     1
  6
CONTINUOUS
 10
-2.058036
 20
1.386392
  0
VERTEX
  8
EBENE_1
 62
     1
  6
CONTINUOUS
 10
-2.102611
 20
1.416175
  0
VERTEX
  8
EBENE_1
 62
     1
  6
CONTINUOUS
 10
-2.145078
 20
1.454536
  0
VERTEX
  8
EBENE_1
 62
     1
  6
CONTINUOUS
 10
-2.183127
 20
1.498925
  0
VERTEX
  8
EBENE_1
 62
     1
  6
CONTINUOUS
 10
-2.214451
 20
1.546796
  0
VERTEX
  8
EBENE_1
 62
     1
  6
CONTINUOUS
 10
-2.236741
 20
1.595600
  0
VERTEX
  8
EBENE_1
 62
     1
  6
CONTINUOUS
 10
-2.247689
 20
1.642791
  0
SEQEND
  8
0
  0
POLYLINE
  8
EBENE_1
 62
     1
  6
CONTINUOUS
 66
     1
 40
0.003000
 41
0.003000
  0
VERTEX
  8
EBENE_1
 62
     1
  6
CONTINUOUS
 10
-2.247689
 20
1.642791
  0
VERTEX
  8
EBENE_1
 62
     1
  6
CONTINUOUS
 10
-2.229450
 20
1.643086
  0
VERTEX
  8
EBENE_1
 62
     1
  6
CONTINUOUS
 10
-2.199435
 20
1.642260
  0
VERTEX
  8
EBENE_1
 62
     1
  6
CONTINUOUS
 10
-2.182343
 20
1.642398
  0
SEQEND
  8
0
  0
POLYLINE
  8
EBENE_1
 62
     1
  6
CONTINUOUS
 66
     1
 40
0.003000
 41
0.003000
  0
VERTEX
  8
EBENE_1
 62
     1
  6
CONTINUOUS
 10
-2.182343
 20
1.642398
  0
VERTEX
  8
EBENE_1
 62
     1
  6
CONTINUOUS
 10
-2.146793
 20
1.642722
  0
VERTEX
  8
EBENE_1
 62
     1
  6
CONTINUOUS
 10
-2.117222
 20
1.644203
  0
VERTEX
  8
EBENE_1
 62
     1
  6
CONTINUOUS
 10
-2.068283
 20
1.648110
  0
SEQEND
  8
0
  0
POLYLINE
  8
EBENE_1
 62
     1
  6
CONTINUOUS
 66
     1
 40
0.003000
 41
0.003000
  0
VERTEX
  8
EBENE_1
 62
     1
  6
CONTINUOUS
 10
-2.068283
 20
1.648110
  0
VERTEX
  8
EBENE_1
 62
     1
  6
CONTINUOUS
 10
-2.010954
 20
1.669860
  0
VERTEX
  8
EBENE_1
 62
     1
  6
CONTINUOUS
 10
-1.963956
 20
1.697274
  0
VERTEX
  8
EBENE_1
 62
     1
  6
CONTINUOUS
 10
-1.911437
 20
1.730732
  0
SEQEND
  8
0
  0
POLYLINE
  8
EBENE_1
 62
     1
  6
CONTINUOUS
 66
     1
 40
0.003000
 41
0.003000
  0
VERTEX
  8
EBENE_1
 62
     1
  6
CONTINUOUS
 10
-1.911437
 20
1.730732
  0
VERTEX
  8
EBENE_1
 62
     1
  6
CONTINUOUS
 10
-1.868721
 20
1.759771
  0
VERTEX
  8
EBENE_1
 62
     1
  6
CONTINUOUS
 10
-1.808506
 20
1.805092
  0
VERTEX
  8
EBENE_1
 62
     1
  6
CONTINUOUS
 10
-1.776370
 20
1.846594
  0
SEQEND
  8
0
  0
POLYLINE
  8
EBENE_1
 62
     1
  6
CONTINUOUS
 66
     1
 40
0.003000
 41
0.003000
  0
VERTEX
  8
EBENE_1
 62
     1
  6
CONTINUOUS
 10
-1.776370
 20
1.846594
  0
VERTEX
  8
EBENE_1
 62
     1
  6
CONTINUOUS
 10
-1.805820
 20
1.880695
  0
VERTEX
  8
EBENE_1
 62
     1
  6
CONTINUOUS
 10
-1.846497
 20
1.923522
  0
VERTEX
  8
EBENE_1
 62
     1
  6
CONTINUOUS
 10
-1.873004
 20
1.965685
  0
SEQEND
  8
0
  0
POLYLINE
  8
EBENE_1
 62
     1
  6
CONTINUOUS
 66
     1
 40
0.003000
 41
0.003000
  0
VERTEX
  8
EBENE_1
 62
     1
  6
CONTINUOUS
 10
-1.873004
 20
1.965685
  0
VERTEX
  8
EBENE_1
 62
     1
  6
CONTINUOUS
 10
-1.841819
 20
1.951321
  0
VERTEX
  8
EBENE_1
 62
     1
  6
CONTINUOUS
 10
-1.811174
 20
1.938186
  0
VERTEX
  8
EBENE_1
 62
     1
  6
CONTINUOUS
 10
-1.777433
 20
1.929677
  0
SEQEND
  8
0
  0
POLYLINE
  8
EBENE_1
 62
     1
  6
CONTINUOUS
 66
     1
 40
0.003000
 41
0.003000
  0
VERTEX
  8
EBENE_1
 62
     1
  6
CONTINUOUS
 10
-1.777433
 20
1.929677
  0
VERTEX
  8
EBENE_1
 62
     1
  6
CONTINUOUS
 10
-1.752318
 20
1.929318
  0
VERTEX
  8
EBENE_1
 62
     1
  6
CONTINUOUS
 10
-1.725603
 20
1.927868
  0
VERTEX
  8
EBENE_1
 62
     1
  6
CONTINUOUS
 10
-1.706780
 20
1.931197
  0
SEQEND
  8
0
  0
POLYLINE
  8
EBENE_1
 62
     1
  6
CONTINUOUS
 66
     1
 40
0.003000
 41
0.003000
  0
VERTEX
  8
EBENE_1
 62
     1
  6
CONTINUOUS
 10
-1.706780
 20
1.931197
  0
VERTEX
  8
EBENE_1
 62
     1
  6
CONTINUOUS
 10
-1.669367
 20
1.954722
  0
VERTEX
  8
EBENE_1
 62
     1
  6
CONTINUOUS
 10
-1.643448
 20
1.986580
  0
VERTEX
  8
EBENE_1
 62
     1
  6
CONTINUOUS
 10
-1.624413
 20
2.027276
  0
SEQEND
  8
0
  0
POLYLINE
  8
EBENE_1
 62
     1
  6
CONTINUOUS
 66
     1
 40
0.003000
 41
0.003000
  0
VERTEX
  8
EBENE_1
 62
     1
  6
CONTINUOUS
 10
-1.624413
 20
2.027276
  0
VERTEX
  8
EBENE_1
 62
     1
  6
CONTINUOUS
 10
-1.620451
 20
2.040975
  0
VERTEX
  8
EBENE_1
 62
     1
  6
CONTINUOUS
 10
-1.616499
 20
2.054639
  0
VERTEX
  8
EBENE_1
 62
     1
  6
CONTINUOUS
 10
-1.612571
 20
2.068228
  0
SEQEND
  8
0
  0
POLYLINE
  8
EBENE_1
 62
     1
  6
CONTINUOUS
 66
     1
 40
0.003000
 41
0.003000
  0
VERTEX
  8
EBENE_1
 62
     1
  6
CONTINUOUS
 10
-1.612571
 20
2.068228
  0
VERTEX
  8
EBENE_1
 62
     1
  6
CONTINUOUS
 10
-1.603852
 20
2.133237
  0
VERTEX
  8
EBENE_1
 62
     1
  6
CONTINUOUS
 10
-1.599280
 20
2.194813
  0
VERTEX
  8
EBENE_1
 62
     1
  6
CONTINUOUS
 10
-1.604055
 20
2.241858
  0
SEQEND
  8
0
  0
POLYLINE
  8
EBENE_1
 62
     1
  6
CONTINUOUS
 66
     1
 40
0.003000
 41
0.003000
  0
VERTEX
  8
EBENE_1
 62
     1
  6
CONTINUOUS
 10
-1.604055
 20
2.241858
  0
VERTEX
  8
EBENE_1
 62
     1
  6
CONTINUOUS
 10
-1.618201
 20
2.270518
  0
VERTEX
  8
EBENE_1
 62
     1
  6
CONTINUOUS
 10
-1.634036
 20
2.288416
  0
VERTEX
  8
EBENE_1
 62
     1
  6
CONTINUOUS
 10
-1.645201
 20
2.301654
  0
SEQEND
  8
0
  0
POLYLINE
  8
EBENE_1
 62
     1
  6
CONTINUOUS
 66
     1
 40
0.003000
 41
0.003000
  0
VERTEX
  8
EBENE_1
 62
     1
  6
CONTINUOUS
 10
-1.645201
 20
2.301654
  0
VERTEX
  8
EBENE_1
 62
     1
  6
CONTINUOUS
 10
-1.671775
 20
2.326012
  0
VERTEX
  8
EBENE_1
 62
     1
  6
CONTINUOUS
 10
-1.695817
 20
2.344927
  0
VERTEX
  8
EBENE_1
 62
     1
  6
CONTINUOUS
 10
-1.722882
 20
2.366736
  0
SEQEND
  8
0
  0
POLYLINE
  8
EBENE_1
 62
     1
  6
CONTINUOUS
 66
     1
 40
0.003000
 41
0.003000
  0
VERTEX
  8
EBENE_1
 62
     1
  6
CONTINUOUS
 10
-1.722882
 20
2.366736
  0
VERTEX
  8
EBENE_1
 62
     1
  6
CONTINUOUS
 10
-1.737195
 20
2.375466
  0
VERTEX
  8
EBENE_1
 62
     1
  6
CONTINUOUS
 10
-1.756652
 20
2.382668
  0
VERTEX
  8
EBENE_1
 62
     1
  6
CONTINUOUS
 10
-1.771008
 20
2.391287
  0
SEQEND
  8
0
  0
POLYLINE
  8
EBENE_1
 62
     1
  6
CONTINUOUS
 66
     1
 40
0.003000
 41
0.003000
  0
VERTEX
  8
EBENE_1
 62
     1
  6
CONTINUOUS
 10
-1.771008
 20
2.391287
  0
VERTEX
  8
EBENE_1
 62
     1
  6
CONTINUOUS
 10
-1.778647
 20
2.410369
  0
VERTEX
  8
EBENE_1
 62
     1
  6
CONTINUOUS
 10
-1.784559
 20
2.428508
  0
VERTEX
  8
EBENE_1
 62
     1
  6
CONTINUOUS
 10
-1.789776
 20
2.447508
  0
SEQEND
  8
0
  0
POLYLINE
  8
EBENE_1
 62
     1
  6
CONTINUOUS
 66
     1
 40
0.003000
 41
0.003000
  0
VERTEX
  8
EBENE_1
 62
     1
  6
CONTINUOUS
 10
-1.789776
 20
2.447508
  0
VERTEX
  8
EBENE_1
 62
     1
  6
CONTINUOUS
 10
-1.788565
 20
2.507149
  0
VERTEX
  8
EBENE_1
 62
     1
  6
CONTINUOUS
 10
-1.790830
 20
2.565065
  0
VERTEX
  8
EBENE_1
 62
     1
  6
CONTINUOUS
 10
-1.798063
 20
2.622992
  0
SEQEND
  8
0
  0
POLYLINE
  8
EBENE_1
 62
     1
  6
CONTINUOUS
 66
     1
 40
0.003000
 41
0.003000
  0
VERTEX
  8
EBENE_1
 62
     1
  6
CONTINUOUS
 10
-1.798063
 20
2.622992
  0
VERTEX
  8
EBENE_1
 62
     1
  6
CONTINUOUS
 10
-1.806474
 20
2.652520
  0
VERTEX
  8
EBENE_1
 62
     1
  6
CONTINUOUS
 10
-1.812546
 20
2.671960
  0
VERTEX
  8
EBENE_1
 62
     1
  6
CONTINUOUS
 10
-1.821484
 20
2.697976
  0
SEQEND
  8
0
  0
POLYLINE
  8
EBENE_1
 62
     1
  6
CONTINUOUS
 66
     1
 40
0.003000
 41
0.003000
  0
VERTEX
  8
EBENE_1
 62
     1
  6
CONTINUOUS
 10
-1.821484
 20
2.697976
  0
VERTEX
  8
EBENE_1
 62
     1
  6
CONTINUOUS
 10
-1.855827
 20
2.763433
  0
VERTEX
  8
EBENE_1
 62
     1
  6
CONTINUOUS
 10
-1.890833
 20
2.818613
  0
VERTEX
  8
EBENE_1
 62
     1
  6
CONTINUOUS
 10
-1.928834
 20
2.866626
  0
VERTEX
  8
EBENE_1
 62
     1
  6
CONTINUOUS
 10
-1.972162
 20
2.910580
  0
VERTEX
  8
EBENE_1
 62
     1
  6
CONTINUOUS
 10
-2.023150
 20
2.953587
  0
SEQEND
  8
0
  0
POLYLINE
  8
EBENE_1
 62
     1
  6
CONTINUOUS
 66
     1
 40
0.003000
 41
0.003000
  0
VERTEX
  8
EBENE_1
 62
     1
  6
CONTINUOUS
 10
-2.023150
 20
2.953587
  0
VERTEX
  8
EBENE_1
 62
     1
  6
CONTINUOUS
 10
-2.078025
 20
2.985345
  0
VERTEX
  8
EBENE_1
 62
     1
  6
CONTINUOUS
 10
-2.132539
 20
3.010541
  0
VERTEX
  8
EBENE_1
 62
     1
  6
CONTINUOUS
 10
-2.188049
 20
3.030466
  0
VERTEX
  8
EBENE_1
 62
     1
  6
CONTINUOUS
 10
-2.245911
 20
3.046410
  0
VERTEX
  8
EBENE_1
 62
     1
  6
CONTINUOUS
 10
-2.307484
 20
3.059661
  0
SEQEND
  8
0
  0
POLYLINE
  8
EBENE_1
 62
     1
  6
CONTINUOUS
 66
     1
 40
0.003000
 41
0.003000
  0
VERTEX
  8
EBENE_1
 62
     1
  6
CONTINUOUS
 10
-2.307484
 20
3.059661
  0
VERTEX
  8
EBENE_1
 62
     1
  6
CONTINUOUS
 10
-2.383061
 20
3.061702
  0
VERTEX
  8
EBENE_1
 62
     1
  6
CONTINUOUS
 10
-2.456820
 20
3.059992
  0
VERTEX
  8
EBENE_1
 62
     1
  6
CONTINUOUS
 10
-2.531559
 20
3.058996
  0
SEQEND
  8
0
  0
POLYLINE
  8
EBENE_1
 62
     1
  6
CONTINUOUS
 66
     1
 40
0.003000
 41
0.003000
  0
VERTEX
  8
EBENE_1
 62
     1
  6
CONTINUOUS
 10
-2.531559
 20
3.058996
  0
VERTEX
  8
EBENE_1
 62
     1
  6
CONTINUOUS
 10
-2.532725
 20
3.061296
  0
VERTEX
  8
EBENE_1
 62
     1
  6
CONTINUOUS
 10
-2.533915
 20
3.063522
  0
VERTEX
  8
EBENE_1
 62
     1
  6
CONTINUOUS
 10
-2.535118
 20
3.065713
  0
SEQEND
  8
0
  0
POLYLINE
  8
EBENE_1
 62
     1
  6
CONTINUOUS
 66
     1
 40
0.003000
 41
0.003000
  0
VERTEX
  8
EBENE_1
 62
     1
  6
CONTINUOUS
 10
-2.535118
 20
3.065713
  0
VERTEX
  8
EBENE_1
 62
     1
  6
CONTINUOUS
 10
-2.537188
 20
3.129585
  0
VERTEX
  8
EBENE_1
 62
     1
  6
CONTINUOUS
 10
-2.538478
 20
3.197044
  0
VERTEX
  8
EBENE_1
 62
     1
  6
CONTINUOUS
 10
-2.543372
 20
3.268023
  0
VERTEX
  8
EBENE_1
 62
     1
  6
CONTINUOUS
 10
-2.556256
 20
3.342457
  0
SEQEND
  8
0
  0
POLYLINE
  8
EBENE_1
 62
     1
  6
CONTINUOUS
 66
     1
 40
0.003000
 41
0.003000
  0
VERTEX
  8
EBENE_1
 62
     1
  6
CONTINUOUS
 10
-2.556256
 20
3.342457
  0
VERTEX
  8
EBENE_1
 62
     1
  6
CONTINUOUS
 10
-2.564152
 20
3.376955
  0
VERTEX
  8
EBENE_1
 62
     1
  6
CONTINUOUS
 10
-2.572295
 20
3.413353
  0
VERTEX
  8
EBENE_1
 62
     1
  6
CONTINUOUS
 10
-2.581823
 20
3.452529
  0
VERTEX
  8
EBENE_1
 62
     1
  6
CONTINUOUS
 10
-2.593871
 20
3.495360
  0
VERTEX
  8
EBENE_1
 62
     1
  6
CONTINUOUS
 10
-2.609578
 20
3.542721
  0
VERTEX
  8
EBENE_1
 62
     1
  6
CONTINUOUS
 10
-2.630079
 20
3.595490
  0
VERTEX
  8
EBENE_1
 62
     1
  6
CONTINUOUS
 10
-2.656511
 20
3.654544
  0
VERTEX
  8
EBENE_1
 62
     1
  6
CONTINUOUS
 10
-2.690011
 20
3.720759
  0
VERTEX
  8
EBENE_1
 62
     1
  6
CONTINUOUS
 10
-2.731717
 20
3.795012
  0
SEQEND
  8
0
  0
POLYLINE
  8
EBENE_1
 62
     1
  6
CONTINUOUS
 66
     1
 40
0.003000
 41
0.003000
  0
VERTEX
  8
EBENE_1
 62
     1
  6
CONTINUOUS
 10
-2.580535
 20
-0.297276
  0
VERTEX
  8
EBENE_1
 62
     1
  6
CONTINUOUS
 10
-2.599259
 20
-0.271603
  0
VERTEX
  8
EBENE_1
 62
     1
  6
CONTINUOUS
 10
-2.616832
 20
-0.242734
  0
VERTEX
  8
EBENE_1
 62
     1
  6
CONTINUOUS
 10
-2.621673
 20
-0.171028
  0
SEQEND
  8
0
  0
POLYLINE
  8
EBENE_1
 62
     1
  6
CONTINUOUS
 66
     1
 40
0.003000
 41
0.003000
  0
VERTEX
  8
EBENE_1
 62
     1
  6
CONTINUOUS
 10
-2.621673
 20
-0.171028
  0
VERTEX
  8
EBENE_1
 62
     1
  6
CONTINUOUS
 10
-2.684930
 20
-0.156368
  0
VERTEX
  8
EBENE_1
 62
     1
  6
CONTINUOUS
 10
-2.747643
 20
-0.139826
  0
VERTEX
  8
EBENE_1
 62
     1
  6
CONTINUOUS
 10
-2.809197
 20
-0.121382
  0
SEQEND
  8
0
  0
POLYLINE
  8
EBENE_1
 62
     1
  6
CONTINUOUS
 66
     1
 40
0.003000
 41
0.003000
  0
VERTEX
  8
EBENE_1
 62
     1
  6
CONTINUOUS
 10
-2.809197
 20
-0.121382
  0
VERTEX
  8
EBENE_1
 62
     1
  6
CONTINUOUS
 10
-2.860977
 20
-0.100976
  0
VERTEX
  8
EBENE_1
 62
     1
  6
CONTINUOUS
 10
-2.891458
 20
-0.088358
  0
VERTEX
  8
EBENE_1
 62
     1
  6
CONTINUOUS
 10
-2.926768
 20
-0.072713
  0
SEQEND
  8
0
  0
POLYLINE
  8
EBENE_1
 62
     1
  6
CONTINUOUS
 66
     1
 40
0.003000
 41
0.003000
  0
VERTEX
  8
EBENE_1
 62
     1
  6
CONTINUOUS
 10
-2.926768
 20
-0.072713
  0
VERTEX
  8
EBENE_1
 62
     1
  6
CONTINUOUS
 10
-2.988387
 20
-0.039246
  0
VERTEX
  8
EBENE_1
 62
     1
  6
CONTINUOUS
 10
-3.014601
 20
-0.025674
  0
VERTEX
  8
EBENE_1
 62
     1
  6
CONTINUOUS
 10
-3.027882
 20
-0.020362
  0
SEQEND
  8
0
  0
POLYLINE
  8
EBENE_1
 62
     1
  6
CONTINUOUS
 66
     1
 40
0.003000
 41
0.003000
  0
VERTEX
  8
EBENE_1
 62
     1
  6
CONTINUOUS
 10
-2.568205
 20
1.494398
  0
VERTEX
  8
EBENE_1
 62
     1
  6
CONTINUOUS
 10
-2.590492
 20
1.484943
  0
VERTEX
  8
EBENE_1
 62
     1
  6
CONTINUOUS
 10
-2.613681
 20
1.472478
  0
VERTEX
  8
EBENE_1
 62
     1
  6
CONTINUOUS
 10
-2.639079
 20
1.456551
  0
SEQEND
  8
0
  0
POLYLINE
  8
EBENE_1
 62
     1
  6
CONTINUOUS
 66
     1
 40
0.003000
 41
0.003000
  0
VERTEX
  8
EBENE_1
 62
     1
  6
CONTINUOUS
 10
-2.639079
 20
1.456551
  0
VERTEX
  8
EBENE_1
 62
     1
  6
CONTINUOUS
 10
-2.677356
 20
1.418952
  0
VERTEX
  8
EBENE_1
 62
     1
  6
CONTINUOUS
 10
-2.708748
 20
1.377740
  0
VERTEX
  8
EBENE_1
 62
     1
  6
CONTINUOUS
 10
-2.733362
 20
1.333554
  0
VERTEX
  8
EBENE_1
 62
     1
  6
CONTINUOUS
 10
-2.751303
 20
1.287037
  0
VERTEX
  8
EBENE_1
 62
     1
  6
CONTINUOUS
 10
-2.762677
 20
1.238829
  0
VERTEX
  8
EBENE_1
 62
     1
  6
CONTINUOUS
 10
-2.767589
 20
1.189572
  0
VERTEX
  8
EBENE_1
 62
     1
  6
CONTINUOUS
 10
-2.766146
 20
1.139906
  0
VERTEX
  8
EBENE_1
 62
     1
  6
CONTINUOUS
 10
-2.758452
 20
1.090472
  0
VERTEX
  8
EBENE_1
 62
     1
  6
CONTINUOUS
 10
-2.744613
 20
1.041912
  0
VERTEX
  8
EBENE_1
 62
     1
  6
CONTINUOUS
 10
-2.724736
 20
0.994866
  0
SEQEND
  8
0
  0
POLYLINE
  8
EBENE_1
 62
     1
  6
CONTINUOUS
 66
     1
 40
0.003000
 41
0.003000
  0
VERTEX
  8
EBENE_1
 62
     1
  6
CONTINUOUS
 10
-2.724736
 20
0.994866
  0
VERTEX
  8
EBENE_1
 62
     1
  6
CONTINUOUS
 10
-2.695659
 20
0.951636
  0
VERTEX
  8
EBENE_1
 62
     1
  6
CONTINUOUS
 10
-2.654413
 20
0.904304
  0
VERTEX
  8
EBENE_1
 62
     1
  6
CONTINUOUS
 10
-2.599308
 20
0.859841
  0
VERTEX
  8
EBENE_1
 62
     1
  6
CONTINUOUS
 10
-2.528650
 20
0.825217
  0
SEQEND
  8
0
  0
POLYLINE
  8
EBENE_1
 62
     1
  6
CONTINUOUS
 66
     1
 40
0.003000
 41
0.003000
  0
VERTEX
  8
EBENE_1
 62
     1
  6
CONTINUOUS
 10
-2.528650
 20
0.825217
  0
VERTEX
  8
EBENE_1
 62
     1
  6
CONTINUOUS
 10
-2.439393
 20
0.797128
  0
VERTEX
  8
EBENE_1
 62
     1
  6
CONTINUOUS
 10
-2.394661
 20
0.782766
  0
VERTEX
  8
EBENE_1
 62
     1
  6
CONTINUOUS
 10
-2.369322
 20
0.775528
  0
VERTEX
  8
EBENE_1
 62
     1
  6
CONTINUOUS
 10
-2.338244
 20
0.768807
  0
SEQEND
  8
0
  0
POLYLINE
  8
EBENE_1
 62
     1
  6
CONTINUOUS
 66
     1
 40
0.003000
 41
0.003000
  0
VERTEX
  8
EBENE_1
 62
     1
  6
CONTINUOUS
 10
-2.482449
 20
1.989929
  0
VERTEX
  8
EBENE_1
 62
     1
  6
CONTINUOUS
 10
-2.449440
 20
2.036741
  0
VERTEX
  8
EBENE_1
 62
     1
  6
CONTINUOUS
 10
-2.413489
 20
2.075886
  0
VERTEX
  8
EBENE_1
 62
     1
  6
CONTINUOUS
 10
-2.370417
 20
2.112291
  0
SEQEND
  8
0
  0
POLYLINE
  8
EBENE_1
 62
     1
  6
CONTINUOUS
 66
     1
 40
0.003000
 41
0.003000
  0
VERTEX
  8
EBENE_1
 62
     1
  6
CONTINUOUS
 10
-2.326732
 20
1.906780
  0
VERTEX
  8
EBENE_1
 62
     1
  6
CONTINUOUS
 10
-2.317692
 20
1.948012
  0
VERTEX
  8
EBENE_1
 62
     1
  6
CONTINUOUS
 10
-2.302073
 20
1.988231
  0
VERTEX
  8
EBENE_1
 62
     1
  6
CONTINUOUS
 10
-2.284028
 20
2.025508
  0
SEQEND
  8
0
  0
POLYLINE
  8
EBENE_1
 62
     1
  6
CONTINUOUS
 66
     1
 40
0.003000
 41
0.003000
  0
VERTEX
  8
EBENE_1
 62
     1
  6
CONTINUOUS
 10
-2.593366
 20
2.061614
  0
VERTEX
  8
EBENE_1
 62
     1
  6
CONTINUOUS
 10
-2.560123
 20
2.122495
  0
VERTEX
  8
EBENE_1
 62
     1
  6
CONTINUOUS
 10
-2.514682
 20
2.166935
  0
VERTEX
  8
EBENE_1
 62
     1
  6
CONTINUOUS
 10
-2.454984
 20
2.202197
  0
SEQEND
  8
0
  0
POLYLINE
  8
EBENE_1
 62
     1
  6
CONTINUOUS
 66
     1
 40
0.003000
 41
0.003000
  0
VERTEX
  8
EBENE_1
 62
     1
  6
CONTINUOUS
 10
-3.034492
 20
2.384465
  0
VERTEX
  8
EBENE_1
 62
     1
  6
CONTINUOUS
 10
-2.979476
 20
2.369736
  0
VERTEX
  8
EBENE_1
 62
     1
  6
CONTINUOUS
 10
-2.927129
 20
2.373374
  0
VERTEX
  8
EBENE_1
 62
     1
  6
CONTINUOUS
 10
-2.874063
 20
2.397110
  0
SEQEND
  8
0
  0
POLYLINE
  8
EBENE_1
 62
     1
  6
CONTINUOUS
 66
     1
 40
0.003000
 41
0.003000
  0
VERTEX
  8
EBENE_1
 62
     1
  6
CONTINUOUS
 10
-4.096154
 20
3.183776
  0
VERTEX
  8
EBENE_1
 62
     1
  6
CONTINUOUS
 10
-4.069705
 20
3.136158
  0
VERTEX
  8
EBENE_1
 62
     1
  6
CONTINUOUS
 10
-4.027788
 20
3.072322
  0
VERTEX
  8
EBENE_1
 62
     1
  6
CONTINUOUS
 10
-3.978677
 20
3.009374
  0
SEQEND
  8
0
  0
POLYLINE
  8
EBENE_1
 62
     1
  6
CONTINUOUS
 66
     1
 40
0.003000
 41
0.003000
  0
VERTEX
  8
EBENE_1
 62
     1
  6
CONTINUOUS
 10
-3.978677
 20
3.009374
  0
VERTEX
  8
EBENE_1
 62
     1
  6
CONTINUOUS
 10
-3.930200
 20
2.961410
  0
VERTEX
  8
EBENE_1
 62
     1
  6
CONTINUOUS
 10
-3.890808
 20
2.919056
  0
VERTEX
  8
EBENE_1
 62
     1
  6
CONTINUOUS
 10
-3.857832
 20
2.881333
  0
VERTEX
  8
EBENE_1
 62
     1
  6
CONTINUOUS
 10
-3.828600
 20
2.847263
  0
VERTEX
  8
EBENE_1
 62
     1
  6
CONTINUOUS
 10
-3.800442
 20
2.815869
  0
VERTEX
  8
EBENE_1
 62
     1
  6
CONTINUOUS
 10
-3.770686
 20
2.786172
  0
VERTEX
  8
EBENE_1
 62
     1
  6
CONTINUOUS
 10
-3.736663
 20
2.757195
  0
VERTEX
  8
EBENE_1
 62
     1
  6
CONTINUOUS
 10
-3.695701
 20
2.727960
  0
VERTEX
  8
EBENE_1
 62
     1
  6
CONTINUOUS
 10
-3.645130
 20
2.697488
  0
SEQEND
  8
0
  0
POLYLINE
  8
EBENE_1
 62
     1
  6
CONTINUOUS
 66
     1
 40
0.003000
 41
0.003000
  0
VERTEX
  8
EBENE_1
 62
     1
  6
CONTINUOUS
 10
-3.645130
 20
2.697488
  0
VERTEX
  8
EBENE_1
 62
     1
  6
CONTINUOUS
 10
-3.588836
 20
2.670800
  0
VERTEX
  8
EBENE_1
 62
     1
  6
CONTINUOUS
 10
-3.537157
 20
2.644920
  0
VERTEX
  8
EBENE_1
 62
     1
  6
CONTINUOUS
 10
-3.487123
 20
2.621809
  0
VERTEX
  8
EBENE_1
 62
     1
  6
CONTINUOUS
 10
-3.435766
 20
2.603430
  0
VERTEX
  8
EBENE_1
 62
     1
  6
CONTINUOUS
 10
-3.380116
 20
2.591742
  0
VERTEX
  8
EBENE_1
 62
     1
  6
CONTINUOUS
 10
-3.317205
 20
2.588709
  0
SEQEND
  8
0
  0
POLYLINE
  8
EBENE_1
 62
     1
  6
CONTINUOUS
 66
     1
 40
0.003000
 41
0.003000
  0
VERTEX
  8
EBENE_1
 62
     1
  6
CONTINUOUS
 10
-3.317205
 20
2.588709
  0
VERTEX
  8
EBENE_1
 62
     1
  6
CONTINUOUS
 10
-3.313488
 20
2.593244
  0
VERTEX
  8
EBENE_1
 62
     1
  6
CONTINUOUS
 10
-3.310682
 20
2.596373
  0
VERTEX
  8
EBENE_1
 62
     1
  6
CONTINUOUS
 10
-3.310000
 20
2.600559
  0
SEQEND
  8
0
  0
POLYLINE
  8
EBENE_1
 62
     1
  6
CONTINUOUS
 66
     1
 40
0.003000
 41
0.003000
  0
VERTEX
  8
EBENE_1
 62
     1
  6
CONTINUOUS
 10
-3.310000
 20
2.600559
  0
VERTEX
  8
EBENE_1
 62
     1
  6
CONTINUOUS
 10
-3.345281
 20
2.648024
  0
VERTEX
  8
EBENE_1
 62
     1
  6
CONTINUOUS
 10
-3.381665
 20
2.695747
  0
VERTEX
  8
EBENE_1
 62
     1
  6
CONTINUOUS
 10
-3.418596
 20
2.743241
  0
VERTEX
  8
EBENE_1
 62
     1
  6
CONTINUOUS
 10
-3.455517
 20
2.790019
  0
VERTEX
  8
EBENE_1
 62
     1
  6
CONTINUOUS
 10
-3.491874
 20
2.835594
  0
SEQEND
  8
0
  0
POLYLINE
  8
EBENE_1
 62
     1
  6
CONTINUOUS
 66
     1
 40
0.003000
 41
0.003000
  0
VERTEX
  8
EBENE_1
 62
     1
  6
CONTINUOUS
 10
-3.491874
 20
2.835594
  0
VERTEX
  8
EBENE_1
 62
     1
  6
CONTINUOUS
 10
-3.538508
 20
2.883228
  0
VERTEX
  8
EBENE_1
 62
     1
  6
CONTINUOUS
 10
-3.585217
 20
2.929060
  0
VERTEX
  8
EBENE_1
 62
     1
  6
CONTINUOUS
 10
-3.633385
 20
2.972699
  0
VERTEX
  8
EBENE_1
 62
     1
  6
CONTINUOUS
 10
-3.684398
 20
3.013756
  0
SEQEND
  8
0
  0
POLYLINE
  8
EBENE_1
 62
     1
  6
CONTINUOUS
 66
     1
 40
0.003000
 41
0.003000
  0
VERTEX
  8
EBENE_1
 62
     1
  6
CONTINUOUS
 10
-3.684398
 20
3.013756
  0
VERTEX
  8
EBENE_1
 62
     1
  6
CONTINUOUS
 10
-3.742942
 20
3.052006
  0
VERTEX
  8
EBENE_1
 62
     1
  6
CONTINUOUS
 10
-3.776516
 20
3.073173
  0
VERTEX
  8
EBENE_1
 62
     1
  6
CONTINUOUS
 10
-3.813898
 20
3.095402
  0
SEQEND
  8
0
  0
POLYLINE
  8
EBENE_1
 62
     1
  6
CONTINUOUS
 66
     1
 40
0.003000
 41
0.003000
  0
VERTEX
  8
EBENE_1
 62
     1
  6
CONTINUOUS
 10
-3.813898
 20
3.095402
  0
VERTEX
  8
EBENE_1
 62
     1
  6
CONTINUOUS
 10
-3.868124
 20
3.121809
  0
VERTEX
  8
EBENE_1
 62
     1
  6
CONTINUOUS
 10
-3.901419
 20
3.137190
  0
VERTEX
  8
EBENE_1
 62
     1
  6
CONTINUOUS
 10
-3.942323
 20
3.154728
  0
SEQEND
  8
0
  0
POLYLINE
  8
EBENE_1
 62
     1
  6
CONTINUOUS
 66
     1
 40
0.003000
 41
0.003000
  0
VERTEX
  8
EBENE_1
 62
     1
  6
CONTINUOUS
 10
-3.942323
 20
3.154728
  0
VERTEX
  8
EBENE_1
 62
     1
  6
CONTINUOUS
 10
-3.986353
 20
3.166444
  0
VERTEX
  8
EBENE_1
 62
     1
  6
CONTINUOUS
 10
-4.046132
 20
3.178181
  0
VERTEX
  8
EBENE_1
 62
     1
  6
CONTINUOUS
 10
-4.096154
 20
3.183776
  0
SEQEND
  8
0
  0
POLYLINE
  8
EBENE_1
 62
     1
  6
CONTINUOUS
 66
     1
 40
0.003000
 41
0.003000
  0
VERTEX
  8
EBENE_1
 62
     1
  6
CONTINUOUS
 10
-2.279980
 20
2.294402
  0
VERTEX
  8
EBENE_1
 62
     1
  6
CONTINUOUS
 10
-2.323595
 20
2.309418
  0
VERTEX
  8
EBENE_1
 62
     1
  6
CONTINUOUS
 10
-2.369555
 20
2.332291
  0
VERTEX
  8
EBENE_1
 62
     1
  6
CONTINUOUS
 10
-2.384760
 20
2.365252
  0
SEQEND
  8
0
  0
POLYLINE
  8
EBENE_1
 62
     1
  6
CONTINUOUS
 66
     1
 40
0.003000
 41
0.003000
  0
VERTEX
  8
EBENE_1
 62
     1
  6
CONTINUOUS
 10
-2.384760
 20
2.365252
  0
VERTEX
  8
EBENE_1
 62
     1
  6
CONTINUOUS
 10
-2.360137
 20
2.391788
  0
VERTEX
  8
EBENE_1
 62
     1
  6
CONTINUOUS
 10
-2.348781
 20
2.409065
  0
VERTEX
  8
EBENE_1
 62
     1
  6
CONTINUOUS
 10
-2.322713
 20
2.440197
  0
SEQEND
  8
0
  0
POLYLINE
  8
EBENE_1
 62
     1
  6
CONTINUOUS
 66
     1
 40
0.003000
 41
0.003000
  0
VERTEX
  8
EBENE_1
 62
     1
  6
CONTINUOUS
 10
-2.322713
 20
2.440197
  0
VERTEX
  8
EBENE_1
 62
     1
  6
CONTINUOUS
 10
-2.287466
 20
2.466796
  0
VERTEX
  8
EBENE_1
 62
     1
  6
CONTINUOUS
 10
-2.251557
 20
2.482448
  0
VERTEX
  8
EBENE_1
 62
     1
  6
CONTINUOUS
 10
-2.208000
 20
2.486228
  0
SEQEND
  8
0
  0
POLYLINE
  8
EBENE_1
 62
     1
  6
CONTINUOUS
 66
     1
 40
0.003000
 41
0.003000
  0
VERTEX
  8
EBENE_1
 62
     1
  6
CONTINUOUS
 10
-2.208000
 20
2.486228
  0
VERTEX
  8
EBENE_1
 62
     1
  6
CONTINUOUS
 10
-2.198980
 20
2.483622
  0
VERTEX
  8
EBENE_1
 62
     1
  6
CONTINUOUS
 10
-2.189887
 20
2.480993
  0
VERTEX
  8
EBENE_1
 62
     1
  6
CONTINUOUS
 10
-2.180756
 20
2.478350
  0
SEQEND
  8
0
  0
POLYLINE
  8
EBENE_1
 62
     1
  6
CONTINUOUS
 66
     1
 40
0.003000
 41
0.003000
  0
VERTEX
  8
EBENE_1
 62
     1
  6
CONTINUOUS
 10
-2.180756
 20
2.478350
  0
VERTEX
  8
EBENE_1
 62
     1
  6
CONTINUOUS
 10
-2.150217
 20
2.459401
  0
VERTEX
  8
EBENE_1
 62
     1
  6
CONTINUOUS
 10
-2.126856
 20
2.437188
  0
VERTEX
  8
EBENE_1
 62
     1
  6
CONTINUOUS
 10
-2.105744
 20
2.406780
  0
SEQEND
  8
0
  0
POLYLINE
  8
EBENE_1
 62
     1
  6
CONTINUOUS
 66
     1
 40
0.003000
 41
0.003000
  0
VERTEX
  8
EBENE_1
 62
     1
  6
CONTINUOUS
 10
-2.105744
 20
2.406780
  0
VERTEX
  8
EBENE_1
 62
     1
  6
CONTINUOUS
 10
-2.095376
 20
2.369545
  0
VERTEX
  8
EBENE_1
 62
     1
  6
CONTINUOUS
 10
-2.087326
 20
2.337435
  0
VERTEX
  8
EBENE_1
 62
     1
  6
CONTINUOUS
 10
-2.072669
 20
2.300665
  0
SEQEND
  8
0
  0
POLYLINE
  8
EBENE_1
 62
     1
  6
CONTINUOUS
 66
     1
 40
0.003000
 41
0.003000
  0
VERTEX
  8
EBENE_1
 62
     1
  6
CONTINUOUS
 10
-2.072669
 20
2.300665
  0
VERTEX
  8
EBENE_1
 62
     1
  6
CONTINUOUS
 10
-2.073975
 20
2.297379
  0
VERTEX
  8
EBENE_1
 62
     1
  6
CONTINUOUS
 10
-2.075250
 20
2.294080
  0
VERTEX
  8
EBENE_1
 62
     1
  6
CONTINUOUS
 10
-2.076453
 20
2.290760
  0
SEQEND
  8
0
  0
POLYLINE
  8
EBENE_1
 62
     1
  6
CONTINUOUS
 66
     1
 40
0.003000
 41
0.003000
  0
VERTEX
  8
EBENE_1
 62
     1
  6
CONTINUOUS
 10
-2.076453
 20
2.290760
  0
VERTEX
  8
EBENE_1
 62
     1
  6
CONTINUOUS
 10
-2.146547
 20
2.274243
  0
VERTEX
  8
EBENE_1
 62
     1
  6
CONTINUOUS
 10
-2.209923
 20
2.277220
  0
VERTEX
  8
EBENE_1
 62
     1
  6
CONTINUOUS
 10
-2.279980
 20
2.294402
  0
SEQEND
  8
0
  0
POLYLINE
  8
EBENE_1
 62
     1
  6
CONTINUOUS
 66
     1
 40
0.003000
 41
0.003000
  0
VERTEX
  8
EBENE_1
 62
     1
  6
CONTINUOUS
 10
-1.720693
 20
2.133776
  0
VERTEX
  8
EBENE_1
 62
     1
  6
CONTINUOUS
 10
-1.759828
 20
2.176376
  0
VERTEX
  8
EBENE_1
 62
     1
  6
CONTINUOUS
 10
-1.786940
 20
2.220683
  0
VERTEX
  8
EBENE_1
 62
     1
  6
CONTINUOUS
 10
-1.789012
 20
2.279874
  0
SEQEND
  8
0
  0
POLYLINE
  8
EBENE_1
 62
     1
  6
CONTINUOUS
 66
     1
 40
0.003000
 41
0.003000
  0
VERTEX
  8
EBENE_1
 62
     1
  6
CONTINUOUS
 10
-2.767614
 20
2.568024
  0
VERTEX
  8
EBENE_1
 62
     1
  6
CONTINUOUS
 10
-2.778326
 20
2.600286
  0
VERTEX
  8
EBENE_1
 62
     1
  6
CONTINUOUS
 10
-2.791910
 20
2.635461
  0
VERTEX
  8
EBENE_1
 62
     1
  6
CONTINUOUS
 10
-2.810866
 20
2.660657
  0
SEQEND
  8
0
  0
POLYLINE
  8
EBENE_1
 62
     1
  6
CONTINUOUS
 66
     1
 40
0.003000
 41
0.003000
  0
VERTEX
  8
EBENE_1
 62
     1
  6
CONTINUOUS
 10
-2.810866
 20
2.660657
  0
VERTEX
  8
EBENE_1
 62
     1
  6
CONTINUOUS
 10
-2.835765
 20
2.710801
  0
VERTEX
  8
EBENE_1
 62
     1
  6
CONTINUOUS
 10
-2.862081
 20
2.760555
  0
VERTEX
  8
EBENE_1
 62
     1
  6
CONTINUOUS
 10
-2.890103
 20
2.809499
  0
VERTEX
  8
EBENE_1
 62
     1
  6
CONTINUOUS
 10
-2.920124
 20
2.857216
  0
VERTEX
  8
EBENE_1
 62
     1
  6
CONTINUOUS
 10
-2.952433
 20
2.903287
  0
VERTEX
  8
EBENE_1
 62
     1
  6
CONTINUOUS
 10
-2.987322
 20
2.947295
  0
VERTEX
  8
EBENE_1
 62
     1
  6
CONTINUOUS
 10
-3.025082
 20
2.988820
  0
VERTEX
  8
EBENE_1
 62
     1
  6
CONTINUOUS
 10
-3.066004
 20
3.027445
  0
SEQEND
  8
0
  0
POLYLINE
  8
EBENE_1
 62
     1
  6
CONTINUOUS
 66
     1
 40
0.003000
 41
0.003000
  0
VERTEX
  8
EBENE_1
 62
     1
  6
CONTINUOUS
 10
-2.922150
 20
2.869854
  0
VERTEX
  8
EBENE_1
 62
     1
  6
CONTINUOUS
 10
-2.905561
 20
2.892615
  0
VERTEX
  8
EBENE_1
 62
     1
  6
CONTINUOUS
 10
-2.884674
 20
2.913721
  0
VERTEX
  8
EBENE_1
 62
     1
  6
CONTINUOUS
 10
-2.854343
 20
2.933051
  0
SEQEND
  8
0
  0
POLYLINE
  8
EBENE_1
 62
     1
  6
CONTINUOUS
 66
     1
 40
0.003000
 41
0.003000
  0
VERTEX
  8
EBENE_1
 62
     1
  6
CONTINUOUS
 10
-2.854343
 20
2.933051
  0
VERTEX
  8
EBENE_1
 62
     1
  6
CONTINUOUS
 10
-2.896080
 20
2.913730
  0
VERTEX
  8
EBENE_1
 62
     1
  6
CONTINUOUS
 10
-2.921463
 20
2.908427
  0
VERTEX
  8
EBENE_1
 62
     1
  6
CONTINUOUS
 10
-2.940917
 20
2.910232
  0
SEQEND
  8
0
  0
POLYLINE
  8
EBENE_1
 62
     1
  6
CONTINUOUS
 66
     1
 40
0.003000
 41
0.003000
  0
VERTEX
  8
EBENE_1
 62
     1
  6
CONTINUOUS
 10
-2.940917
 20
2.910232
  0
VERTEX
  8
EBENE_1
 62
     1
  6
CONTINUOUS
 10
-2.955523
 20
2.914160
  0
VERTEX
  8
EBENE_1
 62
     1
  6
CONTINUOUS
 10
-2.962417
 20
2.919246
  0
VERTEX
  8
EBENE_1
 62
     1
  6
CONTINUOUS
 10
-2.966098
 20
2.924622
  0
SEQEND
  8
0
  0
POLYLINE
  8
EBENE_1
 62
     1
  6
CONTINUOUS
 66
     1
 40
0.003000
 41
0.003000
  0
VERTEX
  8
EBENE_1
 62
     1
  6
CONTINUOUS
 10
-2.137539
 20
2.855339
  0
VERTEX
  8
EBENE_1
 62
     1
  6
CONTINUOUS
 10
-2.132025
 20
2.851983
  0
VERTEX
  8
EBENE_1
 62
     1
  6
CONTINUOUS
 10
-2.128995
 20
2.846486
  0
VERTEX
  8
EBENE_1
 62
     1
  6
CONTINUOUS
 10
-2.129102
 20
2.840031
  0
SEQEND
  8
0
  0
POLYLINE
  8
EBENE_1
 62
     1
  6
CONTINUOUS
 66
     1
 40
0.003000
 41
0.003000
  0
VERTEX
  8
EBENE_1
 62
     1
  6
CONTINUOUS
 10
-2.129102
 20
2.840031
  0
VERTEX
  8
EBENE_1
 62
     1
  6
CONTINUOUS
 10
-2.132457
 20
2.834517
  0
VERTEX
  8
EBENE_1
 62
     1
  6
CONTINUOUS
 10
-2.137952
 20
2.831487
  0
VERTEX
  8
EBENE_1
 62
     1
  6
CONTINUOUS
 10
-2.144406
 20
2.831594
  0
SEQEND
  8
0
  0
POLYLINE
  8
EBENE_1
 62
     1
  6
CONTINUOUS
 66
     1
 40
0.003000
 41
0.003000
  0
VERTEX
  8
EBENE_1
 62
     1
  6
CONTINUOUS
 10
-2.144406
 20
2.831594
  0
VERTEX
  8
EBENE_1
 62
     1
  6
CONTINUOUS
 10
-2.149920
 20
2.834949
  0
VERTEX
  8
EBENE_1
 62
     1
  6
CONTINUOUS
 10
-2.152951
 20
2.840444
  0
VERTEX
  8
EBENE_1
 62
     1
  6
CONTINUOUS
 10
-2.152846
 20
2.846898
  0
SEQEND
  8
0
  0
POLYLINE
  8
EBENE_1
 62
     1
  6
CONTINUOUS
 66
     1
 40
0.003000
 41
0.003000
  0
VERTEX
  8
EBENE_1
 62
     1
  6
CONTINUOUS
 10
-2.152846
 20
2.846898
  0
VERTEX
  8
EBENE_1
 62
     1
  6
CONTINUOUS
 10
-2.149490
 20
2.852412
  0
VERTEX
  8
EBENE_1
 62
     1
  6
CONTINUOUS
 10
-2.143993
 20
2.855443
  0
VERTEX
  8
EBENE_1
 62
     1
  6
CONTINUOUS
 10
-2.137539
 20
2.855339
  0
SEQEND
  8
0
  0
ENDSEC
  0
EOF
