  0
SECTION
  2
HEADER
  9
$ACADVER
  1
AC1014
  9
$HANDSEED
  5
FFFF
  9
$MEASUREMENT
 70
     1
  0
ENDSEC
  0
SECTION
  2
TABLES
  0
TABLE
  2
VPORT
  5
8
330
0
100
AcDbSymbolTable
 70
     4
  0
VPORT
  5
2E
330
8
100
AcDbSymbolTableRecord
100
AcDbViewportTableRecord
  2
*ACTIVE
 70
     0
 10
0.0
 20
0.0
 11
1.0
 21
1.0
 12
210.0
 22
148.5
 13
0.0
 23
0.0
 14
10.0
 24
10.0
 15
10.0
 25
10.0
 16
0.0
 26
0.0
 36
1.0
 17
0.0
 27
0.0
 37
0.0
 40
341.0
 41
1.24
 42
50.0
 43
0.0
 44
0.0
 50
0.0
 51
0.0
 71
     0
 72
   100
 73
     1
 74
     3
 75
     0
 76
     0
 77
     0
 78
     0
  0
ENDTAB
  0
TABLE
  2
LTYPE
  5
5
330
0
100
AcDbSymbolTable
 70
     1
  0
LTYPE
  5
14
330
5
100
AcDbSymbolTableRecord
100
AcDbLinetypeTableRecord
  2
BYBLOCK
 70
     0
  3

 72
    65
 73
     0
 40
0.0
  0
LTYPE
  5
15
330
5
100
AcDbSymbolTableRecord
100
AcDbLinetypeTableRecord
  2
BYLAYER
 70
     0
  3

 72
    65
 73
     0
 40
0.0
  0
LTYPE
  5
16
330
5
100
AcDbSymbolTableRecord
100
AcDbLinetypeTableRecord
  2
CONTINUOUS
 70
     0
  3
Solid line
 72
    65
 73
     0
 40
0.0
  0
ENDTAB
  0
TABLE
  2
LAYER
  5
2
100
AcDbSymbolTable
 70
1
  0
LAYER
  5
50
100
AcDbSymbolTableRecord
100
AcDbLayerTableRecord
  2
0
 70
0
  6
CONTINUOUS
  0
ENDTAB
  0
TABLE
  2
STYLE
  5
3
330
0
100
AcDbSymbolTable
 70
     1
  0
STYLE
  5
11
330
3
100
AcDbSymbolTableRecord
100
AcDbTextStyleTableRecord
  2
STANDARD
 70
     0
 40
0.0
 41
1.0
 50
0.0
 71
     0
 42
2.5
  3
txt
  4

  0
ENDTAB
  0
TABLE
  2
VIEW
  5
6
330
0
100
AcDbSymbolTable
 70
     0
  0
ENDTAB
  0
TABLE
  2
UCS
  5
7
330
0
100
AcDbSymbolTable
 70
     0
  0
ENDTAB
  0
TABLE
  2
APPID
  5
9
330
0
100
AcDbSymbolTable
 70
     2
  0
APPID
  5
12
330
9
100
AcDbSymbolTableRecord
100
AcDbRegAppTableRecord
  2
ACAD
 70
     0
  0
ENDTAB
  0
TABLE
  2
DIMSTYLE
  5
A
330
0
100
AcDbSymbolTable
 70
     1
  0
DIMSTYLE
105
27
330
A
100
AcDbSymbolTableRecord
100
AcDbDimStyleTableRecord
  2
ISO-25
 70
     0
  3

  4

  5

  6

  7

 40
1.0
 41
2.5
 42
0.625
 43
3.75
 44
1.25
 45
0.0
 46
0.0
 47
0.0
 48
0.0
140
2.5
141
2.5
142
0.0
143
0.03937007874016
144
1.0
145
0.0
146
1.0
147
0.625
 71
     0
 72
     0
 73
     0
 74
     0
 75
     0
 76
     0
 77
     1
 78
     8
170
     0
171
     3
172
     1
173
     0
174
     0
175
     0
176
     0
177
     0
178
     0
270
     2
271
     2
272
     2
273
     2
274
     3
340
11
275
     0
280
     0
281
     0
282
     0
283
     0
284
     8
285
     0
286
     0
287
     3
288
     0
  0
ENDTAB
  0
TABLE
  2
BLOCK_RECORD
  5
1
330
0
100
AcDbSymbolTable
 70
     1
  0
BLOCK_RECORD
  5
1F
330
1
100
AcDbSymbolTableRecord
100
AcDbBlockTableRecord
  2
*MODEL_SPACE
  0
BLOCK_RECORD
  5
1B
330
1
100
AcDbSymbolTableRecord
100
AcDbBlockTableRecord
  2
*PAPER_SPACE
  0
ENDTAB
  0
ENDSEC
  0
SECTION
  2
BLOCKS
  0
BLOCK
  5
20
330
1F
100
AcDbEntity
  8
0
100
AcDbBlockBegin
  2
*MODEL_SPACE
 70
     0
 10
0.0
 20
0.0
 30
0.0
  3
*MODEL_SPACE
  1

  0
ENDBLK
  5
21
330
1F
100
AcDbEntity
  8
0
100
AcDbBlockEnd
  0
BLOCK
  5
1C
330
1B
100
AcDbEntity
 67
     1
  8
0
100
AcDbBlockBegin
  2
*PAPER_SPACE
  1

  0
ENDBLK
  5
1D
330
1B
100
AcDbEntity
 67
     1
  8
0
100
AcDbBlockEnd
  0
ENDSEC
  0
SECTION
  2
ENTITIES
  0
SPLINE
  5
100
100
AcDbEntity
  8
0
 62
7
100
AcDbSpline
 70
8
 71
3
 72
8
 73
4
 74
0
 40
0
 40
0
 40
0
 40
0
 40
1
 40
1
 40
1
 40
1
 10
197.636627
 20
90.872866
 30
0.0
 10
198.481283
 20
92.239518
 30
0.0
 10
200.655629
 20
94.078451
 30
0.0
 10
202.494880
 20
94.981660
 30
0.0
  0
SPLINE
  5
101
100
AcDbEntity
  8
0
 62
7
100
AcDbSpline
 70
8
 71
3
 72
8
 73
4
 74
0
 40
0
 40
0
 40
0
 40
0
 40
1
 40
1
 40
1
 40
1
 10
202.494880
 20
94.981660
 30
0.0
 10
206.720673
 20
97.056840
 30
0.0
 10
211.861765
 20
97.090389
 30
0.0
 10
225.160411
 20
95.129615
 30
0.0
  0
SPLINE
  5
102
100
AcDbEntity
  8
0
 62
7
100
AcDbSpline
 70
8
 71
3
 72
8
 73
4
 74
0
 40
0
 40
0
 40
0
 40
0
 40
1
 40
1
 40
1
 40
1
 10
225.160411
 20
95.129615
 30
0.0
 10
232.257224
 20
94.083240
 30
0.0
 10
237.525184
 20
93.760343
 30
0.0
 10
241.316214
 20
94.139385
 30
0.0
  0
SPLINE
  5
103
100
AcDbEntity
  8
0
 62
7
100
AcDbSpline
 70
8
 71
3
 72
8
 73
4
 74
0
 40
0
 40
0
 40
0
 40
0
 40
1
 40
1
 40
1
 40
1
 10
241.316214
 20
94.139385
 30
0.0
 10
246.421667
 20
94.649846
 30
0.0
 10
250.849283
 20
96.352519
 30
0.0
 10
253.780364
 20
98.932550
 30
0.0
  0
SPLINE
  5
104
100
AcDbEntity
  8
0
 62
7
100
AcDbSpline
 70
8
 71
3
 72
8
 73
4
 74
0
 40
0
 40
0
 40
0
 40
0
 40
1
 40
1
 40
1
 40
1
 10
253.780364
 20
98.932550
 30
0.0
 10
254.455131
 20
99.526513
 30
0.0
 10
255.137809
 20
100.012500
 30
0.0
 10
255.297379
 20
100.012500
 30
0.0
  0
SPLINE
  5
105
100
AcDbEntity
  8
0
 62
7
100
AcDbSpline
 70
8
 71
3
 72
8
 73
4
 74
0
 40
0
 40
0
 40
0
 40
0
 40
1
 40
1
 40
1
 40
1
 10
255.297379
 20
100.012500
 30
0.0
 10
255.456949
 20
100.012500
 30
0.0
 10
255.587495
 20
100.228956
 30
0.0
 10
255.587495
 20
100.493512
 30
0.0
  0
SPLINE
  5
106
100
AcDbEntity
  8
0
 62
7
100
AcDbSpline
 70
8
 71
3
 72
8
 73
4
 74
0
 40
0
 40
0
 40
0
 40
0
 40
1
 40
1
 40
1
 40
1
 10
255.587495
 20
100.493512
 30
0.0
 10
255.587495
 20
100.758043
 30
0.0
 10
255.943280
 20
110.074684
 30
0.0
 10
256.378123
 20
121.197158
 30
0.0
  0
SPLINE
  5
107
100
AcDbEntity
  8
0
 62
7
100
AcDbSpline
 70
8
 71
3
 72
8
 73
4
 74
0
 40
0
 40
0
 40
0
 40
0
 40
1
 40
1
 40
1
 40
1
 10
256.378123
 20
121.197158
 30
0.0
 10
257.456802
 20
148.787697
 30
0.0
 10
259.240570
 20
197.072462
 30
0.0
 10
259.431970
 20
203.861458
 30
0.0
  0
SPLINE
  5
108
100
AcDbEntity
  8
0
 62
7
100
AcDbSpline
 70
8
 71
3
 72
8
 73
4
 74
0
 40
0
 40
0
 40
0
 40
0
 40
1
 40
1
 40
1
 40
1
 10
259.431970
 20
203.861458
 30
0.0
 10
259.518118
 20
206.917396
 30
0.0
 10
259.639297
 20
209.670359
 30
0.0
 10
259.701263
 20
209.979154
 30
0.0
  0
SPLINE
  5
109
100
AcDbEntity
  8
0
 62
7
100
AcDbSpline
 70
8
 71
3
 72
8
 73
4
 74
0
 40
0
 40
0
 40
0
 40
0
 40
1
 40
1
 40
1
 40
1
 10
259.701263
 20
209.979154
 30
0.0
 10
259.804186
 20
210.492128
 30
0.0
 10
259.397521
 20
210.678607
 30
0.0
 10
254.988716
 20
212.140112
 30
0.0
  0
SPLINE
  5
10a
100
AcDbEntity
  8
0
 62
7
100
AcDbSpline
 70
8
 71
3
 72
8
 73
4
 74
0
 40
0
 40
0
 40
0
 40
0
 40
1
 40
1
 40
1
 40
1
 10
254.988716
 20
212.140112
 30
0.0
 10
249.789548
 20
213.863634
 30
0.0
 10
245.824476
 20
214.829364
 30
0.0
 10
240.382287
 20
215.697673
 30
0.0
  0
SPLINE
  5
10b
100
AcDbEntity
  8
0
 62
7
100
AcDbSpline
 70
8
 71
3
 72
8
 73
4
 74
0
 40
0
 40
0
 40
0
 40
0
 40
1
 40
1
 40
1
 40
1
 10
240.382287
 20
215.697673
 30
0.0
 10
237.361381
 20
216.179665
 30
0.0
 10
235.656485
 20
216.252742
 30
0.0
 10
226.615620
 20
216.287667
 30
0.0
  0
SPLINE
  5
10c
100
AcDbEntity
  8
0
 62
7
100
AcDbSpline
 70
8
 71
3
 72
8
 73
4
 74
0
 40
0
 40
0
 40
0
 40
0
 40
1
 40
1
 40
1
 40
1
 10
226.615620
 20
216.287667
 30
0.0
 10
217.528135
 20
216.322751
 30
0.0
 10
216.123224
 20
216.383526
 30
0.0
 10
214.841661
 20
216.796990
 30
0.0
  0
SPLINE
  5
10d
100
AcDbEntity
  8
0
 62
7
100
AcDbSpline
 70
8
 71
3
 72
8
 73
4
 74
0
 40
0
 40
0
 40
0
 40
0
 40
1
 40
1
 40
1
 40
1
 10
214.841661
 20
216.796990
 30
0.0
 10
211.540376
 20
217.862071
 30
0.0
 10
209.764836
 20
219.103707
 30
0.0
 10
195.130203
 20
230.581306
 30
0.0
  0
SPLINE
  5
10e
100
AcDbEntity
  8
0
 62
7
100
AcDbSpline
 70
8
 71
3
 72
8
 73
4
 74
0
 40
0
 40
0
 40
0
 40
0
 40
1
 40
1
 40
1
 40
1
 10
195.130203
 20
230.581306
 30
0.0
 10
190.473536
 20
234.233402
 30
0.0
 10
185.687118
 20
237.961461
 30
0.0
 10
184.493715
 20
238.865886
 30
0.0
  0
LWPOLYLINE
  5
10f
100
AcDbEntity
  8
0
 62
7
100
AcDbPolyline
 90
8
 70
1
 10
-0.000005
 20
317.632292
 30
0.0
 10
-0.000005
 20
635.264583
 30
0.0
 10
317.632292
 20
635.264583
 30
0.0
 10
635.264583
 20
635.264583
 30
0.0
 10
635.264583
 20
317.632292
 30
0.0
 10
635.264583
 20
0.000000
 30
0.0
 10
317.632292
 20
0.000000
 30
0.0
 10
-0.000005
 20
0.000000
 30
0.0
  0
SPLINE
  5
110
100
AcDbEntity
  8
0
 62
7
100
AcDbSpline
 70
8
 71
3
 72
8
 73
4
 74
0
 40
0
 40
0
 40
0
 40
0
 40
1
 40
1
 40
1
 40
1
 10
182.078069
 20
239.648365
 30
0.0
 10
180.053610
 20
232.550123
 30
0.0
 10
178.904339
 20
228.831299
 30
0.0
 10
177.906648
 20
226.150276
 30
0.0
  0
SPLINE
  5
111
100
AcDbEntity
  8
0
 62
7
100
AcDbSpline
 70
8
 71
3
 72
8
 73
4
 74
0
 40
0
 40
0
 40
0
 40
0
 40
1
 40
1
 40
1
 40
1
 10
177.906648
 20
226.150276
 30
0.0
 10
174.318713
 20
216.508727
 30
0.0
 10
173.433708
 20
213.326768
 30
0.0
 10
171.195148
 20
202.019350
 30
0.0
  0
SPLINE
  5
112
100
AcDbEntity
  8
0
 62
7
100
AcDbSpline
 70
8
 71
3
 72
8
 73
4
 74
0
 40
0
 40
0
 40
0
 40
0
 40
1
 40
1
 40
1
 40
1
 10
171.195148
 20
202.019350
 30
0.0
 10
170.015027
 20
196.058499
 30
0.0
 10
168.762675
 20
190.045843
 30
0.0
 10
168.412102
 20
188.657891
 30
0.0
  0
SPLINE
  5
113
100
AcDbEntity
  8
0
 62
7
100
AcDbSpline
 70
8
 71
3
 72
8
 73
4
 74
0
 40
0
 40
0
 40
0
 40
0
 40
1
 40
1
 40
1
 40
1
 10
168.412102
 20
188.657891
 30
0.0
 10
166.521257
 20
181.172062
 30
0.0
 10
164.845148
 20
165.584770
 30
0.0
 10
165.181857
 20
158.617708
 30
0.0
  0
SPLINE
  5
114
100
AcDbEntity
  8
0
 62
7
100
AcDbSpline
 70
8
 71
3
 72
8
 73
4
 74
0
 40
0
 40
0
 40
0
 40
0
 40
1
 40
1
 40
1
 40
1
 10
165.181857
 20
158.617708
 30
0.0
 10
165.266259
 20
156.871458
 30
0.0
 10
165.579314
 20
153.954427
 30
0.0
 10
165.877579
 20
152.135417
 30
0.0
  0
SPLINE
  5
115
100
AcDbEntity
  8
0
 62
7
100
AcDbSpline
 70
8
 71
3
 72
8
 73
4
 74
0
 40
0
 40
0
 40
0
 40
0
 40
1
 40
1
 40
1
 40
1
 10
165.877579
 20
152.135417
 30
0.0
 10
166.914137
 20
145.813621
 30
0.0
 10
167.004809
 20
139.934844
 30
0.0
 10
166.171398
 20
133.085417
 30
0.0
  0
SPLINE
  5
116
100
AcDbEntity
  8
0
 62
7
100
AcDbSpline
 70
8
 71
3
 72
8
 73
4
 74
0
 40
0
 40
0
 40
0
 40
0
 40
1
 40
1
 40
1
 40
1
 10
166.171398
 20
133.085417
 30
0.0
 10
165.727428
 20
129.436627
 30
0.0
 10
165.819344
 20
111.110818
 30
0.0
 10
166.317369
 20
103.981250
 30
0.0
  0
SPLINE
  5
117
100
AcDbEntity
  8
0
 62
7
100
AcDbSpline
 70
8
 71
3
 72
8
 73
4
 74
0
 40
0
 40
0
 40
0
 40
0
 40
1
 40
1
 40
1
 40
1
 10
166.317369
 20
103.981250
 30
0.0
 10
166.700142
 20
98.501597
 30
0.0
 10
167.616288
 20
92.380938
 30
0.0
 10
168.130717
 20
91.866508
 30
0.0
  0
SPLINE
  5
118
100
AcDbEntity
  8
0
 62
7
100
AcDbSpline
 70
8
 71
3
 72
8
 73
4
 74
0
 40
0
 40
0
 40
0
 40
0
 40
1
 40
1
 40
1
 40
1
 10
168.130717
 20
91.866508
 30
0.0
 10
168.203346
 20
91.793880
 30
0.0
 10
171.212319
 20
91.636956
 30
0.0
 10
174.817320
 20
91.517840
 30
0.0
  0
SPLINE
  5
119
100
AcDbEntity
  8
0
 62
7
100
AcDbSpline
 70
8
 71
3
 72
8
 73
4
 74
0
 40
0
 40
0
 40
0
 40
0
 40
1
 40
1
 40
1
 40
1
 10
174.817320
 20
91.517840
 30
0.0
 10
185.771970
 20
91.155837
 30
0.0
 10
194.172306
 20
90.576823
 30
0.0
 10
196.894577
 20
89.996063
 30
0.0
  0
SPLINE
  5
11a
100
AcDbEntity
  8
0
 62
7
100
AcDbSpline
 70
8
 71
3
 72
8
 73
4
 74
0
 40
0
 40
0
 40
0
 40
0
 40
1
 40
1
 40
1
 40
1
 10
196.894577
 20
89.996063
 30
0.0
 10
196.991838
 20
89.975425
 30
0.0
 10
197.325768
 20
90.369866
 30
0.0
 10
197.636627
 20
90.872866
 30
0.0
  0
LWPOLYLINE
  5
11b
100
AcDbEntity
  8
0
 62
7
100
AcDbPolyline
 90
3
 70
0
 10
184.493715
 20
238.865886
 30
0.0
 10
182.323893
 20
240.510245
 30
0.0
 10
182.078069
 20
239.648365
 30
0.0
  0
SPLINE
  5
11c
100
AcDbEntity
  8
0
 62
7
100
AcDbSpline
 70
8
 71
3
 72
8
 73
4
 74
0
 40
0
 40
0
 40
0
 40
0
 40
1
 40
1
 40
1
 40
1
 10
116.149908
 20
104.444271
 30
0.0
 10
116.149908
 20
111.101849
 30
0.0
 10
116.028094
 20
117.620521
 30
0.0
 10
115.881833
 20
118.930208
 30
0.0
  0
SPLINE
  5
11d
100
AcDbEntity
  8
0
 62
7
100
AcDbSpline
 70
8
 71
3
 72
8
 73
4
 74
0
 40
0
 40
0
 40
0
 40
0
 40
1
 40
1
 40
1
 40
1
 10
115.881833
 20
118.930208
 30
0.0
 10
115.108747
 20
125.853772
 30
0.0
 10
113.760800
 20
131.599279
 30
0.0
 10
112.436772
 20
133.614583
 30
0.0
  0
SPLINE
  5
11e
100
AcDbEntity
  8
0
 62
7
100
AcDbSpline
 70
8
 71
3
 72
8
 73
4
 74
0
 40
0
 40
0
 40
0
 40
0
 40
1
 40
1
 40
1
 40
1
 10
112.436772
 20
133.614583
 30
0.0
 10
111.207465
 20
135.485717
 30
0.0
 10
109.889232
 20
138.378539
 30
0.0
 10
109.567340
 20
139.911455
 30
0.0
  0
SPLINE
  5
11f
100
AcDbEntity
  8
0
 62
7
100
AcDbSpline
 70
8
 71
3
 72
8
 73
4
 74
0
 40
0
 40
0
 40
0
 40
0
 40
1
 40
1
 40
1
 40
1
 10
109.567340
 20
139.911455
 30
0.0
 10
109.121041
 20
142.036774
 30
0.0
 10
109.208909
 20
144.050226
 30
0.0
 10
109.911616
 20
147.800589
 30
0.0
  0
SPLINE
  5
120
100
AcDbEntity
  8
0
 62
7
100
AcDbSpline
 70
8
 71
3
 72
8
 73
4
 74
0
 40
0
 40
0
 40
0
 40
0
 40
1
 40
1
 40
1
 40
1
 10
109.911616
 20
147.800589
 30
0.0
 10
110.960980
 20
153.401104
 30
0.0
 10
111.125259
 20
156.325067
 30
0.0
 10
111.120232
 20
169.313146
 30
0.0
  0
SPLINE
  5
121
100
AcDbEntity
  8
0
 62
7
100
AcDbSpline
 70
8
 71
3
 72
8
 73
4
 74
0
 40
0
 40
0
 40
0
 40
0
 40
1
 40
1
 40
1
 40
1
 10
111.120232
 20
169.313146
 30
0.0
 10
111.113882
 20
185.933662
 30
0.0
 10
110.612126
 20
196.164438
 30
0.0
 10
109.627188
 20
199.760417
 30
0.0
  0
SPLINE
  5
122
100
AcDbEntity
  8
0
 62
7
100
AcDbSpline
 70
8
 71
3
 72
8
 73
4
 74
0
 40
0
 40
0
 40
0
 40
0
 40
1
 40
1
 40
1
 40
1
 10
109.627188
 20
199.760417
 30
0.0
 10
108.613305
 20
203.461964
 30
0.0
 10
102.494525
 20
214.218520
 30
0.0
 10
101.444922
 20
214.144490
 30
0.0
  0
SPLINE
  5
123
100
AcDbEntity
  8
0
 62
7
100
AcDbSpline
 70
8
 71
3
 72
8
 73
4
 74
0
 40
0
 40
0
 40
0
 40
0
 40
1
 40
1
 40
1
 40
1
 10
101.444922
 20
214.144490
 30
0.0
 10
101.166422
 20
214.124910
 30
0.0
 10
100.105099
 20
213.981586
 30
0.0
 10
99.086453
 20
213.826116
 30
0.0
  0
SPLINE
  5
124
100
AcDbEntity
  8
0
 62
7
100
AcDbSpline
 70
8
 71
3
 72
8
 73
4
 74
0
 40
0
 40
0
 40
0
 40
0
 40
1
 40
1
 40
1
 40
1
 10
99.086453
 20
213.826116
 30
0.0
 10
98.067807
 20
213.670674
 30
0.0
 10
95.627026
 20
213.411647
 30
0.0
 10
93.662495
 20
213.250515
 30
0.0
  0
SPLINE
  5
125
100
AcDbEntity
  8
0
 62
7
100
AcDbSpline
 70
8
 71
3
 72
8
 73
4
 74
0
 40
0
 40
0
 40
0
 40
0
 40
1
 40
1
 40
1
 40
1
 10
93.662495
 20
213.250515
 30
0.0
 10
90.644313
 20
213.002998
 30
0.0
 10
89.829688
 20
212.837025
 30
0.0
 10
88.407261
 20
212.179826
 30
0.0
  0
SPLINE
  5
126
100
AcDbEntity
  8
0
 62
7
100
AcDbSpline
 70
8
 71
3
 72
8
 73
4
 74
0
 40
0
 40
0
 40
0
 40
0
 40
1
 40
1
 40
1
 40
1
 10
88.407261
 20
212.179826
 30
0.0
 10
87.481431
 20
211.752074
 30
0.0
 10
86.680696
 20
211.402083
 30
0.0
 10
86.627885
 20
211.402083
 30
0.0
  0
SPLINE
  5
127
100
AcDbEntity
  8
0
 62
7
100
AcDbSpline
 70
8
 71
3
 72
8
 73
4
 74
0
 40
0
 40
0
 40
0
 40
0
 40
1
 40
1
 40
1
 40
1
 10
86.627885
 20
211.402083
 30
0.0
 10
86.575075
 20
211.402083
 30
0.0
 10
86.647729
 20
211.706936
 30
0.0
 10
86.789413
 20
212.079522
 30
0.0
  0
LWPOLYLINE
  5
128
100
AcDbEntity
  8
0
 62
7
100
AcDbPolyline
 90
1
 70
1
 10
197.636627
 20
90.872866
 30
0.0
  0
SPLINE
  5
129
100
AcDbEntity
  8
0
 62
7
100
AcDbSpline
 70
8
 71
3
 72
8
 73
4
 74
0
 40
0
 40
0
 40
0
 40
0
 40
1
 40
1
 40
1
 40
1
 10
85.261498
 20
212.600593
 30
0.0
 10
81.601463
 20
212.280103
 30
0.0
 10
67.479540
 20
211.666693
 30
0.0
 10
63.770981
 20
211.667116
 30
0.0
  0
SPLINE
  5
12a
100
AcDbEntity
  8
0
 62
7
100
AcDbSpline
 70
8
 71
3
 72
8
 73
4
 74
0
 40
0
 40
0
 40
0
 40
0
 40
1
 40
1
 40
1
 40
1
 10
63.770981
 20
211.667116
 30
0.0
 10
59.137545
 20
211.667116
 30
0.0
 10
52.989554
 20
212.038539
 30
0.0
 10
46.045565
 20
212.736430
 30
0.0
  0
SPLINE
  5
12b
100
AcDbEntity
  8
0
 62
7
100
AcDbSpline
 70
8
 71
3
 72
8
 73
4
 74
0
 40
0
 40
0
 40
0
 40
0
 40
1
 40
1
 40
1
 40
1
 10
46.045565
 20
212.736430
 30
0.0
 10
43.212353
 20
213.021175
 30
0.0
 10
40.563213
 20
213.254167
 30
0.0
 10
40.158585
 20
213.254167
 30
0.0
  0
LWPOLYLINE
  5
12c
100
AcDbEntity
  8
0
 62
7
100
AcDbPolyline
 90
3
 70
0
 10
86.789413
 20
212.079522
 30
0.0
 10
87.046959
 20
212.756935
 30
0.0
 10
85.261498
 20
212.600593
 30
0.0
  0
SPLINE
  5
12d
100
AcDbEntity
  8
0
 62
7
100
AcDbSpline
 70
8
 71
3
 72
8
 73
4
 74
0
 40
0
 40
0
 40
0
 40
0
 40
1
 40
1
 40
1
 40
1
 10
43.060932
 20
115.740815
 30
0.0
 10
48.381227
 20
113.891377
 30
0.0
 10
54.926780
 20
111.358892
 30
0.0
 10
64.597672
 20
107.408186
 30
0.0
  0
SPLINE
  5
12e
100
AcDbEntity
  8
0
 62
7
100
AcDbSpline
 70
8
 71
3
 72
8
 73
4
 74
0
 40
0
 40
0
 40
0
 40
0
 40
1
 40
1
 40
1
 40
1
 10
64.597672
 20
107.408186
 30
0.0
 10
91.955006
 20
96.232266
 30
0.0
 10
101.093318
 20
93.543702
 30
0.0
 10
115.689057
 20
92.376599
 30
0.0
  0
SPLINE
  5
12f
100
AcDbEntity
  8
0
 62
7
100
AcDbSpline
 70
8
 71
3
 72
8
 73
4
 74
0
 40
0
 40
0
 40
0
 40
0
 40
1
 40
1
 40
1
 40
1
 10
115.689057
 20
92.376599
 30
0.0
 10
116.123847
 20
92.341832
 30
0.0
 10
116.151946
 20
93.077533
 30
0.0
 10
116.149908
 20
104.444271
 30
0.0
  0
LWPOLYLINE
  5
130
100
AcDbEntity
  8
0
 62
7
100
AcDbPolyline
 90
5
 70
0
 10
40.158585
 20
213.254167
 30
0.0
 10
39.422911
 20
213.254167
 30
0.0
 10
39.422911
 20
165.129819
 30
0.0
 10
39.422911
 20
117.005444
 30
0.0
 10
43.060932
 20
115.740815
 30
0.0
  0
SPLINE
  5
131
100
AcDbEntity
  8
0
 62
7
100
AcDbSpline
 70
8
 71
3
 72
8
 73
4
 74
0
 40
0
 40
0
 40
0
 40
0
 40
1
 40
1
 40
1
 40
1
 10
151.187251
 20
94.257812
 30
0.0
 10
151.443843
 20
96.281240
 30
0.0
 10
151.870881
 20
108.287873
 30
0.0
 10
151.868103
 20
113.400337
 30
0.0
  0
SPLINE
  5
132
100
AcDbEntity
  8
0
 62
7
100
AcDbSpline
 70
8
 71
3
 72
8
 73
4
 74
0
 40
0
 40
0
 40
0
 40
0
 40
1
 40
1
 40
1
 40
1
 10
151.868103
 20
113.400337
 30
0.0
 10
151.862547
 20
123.333801
 30
0.0
 10
150.595457
 20
132.524156
 30
0.0
 10
148.319908
 20
139.133236
 30
0.0
  0
SPLINE
  5
133
100
AcDbEntity
  8
0
 62
7
100
AcDbSpline
 70
8
 71
3
 72
8
 73
4
 74
0
 40
0
 40
0
 40
0
 40
0
 40
1
 40
1
 40
1
 40
1
 10
148.319908
 20
139.133236
 30
0.0
 10
147.285731
 20
142.136865
 30
0.0
 10
147.029165
 20
144.786773
 30
0.0
 10
147.355317
 20
149.096386
 30
0.0
  0
SPLINE
  5
134
100
AcDbEntity
  8
0
 62
7
100
AcDbSpline
 70
8
 71
3
 72
8
 73
4
 74
0
 40
0
 40
0
 40
0
 40
0
 40
1
 40
1
 40
1
 40
1
 10
147.355317
 20
149.096386
 30
0.0
 10
147.745603
 20
154.253697
 30
0.0
 10
147.702794
 20
162.430645
 30
0.0
 10
147.253399
 20
168.570804
 30
0.0
  0
SPLINE
  5
135
100
AcDbEntity
  8
0
 62
7
100
AcDbSpline
 70
8
 71
3
 72
8
 73
4
 74
0
 40
0
 40
0
 40
0
 40
0
 40
1
 40
1
 40
1
 40
1
 10
147.253399
 20
168.570804
 30
0.0
 10
147.044431
 20
171.425632
 30
0.0
 10
146.746325
 20
177.319226
 30
0.0
 10
146.590882
 20
181.667679
 30
0.0
  0
SPLINE
  5
136
100
AcDbEntity
  8
0
 62
7
100
AcDbSpline
 70
8
 71
3
 72
8
 73
4
 74
0
 40
0
 40
0
 40
0
 40
0
 40
1
 40
1
 40
1
 40
1
 10
146.590882
 20
181.667679
 30
0.0
 10
146.435466
 20
186.016133
 30
0.0
 10
146.181704
 20
191.158177
 30
0.0
 10
146.027002
 20
193.094451
 30
0.0
  0
SPLINE
  5
137
100
AcDbEntity
  8
0
 62
7
100
AcDbSpline
 70
8
 71
3
 72
8
 73
4
 74
0
 40
0
 40
0
 40
0
 40
0
 40
1
 40
1
 40
1
 40
1
 10
146.027002
 20
193.094451
 30
0.0
 10
145.872301
 20
195.030725
 30
0.0
 10
145.651876
 20
201.361887
 30
0.0
 10
145.537179
 20
207.163723
 30
0.0
  0
SPLINE
  5
138
100
AcDbEntity
  8
0
 62
7
100
AcDbSpline
 70
8
 71
3
 72
8
 73
4
 74
0
 40
0
 40
0
 40
0
 40
0
 40
1
 40
1
 40
1
 40
1
 10
145.537179
 20
207.163723
 30
0.0
 10
145.345118
 20
216.879355
 30
0.0
 10
145.287783
 20
217.791268
 30
0.0
 10
144.811268
 20
218.709505
 30
0.0
  0
SPLINE
  5
139
100
AcDbEntity
  8
0
 62
7
100
AcDbSpline
 70
8
 71
3
 72
8
 73
4
 74
0
 40
0
 40
0
 40
0
 40
0
 40
1
 40
1
 40
1
 40
1
 10
144.811268
 20
218.709505
 30
0.0
 10
143.737774
 20
220.778070
 30
0.0
 10
141.874790
 20
221.324144
 30
0.0
 10
140.472948
 20
219.981119
 30
0.0
  0
SPLINE
  5
13a
100
AcDbEntity
  8
0
 62
7
100
AcDbSpline
 70
8
 71
3
 72
8
 73
4
 74
0
 40
0
 40
0
 40
0
 40
0
 40
1
 40
1
 40
1
 40
1
 10
140.472948
 20
219.981119
 30
0.0
 10
139.022661
 20
218.591659
 30
0.0
 10
137.291625
 20
214.433970
 30
0.0
 10
134.928261
 20
206.663634
 30
0.0
  0
SPLINE
  5
13b
100
AcDbEntity
  8
0
 62
7
100
AcDbSpline
 70
8
 71
3
 72
8
 73
4
 74
0
 40
0
 40
0
 40
0
 40
0
 40
1
 40
1
 40
1
 40
1
 10
134.928261
 20
206.663634
 30
0.0
 10
133.516391
 20
202.021652
 30
0.0
 10
133.149732
 20
199.699324
 30
0.0
 10
131.645231
 20
185.869792
 30
0.0
  0
SPLINE
  5
13c
100
AcDbEntity
  8
0
 62
7
100
AcDbSpline
 70
8
 71
3
 72
8
 73
4
 74
0
 40
0
 40
0
 40
0
 40
0
 40
1
 40
1
 40
1
 40
1
 10
131.645231
 20
185.869792
 30
0.0
 10
128.926717
 20
160.881139
 30
0.0
 10
128.739418
 20
157.627955
 30
0.0
 10
129.649982
 20
151.216995
 30
0.0
  0
SPLINE
  5
13d
100
AcDbEntity
  8
0
 62
7
100
AcDbSpline
 70
8
 71
3
 72
8
 73
4
 74
0
 40
0
 40
0
 40
0
 40
0
 40
1
 40
1
 40
1
 40
1
 10
129.649982
 20
151.216995
 30
0.0
 10
130.538347
 20
144.962298
 30
0.0
 10
130.283051
 20
140.438743
 30
0.0
 10
128.656577
 20
133.614583
 30
0.0
  0
SPLINE
  5
13e
100
AcDbEntity
  8
0
 62
7
100
AcDbSpline
 70
8
 71
3
 72
8
 73
4
 74
0
 40
0
 40
0
 40
0
 40
0
 40
1
 40
1
 40
1
 40
1
 10
128.656577
 20
133.614583
 30
0.0
 10
127.960961
 20
130.696070
 30
0.0
 10
127.933286
 20
130.312689
 30
0.0
 10
127.978292
 20
124.221875
 30
0.0
  0
SPLINE
  5
13f
100
AcDbEntity
  8
0
 62
7
100
AcDbSpline
 70
8
 71
3
 72
8
 73
4
 74
0
 40
0
 40
0
 40
0
 40
0
 40
1
 40
1
 40
1
 40
1
 10
127.978292
 20
124.221875
 30
0.0
 10
128.053989
 20
113.979060
 30
0.0
 10
128.723358
 20
100.481051
 30
0.0
 10
129.262050
 20
98.334777
 30
0.0
  0
SPLINE
  5
140
100
AcDbEntity
  8
0
 62
7
100
AcDbSpline
 70
8
 71
3
 72
8
 73
4
 74
0
 40
0
 40
0
 40
0
 40
0
 40
1
 40
1
 40
1
 40
1
 10
129.262050
 20
98.334777
 30
0.0
 10
129.395903
 20
97.801430
 30
0.0
 10
129.721102
 20
97.696814
 30
0.0
 10
132.636863
 20
97.249059
 30
0.0
  0
SPLINE
  5
141
100
AcDbEntity
  8
0
 62
7
100
AcDbSpline
 70
8
 71
3
 72
8
 73
4
 74
0
 40
0
 40
0
 40
0
 40
0
 40
1
 40
1
 40
1
 40
1
 10
132.636863
 20
97.249059
 30
0.0
 10
134.411529
 20
96.976512
 30
0.0
 10
137.173224
 20
96.672559
 30
0.0
 10
138.773953
 20
96.573552
 30
0.0
  0
SPLINE
  5
142
100
AcDbEntity
  8
0
 62
7
100
AcDbSpline
 70
8
 71
3
 72
8
 73
4
 74
0
 40
0
 40
0
 40
0
 40
0
 40
1
 40
1
 40
1
 40
1
 10
138.773953
 20
96.573552
 30
0.0
 10
141.417432
 20
96.410066
 30
0.0
 10
141.908048
 20
96.293120
 30
0.0
 10
144.123087
 20
95.298207
 30
0.0
  0
SPLINE
  5
143
100
AcDbEntity
  8
0
 62
7
100
AcDbSpline
 70
8
 71
3
 72
8
 73
4
 74
0
 40
0
 40
0
 40
0
 40
0
 40
1
 40
1
 40
1
 40
1
 10
144.123087
 20
95.298207
 30
0.0
 10
146.208004
 20
94.361741
 30
0.0
 10
149.675792
 20
93.238135
 30
0.0
 10
150.730130
 20
93.157410
 30
0.0
  0
SPLINE
  5
144
100
AcDbEntity
  8
0
 62
7
100
AcDbSpline
 70
8
 71
3
 72
8
 73
4
 74
0
 40
0
 40
0
 40
0
 40
0
 40
1
 40
1
 40
1
 40
1
 10
150.730130
 20
93.157410
 30
0.0
 10
150.907533
 20
93.143917
 30
0.0
 10
151.106817
 20
93.623606
 30
0.0
 10
151.187251
 20
94.257812
 30
0.0
  0
LWPOLYLINE
  5
145
100
AcDbEntity
  8
0
 62
7
100
AcDbPolyline
 90
1
 70
1
 10
116.149908
 20
104.444271
 30
0.0
  0
SPLINE
  5
146
100
AcDbEntity
  8
0
 62
7
100
AcDbSpline
 70
8
 71
3
 72
8
 73
4
 74
0
 40
0
 40
0
 40
0
 40
0
 40
1
 40
1
 40
1
 40
1
 10
299.988764
 20
100.389584
 30
0.0
 10
307.981985
 20
102.186555
 30
0.0
 10
312.710989
 20
102.922917
 30
0.0
 10
316.257940
 20
102.922917
 30
0.0
  0
SPLINE
  5
147
100
AcDbEntity
  8
0
 62
7
100
AcDbSpline
 70
8
 71
3
 72
8
 73
4
 74
0
 40
0
 40
0
 40
0
 40
0
 40
1
 40
1
 40
1
 40
1
 10
316.257940
 20
102.922917
 30
0.0
 10
318.806354
 20
102.922917
 30
0.0
 10
319.352083
 20
104.306979
 30
0.0
 10
319.352083
 20
110.770167
 30
0.0
  0
SPLINE
  5
148
100
AcDbEntity
  8
0
 62
7
100
AcDbSpline
 70
8
 71
3
 72
8
 73
4
 74
0
 40
0
 40
0
 40
0
 40
0
 40
1
 40
1
 40
1
 40
1
 10
319.352083
 20
110.770167
 30
0.0
 10
319.352083
 20
113.148136
 30
0.0
 10
319.443497
 20
115.093750
 30
0.0
 10
319.555257
 20
115.093750
 30
0.0
  0
SPLINE
  5
149
100
AcDbEntity
  8
0
 62
7
100
AcDbSpline
 70
8
 71
3
 72
8
 73
4
 74
0
 40
0
 40
0
 40
0
 40
0
 40
1
 40
1
 40
1
 40
1
 10
319.555257
 20
115.093750
 30
0.0
 10
319.666990
 20
115.093750
 30
0.0
 10
320.752311
 20
112.181957
 30
0.0
 10
321.967066
 20
108.623074
 30
0.0
  0
LWPOLYLINE
  5
14a
100
AcDbEntity
  8
0
 62
7
100
AcDbPolyline
 90
1
 70
1
 10
151.187251
 20
94.257812
 30
0.0
  0
SPLINE
  5
14b
100
AcDbEntity
  8
0
 62
7
100
AcDbSpline
 70
8
 71
3
 72
8
 73
4
 74
0
 40
0
 40
0
 40
0
 40
0
 40
1
 40
1
 40
1
 40
1
 10
325.666497
 20
102.902041
 30
0.0
 10
332.528333
 20
106.352419
 30
0.0
 10
342.275583
 20
109.095805
 30
0.0
 10
352.028125
 20
110.321513
 30
0.0
  0
SPLINE
  5
14c
100
AcDbEntity
  8
0
 62
7
100
AcDbSpline
 70
8
 71
3
 72
8
 73
4
 74
0
 40
0
 40
0
 40
0
 40
0
 40
1
 40
1
 40
1
 40
1
 10
352.028125
 20
110.321513
 30
0.0
 10
359.588832
 20
111.271764
 30
0.0
 10
363.418226
 20
111.444405
 30
0.0
 10
379.875521
 20
111.576988
 30
0.0
  0
SPLINE
  5
14d
100
AcDbEntity
  8
0
 62
7
100
AcDbSpline
 70
8
 71
3
 72
8
 73
4
 74
0
 40
0
 40
0
 40
0
 40
0
 40
1
 40
1
 40
1
 40
1
 10
379.875521
 20
111.576988
 30
0.0
 10
390.094973
 20
111.659326
 30
0.0
 10
396.081250
 20
111.802466
 30
0.0
 10
396.081250
 20
111.964549
 30
0.0
  0
SPLINE
  5
14e
100
AcDbEntity
  8
0
 62
7
100
AcDbSpline
 70
8
 71
3
 72
8
 73
4
 74
0
 40
0
 40
0
 40
0
 40
0
 40
1
 40
1
 40
1
 40
1
 10
396.081250
 20
111.964549
 30
0.0
 10
396.081250
 20
112.105916
 30
0.0
 10
395.774307
 20
113.552420
 30
0.0
 10
395.399154
 20
115.178999
 30
0.0
  0
SPLINE
  5
14f
100
AcDbEntity
  8
0
 62
7
100
AcDbSpline
 70
8
 71
3
 72
8
 73
4
 74
0
 40
0
 40
0
 40
0
 40
0
 40
1
 40
1
 40
1
 40
1
 10
395.399154
 20
115.178999
 30
0.0
 10
393.291086
 20
124.319056
 30
0.0
 10
392.622484
 20
129.345320
 30
0.0
 10
392.506888
 20
136.921875
 30
0.0
  0
SPLINE
  5
150
100
AcDbEntity
  8
0
 62
7
100
AcDbSpline
 70
8
 71
3
 72
8
 73
4
 74
0
 40
0
 40
0
 40
0
 40
0
 40
1
 40
1
 40
1
 40
1
 10
392.506888
 20
136.921875
 30
0.0
 10
392.436694
 20
141.522291
 30
0.0
 10
392.283553
 20
142.937018
 30
0.0
 10
390.702668
 20
153.590625
 30
0.0
  0
SPLINE
  5
151
100
AcDbEntity
  8
0
 62
7
100
AcDbSpline
 70
8
 71
3
 72
8
 73
4
 74
0
 40
0
 40
0
 40
0
 40
0
 40
1
 40
1
 40
1
 40
1
 10
390.702668
 20
153.590625
 30
0.0
 10
389.090588
 20
164.454258
 30
0.0
 10
388.708926
 20
166.425854
 30
0.0
 10
384.991716
 20
183.091667
 30
0.0
  0
SPLINE
  5
152
100
AcDbEntity
  8
0
 62
7
100
AcDbSpline
 70
8
 71
3
 72
8
 73
4
 74
0
 40
0
 40
0
 40
0
 40
0
 40
1
 40
1
 40
1
 40
1
 10
384.991716
 20
183.091667
 30
0.0
 10
382.800834
 20
192.914323
 30
0.0
 10
380.778623
 20
201.903542
 30
0.0
 10
380.497927
 20
203.067708
 30
0.0
  0
LWPOLYLINE
  5
153
100
AcDbEntity
  8
0
 62
7
100
AcDbPolyline
 90
3
 70
0
 10
321.967066
 20
108.623074
 30
0.0
 10
324.175702
 20
102.152397
 30
0.0
 10
325.666497
 20
102.902041
 30
0.0
  0
SPLINE
  5
154
100
AcDbEntity
  8
0
 62
7
100
AcDbSpline
 70
8
 71
3
 72
8
 73
4
 74
0
 40
0
 40
0
 40
0
 40
0
 40
1
 40
1
 40
1
 40
1
 10
377.472522
 20
207.565625
 30
0.0
 10
376.089254
 20
208.875312
 30
0.0
 10
373.935625
 20
211.278999
 30
0.0
 10
372.686659
 20
212.907166
 30
0.0
  0
SPLINE
  5
155
100
AcDbEntity
  8
0
 62
7
100
AcDbSpline
 70
8
 71
3
 72
8
 73
4
 74
0
 40
0
 40
0
 40
0
 40
0
 40
1
 40
1
 40
1
 40
1
 10
372.686659
 20
212.907166
 30
0.0
 10
370.503397
 20
215.753289
 30
0.0
 10
370.354886
 20
216.037186
 30
0.0
 10
368.835517
 20
220.269700
 30
0.0
  0
SPLINE
  5
156
100
AcDbEntity
  8
0
 62
7
100
AcDbSpline
 70
8
 71
3
 72
8
 73
4
 74
0
 40
0
 40
0
 40
0
 40
0
 40
1
 40
1
 40
1
 40
1
 10
368.835517
 20
220.269700
 30
0.0
 10
367.177055
 20
224.889695
 30
0.0
 10
365.625248
 20
230.589217
 30
0.0
 10
365.560240
 20
232.299272
 30
0.0
  0
SPLINE
  5
157
100
AcDbEntity
  8
0
 62
7
100
AcDbSpline
 70
8
 71
3
 72
8
 73
4
 74
0
 40
0
 40
0
 40
0
 40
0
 40
1
 40
1
 40
1
 40
1
 10
365.560240
 20
232.299272
 30
0.0
 10
365.539073
 20
232.854130
 30
0.0
 10
365.432578
 20
233.253783
 30
0.0
 10
365.323438
 20
233.187399
 30
0.0
  0
SPLINE
  5
158
100
AcDbEntity
  8
0
 62
7
100
AcDbSpline
 70
8
 71
3
 72
8
 73
4
 74
0
 40
0
 40
0
 40
0
 40
0
 40
1
 40
1
 40
1
 40
1
 10
365.323438
 20
233.187399
 30
0.0
 10
365.214297
 20
233.121015
 30
0.0
 10
365.110924
 20
233.460660
 30
0.0
 10
365.093700
 20
233.942202
 30
0.0
  0
SPLINE
  5
159
100
AcDbEntity
  8
0
 62
7
100
AcDbSpline
 70
8
 71
3
 72
8
 73
4
 74
0
 40
0
 40
0
 40
0
 40
0
 40
1
 40
1
 40
1
 40
1
 10
365.093700
 20
233.942202
 30
0.0
 10
365.076502
 20
234.423717
 30
0.0
 10
364.987179
 20
235.162037
 30
0.0
 10
364.895262
 20
235.582883
 30
0.0
  0
SPLINE
  5
15a
100
AcDbEntity
  8
0
 62
7
100
AcDbSpline
 70
8
 71
3
 72
8
 73
4
 74
0
 40
0
 40
0
 40
0
 40
0
 40
1
 40
1
 40
1
 40
1
 10
364.895262
 20
235.582883
 30
0.0
 10
364.729501
 20
236.341708
 30
0.0
 10
364.693015
 20
236.315700
 30
0.0
 10
360.494792
 20
232.446856
 30
0.0
  0
SPLINE
  5
15b
100
AcDbEntity
  8
0
 62
7
100
AcDbSpline
 70
8
 71
3
 72
8
 73
4
 74
0
 40
0
 40
0
 40
0
 40
0
 40
1
 40
1
 40
1
 40
1
 10
360.494792
 20
232.446856
 30
0.0
 10
346.447719
 20
219.501932
 30
0.0
 10
337.586505
 20
212.983022
 30
0.0
 10
329.404133
 20
209.574421
 30
0.0
  0
SPLINE
  5
15c
100
AcDbEntity
  8
0
 62
7
100
AcDbSpline
 70
8
 71
3
 72
8
 73
4
 74
0
 40
0
 40
0
 40
0
 40
0
 40
1
 40
1
 40
1
 40
1
 10
329.404133
 20
209.574421
 30
0.0
 10
325.910787
 20
208.119186
 30
0.0
 10
322.870169
 20
207.281806
 30
0.0
 10
318.224509
 20
206.495571
 30
0.0
  0
SPLINE
  5
15d
100
AcDbEntity
  8
0
 62
7
100
AcDbSpline
 70
8
 71
3
 72
8
 73
4
 74
0
 40
0
 40
0
 40
0
 40
0
 40
1
 40
1
 40
1
 40
1
 10
318.224509
 20
206.495571
 30
0.0
 10
316.035320
 20
206.125075
 30
0.0
 10
311.553675
 20
205.178184
 30
0.0
 10
308.265301
 20
204.391339
 30
0.0
  0
SPLINE
  5
15e
100
AcDbEntity
  8
0
 62
7
100
AcDbSpline
 70
8
 71
3
 72
8
 73
4
 74
0
 40
0
 40
0
 40
0
 40
0
 40
1
 40
1
 40
1
 40
1
 10
308.265301
 20
204.391339
 30
0.0
 10
304.976953
 20
203.604521
 30
0.0
 10
301.223918
 20
202.775555
 30
0.0
 10
299.925264
 20
202.549231
 30
0.0
  0
SPLINE
  5
15f
100
AcDbEntity
  8
0
 62
7
100
AcDbSpline
 70
8
 71
3
 72
8
 73
4
 74
0
 40
0
 40
0
 40
0
 40
0
 40
1
 40
1
 40
1
 40
1
 10
299.925264
 20
202.549231
 30
0.0
 10
298.626609
 20
202.322880
 30
0.0
 10
297.522186
 20
202.095814
 30
0.0
 10
297.471015
 20
202.044617
 30
0.0
  0
SPLINE
  5
160
100
AcDbEntity
  8
0
 62
7
100
AcDbSpline
 70
8
 71
3
 72
8
 73
4
 74
0
 40
0
 40
0
 40
0
 40
0
 40
1
 40
1
 40
1
 40
1
 10
297.471015
 20
202.044617
 30
0.0
 10
297.337427
 20
201.911029
 30
0.0
 10
297.160077
 20
196.724005
 30
0.0
 10
296.850118
 20
183.885417
 30
0.0
  0
SPLINE
  5
161
100
AcDbEntity
  8
0
 62
7
100
AcDbSpline
 70
8
 71
3
 72
8
 73
4
 74
0
 40
0
 40
0
 40
0
 40
0
 40
1
 40
1
 40
1
 40
1
 10
296.850118
 20
183.885417
 30
0.0
 10
296.591276
 20
173.164394
 30
0.0
 10
294.963400
 20
115.864031
 30
0.0
 10
294.596979
 20
104.576562
 30
0.0
  0
SPLINE
  5
162
100
AcDbEntity
  8
0
 62
7
100
AcDbSpline
 70
8
 71
3
 72
8
 73
4
 74
0
 40
0
 40
0
 40
0
 40
0
 40
1
 40
1
 40
1
 40
1
 10
294.596979
 20
104.576562
 30
0.0
 10
294.501305
 20
101.629766
 30
0.0
 10
294.503501
 20
99.218750
 30
0.0
 10
294.601741
 20
99.218750
 30
0.0
  0
SPLINE
  5
163
100
AcDbEntity
  8
0
 62
7
100
AcDbSpline
 70
8
 71
3
 72
8
 73
4
 74
0
 40
0
 40
0
 40
0
 40
0
 40
1
 40
1
 40
1
 40
1
 10
294.601741
 20
99.218750
 30
0.0
 10
294.700087
 20
99.218750
 30
0.0
 10
297.124199
 20
99.745615
 30
0.0
 10
299.988658
 20
100.389584
 30
0.0
  0
LWPOLYLINE
  5
164
100
AcDbEntity
  8
0
 62
7
100
AcDbPolyline
 90
3
 70
0
 10
380.497927
 20
203.067708
 30
0.0
 10
379.987545
 20
205.184375
 30
0.0
 10
377.472522
 20
207.565625
 30
0.0
  0
SPLINE
  5
165
100
AcDbEntity
  8
0
 62
7
100
AcDbSpline
 70
8
 71
3
 72
8
 73
4
 74
0
 40
0
 40
0
 40
0
 40
0
 40
1
 40
1
 40
1
 40
1
 10
419.629167
 20
113.067941
 30
0.0
 10
421.542792
 20
113.304135
 30
0.0
 10
422.142603
 20
113.472410
 30
0.0
 10
422.142311
 20
113.772950
 30
0.0
  0
SPLINE
  5
166
100
AcDbEntity
  8
0
 62
7
100
AcDbSpline
 70
8
 71
3
 72
8
 73
4
 74
0
 40
0
 40
0
 40
0
 40
0
 40
1
 40
1
 40
1
 40
1
 10
422.142311
 20
113.772950
 30
0.0
 10
422.139401
 20
116.627275
 30
0.0
 10
421.572769
 20
125.705473
 30
0.0
 10
420.977113
 20
132.439251
 30
0.0
  0
SPLINE
  5
167
100
AcDbEntity
  8
0
 62
7
100
AcDbSpline
 70
8
 71
3
 72
8
 73
4
 74
0
 40
0
 40
0
 40
0
 40
0
 40
1
 40
1
 40
1
 40
1
 10
420.977113
 20
132.439251
 30
0.0
 10
420.464536
 20
138.233759
 30
0.0
 10
420.294779
 20
141.335548
 30
0.0
 10
420.441385
 20
142.228835
 30
0.0
  0
SPLINE
  5
168
100
AcDbEntity
  8
0
 62
7
100
AcDbSpline
 70
8
 71
3
 72
8
 73
4
 74
0
 40
0
 40
0
 40
0
 40
0
 40
1
 40
1
 40
1
 40
1
 10
420.441385
 20
142.228835
 30
0.0
 10
420.559389
 20
142.948025
 30
0.0
 10
420.661809
 20
144.250833
 30
0.0
 10
420.668953
 20
145.123958
 30
0.0
  0
SPLINE
  5
169
100
AcDbEntity
  8
0
 62
7
100
AcDbSpline
 70
8
 71
3
 72
8
 73
4
 74
0
 40
0
 40
0
 40
0
 40
0
 40
1
 40
1
 40
1
 40
1
 10
420.668953
 20
145.123958
 30
0.0
 10
420.685092
 20
147.101401
 30
0.0
 10
419.623928
 20
152.398836
 30
0.0
 10
418.870368
 20
154.102409
 30
0.0
  0
SPLINE
  5
16a
100
AcDbEntity
  8
0
 62
7
100
AcDbSpline
 70
8
 71
3
 72
8
 73
4
 74
0
 40
0
 40
0
 40
0
 40
0
 40
1
 40
1
 40
1
 40
1
 10
418.870368
 20
154.102409
 30
0.0
 10
418.560091
 20
154.803819
 30
0.0
 10
418.306250
 20
155.539757
 30
0.0
 10
418.306250
 20
155.737825
 30
0.0
  0
SPLINE
  5
16b
100
AcDbEntity
  8
0
 62
7
100
AcDbSpline
 70
8
 71
3
 72
8
 73
4
 74
0
 40
0
 40
0
 40
0
 40
0
 40
1
 40
1
 40
1
 40
1
 10
418.306250
 20
155.737825
 30
0.0
 10
418.306250
 20
155.935918
 30
0.0
 10
417.903686
 20
157.081643
 30
0.0
 10
417.411667
 20
158.283884
 30
0.0
  0
SPLINE
  5
16c
100
AcDbEntity
  8
0
 62
7
100
AcDbSpline
 70
8
 71
3
 72
8
 73
4
 74
0
 40
0
 40
0
 40
0
 40
0
 40
1
 40
1
 40
1
 40
1
 10
417.411667
 20
158.283884
 30
0.0
 10
416.919648
 20
159.486124
 30
0.0
 10
416.250887
 20
161.422292
 30
0.0
 10
415.925503
 20
162.586458
 30
0.0
  0
SPLINE
  5
16d
100
AcDbEntity
  8
0
 62
7
100
AcDbSpline
 70
8
 71
3
 72
8
 73
4
 74
0
 40
0
 40
0
 40
0
 40
0
 40
1
 40
1
 40
1
 40
1
 10
415.925503
 20
162.586458
 30
0.0
 10
415.600118
 20
163.750625
 30
0.0
 10
414.901354
 20
165.833187
 30
0.0
 10
414.372690
 20
167.214365
 30
0.0
  0
LWPOLYLINE
  5
16e
100
AcDbEntity
  8
0
 62
7
100
AcDbPolyline
 90
2
 70
0
 10
299.988658
 20
100.389584
 30
0.0
 10
299.988764
 20
100.389584
 30
0.0
  0
SPLINE
  5
16f
100
AcDbEntity
  8
0
 62
7
100
AcDbSpline
 70
8
 71
3
 72
8
 73
4
 74
0
 40
0
 40
0
 40
0
 40
0
 40
1
 40
1
 40
1
 40
1
 10
413.332480
 20
168.537281
 30
0.0
 10
413.289036
 20
167.883708
 30
0.0
 10
412.839429
 20
164.670052
 30
0.0
 10
412.333361
 20
161.395833
 30
0.0
  0
LWPOLYLINE
  5
170
100
AcDbEntity
  8
0
 62
7
100
AcDbPolyline
 90
3
 70
0
 10
414.372690
 20
167.214365
 30
0.0
 10
413.411458
 20
169.725605
 30
0.0
 10
413.332480
 20
168.537281
 30
0.0
  0
SPLINE
  5
171
100
AcDbEntity
  8
0
 62
7
100
AcDbSpline
 70
8
 71
3
 72
8
 73
4
 74
0
 40
0
 40
0
 40
0
 40
0
 40
1
 40
1
 40
1
 40
1
 10
411.833510
 20
148.563542
 30
0.0
 10
412.118651
 20
143.895974
 30
0.0
 10
412.546191
 20
139.798319
 30
0.0
 10
413.163332
 20
135.817769
 30
0.0
  0
SPLINE
  5
172
100
AcDbEntity
  8
0
 62
7
100
AcDbSpline
 70
8
 71
3
 72
8
 73
4
 74
0
 40
0
 40
0
 40
0
 40
0
 40
1
 40
1
 40
1
 40
1
 10
413.163332
 20
135.817769
 30
0.0
 10
414.015555
 20
130.321235
 30
0.0
 10
414.072679
 20
129.545159
 30
0.0
 10
414.069001
 20
123.514644
 30
0.0
  0
SPLINE
  5
173
100
AcDbEntity
  8
0
 62
7
100
AcDbSpline
 70
8
 71
3
 72
8
 73
4
 74
0
 40
0
 40
0
 40
0
 40
0
 40
1
 40
1
 40
1
 40
1
 10
414.069001
 20
123.514644
 30
0.0
 10
414.066090
 20
118.780348
 30
0.0
 10
413.961130
 20
116.623306
 30
0.0
 10
413.671941
 20
115.358333
 30
0.0
  0
SPLINE
  5
174
100
AcDbEntity
  8
0
 62
7
100
AcDbSpline
 70
8
 71
3
 72
8
 73
4
 74
0
 40
0
 40
0
 40
0
 40
0
 40
1
 40
1
 40
1
 40
1
 10
413.671941
 20
115.358333
 30
0.0
 10
413.455697
 20
114.412448
 30
0.0
 10
413.213841
 20
113.357766
 30
0.0
 10
413.134466
 20
113.014601
 30
0.0
  0
LWPOLYLINE
  5
175
100
AcDbEntity
  8
0
 62
7
100
AcDbPolyline
 90
3
 70
0
 10
412.333361
 20
161.395833
 30
0.0
 10
411.413219
 20
155.442708
 30
0.0
 10
411.833510
 20
148.563542
 30
0.0
  0
SPLINE
  5
176
100
AcDbEntity
  8
0
 62
7
100
AcDbSpline
 70
8
 71
3
 72
8
 73
4
 74
0
 40
0
 40
0
 40
0
 40
0
 40
1
 40
1
 40
1
 40
1
 10
415.052880
 20
112.574176
 30
0.0
 10
416.187387
 20
112.675114
 30
0.0
 10
418.246719
 20
112.897311
 30
0.0
 10
419.629167
 20
113.067941
 30
0.0
  0
LWPOLYLINE
  5
177
100
AcDbEntity
  8
0
 62
7
100
AcDbPolyline
 90
3
 70
0
 10
413.134466
 20
113.014601
 30
0.0
 10
412.990136
 20
112.390687
 30
0.0
 10
415.052880
 20
112.574176
 30
0.0
  0
SPLINE
  5
178
100
AcDbEntity
  8
0
 62
7
100
AcDbSpline
 70
8
 71
3
 72
8
 73
4
 74
0
 40
0
 40
0
 40
0
 40
0
 40
1
 40
1
 40
1
 40
1
 10
434.598392
 20
115.892183
 30
0.0
 10
436.187982
 20
116.331312
 30
0.0
 10
438.784444
 20
117.134984
 30
0.0
 10
440.368320
 20
117.678121
 30
0.0
  0
LWPOLYLINE
  5
179
100
AcDbEntity
  8
0
 62
7
100
AcDbPolyline
 90
1
 70
1
 10
419.629167
 20
113.067941
 30
0.0
  0
SPLINE
  5
17a
100
AcDbEntity
  8
0
 62
7
100
AcDbSpline
 70
8
 71
3
 72
8
 73
4
 74
0
 40
0
 40
0
 40
0
 40
0
 40
1
 40
1
 40
1
 40
1
 10
443.086305
 20
121.443750
 30
0.0
 10
442.040089
 20
139.409329
 30
0.0
 10
441.840938
 20
144.185243
 30
0.0
 10
441.909650
 20
149.663071
 30
0.0
  0
SPLINE
  5
17b
100
AcDbEntity
  8
0
 62
7
100
AcDbSpline
 70
8
 71
3
 72
8
 73
4
 74
0
 40
0
 40
0
 40
0
 40
0
 40
1
 40
1
 40
1
 40
1
 10
441.909650
 20
149.663071
 30
0.0
 10
441.951877
 20
153.032698
 30
0.0
 10
441.897214
 20
155.734332
 30
0.0
 10
441.788021
 20
155.666731
 30
0.0
  0
SPLINE
  5
17c
100
AcDbEntity
  8
0
 62
7
100
AcDbSpline
 70
8
 71
3
 72
8
 73
4
 74
0
 40
0
 40
0
 40
0
 40
0
 40
1
 40
1
 40
1
 40
1
 10
441.788021
 20
155.666731
 30
0.0
 10
441.678880
 20
155.599104
 30
0.0
 10
441.588287
 20
157.842744
 30
0.0
 10
441.586726
 20
160.652619
 30
0.0
  0
SPLINE
  5
17d
100
AcDbEntity
  8
0
 62
7
100
AcDbSpline
 70
8
 71
3
 72
8
 73
4
 74
0
 40
0
 40
0
 40
0
 40
0
 40
1
 40
1
 40
1
 40
1
 10
441.586726
 20
160.652619
 30
0.0
 10
441.584080
 20
164.252884
 30
0.0
 10
441.475098
 20
166.119757
 30
0.0
 10
441.215542
 20
166.974890
 30
0.0
  0
SPLINE
  5
17e
100
AcDbEntity
  8
0
 62
7
100
AcDbSpline
 70
8
 71
3
 72
8
 73
4
 74
0
 40
0
 40
0
 40
0
 40
0
 40
1
 40
1
 40
1
 40
1
 10
441.215542
 20
166.974890
 30
0.0
 10
441.012977
 20
167.642249
 30
0.0
 10
440.761967
 20
169.011468
 30
0.0
 10
440.657721
 20
170.017599
 30
0.0
  0
SPLINE
  5
17f
100
AcDbEntity
  8
0
 62
7
100
AcDbSpline
 70
8
 71
3
 72
8
 73
4
 74
0
 40
0
 40
0
 40
0
 40
0
 40
1
 40
1
 40
1
 40
1
 10
440.657721
 20
170.017599
 30
0.0
 10
440.473835
 20
171.792609
 30
0.0
 10
439.941758
 20
173.566667
 30
0.0
 10
439.593276
 20
173.566667
 30
0.0
  0
SPLINE
  5
180
100
AcDbEntity
  8
0
 62
7
100
AcDbSpline
 70
8
 71
3
 72
8
 73
4
 74
0
 40
0
 40
0
 40
0
 40
0
 40
1
 40
1
 40
1
 40
1
 10
439.593276
 20
173.566667
 30
0.0
 10
439.423043
 20
173.566667
 30
0.0
 10
436.474685
 20
172.743204
 30
0.0
 10
436.381313
 20
172.669570
 30
0.0
  0
SPLINE
  5
181
100
AcDbEntity
  8
0
 62
7
100
AcDbSpline
 70
8
 71
3
 72
8
 73
4
 74
0
 40
0
 40
0
 40
0
 40
0
 40
1
 40
1
 40
1
 40
1
 10
436.381313
 20
172.669570
 30
0.0
 10
436.354432
 20
172.648404
 30
0.0
 10
435.913609
 20
169.358971
 30
0.0
 10
435.401720
 20
165.359794
 30
0.0
  0
SPLINE
  5
182
100
AcDbEntity
  8
0
 62
7
100
AcDbSpline
 70
8
 71
3
 72
8
 73
4
 74
0
 40
0
 40
0
 40
0
 40
0
 40
1
 40
1
 40
1
 40
1
 10
435.401720
 20
165.359794
 30
0.0
 10
434.842973
 20
160.994275
 30
0.0
 10
434.250677
 20
154.546485
 30
0.0
 10
433.919604
 20
149.225000
 30
0.0
  0
SPLINE
  5
183
100
AcDbEntity
  8
0
 62
7
100
AcDbSpline
 70
8
 71
3
 72
8
 73
4
 74
0
 40
0
 40
0
 40
0
 40
0
 40
1
 40
1
 40
1
 40
1
 10
433.919604
 20
149.225000
 30
0.0
 10
433.616338
 20
144.350052
 30
0.0
 10
432.955806
 20
135.230949
 30
0.0
 10
432.451801
 20
128.960324
 30
0.0
  0
SPLINE
  5
184
100
AcDbEntity
  8
0
 62
7
100
AcDbSpline
 70
8
 71
3
 72
8
 73
4
 74
0
 40
0
 40
0
 40
0
 40
0
 40
1
 40
1
 40
1
 40
1
 10
432.451801
 20
128.960324
 30
0.0
 10
431.600954
 20
118.374530
 30
0.0
 10
431.404580
 20
115.093750
 30
0.0
 10
431.621830
 20
115.093750
 30
0.0
  0
SPLINE
  5
185
100
AcDbEntity
  8
0
 62
7
100
AcDbSpline
 70
8
 71
3
 72
8
 73
4
 74
0
 40
0
 40
0
 40
0
 40
0
 40
1
 40
1
 40
1
 40
1
 10
431.621830
 20
115.093750
 30
0.0
 10
431.669349
 20
115.093750
 30
0.0
 10
433.008802
 20
115.453054
 30
0.0
 10
434.598392
 20
115.892183
 30
0.0
  0
LWPOLYLINE
  5
186
100
AcDbEntity
  8
0
 62
7
100
AcDbPolyline
 90
3
 70
0
 10
440.368320
 20
117.678121
 30
0.0
 10
443.248098
 20
118.665625
 30
0.0
 10
443.086305
 20
121.443750
 30
0.0
  0
SPLINE
  5
187
100
AcDbEntity
  8
0
 62
7
100
AcDbSpline
 70
8
 71
3
 72
8
 73
4
 74
0
 40
0
 40
0
 40
0
 40
0
 40
1
 40
1
 40
1
 40
1
 10
492.419349
 20
118.815062
 30
0.0
 10
499.591013
 20
121.790354
 30
0.0
 10
509.193985
 20
124.376789
 30
0.0
 10
516.012086
 20
125.169427
 30
0.0
  0
SPLINE
  5
188
100
AcDbEntity
  8
0
 62
7
100
AcDbSpline
 70
8
 71
3
 72
8
 73
4
 74
0
 40
0
 40
0
 40
0
 40
0
 40
1
 40
1
 40
1
 40
1
 10
516.012086
 20
125.169427
 30
0.0
 10
519.800655
 20
125.609879
 30
0.0
 10
526.902601
 20
125.343920
 30
0.0
 10
529.298958
 20
124.671878
 30
0.0
  0
SPLINE
  5
189
100
AcDbEntity
  8
0
 62
7
100
AcDbSpline
 70
8
 71
3
 72
8
 73
4
 74
0
 40
0
 40
0
 40
0
 40
0
 40
1
 40
1
 40
1
 40
1
 10
529.298958
 20
124.671878
 30
0.0
 10
530.317604
 20
124.386208
 30
0.0
 10
531.500847
 20
124.013674
 30
0.0
 10
531.928414
 20
123.844076
 30
0.0
  0
SPLINE
  5
18a
100
AcDbEntity
  8
0
 62
7
100
AcDbSpline
 70
8
 71
3
 72
8
 73
4
 74
0
 40
0
 40
0
 40
0
 40
0
 40
1
 40
1
 40
1
 40
1
 10
531.928414
 20
123.844076
 30
0.0
 10
533.325017
 20
123.290012
 30
0.0
 10
538.297041
 20
123.198096
 30
0.0
 10
541.205208
 20
123.672600
 30
0.0
  0
SPLINE
  5
18b
100
AcDbEntity
  8
0
 62
7
100
AcDbSpline
 70
8
 71
3
 72
8
 73
4
 74
0
 40
0
 40
0
 40
0
 40
0
 40
1
 40
1
 40
1
 40
1
 10
541.205208
 20
123.672600
 30
0.0
 10
545.861743
 20
124.432325
 30
0.0
 10
560.477538
 20
128.571757
 30
0.0
 10
560.582948
 20
129.160667
 30
0.0
  0
SPLINE
  5
18c
100
AcDbEntity
  8
0
 62
7
100
AcDbSpline
 70
8
 71
3
 72
8
 73
4
 74
0
 40
0
 40
0
 40
0
 40
0
 40
1
 40
1
 40
1
 40
1
 10
560.582948
 20
129.160667
 30
0.0
 10
560.617688
 20
129.354765
 30
0.0
 10
561.187203
 20
134.871354
 30
0.0
 10
561.848556
 20
141.419792
 30
0.0
  0
SPLINE
  5
18d
100
AcDbEntity
  8
0
 62
7
100
AcDbSpline
 70
8
 71
3
 72
8
 73
4
 74
0
 40
0
 40
0
 40
0
 40
0
 40
1
 40
1
 40
1
 40
1
 10
561.848556
 20
141.419792
 30
0.0
 10
562.509882
 20
147.968229
 30
0.0
 10
564.293438
 20
165.410885
 30
0.0
 10
565.811987
 20
180.181250
 30
0.0
  0
SPLINE
  5
18e
100
AcDbEntity
  8
0
 62
7
100
AcDbSpline
 70
8
 71
3
 72
8
 73
4
 74
0
 40
0
 40
0
 40
0
 40
0
 40
1
 40
1
 40
1
 40
1
 10
565.811987
 20
180.181250
 30
0.0
 10
570.994514
 20
230.590011
 30
0.0
 10
572.701367
 20
248.103575
 30
0.0
 10
575.064652
 20
275.119650
 30
0.0
  0
SPLINE
  5
18f
100
AcDbEntity
  8
0
 62
7
100
AcDbSpline
 70
8
 71
3
 72
8
 73
4
 74
0
 40
0
 40
0
 40
0
 40
0
 40
1
 40
1
 40
1
 40
1
 10
575.064652
 20
275.119650
 30
0.0
 10
575.577944
 20
280.987394
 30
0.0
 10
575.997917
 20
286.111156
 30
0.0
 10
575.997917
 20
286.505835
 30
0.0
  0
SPLINE
  5
190
100
AcDbEntity
  8
0
 62
7
100
AcDbSpline
 70
8
 71
3
 72
8
 73
4
 74
0
 40
0
 40
0
 40
0
 40
0
 40
1
 40
1
 40
1
 40
1
 10
575.997917
 20
286.505835
 30
0.0
 10
575.997917
 20
287.366049
 30
0.0
 10
574.888810
 20
288.131250
 30
0.0
 10
573.641987
 20
288.131250
 30
0.0
  0
SPLINE
  5
191
100
AcDbEntity
  8
0
 62
7
100
AcDbSpline
 70
8
 71
3
 72
8
 73
4
 74
0
 40
0
 40
0
 40
0
 40
0
 40
1
 40
1
 40
1
 40
1
 10
573.641987
 20
288.131250
 30
0.0
 10
572.908298
 20
288.131250
 30
0.0
 10
572.822917
 20
288.213985
 30
0.0
 10
572.822917
 20
288.925000
 30
0.0
  0
SPLINE
  5
192
100
AcDbEntity
  8
0
 62
7
100
AcDbSpline
 70
8
 71
3
 72
8
 73
4
 74
0
 40
0
 40
0
 40
0
 40
0
 40
1
 40
1
 40
1
 40
1
 10
572.822917
 20
288.925000
 30
0.0
 10
572.822917
 20
289.895597
 30
0.0
 10
573.645480
 20
290.777083
 30
0.0
 10
574.551201
 20
290.777083
 30
0.0
  0
SPLINE
  5
193
100
AcDbEntity
  8
0
 62
7
100
AcDbSpline
 70
8
 71
3
 72
8
 73
4
 74
0
 40
0
 40
0
 40
0
 40
0
 40
1
 40
1
 40
1
 40
1
 10
574.551201
 20
290.777083
 30
0.0
 10
575.799056
 20
290.777083
 30
0.0
 10
576.991136
 20
291.461746
 30
0.0
 10
577.157374
 20
292.273911
 30
0.0
  0
SPLINE
  5
194
100
AcDbEntity
  8
0
 62
7
100
AcDbSpline
 70
8
 71
3
 72
8
 73
4
 74
0
 40
0
 40
0
 40
0
 40
0
 40
1
 40
1
 40
1
 40
1
 10
577.157374
 20
292.273911
 30
0.0
 10
577.584067
 20
294.358616
 30
0.0
 10
577.898948
 20
298.403671
 30
0.0
 10
578.120325
 20
304.644081
 30
0.0
  0
SPLINE
  5
195
100
AcDbEntity
  8
0
 62
7
100
AcDbSpline
 70
8
 71
3
 72
8
 73
4
 74
0
 40
0
 40
0
 40
0
 40
0
 40
1
 40
1
 40
1
 40
1
 10
578.120325
 20
304.644081
 30
0.0
 10
578.444043
 20
313.768502
 30
0.0
 10
578.465553
 20
313.002083
 30
0.0
 10
577.885692
 20
313.002083
 30
0.0
  0
SPLINE
  5
196
100
AcDbEntity
  8
0
 62
7
100
AcDbSpline
 70
8
 71
3
 72
8
 73
4
 74
0
 40
0
 40
0
 40
0
 40
0
 40
1
 40
1
 40
1
 40
1
 10
577.885692
 20
313.002083
 30
0.0
 10
577.091572
 20
313.002083
 30
0.0
 10
576.192068
 20
312.124143
 30
0.0
 10
574.849995
 20
310.039253
 30
0.0
  0
SPLINE
  5
197
100
AcDbEntity
  8
0
 62
7
100
AcDbSpline
 70
8
 71
3
 72
8
 73
4
 74
0
 40
0
 40
0
 40
0
 40
0
 40
1
 40
1
 40
1
 40
1
 10
574.849995
 20
310.039253
 30
0.0
 10
573.321497
 20
307.664670
 30
0.0
 10
572.726344
 20
307.211756
 30
0.0
 10
571.999269
 20
307.869775
 30
0.0
  0
SPLINE
  5
198
100
AcDbEntity
  8
0
 62
7
100
AcDbSpline
 70
8
 71
3
 72
8
 73
4
 74
0
 40
0
 40
0
 40
0
 40
0
 40
1
 40
1
 40
1
 40
1
 10
571.999269
 20
307.869775
 30
0.0
 10
571.512594
 20
308.310201
 30
0.0
 10
571.457164
 20
308.297554
 30
0.0
 10
570.701699
 20
307.573759
 30
0.0
  0
LWPOLYLINE
  5
199
100
AcDbEntity
  8
0
 62
7
100
AcDbPolyline
 90
1
 70
1
 10
434.598392
 20
115.892183
 30
0.0
  0
SPLINE
  5
19a
100
AcDbEntity
  8
0
 62
7
100
AcDbSpline
 70
8
 71
3
 72
8
 73
4
 74
0
 40
0
 40
0
 40
0
 40
0
 40
1
 40
1
 40
1
 40
1
 10
569.912341
 20
307.594767
 30
0.0
 10
569.912262
 20
308.038050
 30
0.0
 10
569.457681
 20
309.110671
 30
0.0
 10
568.854167
 20
310.091667
 30
0.0
  0
SPLINE
  5
19b
100
AcDbEntity
  8
0
 62
7
100
AcDbSpline
 70
8
 71
3
 72
8
 73
4
 74
0
 40
0
 40
0
 40
0
 40
0
 40
1
 40
1
 40
1
 40
1
 10
568.854167
 20
310.091667
 30
0.0
 10
568.272242
 20
311.037552
 30
0.0
 10
567.796071
 20
311.960286
 30
0.0
 10
567.795992
 20
312.142188
 30
0.0
  0
SPLINE
  5
19c
100
AcDbEntity
  8
0
 62
7
100
AcDbSpline
 70
8
 71
3
 72
8
 73
4
 74
0
 40
0
 40
0
 40
0
 40
0
 40
1
 40
1
 40
1
 40
1
 10
567.795992
 20
312.142188
 30
0.0
 10
567.795754
 20
312.644764
 30
0.0
 10
566.605923
 20
312.538136
 30
0.0
 10
565.284911
 20
311.917186
 30
0.0
  0
SPLINE
  5
19d
100
AcDbEntity
  8
0
 62
7
100
AcDbSpline
 70
8
 71
3
 72
8
 73
4
 74
0
 40
0
 40
0
 40
0
 40
0
 40
1
 40
1
 40
1
 40
1
 10
565.284911
 20
311.917186
 30
0.0
 10
563.409941
 20
311.035859
 30
0.0
 10
561.124894
 20
308.372431
 30
0.0
 10
559.630739
 20
305.326759
 30
0.0
  0
LWPOLYLINE
  5
19e
100
AcDbEntity
  8
0
 62
7
100
AcDbPolyline
 90
3
 70
0
 10
570.701699
 20
307.573759
 30
0.0
 10
569.912500
 20
306.817660
 30
0.0
 10
569.912341
 20
307.594767
 30
0.0
  0
SPLINE
  5
19f
100
AcDbEntity
  8
0
 62
7
100
AcDbSpline
 70
8
 71
3
 72
8
 73
4
 74
0
 40
0
 40
0
 40
0
 40
0
 40
1
 40
1
 40
1
 40
1
 10
557.641760
 20
303.384585
 30
0.0
 10
557.259411
 20
303.766908
 30
0.0
 10
556.768688
 20
304.678821
 30
0.0
 10
556.551227
 20
305.411029
 30
0.0
  0
SPLINE
  5
1a0
100
AcDbEntity
  8
0
 62
7
100
AcDbSpline
 70
8
 71
3
 72
8
 73
4
 74
0
 40
0
 40
0
 40
0
 40
0
 40
1
 40
1
 40
1
 40
1
 10
556.551227
 20
305.411029
 30
0.0
 10
555.570125
 20
308.714828
 30
0.0
 10
554.812835
 20
308.866090
 30
0.0
 10
550.654246
 20
306.589033
 30
0.0
  0
SPLINE
  5
1a1
100
AcDbEntity
  8
0
 62
7
100
AcDbSpline
 70
8
 71
3
 72
8
 73
4
 74
0
 40
0
 40
0
 40
0
 40
0
 40
1
 40
1
 40
1
 40
1
 10
550.654246
 20
306.589033
 30
0.0
 10
546.732725
 20
304.441807
 30
0.0
 10
545.273204
 20
303.833133
 30
0.0
 10
543.273853
 20
303.511135
 30
0.0
  0
SPLINE
  5
1a2
100
AcDbEntity
  8
0
 62
7
100
AcDbSpline
 70
8
 71
3
 72
8
 73
4
 74
0
 40
0
 40
0
 40
0
 40
0
 40
1
 40
1
 40
1
 40
1
 10
543.273853
 20
303.511135
 30
0.0
 10
541.030398
 20
303.149847
 30
0.0
 10
539.536693
 20
303.380934
 30
0.0
 10
539.433347
 20
304.105336
 30
0.0
  0
SPLINE
  5
1a3
100
AcDbEntity
  8
0
 62
7
100
AcDbSpline
 70
8
 71
3
 72
8
 73
4
 74
0
 40
0
 40
0
 40
0
 40
0
 40
1
 40
1
 40
1
 40
1
 10
539.433347
 20
304.105336
 30
0.0
 10
539.378684
 20
304.488638
 30
0.0
 10
539.132515
 20
304.693294
 30
0.0
 10
538.660366
 20
304.748062
 30
0.0
  0
SPLINE
  5
1a4
100
AcDbEntity
  8
0
 62
7
100
AcDbSpline
 70
8
 71
3
 72
8
 73
4
 74
0
 40
0
 40
0
 40
0
 40
0
 40
1
 40
1
 40
1
 40
1
 10
538.660366
 20
304.748062
 30
0.0
 10
538.090136
 20
304.814208
 30
0.0
 10
537.692388
 20
304.510043
 30
0.0
 10
536.411408
 20
303.028271
 30
0.0
  0
SPLINE
  5
1a5
100
AcDbEntity
  8
0
 62
7
100
AcDbSpline
 70
8
 71
3
 72
8
 73
4
 74
0
 40
0
 40
0
 40
0
 40
0
 40
1
 40
1
 40
1
 40
1
 10
536.411408
 20
303.028271
 30
0.0
 10
534.620629
 20
300.956768
 30
0.0
 10
534.535724
 20
300.882368
 30
0.0
 10
533.713505
 20
300.663610
 30
0.0
  0
SPLINE
  5
1a6
100
AcDbEntity
  8
0
 62
7
100
AcDbSpline
 70
8
 71
3
 72
8
 73
4
 74
0
 40
0
 40
0
 40
0
 40
0
 40
1
 40
1
 40
1
 40
1
 10
533.713505
 20
300.663610
 30
0.0
 10
533.267602
 20
300.544997
 30
0.0
 10
532.902186
 20
300.691100
 30
0.0
 10
532.370242
 20
301.200741
 30
0.0
  0
SPLINE
  5
1a7
100
AcDbEntity
  8
0
 62
7
100
AcDbSpline
 70
8
 71
3
 72
8
 73
4
 74
0
 40
0
 40
0
 40
0
 40
0
 40
1
 40
1
 40
1
 40
1
 10
532.370242
 20
301.200741
 30
0.0
 10
531.660973
 20
301.880270
 30
0.0
 10
531.611205
 20
301.889028
 30
0.0
 10
530.676167
 20
301.498344
 30
0.0
  0
SPLINE
  5
1a8
100
AcDbEntity
  8
0
 62
7
100
AcDbSpline
 70
8
 71
3
 72
8
 73
4
 74
0
 40
0
 40
0
 40
0
 40
0
 40
1
 40
1
 40
1
 40
1
 10
530.676167
 20
301.498344
 30
0.0
 10
528.445333
 20
300.566243
 30
0.0
 10
526.943823
 20
301.356607
 30
0.0
 10
525.042844
 20
304.463662
 30
0.0
  0
SPLINE
  5
1a9
100
AcDbEntity
  8
0
 62
7
100
AcDbSpline
 70
8
 71
3
 72
8
 73
4
 74
0
 40
0
 40
0
 40
0
 40
0
 40
1
 40
1
 40
1
 40
1
 10
525.042844
 20
304.463662
 30
0.0
 10
524.350932
 20
305.594544
 30
0.0
 10
523.430394
 20
306.900739
 30
0.0
 10
522.997218
 20
307.366326
 30
0.0
  0
SPLINE
  5
1aa
100
AcDbEntity
  8
0
 62
7
100
AcDbSpline
 70
8
 71
3
 72
8
 73
4
 74
0
 40
0
 40
0
 40
0
 40
0
 40
1
 40
1
 40
1
 40
1
 10
522.997218
 20
307.366326
 30
0.0
 10
522.240060
 20
308.180105
 30
0.0
 10
522.180317
 20
308.197753
 30
0.0
 10
521.453613
 20
307.821965
 30
0.0
  0
SPLINE
  5
1ab
100
AcDbEntity
  8
0
 62
7
100
AcDbSpline
 70
8
 71
3
 72
8
 73
4
 74
0
 40
0
 40
0
 40
0
 40
0
 40
1
 40
1
 40
1
 40
1
 10
521.453613
 20
307.821965
 30
0.0
 10
521.037846
 20
307.606938
 30
0.0
 10
519.842036
 20
307.323596
 30
0.0
 10
518.796270
 20
307.192283
 30
0.0
  0
SPLINE
  5
1ac
100
AcDbEntity
  8
0
 62
7
100
AcDbSpline
 70
8
 71
3
 72
8
 73
4
 74
0
 40
0
 40
0
 40
0
 40
0
 40
1
 40
1
 40
1
 40
1
 10
518.796270
 20
307.192283
 30
0.0
 10
516.766492
 20
306.937410
 30
0.0
 10
516.717042
 20
306.957413
 30
0.0
 10
515.879980
 20
308.371875
 30
0.0
  0
SPLINE
  5
1ad
100
AcDbEntity
  8
0
 62
7
100
AcDbSpline
 70
8
 71
3
 72
8
 73
4
 74
0
 40
0
 40
0
 40
0
 40
0
 40
1
 40
1
 40
1
 40
1
 10
515.879980
 20
308.371875
 30
0.0
 10
515.595552
 20
308.852517
 30
0.0
 10
515.438522
 20
312.647171
 30
0.0
 10
515.696412
 20
312.808408
 30
0.0
  0
SPLINE
  5
1ae
100
AcDbEntity
  8
0
 62
7
100
AcDbSpline
 70
8
 71
3
 72
8
 73
4
 74
0
 40
0
 40
0
 40
0
 40
0
 40
1
 40
1
 40
1
 40
1
 10
515.696412
 20
312.808408
 30
0.0
 10
515.756260
 20
312.845820
 30
0.0
 10
518.662708
 20
312.808408
 30
0.0
 10
522.155208
 20
312.726149
 30
0.0
  0
SPLINE
  5
1af
100
AcDbEntity
  8
0
 62
7
100
AcDbSpline
 70
8
 71
3
 72
8
 73
4
 74
0
 40
0
 40
0
 40
0
 40
0
 40
1
 40
1
 40
1
 40
1
 10
522.155208
 20
312.726149
 30
0.0
 10
528.963070
 20
312.565018
 30
0.0
 10
529.779468
 20
312.414470
 30
0.0
 10
531.713996
 20
310.963495
 30
0.0
  0
LWPOLYLINE
  5
1b0
100
AcDbEntity
  8
0
 62
7
100
AcDbPolyline
 90
3
 70
0
 10
559.630739
 20
305.326759
 30
0.0
 10
558.336900
 20
302.689419
 30
0.0
 10
557.641760
 20
303.384585
 30
0.0
  0
SPLINE
  5
1b1
100
AcDbEntity
  8
0
 62
7
100
AcDbSpline
 70
8
 71
3
 72
8
 73
4
 74
0
 40
0
 40
0
 40
0
 40
0
 40
1
 40
1
 40
1
 40
1
 10
536.476496
 20
311.820481
 30
0.0
 10
543.283643
 20
314.376753
 30
0.0
 10
550.320686
 20
316.378643
 30
0.0
 10
556.418750
 20
317.493624
 30
0.0
  0
SPLINE
  5
1b2
100
AcDbEntity
  8
0
 62
7
100
AcDbSpline
 70
8
 71
3
 72
8
 73
4
 74
0
 40
0
 40
0
 40
0
 40
0
 40
1
 40
1
 40
1
 40
1
 10
556.418750
 20
317.493624
 30
0.0
 10
558.092240
 20
317.799614
 30
0.0
 10
559.724216
 20
318.105790
 30
0.0
 10
560.045341
 20
318.174026
 30
0.0
  0
SPLINE
  5
1b3
100
AcDbEntity
  8
0
 62
7
100
AcDbSpline
 70
8
 71
3
 72
8
 73
4
 74
0
 40
0
 40
0
 40
0
 40
0
 40
1
 40
1
 40
1
 40
1
 10
560.045341
 20
318.174026
 30
0.0
 10
560.433246
 20
318.256444
 30
0.0
 10
560.815464
 20
318.719226
 30
0.0
 10
561.184028
 20
319.552690
 30
0.0
  0
SPLINE
  5
1b4
100
AcDbEntity
  8
0
 62
7
100
AcDbSpline
 70
8
 71
3
 72
8
 73
4
 74
0
 40
0
 40
0
 40
0
 40
0
 40
1
 40
1
 40
1
 40
1
 10
561.184028
 20
319.552690
 30
0.0
 10
562.205426
 20
321.862582
 30
0.0
 10
563.765806
 20
322.895886
 30
0.0
 10
564.640651
 20
321.841733
 30
0.0
  0
SPLINE
  5
1b5
100
AcDbEntity
  8
0
 62
7
100
AcDbSpline
 70
8
 71
3
 72
8
 73
4
 74
0
 40
0
 40
0
 40
0
 40
0
 40
1
 40
1
 40
1
 40
1
 10
564.640651
 20
321.841733
 30
0.0
 10
564.958177
 20
321.459172
 30
0.0
 10
565.021148
 20
321.463749
 30
0.0
 10
565.334520
 20
321.892295
 30
0.0
  0
SPLINE
  5
1b6
100
AcDbEntity
  8
0
 62
7
100
AcDbSpline
 70
8
 71
3
 72
8
 73
4
 74
0
 40
0
 40
0
 40
0
 40
0
 40
1
 40
1
 40
1
 40
1
 10
565.334520
 20
321.892295
 30
0.0
 10
565.819211
 20
322.555156
 30
0.0
 10
565.753832
 20
323.342635
 30
0.0
 10
565.150000
 20
324.114583
 30
0.0
  0
SPLINE
  5
1b7
100
AcDbEntity
  8
0
 62
7
100
AcDbSpline
 70
8
 71
3
 72
8
 73
4
 74
0
 40
0
 40
0
 40
0
 40
0
 40
1
 40
1
 40
1
 40
1
 10
565.150000
 20
324.114583
 30
0.0
 10
564.575748
 20
324.848723
 30
0.0
 10
564.491584
 20
325.495364
 30
0.0
 10
564.876632
 20
326.214819
 30
0.0
  0
SPLINE
  5
1b8
100
AcDbEntity
  8
0
 62
7
100
AcDbSpline
 70
8
 71
3
 72
8
 73
4
 74
0
 40
0
 40
0
 40
0
 40
0
 40
1
 40
1
 40
1
 40
1
 10
564.876632
 20
326.214819
 30
0.0
 10
565.118832
 20
326.667389
 30
0.0
 10
565.269909
 20
326.651197
 30
0.0
 10
567.720903
 20
325.909808
 30
0.0
  0
SPLINE
  5
1b9
100
AcDbEntity
  8
0
 62
7
100
AcDbSpline
 70
8
 71
3
 72
8
 73
4
 74
0
 40
0
 40
0
 40
0
 40
0
 40
1
 40
1
 40
1
 40
1
 10
567.720903
 20
325.909808
 30
0.0
 10
572.732535
 20
324.393904
 30
0.0
 10
575.590617
 20
324.921880
 30
0.0
 10
578.885394
 20
327.972261
 30
0.0
  0
SPLINE
  5
1ba
100
AcDbEntity
  8
0
 62
7
100
AcDbSpline
 70
8
 71
3
 72
8
 73
4
 74
0
 40
0
 40
0
 40
0
 40
0
 40
1
 40
1
 40
1
 40
1
 10
578.885394
 20
327.972261
 30
0.0
 10
580.286601
 20
329.269540
 30
0.0
 10
580.443181
 20
329.525895
 30
0.0
 10
580.607620
 20
330.791820
 30
0.0
  0
SPLINE
  5
1bb
100
AcDbEntity
  8
0
 62
7
100
AcDbSpline
 70
8
 71
3
 72
8
 73
4
 74
0
 40
0
 40
0
 40
0
 40
0
 40
1
 40
1
 40
1
 40
1
 10
580.607620
 20
330.791820
 30
0.0
 10
580.707103
 20
331.557736
 30
0.0
 10
581.307945
 20
335.101406
 30
0.0
 10
581.942840
 20
338.666667
 30
0.0
  0
SPLINE
  5
1bc
100
AcDbEntity
  8
0
 62
7
100
AcDbSpline
 70
8
 71
3
 72
8
 73
4
 74
0
 40
0
 40
0
 40
0
 40
0
 40
1
 40
1
 40
1
 40
1
 10
581.942840
 20
338.666667
 30
0.0
 10
582.930952
 20
344.215297
 30
0.0
 10
583.452049
 20
347.835379
 30
0.0
 10
584.066174
 20
353.417188
 30
0.0
  0
SPLINE
  5
1bd
100
AcDbEntity
  8
0
 62
7
100
AcDbSpline
 70
8
 71
3
 72
8
 73
4
 74
0
 40
0
 40
0
 40
0
 40
0
 40
1
 40
1
 40
1
 40
1
 10
584.066174
 20
353.417188
 30
0.0
 10
584.173251
 20
354.390484
 30
0.0
 10
584.122001
 20
354.541667
 30
0.0
 10
583.684962
 20
354.541667
 30
0.0
  0
SPLINE
  5
1be
100
AcDbEntity
  8
0
 62
7
100
AcDbSpline
 70
8
 71
3
 72
8
 73
4
 74
0
 40
0
 40
0
 40
0
 40
0
 40
1
 40
1
 40
1
 40
1
 10
583.684962
 20
354.541667
 30
0.0
 10
582.952251
 20
354.541667
 30
0.0
 10
582.217715
 20
353.467696
 30
0.0
 10
581.272174
 20
351.013898
 30
0.0
  0
SPLINE
  5
1bf
100
AcDbEntity
  8
0
 62
7
100
AcDbSpline
 70
8
 71
3
 72
8
 73
4
 74
0
 40
0
 40
0
 40
0
 40
0
 40
1
 40
1
 40
1
 40
1
 10
581.272174
 20
351.013898
 30
0.0
 10
580.814233
 20
349.825469
 30
0.0
 10
580.263873
 20
348.512765
 30
0.0
 10
580.049164
 20
348.096761
 30
0.0
  0
LWPOLYLINE
  5
1c0
100
AcDbEntity
  8
0
 62
7
100
AcDbPolyline
 90
3
 70
0
 10
531.713996
 20
310.963495
 30
0.0
 10
532.541559
 20
310.342783
 30
0.0
 10
536.476496
 20
311.820481
 30
0.0
  0
SPLINE
  5
1c1
100
AcDbEntity
  8
0
 62
7
100
AcDbSpline
 70
8
 71
3
 72
8
 73
4
 74
0
 40
0
 40
0
 40
0
 40
0
 40
1
 40
1
 40
1
 40
1
 10
578.938337
 20
348.030615
 30
0.0
 10
577.593751
 20
349.318818
 30
0.0
 10
576.522400
 20
348.891807
 30
0.0
 10
574.409305
 20
346.225442
 30
0.0
  0
SPLINE
  5
1c2
100
AcDbEntity
  8
0
 62
7
100
AcDbSpline
 70
8
 71
3
 72
8
 73
4
 74
0
 40
0
 40
0
 40
0
 40
0
 40
1
 40
1
 40
1
 40
1
 10
574.409305
 20
346.225442
 30
0.0
 10
573.755070
 20
345.399942
 30
0.0
 10
572.803073
 20
344.469773
 30
0.0
 10
572.293750
 20
344.158411
 30
0.0
  0
SPLINE
  5
1c3
100
AcDbEntity
  8
0
 62
7
100
AcDbSpline
 70
8
 71
3
 72
8
 73
4
 74
0
 40
0
 40
0
 40
0
 40
0
 40
1
 40
1
 40
1
 40
1
 10
572.293750
 20
344.158411
 30
0.0
 10
571.784427
 20
343.847050
 30
0.0
 10
570.901539
 20
343.199905
 30
0.0
 10
570.331759
 20
342.720295
 30
0.0
  0
SPLINE
  5
1c4
100
AcDbEntity
  8
0
 62
7
100
AcDbSpline
 70
8
 71
3
 72
8
 73
4
 74
0
 40
0
 40
0
 40
0
 40
0
 40
1
 40
1
 40
1
 40
1
 10
570.331759
 20
342.720295
 30
0.0
 10
569.596455
 20
342.101329
 30
0.0
 10
568.917640
 20
341.798116
 30
0.0
 10
567.992657
 20
341.675403
 30
0.0
  0
SPLINE
  5
1c5
100
AcDbEntity
  8
0
 62
7
100
AcDbSpline
 70
8
 71
3
 72
8
 73
4
 74
0
 40
0
 40
0
 40
0
 40
0
 40
1
 40
1
 40
1
 40
1
 10
567.992657
 20
341.675403
 30
0.0
 10
566.490882
 20
341.476198
 30
0.0
 10
565.440301
 20
340.710467
 30
0.0
 10
564.587866
 20
339.193743
 30
0.0
  0
LWPOLYLINE
  5
1c6
100
AcDbEntity
  8
0
 62
7
100
AcDbPolyline
 90
3
 70
0
 10
580.049164
 20
348.096761
 30
0.0
 10
579.658771
 20
347.340423
 30
0.0
 10
578.938337
 20
348.030615
 30
0.0
  0
SPLINE
  5
1c7
100
AcDbEntity
  8
0
 62
7
100
AcDbSpline
 70
8
 71
3
 72
8
 73
4
 74
0
 40
0
 40
0
 40
0
 40
0
 40
1
 40
1
 40
1
 40
1
 10
563.263124
 20
339.201866
 30
0.0
 10
562.001088
 20
340.944068
 30
0.0
 10
560.176786
 20
341.543666
 30
0.0
 10
558.087795
 20
340.902899
 30
0.0
  0
SPLINE
  5
1c8
100
AcDbEntity
  8
0
 62
7
100
AcDbSpline
 70
8
 71
3
 72
8
 73
4
 74
0
 40
0
 40
0
 40
0
 40
0
 40
1
 40
1
 40
1
 40
1
 10
558.087795
 20
340.902899
 30
0.0
 10
556.347418
 20
340.369049
 30
0.0
 10
555.198068
 20
339.235441
 30
0.0
 10
551.340337
 20
334.247755
 30
0.0
  0
SPLINE
  5
1c9
100
AcDbEntity
  8
0
 62
7
100
AcDbSpline
 70
8
 71
3
 72
8
 73
4
 74
0
 40
0
 40
0
 40
0
 40
0
 40
1
 40
1
 40
1
 40
1
 10
551.340337
 20
334.247755
 30
0.0
 10
550.529786
 20
333.199819
 30
0.0
 10
549.773951
 20
332.425913
 30
0.0
 10
549.660683
 20
332.527963
 30
0.0
  0
SPLINE
  5
1ca
100
AcDbEntity
  8
0
 62
7
100
AcDbSpline
 70
8
 71
3
 72
8
 73
4
 74
0
 40
0
 40
0
 40
0
 40
0
 40
1
 40
1
 40
1
 40
1
 10
549.660683
 20
332.527963
 30
0.0
 10
549.547415
 20
332.630039
 30
0.0
 10
549.537176
 20
332.569899
 30
0.0
 10
549.637929
 20
332.394322
 30
0.0
  0
SPLINE
  5
1cb
100
AcDbEntity
  8
0
 62
7
100
AcDbSpline
 70
8
 71
3
 72
8
 73
4
 74
0
 40
0
 40
0
 40
0
 40
0
 40
1
 40
1
 40
1
 40
1
 10
549.637929
 20
332.394322
 30
0.0
 10
549.909312
 20
331.921485
 30
0.0
 10
545.161232
 20
327.257728
 30
0.0
 10
543.689752
 20
326.551793
 30
0.0
  0
SPLINE
  5
1cc
100
AcDbEntity
  8
0
 62
7
100
AcDbSpline
 70
8
 71
3
 72
8
 73
4
 74
0
 40
0
 40
0
 40
0
 40
0
 40
1
 40
1
 40
1
 40
1
 10
543.689752
 20
326.551793
 30
0.0
 10
541.942390
 20
325.713487
 30
0.0
 10
539.944601
 20
325.747989
 30
0.0
 10
539.060813
 20
326.631776
 30
0.0
  0
SPLINE
  5
1cd
100
AcDbEntity
  8
0
 62
7
100
AcDbSpline
 70
8
 71
3
 72
8
 73
4
 74
0
 40
0
 40
0
 40
0
 40
0
 40
1
 40
1
 40
1
 40
1
 10
539.060813
 20
326.631776
 30
0.0
 10
538.487779
 20
327.204811
 30
0.0
 10
538.418511
 20
327.451985
 30
0.0
 10
538.560301
 20
328.417714
 30
0.0
  0
SPLINE
  5
1ce
100
AcDbEntity
  8
0
 62
7
100
AcDbSpline
 70
8
 71
3
 72
8
 73
4
 74
0
 40
0
 40
0
 40
0
 40
0
 40
1
 40
1
 40
1
 40
1
 10
538.560301
 20
328.417714
 30
0.0
 10
538.677115
 20
329.213131
 30
0.0
 10
538.609514
 20
329.692185
 30
0.0
 10
538.327521
 20
330.067708
 30
0.0
  0
SPLINE
  5
1cf
100
AcDbEntity
  8
0
 62
7
100
AcDbSpline
 70
8
 71
3
 72
8
 73
4
 74
0
 40
0
 40
0
 40
0
 40
0
 40
1
 40
1
 40
1
 40
1
 10
538.327521
 20
330.067708
 30
0.0
 10
537.967687
 20
330.546842
 30
0.0
 10
537.872305
 20
330.560627
 30
0.0
 10
537.318691
 20
330.213414
 30
0.0
  0
SPLINE
  5
1d0
100
AcDbEntity
  8
0
 62
7
100
AcDbSpline
 70
8
 71
3
 72
8
 73
4
 74
0
 40
0
 40
0
 40
0
 40
0
 40
1
 40
1
 40
1
 40
1
 10
537.318691
 20
330.213414
 30
0.0
 10
535.553814
 20
329.106556
 30
0.0
 10
533.896517
 20
328.348314
 30
0.0
 10
532.473932
 20
327.996868
 30
0.0
  0
SPLINE
  5
1d1
100
AcDbEntity
  8
0
 62
7
100
AcDbSpline
 70
8
 71
3
 72
8
 73
4
 74
0
 40
0
 40
0
 40
0
 40
0
 40
1
 40
1
 40
1
 40
1
 10
532.473932
 20
327.996868
 30
0.0
 10
530.162902
 20
327.425923
 30
0.0
 10
528.284440
 20
327.196979
 30
0.0
 10
528.477797
 20
327.509849
 30
0.0
  0
SPLINE
  5
1d2
100
AcDbEntity
  8
0
 62
7
100
AcDbSpline
 70
8
 71
3
 72
8
 73
4
 74
0
 40
0
 40
0
 40
0
 40
0
 40
1
 40
1
 40
1
 40
1
 10
528.477797
 20
327.509849
 30
0.0
 10
528.566565
 20
327.653465
 30
0.0
 10
528.567068
 20
327.958926
 30
0.0
 10
528.477797
 20
328.188611
 30
0.0
  0
SPLINE
  5
1d3
100
AcDbEntity
  8
0
 62
7
100
AcDbSpline
 70
8
 71
3
 72
8
 73
4
 74
0
 40
0
 40
0
 40
0
 40
0
 40
1
 40
1
 40
1
 40
1
 10
528.477797
 20
328.188611
 30
0.0
 10
528.356751
 20
328.504047
 30
0.0
 10
528.087299
 20
328.295000
 30
0.0
 10
527.376416
 20
327.334166
 30
0.0
  0
SPLINE
  5
1d4
100
AcDbEntity
  8
0
 62
7
100
AcDbSpline
 70
8
 71
3
 72
8
 73
4
 74
0
 40
0
 40
0
 40
0
 40
0
 40
1
 40
1
 40
1
 40
1
 10
527.376416
 20
327.334166
 30
0.0
 10
526.200661
 20
325.745078
 30
0.0
 10
525.077796
 20
325.091901
 30
0.0
 10
522.304486
 20
324.383797
 30
0.0
  0
SPLINE
  5
1d5
100
AcDbEntity
  8
0
 62
7
100
AcDbSpline
 70
8
 71
3
 72
8
 73
4
 74
0
 40
0
 40
0
 40
0
 40
0
 40
1
 40
1
 40
1
 40
1
 10
522.304486
 20
324.383797
 30
0.0
 10
521.103834
 20
324.077251
 30
0.0
 10
519.651112
 20
323.638228
 30
0.0
 10
519.076252
 20
323.408225
 30
0.0
  0
SPLINE
  5
1d6
100
AcDbEntity
  8
0
 62
7
100
AcDbSpline
 70
8
 71
3
 72
8
 73
4
 74
0
 40
0
 40
0
 40
0
 40
0
 40
1
 40
1
 40
1
 40
1
 10
519.076252
 20
323.408225
 30
0.0
 10
518.501392
 20
323.178196
 30
0.0
 10
517.991143
 20
323.034686
 30
0.0
 10
517.942354
 20
323.089270
 30
0.0
  0
SPLINE
  5
1d7
100
AcDbEntity
  8
0
 62
7
100
AcDbSpline
 70
8
 71
3
 72
8
 73
4
 74
0
 40
0
 40
0
 40
0
 40
0
 40
1
 40
1
 40
1
 40
1
 10
517.942354
 20
323.089270
 30
0.0
 10
517.893565
 20
323.143880
 30
0.0
 10
517.470390
 20
323.873230
 30
0.0
 10
517.001945
 20
324.710055
 30
0.0
  0
LWPOLYLINE
  5
1d8
100
AcDbEntity
  8
0
 62
7
100
AcDbPolyline
 90
3
 70
0
 10
564.587866
 20
339.193743
 30
0.0
 10
564.011657
 20
338.168536
 30
0.0
 10
563.263124
 20
339.201866
 30
0.0
  0
SPLINE
  5
1d9
100
AcDbEntity
  8
0
 62
7
100
AcDbSpline
 70
8
 71
3
 72
8
 73
4
 74
0
 40
0
 40
0
 40
0
 40
0
 40
1
 40
1
 40
1
 40
1
 10
514.950842
 20
325.175854
 30
0.0
 10
513.294286
 20
323.717708
 30
0.0
 10
511.568541
 20
322.943114
 30
0.0
 10
507.900331
 20
322.011225
 30
0.0
  0
SPLINE
  5
1da
100
AcDbEntity
  8
0
 62
7
100
AcDbSpline
 70
8
 71
3
 72
8
 73
4
 74
0
 40
0
 40
0
 40
0
 40
0
 40
1
 40
1
 40
1
 40
1
 10
507.900331
 20
322.011225
 30
0.0
 10
506.172655
 20
321.572334
 30
0.0
 10
504.222914
 20
320.913548
 30
0.0
 10
503.567541
 20
320.547233
 30
0.0
  0
SPLINE
  5
1db
100
AcDbEntity
  8
0
 62
7
100
AcDbSpline
 70
8
 71
3
 72
8
 73
4
 74
0
 40
0
 40
0
 40
0
 40
0
 40
1
 40
1
 40
1
 40
1
 10
503.567541
 20
320.547233
 30
0.0
 10
502.194169
 20
319.779676
 30
0.0
 10
502.154111
 20
319.768934
 30
0.0
 10
502.313892
 20
320.211979
 30
0.0
  0
SPLINE
  5
1dc
100
AcDbEntity
  8
0
 62
7
100
AcDbSpline
 70
8
 71
3
 72
8
 73
4
 74
0
 40
0
 40
0
 40
0
 40
0
 40
1
 40
1
 40
1
 40
1
 10
502.313892
 20
320.211979
 30
0.0
 10
502.379509
 20
320.393880
 30
0.0
 10
502.209382
 20
320.833221
 30
0.0
 10
501.935829
 20
321.188292
 30
0.0
  0
SPLINE
  5
1dd
100
AcDbEntity
  8
0
 62
7
100
AcDbSpline
 70
8
 71
3
 72
8
 73
4
 74
0
 40
0
 40
0
 40
0
 40
0
 40
1
 40
1
 40
1
 40
1
 10
501.935829
 20
321.188292
 30
0.0
 10
501.383406
 20
321.905313
 30
0.0
 10
501.619996
 20
321.991858
 30
0.0
 10
499.266766
 20
320.211979
 30
0.0
  0
SPLINE
  5
1de
100
AcDbEntity
  8
0
 62
7
100
AcDbSpline
 70
8
 71
3
 72
8
 73
4
 74
0
 40
0
 40
0
 40
0
 40
0
 40
1
 40
1
 40
1
 40
1
 10
499.266766
 20
320.211979
 30
0.0
 10
498.641449
 20
319.739036
 30
0.0
 10
497.850054
 20
319.352083
 30
0.0
 10
497.508107
 20
319.352083
 30
0.0
  0
SPLINE
  5
1df
100
AcDbEntity
  8
0
 62
7
100
AcDbSpline
 70
8
 71
3
 72
8
 73
4
 74
0
 40
0
 40
0
 40
0
 40
0
 40
1
 40
1
 40
1
 40
1
 10
497.508107
 20
319.352083
 30
0.0
 10
496.901523
 20
319.352083
 30
0.0
 10
496.886336
 20
319.410265
 30
0.0
 10
496.886336
 20
321.733333
 30
0.0
  0
SPLINE
  5
1e0
100
AcDbEntity
  8
0
 62
7
100
AcDbSpline
 70
8
 71
3
 72
8
 73
4
 74
0
 40
0
 40
0
 40
0
 40
0
 40
1
 40
1
 40
1
 40
1
 10
496.886336
 20
321.733333
 30
0.0
 10
496.886336
 20
323.043021
 30
0.0
 10
496.806405
 20
324.114583
 30
0.0
 10
496.708721
 20
324.114583
 30
0.0
  0
SPLINE
  5
1e1
100
AcDbEntity
  8
0
 62
7
100
AcDbSpline
 70
8
 71
3
 72
8
 73
4
 74
0
 40
0
 40
0
 40
0
 40
0
 40
1
 40
1
 40
1
 40
1
 10
496.708721
 20
324.114583
 30
0.0
 10
496.611037
 20
324.114583
 30
0.0
 10
496.336452
 20
323.938397
 30
0.0
 10
496.098512
 20
323.723053
 30
0.0
  0
SPLINE
  5
1e2
100
AcDbEntity
  8
0
 62
7
100
AcDbSpline
 70
8
 71
3
 72
8
 73
4
 74
0
 40
0
 40
0
 40
0
 40
0
 40
1
 40
1
 40
1
 40
1
 10
496.098512
 20
323.723053
 30
0.0
 10
495.716269
 20
323.377163
 30
0.0
 10
495.598265
 20
323.378909
 30
0.0
 10
495.085476
 20
323.738134
 30
0.0
  0
SPLINE
  5
1e3
100
AcDbEntity
  8
0
 62
7
100
AcDbSpline
 70
8
 71
3
 72
8
 73
4
 74
0
 40
0
 40
0
 40
0
 40
0
 40
1
 40
1
 40
1
 40
1
 10
495.085476
 20
323.738134
 30
0.0
 10
494.312310
 20
324.279683
 30
0.0
 10
494.351707
 20
324.785831
 30
0.0
 10
495.329766
 20
326.875907
 30
0.0
  0
LWPOLYLINE
  5
1e4
100
AcDbEntity
  8
0
 62
7
100
AcDbPolyline
 90
3
 70
0
 10
517.001945
 20
324.710055
 30
0.0
 10
516.150225
 20
326.231594
 30
0.0
 10
514.950842
 20
325.175854
 30
0.0
  0
SPLINE
  5
1e5
100
AcDbEntity
  8
0
 62
7
100
AcDbSpline
 70
8
 71
3
 72
8
 73
4
 74
0
 40
0
 40
0
 40
0
 40
0
 40
1
 40
1
 40
1
 40
1
 10
495.411019
 20
334.880373
 30
0.0
 10
496.329758
 20
334.794595
 30
0.0
 10
498.972337
 20
334.291596
 30
0.0
 10
501.283393
 20
333.762615
 30
0.0
  0
SPLINE
  5
1e6
100
AcDbEntity
  8
0
 62
7
100
AcDbSpline
 70
8
 71
3
 72
8
 73
4
 74
0
 40
0
 40
0
 40
0
 40
0
 40
1
 40
1
 40
1
 40
1
 10
501.283393
 20
333.762615
 30
0.0
 10
506.404007
 20
332.590537
 30
0.0
 10
509.742043
 20
332.343363
 30
0.0
 10
512.300670
 20
332.946798
 30
0.0
  0
SPLINE
  5
1e7
100
AcDbEntity
  8
0
 62
7
100
AcDbSpline
 70
8
 71
3
 72
8
 73
4
 74
0
 40
0
 40
0
 40
0
 40
0
 40
1
 40
1
 40
1
 40
1
 10
512.300670
 20
332.946798
 30
0.0
 10
514.473269
 20
333.459190
 30
0.0
 10
515.892468
 20
334.161156
 30
0.0
 10
519.393620
 20
336.455147
 30
0.0
  0
SPLINE
  5
1e8
100
AcDbEntity
  8
0
 62
7
100
AcDbSpline
 70
8
 71
3
 72
8
 73
4
 74
0
 40
0
 40
0
 40
0
 40
0
 40
1
 40
1
 40
1
 40
1
 10
519.393620
 20
336.455147
 30
0.0
 10
522.737186
 20
338.645870
 30
0.0
 10
525.660382
 20
339.939180
 30
0.0
 10
532.737377
 20
342.358874
 30
0.0
  0
SPLINE
  5
1e9
100
AcDbEntity
  8
0
 62
7
100
AcDbSpline
 70
8
 71
3
 72
8
 73
4
 74
0
 40
0
 40
0
 40
0
 40
0
 40
1
 40
1
 40
1
 40
1
 10
532.737377
 20
342.358874
 30
0.0
 10
539.169795
 20
344.558144
 30
0.0
 10
542.779029
 20
346.208403
 30
0.0
 10
545.569669
 20
348.226142
 30
0.0
  0
SPLINE
  5
1ea
100
AcDbEntity
  8
0
 62
7
100
AcDbSpline
 70
8
 71
3
 72
8
 73
4
 74
0
 40
0
 40
0
 40
0
 40
0
 40
1
 40
1
 40
1
 40
1
 10
545.569669
 20
348.226142
 30
0.0
 10
547.234798
 20
349.430102
 30
0.0
 10
547.895542
 20
349.734293
 30
0.0
 10
549.676743
 20
350.116960
 30
0.0
  0
SPLINE
  5
1eb
100
AcDbEntity
  8
0
 62
7
100
AcDbSpline
 70
8
 71
3
 72
8
 73
4
 74
0
 40
0
 40
0
 40
0
 40
0
 40
1
 40
1
 40
1
 40
1
 10
549.676743
 20
350.116960
 30
0.0
 10
554.022101
 20
351.050490
 30
0.0
 10
558.047948
 20
352.983853
 30
0.0
 10
565.148836
 20
357.547175
 30
0.0
  0
SPLINE
  5
1ec
100
AcDbEntity
  8
0
 62
7
100
AcDbSpline
 70
8
 71
3
 72
8
 73
4
 74
0
 40
0
 40
0
 40
0
 40
0
 40
1
 40
1
 40
1
 40
1
 10
565.148836
 20
357.547175
 30
0.0
 10
574.318659
 20
363.440107
 30
0.0
 10
577.023045
 20
364.969160
 30
0.0
 10
580.759252
 20
366.373198
 30
0.0
  0
SPLINE
  5
1ed
100
AcDbEntity
  8
0
 62
7
100
AcDbSpline
 70
8
 71
3
 72
8
 73
4
 74
0
 40
0
 40
0
 40
0
 40
0
 40
1
 40
1
 40
1
 40
1
 10
580.759252
 20
366.373198
 30
0.0
 10
581.705138
 20
366.728666
 30
0.0
 10
582.701268
 20
367.218330
 30
0.0
 10
582.972862
 20
367.461350
 30
0.0
  0
SPLINE
  5
1ee
100
AcDbEntity
  8
0
 62
7
100
AcDbSpline
 70
8
 71
3
 72
8
 73
4
 74
0
 40
0
 40
0
 40
0
 40
0
 40
1
 40
1
 40
1
 40
1
 10
582.972862
 20
367.461350
 30
0.0
 10
583.835219
 20
368.232955
 30
0.0
 10
584.987294
 20
370.084350
 30
0.0
 10
585.813932
 20
372.026931
 30
0.0
  0
SPLINE
  5
1ef
100
AcDbEntity
  8
0
 62
7
100
AcDbSpline
 70
8
 71
3
 72
8
 73
4
 74
0
 40
0
 40
0
 40
0
 40
0
 40
1
 40
1
 40
1
 40
1
 10
585.813932
 20
372.026931
 30
0.0
 10
586.582705
 20
373.833506
 30
0.0
 10
586.596067
 20
373.929286
 30
0.0
 10
586.148180
 20
374.424215
 30
0.0
  0
SPLINE
  5
1f0
100
AcDbEntity
  8
0
 62
7
100
AcDbSpline
 70
8
 71
3
 72
8
 73
4
 74
0
 40
0
 40
0
 40
0
 40
0
 40
1
 40
1
 40
1
 40
1
 10
586.148180
 20
374.424215
 30
0.0
 10
585.428963
 20
375.218944
 30
0.0
 10
584.480538
 20
374.949201
 30
0.0
 10
583.510469
 20
373.674016
 30
0.0
  0
SPLINE
  5
1f1
100
AcDbEntity
  8
0
 62
7
100
AcDbSpline
 70
8
 71
3
 72
8
 73
4
 74
0
 40
0
 40
0
 40
0
 40
0
 40
1
 40
1
 40
1
 40
1
 10
583.510469
 20
373.674016
 30
0.0
 10
583.046734
 20
373.064416
 30
0.0
 10
582.595170
 20
372.617931
 30
0.0
 10
582.507037
 20
372.681828
 30
0.0
  0
SPLINE
  5
1f2
100
AcDbEntity
  8
0
 62
7
100
AcDbSpline
 70
8
 71
3
 72
8
 73
4
 74
0
 40
0
 40
0
 40
0
 40
0
 40
1
 40
1
 40
1
 40
1
 10
582.507037
 20
372.681828
 30
0.0
 10
582.418878
 20
372.745725
 30
0.0
 10
582.403109
 20
372.721807
 30
0.0
 10
582.471953
 20
372.628700
 30
0.0
  0
SPLINE
  5
1f3
100
AcDbEntity
  8
0
 62
7
100
AcDbSpline
 70
8
 71
3
 72
8
 73
4
 74
0
 40
0
 40
0
 40
0
 40
0
 40
1
 40
1
 40
1
 40
1
 10
582.471953
 20
372.628700
 30
0.0
 10
582.540824
 20
372.535566
 30
0.0
 10
582.235019
 20
372.002140
 30
0.0
 10
581.792371
 20
371.443261
 30
0.0
  0
SPLINE
  5
1f4
100
AcDbEntity
  8
0
 62
7
100
AcDbSpline
 70
8
 71
3
 72
8
 73
4
 74
0
 40
0
 40
0
 40
0
 40
0
 40
1
 40
1
 40
1
 40
1
 10
581.792371
 20
371.443261
 30
0.0
 10
581.235899
 20
370.740633
 30
0.0
 10
580.646249
 20
370.335757
 30
0.0
 10
579.881233
 20
370.130943
 30
0.0
  0
SPLINE
  5
1f5
100
AcDbEntity
  8
0
 62
7
100
AcDbSpline
 70
8
 71
3
 72
8
 73
4
 74
0
 40
0
 40
0
 40
0
 40
0
 40
1
 40
1
 40
1
 40
1
 10
579.881233
 20
370.130943
 30
0.0
 10
577.435715
 20
369.476232
 30
0.0
 10
576.430722
 20
368.970560
 30
0.0
 10
572.812571
 20
366.574202
 30
0.0
  0
SPLINE
  5
1f6
100
AcDbEntity
  8
0
 62
7
100
AcDbSpline
 70
8
 71
3
 72
8
 73
4
 74
0
 40
0
 40
0
 40
0
 40
0
 40
1
 40
1
 40
1
 40
1
 10
572.812571
 20
366.574202
 30
0.0
 10
568.924440
 20
363.999039
 30
0.0
 10
566.838333
 20
363.008413
 30
0.0
 10
565.303591
 20
363.008413
 30
0.0
  0
SPLINE
  5
1f7
100
AcDbEntity
  8
0
 62
7
100
AcDbSpline
 70
8
 71
3
 72
8
 73
4
 74
0
 40
0
 40
0
 40
0
 40
0
 40
1
 40
1
 40
1
 40
1
 10
565.303591
 20
363.008413
 30
0.0
 10
564.815355
 20
363.008413
 30
0.0
 10
564.262244
 20
362.818468
 30
0.0
 10
564.067616
 20
362.583968
 30
0.0
  0
SPLINE
  5
1f8
100
AcDbEntity
  8
0
 62
7
100
AcDbSpline
 70
8
 71
3
 72
8
 73
4
 74
0
 40
0
 40
0
 40
0
 40
0
 40
1
 40
1
 40
1
 40
1
 10
564.067616
 20
362.583968
 30
0.0
 10
563.197798
 20
361.535874
 30
0.0
 10
561.371803
 20
361.710870
 30
0.0
 10
560.702725
 20
362.906442
 30
0.0
  0
SPLINE
  5
1f9
100
AcDbEntity
  8
0
 62
7
100
AcDbSpline
 70
8
 71
3
 72
8
 73
4
 74
0
 40
0
 40
0
 40
0
 40
0
 40
1
 40
1
 40
1
 40
1
 10
560.702725
 20
362.906442
 30
0.0
 10
560.520136
 20
363.232726
 30
0.0
 10
560.421208
 20
363.068156
 30
0.0
 10
560.283942
 20
362.209768
 30
0.0
  0
SPLINE
  5
1fa
100
AcDbEntity
  8
0
 62
7
100
AcDbSpline
 70
8
 71
3
 72
8
 73
4
 74
0
 40
0
 40
0
 40
0
 40
0
 40
1
 40
1
 40
1
 40
1
 10
560.283942
 20
362.209768
 30
0.0
 10
560.160620
 20
361.438455
 30
0.0
 10
559.824784
 20
360.806444
 30
0.0
 10
559.213411
 20
360.195072
 30
0.0
  0
SPLINE
  5
1fb
100
AcDbEntity
  8
0
 62
7
100
AcDbSpline
 70
8
 71
3
 72
8
 73
4
 74
0
 40
0
 40
0
 40
0
 40
0
 40
1
 40
1
 40
1
 40
1
 10
559.213411
 20
360.195072
 30
0.0
 10
558.341186
 20
359.322846
 30
0.0
 10
558.275411
 20
359.304246
 30
0.0
 10
556.064394
 20
359.304246
 30
0.0
  0
SPLINE
  5
1fc
100
AcDbEntity
  8
0
 62
7
100
AcDbSpline
 70
8
 71
3
 72
8
 73
4
 74
0
 40
0
 40
0
 40
0
 40
0
 40
1
 40
1
 40
1
 40
1
 10
556.064394
 20
359.304246
 30
0.0
 10
554.822386
 20
359.304246
 30
0.0
 10
553.511164
 20
359.192063
 30
0.0
 10
553.150564
 20
359.054982
 30
0.0
  0
LWPOLYLINE
  5
1fd
100
AcDbEntity
  8
0
 62
7
100
AcDbPolyline
 90
5
 70
0
 10
495.329766
 20
326.875907
 30
0.0
 10
496.154445
 20
328.638218
 30
0.0
 10
494.947522
 20
331.837295
 30
0.0
 10
493.740572
 20
335.036372
 30
0.0
 10
495.411019
 20
334.880373
 30
0.0
  0
SPLINE
  5
1fe
100
AcDbEntity
  8
0
 62
7
100
AcDbSpline
 70
8
 71
3
 72
8
 73
4
 74
0
 40
0
 40
0
 40
0
 40
0
 40
1
 40
1
 40
1
 40
1
 10
553.007001
 20
360.576336
 30
0.0
 10
553.930502
 20
363.769645
 30
0.0
 10
553.931614
 20
363.537579
 30
0.0
 10
552.992978
 20
363.537579
 30
0.0
  0
SPLINE
  5
1ff
100
AcDbEntity
  8
0
 62
7
100
AcDbSpline
 70
8
 71
3
 72
8
 73
4
 74
0
 40
0
 40
0
 40
0
 40
0
 40
1
 40
1
 40
1
 40
1
 10
552.992978
 20
363.537579
 30
0.0
 10
552.285747
 20
363.537579
 30
0.0
 10
551.808491
 20
363.173645
 30
0.0
 10
549.898676
 20
361.178078
 30
0.0
  0
SPLINE
  5
200
100
AcDbEntity
  8
0
 62
7
100
AcDbSpline
 70
8
 71
3
 72
8
 73
4
 74
0
 40
0
 40
0
 40
0
 40
0
 40
1
 40
1
 40
1
 40
1
 10
549.898676
 20
361.178078
 30
0.0
 10
547.705095
 20
358.886046
 30
0.0
 10
547.617809
 20
358.826514
 30
0.0
 10
546.845093
 20
359.095887
 30
0.0
  0
SPLINE
  5
201
100
AcDbEntity
  8
0
 62
7
100
AcDbSpline
 70
8
 71
3
 72
8
 73
4
 74
0
 40
0
 40
0
 40
0
 40
0
 40
1
 40
1
 40
1
 40
1
 10
546.845093
 20
359.095887
 30
0.0
 10
545.469498
 20
359.575418
 30
0.0
 10
543.431598
 20
359.152296
 30
0.0
 10
539.645542
 20
357.601070
 30
0.0
  0
SPLINE
  5
202
100
AcDbEntity
  8
0
 62
7
100
AcDbSpline
 70
8
 71
3
 72
8
 73
4
 74
0
 40
0
 40
0
 40
0
 40
0
 40
1
 40
1
 40
1
 40
1
 10
539.645542
 20
357.601070
 30
0.0
 10
535.102065
 20
355.739541
 30
0.0
 10
534.046695
 20
355.560445
 30
0.0
 10
532.987806
 20
356.471246
 30
0.0
  0
SPLINE
  5
203
100
AcDbEntity
  8
0
 62
7
100
AcDbSpline
 70
8
 71
3
 72
8
 73
4
 74
0
 40
0
 40
0
 40
0
 40
0
 40
1
 40
1
 40
1
 40
1
 10
532.987806
 20
356.471246
 30
0.0
 10
532.272954
 20
357.086138
 30
0.0
 10
532.207258
 20
357.296905
 30
0.0
 10
532.118067
 20
359.260775
 30
0.0
  0
SPLINE
  5
204
100
AcDbEntity
  8
0
 62
7
100
AcDbSpline
 70
8
 71
3
 72
8
 73
4
 74
0
 40
0
 40
0
 40
0
 40
0
 40
1
 40
1
 40
1
 40
1
 10
532.118067
 20
359.260775
 30
0.0
 10
532.045254
 20
360.863991
 30
0.0
 10
531.921879
 20
361.423453
 30
0.0
 10
531.615147
 20
361.541139
 30
0.0
  0
SPLINE
  5
205
100
AcDbEntity
  8
0
 62
7
100
AcDbSpline
 70
8
 71
3
 72
8
 73
4
 74
0
 40
0
 40
0
 40
0
 40
0
 40
1
 40
1
 40
1
 40
1
 10
531.615147
 20
361.541139
 30
0.0
 10
530.835685
 20
361.840251
 30
0.0
 10
528.986194
 20
360.622665
 30
0.0
 10
527.199225
 20
358.633924
 30
0.0
  0
SPLINE
  5
206
100
AcDbEntity
  8
0
 62
7
100
AcDbSpline
 70
8
 71
3
 72
8
 73
4
 74
0
 40
0
 40
0
 40
0
 40
0
 40
1
 40
1
 40
1
 40
1
 10
527.199225
 20
358.633924
 30
0.0
 10
526.217674
 20
357.541539
 30
0.0
 10
525.079965
 20
356.474739
 30
0.0
 10
524.670999
 20
356.263258
 30
0.0
  0
SPLINE
  5
207
100
AcDbEntity
  8
0
 62
7
100
AcDbSpline
 70
8
 71
3
 72
8
 73
4
 74
0
 40
0
 40
0
 40
0
 40
0
 40
1
 40
1
 40
1
 40
1
 10
524.670999
 20
356.263258
 30
0.0
 10
523.993322
 20
355.912817
 30
0.0
 10
523.867645
 20
355.925729
 30
0.0
 10
523.253414
 20
356.408884
 30
0.0
  0
SPLINE
  5
208
100
AcDbEntity
  8
0
 62
7
100
AcDbSpline
 70
8
 71
3
 72
8
 73
4
 74
0
 40
0
 40
0
 40
0
 40
0
 40
1
 40
1
 40
1
 40
1
 10
523.253414
 20
356.408884
 30
0.0
 10
522.882733
 20
356.700455
 30
0.0
 10
522.425030
 20
357.366067
 30
0.0
 10
522.236303
 20
357.888011
 30
0.0
  0
LWPOLYLINE
  5
209
100
AcDbEntity
  8
0
 62
7
100
AcDbPolyline
 90
3
 70
0
 10
553.150564
 20
359.054982
 30
0.0
 10
552.494953
 20
358.805718
 30
0.0
 10
553.007001
 20
360.576336
 30
0.0
  0
SPLINE
  5
20a
100
AcDbEntity
  8
0
 62
7
100
AcDbSpline
 70
8
 71
3
 72
8
 73
4
 74
0
 40
0
 40
0
 40
0
 40
0
 40
1
 40
1
 40
1
 40
1
 10
520.369985
 20
358.677819
 30
0.0
 10
518.885302
 20
358.522640
 30
0.0
 10
518.846832
 20
358.535049
 30
0.0
 10
518.846832
 20
359.169229
 30
0.0
  0
SPLINE
  5
20b
100
AcDbEntity
  8
0
 62
7
100
AcDbSpline
 70
8
 71
3
 72
8
 73
4
 74
0
 40
0
 40
0
 40
0
 40
0
 40
1
 40
1
 40
1
 40
1
 10
518.846832
 20
359.169229
 30
0.0
 10
518.846832
 20
360.206766
 30
0.0
 10
517.547675
 20
360.726302
 30
0.0
 10
515.010374
 20
360.703469
 30
0.0
  0
SPLINE
  5
20c
100
AcDbEntity
  8
0
 62
7
100
AcDbSpline
 70
8
 71
3
 72
8
 73
4
 74
0
 40
0
 40
0
 40
0
 40
0
 40
1
 40
1
 40
1
 40
1
 10
515.010374
 20
360.703469
 30
0.0
 10
512.418886
 20
360.680185
 30
0.0
 10
509.788186
 20
359.888129
 30
0.0
 10
506.015493
 20
357.995432
 30
0.0
  0
LWPOLYLINE
  5
20d
100
AcDbEntity
  8
0
 62
7
100
AcDbPolyline
 90
3
 70
0
 10
522.236303
 20
357.888011
 30
0.0
 10
521.893139
 20
358.837018
 30
0.0
 10
520.369985
 20
358.677819
 30
0.0
  0
SPLINE
  5
20e
100
AcDbEntity
  8
0
 62
7
100
AcDbSpline
 70
8
 71
3
 72
8
 73
4
 74
0
 40
0
 40
0
 40
0
 40
0
 40
1
 40
1
 40
1
 40
1
 10
504.527820
 20
359.975626
 30
0.0
 10
506.351037
 20
361.604904
 30
0.0
 10
506.820673
 20
362.161720
 30
0.0
 10
506.599931
 20
362.432441
 30
0.0
  0
SPLINE
  5
20f
100
AcDbEntity
  8
0
 62
7
100
AcDbSpline
 70
8
 71
3
 72
8
 73
4
 74
0
 40
0
 40
0
 40
0
 40
0
 40
1
 40
1
 40
1
 40
1
 10
506.599931
 20
362.432441
 30
0.0
 10
506.193081
 20
362.931445
 30
0.0
 10
504.678262
 20
363.660267
 30
0.0
 10
502.869861
 20
364.227084
 30
0.0
  0
SPLINE
  5
210
100
AcDbEntity
  8
0
 62
7
100
AcDbSpline
 70
8
 71
3
 72
8
 73
4
 74
0
 40
0
 40
0
 40
0
 40
0
 40
1
 40
1
 40
1
 40
1
 10
502.869861
 20
364.227084
 30
0.0
 10
499.960609
 20
365.138917
 30
0.0
 10
499.276820
 20
366.415082
 30
0.0
 10
500.217784
 20
369.176670
 30
0.0
  0
LWPOLYLINE
  5
211
100
AcDbEntity
  8
0
 62
7
100
AcDbPolyline
 90
5
 70
0
 10
506.015493
 20
357.995432
 30
0.0
 10
503.370585
 20
356.668546
 30
0.0
 10
502.770431
 20
357.268727
 30
0.0
 10
502.170250
 20
357.868881
 30
0.0
 10
504.527820
 20
359.975626
 30
0.0
  0
SPLINE
  5
212
100
AcDbEntity
  8
0
 62
7
100
AcDbSpline
 70
8
 71
3
 72
8
 73
4
 74
0
 40
0
 40
0
 40
0
 40
0
 40
1
 40
1
 40
1
 40
1
 10
499.805722
 20
371.463872
 30
0.0
 10
498.845946
 20
372.675690
 30
0.0
 10
498.450050
 20
374.291421
 30
0.0
 10
499.055946
 20
374.523910
 30
0.0
  0
SPLINE
  5
213
100
AcDbEntity
  8
0
 62
7
100
AcDbSpline
 70
8
 71
3
 72
8
 73
4
 74
0
 40
0
 40
0
 40
0
 40
0
 40
1
 40
1
 40
1
 40
1
 10
499.055946
 20
374.523910
 30
0.0
 10
499.267771
 20
374.605217
 30
0.0
 10
500.109887
 20
374.566826
 30
0.0
 10
500.927317
 20
374.438661
 30
0.0
  0
SPLINE
  5
214
100
AcDbEntity
  8
0
 62
7
100
AcDbSpline
 70
8
 71
3
 72
8
 73
4
 74
0
 40
0
 40
0
 40
0
 40
0
 40
1
 40
1
 40
1
 40
1
 10
500.927317
 20
374.438661
 30
0.0
 10
502.410254
 20
374.206119
 30
0.0
 10
502.414249
 20
374.207336
 30
0.0
 10
502.738628
 20
374.990424
 30
0.0
  0
SPLINE
  5
215
100
AcDbEntity
  8
0
 62
7
100
AcDbSpline
 70
8
 71
3
 72
8
 73
4
 74
0
 40
0
 40
0
 40
0
 40
0
 40
1
 40
1
 40
1
 40
1
 10
502.738628
 20
374.990424
 30
0.0
 10
502.998343
 20
375.617433
 30
0.0
 10
502.993925
 20
376.021214
 30
0.0
 10
502.716668
 20
376.998585
 30
0.0
  0
SPLINE
  5
216
100
AcDbEntity
  8
0
 62
7
100
AcDbSpline
 70
8
 71
3
 72
8
 73
4
 74
0
 40
0
 40
0
 40
0
 40
0
 40
1
 40
1
 40
1
 40
1
 10
502.716668
 20
376.998585
 30
0.0
 10
502.105136
 20
379.154013
 30
0.0
 10
502.083758
 20
379.725380
 30
0.0
 10
502.580196
 20
380.647189
 30
0.0
  0
SPLINE
  5
217
100
AcDbEntity
  8
0
 62
7
100
AcDbSpline
 70
8
 71
3
 72
8
 73
4
 74
0
 40
0
 40
0
 40
0
 40
0
 40
1
 40
1
 40
1
 40
1
 10
502.580196
 20
380.647189
 30
0.0
 10
503.152780
 20
381.710443
 30
0.0
 10
503.717454
 20
381.758254
 30
0.0
 10
504.813173
 20
380.836260
 30
0.0
  0
SPLINE
  5
218
100
AcDbEntity
  8
0
 62
7
100
AcDbSpline
 70
8
 71
3
 72
8
 73
4
 74
0
 40
0
 40
0
 40
0
 40
0
 40
1
 40
1
 40
1
 40
1
 10
504.813173
 20
380.836260
 30
0.0
 10
505.926090
 20
379.899820
 30
0.0
 10
506.274202
 20
379.149806
 30
0.0
 10
507.048585
 20
376.020076
 30
0.0
  0
SPLINE
  5
219
100
AcDbEntity
  8
0
 62
7
100
AcDbSpline
 70
8
 71
3
 72
8
 73
4
 74
0
 40
0
 40
0
 40
0
 40
0
 40
1
 40
1
 40
1
 40
1
 10
507.048585
 20
376.020076
 30
0.0
 10
507.412069
 20
374.551030
 30
0.0
 10
507.901575
 20
372.977606
 30
0.0
 10
508.136366
 20
372.523528
 30
0.0
  0
SPLINE
  5
21a
100
AcDbEntity
  8
0
 62
7
100
AcDbSpline
 70
8
 71
3
 72
8
 73
4
 74
0
 40
0
 40
0
 40
0
 40
0
 40
1
 40
1
 40
1
 40
1
 10
508.136366
 20
372.523528
 30
0.0
 10
508.510328
 20
371.800369
 30
0.0
 10
509.851369
 20
370.945923
 30
0.0
 10
510.612390
 20
370.945923
 30
0.0
  0
SPLINE
  5
21b
100
AcDbEntity
  8
0
 62
7
100
AcDbSpline
 70
8
 71
3
 72
8
 73
4
 74
0
 40
0
 40
0
 40
0
 40
0
 40
1
 40
1
 40
1
 40
1
 10
510.612390
 20
370.945923
 30
0.0
 10
510.749418
 20
370.945923
 30
0.0
 10
511.364389
 20
371.862122
 30
0.0
 10
511.978989
 20
372.981945
 30
0.0
  0
LWPOLYLINE
  5
21c
100
AcDbEntity
  8
0
 62
7
100
AcDbPolyline
 90
3
 70
0
 10
500.217784
 20
369.176670
 30
0.0
 10
500.638736
 20
370.412089
 30
0.0
 10
499.805722
 20
371.463872
 30
0.0
  0
SPLINE
  5
21d
100
AcDbEntity
  8
0
 62
7
100
AcDbSpline
 70
8
 71
3
 72
8
 73
4
 74
0
 40
0
 40
0
 40
0
 40
0
 40
1
 40
1
 40
1
 40
1
 10
513.696823
 20
373.841841
 30
0.0
 10
514.488483
 20
372.291065
 30
0.0
 10
515.290250
 20
371.588596
 30
0.0
 10
516.693864
 20
371.215931
 30
0.0
  0
SPLINE
  5
21e
100
AcDbEntity
  8
0
 62
7
100
AcDbSpline
 70
8
 71
3
 72
8
 73
4
 74
0
 40
0
 40
0
 40
0
 40
0
 40
1
 40
1
 40
1
 40
1
 10
516.693864
 20
371.215931
 30
0.0
 10
518.040197
 20
370.858478
 30
0.0
 10
518.991347
 20
370.981960
 30
0.0
 10
522.947926
 20
372.027857
 30
0.0
  0
SPLINE
  5
21f
100
AcDbEntity
  8
0
 62
7
100
AcDbSpline
 70
8
 71
3
 72
8
 73
4
 74
0
 40
0
 40
0
 40
0
 40
0
 40
1
 40
1
 40
1
 40
1
 10
522.947926
 20
372.027857
 30
0.0
 10
526.964354
 20
373.089551
 30
0.0
 10
528.064968
 20
373.051689
 30
0.0
 10
530.510538
 20
371.767666
 30
0.0
  0
SPLINE
  5
220
100
AcDbEntity
  8
0
 62
7
100
AcDbSpline
 70
8
 71
3
 72
8
 73
4
 74
0
 40
0
 40
0
 40
0
 40
0
 40
1
 40
1
 40
1
 40
1
 10
530.510538
 20
371.767666
 30
0.0
 10
533.368144
 20
370.267309
 30
0.0
 10
535.747198
 20
369.601882
 30
0.0
 10
538.861609
 20
369.431808
 30
0.0
  0
SPLINE
  5
221
100
AcDbEntity
  8
0
 62
7
100
AcDbSpline
 70
8
 71
3
 72
8
 73
4
 74
0
 40
0
 40
0
 40
0
 40
0
 40
1
 40
1
 40
1
 40
1
 10
538.861609
 20
369.431808
 30
0.0
 10
542.753259
 20
369.219295
 30
0.0
 10
546.735609
 20
369.870964
 30
0.0
 10
556.285426
 20
372.282942
 30
0.0
  0
SPLINE
  5
222
100
AcDbEntity
  8
0
 62
7
100
AcDbSpline
 70
8
 71
3
 72
8
 73
4
 74
0
 40
0
 40
0
 40
0
 40
0
 40
1
 40
1
 40
1
 40
1
 10
556.285426
 20
372.282942
 30
0.0
 10
564.646630
 20
374.394714
 30
0.0
 10
567.675342
 20
375.009077
 30
0.0
 10
571.279787
 20
375.324486
 30
0.0
  0
LWPOLYLINE
  5
223
100
AcDbEntity
  8
0
 62
7
100
AcDbPolyline
 90
3
 70
0
 10
511.978989
 20
372.981945
 30
0.0
 10
513.096431
 20
375.017967
 30
0.0
 10
513.696823
 20
373.841841
 30
0.0
  0
SPLINE
  5
224
100
AcDbEntity
  8
0
 62
7
100
AcDbSpline
 70
8
 71
3
 72
8
 73
4
 74
0
 40
0
 40
0
 40
0
 40
0
 40
1
 40
1
 40
1
 40
1
 10
573.937156
 20
376.721645
 30
0.0
 10
574.818854
 20
378.434981
 30
0.0
 10
575.736297
 20
378.885064
 30
0.0
 10
578.908466
 20
379.160601
 30
0.0
  0
SPLINE
  5
225
100
AcDbEntity
  8
0
 62
7
100
AcDbSpline
 70
8
 71
3
 72
8
 73
4
 74
0
 40
0
 40
0
 40
0
 40
0
 40
1
 40
1
 40
1
 40
1
 10
578.908466
 20
379.160601
 30
0.0
 10
582.002053
 20
379.429312
 30
0.0
 10
582.726615
 20
379.817879
 30
0.0
 10
585.464550
 20
382.676490
 30
0.0
  0
SPLINE
  5
226
100
AcDbEntity
  8
0
 62
7
100
AcDbSpline
 70
8
 71
3
 72
8
 73
4
 74
0
 40
0
 40
0
 40
0
 40
0
 40
1
 40
1
 40
1
 40
1
 10
585.464550
 20
382.676490
 30
0.0
 10
587.507371
 20
384.809349
 30
0.0
 10
588.102684
 20
386.105331
 30
0.0
 10
588.403700
 20
389.075173
 30
0.0
  0
SPLINE
  5
227
100
AcDbEntity
  8
0
 62
7
100
AcDbSpline
 70
8
 71
3
 72
8
 73
4
 74
0
 40
0
 40
0
 40
0
 40
0
 40
1
 40
1
 40
1
 40
1
 10
588.403700
 20
389.075173
 30
0.0
 10
588.610763
 20
391.118127
 30
0.0
 10
588.418781
 20
393.170923
 30
0.0
 10
588.020689
 20
393.170923
 30
0.0
  0
SPLINE
  5
228
100
AcDbEntity
  8
0
 62
7
100
AcDbSpline
 70
8
 71
3
 72
8
 73
4
 74
0
 40
0
 40
0
 40
0
 40
0
 40
1
 40
1
 40
1
 40
1
 10
588.020689
 20
393.170923
 30
0.0
 10
587.953511
 20
393.170923
 30
0.0
 10
586.860518
 20
391.593345
 30
0.0
 10
585.591788
 20
389.665194
 30
0.0
  0
SPLINE
  5
229
100
AcDbEntity
  8
0
 62
7
100
AcDbSpline
 70
8
 71
3
 72
8
 73
4
 74
0
 40
0
 40
0
 40
0
 40
0
 40
1
 40
1
 40
1
 40
1
 10
585.591788
 20
389.665194
 30
0.0
 10
583.386697
 20
386.314008
 30
0.0
 10
580.921733
 20
383.381340
 30
0.0
 10
580.310069
 20
383.381340
 30
0.0
  0
SPLINE
  5
22a
100
AcDbEntity
  8
0
 62
7
100
AcDbSpline
 70
8
 71
3
 72
8
 73
4
 74
0
 40
0
 40
0
 40
0
 40
0
 40
1
 40
1
 40
1
 40
1
 10
580.310069
 20
383.381340
 30
0.0
 10
579.903669
 20
383.381340
 30
0.0
 10
579.642870
 20
384.621177
 30
0.0
 10
579.843768
 20
385.598098
 30
0.0
  0
SPLINE
  5
22b
100
AcDbEntity
  8
0
 62
7
100
AcDbSpline
 70
8
 71
3
 72
8
 73
4
 74
0
 40
0
 40
0
 40
0
 40
0
 40
1
 40
1
 40
1
 40
1
 10
579.843768
 20
385.598098
 30
0.0
 10
579.937192
 20
386.052362
 30
0.0
 10
580.300491
 20
387.234811
 30
0.0
 10
580.651091
 20
388.225755
 30
0.0
  0
SPLINE
  5
22c
100
AcDbEntity
  8
0
 62
7
100
AcDbSpline
 70
8
 71
3
 72
8
 73
4
 74
0
 40
0
 40
0
 40
0
 40
0
 40
1
 40
1
 40
1
 40
1
 10
580.651091
 20
388.225755
 30
0.0
 10
581.521411
 20
390.685639
 30
0.0
 10
581.506039
 20
390.784435
 30
0.0
 10
580.296364
 20
390.503526
 30
0.0
  0
SPLINE
  5
22d
100
AcDbEntity
  8
0
 62
7
100
AcDbSpline
 70
8
 71
3
 72
8
 73
4
 74
0
 40
0
 40
0
 40
0
 40
0
 40
1
 40
1
 40
1
 40
1
 10
580.296364
 20
390.503526
 30
0.0
 10
579.750661
 20
390.376817
 30
0.0
 10
579.090393
 20
390.270270
 30
0.0
 10
578.829117
 20
390.266804
 30
0.0
  0
SPLINE
  5
22e
100
AcDbEntity
  8
0
 62
7
100
AcDbSpline
 70
8
 71
3
 72
8
 73
4
 74
0
 40
0
 40
0
 40
0
 40
0
 40
1
 40
1
 40
1
 40
1
 10
578.829117
 20
390.266804
 30
0.0
 10
578.066588
 20
390.256750
 30
0.0
 10
577.055218
 20
391.456397
 30
0.0
 10
577.055218
 20
392.371061
 30
0.0
  0
LWPOLYLINE
  5
22f
100
AcDbEntity
  8
0
 62
7
100
AcDbPolyline
 90
3
 70
0
 10
571.279787
 20
375.324486
 30
0.0
 10
573.309565
 20
375.502101
 30
0.0
 10
573.937156
 20
376.721645
 30
0.0
  0
SPLINE
  5
230
100
AcDbEntity
  8
0
 62
7
100
AcDbSpline
 70
8
 71
3
 72
8
 73
4
 74
0
 40
0
 40
0
 40
0
 40
0
 40
1
 40
1
 40
1
 40
1
 10
568.528544
 20
389.763513
 30
0.0
 10
564.179905
 20
385.799420
 30
0.0
 10
562.451673
 20
384.720317
 30
0.0
 10
560.435231
 20
384.710051
 30
0.0
  0
SPLINE
  5
231
100
AcDbEntity
  8
0
 62
7
100
AcDbSpline
 70
8
 71
3
 72
8
 73
4
 74
0
 40
0
 40
0
 40
0
 40
0
 40
1
 40
1
 40
1
 40
1
 10
560.435231
 20
384.710051
 30
0.0
 10
558.779177
 20
384.701584
 30
0.0
 10
556.946885
 20
385.826725
 30
0.0
 10
556.946885
 20
386.852038
 30
0.0
  0
SPLINE
  5
232
100
AcDbEntity
  8
0
 62
7
100
AcDbSpline
 70
8
 71
3
 72
8
 73
4
 74
0
 40
0
 40
0
 40
0
 40
0
 40
1
 40
1
 40
1
 40
1
 10
556.946885
 20
386.852038
 30
0.0
 10
556.946885
 20
387.523022
 30
0.0
 10
555.926281
 20
388.143840
 30
0.0
 10
554.823154
 20
388.143840
 30
0.0
  0
SPLINE
  5
233
100
AcDbEntity
  8
0
 62
7
100
AcDbSpline
 70
8
 71
3
 72
8
 73
4
 74
0
 40
0
 40
0
 40
0
 40
0
 40
1
 40
1
 40
1
 40
1
 10
554.823154
 20
388.143840
 30
0.0
 10
553.454940
 20
388.143840
 30
0.0
 10
551.818731
 20
386.994755
 30
0.0
 10
549.527148
 20
384.424566
 30
0.0
  0
SPLINE
  5
234
100
AcDbEntity
  8
0
 62
7
100
AcDbSpline
 70
8
 71
3
 72
8
 73
4
 74
0
 40
0
 40
0
 40
0
 40
0
 40
1
 40
1
 40
1
 40
1
 10
549.527148
 20
384.424566
 30
0.0
 10
543.472555
 20
377.633876
 30
0.0
 10
542.651791
 20
377.124817
 30
0.0
 10
541.463256
 20
379.423226
 30
0.0
  0
SPLINE
  5
235
100
AcDbEntity
  8
0
 62
7
100
AcDbSpline
 70
8
 71
3
 72
8
 73
4
 74
0
 40
0
 40
0
 40
0
 40
0
 40
1
 40
1
 40
1
 40
1
 10
541.463256
 20
379.423226
 30
0.0
 10
541.261141
 20
379.814069
 30
0.0
 10
540.965707
 20
381.180536
 30
0.0
 10
540.806746
 20
382.459823
 30
0.0
  0
SPLINE
  5
236
100
AcDbEntity
  8
0
 62
7
100
AcDbSpline
 70
8
 71
3
 72
8
 73
4
 74
0
 40
0
 40
0
 40
0
 40
0
 40
1
 40
1
 40
1
 40
1
 10
540.806746
 20
382.459823
 30
0.0
 10
540.324649
 20
386.339382
 30
0.0
 10
539.822707
 20
386.614363
 30
0.0
 10
537.675561
 20
384.175090
 30
0.0
  0
SPLINE
  5
237
100
AcDbEntity
  8
0
 62
7
100
AcDbSpline
 70
8
 71
3
 72
8
 73
4
 74
0
 40
0
 40
0
 40
0
 40
0
 40
1
 40
1
 40
1
 40
1
 10
537.675561
 20
384.175090
 30
0.0
 10
536.301394
 20
382.613942
 30
0.0
 10
535.458749
 20
382.221142
 30
0.0
 10
534.830893
 20
382.848972
 30
0.0
  0
SPLINE
  5
238
100
AcDbEntity
  8
0
 62
7
100
AcDbSpline
 70
8
 71
3
 72
8
 73
4
 74
0
 40
0
 40
0
 40
0
 40
0
 40
1
 40
1
 40
1
 40
1
 10
534.830893
 20
382.848972
 30
0.0
 10
534.676853
 20
383.003039
 30
0.0
 10
534.638409
 20
383.790809
 30
0.0
 10
534.737310
 20
384.767201
 30
0.0
  0
SPLINE
  5
239
100
AcDbEntity
  8
0
 62
7
100
AcDbSpline
 70
8
 71
3
 72
8
 73
4
 74
0
 40
0
 40
0
 40
0
 40
0
 40
1
 40
1
 40
1
 40
1
 10
534.737310
 20
384.767201
 30
0.0
 10
534.829597
 20
385.678479
 30
0.0
 10
534.871798
 20
386.465720
 30
0.0
 10
534.831105
 20
386.516679
 30
0.0
  0
SPLINE
  5
23a
100
AcDbEntity
  8
0
 62
7
100
AcDbSpline
 70
8
 71
3
 72
8
 73
4
 74
0
 40
0
 40
0
 40
0
 40
0
 40
1
 40
1
 40
1
 40
1
 10
534.831105
 20
386.516679
 30
0.0
 10
534.790385
 20
386.567638
 30
0.0
 10
533.997429
 20
386.418810
 30
0.0
 10
533.068927
 20
386.185950
 30
0.0
  0
SPLINE
  5
23b
100
AcDbEntity
  8
0
 62
7
100
AcDbSpline
 70
8
 71
3
 72
8
 73
4
 74
0
 40
0
 40
0
 40
0
 40
0
 40
1
 40
1
 40
1
 40
1
 10
533.068927
 20
386.185950
 30
0.0
 10
529.692791
 20
385.339257
 30
0.0
 10
525.716606
 20
385.643792
 30
0.0
 10
518.582301
 20
387.295559
 30
0.0
  0
LWPOLYLINE
  5
23c
100
AcDbEntity
  8
0
 62
7
100
AcDbPolyline
 90
7
 70
0
 10
577.055218
 20
392.371061
 30
0.0
 10
577.055218
 20
393.182750
 30
0.0
 10
574.318606
 20
391.346674
 30
0.0
 10
571.581968
 20
389.510598
 30
0.0
 10
571.071904
 20
390.563799
 30
0.0
 10
570.561814
 20
391.616972
 30
0.0
 10
568.528544
 20
389.763513
 30
0.0
  0
SPLINE
  5
23d
100
AcDbEntity
  8
0
 62
7
100
AcDbSpline
 70
8
 71
3
 72
8
 73
4
 74
0
 40
0
 40
0
 40
0
 40
0
 40
1
 40
1
 40
1
 40
1
 10
515.187247
 20
388.961376
 30
0.0
 10
515.068767
 20
390.176554
 30
0.0
 10
514.796775
 20
390.437513
 30
0.0
 10
513.436023
 20
390.641586
 30
0.0
  0
SPLINE
  5
23e
100
AcDbEntity
  8
0
 62
7
100
AcDbSpline
 70
8
 71
3
 72
8
 73
4
 74
0
 40
0
 40
0
 40
0
 40
0
 40
1
 40
1
 40
1
 40
1
 10
513.436023
 20
390.641586
 30
0.0
 10
511.643048
 20
390.910456
 30
0.0
 10
511.560498
 20
391.129240
 30
0.0
 10
511.642730
 20
395.394799
 30
0.0
  0
SPLINE
  5
23f
100
AcDbEntity
  8
0
 62
7
100
AcDbSpline
 70
8
 71
3
 72
8
 73
4
 74
0
 40
0
 40
0
 40
0
 40
0
 40
1
 40
1
 40
1
 40
1
 10
511.642730
 20
395.394799
 30
0.0
 10
511.701706
 20
398.453409
 30
0.0
 10
511.628443
 20
399.365904
 30
0.0
 10
511.235325
 20
400.468925
 30
0.0
  0
LWPOLYLINE
  5
240
100
AcDbEntity
  8
0
 62
7
100
AcDbPolyline
 90
3
 70
0
 10
518.582301
 20
387.295559
 30
0.0
 10
515.275010
 20
388.061263
 30
0.0
 10
515.187247
 20
388.961376
 30
0.0
  0
SPLINE
  5
241
100
AcDbEntity
  8
0
 62
7
100
AcDbSpline
 70
8
 71
3
 72
8
 73
4
 74
0
 40
0
 40
0
 40
0
 40
0
 40
1
 40
1
 40
1
 40
1
 10
512.089479
 20
401.701778
 30
0.0
 10
514.001941
 20
401.541123
 30
0.0
 10
518.960417
 20
400.420348
 30
0.0
 10
522.482657
 20
399.352569
 30
0.0
  0
SPLINE
  5
242
100
AcDbEntity
  8
0
 62
7
100
AcDbSpline
 70
8
 71
3
 72
8
 73
4
 74
0
 40
0
 40
0
 40
0
 40
0
 40
1
 40
1
 40
1
 40
1
 10
522.482657
 20
399.352569
 30
0.0
 10
530.876378
 20
396.808018
 30
0.0
 10
535.862583
 20
395.901873
 30
0.0
 10
539.917825
 20
396.184157
 30
0.0
  0
SPLINE
  5
243
100
AcDbEntity
  8
0
 62
7
100
AcDbSpline
 70
8
 71
3
 72
8
 73
4
 74
0
 40
0
 40
0
 40
0
 40
0
 40
1
 40
1
 40
1
 40
1
 10
539.917825
 20
396.184157
 30
0.0
 10
544.073662
 20
396.473400
 30
0.0
 10
547.342325
 20
397.521679
 30
0.0
 10
551.126051
 20
399.778627
 30
0.0
  0
SPLINE
  5
244
100
AcDbEntity
  8
0
 62
7
100
AcDbSpline
 70
8
 71
3
 72
8
 73
4
 74
0
 40
0
 40
0
 40
0
 40
0
 40
1
 40
1
 40
1
 40
1
 10
551.126051
 20
399.778627
 30
0.0
 10
552.431506
 20
400.557296
 30
0.0
 10
554.503246
 20
401.291859
 30
0.0
 10
559.725010
 20
402.827474
 30
0.0
  0
SPLINE
  5
245
100
AcDbEntity
  8
0
 62
7
100
AcDbSpline
 70
8
 71
3
 72
8
 73
4
 74
0
 40
0
 40
0
 40
0
 40
0
 40
1
 40
1
 40
1
 40
1
 10
559.725010
 20
402.827474
 30
0.0
 10
563.508551
 20
403.940153
 30
0.0
 10
569.167566
 20
405.613510
 30
0.0
 10
572.300603
 20
406.546061
 30
0.0
  0
LWPOLYLINE
  5
246
100
AcDbEntity
  8
0
 62
7
100
AcDbPolyline
 90
3
 70
0
 10
511.235325
 20
400.468925
 30
0.0
 10
510.756032
 20
401.813802
 30
0.0
 10
512.089479
 20
401.701778
 30
0.0
  0
SPLINE
  5
247
100
AcDbEntity
  8
0
 62
7
100
AcDbSpline
 70
8
 71
3
 72
8
 73
4
 74
0
 40
0
 40
0
 40
0
 40
0
 40
1
 40
1
 40
1
 40
1
 10
579.488115
 20
409.685871
 30
0.0
 10
581.070508
 20
411.218549
 30
0.0
 10
581.318370
 20
411.322610
 30
0.0
 10
585.528896
 20
412.222405
 30
0.0
  0
SPLINE
  5
248
100
AcDbEntity
  8
0
 62
7
100
AcDbSpline
 70
8
 71
3
 72
8
 73
4
 74
0
 40
0
 40
0
 40
0
 40
0
 40
1
 40
1
 40
1
 40
1
 10
585.528896
 20
412.222405
 30
0.0
 10
586.843479
 20
412.503340
 30
0.0
 10
588.480985
 20
413.010969
 30
0.0
 10
589.167843
 20
413.350456
 30
0.0
  0
SPLINE
  5
249
100
AcDbEntity
  8
0
 62
7
100
AcDbSpline
 70
8
 71
3
 72
8
 73
4
 74
0
 40
0
 40
0
 40
0
 40
0
 40
1
 40
1
 40
1
 40
1
 10
589.167843
 20
413.350456
 30
0.0
 10
590.558149
 20
414.037685
 30
0.0
 10
591.814364
 20
415.654924
 30
0.0
 10
592.483681
 20
417.619244
 30
0.0
  0
SPLINE
  5
24a
100
AcDbEntity
  8
0
 62
7
100
AcDbSpline
 70
8
 71
3
 72
8
 73
4
 74
0
 40
0
 40
0
 40
0
 40
0
 40
1
 40
1
 40
1
 40
1
 10
592.483681
 20
417.619244
 30
0.0
 10
592.868835
 20
418.749570
 30
0.0
 10
592.862247
 20
418.850535
 30
0.0
 10
592.362158
 20
419.486302
 30
0.0
  0
SPLINE
  5
24b
100
AcDbEntity
  8
0
 62
7
100
AcDbSpline
 70
8
 71
3
 72
8
 73
4
 74
0
 40
0
 40
0
 40
0
 40
0
 40
1
 40
1
 40
1
 40
1
 10
592.362158
 20
419.486302
 30
0.0
 10
592.071381
 20
419.855952
 30
0.0
 10
591.737371
 20
420.158423
 30
0.0
 10
591.619922
 20
420.158423
 30
0.0
  0
SPLINE
  5
24c
100
AcDbEntity
  8
0
 62
7
100
AcDbSpline
 70
8
 71
3
 72
8
 73
4
 74
0
 40
0
 40
0
 40
0
 40
0
 40
1
 40
1
 40
1
 40
1
 10
591.619922
 20
420.158423
 30
0.0
 10
591.502474
 20
420.158423
 30
0.0
 10
590.716396
 20
419.622642
 30
0.0
 10
589.873090
 20
418.967798
 30
0.0
  0
SPLINE
  5
24d
100
AcDbEntity
  8
0
 62
7
100
AcDbSpline
 70
8
 71
3
 72
8
 73
4
 74
0
 40
0
 40
0
 40
0
 40
0
 40
1
 40
1
 40
1
 40
1
 10
589.873090
 20
418.967798
 30
0.0
 10
589.029784
 20
418.312955
 30
0.0
 10
588.202775
 20
417.777173
 30
0.0
 10
588.035294
 20
417.777173
 30
0.0
  0
SPLINE
  5
24e
100
AcDbEntity
  8
0
 62
7
100
AcDbSpline
 70
8
 71
3
 72
8
 73
4
 74
0
 40
0
 40
0
 40
0
 40
0
 40
1
 40
1
 40
1
 40
1
 10
588.035294
 20
417.777173
 30
0.0
 10
587.867813
 20
417.777173
 30
0.0
 10
587.455301
 20
418.070411
 30
0.0
 10
587.118619
 20
418.428816
 30
0.0
  0
LWPOLYLINE
  5
24f
100
AcDbEntity
  8
0
 62
7
100
AcDbPolyline
 90
3
 70
0
 10
572.300603
 20
406.546061
 30
0.0
 10
577.997002
 20
408.241616
 30
0.0
 10
579.488115
 20
409.685871
 30
0.0
  0
SPLINE
  5
250
100
AcDbEntity
  8
0
 62
7
100
AcDbSpline
 70
8
 71
3
 72
8
 73
4
 74
0
 40
0
 40
0
 40
0
 40
0
 40
1
 40
1
 40
1
 40
1
 10
585.846185
 20
418.561107
 30
0.0
 10
584.880826
 20
417.801753
 30
0.0
 10
583.905413
 20
417.920525
 30
0.0
 10
582.356383
 20
418.986055
 30
0.0
  0
SPLINE
  5
251
100
AcDbEntity
  8
0
 62
7
100
AcDbSpline
 70
8
 71
3
 72
8
 73
4
 74
0
 40
0
 40
0
 40
0
 40
0
 40
1
 40
1
 40
1
 40
1
 10
582.356383
 20
418.986055
 30
0.0
 10
580.539410
 20
420.235920
 30
0.0
 10
579.606436
 20
420.257721
 30
0.0
 10
578.534160
 20
419.075404
 30
0.0
  0
LWPOLYLINE
  5
252
100
AcDbEntity
  8
0
 62
7
100
AcDbPolyline
 90
3
 70
0
 10
587.118619
 20
418.428816
 30
0.0
 10
586.506426
 20
419.080431
 30
0.0
 10
585.846185
 20
418.561107
 30
0.0
  0
SPLINE
  5
253
100
AcDbEntity
  8
0
 62
7
100
AcDbSpline
 70
8
 71
3
 72
8
 73
4
 74
0
 40
0
 40
0
 40
0
 40
0
 40
1
 40
1
 40
1
 40
1
 10
576.527083
 20
419.407218
 30
0.0
 10
574.536649
 20
421.468957
 30
0.0
 10
572.617494
 20
421.439404
 30
0.0
 10
568.060417
 20
419.276885
 30
0.0
  0
SPLINE
  5
254
100
AcDbEntity
  8
0
 62
7
100
AcDbSpline
 70
8
 71
3
 72
8
 73
4
 74
0
 40
0
 40
0
 40
0
 40
0
 40
1
 40
1
 40
1
 40
1
 10
568.060417
 20
419.276885
 30
0.0
 10
565.790212
 20
418.199581
 30
0.0
 10
563.288233
 20
417.609031
 30
0.0
 10
563.308341
 20
418.155236
 30
0.0
  0
SPLINE
  5
255
100
AcDbEntity
  8
0
 62
7
100
AcDbSpline
 70
8
 71
3
 72
8
 73
4
 74
0
 40
0
 40
0
 40
0
 40
0
 40
1
 40
1
 40
1
 40
1
 10
563.308341
 20
418.155236
 30
0.0
 10
563.314162
 20
418.311050
 30
0.0
 10
563.536544
 20
419.480349
 30
0.0
 10
563.802715
 20
420.753656
 30
0.0
  0
SPLINE
  5
256
100
AcDbEntity
  8
0
 62
7
100
AcDbSpline
 70
8
 71
3
 72
8
 73
4
 74
0
 40
0
 40
0
 40
0
 40
0
 40
1
 40
1
 40
1
 40
1
 10
563.802715
 20
420.753656
 30
0.0
 10
564.264863
 20
422.964674
 30
0.0
 10
564.242929
 20
423.343663
 30
0.0
 10
563.681562
 20
422.845876
 30
0.0
  0
SPLINE
  5
257
100
AcDbEntity
  8
0
 62
7
100
AcDbSpline
 70
8
 71
3
 72
8
 73
4
 74
0
 40
0
 40
0
 40
0
 40
0
 40
1
 40
1
 40
1
 40
1
 10
563.681562
 20
422.845876
 30
0.0
 10
563.543318
 20
422.723268
 30
0.0
 10
562.516443
 20
422.129807
 30
0.0
 10
561.399584
 20
421.527034
 30
0.0
  0
LWPOLYLINE
  5
258
100
AcDbEntity
  8
0
 62
7
100
AcDbPolyline
 90
3
 70
0
 10
578.534160
 20
419.075404
 30
0.0
 10
577.717708
 20
418.173969
 30
0.0
 10
576.527083
 20
419.407218
 30
0.0
  0
SPLINE
  5
259
100
AcDbEntity
  8
0
 62
7
100
AcDbSpline
 70
8
 71
3
 72
8
 73
4
 74
0
 40
0
 40
0
 40
0
 40
0
 40
1
 40
1
 40
1
 40
1
 10
556.815440
 20
421.300841
 30
0.0
 10
555.195661
 20
419.751203
 30
0.0
 10
552.296171
 20
418.041677
 30
0.0
 10
551.287685
 20
418.041677
 30
0.0
  0
SPLINE
  5
25a
100
AcDbEntity
  8
0
 62
7
100
AcDbSpline
 70
8
 71
3
 72
8
 73
4
 74
0
 40
0
 40
0
 40
0
 40
0
 40
1
 40
1
 40
1
 40
1
 10
551.287685
 20
418.041677
 30
0.0
 10
550.677027
 20
418.041677
 30
0.0
 10
550.737881
 20
419.414283
 30
0.0
 10
551.434741
 20
421.357541
 30
0.0
  0
SPLINE
  5
25b
100
AcDbEntity
  8
0
 62
7
100
AcDbSpline
 70
8
 71
3
 72
8
 73
4
 74
0
 40
0
 40
0
 40
0
 40
0
 40
1
 40
1
 40
1
 40
1
 10
551.434741
 20
421.357541
 30
0.0
 10
552.028148
 20
423.012325
 30
0.0
 10
551.968273
 20
424.391677
 30
0.0
 10
551.303005
 20
424.391677
 30
0.0
  0
SPLINE
  5
25c
100
AcDbEntity
  8
0
 62
7
100
AcDbSpline
 70
8
 71
3
 72
8
 73
4
 74
0
 40
0
 40
0
 40
0
 40
0
 40
1
 40
1
 40
1
 40
1
 10
551.303005
 20
424.391677
 30
0.0
 10
551.114277
 20
424.391677
 30
0.0
 10
550.604505
 20
423.990278
 30
0.0
 10
550.170165
 20
423.499687
 30
0.0
  0
SPLINE
  5
25d
100
AcDbEntity
  8
0
 62
7
100
AcDbSpline
 70
8
 71
3
 72
8
 73
4
 74
0
 40
0
 40
0
 40
0
 40
0
 40
1
 40
1
 40
1
 40
1
 10
550.170165
 20
423.499687
 30
0.0
 10
549.082939
 20
422.271650
 30
0.0
 10
547.824739
 20
421.661204
 30
0.0
 10
546.783525
 20
421.856546
 30
0.0
  0
SPLINE
  5
25e
100
AcDbEntity
  8
0
 62
7
100
AcDbSpline
 70
8
 71
3
 72
8
 73
4
 74
0
 40
0
 40
0
 40
0
 40
0
 40
1
 40
1
 40
1
 40
1
 10
546.783525
 20
421.856546
 30
0.0
 10
546.321668
 20
421.943170
 30
0.0
 10
545.115750
 20
422.367218
 30
0.0
 10
544.103666
 20
422.798833
 30
0.0
  0
SPLINE
  5
25f
100
AcDbEntity
  8
0
 62
7
100
AcDbSpline
 70
8
 71
3
 72
8
 73
4
 74
0
 40
0
 40
0
 40
0
 40
0
 40
1
 40
1
 40
1
 40
1
 10
544.103666
 20
422.798833
 30
0.0
 10
541.729507
 20
423.811340
 30
0.0
 10
540.189526
 20
423.846080
 30
0.0
 10
538.821815
 20
422.917922
 30
0.0
  0
SPLINE
  5
260
100
AcDbEntity
  8
0
 62
7
100
AcDbSpline
 70
8
 71
3
 72
8
 73
4
 74
0
 40
0
 40
0
 40
0
 40
0
 40
1
 40
1
 40
1
 40
1
 10
538.821815
 20
422.917922
 30
0.0
 10
537.827670
 20
422.243261
 30
0.0
 10
537.385048
 20
422.339066
 30
0.0
 10
537.372798
 20
423.231506
 30
0.0
  0
SPLINE
  5
261
100
AcDbEntity
  8
0
 62
7
100
AcDbSpline
 70
8
 71
3
 72
8
 73
4
 74
0
 40
0
 40
0
 40
0
 40
0
 40
1
 40
1
 40
1
 40
1
 10
537.372798
 20
423.231506
 30
0.0
 10
537.363273
 20
423.924688
 30
0.0
 10
536.137908
 20
424.983788
 30
0.0
 10
534.147157
 20
426.019500
 30
0.0
  0
SPLINE
  5
262
100
AcDbEntity
  8
0
 62
7
100
AcDbSpline
 70
8
 71
3
 72
8
 73
4
 74
0
 40
0
 40
0
 40
0
 40
0
 40
1
 40
1
 40
1
 40
1
 10
534.147157
 20
426.019500
 30
0.0
 10
531.060977
 20
427.625097
 30
0.0
 10
530.543135
 20
428.679039
 30
0.0
 10
531.454228
 20
431.500132
 30
0.0
  0
SPLINE
  5
263
100
AcDbEntity
  8
0
 62
7
100
AcDbSpline
 70
8
 71
3
 72
8
 73
4
 74
0
 40
0
 40
0
 40
0
 40
0
 40
1
 40
1
 40
1
 40
1
 10
531.454228
 20
431.500132
 30
0.0
 10
531.831629
 20
432.668638
 30
0.0
 10
532.045651
 20
432.923987
 30
0.0
 10
533.058767
 20
433.414445
 30
0.0
  0
SPLINE
  5
264
100
AcDbEntity
  8
0
 62
7
100
AcDbSpline
 70
8
 71
3
 72
8
 73
4
 74
0
 40
0
 40
0
 40
0
 40
0
 40
1
 40
1
 40
1
 40
1
 10
533.058767
 20
433.414445
 30
0.0
 10
534.999724
 20
434.354034
 30
0.0
 10
536.054062
 20
433.949353
 30
0.0
 10
539.693776
 20
430.867778
 30
0.0
  0
SPLINE
  5
265
100
AcDbEntity
  8
0
 62
7
100
AcDbSpline
 70
8
 71
3
 72
8
 73
4
 74
0
 40
0
 40
0
 40
0
 40
0
 40
1
 40
1
 40
1
 40
1
 10
539.693776
 20
430.867778
 30
0.0
 10
540.720121
 20
429.998807
 30
0.0
 10
541.319138
 20
429.683820
 30
0.0
 10
541.942734
 20
429.685196
 30
0.0
  0
SPLINE
  5
266
100
AcDbEntity
  8
0
 62
7
100
AcDbSpline
 70
8
 71
3
 72
8
 73
4
 74
0
 40
0
 40
0
 40
0
 40
0
 40
1
 40
1
 40
1
 40
1
 10
541.942734
 20
429.685196
 30
0.0
 10
543.331003
 20
429.688106
 30
0.0
 10
546.713225
 20
430.613222
 30
0.0
 10
551.986741
 20
432.432100
 30
0.0
  0
SPLINE
  5
267
100
AcDbEntity
  8
0
 62
7
100
AcDbSpline
 70
8
 71
3
 72
8
 73
4
 74
0
 40
0
 40
0
 40
0
 40
0
 40
1
 40
1
 40
1
 40
1
 10
551.986741
 20
432.432100
 30
0.0
 10
554.715124
 20
433.373170
 30
0.0
 10
557.586541
 20
434.222959
 30
0.0
 10
558.367671
 20
434.320564
 30
0.0
  0
SPLINE
  5
268
100
AcDbEntity
  8
0
 62
7
100
AcDbSpline
 70
8
 71
3
 72
8
 73
4
 74
0
 40
0
 40
0
 40
0
 40
0
 40
1
 40
1
 40
1
 40
1
 10
558.367671
 20
434.320564
 30
0.0
 10
559.693762
 20
434.486246
 30
0.0
 10
559.882305
 20
434.435419
 30
0.0
 10
561.212180
 20
433.553484
 30
0.0
  0
SPLINE
  5
269
100
AcDbEntity
  8
0
 62
7
100
AcDbSpline
 70
8
 71
3
 72
8
 73
4
 74
0
 40
0
 40
0
 40
0
 40
0
 40
1
 40
1
 40
1
 40
1
 10
561.212180
 20
433.553484
 30
0.0
 10
563.337022
 20
432.144392
 30
0.0
 10
565.402465
 20
431.516324
 30
0.0
 10
568.468113
 20
431.347123
 30
0.0
  0
SPLINE
  5
26a
100
AcDbEntity
  8
0
 62
7
100
AcDbSpline
 70
8
 71
3
 72
8
 73
4
 74
0
 40
0
 40
0
 40
0
 40
0
 40
1
 40
1
 40
1
 40
1
 10
568.468113
 20
431.347123
 30
0.0
 10
572.563837
 20
431.121063
 30
0.0
 10
576.883107
 20
432.146165
 30
0.0
 10
583.758913
 20
434.976122
 30
0.0
  0
LWPOLYLINE
  5
26b
100
AcDbEntity
  8
0
 62
7
100
AcDbPolyline
 90
5
 70
0
 10
561.399584
 20
421.527034
 30
0.0
 10
559.368986
 20
420.431076
 30
0.0
 10
558.951500
 20
421.688032
 30
0.0
 10
558.533988
 20
422.944989
 30
0.0
 10
556.815440
 20
421.300841
 30
0.0
  0
SPLINE
  5
26c
100
AcDbEntity
  8
0
 62
7
100
AcDbSpline
 70
8
 71
3
 72
8
 73
4
 74
0
 40
0
 40
0
 40
0
 40
0
 40
1
 40
1
 40
1
 40
1
 10
581.554167
 20
440.616271
 30
0.0
 10
581.554167
 20
441.929531
 30
0.0
 10
581.482861
 20
442.076560
 30
0.0
 10
580.264005
 20
443.277106
 30
0.0
  0
LWPOLYLINE
  5
26d
100
AcDbEntity
  8
0
 62
7
100
AcDbPolyline
 90
7
 70
0
 10
583.758913
 20
434.976122
 30
0.0
 10
587.154285
 20
436.373598
 30
0.0
 10
585.226372
 20
438.314476
 30
0.0
 10
583.298459
 20
440.255327
 30
0.0
 10
582.426313
 20
439.740765
 30
0.0
 10
581.554167
 20
439.226177
 30
0.0
 10
581.554167
 20
440.616271
 30
0.0
  0
SPLINE
  5
26e
100
AcDbEntity
  8
0
 62
7
100
AcDbSpline
 70
8
 71
3
 72
8
 73
4
 74
0
 40
0
 40
0
 40
0
 40
0
 40
1
 40
1
 40
1
 40
1
 10
576.414688
 20
443.201012
 30
0.0
 10
573.520041
 20
441.677594
 30
0.0
 10
572.072744
 20
441.459763
 30
0.0
 10
570.911937
 20
442.372866
 30
0.0
  0
LWPOLYLINE
  5
26f
100
AcDbEntity
  8
0
 62
7
100
AcDbPolyline
 90
3
 70
0
 10
580.264005
 20
443.277106
 30
0.0
 10
578.973844
 20
444.547874
 30
0.0
 10
576.414688
 20
443.201012
 30
0.0
  0
SPLINE
  5
270
100
AcDbEntity
  8
0
 62
7
100
AcDbSpline
 70
8
 71
3
 72
8
 73
4
 74
0
 40
0
 40
0
 40
0
 40
0
 40
1
 40
1
 40
1
 40
1
 10
569.968301
 20
442.267853
 30
0.0
 10
569.531500
 20
441.309162
 30
0.0
 10
568.121694
 20
440.372299
 30
0.0
 10
565.941580
 20
439.591910
 30
0.0
  0
SPLINE
  5
271
100
AcDbEntity
  8
0
 62
7
100
AcDbSpline
 70
8
 71
3
 72
8
 73
4
 74
0
 40
0
 40
0
 40
0
 40
0
 40
1
 40
1
 40
1
 40
1
 10
565.941580
 20
439.591910
 30
0.0
 10
564.851365
 20
439.201650
 30
0.0
 10
563.801472
 20
438.755007
 30
0.0
 10
563.608485
 20
438.599352
 30
0.0
  0
SPLINE
  5
272
100
AcDbEntity
  8
0
 62
7
100
AcDbSpline
 70
8
 71
3
 72
8
 73
4
 74
0
 40
0
 40
0
 40
0
 40
0
 40
1
 40
1
 40
1
 40
1
 10
563.608485
 20
438.599352
 30
0.0
 10
563.148665
 20
438.228460
 30
0.0
 10
562.868180
 20
438.681400
 30
0.0
 10
562.647888
 20
440.150446
 30
0.0
  0
SPLINE
  5
273
100
AcDbEntity
  8
0
 62
7
100
AcDbSpline
 70
8
 71
3
 72
8
 73
4
 74
0
 40
0
 40
0
 40
0
 40
0
 40
1
 40
1
 40
1
 40
1
 10
562.647888
 20
440.150446
 30
0.0
 10
562.397645
 20
441.819173
 30
0.0
 10
561.802650
 20
441.854204
 30
0.0
 10
557.873958
 20
440.431566
 30
0.0
  0
SPLINE
  5
274
100
AcDbEntity
  8
0
 62
7
100
AcDbSpline
 70
8
 71
3
 72
8
 73
4
 74
0
 40
0
 40
0
 40
0
 40
0
 40
1
 40
1
 40
1
 40
1
 10
557.873958
 20
440.431566
 30
0.0
 10
555.991130
 20
439.749761
 30
0.0
 10
555.183331
 20
439.749496
 30
0.0
 10
554.188604
 20
440.428920
 30
0.0
  0
SPLINE
  5
275
100
AcDbEntity
  8
0
 62
7
100
AcDbSpline
 70
8
 71
3
 72
8
 73
4
 74
0
 40
0
 40
0
 40
0
 40
0
 40
1
 40
1
 40
1
 40
1
 10
554.188604
 20
440.428920
 30
0.0
 10
553.732726
 20
440.740943
 30
0.0
 10
553.543232
 20
440.651964
 30
0.0
 10
552.413990
 20
439.595694
 30
0.0
  0
SPLINE
  5
276
100
AcDbEntity
  8
0
 62
7
100
AcDbSpline
 70
8
 71
3
 72
8
 73
4
 74
0
 40
0
 40
0
 40
0
 40
0
 40
1
 40
1
 40
1
 40
1
 10
552.413990
 20
439.595694
 30
0.0
 10
551.718665
 20
438.945295
 30
0.0
 10
550.984499
 20
438.413139
 30
0.0
 10
550.782543
 20
438.413139
 30
0.0
  0
SPLINE
  5
277
100
AcDbEntity
  8
0
 62
7
100
AcDbSpline
 70
8
 71
3
 72
8
 73
4
 74
0
 40
0
 40
0
 40
0
 40
0
 40
1
 40
1
 40
1
 40
1
 10
550.782543
 20
438.413139
 30
0.0
 10
550.097272
 20
438.413139
 30
0.0
 10
549.585171
 20
439.333016
 30
0.0
 10
548.867674
 20
441.852722
 30
0.0
  0
SPLINE
  5
278
100
AcDbEntity
  8
0
 62
7
100
AcDbSpline
 70
8
 71
3
 72
8
 73
4
 74
0
 40
0
 40
0
 40
0
 40
0
 40
1
 40
1
 40
1
 40
1
 10
548.867674
 20
441.852722
 30
0.0
 10
548.474027
 20
443.235170
 30
0.0
 10
548.116099
 20
444.406771
 30
0.0
 10
548.072284
 20
444.456249
 30
0.0
  0
SPLINE
  5
279
100
AcDbEntity
  8
0
 62
7
100
AcDbSpline
 70
8
 71
3
 72
8
 73
4
 74
0
 40
0
 40
0
 40
0
 40
0
 40
1
 40
1
 40
1
 40
1
 10
548.072284
 20
444.456249
 30
0.0
 10
548.028469
 20
444.505726
 30
0.0
 10
547.374313
 20
443.696101
 30
0.0
 10
546.618583
 20
442.657055
 30
0.0
  0
SPLINE
  5
27a
100
AcDbEntity
  8
0
 62
7
100
AcDbSpline
 70
8
 71
3
 72
8
 73
4
 74
0
 40
0
 40
0
 40
0
 40
0
 40
1
 40
1
 40
1
 40
1
 10
546.618583
 20
442.657055
 30
0.0
 10
545.862854
 20
441.618037
 30
0.0
 10
545.201158
 20
440.811296
 30
0.0
 10
545.148135
 20
440.864318
 30
0.0
  0
SPLINE
  5
27b
100
AcDbEntity
  8
0
 62
7
100
AcDbSpline
 70
8
 71
3
 72
8
 73
4
 74
0
 40
0
 40
0
 40
0
 40
0
 40
1
 40
1
 40
1
 40
1
 10
545.148135
 20
440.864318
 30
0.0
 10
545.095086
 20
440.917367
 30
0.0
 10
544.891172
 20
441.667461
 30
0.0
 10
544.694983
 20
442.531220
 30
0.0
  0
LWPOLYLINE
  5
27c
100
AcDbEntity
  8
0
 62
7
100
AcDbPolyline
 90
3
 70
0
 10
570.911937
 20
442.372866
 30
0.0
 10
570.252490
 20
442.891582
 30
0.0
 10
569.968301
 20
442.267853
 30
0.0
  0
SPLINE
  5
27d
100
AcDbEntity
  8
0
 62
7
100
AcDbSpline
 70
8
 71
3
 72
8
 73
4
 74
0
 40
0
 40
0
 40
0
 40
0
 40
1
 40
1
 40
1
 40
1
 10
543.650038
 20
443.011676
 30
0.0
 10
542.555880
 20
441.278603
 30
0.0
 10
541.267121
 20
440.392645
 30
0.0
 10
538.866133
 20
439.722985
 30
0.0
  0
SPLINE
  5
27e
100
AcDbEntity
  8
0
 62
7
100
AcDbSpline
 70
8
 71
3
 72
8
 73
4
 74
0
 40
0
 40
0
 40
0
 40
0
 40
1
 40
1
 40
1
 40
1
 10
538.866133
 20
439.722985
 30
0.0
 10
536.610454
 20
439.093832
 30
0.0
 10
534.901352
 20
438.359772
 30
0.0
 10
534.144273
 20
437.694954
 30
0.0
  0
SPLINE
  5
27f
100
AcDbEntity
  8
0
 62
7
100
AcDbSpline
 70
8
 71
3
 72
8
 73
4
 74
0
 40
0
 40
0
 40
0
 40
0
 40
1
 40
1
 40
1
 40
1
 10
534.144273
 20
437.694954
 30
0.0
 10
533.667044
 20
437.275854
 30
0.0
 10
533.135417
 20
437.431799
 30
0.0
 10
533.135417
 20
437.990890
 30
0.0
  0
SPLINE
  5
280
100
AcDbEntity
  8
0
 62
7
100
AcDbSpline
 70
8
 71
3
 72
8
 73
4
 74
0
 40
0
 40
0
 40
0
 40
0
 40
1
 40
1
 40
1
 40
1
 10
533.135417
 20
437.990890
 30
0.0
 10
533.135417
 20
438.178030
 30
0.0
 10
532.914331
 20
438.531222
 30
0.0
 10
532.644085
 20
438.775777
 30
0.0
  0
SPLINE
  5
281
100
AcDbEntity
  8
0
 62
7
100
AcDbSpline
 70
8
 71
3
 72
8
 73
4
 74
0
 40
0
 40
0
 40
0
 40
0
 40
1
 40
1
 40
1
 40
1
 10
532.644085
 20
438.775777
 30
0.0
 10
532.251364
 20
439.131191
 30
0.0
 10
531.858590
 20
439.185854
 30
0.0
 10
530.686830
 20
439.048112
 30
0.0
  0
SPLINE
  5
282
100
AcDbEntity
  8
0
 62
7
100
AcDbSpline
 70
8
 71
3
 72
8
 73
4
 74
0
 40
0
 40
0
 40
0
 40
0
 40
1
 40
1
 40
1
 40
1
 10
530.686830
 20
439.048112
 30
0.0
 10
529.380873
 20
438.894627
 30
0.0
 10
529.189024
 20
438.935320
 30
0.0
 10
528.929177
 20
439.420857
 30
0.0
  0
SPLINE
  5
283
100
AcDbEntity
  8
0
 62
7
100
AcDbSpline
 70
8
 71
3
 72
8
 73
4
 74
0
 40
0
 40
0
 40
0
 40
0
 40
1
 40
1
 40
1
 40
1
 10
528.929177
 20
439.420857
 30
0.0
 10
528.768760
 20
439.720604
 30
0.0
 10
528.637500
 20
440.363912
 30
0.0
 10
528.637500
 20
440.850427
 30
0.0
  0
SPLINE
  5
284
100
AcDbEntity
  8
0
 62
7
100
AcDbSpline
 70
8
 71
3
 72
8
 73
4
 74
0
 40
0
 40
0
 40
0
 40
0
 40
1
 40
1
 40
1
 40
1
 10
528.637500
 20
440.850427
 30
0.0
 10
528.637500
 20
442.052959
 30
0.0
 10
527.991731
 20
442.911055
 30
0.0
 10
527.086804
 20
442.911055
 30
0.0
  0
SPLINE
  5
285
100
AcDbEntity
  8
0
 62
7
100
AcDbSpline
 70
8
 71
3
 72
8
 73
4
 74
0
 40
0
 40
0
 40
0
 40
0
 40
1
 40
1
 40
1
 40
1
 10
527.086804
 20
442.911055
 30
0.0
 10
526.686965
 20
442.911055
 30
0.0
 10
525.781402
 20
442.524102
 30
0.0
 10
525.074409
 20
442.051160
 30
0.0
  0
SPLINE
  5
286
100
AcDbEntity
  8
0
 62
7
100
AcDbSpline
 70
8
 71
3
 72
8
 73
4
 74
0
 40
0
 40
0
 40
0
 40
0
 40
1
 40
1
 40
1
 40
1
 10
525.074409
 20
442.051160
 30
0.0
 10
524.367416
 20
441.578217
 30
0.0
 10
523.480903
 20
440.983539
 30
0.0
 10
523.104375
 20
440.729645
 30
0.0
  0
SPLINE
  5
287
100
AcDbEntity
  8
0
 62
7
100
AcDbSpline
 70
8
 71
3
 72
8
 73
4
 74
0
 40
0
 40
0
 40
0
 40
0
 40
1
 40
1
 40
1
 40
1
 10
523.104375
 20
440.729645
 30
0.0
 10
522.220508
 20
440.133645
 30
0.0
 10
521.717323
 20
440.145498
 30
0.0
 10
520.908836
 20
440.781477
 30
0.0
  0
SPLINE
  5
288
100
AcDbEntity
  8
0
 62
7
100
AcDbSpline
 70
8
 71
3
 72
8
 73
4
 74
0
 40
0
 40
0
 40
0
 40
0
 40
1
 40
1
 40
1
 40
1
 10
520.908836
 20
440.781477
 30
0.0
 10
520.254786
 20
441.295933
 30
0.0
 10
520.247166
 20
441.295483
 30
0.0
 10
518.690331
 20
440.655456
 30
0.0
  0
SPLINE
  5
289
100
AcDbEntity
  8
0
 62
7
100
AcDbSpline
 70
8
 71
3
 72
8
 73
4
 74
0
 40
0
 40
0
 40
0
 40
0
 40
1
 40
1
 40
1
 40
1
 10
518.690331
 20
440.655456
 30
0.0
 10
516.954029
 20
439.941637
 30
0.0
 10
516.313182
 20
439.870914
 30
0.0
 10
515.248684
 20
440.275620
 30
0.0
  0
SPLINE
  5
28a
100
AcDbEntity
  8
0
 62
7
100
AcDbSpline
 70
8
 71
3
 72
8
 73
4
 74
0
 40
0
 40
0
 40
0
 40
0
 40
1
 40
1
 40
1
 40
1
 10
515.248684
 20
440.275620
 30
0.0
 10
514.097984
 20
440.713135
 30
0.0
 10
513.824035
 20
441.266591
 30
0.0
 10
514.251654
 20
442.290025
 30
0.0
  0
SPLINE
  5
28b
100
AcDbEntity
  8
0
 62
7
100
AcDbSpline
 70
8
 71
3
 72
8
 73
4
 74
0
 40
0
 40
0
 40
0
 40
0
 40
1
 40
1
 40
1
 40
1
 10
514.251654
 20
442.290025
 30
0.0
 10
514.713590
 20
443.395613
 30
0.0
 10
514.716739
 20
444.613570
 30
0.0
 10
514.258534
 20
444.993776
 30
0.0
  0
SPLINE
  5
28c
100
AcDbEntity
  8
0
 62
7
100
AcDbSpline
 70
8
 71
3
 72
8
 73
4
 74
0
 40
0
 40
0
 40
0
 40
0
 40
1
 40
1
 40
1
 40
1
 10
514.258534
 20
444.993776
 30
0.0
 10
514.062768
 20
445.156230
 30
0.0
 10
513.535216
 20
445.362632
 30
0.0
 10
513.086218
 20
445.452431
 30
0.0
  0
SPLINE
  5
28d
100
AcDbEntity
  8
0
 62
7
100
AcDbSpline
 70
8
 71
3
 72
8
 73
4
 74
0
 40
0
 40
0
 40
0
 40
0
 40
1
 40
1
 40
1
 40
1
 10
513.086218
 20
445.452431
 30
0.0
 10
511.890513
 20
445.691588
 30
0.0
 10
511.101763
 20
446.526137
 30
0.0
 10
511.232097
 20
447.414264
 30
0.0
  0
SPLINE
  5
28e
100
AcDbEntity
  8
0
 62
7
100
AcDbSpline
 70
8
 71
3
 72
8
 73
4
 74
0
 40
0
 40
0
 40
0
 40
0
 40
1
 40
1
 40
1
 40
1
 10
511.232097
 20
447.414264
 30
0.0
 10
511.323934
 20
448.039871
 30
0.0
 10
511.016462
 20
447.805582
 30
0.0
 10
509.110668
 20
445.797712
 30
0.0
  0
SPLINE
  5
28f
100
AcDbEntity
  8
0
 62
7
100
AcDbSpline
 70
8
 71
3
 72
8
 73
4
 74
0
 40
0
 40
0
 40
0
 40
0
 40
1
 40
1
 40
1
 40
1
 10
509.110668
 20
445.797712
 30
0.0
 10
507.268480
 20
443.856861
 30
0.0
 10
506.452452
 20
443.223449
 30
0.0
 10
504.406667
 20
442.146462
 30
0.0
  0
SPLINE
  5
290
100
AcDbEntity
  8
0
 62
7
100
AcDbSpline
 70
8
 71
3
 72
8
 73
4
 74
0
 40
0
 40
0
 40
0
 40
0
 40
1
 40
1
 40
1
 40
1
 10
504.406667
 20
442.146462
 30
0.0
 10
502.117863
 20
440.941524
 30
0.0
 10
501.454552
 20
440.742689
 30
0.0
 10
495.595381
 20
439.505180
 30
0.0
  0
SPLINE
  5
291
100
AcDbEntity
  8
0
 62
7
100
AcDbSpline
 70
8
 71
3
 72
8
 73
4
 74
0
 40
0
 40
0
 40
0
 40
0
 40
1
 40
1
 40
1
 40
1
 10
495.595381
 20
439.505180
 30
0.0
 10
490.185736
 20
438.362577
 30
0.0
 10
488.930050
 20
438.003643
 30
0.0
 10
487.008064
 20
437.050429
 30
0.0
  0
SPLINE
  5
292
100
AcDbEntity
  8
0
 62
7
100
AcDbSpline
 70
8
 71
3
 72
8
 73
4
 74
0
 40
0
 40
0
 40
0
 40
0
 40
1
 40
1
 40
1
 40
1
 10
487.008064
 20
437.050429
 30
0.0
 10
485.694381
 20
436.398919
 30
0.0
 10
484.649515
 20
435.698302
 30
0.0
 10
484.499047
 20
435.368102
 30
0.0
  0
SPLINE
  5
293
100
AcDbEntity
  8
0
 62
7
100
AcDbSpline
 70
8
 71
3
 72
8
 73
4
 74
0
 40
0
 40
0
 40
0
 40
0
 40
1
 40
1
 40
1
 40
1
 10
484.499047
 20
435.368102
 30
0.0
 10
484.156491
 20
434.616236
 30
0.0
 10
481.155613
 20
432.863186
 30
0.0
 10
478.366561
 20
431.785617
 30
0.0
  0
LWPOLYLINE
  5
294
100
AcDbEntity
  8
0
 62
7
100
AcDbPolyline
 90
3
 70
0
 10
544.694983
 20
442.531220
 30
0.0
 10
544.338245
 20
444.101680
 30
0.0
 10
543.650038
 20
443.011676
 30
0.0
  0
SPLINE
  5
295
100
AcDbEntity
  8
0
 62
7
100
AcDbSpline
 70
8
 71
3
 72
8
 73
4
 74
0
 40
0
 40
0
 40
0
 40
0
 40
1
 40
1
 40
1
 40
1
 10
476.092203
 20
428.910231
 30
0.0
 10
476.061008
 20
426.444817
 30
0.0
 10
475.461595
 20
424.592866
 30
0.0
 10
473.301880
 20
420.289180
 30
0.0
  0
SPLINE
  5
296
100
AcDbEntity
  8
0
 62
7
100
AcDbSpline
 70
8
 71
3
 72
8
 73
4
 74
0
 40
0
 40
0
 40
0
 40
0
 40
1
 40
1
 40
1
 40
1
 10
473.301880
 20
420.289180
 30
0.0
 10
470.235518
 20
414.178840
 30
0.0
 10
465.483416
 20
407.297821
 30
0.0
 10
461.454923
 20
403.134867
 30
0.0
  0
SPLINE
  5
297
100
AcDbEntity
  8
0
 62
7
100
AcDbSpline
 70
8
 71
3
 72
8
 73
4
 74
0
 40
0
 40
0
 40
0
 40
0
 40
1
 40
1
 40
1
 40
1
 10
461.454923
 20
403.134867
 30
0.0
 10
459.030996
 20
400.630057
 30
0.0
 10
457.150735
 20
399.147649
 30
0.0
 10
454.686326
 20
397.798486
 30
0.0
  0
SPLINE
  5
298
100
AcDbEntity
  8
0
 62
7
100
AcDbSpline
 70
8
 71
3
 72
8
 73
4
 74
0
 40
0
 40
0
 40
0
 40
0
 40
1
 40
1
 40
1
 40
1
 10
454.686326
 20
397.798486
 30
0.0
 10
453.667680
 20
397.240824
 30
0.0
 10
451.860973
 20
396.216754
 30
0.0
 10
450.671459
 20
395.522752
 30
0.0
  0
SPLINE
  5
299
100
AcDbEntity
  8
0
 62
7
100
AcDbSpline
 70
8
 71
3
 72
8
 73
4
 74
0
 40
0
 40
0
 40
0
 40
0
 40
1
 40
1
 40
1
 40
1
 10
450.671459
 20
395.522752
 30
0.0
 10
449.481919
 20
394.828776
 30
0.0
 10
448.053169
 20
394.141468
 30
0.0
 10
447.496459
 20
393.995391
 30
0.0
  0
SPLINE
  5
29a
100
AcDbEntity
  8
0
 62
7
100
AcDbSpline
 70
8
 71
3
 72
8
 73
4
 74
0
 40
0
 40
0
 40
0
 40
0
 40
1
 40
1
 40
1
 40
1
 10
447.496459
 20
393.995391
 30
0.0
 10
443.613408
 20
392.976534
 30
0.0
 10
440.610731
 20
392.578468
 30
0.0
 10
439.408888
 20
392.923141
 30
0.0
  0
SPLINE
  5
29b
100
AcDbEntity
  8
0
 62
7
100
AcDbSpline
 70
8
 71
3
 72
8
 73
4
 74
0
 40
0
 40
0
 40
0
 40
0
 40
1
 40
1
 40
1
 40
1
 10
439.408888
 20
392.923141
 30
0.0
 10
438.953989
 20
393.053607
 30
0.0
 10
438.559019
 20
393.132612
 30
0.0
 10
438.531159
 20
393.098719
 30
0.0
  0
SPLINE
  5
29c
100
AcDbEntity
  8
0
 62
7
100
AcDbSpline
 70
8
 71
3
 72
8
 73
4
 74
0
 40
0
 40
0
 40
0
 40
0
 40
1
 40
1
 40
1
 40
1
 10
438.531159
 20
393.098719
 30
0.0
 10
438.503325
 20
393.064825
 30
0.0
 10
437.938333
 20
391.251160
 30
0.0
 10
437.275658
 20
389.068347
 30
0.0
  0
SPLINE
  5
29d
100
AcDbEntity
  8
0
 62
7
100
AcDbSpline
 70
8
 71
3
 72
8
 73
4
 74
0
 40
0
 40
0
 40
0
 40
0
 40
1
 40
1
 40
1
 40
1
 10
437.275658
 20
389.068347
 30
0.0
 10
436.305325
 20
385.872260
 30
0.0
 10
435.935729
 20
384.046026
 30
0.0
 10
435.377167
 20
379.687889
 30
0.0
  0
LWPOLYLINE
  5
29e
100
AcDbEntity
  8
0
 62
7
100
AcDbPolyline
 90
3
 70
0
 10
478.366561
 20
431.785617
 30
0.0
 10
476.117603
 20
430.916699
 30
0.0
 10
476.092203
 20
428.910231
 30
0.0
  0
SPLINE
  5
29f
100
AcDbEntity
  8
0
 62
7
100
AcDbSpline
 70
8
 71
3
 72
8
 73
4
 74
0
 40
0
 40
0
 40
0
 40
0
 40
1
 40
1
 40
1
 40
1
 10
437.083359
 20
354.023321
 30
0.0
 10
438.403233
 20
342.884231
 30
0.0
 10
439.549011
 20
332.863560
 30
0.0
 10
439.629524
 20
331.755168
 30
0.0
  0
LWPOLYLINE
  5
2a0
100
AcDbEntity
  8
0
 62
7
100
AcDbPolyline
 90
3
 70
0
 10
435.377167
 20
379.687889
 30
0.0
 10
434.683561
 20
374.276181
 30
0.0
 10
437.083359
 20
354.023321
 30
0.0
  0
SPLINE
  5
2a1
100
AcDbEntity
  8
0
 62
7
100
AcDbSpline
 70
8
 71
3
 72
8
 73
4
 74
0
 40
0
 40
0
 40
0
 40
0
 40
1
 40
1
 40
1
 40
1
 10
449.668106
 20
324.603375
 30
0.0
 10
452.757937
 20
321.722327
 30
0.0
 10
453.367722
 20
321.286135
 30
0.0
 10
457.184654
 20
319.226565
 30
0.0
  0
LWPOLYLINE
  5
2a2
100
AcDbEntity
  8
0
 62
7
100
AcDbPolyline
 90
5
 70
0
 10
439.629524
 20
331.755168
 30
0.0
 10
439.775918
 20
329.739890
 30
0.0
 10
443.040691
 20
328.739341
 30
0.0
 10
446.305464
 20
327.738819
 30
0.0
 10
449.668106
 20
324.603375
 30
0.0
  0
SPLINE
  5
2a3
100
AcDbEntity
  8
0
 62
7
100
AcDbSpline
 70
8
 71
3
 72
8
 73
4
 74
0
 40
0
 40
0
 40
0
 40
0
 40
1
 40
1
 40
1
 40
1
 10
465.023914
 20
313.058810
 30
0.0
 10
467.050834
 20
310.899334
 30
0.0
 10
470.792836
 20
306.608798
 30
0.0
 10
473.339451
 20
303.524338
 30
0.0
  0
SPLINE
  5
2a4
100
AcDbEntity
  8
0
 62
7
100
AcDbSpline
 70
8
 71
3
 72
8
 73
4
 74
0
 40
0
 40
0
 40
0
 40
0
 40
1
 40
1
 40
1
 40
1
 10
473.339451
 20
303.524338
 30
0.0
 10
477.467904
 20
298.523925
 30
0.0
 10
478.259378
 20
297.400080
 30
0.0
 10
480.643195
 20
293.153650
 30
0.0
  0
SPLINE
  5
2a5
100
AcDbEntity
  8
0
 62
7
100
AcDbSpline
 70
8
 71
3
 72
8
 73
4
 74
0
 40
0
 40
0
 40
0
 40
0
 40
1
 40
1
 40
1
 40
1
 10
480.643195
 20
293.153650
 30
0.0
 10
483.190259
 20
288.616337
 30
0.0
 10
483.390469
 20
288.341938
 30
0.0
 10
484.876528
 20
287.351893
 30
0.0
  0
SPLINE
  5
2a6
100
AcDbEntity
  8
0
 62
7
100
AcDbSpline
 70
8
 71
3
 72
8
 73
4
 74
0
 40
0
 40
0
 40
0
 40
0
 40
1
 40
1
 40
1
 40
1
 10
484.876528
 20
287.351893
 30
0.0
 10
485.734413
 20
286.780340
 30
0.0
 10
486.853045
 20
285.936161
 30
0.0
 10
487.362368
 20
285.475945
 30
0.0
  0
LWPOLYLINE
  5
2a7
100
AcDbEntity
  8
0
 62
7
100
AcDbPolyline
 90
3
 70
0
 10
457.184654
 20
319.226565
 30
0.0
 10
461.338586
 20
316.985174
 30
0.0
 10
465.023914
 20
313.058810
 30
0.0
  0
SPLINE
  5
2a8
100
AcDbEntity
  8
0
 62
7
100
AcDbSpline
 70
8
 71
3
 72
8
 73
4
 74
0
 40
0
 40
0
 40
0
 40
0
 40
1
 40
1
 40
1
 40
1
 10
487.280215
 20
285.225331
 30
0.0
 10
486.725701
 20
285.547753
 30
0.0
 10
485.870435
 20
285.902083
 30
0.0
 10
485.379633
 20
286.012784
 30
0.0
  0
SPLINE
  5
2a9
100
AcDbEntity
  8
0
 62
7
100
AcDbSpline
 70
8
 71
3
 72
8
 73
4
 74
0
 40
0
 40
0
 40
0
 40
0
 40
1
 40
1
 40
1
 40
1
 10
485.379633
 20
286.012784
 30
0.0
 10
484.599933
 20
286.188626
 30
0.0
 10
484.519023
 20
286.159601
 30
0.0
 10
484.738865
 20
285.782861
 30
0.0
  0
SPLINE
  5
2aa
100
AcDbEntity
  8
0
 62
7
100
AcDbSpline
 70
8
 71
3
 72
8
 73
4
 74
0
 40
0
 40
0
 40
0
 40
0
 40
1
 40
1
 40
1
 40
1
 10
484.738865
 20
285.782861
 30
0.0
 10
484.877242
 20
285.545715
 30
0.0
 10
486.430849
 20
279.696228
 30
0.0
 10
488.191307
 20
272.783988
 30
0.0
  0
LWPOLYLINE
  5
2ab
100
AcDbEntity
  8
0
 62
7
100
AcDbPolyline
 90
3
 70
0
 10
487.362368
 20
285.475945
 30
0.0
 10
488.288409
 20
284.639173
 30
0.0
 10
487.280215
 20
285.225331
 30
0.0
  0
SPLINE
  5
2ac
100
AcDbEntity
  8
0
 62
7
100
AcDbSpline
 70
8
 71
3
 72
8
 73
4
 74
0
 40
0
 40
0
 40
0
 40
0
 40
1
 40
1
 40
1
 40
1
 10
490.063658
 20
233.361071
 30
0.0
 10
488.553522
 20
229.359248
 30
0.0
 10
485.372569
 20
221.679717
 30
0.0
 10
482.994838
 20
216.295446
 30
0.0
  0
LWPOLYLINE
  5
2ad
100
AcDbEntity
  8
0
 62
7
100
AcDbPolyline
 90
5
 70
0
 10
488.191307
 20
272.783988
 30
0.0
 10
491.392157
 20
260.216280
 30
0.0
 10
492.100738
 20
250.426696
 30
0.0
 10
492.809318
 20
240.637113
 30
0.0
 10
490.063658
 20
233.361071
 30
0.0
  0
SPLINE
  5
2ae
100
AcDbEntity
  8
0
 62
7
100
AcDbSpline
 70
8
 71
3
 72
8
 73
4
 74
0
 40
0
 40
0
 40
0
 40
0
 40
1
 40
1
 40
1
 40
1
 10
469.549401
 20
145.122530
 30
0.0
 10
469.850311
 20
143.270288
 30
0.0
 10
470.024037
 20
140.769155
 30
0.0
 10
470.027185
 20
138.243363
 30
0.0
  0
SPLINE
  5
2af
100
AcDbEntity
  8
0
 62
7
100
AcDbSpline
 70
8
 71
3
 72
8
 73
4
 74
0
 40
0
 40
0
 40
0
 40
0
 40
1
 40
1
 40
1
 40
1
 10
470.027185
 20
138.243363
 30
0.0
 10
470.031419
 20
134.810447
 30
0.0
 10
469.929845
 20
133.828076
 30
0.0
 10
469.274393
 20
130.967321
 30
0.0
  0
SPLINE
  5
2b0
100
AcDbEntity
  8
0
 62
7
100
AcDbSpline
 70
8
 71
3
 72
8
 73
4
 74
0
 40
0
 40
0
 40
0
 40
0
 40
1
 40
1
 40
1
 40
1
 10
469.274393
 20
130.967321
 30
0.0
 10
468.857621
 20
129.148311
 30
0.0
 10
468.280988
 20
127.196559
 30
0.0
 10
467.992989
 20
126.630086
 30
0.0
  0
SPLINE
  5
2b1
100
AcDbEntity
  8
0
 62
7
100
AcDbSpline
 70
8
 71
3
 72
8
 73
4
 74
0
 40
0
 40
0
 40
0
 40
0
 40
1
 40
1
 40
1
 40
1
 10
467.992989
 20
126.630086
 30
0.0
 10
467.497107
 20
125.654753
 30
0.0
 10
467.495096
 20
125.610011
 30
0.0
 10
467.954889
 20
125.786436
 30
0.0
  0
SPLINE
  5
2b2
100
AcDbEntity
  8
0
 62
7
100
AcDbSpline
 70
8
 71
3
 72
8
 73
4
 74
0
 40
0
 40
0
 40
0
 40
0
 40
1
 40
1
 40
1
 40
1
 10
467.954889
 20
125.786436
 30
0.0
 10
468.221933
 20
125.888935
 30
0.0
 10
469.811841
 20
126.041732
 30
0.0
 10
471.488003
 20
126.126002
 30
0.0
  0
SPLINE
  5
2b3
100
AcDbEntity
  8
0
 62
7
100
AcDbSpline
 70
8
 71
3
 72
8
 73
4
 74
0
 40
0
 40
0
 40
0
 40
0
 40
1
 40
1
 40
1
 40
1
 10
471.488003
 20
126.126002
 30
0.0
 10
473.936986
 20
126.249139
 30
0.0
 10
474.846174
 20
126.188946
 30
0.0
 10
476.116968
 20
125.819509
 30
0.0
  0
SPLINE
  5
2b4
100
AcDbEntity
  8
0
 62
7
100
AcDbSpline
 70
8
 71
3
 72
8
 73
4
 74
0
 40
0
 40
0
 40
0
 40
0
 40
1
 40
1
 40
1
 40
1
 10
476.116968
 20
125.819509
 30
0.0
 10
478.842176
 20
125.027267
 30
0.0
 10
480.766094
 20
123.583965
 30
0.0
 10
482.441806
 20
121.074683
 30
0.0
  0
SPLINE
  5
2b5
100
AcDbEntity
  8
0
 62
7
100
AcDbSpline
 70
8
 71
3
 72
8
 73
4
 74
0
 40
0
 40
0
 40
0
 40
0
 40
1
 40
1
 40
1
 40
1
 10
482.441806
 20
121.074683
 30
0.0
 10
482.819763
 20
120.508660
 30
0.0
 10
483.129034
 20
120.180894
 30
0.0
 10
483.129034
 20
120.346311
 30
0.0
  0
SPLINE
  5
2b6
100
AcDbEntity
  8
0
 62
7
100
AcDbSpline
 70
8
 71
3
 72
8
 73
4
 74
0
 40
0
 40
0
 40
0
 40
0
 40
1
 40
1
 40
1
 40
1
 10
483.129034
 20
120.346311
 30
0.0
 10
483.129034
 20
120.802453
 30
0.0
 10
484.989558
 20
122.765238
 30
0.0
 10
485.421914
 20
122.765238
 30
0.0
  0
SPLINE
  5
2b7
100
AcDbEntity
  8
0
 62
7
100
AcDbSpline
 70
8
 71
3
 72
8
 73
4
 74
0
 40
0
 40
0
 40
0
 40
0
 40
1
 40
1
 40
1
 40
1
 10
485.421914
 20
122.765238
 30
0.0
 10
486.293795
 20
122.765238
 30
0.0
 10
487.362474
 20
121.886186
 30
0.0
 10
488.779767
 20
120.003120
 30
0.0
  0
SPLINE
  5
2b8
100
AcDbEntity
  8
0
 62
7
100
AcDbSpline
 70
8
 71
3
 72
8
 73
4
 74
0
 40
0
 40
0
 40
0
 40
0
 40
1
 40
1
 40
1
 40
1
 10
488.779767
 20
120.003120
 30
0.0
 10
489.607860
 20
118.902903
 30
0.0
 10
490.325701
 20
118.002738
 30
0.0
 10
490.374993
 20
118.002738
 30
0.0
  0
SPLINE
  5
2b9
100
AcDbEntity
  8
0
 62
7
100
AcDbSpline
 70
8
 71
3
 72
8
 73
4
 74
0
 40
0
 40
0
 40
0
 40
0
 40
1
 40
1
 40
1
 40
1
 10
490.374993
 20
118.002738
 30
0.0
 10
490.424258
 20
118.002738
 30
0.0
 10
491.344162
 20
118.367651
 30
0.0
 10
492.419217
 20
118.813633
 30
0.0
  0
LWPOLYLINE
  5
2ba
100
AcDbEntity
  8
0
 62
7
100
AcDbPolyline
 90
7
 70
0
 10
482.994838
 20
216.295446
 30
0.0
 10
478.671705
 20
206.505863
 30
0.0
 10
475.050432
 20
192.747530
 30
0.0
 10
471.429159
 20
178.989196
 30
0.0
 10
470.252875
 20
163.511071
 30
0.0
 10
469.076590
 20
148.032946
 30
0.0
 10
469.549401
 20
145.122530
 30
0.0
  0
SPLINE
  5
2bb
100
AcDbEntity
  8
0
 62
7
100
AcDbSpline
 70
8
 71
3
 72
8
 73
4
 74
0
 40
0
 40
0
 40
0
 40
0
 40
1
 40
1
 40
1
 40
1
 10
585.126042
 20
132.576887
 30
0.0
 10
586.693301
 20
132.907458
 30
0.0
 10
589.120112
 20
133.176724
 30
0.0
 10
591.079167
 20
133.237446
 30
0.0
  0
SPLINE
  5
2bc
100
AcDbEntity
  8
0
 62
7
100
AcDbSpline
 70
8
 71
3
 72
8
 73
4
 74
0
 40
0
 40
0
 40
0
 40
0
 40
1
 40
1
 40
1
 40
1
 10
591.079167
 20
133.237446
 30
0.0
 10
592.898177
 20
133.293829
 30
0.0
 10
594.832943
 20
133.412230
 30
0.0
 10
595.378646
 20
133.500521
 30
0.0
  0
LWPOLYLINE
  5
2bd
100
AcDbEntity
  8
0
 62
7
100
AcDbPolyline
 90
2
 70
0
 10
492.419217
 20
118.813633
 30
0.0
 10
492.419349
 20
118.815062
 30
0.0
  0
SPLINE
  5
2be
100
AcDbEntity
  8
0
 62
7
100
AcDbSpline
 70
8
 71
3
 72
8
 73
4
 74
0
 40
0
 40
0
 40
0
 40
0
 40
1
 40
1
 40
1
 40
1
 10
596.370833
 20
222.936964
 30
0.0
 10
596.370833
 20
310.611705
 30
0.0
 10
596.361837
 20
312.207169
 30
0.0
 10
595.867622
 20
311.898559
 30
0.0
  0
SPLINE
  5
2bf
100
AcDbEntity
  8
0
 62
7
100
AcDbSpline
 70
8
 71
3
 72
8
 73
4
 74
0
 40
0
 40
0
 40
0
 40
0
 40
1
 40
1
 40
1
 40
1
 10
595.867622
 20
311.898559
 30
0.0
 10
595.462704
 20
311.645670
 30
0.0
 10
595.230135
 20
311.672261
 30
0.0
 10
594.676997
 20
312.034714
 30
0.0
  0
SPLINE
  5
2c0
100
AcDbEntity
  8
0
 62
7
100
AcDbSpline
 70
8
 71
3
 72
8
 73
4
 74
0
 40
0
 40
0
 40
0
 40
0
 40
1
 40
1
 40
1
 40
1
 10
594.676997
 20
312.034714
 30
0.0
 10
594.298908
 20
312.282443
 30
0.0
 10
593.989583
 20
312.601425
 30
0.0
 10
593.989583
 20
312.743612
 30
0.0
  0
SPLINE
  5
2c1
100
AcDbEntity
  8
0
 62
7
100
AcDbSpline
 70
8
 71
3
 72
8
 73
4
 74
0
 40
0
 40
0
 40
0
 40
0
 40
1
 40
1
 40
1
 40
1
 10
593.989583
 20
312.743612
 30
0.0
 10
593.989583
 20
313.240420
 30
0.0
 10
593.570827
 20
312.995866
 30
0.0
 10
593.122782
 20
312.237385
 30
0.0
  0
SPLINE
  5
2c2
100
AcDbEntity
  8
0
 62
7
100
AcDbSpline
 70
8
 71
3
 72
8
 73
4
 74
0
 40
0
 40
0
 40
0
 40
0
 40
1
 40
1
 40
1
 40
1
 10
593.122782
 20
312.237385
 30
0.0
 10
592.768214
 20
311.637124
 30
0.0
 10
592.414519
 20
308.683369
 30
0.0
 10
591.478238
 20
298.502996
 30
0.0
  0
SPLINE
  5
2c3
100
AcDbEntity
  8
0
 62
7
100
AcDbSpline
 70
8
 71
3
 72
8
 73
4
 74
0
 40
0
 40
0
 40
0
 40
0
 40
1
 40
1
 40
1
 40
1
 10
591.478238
 20
298.502996
 30
0.0
 10
590.822177
 20
291.369644
 30
0.0
 10
590.287560
 20
285.195089
 30
0.0
 10
590.290179
 20
284.781757
 30
0.0
  0
SPLINE
  5
2c4
100
AcDbEntity
  8
0
 62
7
100
AcDbSpline
 70
8
 71
3
 72
8
 73
4
 74
0
 40
0
 40
0
 40
0
 40
0
 40
1
 40
1
 40
1
 40
1
 10
590.290179
 20
284.781757
 30
0.0
 10
590.293883
 20
284.172792
 30
0.0
 10
590.548704
 20
283.864235
 30
0.0
 10
591.632622
 20
283.155337
 30
0.0
  0
LWPOLYLINE
  5
2c5
100
AcDbEntity
  8
0
 62
7
100
AcDbPolyline
 90
3
 70
0
 10
595.378646
 20
133.500521
 30
0.0
 10
596.370833
 20
133.661097
 30
0.0
 10
596.370833
 20
222.936964
 30
0.0
  0
SPLINE
  5
2c6
100
AcDbEntity
  8
0
 62
7
100
AcDbSpline
 70
8
 71
3
 72
8
 73
4
 74
0
 40
0
 40
0
 40
0
 40
0
 40
1
 40
1
 40
1
 40
1
 10
591.365234
 20
281.051318
 30
0.0
 10
590.164555
 20
280.131811
 30
0.0
 10
589.727701
 20
279.618969
 30
0.0
 10
589.631367
 20
279.015746
 30
0.0
  0
SPLINE
  5
2c7
100
AcDbEntity
  8
0
 62
7
100
AcDbSpline
 70
8
 71
3
 72
8
 73
4
 74
0
 40
0
 40
0
 40
0
 40
0
 40
1
 40
1
 40
1
 40
1
 10
589.631367
 20
279.015746
 30
0.0
 10
589.330535
 20
277.132124
 30
0.0
 10
587.873025
 20
259.562362
 30
0.0
 10
587.380556
 20
251.883333
 30
0.0
  0
SPLINE
  5
2c8
100
AcDbEntity
  8
0
 62
7
100
AcDbSpline
 70
8
 71
3
 72
8
 73
4
 74
0
 40
0
 40
0
 40
0
 40
0
 40
1
 40
1
 40
1
 40
1
 10
587.380556
 20
251.883333
 30
0.0
 10
586.489863
 20
237.994428
 30
0.0
 10
585.939662
 20
225.338455
 30
0.0
 10
585.126174
 20
200.025000
 30
0.0
  0
SPLINE
  5
2c9
100
AcDbEntity
  8
0
 62
7
100
AcDbSpline
 70
8
 71
3
 72
8
 73
4
 74
0
 40
0
 40
0
 40
0
 40
0
 40
1
 40
1
 40
1
 40
1
 10
585.126174
 20
200.025000
 30
0.0
 10
584.563485
 20
182.515960
 30
0.0
 10
584.001801
 20
168.140565
 30
0.0
 10
583.534176
 20
159.279167
 30
0.0
  0
SPLINE
  5
2ca
100
AcDbEntity
  8
0
 62
7
100
AcDbSpline
 70
8
 71
3
 72
8
 73
4
 74
0
 40
0
 40
0
 40
0
 40
0
 40
1
 40
1
 40
1
 40
1
 10
583.534176
 20
159.279167
 30
0.0
 10
583.173946
 20
152.453181
 30
0.0
 10
581.992237
 20
135.224388
 30
0.0
 10
581.714160
 20
132.744422
 30
0.0
  0
SPLINE
  5
2cb
100
AcDbEntity
  8
0
 62
7
100
AcDbSpline
 70
8
 71
3
 72
8
 73
4
 74
0
 40
0
 40
0
 40
0
 40
0
 40
1
 40
1
 40
1
 40
1
 10
581.714160
 20
132.744422
 30
0.0
 10
581.619889
 20
131.903549
 30
0.0
 10
581.672568
 20
131.764273
 30
0.0
 10
582.040974
 20
131.880398
 30
0.0
  0
SPLINE
  5
2cc
100
AcDbEntity
  8
0
 62
7
100
AcDbSpline
 70
8
 71
3
 72
8
 73
4
 74
0
 40
0
 40
0
 40
0
 40
0
 40
1
 40
1
 40
1
 40
1
 10
582.040974
 20
131.880398
 30
0.0
 10
582.282565
 20
131.956545
 30
0.0
 10
583.670833
 20
132.269971
 30
0.0
 10
585.126042
 20
132.576887
 30
0.0
  0
LWPOLYLINE
  5
2cd
100
AcDbEntity
  8
0
 62
7
100
AcDbPolyline
 90
3
 70
0
 10
591.632622
 20
283.155337
 30
0.0
 10
592.970329
 20
282.280492
 30
0.0
 10
591.365234
 20
281.051318
 30
0.0
  0
SPLINE
  5
2ce
100
AcDbEntity
  8
0
 62
7
100
AcDbSpline
 70
8
 71
3
 72
8
 73
4
 74
0
 40
0
 40
0
 40
0
 40
0
 40
1
 40
1
 40
1
 40
1
 10
300.434375
 20
215.375781
 30
0.0
 10
301.889583
 20
215.773238
 30
0.0
 10
304.144045
 20
216.413503
 30
0.0
 10
305.444313
 20
216.798604
 30
0.0
  0
SPLINE
  5
2cf
100
AcDbEntity
  8
0
 62
7
100
AcDbSpline
 70
8
 71
3
 72
8
 73
4
 74
0
 40
0
 40
0
 40
0
 40
0
 40
1
 40
1
 40
1
 40
1
 10
305.444313
 20
216.798604
 30
0.0
 10
306.744555
 20
217.183679
 30
0.0
 10
309.602055
 20
217.789734
 30
0.0
 10
311.794313
 20
218.145386
 30
0.0
  0
SPLINE
  5
2d0
100
AcDbEntity
  8
0
 62
7
100
AcDbSpline
 70
8
 71
3
 72
8
 73
4
 74
0
 40
0
 40
0
 40
0
 40
0
 40
1
 40
1
 40
1
 40
1
 10
311.794313
 20
218.145386
 30
0.0
 10
325.742988
 20
220.408288
 30
0.0
 10
335.707805
 20
226.169749
 30
0.0
 10
356.581234
 20
244.040263
 30
0.0
  0
LWPOLYLINE
  5
2d1
100
AcDbEntity
  8
0
 62
7
100
AcDbPolyline
 90
1
 70
1
 10
585.126042
 20
132.576887
 30
0.0
  0
SPLINE
  5
2d2
100
AcDbEntity
  8
0
 62
7
100
AcDbSpline
 70
8
 71
3
 72
8
 73
4
 74
0
 40
0
 40
0
 40
0
 40
0
 40
1
 40
1
 40
1
 40
1
 10
361.353179
 20
250.487127
 30
0.0
 10
361.245309
 20
255.965299
 30
0.0
 10
361.728306
 20
268.727370
 30
0.0
 10
362.106977
 20
270.404167
 30
0.0
  0
SPLINE
  5
2d3
100
AcDbEntity
  8
0
 62
7
100
AcDbSpline
 70
8
 71
3
 72
8
 73
4
 74
0
 40
0
 40
0
 40
0
 40
0
 40
1
 40
1
 40
1
 40
1
 10
362.106977
 20
270.404167
 30
0.0
 10
362.320602
 20
271.350052
 30
0.0
 10
362.539703
 20
273.016927
 30
0.0
 10
362.593916
 20
274.108333
 30
0.0
  0
SPLINE
  5
2d4
100
AcDbEntity
  8
0
 62
7
100
AcDbSpline
 70
8
 71
3
 72
8
 73
4
 74
0
 40
0
 40
0
 40
0
 40
0
 40
1
 40
1
 40
1
 40
1
 10
362.593916
 20
274.108333
 30
0.0
 10
362.648103
 20
275.199740
 30
0.0
 10
363.006746
 20
277.164271
 30
0.0
 10
363.390894
 20
278.473958
 30
0.0
  0
SPLINE
  5
2d5
100
AcDbEntity
  8
0
 62
7
100
AcDbSpline
 70
8
 71
3
 72
8
 73
4
 74
0
 40
0
 40
0
 40
0
 40
0
 40
1
 40
1
 40
1
 40
1
 10
363.390894
 20
278.473958
 30
0.0
 10
364.147179
 20
281.052402
 30
0.0
 10
364.348051
 20
281.575986
 30
0.0
 10
368.973417
 20
293.026042
 30
0.0
  0
SPLINE
  5
2d6
100
AcDbEntity
  8
0
 62
7
100
AcDbSpline
 70
8
 71
3
 72
8
 73
4
 74
0
 40
0
 40
0
 40
0
 40
0
 40
1
 40
1
 40
1
 40
1
 10
368.973417
 20
293.026042
 30
0.0
 10
370.678181
 20
297.246146
 30
0.0
 10
372.349183
 20
301.432066
 30
0.0
 10
372.686765
 20
302.328104
 30
0.0
  0
SPLINE
  5
2d7
100
AcDbEntity
  8
0
 62
7
100
AcDbSpline
 70
8
 71
3
 72
8
 73
4
 74
0
 40
0
 40
0
 40
0
 40
0
 40
1
 40
1
 40
1
 40
1
 10
372.686765
 20
302.328104
 30
0.0
 10
373.735600
 20
305.111944
 30
0.0
 10
376.344974
 20
310.401494
 30
0.0
 10
377.626033
 20
312.340625
 30
0.0
  0
SPLINE
  5
2d8
100
AcDbEntity
  8
0
 62
7
100
AcDbSpline
 70
8
 71
3
 72
8
 73
4
 74
0
 40
0
 40
0
 40
0
 40
0
 40
1
 40
1
 40
1
 40
1
 10
377.626033
 20
312.340625
 30
0.0
 10
379.227159
 20
314.764182
 30
0.0
 10
382.884257
 20
319.105915
 30
0.0
 10
384.870563
 20
320.941330
 30
0.0
  0
SPLINE
  5
2d9
100
AcDbEntity
  8
0
 62
7
100
AcDbSpline
 70
8
 71
3
 72
8
 73
4
 74
0
 40
0
 40
0
 40
0
 40
0
 40
1
 40
1
 40
1
 40
1
 10
384.870563
 20
320.941330
 30
0.0
 10
385.737761
 20
321.742647
 30
0.0
 10
387.185138
 20
322.873740
 30
0.0
 10
388.086944
 20
323.454871
 30
0.0
  0
LWPOLYLINE
  5
2da
100
AcDbEntity
  8
0
 62
7
100
AcDbPolyline
 90
3
 70
0
 10
356.581234
 20
244.040263
 30
0.0
 10
361.398899
 20
248.164879
 30
0.0
 10
361.353179
 20
250.487127
 30
0.0
  0
SPLINE
  5
2db
100
AcDbEntity
  8
0
 62
7
100
AcDbSpline
 70
8
 71
3
 72
8
 73
4
 74
0
 40
0
 40
0
 40
0
 40
0
 40
1
 40
1
 40
1
 40
1
 10
389.723974
 20
326.363542
 30
0.0
 10
389.720799
 20
328.714365
 30
0.0
 10
389.315722
 20
337.322769
 30
0.0
 10
388.904692
 20
343.770691
 30
0.0
  0
LWPOLYLINE
  5
2dc
100
AcDbEntity
  8
0
 62
7
100
AcDbPolyline
 90
3
 70
0
 10
388.086944
 20
323.454871
 30
0.0
 10
389.726620
 20
324.511458
 30
0.0
 10
389.723974
 20
326.363542
 30
0.0
  0
SPLINE
  5
2dd
100
AcDbEntity
  8
0
 62
7
100
AcDbSpline
 70
8
 71
3
 72
8
 73
4
 74
0
 40
0
 40
0
 40
0
 40
0
 40
1
 40
1
 40
1
 40
1
 10
386.909442
 20
349.681006
 30
0.0
 10
385.417960
 20
350.515079
 30
0.0
 10
384.826298
 20
351.131531
 30
0.0
 10
381.594122
 20
355.218815
 30
0.0
  0
LWPOLYLINE
  5
2de
100
AcDbEntity
  8
0
 62
7
100
AcDbPolyline
 90
3
 70
0
 10
388.904692
 20
343.770691
 30
0.0
 10
388.587747
 20
348.742450
 30
0.0
 10
386.909442
 20
349.681006
 30
0.0
  0
SPLINE
  5
2df
100
AcDbEntity
  8
0
 62
7
100
AcDbSpline
 70
8
 71
3
 72
8
 73
4
 74
0
 40
0
 40
0
 40
0
 40
0
 40
1
 40
1
 40
1
 40
1
 10
377.212913
 20
368.227584
 30
0.0
 10
377.560311
 20
369.504330
 30
0.0
 10
377.970256
 20
371.201405
 30
0.0
 10
378.123900
 20
371.998833
 30
0.0
  0
SPLINE
  5
2e0
100
AcDbEntity
  8
0
 62
7
100
AcDbSpline
 70
8
 71
3
 72
8
 73
4
 74
0
 40
0
 40
0
 40
0
 40
0
 40
1
 40
1
 40
1
 40
1
 10
378.123900
 20
371.998833
 30
0.0
 10
378.461455
 20
373.750798
 30
0.0
 10
378.897250
 20
374.635062
 30
0.0
 10
380.057581
 20
375.922577
 30
0.0
  0
LWPOLYLINE
  5
2e1
100
AcDbEntity
  8
0
 62
7
100
AcDbPolyline
 90
5
 70
0
 10
381.594122
 20
355.218815
 30
0.0
 10
377.957080
 20
359.818067
 30
0.0
 10
377.269190
 20
362.862151
 30
0.0
 10
376.581300
 20
365.906209
 30
0.0
 10
377.212913
 20
368.227584
 30
0.0
  0
SPLINE
  5
2e2
100
AcDbEntity
  8
0
 62
7
100
AcDbSpline
 70
8
 71
3
 72
8
 73
4
 74
0
 40
0
 40
0
 40
0
 40
0
 40
1
 40
1
 40
1
 40
1
 10
380.268930
 20
389.156718
 30
0.0
 10
379.451844
 20
391.606310
 30
0.0
 10
378.883968
 20
392.895095
 30
0.0
 10
378.509715
 20
393.149254
 30
0.0
  0
SPLINE
  5
2e3
100
AcDbEntity
  8
0
 62
7
100
AcDbSpline
 70
8
 71
3
 72
8
 73
4
 74
0
 40
0
 40
0
 40
0
 40
0
 40
1
 40
1
 40
1
 40
1
 10
378.509715
 20
393.149254
 30
0.0
 10
377.695328
 20
393.702286
 30
0.0
 10
374.879552
 20
396.630033
 30
0.0
 10
374.149646
 20
397.682704
 30
0.0
  0
SPLINE
  5
2e4
100
AcDbEntity
  8
0
 62
7
100
AcDbSpline
 70
8
 71
3
 72
8
 73
4
 74
0
 40
0
 40
0
 40
0
 40
0
 40
1
 40
1
 40
1
 40
1
 10
374.149646
 20
397.682704
 30
0.0
 10
373.214635
 20
399.031180
 30
0.0
 10
371.351889
 20
400.090121
 30
0.0
 10
369.710891
 20
400.206062
 30
0.0
  0
SPLINE
  5
2e5
100
AcDbEntity
  8
0
 62
7
100
AcDbSpline
 70
8
 71
3
 72
8
 73
4
 74
0
 40
0
 40
0
 40
0
 40
0
 40
1
 40
1
 40
1
 40
1
 10
369.710891
 20
400.206062
 30
0.0
 10
368.402367
 20
400.298534
 30
0.0
 10
368.331591
 20
400.269800
 30
0.0
 10
368.171862
 20
399.581169
 30
0.0
  0
SPLINE
  5
2e6
100
AcDbEntity
  8
0
 62
7
100
AcDbSpline
 70
8
 71
3
 72
8
 73
4
 74
0
 40
0
 40
0
 40
0
 40
0
 40
1
 40
1
 40
1
 40
1
 10
368.171862
 20
399.581169
 30
0.0
 10
368.006021
 20
398.866265
 30
0.0
 10
366.591215
 20
397.635106
 30
0.0
 10
364.990486
 20
396.812754
 30
0.0
  0
SPLINE
  5
2e7
100
AcDbEntity
  8
0
 62
7
100
AcDbSpline
 70
8
 71
3
 72
8
 73
4
 74
0
 40
0
 40
0
 40
0
 40
0
 40
1
 40
1
 40
1
 40
1
 10
364.990486
 20
396.812754
 30
0.0
 10
364.000071
 20
396.303960
 30
0.0
 10
360.495638
 20
395.318573
 30
0.0
 10
359.436247
 20
395.251025
 30
0.0
  0
SPLINE
  5
2e8
100
AcDbEntity
  8
0
 62
7
100
AcDbSpline
 70
8
 71
3
 72
8
 73
4
 74
0
 40
0
 40
0
 40
0
 40
0
 40
1
 40
1
 40
1
 40
1
 10
359.436247
 20
395.251025
 30
0.0
 10
357.656791
 20
395.137518
 30
0.0
 10
354.764208
 20
396.211356
 30
0.0
 10
353.793240
 20
397.345916
 30
0.0
  0
SPLINE
  5
2e9
100
AcDbEntity
  8
0
 62
7
100
AcDbSpline
 70
8
 71
3
 72
8
 73
4
 74
0
 40
0
 40
0
 40
0
 40
0
 40
1
 40
1
 40
1
 40
1
 10
353.793240
 20
397.345916
 30
0.0
 10
353.454467
 20
397.741759
 30
0.0
 10
351.328064
 20
401.231322
 30
0.0
 10
349.067887
 20
405.100483
 30
0.0
  0
LWPOLYLINE
  5
2ea
100
AcDbEntity
  8
0
 62
7
100
AcDbPolyline
 90
5
 70
0
 10
380.057581
 20
375.922577
 30
0.0
 10
380.937505
 20
376.898969
 30
0.0
 10
381.206507
 20
381.219218
 30
0.0
 10
381.475509
 20
385.539493
 30
0.0
 10
380.268930
 20
389.156718
 30
0.0
  0
SPLINE
  5
2eb
100
AcDbEntity
  8
0
 62
7
100
AcDbSpline
 70
8
 71
3
 72
8
 73
4
 74
0
 40
0
 40
0
 40
0
 40
0
 40
1
 40
1
 40
1
 40
1
 10
339.051715
 20
417.139025
 30
0.0
 10
334.120543
 20
421.316452
 30
0.0
 10
333.015087
 20
422.383014
 30
0.0
 10
332.357492
 20
423.597927
 30
0.0
  0
SPLINE
  5
2ec
100
AcDbEntity
  8
0
 62
7
100
AcDbSpline
 70
8
 71
3
 72
8
 73
4
 74
0
 40
0
 40
0
 40
0
 40
0
 40
1
 40
1
 40
1
 40
1
 10
332.357492
 20
423.597927
 30
0.0
 10
330.700195
 20
426.659897
 30
0.0
 10
330.366105
 20
429.521075
 30
0.0
 10
331.382000
 20
431.952464
 30
0.0
  0
SPLINE
  5
2ed
100
AcDbEntity
  8
0
 62
7
100
AcDbSpline
 70
8
 71
3
 72
8
 73
4
 74
0
 40
0
 40
0
 40
0
 40
0
 40
1
 40
1
 40
1
 40
1
 10
331.382000
 20
431.952464
 30
0.0
 10
331.694393
 20
432.700097
 30
0.0
 10
332.100714
 20
433.014184
 30
0.0
 10
333.692500
 20
433.738454
 30
0.0
  0
LWPOLYLINE
  5
2ee
100
AcDbEntity
  8
0
 62
7
100
AcDbPolyline
 90
3
 70
0
 10
349.067887
 20
405.100483
 30
0.0
 10
344.958485
 20
412.135331
 30
0.0
 10
339.051715
 20
417.139025
 30
0.0
  0
SPLINE
  5
2ef
100
AcDbEntity
  8
0
 62
7
100
AcDbSpline
 70
8
 71
3
 72
8
 73
4
 74
0
 40
0
 40
0
 40
0
 40
0
 40
1
 40
1
 40
1
 40
1
 10
344.859134
 20
433.725807
 30
0.0
 10
350.094471
 20
433.220426
 30
0.0
 10
354.194004
 20
432.934015
 30
0.0
 10
354.324470
 20
433.064481
 30
0.0
  0
SPLINE
  5
2f0
100
AcDbEntity
  8
0
 62
7
100
AcDbSpline
 70
8
 71
3
 72
8
 73
4
 74
0
 40
0
 40
0
 40
0
 40
0
 40
1
 40
1
 40
1
 40
1
 10
354.324470
 20
433.064481
 30
0.0
 10
354.590800
 20
433.330810
 30
0.0
 10
352.669607
 20
435.169585
 30
0.0
 10
348.691729
 20
438.455578
 30
0.0
  0
SPLINE
  5
2f1
100
AcDbEntity
  8
0
 62
7
100
AcDbSpline
 70
8
 71
3
 72
8
 73
4
 74
0
 40
0
 40
0
 40
0
 40
0
 40
1
 40
1
 40
1
 40
1
 10
348.691729
 20
438.455578
 30
0.0
 10
346.157524
 20
440.548988
 30
0.0
 10
345.716225
 20
440.807327
 30
0.0
 10
343.549896
 20
441.465584
 30
0.0
  0
SPLINE
  5
2f2
100
AcDbEntity
  8
0
 62
7
100
AcDbSpline
 70
8
 71
3
 72
8
 73
4
 74
0
 40
0
 40
0
 40
0
 40
0
 40
1
 40
1
 40
1
 40
1
 10
343.549896
 20
441.465584
 30
0.0
 10
342.246585
 20
441.861612
 30
0.0
 10
340.268930
 20
442.642397
 30
0.0
 10
339.155167
 20
443.200668
 30
0.0
  0
SPLINE
  5
2f3
100
AcDbEntity
  8
0
 62
7
100
AcDbSpline
 70
8
 71
3
 72
8
 73
4
 74
0
 40
0
 40
0
 40
0
 40
0
 40
1
 40
1
 40
1
 40
1
 10
339.155167
 20
443.200668
 30
0.0
 10
337.344967
 20
444.108004
 30
0.0
 10
336.895837
 20
444.499825
 30
0.0
 10
334.921834
 20
446.893775
 30
0.0
  0
SPLINE
  5
2f4
100
AcDbEntity
  8
0
 62
7
100
AcDbSpline
 70
8
 71
3
 72
8
 73
4
 74
0
 40
0
 40
0
 40
0
 40
0
 40
1
 40
1
 40
1
 40
1
 10
334.921834
 20
446.893775
 30
0.0
 10
333.707264
 20
448.366711
 30
0.0
 10
332.753229
 20
449.710609
 30
0.0
 10
332.801727
 20
449.880180
 30
0.0
  0
SPLINE
  5
2f5
100
AcDbEntity
  8
0
 62
7
100
AcDbSpline
 70
8
 71
3
 72
8
 73
4
 74
0
 40
0
 40
0
 40
0
 40
0
 40
1
 40
1
 40
1
 40
1
 10
332.801727
 20
449.880180
 30
0.0
 10
332.850252
 20
450.049778
 30
0.0
 10
332.804373
 20
450.103065
 30
0.0
 10
332.699969
 20
449.998581
 30
0.0
  0
SPLINE
  5
2f6
100
AcDbEntity
  8
0
 62
7
100
AcDbSpline
 70
8
 71
3
 72
8
 73
4
 74
0
 40
0
 40
0
 40
0
 40
0
 40
1
 40
1
 40
1
 40
1
 10
332.699969
 20
449.998581
 30
0.0
 10
332.379955
 20
449.678568
 30
0.0
 10
328.981250
 20
454.854082
 30
0.0
 10
324.582816
 20
462.359386
 30
0.0
  0
SPLINE
  5
2f7
100
AcDbEntity
  8
0
 62
7
100
AcDbSpline
 70
8
 71
3
 72
8
 73
4
 74
0
 40
0
 40
0
 40
0
 40
0
 40
1
 40
1
 40
1
 40
1
 10
324.582816
 20
462.359386
 30
0.0
 10
322.280201
 20
466.288448
 30
0.0
 10
320.290587
 20
469.503136
 30
0.0
 10
320.161417
 20
469.503136
 30
0.0
  0
SPLINE
  5
2f8
100
AcDbEntity
  8
0
 62
7
100
AcDbSpline
 70
8
 71
3
 72
8
 73
4
 74
0
 40
0
 40
0
 40
0
 40
0
 40
1
 40
1
 40
1
 40
1
 10
320.161417
 20
469.503136
 30
0.0
 10
319.813437
 20
469.503136
 30
0.0
 10
310.970454
 20
461.509491
 30
0.0
 10
310.197791
 20
460.496507
 30
0.0
  0
SPLINE
  5
2f9
100
AcDbEntity
  8
0
 62
7
100
AcDbSpline
 70
8
 71
3
 72
8
 73
4
 74
0
 40
0
 40
0
 40
0
 40
0
 40
1
 40
1
 40
1
 40
1
 10
310.197791
 20
460.496507
 30
0.0
 10
309.706486
 20
459.852379
 30
0.0
 10
299.228298
 20
449.871237
 30
0.0
 10
297.858497
 20
448.742551
 30
0.0
  0
SPLINE
  5
2fa
100
AcDbEntity
  8
0
 62
7
100
AcDbSpline
 70
8
 71
3
 72
8
 73
4
 74
0
 40
0
 40
0
 40
0
 40
0
 40
1
 40
1
 40
1
 40
1
 10
297.858497
 20
448.742551
 30
0.0
 10
297.579336
 20
448.512549
 30
0.0
 10
295.662376
 20
426.365390
 30
0.0
 10
295.029387
 20
416.057302
 30
0.0
  0
SPLINE
  5
2fb
100
AcDbEntity
  8
0
 62
7
100
AcDbSpline
 70
8
 71
3
 72
8
 73
4
 74
0
 40
0
 40
0
 40
0
 40
0
 40
1
 40
1
 40
1
 40
1
 10
295.029387
 20
416.057302
 30
0.0
 10
294.061674
 20
400.298137
 30
0.0
 10
293.629927
 20
389.195082
 30
0.0
 10
292.765824
 20
357.848958
 30
0.0
  0
SPLINE
  5
2fc
100
AcDbEntity
  8
0
 62
7
100
AcDbSpline
 70
8
 71
3
 72
8
 73
4
 74
0
 40
0
 40
0
 40
0
 40
0
 40
1
 40
1
 40
1
 40
1
 10
292.765824
 20
357.848958
 30
0.0
 10
292.079124
 20
332.938279
 30
0.0
 10
291.725826
 20
321.990826
 30
0.0
 10
291.215233
 20
309.801154
 30
0.0
  0
LWPOLYLINE
  5
2fd
100
AcDbEntity
  8
0
 62
7
100
AcDbPolyline
 90
3
 70
0
 10
333.692500
 20
433.738454
 30
0.0
 10
335.623958
 20
434.617267
 30
0.0
 10
344.859134
 20
433.725807
 30
0.0
  0
SPLINE
  5
2fe
100
AcDbEntity
  8
0
 62
7
100
AcDbSpline
 70
8
 71
3
 72
8
 73
4
 74
0
 40
0
 40
0
 40
0
 40
0
 40
1
 40
1
 40
1
 40
1
 10
304.031835
 20
288.715715
 30
0.0
 10
302.591840
 20
285.907798
 30
0.0
 10
300.849453
 20
285.553362
 30
0.0
 10
296.525738
 20
287.188831
 30
0.0
  0
SPLINE
  5
2ff
100
AcDbEntity
  8
0
 62
7
100
AcDbSpline
 70
8
 71
3
 72
8
 73
4
 74
0
 40
0
 40
0
 40
0
 40
0
 40
1
 40
1
 40
1
 40
1
 10
296.525738
 20
287.188831
 30
0.0
 10
293.159736
 20
288.462059
 30
0.0
 10
291.588613
 20
287.894104
 30
0.0
 10
290.502287
 20
285.011416
 30
0.0
  0
SPLINE
  5
300
100
AcDbEntity
  8
0
 62
7
100
AcDbSpline
 70
8
 71
3
 72
8
 73
4
 74
0
 40
0
 40
0
 40
0
 40
0
 40
1
 40
1
 40
1
 40
1
 10
290.502287
 20
285.011416
 30
0.0
 10
289.978994
 20
283.622724
 30
0.0
 10
289.947165
 20
283.191929
 30
0.0
 10
290.107449
 20
279.664583
 30
0.0
  0
SPLINE
  5
301
100
AcDbEntity
  8
0
 62
7
100
AcDbSpline
 70
8
 71
3
 72
8
 73
4
 74
0
 40
0
 40
0
 40
0
 40
0
 40
1
 40
1
 40
1
 40
1
 10
290.107449
 20
279.664583
 30
0.0
 10
290.324593
 20
274.885229
 30
0.0
 10
291.130990
 20
265.701833
 30
0.0
 10
291.989298
 20
258.233333
 30
0.0
  0
SPLINE
  5
302
100
AcDbEntity
  8
0
 62
7
100
AcDbSpline
 70
8
 71
3
 72
8
 73
4
 74
0
 40
0
 40
0
 40
0
 40
0
 40
1
 40
1
 40
1
 40
1
 10
291.989298
 20
258.233333
 30
0.0
 10
294.671697
 20
234.892850
 30
0.0
 10
295.001368
 20
231.145980
 30
0.0
 10
295.196895
 20
221.776634
 30
0.0
  0
LWPOLYLINE
  5
303
100
AcDbEntity
  8
0
 62
7
100
AcDbPolyline
 90
5
 70
0
 10
291.215233
 20
309.801154
 30
0.0
 10
290.909375
 20
302.499183
 30
0.0
 10
297.722237
 20
296.098119
 30
0.0
 10
304.535126
 20
289.697081
 30
0.0
 10
304.031835
 20
288.715715
 30
0.0
  0
SPLINE
  5
304
100
AcDbEntity
  8
0
 62
7
100
AcDbSpline
 70
8
 71
3
 72
8
 73
4
 74
0
 40
0
 40
0
 40
0
 40
0
 40
1
 40
1
 40
1
 40
1
 10
296.570823
 20
214.472441
 30
0.0
 10
297.240563
 20
214.571818
 30
0.0
 10
298.979167
 20
214.978324
 30
0.0
 10
300.434375
 20
215.375781
 30
0.0
  0
LWPOLYLINE
  5
305
100
AcDbEntity
  8
0
 62
7
100
AcDbPolyline
 90
3
 70
0
 10
295.196895
 20
221.776634
 30
0.0
 10
295.353079
 20
214.291783
 30
0.0
 10
296.570823
 20
214.472441
 30
0.0
  0
SPLINE
  5
306
100
AcDbEntity
  8
0
 62
7
100
AcDbSpline
 70
8
 71
3
 72
8
 73
4
 74
0
 40
0
 40
0
 40
0
 40
0
 40
1
 40
1
 40
1
 40
1
 10
260.198653
 20
224.961979
 30
0.0
 10
260.470803
 20
230.659067
 30
0.0
 10
262.559953
 20
293.446015
 30
0.0
 10
263.511051
 20
324.511458
 30
0.0
  0
SPLINE
  5
307
100
AcDbEntity
  8
0
 62
7
100
AcDbSpline
 70
8
 71
3
 72
8
 73
4
 74
0
 40
0
 40
0
 40
0
 40
0
 40
1
 40
1
 40
1
 40
1
 10
263.511051
 20
324.511458
 30
0.0
 10
263.800638
 20
333.970313
 30
0.0
 10
264.104935
 20
343.138125
 30
0.0
 10
264.187273
 20
344.884375
 30
0.0
  0
LWPOLYLINE
  5
308
100
AcDbEntity
  8
0
 62
7
100
AcDbPolyline
 90
1
 70
1
 10
300.434375
 20
215.375781
 30
0.0
  0
SPLINE
  5
309
100
AcDbEntity
  8
0
 62
7
100
AcDbSpline
 70
8
 71
3
 72
8
 73
4
 74
0
 40
0
 40
0
 40
0
 40
0
 40
1
 40
1
 40
1
 40
1
 10
255.133576
 20
349.217218
 30
0.0
 10
250.071726
 20
349.854017
 30
0.0
 10
245.890463
 20
350.409695
 30
0.0
 10
245.841912
 20
350.452029
 30
0.0
  0
SPLINE
  5
30a
100
AcDbEntity
  8
0
 62
7
100
AcDbSpline
 70
8
 71
3
 72
8
 73
4
 74
0
 40
0
 40
0
 40
0
 40
0
 40
1
 40
1
 40
1
 40
1
 10
245.841912
 20
350.452029
 30
0.0
 10
245.793334
 20
350.494388
 30
0.0
 10
246.381238
 20
350.951694
 30
0.0
 10
247.148318
 20
351.468267
 30
0.0
  0
SPLINE
  5
30b
100
AcDbEntity
  8
0
 62
7
100
AcDbSpline
 70
8
 71
3
 72
8
 73
4
 74
0
 40
0
 40
0
 40
0
 40
0
 40
1
 40
1
 40
1
 40
1
 10
247.148318
 20
351.468267
 30
0.0
 10
248.771960
 20
352.561684
 30
0.0
 10
250.942020
 20
353.362921
 30
0.0
 10
255.719786
 20
354.633054
 30
0.0
  0
SPLINE
  5
30c
100
AcDbEntity
  8
0
 62
7
100
AcDbSpline
 70
8
 71
3
 72
8
 73
4
 74
0
 40
0
 40
0
 40
0
 40
0
 40
1
 40
1
 40
1
 40
1
 10
255.719786
 20
354.633054
 30
0.0
 10
261.066222
 20
356.054342
 30
0.0
 10
264.474240
 20
357.978101
 30
0.0
 10
266.283784
 20
360.596206
 30
0.0
  0
LWPOLYLINE
  5
30d
100
AcDbEntity
  8
0
 62
7
100
AcDbPolyline
 90
3
 70
0
 10
264.187273
 20
344.884375
 30
0.0
 10
264.336974
 20
348.059375
 30
0.0
 10
255.133576
 20
349.217218
 30
0.0
  0
SPLINE
  5
30e
100
AcDbEntity
  8
0
 62
7
100
AcDbSpline
 70
8
 71
3
 72
8
 73
4
 74
0
 40
0
 40
0
 40
0
 40
0
 40
1
 40
1
 40
1
 40
1
 10
266.747890
 20
364.361174
 30
0.0
 10
265.441800
 20
375.493291
 30
0.0
 10
265.756549
 20
384.554952
 30
0.0
 10
268.152906
 20
404.812511
 30
0.0
  0
SPLINE
  5
30f
100
AcDbEntity
  8
0
 62
7
100
AcDbSpline
 70
8
 71
3
 72
8
 73
4
 74
0
 40
0
 40
0
 40
0
 40
0
 40
1
 40
1
 40
1
 40
1
 10
268.152906
 20
404.812511
 30
0.0
 10
269.326466
 20
414.733195
 30
0.0
 10
269.871587
 20
421.082877
 30
0.0
 10
269.873492
 20
424.854698
 30
0.0
  0
SPLINE
  5
310
100
AcDbEntity
  8
0
 62
7
100
AcDbSpline
 70
8
 71
3
 72
8
 73
4
 74
0
 40
0
 40
0
 40
0
 40
0
 40
1
 40
1
 40
1
 40
1
 10
269.873492
 20
424.854698
 30
0.0
 10
269.873492
 20
426.491807
 30
0.0
 10
269.834969
 20
427.831261
 30
0.0
 10
269.786074
 20
427.831261
 30
0.0
  0
SPLINE
  5
311
100
AcDbEntity
  8
0
 62
7
100
AcDbSpline
 70
8
 71
3
 72
8
 73
4
 74
0
 40
0
 40
0
 40
0
 40
0
 40
1
 40
1
 40
1
 40
1
 10
269.786074
 20
427.831261
 30
0.0
 10
269.737152
 20
427.831261
 30
0.0
 10
267.038005
 20
426.358405
 30
0.0
 10
263.787938
 20
424.558285
 30
0.0
  0
LWPOLYLINE
  5
312
100
AcDbEntity
  8
0
 62
7
100
AcDbPolyline
 90
3
 70
0
 10
266.283784
 20
360.596206
 30
0.0
 10
267.058166
 20
361.716637
 30
0.0
 10
266.747890
 20
364.361174
 30
0.0
  0
SPLINE
  5
313
100
AcDbEntity
  8
0
 62
7
100
AcDbSpline
 70
8
 71
3
 72
8
 73
4
 74
0
 40
0
 40
0
 40
0
 40
0
 40
1
 40
1
 40
1
 40
1
 10
257.053921
 20
419.651376
 30
0.0
 10
256.600267
 20
418.752692
 30
0.0
 10
256.125181
 20
418.112189
 30
0.0
 10
255.998181
 20
418.227997
 30
0.0
  0
SPLINE
  5
314
100
AcDbEntity
  8
0
 62
7
100
AcDbSpline
 70
8
 71
3
 72
8
 73
4
 74
0
 40
0
 40
0
 40
0
 40
0
 40
1
 40
1
 40
1
 40
1
 10
255.998181
 20
418.227997
 30
0.0
 10
255.871155
 20
418.343778
 30
0.0
 10
255.845278
 20
418.302027
 30
0.0
 10
255.940661
 20
418.135155
 30
0.0
  0
SPLINE
  5
315
100
AcDbEntity
  8
0
 62
7
100
AcDbSpline
 70
8
 71
3
 72
8
 73
4
 74
0
 40
0
 40
0
 40
0
 40
0
 40
1
 40
1
 40
1
 40
1
 10
255.940661
 20
418.135155
 30
0.0
 10
256.186617
 20
417.704916
 30
0.0
 10
253.983908
 20
414.789948
 30
0.0
 10
251.817526
 20
412.678811
 30
0.0
  0
SPLINE
  5
316
100
AcDbEntity
  8
0
 62
7
100
AcDbSpline
 70
8
 71
3
 72
8
 73
4
 74
0
 40
0
 40
0
 40
0
 40
0
 40
1
 40
1
 40
1
 40
1
 10
251.817526
 20
412.678811
 30
0.0
 10
249.555497
 20
410.474515
 30
0.0
 10
247.539875
 20
409.021926
 30
0.0
 10
243.644018
 20
406.788498
 30
0.0
  0
SPLINE
  5
317
100
AcDbEntity
  8
0
 62
7
100
AcDbSpline
 70
8
 71
3
 72
8
 73
4
 74
0
 40
0
 40
0
 40
0
 40
0
 40
1
 40
1
 40
1
 40
1
 10
243.644018
 20
406.788498
 30
0.0
 10
240.245207
 20
404.840027
 30
0.0
 10
239.288526
 20
403.951609
 30
0.0
 10
239.035876
 20
402.509101
 30
0.0
  0
SPLINE
  5
318
100
AcDbEntity
  8
0
 62
7
100
AcDbSpline
 70
8
 71
3
 72
8
 73
4
 74
0
 40
0
 40
0
 40
0
 40
0
 40
1
 40
1
 40
1
 40
1
 10
239.035876
 20
402.509101
 30
0.0
 10
238.782087
 20
401.060137
 30
0.0
 10
237.577942
 20
398.442323
 30
0.0
 10
237.256606
 20
398.640919
 30
0.0
  0
SPLINE
  5
319
100
AcDbEntity
  8
0
 62
7
100
AcDbSpline
 70
8
 71
3
 72
8
 73
4
 74
0
 40
0
 40
0
 40
0
 40
0
 40
1
 40
1
 40
1
 40
1
 10
237.256606
 20
398.640919
 30
0.0
 10
237.107169
 20
398.733285
 30
0.0
 10
237.049437
 20
398.701165
 30
0.0
 10
237.128309
 20
398.569535
 30
0.0
  0
SPLINE
  5
31a
100
AcDbEntity
  8
0
 62
7
100
AcDbSpline
 70
8
 71
3
 72
8
 73
4
 74
0
 40
0
 40
0
 40
0
 40
0
 40
1
 40
1
 40
1
 40
1
 10
237.128309
 20
398.569535
 30
0.0
 10
237.312909
 20
398.261454
 30
0.0
 10
236.665976
 20
393.927737
 30
0.0
 10
236.026822
 20
391.190967
 30
0.0
  0
SPLINE
  5
31b
100
AcDbEntity
  8
0
 62
7
100
AcDbSpline
 70
8
 71
3
 72
8
 73
4
 74
0
 40
0
 40
0
 40
0
 40
0
 40
1
 40
1
 40
1
 40
1
 10
236.026822
 20
391.190967
 30
0.0
 10
235.435717
 20
388.659963
 30
0.0
 10
235.333958
 20
387.849279
 30
0.0
 10
234.830668
 20
381.661469
 30
0.0
  0
SPLINE
  5
31c
100
AcDbEntity
  8
0
 62
7
100
AcDbSpline
 70
8
 71
3
 72
8
 73
4
 74
0
 40
0
 40
0
 40
0
 40
0
 40
1
 40
1
 40
1
 40
1
 10
234.830668
 20
381.661469
 30
0.0
 10
234.388205
 20
376.221715
 30
0.0
 10
233.700526
 20
373.139134
 30
0.0
 10
232.086039
 20
369.358333
 30
0.0
  0
SPLINE
  5
31d
100
AcDbEntity
  8
0
 62
7
100
AcDbSpline
 70
8
 71
3
 72
8
 73
4
 74
0
 40
0
 40
0
 40
0
 40
0
 40
1
 40
1
 40
1
 40
1
 10
232.086039
 20
369.358333
 30
0.0
 10
230.899356
 20
366.579362
 30
0.0
 10
229.377155
 20
361.397391
 30
0.0
 10
228.083396
 20
355.732292
 30
0.0
  0
SPLINE
  5
31e
100
AcDbEntity
  8
0
 62
7
100
AcDbSpline
 70
8
 71
3
 72
8
 73
4
 74
0
 40
0
 40
0
 40
0
 40
0
 40
1
 40
1
 40
1
 40
1
 10
228.083396
 20
355.732292
 30
0.0
 10
227.618126
 20
353.695000
 30
0.0
 10
226.815460
 20
350.182656
 30
0.0
 10
226.299654
 20
347.927083
 30
0.0
  0
SPLINE
  5
31f
100
AcDbEntity
  8
0
 62
7
100
AcDbSpline
 70
8
 71
3
 72
8
 73
4
 74
0
 40
0
 40
0
 40
0
 40
0
 40
1
 40
1
 40
1
 40
1
 10
226.299654
 20
347.927083
 30
0.0
 10
225.447961
 20
344.202570
 30
0.0
 10
224.895828
 20
342.568821
 30
0.0
 10
224.895828
 20
343.773125
 30
0.0
  0
SPLINE
  5
320
100
AcDbEntity
  8
0
 62
7
100
AcDbSpline
 70
8
 71
3
 72
8
 73
4
 74
0
 40
0
 40
0
 40
0
 40
0
 40
1
 40
1
 40
1
 40
1
 10
224.895828
 20
343.773125
 30
0.0
 10
224.895828
 20
344.020510
 30
0.0
 10
224.802880
 20
344.222917
 30
0.0
 10
224.689268
 20
344.222917
 30
0.0
  0
SPLINE
  5
321
100
AcDbEntity
  8
0
 62
7
100
AcDbSpline
 70
8
 71
3
 72
8
 73
4
 74
0
 40
0
 40
0
 40
0
 40
0
 40
1
 40
1
 40
1
 40
1
 10
224.689268
 20
344.222917
 30
0.0
 10
224.437887
 20
344.222917
 30
0.0
 10
224.211007
 20
343.647236
 30
0.0
 10
222.367470
 20
338.331625
 30
0.0
  0
SPLINE
  5
322
100
AcDbEntity
  8
0
 62
7
100
AcDbSpline
 70
8
 71
3
 72
8
 73
4
 74
0
 40
0
 40
0
 40
0
 40
0
 40
1
 40
1
 40
1
 40
1
 10
222.367470
 20
338.331625
 30
0.0
 10
220.539278
 20
333.060305
 30
0.0
 10
218.665129
 20
328.367628
 30
0.0
 10
214.350357
 20
318.257767
 30
0.0
  0
SPLINE
  5
323
100
AcDbEntity
  8
0
 62
7
100
AcDbSpline
 70
8
 71
3
 72
8
 73
4
 74
0
 40
0
 40
0
 40
0
 40
0
 40
1
 40
1
 40
1
 40
1
 10
214.350357
 20
318.257767
 30
0.0
 10
212.464565
 20
313.839172
 30
0.0
 10
210.241192
 20
308.497552
 30
0.0
 10
209.409527
 20
306.387500
 30
0.0
  0
SPLINE
  5
324
100
AcDbEntity
  8
0
 62
7
100
AcDbSpline
 70
8
 71
3
 72
8
 73
4
 74
0
 40
0
 40
0
 40
0
 40
0
 40
1
 40
1
 40
1
 40
1
 10
209.409527
 20
306.387500
 30
0.0
 10
207.745510
 20
302.165597
 30
0.0
 10
206.251593
 20
299.065897
 30
0.0
 10
205.213527
 20
297.681227
 30
0.0
  0
SPLINE
  5
325
100
AcDbEntity
  8
0
 62
7
100
AcDbSpline
 70
8
 71
3
 72
8
 73
4
 74
0
 40
0
 40
0
 40
0
 40
0
 40
1
 40
1
 40
1
 40
1
 10
205.213527
 20
297.681227
 30
0.0
 10
204.841999
 20
297.185636
 30
0.0
 10
204.176201
 20
295.911005
 30
0.0
 10
203.733950
 20
294.848703
 30
0.0
  0
SPLINE
  5
326
100
AcDbEntity
  8
0
 62
7
100
AcDbSpline
 70
8
 71
3
 72
8
 73
4
 74
0
 40
0
 40
0
 40
0
 40
0
 40
1
 40
1
 40
1
 40
1
 10
203.733950
 20
294.848703
 30
0.0
 10
202.900486
 20
292.846654
 30
0.0
 10
200.023063
 20
283.041116
 30
0.0
 10
198.952453
 20
278.554524
 30
0.0
  0
SPLINE
  5
327
100
AcDbEntity
  8
0
 62
7
100
AcDbSpline
 70
8
 71
3
 72
8
 73
4
 74
0
 40
0
 40
0
 40
0
 40
0
 40
1
 40
1
 40
1
 40
1
 10
198.952453
 20
278.554524
 30
0.0
 10
198.604023
 20
277.094394
 30
0.0
 10
198.229638
 20
276.057651
 30
0.0
 10
198.083429
 20
276.148006
 30
0.0
  0
SPLINE
  5
328
100
AcDbEntity
  8
0
 62
7
100
AcDbSpline
 70
8
 71
3
 72
8
 73
4
 74
0
 40
0
 40
0
 40
0
 40
0
 40
1
 40
1
 40
1
 40
1
 10
198.083429
 20
276.148006
 30
0.0
 10
197.942168
 20
276.235319
 30
0.0
 10
197.908011
 20
276.174994
 30
0.0
 10
198.007547
 20
276.013915
 30
0.0
  0
SPLINE
  5
329
100
AcDbEntity
  8
0
 62
7
100
AcDbSpline
 70
8
 71
3
 72
8
 73
4
 74
0
 40
0
 40
0
 40
0
 40
0
 40
1
 40
1
 40
1
 40
1
 10
198.007547
 20
276.013915
 30
0.0
 10
198.335630
 20
275.483082
 30
0.0
 10
196.843327
 20
270.316590
 30
0.0
 10
195.661169
 20
267.890625
 30
0.0
  0
SPLINE
  5
32a
100
AcDbEntity
  8
0
 62
7
100
AcDbSpline
 70
8
 71
3
 72
8
 73
4
 74
0
 40
0
 40
0
 40
0
 40
0
 40
1
 40
1
 40
1
 40
1
 10
195.661169
 20
267.890625
 30
0.0
 10
195.022994
 20
266.580937
 30
0.0
 10
193.003853
 20
263.187656
 30
0.0
 10
191.174232
 20
260.350000
 30
0.0
  0
SPLINE
  5
32b
100
AcDbEntity
  8
0
 62
7
100
AcDbSpline
 70
8
 71
3
 72
8
 73
4
 74
0
 40
0
 40
0
 40
0
 40
0
 40
1
 40
1
 40
1
 40
1
 10
191.174232
 20
260.350000
 30
0.0
 10
189.344586
 20
257.512344
 30
0.0
 10
187.726182
 20
254.714375
 30
0.0
 10
187.577751
 20
254.132292
 30
0.0
  0
SPLINE
  5
32c
100
AcDbEntity
  8
0
 62
7
100
AcDbSpline
 70
8
 71
3
 72
8
 73
4
 74
0
 40
0
 40
0
 40
0
 40
0
 40
1
 40
1
 40
1
 40
1
 10
187.577751
 20
254.132292
 30
0.0
 10
187.429320
 20
253.550208
 30
0.0
 10
186.935131
 20
252.085581
 30
0.0
 10
186.479572
 20
250.877546
 30
0.0
  0
SPLINE
  5
32d
100
AcDbEntity
  8
0
 62
7
100
AcDbSpline
 70
8
 71
3
 72
8
 73
4
 74
0
 40
0
 40
0
 40
0
 40
0
 40
1
 40
1
 40
1
 40
1
 10
186.479572
 20
250.877546
 30
0.0
 10
185.770038
 20
248.996068
 30
0.0
 10
185.704872
 20
248.631181
 30
0.0
 10
186.025123
 20
248.332546
 30
0.0
  0
SPLINE
  5
32e
100
AcDbEntity
  8
0
 62
7
100
AcDbSpline
 70
8
 71
3
 72
8
 73
4
 74
0
 40
0
 40
0
 40
0
 40
0
 40
1
 40
1
 40
1
 40
1
 10
186.025123
 20
248.332546
 30
0.0
 10
186.752092
 20
247.654630
 30
0.0
 10
201.272611
 20
236.319034
 30
0.0
 10
205.295574
 20
233.288866
 30
0.0
  0
SPLINE
  5
32f
100
AcDbEntity
  8
0
 62
7
100
AcDbSpline
 70
8
 71
3
 72
8
 73
4
 74
0
 40
0
 40
0
 40
0
 40
0
 40
1
 40
1
 40
1
 40
1
 10
205.295574
 20
233.288866
 30
0.0
 10
212.753411
 20
227.671498
 30
0.0
 10
213.060328
 20
227.595986
 30
0.0
 10
227.673953
 20
227.782464
 30
0.0
  0
SPLINE
  5
330
100
AcDbEntity
  8
0
 62
7
100
AcDbSpline
 70
8
 71
3
 72
8
 73
4
 74
0
 40
0
 40
0
 40
0
 40
0
 40
1
 40
1
 40
1
 40
1
 10
227.673953
 20
227.782464
 30
0.0
 10
235.130017
 20
227.877608
 30
0.0
 10
239.723316
 20
227.391436
 30
0.0
 10
246.590550
 20
225.780203
 30
0.0
  0
SPLINE
  5
331
100
AcDbEntity
  8
0
 62
7
100
AcDbSpline
 70
8
 71
3
 72
8
 73
4
 74
0
 40
0
 40
0
 40
0
 40
0
 40
1
 40
1
 40
1
 40
1
 10
246.590550
 20
225.780203
 30
0.0
 10
249.604287
 20
225.073104
 30
0.0
 10
255.613212
 20
223.170538
 30
0.0
 10
258.121251
 20
222.129297
 30
0.0
  0
SPLINE
  5
332
100
AcDbEntity
  8
0
 62
7
100
AcDbSpline
 70
8
 71
3
 72
8
 73
4
 74
0
 40
0
 40
0
 40
0
 40
0
 40
1
 40
1
 40
1
 40
1
 10
258.121251
 20
222.129297
 30
0.0
 10
258.983263
 20
221.771422
 30
0.0
 10
259.765636
 20
221.473580
 30
0.0
 10
259.859881
 20
221.467442
 30
0.0
  0
SPLINE
  5
333
100
AcDbEntity
  8
0
 62
7
100
AcDbSpline
 70
8
 71
3
 72
8
 73
4
 74
0
 40
0
 40
0
 40
0
 40
0
 40
1
 40
1
 40
1
 40
1
 10
259.859881
 20
221.467442
 30
0.0
 10
259.954099
 20
221.461356
 30
0.0
 10
260.106552
 20
223.033828
 30
0.0
 10
260.198653
 20
224.961979
 30
0.0
  0
LWPOLYLINE
  5
334
100
AcDbEntity
  8
0
 62
7
100
AcDbPolyline
 90
3
 70
0
 10
263.787938
 20
424.558285
 30
0.0
 10
257.878733
 20
421.285310
 30
0.0
 10
257.053921
 20
419.651376
 30
0.0
  0
LWPOLYLINE
  5
335
100
AcDbEntity
  8
0
 62
7
100
AcDbPolyline
 90
1
 70
1
 10
260.198653
 20
224.961979
 30
0.0
  0
SPLINE
  5
336
100
AcDbEntity
  8
0
 62
7
100
AcDbSpline
 70
8
 71
3
 72
8
 73
4
 74
0
 40
0
 40
0
 40
0
 40
0
 40
1
 40
1
 40
1
 40
1
 10
87.407745
 20
327.290695
 30
0.0
 10
85.412786
 20
329.020276
 30
0.0
 10
73.970827
 20
339.524816
 30
0.0
 10
68.703211
 20
344.462841
 30
0.0
  0
LWPOLYLINE
  5
337
100
AcDbEntity
  8
0
 62
7
100
AcDbPolyline
 90
3
 70
0
 10
82.006567
 20
325.765716
 30
0.0
 10
88.474598
 20
326.365791
 30
0.0
 10
87.407745
 20
327.290695
 30
0.0
  0
SPLINE
  5
338
100
AcDbEntity
  8
0
 62
7
100
AcDbSpline
 70
8
 71
3
 72
8
 73
4
 74
0
 40
0
 40
0
 40
0
 40
0
 40
1
 40
1
 40
1
 40
1
 10
57.326128
 20
349.401342
 30
0.0
 10
50.650955
 20
349.421979
 30
0.0
 10
47.505985
 20
349.775965
 30
0.0
 10
42.267182
 20
351.096130
 30
0.0
  0
LWPOLYLINE
  5
339
100
AcDbEntity
  8
0
 62
7
100
AcDbPolyline
 90
3
 70
0
 10
68.703211
 20
344.462841
 30
0.0
 10
63.455412
 20
349.382292
 30
0.0
 10
57.326128
 20
349.401342
 30
0.0
  0
SPLINE
  5
33a
100
AcDbEntity
  8
0
 62
7
100
AcDbSpline
 70
8
 71
3
 72
8
 73
4
 74
0
 40
0
 40
0
 40
0
 40
0
 40
1
 40
1
 40
1
 40
1
 10
41.473432
 20
326.670485
 30
0.0
 10
43.400207
 20
326.265355
 30
0.0
 10
51.652456
 20
325.305341
 30
0.0
 10
55.165620
 20
325.077614
 30
0.0
  0
SPLINE
  5
33b
100
AcDbEntity
  8
0
 62
7
100
AcDbSpline
 70
8
 71
3
 72
8
 73
4
 74
0
 40
0
 40
0
 40
0
 40
0
 40
1
 40
1
 40
1
 40
1
 10
55.165620
 20
325.077614
 30
0.0
 10
56.038745
 20
325.020993
 30
0.0
 10
60.979838
 20
325.017686
 30
0.0
 10
66.145828
 20
325.070205
 30
0.0
  0
SPLINE
  5
33c
100
AcDbEntity
  8
0
 62
7
100
AcDbSpline
 70
8
 71
3
 72
8
 73
4
 74
0
 40
0
 40
0
 40
0
 40
0
 40
1
 40
1
 40
1
 40
1
 10
66.145828
 20
325.070205
 30
0.0
 10
73.203853
 20
325.141960
 30
0.0
 10
77.146277
 20
325.314866
 30
0.0
 10
82.006567
 20
325.765795
 30
0.0
  0
LWPOLYLINE
  5
33d
100
AcDbEntity
  8
0
 62
7
100
AcDbPolyline
 90
5
 70
0
 10
42.267182
 20
351.096130
 30
0.0
 10
39.422911
 20
351.812886
 30
0.0
 10
39.422911
 20
339.457268
 30
0.0
 10
39.422911
 20
327.101623
 30
0.0
 10
41.473432
 20
326.670485
 30
0.0
  0
SPLINE
  5
33e
100
AcDbEntity
  8
0
 62
7
100
AcDbSpline
 70
8
 71
3
 72
8
 73
4
 74
0
 40
0
 40
0
 40
0
 40
0
 40
1
 40
1
 40
1
 40
1
 10
107.685411
 20
327.962101
 30
0.0
 10
108.922338
 20
328.205597
 30
0.0
 10
112.791870
 20
329.046337
 30
0.0
 10
116.284370
 20
329.830351
 30
0.0
  0
SPLINE
  5
33f
100
AcDbEntity
  8
0
 62
7
100
AcDbSpline
 70
8
 71
3
 72
8
 73
4
 74
0
 40
0
 40
0
 40
0
 40
0
 40
1
 40
1
 40
1
 40
1
 10
116.284370
 20
329.830351
 30
0.0
 10
133.370553
 20
333.665962
 30
0.0
 10
140.899351
 20
333.846779
 30
0.0
 10
151.545735
 20
330.677150
 30
0.0
  0
SPLINE
  5
340
100
AcDbEntity
  8
0
 62
7
100
AcDbSpline
 70
8
 71
3
 72
8
 73
4
 74
0
 40
0
 40
0
 40
0
 40
0
 40
1
 40
1
 40
1
 40
1
 10
151.545735
 20
330.677150
 30
0.0
 10
156.169117
 20
329.300681
 30
0.0
 10
158.907739
 20
329.813761
 30
0.0
 10
164.743045
 20
333.149601
 30
0.0
  0
SPLINE
  5
341
100
AcDbEntity
  8
0
 62
7
100
AcDbSpline
 70
8
 71
3
 72
8
 73
4
 74
0
 40
0
 40
0
 40
0
 40
0
 40
1
 40
1
 40
1
 40
1
 10
164.743045
 20
333.149601
 30
0.0
 10
168.257162
 20
335.158503
 30
0.0
 10
169.214001
 20
336.299598
 30
0.0
 10
177.578274
 20
348.456250
 30
0.0
  0
SPLINE
  5
342
100
AcDbEntity
  8
0
 62
7
100
AcDbSpline
 70
8
 71
3
 72
8
 73
4
 74
0
 40
0
 40
0
 40
0
 40
0
 40
1
 40
1
 40
1
 40
1
 10
177.578274
 20
348.456250
 30
0.0
 10
181.833541
 20
354.640885
 30
0.0
 10
185.761704
 20
360.594010
 30
0.0
 10
186.307487
 20
361.685417
 30
0.0
  0
SPLINE
  5
343
100
AcDbEntity
  8
0
 62
7
100
AcDbSpline
 70
8
 71
3
 72
8
 73
4
 74
0
 40
0
 40
0
 40
0
 40
0
 40
1
 40
1
 40
1
 40
1
 10
186.307487
 20
361.685417
 30
0.0
 10
188.096837
 20
365.263483
 30
0.0
 10
191.078824
 20
374.723538
 30
0.0
 10
192.502441
 20
381.338175
 30
0.0
  0
SPLINE
  5
344
100
AcDbEntity
  8
0
 62
7
100
AcDbSpline
 70
8
 71
3
 72
8
 73
4
 74
0
 40
0
 40
0
 40
0
 40
0
 40
1
 40
1
 40
1
 40
1
 10
192.502441
 20
381.338175
 30
0.0
 10
193.595223
 20
386.415740
 30
0.0
 10
193.500820
 20
388.547991
 30
0.0
 10
191.937661
 20
394.096886
 30
0.0
  0
SPLINE
  5
345
100
AcDbEntity
  8
0
 62
7
100
AcDbSpline
 70
8
 71
3
 72
8
 73
4
 74
0
 40
0
 40
0
 40
0
 40
0
 40
1
 40
1
 40
1
 40
1
 10
191.937661
 20
394.096886
 30
0.0
 10
190.832841
 20
398.018699
 30
0.0
 10
190.665386
 20
398.942306
 30
0.0
 10
190.630196
 20
401.308051
 30
0.0
  0
SPLINE
  5
346
100
AcDbEntity
  8
0
 62
7
100
AcDbSpline
 70
8
 71
3
 72
8
 73
4
 74
0
 40
0
 40
0
 40
0
 40
0
 40
1
 40
1
 40
1
 40
1
 10
190.630196
 20
401.308051
 30
0.0
 10
190.593419
 20
403.781615
 30
0.0
 10
190.533279
 20
404.082446
 30
0.0
 10
189.949608
 20
404.713451
 30
0.0
  0
SPLINE
  5
347
100
AcDbEntity
  8
0
 62
7
100
AcDbSpline
 70
8
 71
3
 72
8
 73
4
 74
0
 40
0
 40
0
 40
0
 40
0
 40
1
 40
1
 40
1
 40
1
 10
189.949608
 20
404.713451
 30
0.0
 10
189.597475
 20
405.094133
 30
0.0
 10
187.285307
 20
406.388237
 30
0.0
 10
184.811453
 20
407.589207
 30
0.0
  0
SPLINE
  5
348
100
AcDbEntity
  8
0
 62
7
100
AcDbSpline
 70
8
 71
3
 72
8
 73
4
 74
0
 40
0
 40
0
 40
0
 40
0
 40
1
 40
1
 40
1
 40
1
 10
184.811453
 20
407.589207
 30
0.0
 10
179.597177
 20
410.120608
 30
0.0
 10
176.980660
 20
411.953271
 30
0.0
 10
173.963536
 20
415.187299
 30
0.0
  0
SPLINE
  5
349
100
AcDbEntity
  8
0
 62
7
100
AcDbSpline
 70
8
 71
3
 72
8
 73
4
 74
0
 40
0
 40
0
 40
0
 40
0
 40
1
 40
1
 40
1
 40
1
 10
173.963536
 20
415.187299
 30
0.0
 10
170.599677
 20
418.792988
 30
0.0
 10
168.713647
 20
422.392300
 30
0.0
 10
167.892672
 20
426.772927
 30
0.0
  0
SPLINE
  5
34a
100
AcDbEntity
  8
0
 62
7
100
AcDbSpline
 70
8
 71
3
 72
8
 73
4
 74
0
 40
0
 40
0
 40
0
 40
0
 40
1
 40
1
 40
1
 40
1
 10
167.892672
 20
426.772927
 30
0.0
 10
167.660844
 20
428.009854
 30
0.0
 10
167.292306
 20
429.676729
 30
0.0
 10
167.073681
 20
430.477094
 30
0.0
  0
SPLINE
  5
34b
100
AcDbEntity
  8
0
 62
7
100
AcDbSpline
 70
8
 71
3
 72
8
 73
4
 74
0
 40
0
 40
0
 40
0
 40
0
 40
1
 40
1
 40
1
 40
1
 10
167.073681
 20
430.477094
 30
0.0
 10
165.855089
 20
434.938048
 30
0.0
 10
165.201118
 20
440.049349
 30
0.0
 10
165.643819
 20
441.652618
 30
0.0
  0
SPLINE
  5
34c
100
AcDbEntity
  8
0
 62
7
100
AcDbSpline
 70
8
 71
3
 72
8
 73
4
 74
0
 40
0
 40
0
 40
0
 40
0
 40
1
 40
1
 40
1
 40
1
 10
165.643819
 20
441.652618
 30
0.0
 10
166.005955
 20
442.964263
 30
0.0
 10
166.518664
 20
443.294781
 30
0.0
 10
168.154451
 20
443.271127
 30
0.0
  0
SPLINE
  5
34d
100
AcDbEntity
  8
0
 62
7
100
AcDbSpline
 70
8
 71
3
 72
8
 73
4
 74
0
 40
0
 40
0
 40
0
 40
0
 40
1
 40
1
 40
1
 40
1
 10
168.154451
 20
443.271127
 30
0.0
 10
170.312022
 20
443.239959
 30
0.0
 10
173.405107
 20
441.586498
 30
0.0
 10
176.785291
 20
438.657376
 30
0.0
  0
SPLINE
  5
34e
100
AcDbEntity
  8
0
 62
7
100
AcDbSpline
 70
8
 71
3
 72
8
 73
4
 74
0
 40
0
 40
0
 40
0
 40
0
 40
1
 40
1
 40
1
 40
1
 10
176.785291
 20
438.657376
 30
0.0
 10
178.289262
 20
437.354091
 30
0.0
 10
181.067599
 20
435.189323
 30
0.0
 10
182.959370
 20
433.846748
 30
0.0
  0
SPLINE
  5
34f
100
AcDbEntity
  8
0
 62
7
100
AcDbSpline
 70
8
 71
3
 72
8
 73
4
 74
0
 40
0
 40
0
 40
0
 40
0
 40
1
 40
1
 40
1
 40
1
 10
182.959370
 20
433.846748
 30
0.0
 10
186.900233
 20
431.049970
 30
0.0
 10
190.175589
 20
428.028719
 30
0.0
 10
192.188618
 20
425.333515
 30
0.0
  0
SPLINE
  5
350
100
AcDbEntity
  8
0
 62
7
100
AcDbSpline
 70
8
 71
3
 72
8
 73
4
 74
0
 40
0
 40
0
 40
0
 40
0
 40
1
 40
1
 40
1
 40
1
 10
192.188618
 20
425.333515
 30
0.0
 10
192.955910
 20
424.306164
 30
0.0
 10
194.586511
 20
421.563281
 30
0.0
 10
195.812167
 20
419.238202
 30
0.0
  0
SPLINE
  5
351
100
AcDbEntity
  8
0
 62
7
100
AcDbSpline
 70
8
 71
3
 72
8
 73
4
 74
0
 40
0
 40
0
 40
0
 40
0
 40
1
 40
1
 40
1
 40
1
 10
195.812167
 20
419.238202
 30
0.0
 10
197.037822
 20
416.913123
 30
0.0
 10
198.290228
 20
414.719754
 30
0.0
 10
198.595319
 20
414.364022
 30
0.0
  0
LWPOLYLINE
  5
352
100
AcDbEntity
  8
0
 62
7
100
AcDbPolyline
 90
1
 70
1
 10
82.006567
 20
325.765795
 30
0.0
  0
SPLINE
  5
353
100
AcDbEntity
  8
0
 62
7
100
AcDbSpline
 70
8
 71
3
 72
8
 73
4
 74
0
 40
0
 40
0
 40
0
 40
0
 40
1
 40
1
 40
1
 40
1
 10
202.034902
 20
415.055616
 30
0.0
 10
203.621582
 20
415.791714
 30
0.0
 10
205.157911
 20
416.482011
 30
0.0
 10
205.448953
 20
416.589591
 30
0.0
  0
SPLINE
  5
354
100
AcDbEntity
  8
0
 62
7
100
AcDbSpline
 70
8
 71
3
 72
8
 73
4
 74
0
 40
0
 40
0
 40
0
 40
0
 40
1
 40
1
 40
1
 40
1
 10
205.448953
 20
416.589591
 30
0.0
 10
205.900782
 20
416.756570
 30
0.0
 10
216.437787
 20
417.054437
 30
0.0
 10
220.549888
 20
417.016470
 30
0.0
  0
SPLINE
  5
355
100
AcDbEntity
  8
0
 62
7
100
AcDbSpline
 70
8
 71
3
 72
8
 73
4
 74
0
 40
0
 40
0
 40
0
 40
0
 40
1
 40
1
 40
1
 40
1
 10
220.549888
 20
417.016470
 30
0.0
 10
221.288340
 20
417.009591
 30
0.0
 10
222.841947
 20
416.704129
 30
0.0
 10
224.002383
 20
416.337549
 30
0.0
  0
SPLINE
  5
356
100
AcDbEntity
  8
0
 62
7
100
AcDbSpline
 70
8
 71
3
 72
8
 73
4
 74
0
 40
0
 40
0
 40
0
 40
0
 40
1
 40
1
 40
1
 40
1
 10
224.002383
 20
416.337549
 30
0.0
 10
225.730033
 20
415.791766
 30
0.0
 10
226.444805
 20
415.383514
 30
0.0
 10
227.947717
 20
414.083960
 30
0.0
  0
SPLINE
  5
357
100
AcDbEntity
  8
0
 62
7
100
AcDbSpline
 70
8
 71
3
 72
8
 73
4
 74
0
 40
0
 40
0
 40
0
 40
0
 40
1
 40
1
 40
1
 40
1
 10
227.947717
 20
414.083960
 30
0.0
 10
229.468675
 20
412.768796
 30
0.0
 10
229.843060
 20
412.556759
 30
0.0
 10
230.132673
 20
412.846372
 30
0.0
  0
SPLINE
  5
358
100
AcDbEntity
  8
0
 62
7
100
AcDbSpline
 70
8
 71
3
 72
8
 73
4
 74
0
 40
0
 40
0
 40
0
 40
0
 40
1
 40
1
 40
1
 40
1
 10
230.132673
 20
412.846372
 30
0.0
 10
230.324919
 20
413.038592
 30
0.0
 10
231.425507
 20
415.386610
 30
0.0
 10
232.578455
 20
418.064193
 30
0.0
  0
SPLINE
  5
359
100
AcDbEntity
  8
0
 62
7
100
AcDbSpline
 70
8
 71
3
 72
8
 73
4
 74
0
 40
0
 40
0
 40
0
 40
0
 40
1
 40
1
 40
1
 40
1
 10
232.578455
 20
418.064193
 30
0.0
 10
234.552273
 20
422.648152
 30
0.0
 10
234.647973
 20
422.957371
 30
0.0
 10
234.217046
 20
423.358903
 30
0.0
  0
SPLINE
  5
35a
100
AcDbEntity
  8
0
 62
7
100
AcDbSpline
 70
8
 71
3
 72
8
 73
4
 74
0
 40
0
 40
0
 40
0
 40
0
 40
1
 40
1
 40
1
 40
1
 10
234.217046
 20
423.358903
 30
0.0
 10
233.830860
 20
423.718683
 30
0.0
 10
177.958083
 20
462.329223
 30
0.0
 10
175.913013
 20
463.649520
 30
0.0
  0
SPLINE
  5
35b
100
AcDbEntity
  8
0
 62
7
100
AcDbSpline
 70
8
 71
3
 72
8
 73
4
 74
0
 40
0
 40
0
 40
0
 40
0
 40
1
 40
1
 40
1
 40
1
 10
175.913013
 20
463.649520
 30
0.0
 10
175.226022
 20
464.093041
 30
0.0
 10
174.949982
 20
464.006232
 30
0.0
 10
155.430744
 20
457.209959
 30
0.0
  0
SPLINE
  5
35c
100
AcDbEntity
  8
0
 62
7
100
AcDbSpline
 70
8
 71
3
 72
8
 73
4
 74
0
 40
0
 40
0
 40
0
 40
0
 40
1
 40
1
 40
1
 40
1
 10
155.430744
 20
457.209959
 30
0.0
 10
144.548484
 20
453.420940
 30
0.0
 10
135.485685
 20
450.320844
 30
0.0
 10
135.291163
 20
450.320844
 30
0.0
  0
SPLINE
  5
35d
100
AcDbEntity
  8
0
 62
7
100
AcDbSpline
 70
8
 71
3
 72
8
 73
4
 74
0
 40
0
 40
0
 40
0
 40
0
 40
1
 40
1
 40
1
 40
1
 10
135.291163
 20
450.320844
 30
0.0
 10
134.953211
 20
450.320844
 30
0.0
 10
134.813379
 20
450.677635
 30
0.0
 10
134.928208
 20
451.246886
 30
0.0
  0
SPLINE
  5
35e
100
AcDbEntity
  8
0
 62
7
100
AcDbSpline
 70
8
 71
3
 72
8
 73
4
 74
0
 40
0
 40
0
 40
0
 40
0
 40
1
 40
1
 40
1
 40
1
 10
134.928208
 20
451.246886
 30
0.0
 10
134.957577
 20
451.392406
 30
0.0
 10
134.897331
 20
451.427173
 30
0.0
 10
134.794329
 20
451.324170
 30
0.0
  0
SPLINE
  5
35f
100
AcDbEntity
  8
0
 62
7
100
AcDbSpline
 70
8
 71
3
 72
8
 73
4
 74
0
 40
0
 40
0
 40
0
 40
0
 40
1
 40
1
 40
1
 40
1
 10
134.794329
 20
451.324170
 30
0.0
 10
134.691326
 20
451.221168
 30
0.0
 10
132.350055
 20
454.673981
 30
0.0
 10
129.591536
 20
458.997087
 30
0.0
  0
SPLINE
  5
360
100
AcDbEntity
  8
0
 62
7
100
AcDbSpline
 70
8
 71
3
 72
8
 73
4
 74
0
 40
0
 40
0
 40
0
 40
0
 40
1
 40
1
 40
1
 40
1
 10
129.591536
 20
458.997087
 30
0.0
 10
126.833016
 20
463.320193
 30
0.0
 10
124.425705
 20
467.012983
 30
0.0
 10
124.241952
 20
467.203271
 30
0.0
  0
SPLINE
  5
361
100
AcDbEntity
  8
0
 62
7
100
AcDbSpline
 70
8
 71
3
 72
8
 73
4
 74
0
 40
0
 40
0
 40
0
 40
0
 40
1
 40
1
 40
1
 40
1
 10
124.241952
 20
467.203271
 30
0.0
 10
123.968769
 20
467.486217
 30
0.0
 10
123.213357
 20
467.126939
 30
0.0
 10
120.096142
 20
465.231411
 30
0.0
  0
SPLINE
  5
362
100
AcDbEntity
  8
0
 62
7
100
AcDbSpline
 70
8
 71
3
 72
8
 73
4
 74
0
 40
0
 40
0
 40
0
 40
0
 40
1
 40
1
 40
1
 40
1
 10
120.096142
 20
465.231411
 30
0.0
 10
112.181979
 20
460.418984
 30
0.0
 10
101.129592
 20
455.336709
 30
0.0
 10
93.530203
 20
453.015466
 30
0.0
  0
SPLINE
  5
363
100
AcDbEntity
  8
0
 62
7
100
AcDbSpline
 70
8
 71
3
 72
8
 73
4
 74
0
 40
0
 40
0
 40
0
 40
0
 40
1
 40
1
 40
1
 40
1
 10
93.530203
 20
453.015466
 30
0.0
 10
86.075038
 20
450.738251
 30
0.0
 10
77.659595
 20
449.122678
 30
0.0
 10
70.511453
 20
448.596396
 30
0.0
  0
SPLINE
  5
364
100
AcDbEntity
  8
0
 62
7
100
AcDbSpline
 70
8
 71
3
 72
8
 73
4
 74
0
 40
0
 40
0
 40
0
 40
0
 40
1
 40
1
 40
1
 40
1
 10
70.511453
 20
448.596396
 30
0.0
 10
68.464954
 20
448.445742
 30
0.0
 10
67.683877
 20
448.232858
 30
0.0
 10
64.955203
 20
447.082185
 30
0.0
  0
SPLINE
  5
365
100
AcDbEntity
  8
0
 62
7
100
AcDbSpline
 70
8
 71
3
 72
8
 73
4
 74
0
 40
0
 40
0
 40
0
 40
0
 40
1
 40
1
 40
1
 40
1
 10
64.955203
 20
447.082185
 30
0.0
 10
57.331816
 20
443.867392
 30
0.0
 10
50.181822
 20
439.843291
 30
0.0
 10
42.796349
 20
434.610891
 30
0.0
  0
LWPOLYLINE
  5
366
100
AcDbEntity
  8
0
 62
7
100
AcDbPolyline
 90
3
 70
0
 10
198.595319
 20
414.364022
 30
0.0
 10
199.149991
 20
413.717248
 30
0.0
 10
202.034902
 20
415.055616
 30
0.0
  0
SPLINE
  5
367
100
AcDbEntity
  8
0
 62
7
100
AcDbSpline
 70
8
 71
3
 72
8
 73
4
 74
0
 40
0
 40
0
 40
0
 40
0
 40
1
 40
1
 40
1
 40
1
 10
42.002599
 20
371.895963
 30
0.0
 10
50.568061
 20
366.305333
 30
0.0
 10
60.898770
 20
361.669991
 30
0.0
 10
70.422712
 20
359.143909
 30
0.0
  0
SPLINE
  5
368
100
AcDbEntity
  8
0
 62
7
100
AcDbSpline
 70
8
 71
3
 72
8
 73
4
 74
0
 40
0
 40
0
 40
0
 40
0
 40
1
 40
1
 40
1
 40
1
 10
70.422712
 20
359.143909
 30
0.0
 10
71.935996
 20
358.742536
 30
0.0
 10
73.629964
 20
358.099995
 30
0.0
 10
74.215620
 20
357.705210
 30
0.0
  0
SPLINE
  5
369
100
AcDbEntity
  8
0
 62
7
100
AcDbSpline
 70
8
 71
3
 72
8
 73
4
 74
0
 40
0
 40
0
 40
0
 40
0
 40
1
 40
1
 40
1
 40
1
 10
74.215620
 20
357.705210
 30
0.0
 10
74.797703
 20
357.312860
 30
0.0
 10
75.872441
 20
356.735010
 30
0.0
 10
76.603881
 20
356.421081
 30
0.0
  0
SPLINE
  5
36a
100
AcDbEntity
  8
0
 62
7
100
AcDbSpline
 70
8
 71
3
 72
8
 73
4
 74
0
 40
0
 40
0
 40
0
 40
0
 40
1
 40
1
 40
1
 40
1
 10
76.603881
 20
356.421081
 30
0.0
 10
77.770032
 20
355.920596
 30
0.0
 10
79.574120
 20
354.090446
 30
0.0
 10
91.251744
 20
341.561499
 30
0.0
  0
SPLINE
  5
36b
100
AcDbEntity
  8
0
 62
7
100
AcDbSpline
 70
8
 71
3
 72
8
 73
4
 74
0
 40
0
 40
0
 40
0
 40
0
 40
1
 40
1
 40
1
 40
1
 10
91.251744
 20
341.561499
 30
0.0
 10
100.638684
 20
331.490267
 30
0.0
 10
104.697578
 20
327.309110
 30
0.0
 10
105.003066
 20
327.396025
 30
0.0
  0
SPLINE
  5
36c
100
AcDbEntity
  8
0
 62
7
100
AcDbSpline
 70
8
 71
3
 72
8
 73
4
 74
0
 40
0
 40
0
 40
0
 40
0
 40
1
 40
1
 40
1
 40
1
 10
105.003066
 20
327.396025
 30
0.0
 10
105.241429
 20
327.463838
 30
0.0
 10
106.448484
 20
327.718579
 30
0.0
 10
107.685411
 20
327.962101
 30
0.0
  0
LWPOLYLINE
  5
36d
100
AcDbEntity
  8
0
 62
7
100
AcDbPolyline
 90
5
 70
0
 10
42.796349
 20
434.610891
 30
0.0
 10
39.422911
 20
432.220883
 30
0.0
 10
39.422911
 20
402.900287
 30
0.0
 10
39.422911
 20
373.579692
 30
0.0
 10
42.002599
 20
371.895963
 30
0.0
  0
SPLINE
  5
36e
100
AcDbEntity
  8
0
 62
7
100
AcDbSpline
 70
8
 71
3
 72
8
 73
4
 74
0
 40
0
 40
0
 40
0
 40
0
 40
1
 40
1
 40
1
 40
1
 10
596.328050
 20
344.156771
 30
0.0
 10
596.285717
 20
352.732525
 30
0.0
 10
595.969593
 20
353.221290
 30
0.0
 10
595.857436
 20
344.884375
 30
0.0
  0
SPLINE
  5
36f
100
AcDbEntity
  8
0
 62
7
100
AcDbSpline
 70
8
 71
3
 72
8
 73
4
 74
0
 40
0
 40
0
 40
0
 40
0
 40
1
 40
1
 40
1
 40
1
 10
595.857436
 20
344.884375
 30
0.0
 10
595.828094
 20
342.701563
 30
0.0
 10
595.707867
 20
339.844063
 30
0.0
 10
595.590313
 20
338.534375
 30
0.0
  0
SPLINE
  5
370
100
AcDbEntity
  8
0
 62
7
100
AcDbSpline
 70
8
 71
3
 72
8
 73
4
 74
0
 40
0
 40
0
 40
0
 40
0
 40
1
 40
1
 40
1
 40
1
 10
595.590313
 20
338.534375
 30
0.0
 10
595.385631
 20
336.253799
 30
0.0
 10
595.522950
 20
335.491667
 30
0.0
 10
596.138635
 20
335.491667
 30
0.0
  0
SPLINE
  5
371
100
AcDbEntity
  8
0
 62
7
100
AcDbSpline
 70
8
 71
3
 72
8
 73
4
 74
0
 40
0
 40
0
 40
0
 40
0
 40
1
 40
1
 40
1
 40
1
 10
596.138635
 20
335.491667
 30
0.0
 10
596.267990
 20
335.491667
 30
0.0
 10
596.351889
 20
339.329951
 30
0.0
 10
596.328050
 20
344.156771
 30
0.0
  0
LWPOLYLINE
  5
372
100
AcDbEntity
  8
0
 62
7
100
AcDbPolyline
 90
1
 70
1
 10
107.685411
 20
327.962101
 30
0.0
  0
LWPOLYLINE
  5
373
100
AcDbEntity
  8
0
 62
7
100
AcDbPolyline
 90
1
 70
1
 10
596.328050
 20
344.156771
 30
0.0
  0
SPLINE
  5
374
100
AcDbEntity
  8
0
 62
7
100
AcDbSpline
 70
8
 71
3
 72
8
 73
4
 74
0
 40
0
 40
0
 40
0
 40
0
 40
1
 40
1
 40
1
 40
1
 10
414.088712
 20
422.719193
 30
0.0
 10
416.340899
 20
425.073535
 30
0.0
 10
419.270815
 20
428.615327
 30
0.0
 10
420.615745
 20
430.609386
 30
0.0
  0
SPLINE
  5
375
100
AcDbEntity
  8
0
 62
7
100
AcDbSpline
 70
8
 71
3
 72
8
 73
4
 74
0
 40
0
 40
0
 40
0
 40
0
 40
1
 40
1
 40
1
 40
1
 10
420.615745
 20
430.609386
 30
0.0
 10
422.173691
 20
432.919225
 30
0.0
 10
423.138600
 20
434.101542
 30
0.0
 10
425.042409
 20
436.033344
 30
0.0
  0
SPLINE
  5
376
100
AcDbEntity
  8
0
 62
7
100
AcDbSpline
 70
8
 71
3
 72
8
 73
4
 74
0
 40
0
 40
0
 40
0
 40
0
 40
1
 40
1
 40
1
 40
1
 10
425.042409
 20
436.033344
 30
0.0
 10
426.532675
 20
437.545544
 30
0.0
 10
426.914839
 20
438.162314
 30
0.0
 10
428.208466
 20
441.142924
 30
0.0
  0
SPLINE
  5
377
100
AcDbEntity
  8
0
 62
7
100
AcDbSpline
 70
8
 71
3
 72
8
 73
4
 74
0
 40
0
 40
0
 40
0
 40
0
 40
1
 40
1
 40
1
 40
1
 10
428.208466
 20
441.142924
 30
0.0
 10
429.669866
 20
444.510012
 30
0.0
 10
429.689736
 20
444.591556
 30
0.0
 10
431.176800
 20
453.323547
 30
0.0
  0
LWPOLYLINE
  5
378
100
AcDbEntity
  8
0
 62
7
100
AcDbPolyline
 90
5
 70
0
 10
408.662955
 20
420.178505
 30
0.0
 10
409.410350
 20
421.257026
 30
0.0
 10
410.886301
 20
421.085735
 30
0.0
 10
412.362253
 20
420.914417
 30
0.0
 10
414.088712
 20
422.719193
 30
0.0
  0
SPLINE
  5
379
100
AcDbEntity
  8
0
 62
7
100
AcDbSpline
 70
8
 71
3
 72
8
 73
4
 74
0
 40
0
 40
0
 40
0
 40
0
 40
1
 40
1
 40
1
 40
1
 10
433.793159
 20
463.088022
 30
0.0
 10
434.844402
 20
464.002475
 30
0.0
 10
434.992410
 20
464.052163
 30
0.0
 10
436.228702
 20
463.905743
 30
0.0
  0
SPLINE
  5
37a
100
AcDbEntity
  8
0
 62
7
100
AcDbSpline
 70
8
 71
3
 72
8
 73
4
 74
0
 40
0
 40
0
 40
0
 40
0
 40
1
 40
1
 40
1
 40
1
 10
436.228702
 20
463.905743
 30
0.0
 10
437.695843
 20
463.731991
 30
0.0
 10
438.014613
 20
463.376947
 30
0.0
 10
439.142320
 20
460.660443
 30
0.0
  0
SPLINE
  5
37b
100
AcDbEntity
  8
0
 62
7
100
AcDbSpline
 70
8
 71
3
 72
8
 73
4
 74
0
 40
0
 40
0
 40
0
 40
0
 40
1
 40
1
 40
1
 40
1
 10
439.142320
 20
460.660443
 30
0.0
 10
440.960113
 20
456.281668
 30
0.0
 10
440.514925
 20
449.707646
 30
0.0
 10
437.906028
 20
442.404405
 30
0.0
  0
SPLINE
  5
37c
100
AcDbEntity
  8
0
 62
7
100
AcDbSpline
 70
8
 71
3
 72
8
 73
4
 74
0
 40
0
 40
0
 40
0
 40
0
 40
1
 40
1
 40
1
 40
1
 10
437.906028
 20
442.404405
 30
0.0
 10
436.916777
 20
439.635143
 30
0.0
 10
436.861400
 20
439.344366
 30
0.0
 10
437.242797
 20
438.922938
 30
0.0
  0
SPLINE
  5
37d
100
AcDbEntity
  8
0
 62
7
100
AcDbSpline
 70
8
 71
3
 72
8
 73
4
 74
0
 40
0
 40
0
 40
0
 40
0
 40
1
 40
1
 40
1
 40
1
 10
437.242797
 20
438.922938
 30
0.0
 10
438.046098
 20
438.035287
 30
0.0
 10
440.092386
 20
438.139665
 30
0.0
 10
443.177083
 20
439.225674
 30
0.0
  0
SPLINE
  5
37e
100
AcDbEntity
  8
0
 62
7
100
AcDbSpline
 70
8
 71
3
 72
8
 73
4
 74
0
 40
0
 40
0
 40
0
 40
0
 40
1
 40
1
 40
1
 40
1
 10
443.177083
 20
439.225674
 30
0.0
 10
444.705052
 20
439.763598
 30
0.0
 10
446.729115
 20
440.622648
 30
0.0
 10
447.675000
 20
441.134669
 30
0.0
  0
SPLINE
  5
37f
100
AcDbEntity
  8
0
 62
7
100
AcDbSpline
 70
8
 71
3
 72
8
 73
4
 74
0
 40
0
 40
0
 40
0
 40
0
 40
1
 40
1
 40
1
 40
1
 10
447.675000
 20
441.134669
 30
0.0
 10
449.266442
 20
441.996153
 30
0.0
 10
450.006958
 20
442.167708
 30
0.0
 10
457.596875
 20
443.433316
 30
0.0
  0
SPLINE
  5
380
100
AcDbEntity
  8
0
 62
7
100
AcDbSpline
 70
8
 71
3
 72
8
 73
4
 74
0
 40
0
 40
0
 40
0
 40
0
 40
1
 40
1
 40
1
 40
1
 10
457.596875
 20
443.433316
 30
0.0
 10
462.320058
 20
444.220875
 30
0.0
 10
466.640624
 20
445.088629
 30
0.0
 10
467.783333
 20
445.479154
 30
0.0
  0
SPLINE
  5
381
100
AcDbEntity
  8
0
 62
7
100
AcDbSpline
 70
8
 71
3
 72
8
 73
4
 74
0
 40
0
 40
0
 40
0
 40
0
 40
1
 40
1
 40
1
 40
1
 10
467.783333
 20
445.479154
 30
0.0
 10
473.879651
 20
447.562589
 30
0.0
 10
479.474980
 20
451.862915
 30
0.0
 10
482.345365
 20
456.670844
 30
0.0
  0
SPLINE
  5
382
100
AcDbEntity
  8
0
 62
7
100
AcDbSpline
 70
8
 71
3
 72
8
 73
4
 74
0
 40
0
 40
0
 40
0
 40
0
 40
1
 40
1
 40
1
 40
1
 10
482.345365
 20
456.670844
 30
0.0
 10
482.910065
 20
457.616729
 30
0.0
 10
484.014092
 20
460.117042
 30
0.0
 10
484.798740
 20
462.227094
 30
0.0
  0
SPLINE
  5
383
100
AcDbEntity
  8
0
 62
7
100
AcDbSpline
 70
8
 71
3
 72
8
 73
4
 74
0
 40
0
 40
0
 40
0
 40
0
 40
1
 40
1
 40
1
 40
1
 10
484.798740
 20
462.227094
 30
0.0
 10
486.257891
 20
466.150944
 30
0.0
 10
487.430921
 20
468.685943
 30
0.0
 10
488.616413
 20
470.477358
 30
0.0
  0
SPLINE
  5
384
100
AcDbEntity
  8
0
 62
7
100
AcDbSpline
 70
8
 71
3
 72
8
 73
4
 74
0
 40
0
 40
0
 40
0
 40
0
 40
1
 40
1
 40
1
 40
1
 10
488.616413
 20
470.477358
 30
0.0
 10
489.596007
 20
471.957596
 30
0.0
 10
490.545279
 20
471.884491
 30
0.0
 10
492.596117
 20
470.170865
 30
0.0
  0
SPLINE
  5
385
100
AcDbEntity
  8
0
 62
7
100
AcDbSpline
 70
8
 71
3
 72
8
 73
4
 74
0
 40
0
 40
0
 40
0
 40
0
 40
1
 40
1
 40
1
 40
1
 10
492.596117
 20
470.170865
 30
0.0
 10
494.033942
 20
468.969445
 30
0.0
 10
494.187030
 20
468.739707
 30
0.0
 10
494.345436
 20
467.545483
 30
0.0
  0
SPLINE
  5
386
100
AcDbEntity
  8
0
 62
7
100
AcDbSpline
 70
8
 71
3
 72
8
 73
4
 74
0
 40
0
 40
0
 40
0
 40
0
 40
1
 40
1
 40
1
 40
1
 10
494.345436
 20
467.545483
 30
0.0
 10
494.671562
 20
465.087055
 30
0.0
 10
493.909906
 20
461.624585
 30
0.0
 10
491.983263
 20
456.807157
 30
0.0
  0
SPLINE
  5
387
100
AcDbEntity
  8
0
 62
7
100
AcDbSpline
 70
8
 71
3
 72
8
 73
4
 74
0
 40
0
 40
0
 40
0
 40
0
 40
1
 40
1
 40
1
 40
1
 10
491.983263
 20
456.807157
 30
0.0
 10
491.225787
 20
454.913164
 30
0.0
 10
490.647752
 20
453.316351
 30
0.0
 10
490.698684
 20
453.258671
 30
0.0
  0
SPLINE
  5
388
100
AcDbEntity
  8
0
 62
7
100
AcDbSpline
 70
8
 71
3
 72
8
 73
4
 74
0
 40
0
 40
0
 40
0
 40
0
 40
1
 40
1
 40
1
 40
1
 10
490.698684
 20
453.258671
 30
0.0
 10
490.749643
 20
453.200992
 30
0.0
 10
491.242906
 20
453.452637
 30
0.0
 10
491.794800
 20
453.817895
 30
0.0
  0
SPLINE
  5
389
100
AcDbEntity
  8
0
 62
7
100
AcDbSpline
 70
8
 71
3
 72
8
 73
4
 74
0
 40
0
 40
0
 40
0
 40
0
 40
1
 40
1
 40
1
 40
1
 10
491.794800
 20
453.817895
 30
0.0
 10
492.346721
 20
454.183126
 30
0.0
 10
493.327161
 20
454.751768
 30
0.0
 10
493.973538
 20
455.081518
 30
0.0
  0
SPLINE
  5
38a
100
AcDbEntity
  8
0
 62
7
100
AcDbSpline
 70
8
 71
3
 72
8
 73
4
 74
0
 40
0
 40
0
 40
0
 40
0
 40
1
 40
1
 40
1
 40
1
 10
493.973538
 20
455.081518
 30
0.0
 10
495.769715
 20
455.997876
 30
0.0
 10
498.140434
 20
458.226488
 30
0.0
 10
499.041658
 20
459.845844
 30
0.0
  0
SPLINE
  5
38b
100
AcDbEntity
  8
0
 62
7
100
AcDbSpline
 70
8
 71
3
 72
8
 73
4
 74
0
 40
0
 40
0
 40
0
 40
0
 40
1
 40
1
 40
1
 40
1
 10
499.041658
 20
459.845844
 30
0.0
 10
499.487084
 20
460.646208
 30
0.0
 10
500.482209
 20
461.955896
 30
0.0
 10
501.253046
 20
462.756261
 30
0.0
  0
SPLINE
  5
38c
100
AcDbEntity
  8
0
 62
7
100
AcDbSpline
 70
8
 71
3
 72
8
 73
4
 74
0
 40
0
 40
0
 40
0
 40
0
 40
1
 40
1
 40
1
 40
1
 10
501.253046
 20
462.756261
 30
0.0
 10
504.255881
 20
465.874058
 30
0.0
 10
506.538204
 20
470.247065
 30
0.0
 10
507.743222
 20
475.191677
 30
0.0
  0
SPLINE
  5
38d
100
AcDbEntity
  8
0
 62
7
100
AcDbSpline
 70
8
 71
3
 72
8
 73
4
 74
0
 40
0
 40
0
 40
0
 40
0
 40
1
 40
1
 40
1
 40
1
 10
507.743222
 20
475.191677
 30
0.0
 10
508.595683
 20
478.689522
 30
0.0
 10
509.821048
 20
484.794094
 30
0.0
 10
510.372148
 20
488.288542
 30
0.0
  0
SPLINE
  5
38e
100
AcDbEntity
  8
0
 62
7
100
AcDbSpline
 70
8
 71
3
 72
8
 73
4
 74
0
 40
0
 40
0
 40
0
 40
0
 40
1
 40
1
 40
1
 40
1
 10
510.372148
 20
488.288542
 30
0.0
 10
510.647553
 20
490.034792
 30
0.0
 10
511.245220
 20
493.590043
 30
0.0
 10
511.700304
 20
496.189101
 30
0.0
  0
SPLINE
  5
38f
100
AcDbEntity
  8
0
 62
7
100
AcDbSpline
 70
8
 71
3
 72
8
 73
4
 74
0
 40
0
 40
0
 40
0
 40
0
 40
1
 40
1
 40
1
 40
1
 10
511.700304
 20
496.189101
 30
0.0
 10
512.155361
 20
498.788158
 30
0.0
 10
512.477411
 20
500.964951
 30
0.0
 10
512.415949
 20
501.026417
 30
0.0
  0
SPLINE
  5
390
100
AcDbEntity
  8
0
 62
7
100
AcDbSpline
 70
8
 71
3
 72
8
 73
4
 74
0
 40
0
 40
0
 40
0
 40
0
 40
1
 40
1
 40
1
 40
1
 10
512.415949
 20
501.026417
 30
0.0
 10
512.354486
 20
501.087882
 30
0.0
 10
507.562247
 20
498.505567
 30
0.0
 10
501.766549
 20
495.287938
 30
0.0
  0
SPLINE
  5
391
100
AcDbEntity
  8
0
 62
7
100
AcDbSpline
 70
8
 71
3
 72
8
 73
4
 74
0
 40
0
 40
0
 40
0
 40
0
 40
1
 40
1
 40
1
 40
1
 10
501.766549
 20
495.287938
 30
0.0
 10
495.970825
 20
492.070308
 30
0.0
 10
490.773958
 20
489.205606
 30
0.0
 10
490.217910
 20
488.921933
 30
0.0
  0
LWPOLYLINE
  5
392
100
AcDbEntity
  8
0
 62
7
100
AcDbPolyline
 90
3
 70
0
 10
431.176800
 20
453.323547
 30
0.0
 10
432.673892
 20
462.114381
 30
0.0
 10
433.793159
 20
463.088022
 30
0.0
  0
SPLINE
  5
393
100
AcDbEntity
  8
0
 62
7
100
AcDbSpline
 70
8
 71
3
 72
8
 73
4
 74
0
 40
0
 40
0
 40
0
 40
0
 40
1
 40
1
 40
1
 40
1
 10
486.895643
 20
489.095986
 30
0.0
 10
484.599086
 20
489.781421
 30
0.0
 10
483.201530
 20
490.774122
 30
0.0
 10
483.584197
 20
491.448138
 30
0.0
  0
SPLINE
  5
394
100
AcDbEntity
  8
0
 62
7
100
AcDbSpline
 70
8
 71
3
 72
8
 73
4
 74
0
 40
0
 40
0
 40
0
 40
0
 40
1
 40
1
 40
1
 40
1
 10
483.584197
 20
491.448138
 30
0.0
 10
483.671642
 20
491.602130
 30
0.0
 10
483.651243
 20
491.645353
 30
0.0
 10
483.538874
 20
491.544187
 30
0.0
  0
SPLINE
  5
395
100
AcDbEntity
  8
0
 62
7
100
AcDbSpline
 70
8
 71
3
 72
8
 73
4
 74
0
 40
0
 40
0
 40
0
 40
0
 40
1
 40
1
 40
1
 40
1
 10
483.538874
 20
491.544187
 30
0.0
 10
483.283736
 20
491.314486
 30
0.0
 10
464.707817
 20
516.417568
 30
0.0
 10
464.828811
 20
516.828551
 30
0.0
  0
SPLINE
  5
396
100
AcDbEntity
  8
0
 62
7
100
AcDbSpline
 70
8
 71
3
 72
8
 73
4
 74
0
 40
0
 40
0
 40
0
 40
0
 40
1
 40
1
 40
1
 40
1
 10
464.828811
 20
516.828551
 30
0.0
 10
464.877335
 20
516.993317
 30
0.0
 10
464.834367
 20
517.045353
 30
0.0
 10
464.733084
 20
516.944187
 30
0.0
  0
SPLINE
  5
397
100
AcDbEntity
  8
0
 62
7
100
AcDbSpline
 70
8
 71
3
 72
8
 73
4
 74
0
 40
0
 40
0
 40
0
 40
0
 40
1
 40
1
 40
1
 40
1
 10
464.733084
 20
516.944187
 30
0.0
 10
464.496441
 20
516.707551
 30
0.0
 10
445.926184
 20
541.830371
 30
0.0
 10
446.043394
 20
542.228551
 30
0.0
  0
SPLINE
  5
398
100
AcDbEntity
  8
0
 62
7
100
AcDbSpline
 70
8
 71
3
 72
8
 73
4
 74
0
 40
0
 40
0
 40
0
 40
0
 40
1
 40
1
 40
1
 40
1
 10
446.043394
 20
542.228551
 30
0.0
 10
446.091919
 20
542.393317
 30
0.0
 10
446.043394
 20
542.440585
 30
0.0
 10
445.937058
 20
542.333593
 30
0.0
  0
SPLINE
  5
399
100
AcDbEntity
  8
0
 62
7
100
AcDbSpline
 70
8
 71
3
 72
8
 73
4
 74
0
 40
0
 40
0
 40
0
 40
0
 40
1
 40
1
 40
1
 40
1
 10
445.937058
 20
542.333593
 30
0.0
 10
445.830060
 20
542.226601
 30
0.0
 10
445.323569
 20
542.737553
 30
0.0
 10
444.811494
 20
543.469039
 30
0.0
  0
SPLINE
  5
39a
100
AcDbEntity
  8
0
 62
7
100
AcDbSpline
 70
8
 71
3
 72
8
 73
4
 74
0
 40
0
 40
0
 40
0
 40
0
 40
1
 40
1
 40
1
 40
1
 10
444.811494
 20
543.469039
 30
0.0
 10
444.299419
 20
544.200527
 30
0.0
 10
443.733370
 20
544.742579
 30
0.0
 10
443.553612
 20
544.673600
 30
0.0
  0
SPLINE
  5
39b
100
AcDbEntity
  8
0
 62
7
100
AcDbSpline
 70
8
 71
3
 72
8
 73
4
 74
0
 40
0
 40
0
 40
0
 40
0
 40
1
 40
1
 40
1
 40
1
 10
443.553612
 20
544.673600
 30
0.0
 10
443.373854
 20
544.604620
 30
0.0
 10
434.870886
 20
537.485701
 30
0.0
 10
424.658129
 20
528.853778
 30
0.0
  0
SPLINE
  5
39c
100
AcDbEntity
  8
0
 62
7
100
AcDbSpline
 70
8
 71
3
 72
8
 73
4
 74
0
 40
0
 40
0
 40
0
 40
0
 40
1
 40
1
 40
1
 40
1
 10
424.658129
 20
528.853778
 30
0.0
 10
414.445371
 20
520.221856
 30
0.0
 10
405.996854
 20
513.125059
 30
0.0
 10
405.883666
 20
513.083119
 30
0.0
  0
SPLINE
  5
39d
100
AcDbEntity
  8
0
 62
7
100
AcDbSpline
 70
8
 71
3
 72
8
 73
4
 74
0
 40
0
 40
0
 40
0
 40
0
 40
1
 40
1
 40
1
 40
1
 10
405.883666
 20
513.083119
 30
0.0
 10
405.770477
 20
513.041178
 30
0.0
 10
404.486269
 20
514.018847
 30
0.0
 10
403.029843
 20
515.255716
 30
0.0
  0
LWPOLYLINE
  5
39e
100
AcDbEntity
  8
0
 62
7
100
AcDbPolyline
 90
3
 70
0
 10
490.217910
 20
488.921933
 30
0.0
 10
489.206910
 20
488.406165
 30
0.0
 10
486.895643
 20
489.095986
 30
0.0
  0
SPLINE
  5
39f
100
AcDbEntity
  8
0
 62
7
100
AcDbSpline
 70
8
 71
3
 72
8
 73
4
 74
0
 40
0
 40
0
 40
0
 40
0
 40
1
 40
1
 40
1
 40
1
 10
376.271102
 20
502.235578
 30
0.0
 10
357.419487
 20
490.297086
 30
0.0
 10
352.160337
 20
486.851060
 30
0.0
 10
352.160099
 20
486.436940
 30
0.0
  0
SPLINE
  5
3a0
100
AcDbEntity
  8
0
 62
7
100
AcDbSpline
 70
8
 71
3
 72
8
 73
4
 74
0
 40
0
 40
0
 40
0
 40
0
 40
1
 40
1
 40
1
 40
1
 10
352.160099
 20
486.436940
 30
0.0
 10
352.159940
 20
486.145639
 30
0.0
 10
352.572161
 20
483.228396
 30
0.0
 10
353.076140
 20
479.954177
 30
0.0
  0
SPLINE
  5
3a1
100
AcDbEntity
  8
0
 62
7
100
AcDbSpline
 70
8
 71
3
 72
8
 73
4
 74
0
 40
0
 40
0
 40
0
 40
0
 40
1
 40
1
 40
1
 40
1
 10
353.076140
 20
479.954177
 30
0.0
 10
353.580144
 20
476.679958
 30
0.0
 10
354.233083
 20
471.976990
 30
0.0
 10
354.527168
 20
469.503136
 30
0.0
  0
SPLINE
  5
3a2
100
AcDbEntity
  8
0
 62
7
100
AcDbSpline
 70
8
 71
3
 72
8
 73
4
 74
0
 40
0
 40
0
 40
0
 40
0
 40
1
 40
1
 40
1
 40
1
 10
354.527168
 20
469.503136
 30
0.0
 10
356.104693
 20
456.232376
 30
0.0
 10
356.717150
 20
452.413486
 30
0.0
 10
357.621814
 20
450.206623
 30
0.0
  0
SPLINE
  5
3a3
100
AcDbEntity
  8
0
 62
7
100
AcDbSpline
 70
8
 71
3
 72
8
 73
4
 74
0
 40
0
 40
0
 40
0
 40
0
 40
1
 40
1
 40
1
 40
1
 10
357.621814
 20
450.206623
 30
0.0
 10
358.174264
 20
448.858915
 30
0.0
 10
358.527985
 20
448.423940
 30
0.0
 10
359.824205
 20
447.498348
 30
0.0
  0
SPLINE
  5
3a4
100
AcDbEntity
  8
0
 62
7
100
AcDbSpline
 70
8
 71
3
 72
8
 73
4
 74
0
 40
0
 40
0
 40
0
 40
0
 40
1
 40
1
 40
1
 40
1
 10
359.824205
 20
447.498348
 30
0.0
 10
361.257189
 20
446.475099
 30
0.0
 10
361.603872
 20
446.358153
 30
0.0
 10
364.635785
 20
445.875500
 30
0.0
  0
SPLINE
  5
3a5
100
AcDbEntity
  8
0
 62
7
100
AcDbSpline
 70
8
 71
3
 72
8
 73
4
 74
0
 40
0
 40
0
 40
0
 40
0
 40
1
 40
1
 40
1
 40
1
 10
364.635785
 20
445.875500
 30
0.0
 10
366.432835
 20
445.589432
 30
0.0
 10
367.951570
 20
445.399885
 30
0.0
 10
368.010810
 20
445.454283
 30
0.0
  0
SPLINE
  5
3a6
100
AcDbEntity
  8
0
 62
7
100
AcDbSpline
 70
8
 71
3
 72
8
 73
4
 74
0
 40
0
 40
0
 40
0
 40
0
 40
1
 40
1
 40
1
 40
1
 10
368.010810
 20
445.454283
 30
0.0
 10
368.070024
 20
445.508682
 30
0.0
 10
367.854071
 20
446.463192
 30
0.0
 10
367.530909
 20
447.575395
 30
0.0
  0
SPLINE
  5
3a7
100
AcDbEntity
  8
0
 62
7
100
AcDbSpline
 70
8
 71
3
 72
8
 73
4
 74
0
 40
0
 40
0
 40
0
 40
0
 40
1
 40
1
 40
1
 40
1
 10
367.530909
 20
447.575395
 30
0.0
 10
367.121228
 20
448.985307
 30
0.0
 10
366.465617
 20
450.308065
 30
0.0
 10
365.365559
 20
451.944089
 30
0.0
  0
SPLINE
  5
3a8
100
AcDbEntity
  8
0
 62
7
100
AcDbSpline
 70
8
 71
3
 72
8
 73
4
 74
0
 40
0
 40
0
 40
0
 40
0
 40
1
 40
1
 40
1
 40
1
 10
365.365559
 20
451.944089
 30
0.0
 10
362.960020
 20
455.521600
 30
0.0
 10
362.262870
 20
456.798505
 30
0.0
 10
361.208664
 20
459.557845
 30
0.0
  0
LWPOLYLINE
  5
3a9
100
AcDbEntity
  8
0
 62
7
100
AcDbPolyline
 90
3
 70
0
 10
403.029843
 20
515.255716
 30
0.0
 10
400.381788
 20
517.504572
 30
0.0
 10
376.271102
 20
502.235578
 30
0.0
  0
SPLINE
  5
3aa
100
AcDbEntity
  8
0
 62
7
100
AcDbSpline
 70
8
 71
3
 72
8
 73
4
 74
0
 40
0
 40
0
 40
0
 40
0
 40
1
 40
1
 40
1
 40
1
 10
360.239416
 20
466.989594
 30
0.0
 10
360.239416
 20
472.297797
 30
0.0
 10
360.599593
 20
474.345672
 30
0.0
 10
361.863323
 20
476.208868
 30
0.0
  0
SPLINE
  5
3ab
100
AcDbEntity
  8
0
 62
7
100
AcDbSpline
 70
8
 71
3
 72
8
 73
4
 74
0
 40
0
 40
0
 40
0
 40
0
 40
1
 40
1
 40
1
 40
1
 10
361.863323
 20
476.208868
 30
0.0
 10
362.193417
 20
476.695569
 30
0.0
 10
362.610744
 20
477.500987
 30
0.0
 10
362.790714
 20
477.998668
 30
0.0
  0
SPLINE
  5
3ac
100
AcDbEntity
  8
0
 62
7
100
AcDbSpline
 70
8
 71
3
 72
8
 73
4
 74
0
 40
0
 40
0
 40
0
 40
0
 40
1
 40
1
 40
1
 40
1
 10
362.790714
 20
477.998668
 30
0.0
 10
362.970683
 20
478.496376
 30
0.0
 10
363.242225
 20
478.850018
 30
0.0
 10
363.394122
 20
478.784613
 30
0.0
  0
SPLINE
  5
3ad
100
AcDbEntity
  8
0
 62
7
100
AcDbSpline
 70
8
 71
3
 72
8
 73
4
 74
0
 40
0
 40
0
 40
0
 40
0
 40
1
 40
1
 40
1
 40
1
 10
363.394122
 20
478.784613
 30
0.0
 10
363.546020
 20
478.719182
 30
0.0
 10
364.114530
 20
478.520665
 30
0.0
 10
364.657455
 20
478.343473
 30
0.0
  0
SPLINE
  5
3ae
100
AcDbEntity
  8
0
 62
7
100
AcDbSpline
 70
8
 71
3
 72
8
 73
4
 74
0
 40
0
 40
0
 40
0
 40
0
 40
1
 40
1
 40
1
 40
1
 10
364.657455
 20
478.343473
 30
0.0
 10
365.200406
 20
478.166308
 30
0.0
 10
365.698881
 20
477.831134
 30
0.0
 10
365.765186
 20
477.598698
 30
0.0
  0
SPLINE
  5
3af
100
AcDbEntity
  8
0
 62
7
100
AcDbSpline
 70
8
 71
3
 72
8
 73
4
 74
0
 40
0
 40
0
 40
0
 40
0
 40
1
 40
1
 40
1
 40
1
 10
365.765186
 20
477.598698
 30
0.0
 10
365.831490
 20
477.366235
 30
0.0
 10
366.805104
 20
473.681832
 30
0.0
 10
367.928790
 20
469.411113
 30
0.0
  0
LWPOLYLINE
  5
3b0
100
AcDbEntity
  8
0
 62
7
100
AcDbPolyline
 90
3
 70
0
 10
361.208664
 20
459.557845
 30
0.0
 10
360.239416
 20
462.094802
 30
0.0
 10
360.239416
 20
466.989594
 30
0.0
  0
SPLINE
  5
3b1
100
AcDbEntity
  8
0
 62
7
100
AcDbSpline
 70
8
 71
3
 72
8
 73
4
 74
0
 40
0
 40
0
 40
0
 40
0
 40
1
 40
1
 40
1
 40
1
 10
372.723093
 20
456.446530
 30
0.0
 10
374.236324
 20
453.586728
 30
0.0
 10
375.986966
 20
450.592042
 30
0.0
 10
376.613473
 20
449.791677
 30
0.0
  0
SPLINE
  5
3b2
100
AcDbEntity
  8
0
 62
7
100
AcDbSpline
 70
8
 71
3
 72
8
 73
4
 74
0
 40
0
 40
0
 40
0
 40
0
 40
1
 40
1
 40
1
 40
1
 10
376.613473
 20
449.791677
 30
0.0
 10
377.239953
 20
448.991313
 30
0.0
 10
378.149432
 20
447.681625
 30
0.0
 10
378.634546
 20
446.881261
 30
0.0
  0
SPLINE
  5
3b3
100
AcDbEntity
  8
0
 62
7
100
AcDbSpline
 70
8
 71
3
 72
8
 73
4
 74
0
 40
0
 40
0
 40
0
 40
0
 40
1
 40
1
 40
1
 40
1
 10
378.634546
 20
446.881261
 30
0.0
 10
379.119659
 20
446.080896
 30
0.0
 10
380.185030
 20
444.533083
 30
0.0
 10
381.002064
 20
443.441677
 30
0.0
  0
SPLINE
  5
3b4
100
AcDbEntity
  8
0
 62
7
100
AcDbSpline
 70
8
 71
3
 72
8
 73
4
 74
0
 40
0
 40
0
 40
0
 40
0
 40
1
 40
1
 40
1
 40
1
 10
381.002064
 20
443.441677
 30
0.0
 10
381.819071
 20
442.350271
 30
0.0
 10
383.882583
 20
439.195115
 30
0.0
 10
385.587610
 20
436.430219
 30
0.0
  0
SPLINE
  5
3b5
100
AcDbEntity
  8
0
 62
7
100
AcDbSpline
 70
8
 71
3
 72
8
 73
4
 74
0
 40
0
 40
0
 40
0
 40
0
 40
1
 40
1
 40
1
 40
1
 10
385.587610
 20
436.430219
 30
0.0
 10
387.292638
 20
433.665323
 30
0.0
 10
390.142968
 20
429.267154
 30
0.0
 10
391.921683
 20
426.656511
 30
0.0
  0
SPLINE
  5
3b6
100
AcDbEntity
  8
0
 62
7
100
AcDbSpline
 70
8
 71
3
 72
8
 73
4
 74
0
 40
0
 40
0
 40
0
 40
0
 40
1
 40
1
 40
1
 40
1
 10
391.921683
 20
426.656511
 30
0.0
 10
394.795745
 20
422.438206
 30
0.0
 10
395.268238
 20
421.872130
 30
0.0
 10
396.166710
 20
421.570610
 30
0.0
  0
SPLINE
  5
3b7
100
AcDbEntity
  8
0
 62
7
100
AcDbSpline
 70
8
 71
3
 72
8
 73
4
 74
0
 40
0
 40
0
 40
0
 40
0
 40
1
 40
1
 40
1
 40
1
 10
396.166710
 20
421.570610
 30
0.0
 10
396.722759
 20
421.384026
 30
0.0
 10
397.654489
 20
420.853722
 30
0.0
 10
398.237260
 20
420.392156
 30
0.0
  0
SPLINE
  5
3b8
100
AcDbEntity
  8
0
 62
7
100
AcDbSpline
 70
8
 71
3
 72
8
 73
4
 74
0
 40
0
 40
0
 40
0
 40
0
 40
1
 40
1
 40
1
 40
1
 10
398.237260
 20
420.392156
 30
0.0
 10
399.227622
 20
419.607772
 30
0.0
 10
399.481225
 20
419.540780
 30
0.0
 10
402.121053
 20
419.366446
 30
0.0
  0
SPLINE
  5
3b9
100
AcDbEntity
  8
0
 62
7
100
AcDbSpline
 70
8
 71
3
 72
8
 73
4
 74
0
 40
0
 40
0
 40
0
 40
0
 40
1
 40
1
 40
1
 40
1
 10
402.121053
 20
419.366446
 30
0.0
 10
408.003269
 20
418.977932
 30
0.0
 10
407.815283
 20
418.954596
 30
0.0
 10
408.663458
 20
420.178505
 30
0.0
  0
LWPOLYLINE
  5
3ba
100
AcDbEntity
  8
0
 62
7
100
AcDbPolyline
 90
3
 70
0
 10
367.928790
 20
469.411113
 30
0.0
 10
369.971796
 20
461.646201
 30
0.0
 10
372.723093
 20
456.446530
 30
0.0
  0
SPLINE
  5
3bb
100
AcDbEntity
  8
0
 62
7
100
AcDbSpline
 70
8
 71
3
 72
8
 73
4
 74
0
 40
0
 40
0
 40
0
 40
0
 40
1
 40
1
 40
1
 40
1
 10
252.941608
 20
446.128865
 30
0.0
 10
255.365642
 20
447.254799
 30
0.0
 10
259.027078
 20
449.440655
 30
0.0
 10
259.027078
 20
449.761885
 30
0.0
  0
SPLINE
  5
3bc
100
AcDbEntity
  8
0
 62
7
100
AcDbSpline
 70
8
 71
3
 72
8
 73
4
 74
0
 40
0
 40
0
 40
0
 40
0
 40
1
 40
1
 40
1
 40
1
 10
259.027078
 20
449.761885
 30
0.0
 10
259.027078
 20
449.932197
 30
0.0
 10
247.022165
 20
450.596857
 30
0.0
 10
244.098757
 20
450.588417
 30
0.0
  0
LWPOLYLINE
  5
3bd
100
AcDbEntity
  8
0
 62
7
100
AcDbPolyline
 90
2
 70
0
 10
408.663458
 20
420.178505
 30
0.0
 10
408.662955
 20
420.178505
 30
0.0
  0
SPLINE
  5
3be
100
AcDbEntity
  8
0
 62
7
100
AcDbSpline
 70
8
 71
3
 72
8
 73
4
 74
0
 40
0
 40
0
 40
0
 40
0
 40
1
 40
1
 40
1
 40
1
 10
246.083132
 20
447.684297
 30
0.0
 10
249.573859
 20
444.333217
 30
0.0
 10
249.238976
 20
444.409153
 30
0.0
 10
252.941608
 20
446.128971
 30
0.0
  0
LWPOLYLINE
  5
3bf
100
AcDbEntity
  8
0
 62
7
100
AcDbPolyline
 90
3
 70
0
 10
244.098757
 20
450.588417
 30
0.0
 10
243.061035
 20
450.585507
 30
0.0
 10
246.083132
 20
447.684297
 30
0.0
  0
SPLINE
  5
3c0
100
AcDbEntity
  8
0
 62
7
100
AcDbSpline
 70
8
 71
3
 72
8
 73
4
 74
0
 40
0
 40
0
 40
0
 40
0
 40
1
 40
1
 40
1
 40
1
 10
512.930801
 20
450.505311
 30
0.0
 10
512.822402
 20
450.613711
 30
0.0
 10
512.622959
 20
450.527272
 30
0.0
 10
512.487571
 20
450.313171
 30
0.0
  0
SPLINE
  5
3c1
100
AcDbEntity
  8
0
 62
7
100
AcDbSpline
 70
8
 71
3
 72
8
 73
4
 74
0
 40
0
 40
0
 40
0
 40
0
 40
1
 40
1
 40
1
 40
1
 10
512.487571
 20
450.313171
 30
0.0
 10
512.080219
 20
449.669016
 30
0.0
 10
512.202404
 20
449.382764
 30
0.0
 10
512.680611
 20
449.860972
 30
0.0
  0
SPLINE
  5
3c2
100
AcDbEntity
  8
0
 62
7
100
AcDbSpline
 70
8
 71
3
 72
8
 73
4
 74
0
 40
0
 40
0
 40
0
 40
0
 40
1
 40
1
 40
1
 40
1
 10
512.680611
 20
449.860972
 30
0.0
 10
512.926595
 20
450.106955
 30
0.0
 10
513.039201
 20
450.396912
 30
0.0
 10
512.930801
 20
450.505311
 30
0.0
  0
LWPOLYLINE
  5
3c3
100
AcDbEntity
  8
0
 62
7
100
AcDbPolyline
 90
2
 70
0
 10
252.941608
 20
446.128971
 30
0.0
 10
252.941608
 20
446.128865
 30
0.0
  0
SPLINE
  5
3c4
100
AcDbEntity
  8
0
 62
7
100
AcDbSpline
 70
8
 71
3
 72
8
 73
4
 74
0
 40
0
 40
0
 40
0
 40
0
 40
1
 40
1
 40
1
 40
1
 10
555.360417
 20
453.760427
 30
0.0
 10
555.686939
 20
454.633552
 30
0.0
 10
556.001476
 20
455.347927
 30
0.0
 10
556.059393
 20
455.347927
 30
0.0
  0
SPLINE
  5
3c5
100
AcDbEntity
  8
0
 62
7
100
AcDbSpline
 70
8
 71
3
 72
8
 73
4
 74
0
 40
0
 40
0
 40
0
 40
0
 40
1
 40
1
 40
1
 40
1
 10
556.059393
 20
455.347927
 30
0.0
 10
556.117310
 20
455.347927
 30
0.0
 10
556.658357
 20
455.036275
 30
0.0
 10
557.261712
 20
454.655380
 30
0.0
  0
SPLINE
  5
3c6
100
AcDbEntity
  8
0
 62
7
100
AcDbSpline
 70
8
 71
3
 72
8
 73
4
 74
0
 40
0
 40
0
 40
0
 40
0
 40
1
 40
1
 40
1
 40
1
 10
557.261712
 20
454.655380
 30
0.0
 10
558.863553
 20
453.644196
 30
0.0
 10
560.041081
 20
453.563101
 30
0.0
 10
561.539575
 20
454.360820
 30
0.0
  0
SPLINE
  5
3c7
100
AcDbEntity
  8
0
 62
7
100
AcDbSpline
 70
8
 71
3
 72
8
 73
4
 74
0
 40
0
 40
0
 40
0
 40
0
 40
1
 40
1
 40
1
 40
1
 10
561.539575
 20
454.360820
 30
0.0
 10
562.220084
 20
454.723061
 30
0.0
 10
563.697755
 20
455.285512
 30
0.0
 10
564.823319
 20
455.610685
 30
0.0
  0
LWPOLYLINE
  5
3c8
100
AcDbEntity
  8
0
 62
7
100
AcDbPolyline
 90
1
 70
1
 10
512.930801
 20
450.505311
 30
0.0
  0
SPLINE
  5
3c9
100
AcDbEntity
  8
0
 62
7
100
AcDbSpline
 70
8
 71
3
 72
8
 73
4
 74
0
 40
0
 40
0
 40
0
 40
0
 40
1
 40
1
 40
1
 40
1
 10
564.488542
 20
458.520070
 30
0.0
 10
562.658921
 20
460.301218
 30
0.0
 10
561.884512
 20
460.877957
 30
0.0
 10
561.145584
 20
461.009772
 30
0.0
  0
SPLINE
  5
3ca
100
AcDbEntity
  8
0
 62
7
100
AcDbSpline
 70
8
 71
3
 72
8
 73
4
 74
0
 40
0
 40
0
 40
0
 40
0
 40
1
 40
1
 40
1
 40
1
 10
561.145584
 20
461.009772
 30
0.0
 10
560.240048
 20
461.171274
 30
0.0
 10
559.729322
 20
461.469010
 30
0.0
 10
557.015121
 20
463.417719
 30
0.0
  0
SPLINE
  5
3cb
100
AcDbEntity
  8
0
 62
7
100
AcDbSpline
 70
8
 71
3
 72
8
 73
4
 74
0
 40
0
 40
0
 40
0
 40
0
 40
1
 40
1
 40
1
 40
1
 10
557.015121
 20
463.417719
 30
0.0
 10
555.949115
 20
464.183053
 30
0.0
 10
555.784491
 20
464.513411
 30
0.0
 10
555.541259
 20
466.375231
 30
0.0
  0
SPLINE
  5
3cc
100
AcDbEntity
  8
0
 62
7
100
AcDbSpline
 70
8
 71
3
 72
8
 73
4
 74
0
 40
0
 40
0
 40
0
 40
0
 40
1
 40
1
 40
1
 40
1
 10
555.541259
 20
466.375231
 30
0.0
 10
555.499402
 20
466.695695
 30
0.0
 10
554.591114
 20
467.745456
 30
0.0
 10
553.494972
 20
468.740236
 30
0.0
  0
SPLINE
  5
3cd
100
AcDbEntity
  8
0
 62
7
100
AcDbSpline
 70
8
 71
3
 72
8
 73
4
 74
0
 40
0
 40
0
 40
0
 40
0
 40
1
 40
1
 40
1
 40
1
 10
553.494972
 20
468.740236
 30
0.0
 10
552.410921
 20
469.724063
 30
0.0
 10
551.136132
 20
470.887938
 30
0.0
 10
550.662105
 20
471.326644
 30
0.0
  0
LWPOLYLINE
  5
3ce
100
AcDbEntity
  8
0
 62
7
100
AcDbPolyline
 90
3
 70
0
 10
564.823319
 20
455.610685
 30
0.0
 10
566.869792
 20
456.201896
 30
0.0
 10
564.488542
 20
458.520070
 30
0.0
  0
SPLINE
  5
3cf
100
AcDbEntity
  8
0
 62
7
100
AcDbSpline
 70
8
 71
3
 72
8
 73
4
 74
0
 40
0
 40
0
 40
0
 40
0
 40
1
 40
1
 40
1
 40
1
 10
548.399547
 20
471.685948
 30
0.0
 10
548.485034
 20
472.449932
 30
0.0
 10
548.487997
 20
473.075011
 30
0.0
 10
548.406161
 20
473.075011
 30
0.0
  0
SPLINE
  5
3d0
100
AcDbEntity
  8
0
 62
7
100
AcDbSpline
 70
8
 71
3
 72
8
 73
4
 74
0
 40
0
 40
0
 40
0
 40
0
 40
1
 40
1
 40
1
 40
1
 10
548.406161
 20
473.075011
 30
0.0
 10
548.324326
 20
473.075011
 30
0.0
 10
547.900172
 20
472.717823
 30
0.0
 10
547.463610
 20
472.281261
 30
0.0
  0
SPLINE
  5
3d1
100
AcDbEntity
  8
0
 62
7
100
AcDbSpline
 70
8
 71
3
 72
8
 73
4
 74
0
 40
0
 40
0
 40
0
 40
0
 40
1
 40
1
 40
1
 40
1
 10
547.463610
 20
472.281261
 30
0.0
 10
546.336061
 20
471.153712
 30
0.0
 10
545.333370
 20
471.214064
 30
0.0
 10
543.911287
 20
472.495123
 30
0.0
  0
SPLINE
  5
3d2
100
AcDbEntity
  8
0
 62
7
100
AcDbSpline
 70
8
 71
3
 72
8
 73
4
 74
0
 40
0
 40
0
 40
0
 40
0
 40
1
 40
1
 40
1
 40
1
 10
543.911287
 20
472.495123
 30
0.0
 10
542.075291
 20
474.148981
 30
0.0
 10
541.300326
 20
474.662511
 30
0.0
 10
540.640349
 20
474.662511
 30
0.0
  0
SPLINE
  5
3d3
100
AcDbEntity
  8
0
 62
7
100
AcDbSpline
 70
8
 71
3
 72
8
 73
4
 74
0
 40
0
 40
0
 40
0
 40
0
 40
1
 40
1
 40
1
 40
1
 10
540.640349
 20
474.662511
 30
0.0
 10
540.132588
 20
474.662511
 30
0.0
 10
540.014583
 20
474.801073
 30
0.0
 10
540.014583
 20
475.397391
 30
0.0
  0
SPLINE
  5
3d4
100
AcDbEntity
  8
0
 62
7
100
AcDbSpline
 70
8
 71
3
 72
8
 73
4
 74
0
 40
0
 40
0
 40
0
 40
0
 40
1
 40
1
 40
1
 40
1
 10
540.014583
 20
475.397391
 30
0.0
 10
540.014583
 20
476.228976
 30
0.0
 10
539.359898
 20
477.308344
 30
0.0
 10
538.855523
 20
477.308344
 30
0.0
  0
SPLINE
  5
3d5
100
AcDbEntity
  8
0
 62
7
100
AcDbSpline
 70
8
 71
3
 72
8
 73
4
 74
0
 40
0
 40
0
 40
0
 40
0
 40
1
 40
1
 40
1
 40
1
 10
538.855523
 20
477.308344
 30
0.0
 10
538.671109
 20
477.308344
 30
0.0
 10
537.937736
 20
476.894192
 30
0.0
 10
537.225796
 20
476.388017
 30
0.0
  0
SPLINE
  5
3d6
100
AcDbEntity
  8
0
 62
7
100
AcDbSpline
 70
8
 71
3
 72
8
 73
4
 74
0
 40
0
 40
0
 40
0
 40
0
 40
1
 40
1
 40
1
 40
1
 10
537.225796
 20
476.388017
 30
0.0
 10
536.071286
 20
475.567200
 30
0.0
 10
535.873193
 20
475.506320
 30
0.0
 10
535.393291
 20
475.824719
 30
0.0
  0
SPLINE
  5
3d7
100
AcDbEntity
  8
0
 62
7
100
AcDbSpline
 70
8
 71
3
 72
8
 73
4
 74
0
 40
0
 40
0
 40
0
 40
0
 40
1
 40
1
 40
1
 40
1
 10
535.393291
 20
475.824719
 30
0.0
 10
535.038062
 20
476.060410
 30
0.0
 10
534.793746
 20
476.608283
 30
0.0
 10
534.674366
 20
477.436852
 30
0.0
  0
SPLINE
  5
3d8
100
AcDbEntity
  8
0
 62
7
100
AcDbSpline
 70
8
 71
3
 72
8
 73
4
 74
0
 40
0
 40
0
 40
0
 40
0
 40
1
 40
1
 40
1
 40
1
 10
534.674366
 20
477.436852
 30
0.0
 10
534.461085
 20
478.917090
 30
0.0
 10
533.771766
 20
479.749945
 30
0.0
 10
532.023346
 20
480.639977
 30
0.0
  0
SPLINE
  5
3d9
100
AcDbEntity
  8
0
 62
7
100
AcDbSpline
 70
8
 71
3
 72
8
 73
4
 74
0
 40
0
 40
0
 40
0
 40
0
 40
1
 40
1
 40
1
 40
1
 10
532.023346
 20
480.639977
 30
0.0
 10
530.111282
 20
481.613326
 30
0.0
 10
529.431250
 20
482.486716
 30
0.0
 10
529.431250
 20
483.969124
 30
0.0
  0
SPLINE
  5
3da
100
AcDbEntity
  8
0
 62
7
100
AcDbSpline
 70
8
 71
3
 72
8
 73
4
 74
0
 40
0
 40
0
 40
0
 40
0
 40
1
 40
1
 40
1
 40
1
 10
529.431250
 20
483.969124
 30
0.0
 10
529.431250
 20
484.652384
 30
0.0
 10
529.554731
 20
485.536171
 30
0.0
 10
529.705676
 20
485.933152
 30
0.0
  0
SPLINE
  5
3db
100
AcDbEntity
  8
0
 62
7
100
AcDbSpline
 70
8
 71
3
 72
8
 73
4
 74
0
 40
0
 40
0
 40
0
 40
0
 40
1
 40
1
 40
1
 40
1
 10
529.705676
 20
485.933152
 30
0.0
 10
529.870538
 20
486.366831
 30
0.0
 10
529.883952
 20
486.751037
 30
0.0
 10
529.739278
 20
486.895733
 30
0.0
  0
SPLINE
  5
3dc
100
AcDbEntity
  8
0
 62
7
100
AcDbSpline
 70
8
 71
3
 72
8
 73
4
 74
0
 40
0
 40
0
 40
0
 40
0
 40
1
 40
1
 40
1
 40
1
 10
529.739278
 20
486.895733
 30
0.0
 10
529.594577
 20
487.040425
 30
0.0
 10
529.368279
 20
486.415990
 30
0.0
 10
529.172329
 20
485.331304
 30
0.0
  0
SPLINE
  5
3dd
100
AcDbEntity
  8
0
 62
7
100
AcDbSpline
 70
8
 71
3
 72
8
 73
4
 74
0
 40
0
 40
0
 40
0
 40
0
 40
1
 40
1
 40
1
 40
1
 10
529.172329
 20
485.331304
 30
0.0
 10
528.607549
 20
482.204935
 30
0.0
 10
523.212642
 20
469.269482
 30
0.0
 10
520.194937
 20
463.806021
 30
0.0
  0
SPLINE
  5
3de
100
AcDbEntity
  8
0
 62
7
100
AcDbSpline
 70
8
 71
3
 72
8
 73
4
 74
0
 40
0
 40
0
 40
0
 40
0
 40
1
 40
1
 40
1
 40
1
 10
520.194937
 20
463.806021
 30
0.0
 10
518.750735
 20
461.191356
 30
0.0
 10
517.673616
 20
459.052094
 30
0.0
 10
517.801331
 20
459.052094
 30
0.0
  0
SPLINE
  5
3df
100
AcDbEntity
  8
0
 62
7
100
AcDbSpline
 70
8
 71
3
 72
8
 73
4
 74
0
 40
0
 40
0
 40
0
 40
0
 40
1
 40
1
 40
1
 40
1
 10
517.801331
 20
459.052094
 30
0.0
 10
518.244058
 20
459.052094
 30
0.0
 10
519.034607
 20
460.129954
 30
0.0
 10
519.340359
 20
461.150478
 30
0.0
  0
SPLINE
  5
3e0
100
AcDbEntity
  8
0
 62
7
100
AcDbSpline
 70
8
 71
3
 72
8
 73
4
 74
0
 40
0
 40
0
 40
0
 40
0
 40
1
 40
1
 40
1
 40
1
 10
519.340359
 20
461.150478
 30
0.0
 10
519.584093
 20
461.964045
 30
0.0
 10
519.751654
 20
462.148777
 30
0.0
 10
520.151095
 20
462.044320
 30
0.0
  0
SPLINE
  5
3e1
100
AcDbEntity
  8
0
 62
7
100
AcDbSpline
 70
8
 71
3
 72
8
 73
4
 74
0
 40
0
 40
0
 40
0
 40
0
 40
1
 40
1
 40
1
 40
1
 10
520.151095
 20
462.044320
 30
0.0
 10
520.996598
 20
461.823207
 30
0.0
 10
521.659379
 20
460.863828
 30
0.0
 10
522.386719
 20
458.808201
 30
0.0
  0
SPLINE
  5
3e2
100
AcDbEntity
  8
0
 62
7
100
AcDbSpline
 70
8
 71
3
 72
8
 73
4
 74
0
 40
0
 40
0
 40
0
 40
0
 40
1
 40
1
 40
1
 40
1
 10
522.386719
 20
458.808201
 30
0.0
 10
523.332445
 20
456.135301
 30
0.0
 10
523.689130
 20
455.777955
 30
0.0
 10
525.197229
 20
455.992479
 30
0.0
  0
SPLINE
  5
3e3
100
AcDbEntity
  8
0
 62
7
100
AcDbSpline
 70
8
 71
3
 72
8
 73
4
 74
0
 40
0
 40
0
 40
0
 40
0
 40
1
 40
1
 40
1
 40
1
 10
525.197229
 20
455.992479
 30
0.0
 10
528.446153
 20
456.454626
 30
0.0
 10
528.740105
 20
456.438143
 30
0.0
 10
531.098813
 20
455.661644
 30
0.0
  0
SPLINE
  5
3e4
100
AcDbEntity
  8
0
 62
7
100
AcDbSpline
 70
8
 71
3
 72
8
 73
4
 74
0
 40
0
 40
0
 40
0
 40
0
 40
1
 40
1
 40
1
 40
1
 10
531.098813
 20
455.661644
 30
0.0
 10
534.111041
 20
454.669985
 30
0.0
 10
535.178582
 20
454.812464
 30
0.0
 10
536.663530
 20
456.404435
 30
0.0
  0
LWPOLYLINE
  5
3e5
100
AcDbEntity
  8
0
 62
7
100
AcDbPolyline
 90
5
 70
0
 10
550.662105
 20
471.326644
 30
0.0
 10
549.800251
 20
472.124283
 30
0.0
 10
549.022191
 20
471.210571
 30
0.0
 10
548.244157
 20
470.296886
 30
0.0
 10
548.399547
 20
471.685948
 30
0.0
  0
SPLINE
  5
3e6
100
AcDbEntity
  8
0
 62
7
100
AcDbSpline
 70
8
 71
3
 72
8
 73
4
 74
0
 40
0
 40
0
 40
0
 40
0
 40
1
 40
1
 40
1
 40
1
 10
540.126820
 20
456.280504
 30
0.0
 10
540.711681
 20
457.173102
 30
0.0
 10
542.008695
 20
457.728013
 30
0.0
 10
542.903939
 20
457.468616
 30
0.0
  0
SPLINE
  5
3e7
100
AcDbEntity
  8
0
 62
7
100
AcDbSpline
 70
8
 71
3
 72
8
 73
4
 74
0
 40
0
 40
0
 40
0
 40
0
 40
1
 40
1
 40
1
 40
1
 10
542.903939
 20
457.468616
 30
0.0
 10
543.279330
 20
457.359872
 30
0.0
 10
544.400026
 20
456.838219
 30
0.0
 10
545.394383
 20
456.309397
 30
0.0
  0
SPLINE
  5
3e8
100
AcDbEntity
  8
0
 62
7
100
AcDbSpline
 70
8
 71
3
 72
8
 73
4
 74
0
 40
0
 40
0
 40
0
 40
0
 40
1
 40
1
 40
1
 40
1
 10
545.394383
 20
456.309397
 30
0.0
 10
547.438580
 20
455.222250
 30
0.0
 10
548.223361
 20
455.134012
 30
0.0
 10
549.543711
 20
455.842883
 30
0.0
  0
LWPOLYLINE
  5
3e9
100
AcDbEntity
  8
0
 62
7
100
AcDbPolyline
 90
5
 70
0
 10
536.663530
 20
456.404435
 30
0.0
 10
537.695749
 20
457.511028
 30
0.0
 10
538.682856
 20
456.547125
 30
0.0
 10
539.669964
 20
455.583248
 30
0.0
 10
540.126820
 20
456.280504
 30
0.0
  0
SPLINE
  5
3ea
100
AcDbEntity
  8
0
 62
7
100
AcDbSpline
 70
8
 71
3
 72
8
 73
4
 74
0
 40
0
 40
0
 40
0
 40
0
 40
1
 40
1
 40
1
 40
1
 10
551.720015
 20
454.596696
 30
0.0
 10
552.893045
 20
452.968450
 30
0.0
 10
553.762704
 20
452.204466
 30
0.0
 10
554.468268
 20
452.182294
 30
0.0
  0
SPLINE
  5
3eb
100
AcDbEntity
  8
0
 62
7
100
AcDbSpline
 70
8
 71
3
 72
8
 73
4
 74
0
 40
0
 40
0
 40
0
 40
0
 40
1
 40
1
 40
1
 40
1
 10
554.468268
 20
452.182294
 30
0.0
 10
554.632416
 20
452.177002
 30
0.0
 10
555.033894
 20
452.887302
 30
0.0
 10
555.360417
 20
453.760427
 30
0.0
  0
LWPOLYLINE
  5
3ec
100
AcDbEntity
  8
0
 62
7
100
AcDbPolyline
 90
3
 70
0
 10
549.543711
 20
455.842883
 30
0.0
 10
550.465625
 20
456.337839
 30
0.0
 10
551.720015
 20
454.596696
 30
0.0
  0
SPLINE
  5
3ed
100
AcDbEntity
  8
0
 62
7
100
AcDbSpline
 70
8
 71
3
 72
8
 73
4
 74
0
 40
0
 40
0
 40
0
 40
0
 40
1
 40
1
 40
1
 40
1
 10
237.198953
 20
456.934792
 30
0.0
 10
238.072078
 20
457.078276
 30
0.0
 10
242.060672
 20
457.320555
 30
0.0
 10
246.062495
 20
457.473166
 30
0.0
  0
SPLINE
  5
3ee
100
AcDbEntity
  8
0
 62
7
100
AcDbSpline
 70
8
 71
3
 72
8
 73
4
 74
0
 40
0
 40
0
 40
0
 40
0
 40
1
 40
1
 40
1
 40
1
 10
246.062495
 20
457.473166
 30
0.0
 10
253.930330
 20
457.773177
 30
0.0
 10
258.032351
 20
458.205745
 30
0.0
 10
261.143745
 20
459.063497
 30
0.0
  0
SPLINE
  5
3ef
100
AcDbEntity
  8
0
 62
7
100
AcDbSpline
 70
8
 71
3
 72
8
 73
4
 74
0
 40
0
 40
0
 40
0
 40
0
 40
1
 40
1
 40
1
 40
1
 10
261.143745
 20
459.063497
 30
0.0
 10
265.238759
 20
460.192395
 30
0.0
 10
269.158641
 20
462.618730
 30
0.0
 10
271.337352
 20
465.373175
 30
0.0
  0
LWPOLYLINE
  5
3f0
100
AcDbEntity
  8
0
 62
7
100
AcDbPolyline
 90
1
 70
1
 10
555.360417
 20
453.760427
 30
0.0
  0
SPLINE
  5
3f1
100
AcDbEntity
  8
0
 62
7
100
AcDbSpline
 70
8
 71
3
 72
8
 73
4
 74
0
 40
0
 40
0
 40
0
 40
0
 40
1
 40
1
 40
1
 40
1
 10
272.256250
 20
471.106881
 30
0.0
 10
272.256250
 20
473.621481
 30
0.0
 10
272.505964
 20
479.468561
 30
0.0
 10
272.811134
 20
484.100383
 30
0.0
  0
SPLINE
  5
3f2
100
AcDbEntity
  8
0
 62
7
100
AcDbSpline
 70
8
 71
3
 72
8
 73
4
 74
0
 40
0
 40
0
 40
0
 40
0
 40
1
 40
1
 40
1
 40
1
 10
272.811134
 20
484.100383
 30
0.0
 10
273.431873
 20
493.521156
 30
0.0
 10
273.376549
 20
502.900445
 30
0.0
 10
272.676646
 20
506.902657
 30
0.0
  0
SPLINE
  5
3f3
100
AcDbEntity
  8
0
 62
7
100
AcDbSpline
 70
8
 71
3
 72
8
 73
4
 74
0
 40
0
 40
0
 40
0
 40
0
 40
1
 40
1
 40
1
 40
1
 10
272.676646
 20
506.902657
 30
0.0
 10
272.464080
 20
508.118129
 30
0.0
 10
272.252784
 20
509.147069
 30
0.0
 10
272.207064
 20
509.189191
 30
0.0
  0
SPLINE
  5
3f4
100
AcDbEntity
  8
0
 62
7
100
AcDbSpline
 70
8
 71
3
 72
8
 73
4
 74
0
 40
0
 40
0
 40
0
 40
0
 40
1
 40
1
 40
1
 40
1
 10
272.207064
 20
509.189191
 30
0.0
 10
272.161344
 20
509.231315
 30
0.0
 10
271.356905
 20
509.367933
 30
0.0
 10
270.419407
 20
509.492784
 30
0.0
  0
LWPOLYLINE
  5
3f5
100
AcDbEntity
  8
0
 62
7
100
AcDbPolyline
 90
3
 70
0
 10
271.337352
 20
465.373175
 30
0.0
 10
272.256250
 20
466.534881
 30
0.0
 10
272.256250
 20
471.106881
 30
0.0
  0
SPLINE
  5
3f6
100
AcDbEntity
  8
0
 62
7
100
AcDbSpline
 70
8
 71
3
 72
8
 73
4
 74
0
 40
0
 40
0
 40
0
 40
0
 40
1
 40
1
 40
1
 40
1
 10
269.523633
 20
510.645833
 30
0.0
 10
273.003883
 20
514.630778
 30
0.0
 10
275.184023
 20
520.131156
 30
0.0
 10
275.156030
 20
524.856033
 30
0.0
  0
LWPOLYLINE
  5
3f7
100
AcDbEntity
  8
0
 62
7
100
AcDbPolyline
 90
3
 70
0
 10
270.419407
 20
509.492784
 30
0.0
 10
268.714881
 20
509.719792
 30
0.0
 10
269.523633
 20
510.645833
 30
0.0
  0
SPLINE
  5
3f8
100
AcDbEntity
  8
0
 62
7
100
AcDbSpline
 70
8
 71
3
 72
8
 73
4
 74
0
 40
0
 40
0
 40
0
 40
0
 40
1
 40
1
 40
1
 40
1
 10
230.104892
 20
510.656964
 30
0.0
 10
223.001649
 20
508.292201
 30
0.0
 10
217.161316
 20
506.399557
 30
0.0
 10
217.126365
 20
506.451092
 30
0.0
  0
SPLINE
  5
3f9
100
AcDbEntity
  8
0
 62
7
100
AcDbSpline
 70
8
 71
3
 72
8
 73
4
 74
0
 40
0
 40
0
 40
0
 40
0
 40
1
 40
1
 40
1
 40
1
 10
217.126365
 20
506.451092
 30
0.0
 10
215.373686
 20
509.035905
 30
0.0
 10
215.561619
 20
511.448995
 30
0.0
 10
217.659024
 20
513.290547
 30
0.0
  0
SPLINE
  5
3fa
100
AcDbEntity
  8
0
 62
7
100
AcDbSpline
 70
8
 71
3
 72
8
 73
4
 74
0
 40
0
 40
0
 40
0
 40
0
 40
1
 40
1
 40
1
 40
1
 10
217.659024
 20
513.290547
 30
0.0
 10
219.367994
 20
514.791052
 30
0.0
 10
221.327763
 20
515.598079
 30
0.0
 10
232.458149
 20
519.384799
 30
0.0
  0
SPLINE
  5
3fb
100
AcDbEntity
  8
0
 62
7
100
AcDbSpline
 70
8
 71
3
 72
8
 73
4
 74
0
 40
0
 40
0
 40
0
 40
0
 40
1
 40
1
 40
1
 40
1
 10
232.458149
 20
519.384799
 30
0.0
 10
240.564241
 20
522.142612
 30
0.0
 10
243.291434
 20
523.247969
 30
0.0
 10
248.179241
 20
525.756709
 30
0.0
  0
SPLINE
  5
3fc
100
AcDbEntity
  8
0
 62
7
100
AcDbSpline
 70
8
 71
3
 72
8
 73
4
 74
0
 40
0
 40
0
 40
0
 40
0
 40
1
 40
1
 40
1
 40
1
 10
248.179241
 20
525.756709
 30
0.0
 10
261.689580
 20
532.691075
 30
0.0
 10
269.113979
 20
543.095415
 30
0.0
 10
271.029483
 20
557.778367
 30
0.0
  0
LWPOLYLINE
  5
3fd
100
AcDbEntity
  8
0
 62
7
100
AcDbPolyline
 90
7
 70
0
 10
275.156030
 20
524.856033
 30
0.0
 10
275.145447
 20
526.653125
 30
0.0
 10
273.559958
 20
528.038340
 30
0.0
 10
271.974469
 20
529.423556
 30
0.0
 10
257.497178
 20
522.190046
 30
0.0
 10
243.019866
 20
514.956536
 30
0.0
 10
230.104892
 20
510.656964
 30
0.0
  0
SPLINE
  5
3fe
100
AcDbEntity
  8
0
 62
7
100
AcDbSpline
 70
8
 71
3
 72
8
 73
4
 74
0
 40
0
 40
0
 40
0
 40
0
 40
1
 40
1
 40
1
 40
1
 10
270.401336
 20
559.989601
 30
0.0
 10
266.162155
 20
558.493930
 30
0.0
 10
262.780193
 20
555.169684
 30
0.0
 10
258.617953
 20
548.407307
 30
0.0
  0
SPLINE
  5
3ff
100
AcDbEntity
  8
0
 62
7
100
AcDbSpline
 70
8
 71
3
 72
8
 73
4
 74
0
 40
0
 40
0
 40
0
 40
0
 40
1
 40
1
 40
1
 40
1
 10
258.617953
 20
548.407307
 30
0.0
 10
257.760862
 20
547.014834
 30
0.0
 10
256.963593
 20
545.934889
 30
0.0
 10
256.846223
 20
546.007436
 30
0.0
  0
SPLINE
  5
400
100
AcDbEntity
  8
0
 62
7
100
AcDbSpline
 70
8
 71
3
 72
8
 73
4
 74
0
 40
0
 40
0
 40
0
 40
0
 40
1
 40
1
 40
1
 40
1
 10
256.846223
 20
546.007436
 30
0.0
 10
256.728828
 20
546.079979
 30
0.0
 10
256.665513
 20
546.020771
 30
0.0
 10
256.705492
 20
545.875869
 30
0.0
  0
SPLINE
  5
401
100
AcDbEntity
  8
0
 62
7
100
AcDbSpline
 70
8
 71
3
 72
8
 73
4
 74
0
 40
0
 40
0
 40
0
 40
0
 40
1
 40
1
 40
1
 40
1
 10
256.705492
 20
545.875869
 30
0.0
 10
256.833947
 20
545.410432
 30
0.0
 10
254.424386
 20
542.420201
 30
0.0
 10
253.603199
 20
542.025948
 30
0.0
  0
SPLINE
  5
402
100
AcDbEntity
  8
0
 62
7
100
AcDbSpline
 70
8
 71
3
 72
8
 73
4
 74
0
 40
0
 40
0
 40
0
 40
0
 40
1
 40
1
 40
1
 40
1
 10
253.603199
 20
542.025948
 30
0.0
 10
253.013416
 20
541.742789
 30
0.0
 10
252.503511
 20
541.704395
 30
0.0
 10
251.618824
 20
541.876536
 30
0.0
  0
SPLINE
  5
403
100
AcDbEntity
  8
0
 62
7
100
AcDbSpline
 70
8
 71
3
 72
8
 73
4
 74
0
 40
0
 40
0
 40
0
 40
0
 40
1
 40
1
 40
1
 40
1
 10
251.618824
 20
541.876536
 30
0.0
 10
249.920781
 20
542.206937
 30
0.0
 10
247.787525
 20
542.182529
 30
0.0
 10
246.999940
 20
541.823688
 30
0.0
  0
SPLINE
  5
404
100
AcDbEntity
  8
0
 62
7
100
AcDbSpline
 70
8
 71
3
 72
8
 73
4
 74
0
 40
0
 40
0
 40
0
 40
0
 40
1
 40
1
 40
1
 40
1
 10
246.999940
 20
541.823688
 30
0.0
 10
245.995635
 20
541.366096
 30
0.0
 10
245.933987
 20
541.682662
 30
0.0
 10
246.750808
 20
543.102665
 30
0.0
  0
SPLINE
  5
405
100
AcDbEntity
  8
0
 62
7
100
AcDbSpline
 70
8
 71
3
 72
8
 73
4
 74
0
 40
0
 40
0
 40
0
 40
0
 40
1
 40
1
 40
1
 40
1
 10
246.750808
 20
543.102665
 30
0.0
 10
249.015642
 20
547.039985
 30
0.0
 10
251.243539
 20
549.840523
 30
0.0
 10
257.425714
 20
556.521353
 30
0.0
  0
SPLINE
  5
406
100
AcDbEntity
  8
0
 62
7
100
AcDbSpline
 70
8
 71
3
 72
8
 73
4
 74
0
 40
0
 40
0
 40
0
 40
0
 40
1
 40
1
 40
1
 40
1
 10
257.425714
 20
556.521353
 30
0.0
 10
266.663514
 20
566.504243
 30
0.0
 10
269.139749
 20
569.422142
 30
0.0
 10
272.044054
 20
573.746910
 30
0.0
  0
SPLINE
  5
407
100
AcDbEntity
  8
0
 62
7
100
AcDbSpline
 70
8
 71
3
 72
8
 73
4
 74
0
 40
0
 40
0
 40
0
 40
0
 40
1
 40
1
 40
1
 40
1
 10
272.044054
 20
573.746910
 30
0.0
 10
274.893008
 20
577.989290
 30
0.0
 10
277.314237
 20
583.587132
 30
0.0
 10
278.021336
 20
587.566294
 30
0.0
  0
LWPOLYLINE
  5
408
100
AcDbEntity
  8
0
 62
7
100
AcDbPolyline
 90
3
 70
0
 10
271.029483
 20
557.778367
 30
0.0
 10
271.362196
 20
560.328609
 30
0.0
 10
270.401336
 20
559.989601
 30
0.0
  0
SPLINE
  5
409
100
AcDbEntity
  8
0
 62
7
100
AcDbSpline
 70
8
 71
3
 72
8
 73
4
 74
0
 40
0
 40
0
 40
0
 40
0
 40
1
 40
1
 40
1
 40
1
 10
277.486904
 20
588.492335
 30
0.0
 10
274.146142
 20
586.539811
 30
0.0
 10
266.926854
 20
579.764633
 30
0.0
 10
257.427592
 20
569.667017
 30
0.0
  0
SPLINE
  5
40a
100
AcDbEntity
  8
0
 62
7
100
AcDbSpline
 70
8
 71
3
 72
8
 73
4
 74
0
 40
0
 40
0
 40
0
 40
0
 40
1
 40
1
 40
1
 40
1
 10
257.427592
 20
569.667017
 30
0.0
 10
252.449166
 20
564.375022
 30
0.0
 10
248.299838
 20
560.596002
 30
0.0
 10
245.155212
 20
558.489919
 30
0.0
  0
SPLINE
  5
40b
100
AcDbEntity
  8
0
 62
7
100
AcDbSpline
 70
8
 71
3
 72
8
 73
4
 74
0
 40
0
 40
0
 40
0
 40
0
 40
1
 40
1
 40
1
 40
1
 10
245.155212
 20
558.489919
 30
0.0
 10
242.731205
 20
556.866462
 30
0.0
 10
239.745012
 20
555.239785
 30
0.0
 10
239.548850
 20
555.435945
 30
0.0
  0
SPLINE
  5
40c
100
AcDbEntity
  8
0
 62
7
100
AcDbSpline
 70
8
 71
3
 72
8
 73
4
 74
0
 40
0
 40
0
 40
0
 40
0
 40
1
 40
1
 40
1
 40
1
 10
239.548850
 20
555.435945
 30
0.0
 10
239.321837
 20
555.662970
 30
0.0
 10
240.274972
 20
559.456283
 30
0.0
 10
241.037607
 20
561.360860
 30
0.0
  0
SPLINE
  5
40d
100
AcDbEntity
  8
0
 62
7
100
AcDbSpline
 70
8
 71
3
 72
8
 73
4
 74
0
 40
0
 40
0
 40
0
 40
0
 40
1
 40
1
 40
1
 40
1
 10
241.037607
 20
561.360860
 30
0.0
 10
243.437193
 20
567.353558
 30
0.0
 10
247.995726
 20
572.745050
 30
0.0
 10
259.688616
 20
583.419945
 30
0.0
  0
SPLINE
  5
40e
100
AcDbEntity
  8
0
 62
7
100
AcDbSpline
 70
8
 71
3
 72
8
 73
4
 74
0
 40
0
 40
0
 40
0
 40
0
 40
1
 40
1
 40
1
 40
1
 10
259.688616
 20
583.419945
 30
0.0
 10
262.307991
 20
585.811270
 30
0.0
 10
266.034282
 20
589.376068
 30
0.0
 10
267.969259
 20
591.341718
 30
0.0
  0
LWPOLYLINE
  5
40f
100
AcDbEntity
  8
0
 62
7
100
AcDbPolyline
 90
3
 70
0
 10
278.021336
 20
587.566294
 30
0.0
 10
278.266922
 20
588.948210
 30
0.0
 10
277.486904
 20
588.492335
 30
0.0
  0
SPLINE
  5
410
100
AcDbEntity
  8
0
 62
7
100
AcDbSpline
 70
8
 71
3
 72
8
 73
4
 74
0
 40
0
 40
0
 40
0
 40
0
 40
1
 40
1
 40
1
 40
1
 10
232.351760
 20
590.327591
 30
0.0
 10
227.465567
 20
585.392967
 30
0.0
 10
225.213937
 20
583.447760
 30
0.0
 10
221.456245
 20
580.914867
 30
0.0
  0
SPLINE
  5
411
100
AcDbEntity
  8
0
 62
7
100
AcDbSpline
 70
8
 71
3
 72
8
 73
4
 74
0
 40
0
 40
0
 40
0
 40
0
 40
1
 40
1
 40
1
 40
1
 10
221.456245
 20
580.914867
 30
0.0
 10
217.442172
 20
578.209151
 30
0.0
 10
213.783328
 20
576.750847
 30
0.0
 10
213.783328
 20
577.856670
 30
0.0
  0
SPLINE
  5
412
100
AcDbEntity
  8
0
 62
7
100
AcDbSpline
 70
8
 71
3
 72
8
 73
4
 74
0
 40
0
 40
0
 40
0
 40
0
 40
1
 40
1
 40
1
 40
1
 10
213.783328
 20
577.856670
 30
0.0
 10
213.783328
 20
577.986247
 30
0.0
 10
214.551466
 20
578.662834
 30
0.0
 10
215.490287
 20
579.360194
 30
0.0
  0
SPLINE
  5
413
100
AcDbEntity
  8
0
 62
7
100
AcDbSpline
 70
8
 71
3
 72
8
 73
4
 74
0
 40
0
 40
0
 40
0
 40
0
 40
1
 40
1
 40
1
 40
1
 10
215.490287
 20
579.360194
 30
0.0
 10
217.245083
 20
580.663672
 30
0.0
 10
217.949590
 20
581.549724
 30
0.0
 10
217.635370
 20
582.058105
 30
0.0
  0
SPLINE
  5
414
100
AcDbEntity
  8
0
 62
7
100
AcDbSpline
 70
8
 71
3
 72
8
 73
4
 74
0
 40
0
 40
0
 40
0
 40
0
 40
1
 40
1
 40
1
 40
1
 10
217.635370
 20
582.058105
 30
0.0
 10
217.532580
 20
582.224433
 30
0.0
 10
216.645591
 20
582.348499
 30
0.0
 10
215.553655
 20
582.349285
 30
0.0
  0
SPLINE
  5
415
100
AcDbEntity
  8
0
 62
7
100
AcDbSpline
 70
8
 71
3
 72
8
 73
4
 74
0
 40
0
 40
0
 40
0
 40
0
 40
1
 40
1
 40
1
 40
1
 10
215.553655
 20
582.349285
 30
0.0
 10
214.507228
 20
582.350078
 30
0.0
 10
212.473350
 20
582.428633
 30
0.0
 10
211.033963
 20
582.523939
 30
0.0
  0
SPLINE
  5
416
100
AcDbEntity
  8
0
 62
7
100
AcDbSpline
 70
8
 71
3
 72
8
 73
4
 74
0
 40
0
 40
0
 40
0
 40
0
 40
1
 40
1
 40
1
 40
1
 10
211.033963
 20
582.523939
 30
0.0
 10
207.974983
 20
582.726482
 30
0.0
 10
207.997631
 20
582.803122
 30
0.0
 10
211.618745
 20
584.502432
 30
0.0
  0
SPLINE
  5
417
100
AcDbEntity
  8
0
 62
7
100
AcDbSpline
 70
8
 71
3
 72
8
 73
4
 74
0
 40
0
 40
0
 40
0
 40
0
 40
1
 40
1
 40
1
 40
1
 10
211.618745
 20
584.502432
 30
0.0
 10
213.689295
 20
585.474090
 30
0.0
 10
215.106245
 20
586.514980
 30
0.0
 10
215.106245
 20
587.064347
 30
0.0
  0
SPLINE
  5
418
100
AcDbEntity
  8
0
 62
7
100
AcDbSpline
 70
8
 71
3
 72
8
 73
4
 74
0
 40
0
 40
0
 40
0
 40
0
 40
1
 40
1
 40
1
 40
1
 10
215.106245
 20
587.064347
 30
0.0
 10
215.106245
 20
587.330648
 30
0.0
 10
210.025028
 20
590.267973
 30
0.0
 10
208.363206
 20
590.962321
 30
0.0
  0
SPLINE
  5
419
100
AcDbEntity
  8
0
 62
7
100
AcDbSpline
 70
8
 71
3
 72
8
 73
4
 74
0
 40
0
 40
0
 40
0
 40
0
 40
1
 40
1
 40
1
 40
1
 10
208.363206
 20
590.962321
 30
0.0
 10
206.250614
 20
591.845024
 30
0.0
 10
202.753907
 20
591.318141
 30
0.0
 10
202.114965
 20
590.020833
 30
0.0
  0
SPLINE
  5
41a
100
AcDbEntity
  8
0
 62
7
100
AcDbSpline
 70
8
 71
3
 72
8
 73
4
 74
0
 40
0
 40
0
 40
0
 40
0
 40
1
 40
1
 40
1
 40
1
 10
202.114965
 20
590.020833
 30
0.0
 10
202.007438
 20
589.802552
 30
0.0
 10
201.424429
 20
588.588789
 30
0.0
 10
200.819380
 20
587.323586
 30
0.0
  0
SPLINE
  5
41b
100
AcDbEntity
  8
0
 62
7
100
AcDbSpline
 70
8
 71
3
 72
8
 73
4
 74
0
 40
0
 40
0
 40
0
 40
0
 40
1
 40
1
 40
1
 40
1
 10
200.819380
 20
587.323586
 30
0.0
 10
199.591792
 20
584.756660
 30
0.0
 10
198.143596
 20
583.201399
 30
0.0
 10
196.102732
 20
582.258194
 30
0.0
  0
SPLINE
  5
41c
100
AcDbEntity
  8
0
 62
7
100
AcDbSpline
 70
8
 71
3
 72
8
 73
4
 74
0
 40
0
 40
0
 40
0
 40
0
 40
1
 40
1
 40
1
 40
1
 10
196.102732
 20
582.258194
 30
0.0
 10
195.083901
 20
581.787341
 30
0.0
 10
194.398762
 20
581.689649
 30
0.0
 10
192.219786
 20
581.704545
 30
0.0
  0
SPLINE
  5
41d
100
AcDbEntity
  8
0
 62
7
100
AcDbSpline
 70
8
 71
3
 72
8
 73
4
 74
0
 40
0
 40
0
 40
0
 40
0
 40
1
 40
1
 40
1
 40
1
 10
192.219786
 20
581.704545
 30
0.0
 10
189.115007
 20
581.725765
 30
0.0
 10
187.245143
 20
582.268571
 30
0.0
 10
180.176350
 20
585.200646
 30
0.0
  0
SPLINE
  5
41e
100
AcDbEntity
  8
0
 62
7
100
AcDbSpline
 70
8
 71
3
 72
8
 73
4
 74
0
 40
0
 40
0
 40
0
 40
0
 40
1
 40
1
 40
1
 40
1
 10
180.176350
 20
585.200646
 30
0.0
 10
177.777955
 20
586.195485
 30
0.0
 10
175.073728
 20
587.228924
 30
0.0
 10
174.167001
 20
587.497177
 30
0.0
  0
SPLINE
  5
41f
100
AcDbEntity
  8
0
 62
7
100
AcDbSpline
 70
8
 71
3
 72
8
 73
4
 74
0
 40
0
 40
0
 40
0
 40
0
 40
1
 40
1
 40
1
 40
1
 10
174.167001
 20
587.497177
 30
0.0
 10
173.064006
 20
587.823487
 30
0.0
 10
172.466286
 20
588.149017
 30
0.0
 10
172.360982
 20
588.480755
 30
0.0
  0
SPLINE
  5
420
100
AcDbEntity
  8
0
 62
7
100
AcDbSpline
 70
8
 71
3
 72
8
 73
4
 74
0
 40
0
 40
0
 40
0
 40
0
 40
1
 40
1
 40
1
 40
1
 10
172.360982
 20
588.480755
 30
0.0
 10
172.104045
 20
589.290356
 30
0.0
 10
171.037536
 20
589.822962
 30
0.0
 10
169.892075
 20
589.713724
 30
0.0
  0
LWPOLYLINE
  5
421
100
AcDbEntity
  8
0
 62
7
100
AcDbPolyline
 90
5
 70
0
 10
267.969259
 20
591.341718
 30
0.0
 10
271.487318
 20
594.915625
 30
0.0
 10
254.258440
 20
594.983694
 30
0.0
 10
237.029593
 20
595.051761
 30
0.0
 10
232.351760
 20
590.327591
 30
0.0
  0
SPLINE
  5
422
100
AcDbEntity
  8
0
 62
7
100
AcDbSpline
 70
8
 71
3
 72
8
 73
4
 74
0
 40
0
 40
0
 40
0
 40
0
 40
1
 40
1
 40
1
 40
1
 10
169.395902
 20
590.672632
 30
0.0
 10
169.692659
 20
591.254358
 30
0.0
 10
170.681936
 20
592.476775
 30
0.0
 10
171.594272
 20
593.389117
 30
0.0
  0
LWPOLYLINE
  5
423
100
AcDbEntity
  8
0
 62
7
100
AcDbPolyline
 90
3
 70
0
 10
169.892075
 20
589.713724
 30
0.0
 10
168.856311
 20
589.614947
 30
0.0
 10
169.395902
 20
590.672632
 30
0.0
  0
SPLINE
  5
424
100
AcDbEntity
  8
0
 62
7
100
AcDbSpline
 70
8
 71
3
 72
8
 73
4
 74
0
 40
0
 40
0
 40
0
 40
0
 40
1
 40
1
 40
1
 40
1
 10
41.808421
 20
594.248176
 30
0.0
 10
42.121635
 20
593.808320
 30
0.0
 10
42.844106
 20
593.210586
 30
0.0
 10
43.413939
 20
592.919883
 30
0.0
  0
SPLINE
  5
425
100
AcDbEntity
  8
0
 62
7
100
AcDbSpline
 70
8
 71
3
 72
8
 73
4
 74
0
 40
0
 40
0
 40
0
 40
0
 40
1
 40
1
 40
1
 40
1
 10
43.413939
 20
592.919883
 30
0.0
 10
44.603453
 20
592.313038
 30
0.0
 10
44.705238
 20
591.819796
 30
0.0
 10
43.946016
 20
590.341022
 30
0.0
  0
SPLINE
  5
426
100
AcDbEntity
  8
0
 62
7
100
AcDbSpline
 70
8
 71
3
 72
8
 73
4
 74
0
 40
0
 40
0
 40
0
 40
0
 40
1
 40
1
 40
1
 40
1
 10
43.946016
 20
590.341022
 30
0.0
 10
43.339380
 20
589.159458
 30
0.0
 10
42.267606
 20
588.486732
 30
0.0
 10
40.635365
 20
588.263008
 30
0.0
  0
LWPOLYLINE
  5
427
100
AcDbEntity
  8
0
 62
7
100
AcDbPolyline
 90
5
 70
0
 10
171.594272
 20
593.389117
 30
0.0
 10
173.253077
 20
595.047917
 30
0.0
 10
107.246018
 20
595.047917
 30
0.0
 10
41.238958
 20
595.047917
 30
0.0
 10
41.808421
 20
594.248176
 30
0.0
  0
SPLINE
  5
428
100
AcDbEntity
  8
0
 62
7
100
AcDbSpline
 70
8
 71
3
 72
8
 73
4
 74
0
 40
0
 40
0
 40
0
 40
0
 40
1
 40
1
 40
1
 40
1
 10
40.059049
 20
543.430367
 30
0.0
 10
40.983265
 20
544.298637
 30
0.0
 10
42.176615
 20
546.890546
 30
0.0
 10
43.115436
 20
550.068750
 30
0.0
  0
SPLINE
  5
429
100
AcDbEntity
  8
0
 62
7
100
AcDbSpline
 70
8
 71
3
 72
8
 73
4
 74
0
 40
0
 40
0
 40
0
 40
0
 40
1
 40
1
 40
1
 40
1
 10
43.115436
 20
550.068750
 30
0.0
 10
44.610835
 20
555.131150
 30
0.0
 10
45.628131
 20
557.296897
 30
0.0
 10
47.207667
 20
558.780791
 30
0.0
  0
LWPOLYLINE
  5
42a
100
AcDbEntity
  8
0
 62
7
100
AcDbPolyline
 90
5
 70
0
 10
40.635365
 20
588.263008
 30
0.0
 10
39.422911
 20
588.096823
 30
0.0
 10
39.422911
 20
565.464791
 30
0.0
 10
39.422911
 20
542.832758
 30
0.0
 10
40.059049
 20
543.430367
 30
0.0
  0
SPLINE
  5
42b
100
AcDbEntity
  8
0
 62
7
100
AcDbSpline
 70
8
 71
3
 72
8
 73
4
 74
0
 40
0
 40
0
 40
0
 40
0
 40
1
 40
1
 40
1
 40
1
 10
48.402605
 20
558.500947
 30
0.0
 10
49.148704
 20
557.277638
 30
0.0
 10
49.311978
 20
556.185615
 30
0.0
 10
49.131400
 20
553.626827
 30
0.0
  0
SPLINE
  5
42c
100
AcDbEntity
  8
0
 62
7
100
AcDbSpline
 70
8
 71
3
 72
8
 73
4
 74
0
 40
0
 40
0
 40
0
 40
0
 40
1
 40
1
 40
1
 40
1
 10
49.131400
 20
553.626827
 30
0.0
 10
48.873696
 20
549.974778
 30
0.0
 10
49.483137
 20
548.917857
 30
0.0
 10
52.237000
 20
548.241000
 30
0.0
  0
SPLINE
  5
42d
100
AcDbEntity
  8
0
 62
7
100
AcDbSpline
 70
8
 71
3
 72
8
 73
4
 74
0
 40
0
 40
0
 40
0
 40
0
 40
1
 40
1
 40
1
 40
1
 10
52.237000
 20
548.241000
 30
0.0
 10
53.401748
 20
547.954724
 30
0.0
 10
53.612648
 20
547.973303
 30
0.0
 10
54.203198
 20
548.414226
 30
0.0
  0
SPLINE
  5
42e
100
AcDbEntity
  8
0
 62
7
100
AcDbSpline
 70
8
 71
3
 72
8
 73
4
 74
0
 40
0
 40
0
 40
0
 40
0
 40
1
 40
1
 40
1
 40
1
 10
54.203198
 20
548.414226
 30
0.0
 10
54.567053
 20
548.685868
 30
0.0
 10
55.111036
 20
549.377624
 30
0.0
 10
55.412053
 20
549.951458
 30
0.0
  0
SPLINE
  5
42f
100
AcDbEntity
  8
0
 62
7
100
AcDbSpline
 70
8
 71
3
 72
8
 73
4
 74
0
 40
0
 40
0
 40
0
 40
0
 40
1
 40
1
 40
1
 40
1
 10
55.412053
 20
549.951458
 30
0.0
 10
55.908093
 20
550.897057
 30
0.0
 10
55.953655
 20
551.391347
 30
0.0
 10
55.898410
 20
555.228125
 30
0.0
  0
SPLINE
  5
430
100
AcDbEntity
  8
0
 62
7
100
AcDbSpline
 70
8
 71
3
 72
8
 73
4
 74
0
 40
0
 40
0
 40
0
 40
0
 40
1
 40
1
 40
1
 40
1
 10
55.898410
 20
555.228125
 30
0.0
 10
55.864887
 20
557.556458
 30
0.0
 10
55.937118
 20
559.619470
 30
0.0
 10
56.058932
 20
559.812595
 30
0.0
  0
SPLINE
  5
431
100
AcDbEntity
  8
0
 62
7
100
AcDbSpline
 70
8
 71
3
 72
8
 73
4
 74
0
 40
0
 40
0
 40
0
 40
0
 40
1
 40
1
 40
1
 40
1
 10
56.058932
 20
559.812595
 30
0.0
 10
56.274700
 20
560.154669
 30
0.0
 10
56.791537
 20
560.088595
 30
0.0
 10
59.068224
 20
559.427880
 30
0.0
  0
SPLINE
  5
432
100
AcDbEntity
  8
0
 62
7
100
AcDbSpline
 70
8
 71
3
 72
8
 73
4
 74
0
 40
0
 40
0
 40
0
 40
0
 40
1
 40
1
 40
1
 40
1
 10
59.068224
 20
559.427880
 30
0.0
 10
59.499733
 20
559.302658
 30
0.0
 10
59.531245
 20
559.709913
 30
0.0
 10
59.531245
 20
565.408855
 30
0.0
  0
LWPOLYLINE
  5
433
100
AcDbEntity
  8
0
 62
7
100
AcDbPolyline
 90
3
 70
0
 10
47.207667
 20
558.780791
 30
0.0
 10
47.858833
 20
559.392521
 30
0.0
 10
48.402605
 20
558.500947
 30
0.0
  0
SPLINE
  5
434
100
AcDbEntity
  8
0
 62
7
100
AcDbSpline
 70
8
 71
3
 72
8
 73
4
 74
0
 40
0
 40
0
 40
0
 40
0
 40
1
 40
1
 40
1
 40
1
 10
62.712965
 20
568.800123
 30
0.0
 10
67.463797
 20
564.732641
 30
0.0
 10
66.569532
 20
564.778009
 30
0.0
 10
70.473512
 20
568.406396
 30
0.0
  0
SPLINE
  5
435
100
AcDbEntity
  8
0
 62
7
100
AcDbSpline
 70
8
 71
3
 72
8
 73
4
 74
0
 40
0
 40
0
 40
0
 40
0
 40
1
 40
1
 40
1
 40
1
 10
70.473512
 20
568.406396
 30
0.0
 10
72.304243
 20
570.107879
 30
0.0
 10
73.876292
 20
571.500000
 30
0.0
 10
73.966991
 20
571.500000
 30
0.0
  0
SPLINE
  5
436
100
AcDbEntity
  8
0
 62
7
100
AcDbSpline
 70
8
 71
3
 72
8
 73
4
 74
0
 40
0
 40
0
 40
0
 40
0
 40
1
 40
1
 40
1
 40
1
 10
73.966991
 20
571.500000
 30
0.0
 10
74.253587
 20
571.500000
 30
0.0
 10
72.367849
 20
568.274637
 30
0.0
 10
70.832869
 20
566.139449
 30
0.0
  0
SPLINE
  5
437
100
AcDbEntity
  8
0
 62
7
100
AcDbSpline
 70
8
 71
3
 72
8
 73
4
 74
0
 40
0
 40
0
 40
0
 40
0
 40
1
 40
1
 40
1
 40
1
 10
70.832869
 20
566.139449
 30
0.0
 10
69.358425
 20
564.088460
 30
0.0
 10
68.262495
 20
561.705001
 30
0.0
 10
68.262495
 20
560.549348
 30
0.0
  0
SPLINE
  5
438
100
AcDbEntity
  8
0
 62
7
100
AcDbSpline
 70
8
 71
3
 72
8
 73
4
 74
0
 40
0
 40
0
 40
0
 40
0
 40
1
 40
1
 40
1
 40
1
 10
68.262495
 20
560.549348
 30
0.0
 10
68.262495
 20
559.545879
 30
0.0
 10
68.814283
 20
558.270833
 30
0.0
 10
69.248544
 20
558.270833
 30
0.0
  0
SPLINE
  5
439
100
AcDbEntity
  8
0
 62
7
100
AcDbSpline
 70
8
 71
3
 72
8
 73
4
 74
0
 40
0
 40
0
 40
0
 40
0
 40
1
 40
1
 40
1
 40
1
 10
69.248544
 20
558.270833
 30
0.0
 10
69.471350
 20
558.270833
 30
0.0
 10
70.531879
 20
558.869326
 30
0.0
 10
71.605267
 20
559.600820
 30
0.0
  0
SPLINE
  5
43a
100
AcDbEntity
  8
0
 62
7
100
AcDbSpline
 70
8
 71
3
 72
8
 73
4
 74
0
 40
0
 40
0
 40
0
 40
0
 40
1
 40
1
 40
1
 40
1
 10
71.605267
 20
559.600820
 30
0.0
 10
73.449095
 20
560.857334
 30
0.0
 10
74.877078
 20
561.597839
 30
0.0
 10
74.877078
 20
561.297466
 30
0.0
  0
SPLINE
  5
43b
100
AcDbEntity
  8
0
 62
7
100
AcDbSpline
 70
8
 71
3
 72
8
 73
4
 74
0
 40
0
 40
0
 40
0
 40
0
 40
1
 40
1
 40
1
 40
1
 10
74.877078
 20
561.297466
 30
0.0
 10
74.877078
 20
561.223065
 30
0.0
 10
73.156784
 20
559.341808
 30
0.0
 10
71.054193
 20
557.116895
 30
0.0
  0
LWPOLYLINE
  5
43c
100
AcDbEntity
  8
0
 62
7
100
AcDbPolyline
 90
3
 70
0
 10
59.531245
 20
565.408855
 30
0.0
 10
59.531245
 20
571.524204
 30
0.0
 10
62.712965
 20
568.800123
 30
0.0
  0
SPLINE
  5
43d
100
AcDbEntity
  8
0
 62
7
100
AcDbSpline
 70
8
 71
3
 72
8
 73
4
 74
0
 40
0
 40
0
 40
0
 40
0
 40
1
 40
1
 40
1
 40
1
 10
67.237684
 20
551.504027
 30
0.0
 10
67.245357
 20
549.620710
 30
0.0
 10
66.973524
 20
548.845576
 30
0.0
 10
65.974034
 20
547.899974
 30
0.0
  0
SPLINE
  5
43e
100
AcDbEntity
  8
0
 62
7
100
AcDbSpline
 70
8
 71
3
 72
8
 73
4
 74
0
 40
0
 40
0
 40
0
 40
0
 40
1
 40
1
 40
1
 40
1
 10
65.974034
 20
547.899974
 30
0.0
 10
64.953721
 20
546.934670
 30
0.0
 10
63.809663
 20
546.493001
 30
0.0
 10
59.961298
 20
545.578715
 30
0.0
  0
SPLINE
  5
43f
100
AcDbEntity
  8
0
 62
7
100
AcDbSpline
 70
8
 71
3
 72
8
 73
4
 74
0
 40
0
 40
0
 40
0
 40
0
 40
1
 40
1
 40
1
 40
1
 10
59.961298
 20
545.578715
 30
0.0
 10
54.347158
 20
544.244916
 30
0.0
 10
52.447635
 20
543.279798
 30
0.0
 10
51.088205
 20
541.070422
 30
0.0
  0
LWPOLYLINE
  5
440
100
AcDbEntity
  8
0
 62
7
100
AcDbPolyline
 90
3
 70
0
 10
71.054193
 20
557.116895
 30
0.0
 10
67.231334
 20
553.071599
 30
0.0
 10
67.237684
 20
551.504027
 30
0.0
  0
SPLINE
  5
441
100
AcDbEntity
  8
0
 62
7
100
AcDbSpline
 70
8
 71
3
 72
8
 73
4
 74
0
 40
0
 40
0
 40
0
 40
0
 40
1
 40
1
 40
1
 40
1
 10
51.080638
 20
538.888144
 30
0.0
 10
52.453799
 20
537.222253
 30
0.0
 10
53.437388
 20
536.988774
 30
0.0
 10
59.134370
 20
536.976405
 30
0.0
  0
SPLINE
  5
442
100
AcDbEntity
  8
0
 62
7
100
AcDbSpline
 70
8
 71
3
 72
8
 73
4
 74
0
 40
0
 40
0
 40
0
 40
0
 40
1
 40
1
 40
1
 40
1
 10
59.134370
 20
536.976405
 30
0.0
 10
63.305658
 20
536.967356
 30
0.0
 10
64.296602
 20
536.890820
 30
0.0
 10
64.955203
 20
536.526862
 30
0.0
  0
LWPOLYLINE
  5
443
100
AcDbEntity
  8
0
 62
7
100
AcDbPolyline
 90
3
 70
0
 10
51.088205
 20
541.070422
 30
0.0
 10
50.316125
 20
539.815638
 30
0.0
 10
51.080638
 20
538.888144
 30
0.0
  0
SPLINE
  5
444
100
AcDbEntity
  8
0
 62
7
100
AcDbSpline
 70
8
 71
3
 72
8
 73
4
 74
0
 40
0
 40
0
 40
0
 40
0
 40
1
 40
1
 40
1
 40
1
 10
65.017116
 20
535.807380
 30
0.0
 10
61.262308
 20
534.366473
 30
0.0
 10
57.793541
 20
533.671949
 30
0.0
 10
49.741661
 20
532.748913
 30
0.0
  0
SPLINE
  5
445
100
AcDbEntity
  8
0
 62
7
100
AcDbSpline
 70
8
 71
3
 72
8
 73
4
 74
0
 40
0
 40
0
 40
0
 40
0
 40
1
 40
1
 40
1
 40
1
 10
49.741661
 20
532.748913
 30
0.0
 10
42.438553
 20
531.911711
 30
0.0
 10
42.068745
 20
531.846033
 30
0.0
 10
42.068745
 20
531.386180
 30
0.0
  0
SPLINE
  5
446
100
AcDbEntity
  8
0
 62
7
100
AcDbSpline
 70
8
 71
3
 72
8
 73
4
 74
0
 40
0
 40
0
 40
0
 40
0
 40
1
 40
1
 40
1
 40
1
 10
42.068745
 20
531.386180
 30
0.0
 10
42.068745
 20
530.494925
 30
0.0
 10
43.082496
 20
529.960523
 30
0.0
 10
44.780724
 20
529.956517
 30
0.0
  0
SPLINE
  5
447
100
AcDbEntity
  8
0
 62
7
100
AcDbSpline
 70
8
 71
3
 72
8
 73
4
 74
0
 40
0
 40
0
 40
0
 40
0
 40
1
 40
1
 40
1
 40
1
 10
44.780724
 20
529.956517
 30
0.0
 10
47.017035
 20
529.951252
 30
0.0
 10
47.734479
 20
529.561348
 30
0.0
 10
47.839810
 20
528.294071
 30
0.0
  0
SPLINE
  5
448
100
AcDbEntity
  8
0
 62
7
100
AcDbSpline
 70
8
 71
3
 72
8
 73
4
 74
0
 40
0
 40
0
 40
0
 40
0
 40
1
 40
1
 40
1
 40
1
 10
47.839810
 20
528.294071
 30
0.0
 10
47.955803
 20
526.898375
 30
0.0
 10
46.998012
 20
524.975728
 30
0.0
 10
44.847478
 20
522.287500
 30
0.0
  0
SPLINE
  5
449
100
AcDbEntity
  8
0
 62
7
100
AcDbSpline
 70
8
 71
3
 72
8
 73
4
 74
0
 40
0
 40
0
 40
0
 40
0
 40
1
 40
1
 40
1
 40
1
 10
44.847478
 20
522.287500
 30
0.0
 10
43.857990
 20
521.050573
 30
0.0
 10
42.759783
 20
519.390492
 30
0.0
 10
42.407041
 20
518.598436
 30
0.0
  0
SPLINE
  5
44a
100
AcDbEntity
  8
0
 62
7
100
AcDbSpline
 70
8
 71
3
 72
8
 73
4
 74
0
 40
0
 40
0
 40
0
 40
0
 40
1
 40
1
 40
1
 40
1
 10
42.407041
 20
518.598436
 30
0.0
 10
41.708329
 20
517.029502
 30
0.0
 10
41.261422
 20
516.579059
 30
0.0
 10
40.152738
 20
516.326353
 30
0.0
  0
LWPOLYLINE
  5
44b
100
AcDbEntity
  8
0
 62
7
100
AcDbPolyline
 90
3
 70
0
 10
64.955203
 20
536.526862
 30
0.0
 10
65.748953
 20
536.088233
 30
0.0
 10
65.017116
 20
535.807380
 30
0.0
  0
SPLINE
  5
44c
100
AcDbEntity
  8
0
 62
7
100
AcDbSpline
 70
8
 71
3
 72
8
 73
4
 74
0
 40
0
 40
0
 40
0
 40
0
 40
1
 40
1
 40
1
 40
1
 10
46.764041
 20
460.643960
 30
0.0
 10
59.652556
 20
462.849182
 30
0.0
 10
65.871164
 20
464.243986
 30
0.0
 10
72.097683
 20
466.326125
 30
0.0
  0
SPLINE
  5
44d
100
AcDbEntity
  8
0
 62
7
100
AcDbSpline
 70
8
 71
3
 72
8
 73
4
 74
0
 40
0
 40
0
 40
0
 40
0
 40
1
 40
1
 40
1
 40
1
 10
72.097683
 20
466.326125
 30
0.0
 10
79.865135
 20
468.923566
 30
0.0
 10
85.895042
 20
472.242631
 30
0.0
 10
91.629886
 20
477.077336
 30
0.0
  0
SPLINE
  5
44e
100
AcDbEntity
  8
0
 62
7
100
AcDbSpline
 70
8
 71
3
 72
8
 73
4
 74
0
 40
0
 40
0
 40
0
 40
0
 40
1
 40
1
 40
1
 40
1
 10
91.629886
 20
477.077336
 30
0.0
 10
95.646579
 20
480.463553
 30
0.0
 10
97.555442
 20
483.648845
 30
0.0
 10
103.977197
 20
497.681250
 30
0.0
  0
SPLINE
  5
44f
100
AcDbEntity
  8
0
 62
7
100
AcDbSpline
 70
8
 71
3
 72
8
 73
4
 74
0
 40
0
 40
0
 40
0
 40
0
 40
1
 40
1
 40
1
 40
1
 10
103.977197
 20
497.681250
 30
0.0
 10
107.680808
 20
505.774103
 30
0.0
 10
110.187073
 20
510.724404
 30
0.0
 10
111.891255
 20
513.312794
 30
0.0
  0
SPLINE
  5
450
100
AcDbEntity
  8
0
 62
7
100
AcDbSpline
 70
8
 71
3
 72
8
 73
4
 74
0
 40
0
 40
0
 40
0
 40
0
 40
1
 40
1
 40
1
 40
1
 10
111.891255
 20
513.312794
 30
0.0
 10
114.239432
 20
516.879316
 30
0.0
 10
118.480200
 20
520.545359
 30
0.0
 10
127.927465
 20
527.175651
 30
0.0
  0
SPLINE
  5
451
100
AcDbEntity
  8
0
 62
7
100
AcDbSpline
 70
8
 71
3
 72
8
 73
4
 74
0
 40
0
 40
0
 40
0
 40
0
 40
1
 40
1
 40
1
 40
1
 10
127.927465
 20
527.175651
 30
0.0
 10
129.788386
 20
528.481687
 30
0.0
 10
132.086292
 20
530.168149
 30
0.0
 10
133.033923
 20
530.923344
 30
0.0
  0
LWPOLYLINE
  5
452
100
AcDbEntity
  8
0
 62
7
100
AcDbPolyline
 90
5
 70
0
 10
40.152738
 20
516.326353
 30
0.0
 10
39.427356
 20
516.161012
 30
0.0
 10
39.424711
 20
487.774377
 30
0.0
 10
39.422065
 20
459.387744
 30
0.0
 10
46.764041
 20
460.643960
 30
0.0
  0
SPLINE
  5
453
100
AcDbEntity
  8
0
 62
7
100
AcDbSpline
 70
8
 71
3
 72
8
 73
4
 74
0
 40
0
 40
0
 40
0
 40
0
 40
1
 40
1
 40
1
 40
1
 10
137.352744
 20
530.330585
 30
0.0
 10
146.692932
 20
523.257177
 30
0.0
 10
159.026961
 20
516.644710
 30
0.0
 10
171.630652
 20
511.953648
 30
0.0
  0
SPLINE
  5
454
100
AcDbEntity
  8
0
 62
7
100
AcDbSpline
 70
8
 71
3
 72
8
 73
4
 74
0
 40
0
 40
0
 40
0
 40
0
 40
1
 40
1
 40
1
 40
1
 10
171.630652
 20
511.953648
 30
0.0
 10
177.195263
 20
509.882508
 30
0.0
 10
183.980132
 20
504.877454
 30
0.0
 10
192.614465
 20
496.474324
 30
0.0
  0
SPLINE
  5
455
100
AcDbEntity
  8
0
 62
7
100
AcDbSpline
 70
8
 71
3
 72
8
 73
4
 74
0
 40
0
 40
0
 40
0
 40
0
 40
1
 40
1
 40
1
 40
1
 10
192.614465
 20
496.474324
 30
0.0
 10
197.454091
 20
491.764286
 30
0.0
 10
200.255156
 20
488.892903
 30
0.0
 10
211.584270
 20
477.028309
 30
0.0
  0
SPLINE
  5
456
100
AcDbEntity
  8
0
 62
7
100
AcDbSpline
 70
8
 71
3
 72
8
 73
4
 74
0
 40
0
 40
0
 40
0
 40
0
 40
1
 40
1
 40
1
 40
1
 10
211.584270
 20
477.028309
 30
0.0
 10
221.163748
 20
466.996023
 30
0.0
 10
226.187127
 20
462.338087
 30
0.0
 10
231.773725
 20
458.307636
 30
0.0
  0
SPLINE
  5
457
100
AcDbEntity
  8
0
 62
7
100
AcDbSpline
 70
8
 71
3
 72
8
 73
4
 74
0
 40
0
 40
0
 40
0
 40
0
 40
1
 40
1
 40
1
 40
1
 10
231.773725
 20
458.307636
 30
0.0
 10
234.204187
 20
456.554189
 30
0.0
 10
234.470914
 20
456.486667
 30
0.0
 10
237.197683
 20
456.934792
 30
0.0
  0
LWPOLYLINE
  5
458
100
AcDbEntity
  8
0
 62
7
100
AcDbPolyline
 90
3
 70
0
 10
133.033923
 20
530.923344
 30
0.0
 10
134.756917
 20
532.296426
 30
0.0
 10
137.352744
 20
530.330585
 30
0.0
  0
SPLINE
  5
459
100
AcDbEntity
  8
0
 62
7
100
AcDbSpline
 70
8
 71
3
 72
8
 73
4
 74
0
 40
0
 40
0
 40
0
 40
0
 40
1
 40
1
 40
1
 40
1
 10
338.697041
 20
463.052409
 30
0.0
 10
338.525697
 20
466.520964
 30
0.0
 10
338.121175
 20
470.288287
 30
0.0
 10
337.446832
 20
474.695134
 30
0.0
  0
LWPOLYLINE
  5
45a
100
AcDbEntity
  8
0
 62
7
100
AcDbPolyline
 90
2
 70
0
 10
237.197683
 20
456.934792
 30
0.0
 10
237.198953
 20
456.934792
 30
0.0
  0
SPLINE
  5
45b
100
AcDbEntity
  8
0
 62
7
100
AcDbSpline
 70
8
 71
3
 72
8
 73
4
 74
0
 40
0
 40
0
 40
0
 40
0
 40
1
 40
1
 40
1
 40
1
 10
334.846321
 20
480.477761
 30
0.0
 10
333.964333
 20
480.074986
 30
0.0
 10
331.901588
 20
479.107802
 30
0.0
 10
330.262468
 20
478.328445
 30
0.0
  0
LWPOLYLINE
  5
45c
100
AcDbEntity
  8
0
 62
7
100
AcDbPolyline
 90
3
 70
0
 10
337.446832
 20
474.695134
 30
0.0
 10
336.449935
 20
481.210049
 30
0.0
 10
334.846321
 20
480.477761
 30
0.0
  0
SPLINE
  5
45d
100
AcDbEntity
  8
0
 62
7
100
AcDbSpline
 70
8
 71
3
 72
8
 73
4
 74
0
 40
0
 40
0
 40
0
 40
0
 40
1
 40
1
 40
1
 40
1
 10
330.881090
 20
471.521615
 30
0.0
 10
332.986671
 20
468.368205
 30
0.0
 10
335.366254
 20
464.387867
 30
0.0
 10
336.615908
 20
461.928961
 30
0.0
  0
SPLINE
  5
45e
100
AcDbEntity
  8
0
 62
7
100
AcDbSpline
 70
8
 71
3
 72
8
 73
4
 74
0
 40
0
 40
0
 40
0
 40
0
 40
1
 40
1
 40
1
 40
1
 10
336.615908
 20
461.928961
 30
0.0
 10
337.790684
 20
459.617403
 30
0.0
 10
338.796498
 20
457.770796
 30
0.0
 10
338.851081
 20
457.825380
 30
0.0
  0
SPLINE
  5
45f
100
AcDbEntity
  8
0
 62
7
100
AcDbSpline
 70
8
 71
3
 72
8
 73
4
 74
0
 40
0
 40
0
 40
0
 40
0
 40
1
 40
1
 40
1
 40
1
 10
338.851081
 20
457.825380
 30
0.0
 10
338.905638
 20
457.879963
 30
0.0
 10
338.836265
 20
460.232136
 30
0.0
 10
338.697041
 20
463.052409
 30
0.0
  0
LWPOLYLINE
  5
460
100
AcDbEntity
  8
0
 62
7
100
AcDbPolyline
 90
3
 70
0
 10
330.262468
 20
478.328445
 30
0.0
 10
327.282201
 20
476.911469
 30
0.0
 10
330.881090
 20
471.521615
 30
0.0
  0
LWPOLYLINE
  5
461
100
AcDbEntity
  8
0
 62
7
100
AcDbPolyline
 90
1
 70
1
 10
338.697041
 20
463.052409
 30
0.0
  0
SPLINE
  5
462
100
AcDbEntity
  8
0
 62
7
100
AcDbSpline
 70
8
 71
3
 72
8
 73
4
 74
0
 40
0
 40
0
 40
0
 40
0
 40
1
 40
1
 40
1
 40
1
 10
594.645618
 20
477.132158
 30
0.0
 10
593.946456
 20
474.787553
 30
0.0
 10
592.880741
 20
473.581344
 30
0.0
 10
589.438644
 20
471.238670
 30
0.0
  0
SPLINE
  5
463
100
AcDbEntity
  8
0
 62
7
100
AcDbSpline
 70
8
 71
3
 72
8
 73
4
 74
0
 40
0
 40
0
 40
0
 40
0
 40
1
 40
1
 40
1
 40
1
 10
589.438644
 20
471.238670
 30
0.0
 10
588.318054
 20
470.476035
 30
0.0
 10
587.100839
 20
469.458209
 30
0.0
 10
586.733703
 20
468.976879
 30
0.0
  0
LWPOLYLINE
  5
464
100
AcDbEntity
  8
0
 62
7
100
AcDbPolyline
 90
5
 70
0
 10
596.370833
 20
470.567131
 30
0.0
 10
596.370833
 20
475.996751
 30
0.0
 10
595.659475
 20
477.071701
 30
0.0
 10
594.948116
 20
478.146623
 30
0.0
 10
594.645618
 20
477.132158
 30
0.0
  0
SPLINE
  5
465
100
AcDbEntity
  8
0
 62
7
100
AcDbSpline
 70
8
 71
3
 72
8
 73
4
 74
0
 40
0
 40
0
 40
0
 40
0
 40
1
 40
1
 40
1
 40
1
 10
588.109642
 20
467.280001
 30
0.0
 10
590.235887
 20
466.425000
 30
0.0
 10
594.742640
 20
465.173071
 30
0.0
 10
595.775521
 20
465.150502
 30
0.0
  0
LWPOLYLINE
  5
466
100
AcDbEntity
  8
0
 62
7
100
AcDbPolyline
 90
3
 70
0
 10
586.733703
 20
468.976879
 30
0.0
 10
586.066186
 20
468.101717
 30
0.0
 10
588.109642
 20
467.280001
 30
0.0
  0
SPLINE
  5
467
100
AcDbEntity
  8
0
 62
7
100
AcDbSpline
 70
8
 71
3
 72
8
 73
4
 74
0
 40
0
 40
0
 40
0
 40
0
 40
1
 40
1
 40
1
 40
1
 10
305.213729
 20
481.279131
 30
0.0
 10
307.260308
 20
483.097004
 30
0.0
 10
310.379375
 20
485.775011
 30
0.0
 10
312.145019
 20
487.230208
 30
0.0
  0
SPLINE
  5
468
100
AcDbEntity
  8
0
 62
7
100
AcDbSpline
 70
8
 71
3
 72
8
 73
4
 74
0
 40
0
 40
0
 40
0
 40
0
 40
1
 40
1
 40
1
 40
1
 10
312.145019
 20
487.230208
 30
0.0
 10
314.754392
 20
489.380821
 30
0.0
 10
315.246464
 20
489.892311
 30
0.0
 10
314.773971
 20
489.962963
 30
0.0
  0
SPLINE
  5
469
100
AcDbEntity
  8
0
 62
7
100
AcDbSpline
 70
8
 71
3
 72
8
 73
4
 74
0
 40
0
 40
0
 40
0
 40
0
 40
1
 40
1
 40
1
 40
1
 10
314.773971
 20
489.962963
 30
0.0
 10
314.454275
 20
490.010770
 30
0.0
 10
312.585365
 20
490.412032
 30
0.0
 10
310.620833
 20
490.854656
 30
0.0
  0
SPLINE
  5
46a
100
AcDbEntity
  8
0
 62
7
100
AcDbSpline
 70
8
 71
3
 72
8
 73
4
 74
0
 40
0
 40
0
 40
0
 40
0
 40
1
 40
1
 40
1
 40
1
 10
310.620833
 20
490.854656
 30
0.0
 10
308.151371
 20
491.411046
 30
0.0
 10
306.273174
 20
491.669832
 30
0.0
 10
304.535417
 20
491.693137
 30
0.0
  0
SPLINE
  5
46b
100
AcDbEntity
  8
0
 62
7
100
AcDbSpline
 70
8
 71
3
 72
8
 73
4
 74
0
 40
0
 40
0
 40
0
 40
0
 40
1
 40
1
 40
1
 40
1
 10
304.535417
 20
491.693137
 30
0.0
 10
302.295243
 20
491.723180
 30
0.0
 10
301.849234
 20
491.646131
 30
0.0
 10
300.434375
 20
490.984701
 30
0.0
  0
SPLINE
  5
46c
100
AcDbEntity
  8
0
 62
7
100
AcDbSpline
 70
8
 71
3
 72
8
 73
4
 74
0
 40
0
 40
0
 40
0
 40
0
 40
1
 40
1
 40
1
 40
1
 10
300.434375
 20
490.984701
 30
0.0
 10
298.545303
 20
490.101572
 30
0.0
 10
296.582650
 20
488.125892
 30
0.0
 10
296.079307
 20
486.600704
 30
0.0
  0
SPLINE
  5
46d
100
AcDbEntity
  8
0
 62
7
100
AcDbSpline
 70
8
 71
3
 72
8
 73
4
 74
0
 40
0
 40
0
 40
0
 40
0
 40
1
 40
1
 40
1
 40
1
 10
296.079307
 20
486.600704
 30
0.0
 10
295.884574
 20
486.010701
 30
0.0
 10
295.605544
 20
485.601947
 30
0.0
 10
295.459256
 20
485.692355
 30
0.0
  0
SPLINE
  5
46e
100
AcDbEntity
  8
0
 62
7
100
AcDbSpline
 70
8
 71
3
 72
8
 73
4
 74
0
 40
0
 40
0
 40
0
 40
0
 40
1
 40
1
 40
1
 40
1
 10
295.459256
 20
485.692355
 30
0.0
 10
295.312941
 20
485.782789
 30
0.0
 10
295.264575
 20
485.741329
 30
0.0
 10
295.351756
 20
485.600253
 30
0.0
  0
SPLINE
  5
46f
100
AcDbEntity
  8
0
 62
7
100
AcDbSpline
 70
8
 71
3
 72
8
 73
4
 74
0
 40
0
 40
0
 40
0
 40
0
 40
1
 40
1
 40
1
 40
1
 10
295.351756
 20
485.600253
 30
0.0
 10
295.438962
 20
485.459177
 30
0.0
 10
295.164219
 20
484.339461
 30
0.0
 10
294.741256
 20
483.111979
 30
0.0
  0
SPLINE
  5
470
100
AcDbEntity
  8
0
 62
7
100
AcDbSpline
 70
8
 71
3
 72
8
 73
4
 74
0
 40
0
 40
0
 40
0
 40
0
 40
1
 40
1
 40
1
 40
1
 10
294.741256
 20
483.111979
 30
0.0
 10
293.615163
 20
479.844005
 30
0.0
 10
293.148597
 20
477.291120
 30
0.0
 10
293.128171
 20
474.285850
 30
0.0
  0
SPLINE
  5
471
100
AcDbEntity
  8
0
 62
7
100
AcDbSpline
 70
8
 71
3
 72
8
 73
4
 74
0
 40
0
 40
0
 40
0
 40
0
 40
1
 40
1
 40
1
 40
1
 10
293.128171
 20
474.285850
 30
0.0
 10
293.095865
 20
469.527662
 30
0.0
 10
292.858058
 20
469.539860
 30
0.0
 10
297.488213
 20
474.062409
 30
0.0
  0
SPLINE
  5
472
100
AcDbEntity
  8
0
 62
7
100
AcDbSpline
 70
8
 71
3
 72
8
 73
4
 74
0
 40
0
 40
0
 40
0
 40
0
 40
1
 40
1
 40
1
 40
1
 10
297.488213
 20
474.062409
 30
0.0
 10
299.690684
 20
476.213736
 30
0.0
 10
303.167177
 20
479.461258
 30
0.0
 10
305.213729
 20
481.279131
 30
0.0
  0
LWPOLYLINE
  5
473
100
AcDbEntity
  8
0
 62
7
100
AcDbPolyline
 90
3
 70
0
 10
595.775521
 20
465.150502
 30
0.0
 10
596.370833
 20
465.137537
 30
0.0
 10
596.370833
 20
470.567131
 30
0.0
  0
SPLINE
  5
474
100
AcDbEntity
  8
0
 62
7
100
AcDbSpline
 70
8
 71
3
 72
8
 73
4
 74
0
 40
0
 40
0
 40
0
 40
0
 40
1
 40
1
 40
1
 40
1
 10
577.573907
 20
477.207829
 30
0.0
 10
578.451901
 20
478.496799
 30
0.0
 10
580.521683
 20
480.143619
 30
0.0
 10
583.184212
 20
481.671614
 30
0.0
  0
SPLINE
  5
475
100
AcDbEntity
  8
0
 62
7
100
AcDbSpline
 70
8
 71
3
 72
8
 73
4
 74
0
 40
0
 40
0
 40
0
 40
0
 40
1
 40
1
 40
1
 40
1
 10
583.184212
 20
481.671614
 30
0.0
 10
584.397750
 20
482.368024
 30
0.0
 10
586.175511
 20
483.391776
 30
0.0
 10
587.134811
 20
483.946555
 30
0.0
  0
SPLINE
  5
476
100
AcDbEntity
  8
0
 62
7
100
AcDbSpline
 70
8
 71
3
 72
8
 73
4
 74
0
 40
0
 40
0
 40
0
 40
0
 40
1
 40
1
 40
1
 40
1
 10
587.134811
 20
483.946555
 30
0.0
 10
589.600596
 20
485.372606
 30
0.0
 10
591.693370
 20
487.559728
 30
0.0
 10
592.806446
 20
489.873912
 30
0.0
  0
SPLINE
  5
477
100
AcDbEntity
  8
0
 62
7
100
AcDbSpline
 70
8
 71
3
 72
8
 73
4
 74
0
 40
0
 40
0
 40
0
 40
0
 40
1
 40
1
 40
1
 40
1
 10
592.806446
 20
489.873912
 30
0.0
 10
593.311641
 20
490.924268
 30
0.0
 10
593.725000
 20
491.904113
 30
0.0
 10
593.725000
 20
492.051343
 30
0.0
  0
SPLINE
  5
478
100
AcDbEntity
  8
0
 62
7
100
AcDbSpline
 70
8
 71
3
 72
8
 73
4
 74
0
 40
0
 40
0
 40
0
 40
0
 40
1
 40
1
 40
1
 40
1
 10
593.725000
 20
492.051343
 30
0.0
 10
593.725000
 20
492.198573
 30
0.0
 10
594.320312
 20
492.566433
 30
0.0
 10
595.047917
 20
492.868813
 30
0.0
  0
LWPOLYLINE
  5
479
100
AcDbEntity
  8
0
 62
7
100
AcDbPolyline
 90
1
 70
1
 10
305.213729
 20
481.279131
 30
0.0
  0
SPLINE
  5
47a
100
AcDbEntity
  8
0
 62
7
100
AcDbSpline
 70
8
 71
3
 72
8
 73
4
 74
0
 40
0
 40
0
 40
0
 40
0
 40
1
 40
1
 40
1
 40
1
 10
596.370833
 20
495.956103
 30
0.0
 10
596.370833
 20
498.464115
 30
0.0
 10
596.364219
 20
498.490108
 30
0.0
 10
595.806662
 20
498.191682
 30
0.0
  0
SPLINE
  5
47b
100
AcDbEntity
  8
0
 62
7
100
AcDbSpline
 70
8
 71
3
 72
8
 73
4
 74
0
 40
0
 40
0
 40
0
 40
0
 40
1
 40
1
 40
1
 40
1
 10
595.806662
 20
498.191682
 30
0.0
 10
595.496359
 20
498.025616
 30
0.0
 10
594.742984
 20
497.390251
 30
0.0
 10
594.132511
 20
496.779759
 30
0.0
  0
SPLINE
  5
47c
100
AcDbEntity
  8
0
 62
7
100
AcDbSpline
 70
8
 71
3
 72
8
 73
4
 74
0
 40
0
 40
0
 40
0
 40
0
 40
1
 40
1
 40
1
 40
1
 10
594.132511
 20
496.779759
 30
0.0
 10
593.160485
 20
495.807735
 30
0.0
 10
592.927943
 20
495.695071
 30
0.0
 10
592.261563
 20
495.873286
 30
0.0
  0
SPLINE
  5
47d
100
AcDbEntity
  8
0
 62
7
100
AcDbSpline
 70
8
 71
3
 72
8
 73
4
 74
0
 40
0
 40
0
 40
0
 40
0
 40
1
 40
1
 40
1
 40
1
 10
592.261563
 20
495.873286
 30
0.0
 10
590.592413
 20
496.319683
 30
0.0
 10
589.157233
 20
495.520001
 30
0.0
 10
585.787500
 20
492.265959
 30
0.0
  0
SPLINE
  5
47e
100
AcDbEntity
  8
0
 62
7
100
AcDbSpline
 70
8
 71
3
 72
8
 73
4
 74
0
 40
0
 40
0
 40
0
 40
0
 40
1
 40
1
 40
1
 40
1
 10
585.787500
 20
492.265959
 30
0.0
 10
581.722071
 20
488.340085
 30
0.0
 10
581.462727
 20
488.156250
 30
0.0
 10
579.989765
 20
488.156250
 30
0.0
  0
SPLINE
  5
47f
100
AcDbEntity
  8
0
 62
7
100
AcDbSpline
 70
8
 71
3
 72
8
 73
4
 74
0
 40
0
 40
0
 40
0
 40
0
 40
1
 40
1
 40
1
 40
1
 10
579.989765
 20
488.156250
 30
0.0
 10
578.400095
 20
488.156250
 30
0.0
 10
577.389387
 20
487.745241
 30
0.0
 10
573.922763
 20
485.689100
 30
0.0
  0
SPLINE
  5
480
100
AcDbEntity
  8
0
 62
7
100
AcDbSpline
 70
8
 71
3
 72
8
 73
4
 74
0
 40
0
 40
0
 40
0
 40
0
 40
1
 40
1
 40
1
 40
1
 10
573.922763
 20
485.689100
 30
0.0
 10
571.142283
 20
484.039926
 30
0.0
 10
570.795494
 20
483.669377
 30
0.0
 10
570.047067
 20
481.548107
 30
0.0
  0
LWPOLYLINE
  5
481
100
AcDbEntity
  8
0
 62
7
100
AcDbPolyline
 90
3
 70
0
 10
595.047917
 20
492.868813
 30
0.0
 10
596.370833
 20
493.418590
 30
0.0
 10
596.370833
 20
495.956103
 30
0.0
  0
SPLINE
  5
482
100
AcDbEntity
  8
0
 62
7
100
AcDbSpline
 70
8
 71
3
 72
8
 73
4
 74
0
 40
0
 40
0
 40
0
 40
0
 40
1
 40
1
 40
1
 40
1
 10
572.516820
 20
478.566120
 30
0.0
 10
575.046793
 20
476.780315
 30
0.0
 10
575.774661
 20
476.379074
 30
0.0
 10
576.659375
 20
476.282501
 30
0.0
  0
SPLINE
  5
483
100
AcDbEntity
  8
0
 62
7
100
AcDbSpline
 70
8
 71
3
 72
8
 73
4
 74
0
 40
0
 40
0
 40
0
 40
0
 40
1
 40
1
 40
1
 40
1
 10
576.659375
 20
476.282501
 30
0.0
 10
576.804896
 20
476.266626
 30
0.0
 10
577.216429
 20
476.683001
 30
0.0
 10
577.573907
 20
477.207829
 30
0.0
  0
LWPOLYLINE
  5
484
100
AcDbEntity
  8
0
 62
7
100
AcDbPolyline
 90
3
 70
0
 10
570.047067
 20
481.548107
 30
0.0
 10
569.697156
 20
480.556369
 30
0.0
 10
572.516820
 20
478.566120
 30
0.0
  0
SPLINE
  5
485
100
AcDbEntity
  8
0
 62
7
100
AcDbSpline
 70
8
 71
3
 72
8
 73
4
 74
0
 40
0
 40
0
 40
0
 40
0
 40
1
 40
1
 40
1
 40
1
 10
562.552030
 20
489.060437
 30
0.0
 10
565.315973
 20
490.779075
 30
0.0
 10
566.959644
 20
492.189032
 30
0.0
 10
567.743869
 20
493.514063
 30
0.0
  0
SPLINE
  5
486
100
AcDbEntity
  8
0
 62
7
100
AcDbSpline
 70
8
 71
3
 72
8
 73
4
 74
0
 40
0
 40
0
 40
0
 40
0
 40
1
 40
1
 40
1
 40
1
 10
567.743869
 20
493.514063
 30
0.0
 10
568.045203
 20
494.023192
 30
0.0
 10
568.390035
 20
494.241667
 30
0.0
 10
568.892320
 20
494.241667
 30
0.0
  0
SPLINE
  5
487
100
AcDbEntity
  8
0
 62
7
100
AcDbSpline
 70
8
 71
3
 72
8
 73
4
 74
0
 40
0
 40
0
 40
0
 40
0
 40
1
 40
1
 40
1
 40
1
 10
568.892320
 20
494.241667
 30
0.0
 10
570.442169
 20
494.241667
 30
0.0
 10
570.973611
 20
495.964363
 30
0.0
 10
569.567563
 20
496.430535
 30
0.0
  0
SPLINE
  5
488
100
AcDbEntity
  8
0
 62
7
100
AcDbSpline
 70
8
 71
3
 72
8
 73
4
 74
0
 40
0
 40
0
 40
0
 40
0
 40
1
 40
1
 40
1
 40
1
 10
569.567563
 20
496.430535
 30
0.0
 10
568.404984
 20
496.815988
 30
0.0
 10
567.290373
 20
496.466799
 30
0.0
 10
564.601969
 20
494.874931
 30
0.0
  0
SPLINE
  5
489
100
AcDbEntity
  8
0
 62
7
100
AcDbSpline
 70
8
 71
3
 72
8
 73
4
 74
0
 40
0
 40
0
 40
0
 40
0
 40
1
 40
1
 40
1
 40
1
 10
564.601969
 20
494.874931
 30
0.0
 10
560.381044
 20
492.375611
 30
0.0
 10
559.593750
 20
492.576466
 30
0.0
 10
559.593750
 20
496.152622
 30
0.0
  0
SPLINE
  5
48a
100
AcDbEntity
  8
0
 62
7
100
AcDbSpline
 70
8
 71
3
 72
8
 73
4
 74
0
 40
0
 40
0
 40
0
 40
0
 40
1
 40
1
 40
1
 40
1
 10
559.593750
 20
496.152622
 30
0.0
 10
559.593750
 20
498.982346
 30
0.0
 10
559.096624
 20
499.137170
 30
0.0
 10
556.021875
 20
497.265023
 30
0.0
  0
SPLINE
  5
48b
100
AcDbEntity
  8
0
 62
7
100
AcDbSpline
 70
8
 71
3
 72
8
 73
4
 74
0
 40
0
 40
0
 40
0
 40
0
 40
1
 40
1
 40
1
 40
1
 10
556.021875
 20
497.265023
 30
0.0
 10
553.780113
 20
495.900062
 30
0.0
 10
553.148632
 20
495.751993
 30
0.0
 10
552.326651
 20
496.398571
 30
0.0
  0
SPLINE
  5
48c
100
AcDbEntity
  8
0
 62
7
100
AcDbSpline
 70
8
 71
3
 72
8
 73
4
 74
0
 40
0
 40
0
 40
0
 40
0
 40
1
 40
1
 40
1
 40
1
 10
552.326651
 20
496.398571
 30
0.0
 10
551.957928
 20
496.688605
 30
0.0
 10
551.656250
 20
497.095859
 30
0.0
 10
551.656250
 20
497.303578
 30
0.0
  0
SPLINE
  5
48d
100
AcDbEntity
  8
0
 62
7
100
AcDbSpline
 70
8
 71
3
 72
8
 73
4
 74
0
 40
0
 40
0
 40
0
 40
0
 40
1
 40
1
 40
1
 40
1
 10
551.656250
 20
497.303578
 30
0.0
 10
551.656250
 20
497.511298
 30
0.0
 10
551.537188
 20
497.681250
 30
0.0
 10
551.391667
 20
497.681250
 30
0.0
  0
SPLINE
  5
48e
100
AcDbEntity
  8
0
 62
7
100
AcDbSpline
 70
8
 71
3
 72
8
 73
4
 74
0
 40
0
 40
0
 40
0
 40
0
 40
1
 40
1
 40
1
 40
1
 10
551.391667
 20
497.681250
 30
0.0
 10
551.246146
 20
497.681250
 30
0.0
 10
551.127083
 20
497.560439
 30
0.0
 10
551.127083
 20
497.412777
 30
0.0
  0
SPLINE
  5
48f
100
AcDbEntity
  8
0
 62
7
100
AcDbSpline
 70
8
 71
3
 72
8
 73
4
 74
0
 40
0
 40
0
 40
0
 40
0
 40
1
 40
1
 40
1
 40
1
 10
551.127083
 20
497.412777
 30
0.0
 10
551.127083
 20
497.010208
 30
0.0
 10
549.497197
 20
496.095869
 30
0.0
 10
548.777557
 20
496.094740
 30
0.0
  0
SPLINE
  5
490
100
AcDbEntity
  8
0
 62
7
100
AcDbSpline
 70
8
 71
3
 72
8
 73
4
 74
0
 40
0
 40
0
 40
0
 40
0
 40
1
 40
1
 40
1
 40
1
 10
548.777557
 20
496.094740
 30
0.0
 10
548.188224
 20
496.093681
 30
0.0
 10
548.157982
 20
496.165857
 30
0.0
 10
548.305831
 20
497.218229
 30
0.0
  0
SPLINE
  5
491
100
AcDbEntity
  8
0
 62
7
100
AcDbSpline
 70
8
 71
3
 72
8
 73
4
 74
0
 40
0
 40
0
 40
0
 40
0
 40
1
 40
1
 40
1
 40
1
 10
548.305831
 20
497.218229
 30
0.0
 10
548.392720
 20
497.836693
 30
0.0
 10
548.628570
 20
498.933481
 30
0.0
 10
548.829971
 20
499.655534
 30
0.0
  0
SPLINE
  5
492
100
AcDbEntity
  8
0
 62
7
100
AcDbSpline
 70
8
 71
3
 72
8
 73
4
 74
0
 40
0
 40
0
 40
0
 40
0
 40
1
 40
1
 40
1
 40
1
 10
548.829971
 20
499.655534
 30
0.0
 10
549.435602
 20
501.826882
 30
0.0
 10
549.215125
 20
502.011008
 30
0.0
 10
547.433791
 20
500.821484
 30
0.0
  0
SPLINE
  5
493
100
AcDbEntity
  8
0
 62
7
100
AcDbSpline
 70
8
 71
3
 72
8
 73
4
 74
0
 40
0
 40
0
 40
0
 40
0
 40
1
 40
1
 40
1
 40
1
 10
547.433791
 20
500.821484
 30
0.0
 10
545.019230
 20
499.209105
 30
0.0
 10
543.273086
 20
499.112577
 30
0.0
 10
542.674201
 20
500.558377
 30
0.0
  0
SPLINE
  5
494
100
AcDbEntity
  8
0
 62
7
100
AcDbSpline
 70
8
 71
3
 72
8
 73
4
 74
0
 40
0
 40
0
 40
0
 40
0
 40
1
 40
1
 40
1
 40
1
 10
542.674201
 20
500.558377
 30
0.0
 10
542.470658
 20
501.049782
 30
0.0
 10
542.197052
 20
501.294802
 30
0.0
 10
541.913101
 20
501.239975
 30
0.0
  0
SPLINE
  5
495
100
AcDbEntity
  8
0
 62
7
100
AcDbSpline
 70
8
 71
3
 72
8
 73
4
 74
0
 40
0
 40
0
 40
0
 40
0
 40
1
 40
1
 40
1
 40
1
 10
541.913101
 20
501.239975
 30
0.0
 10
541.669288
 20
501.192898
 30
0.0
 10
541.100010
 20
501.093708
 30
0.0
 10
540.648022
 20
501.019556
 30
0.0
  0
LWPOLYLINE
  5
496
100
AcDbEntity
  8
0
 62
7
100
AcDbPolyline
 90
1
 70
1
 10
577.573907
 20
477.207829
 30
0.0
  0
SPLINE
  5
497
100
AcDbEntity
  8
0
 62
7
100
AcDbSpline
 70
8
 71
3
 72
8
 73
4
 74
0
 40
0
 40
0
 40
0
 40
0
 40
1
 40
1
 40
1
 40
1
 10
540.017176
 20
501.928823
 30
0.0
 10
540.250301
 20
503.203641
 30
0.0
 10
540.003947
 20
504.650005
 30
0.0
 10
539.343362
 20
505.883333
 30
0.0
  0
SPLINE
  5
498
100
AcDbEntity
  8
0
 62
7
100
AcDbSpline
 70
8
 71
3
 72
8
 73
4
 74
0
 40
0
 40
0
 40
0
 40
0
 40
1
 40
1
 40
1
 40
1
 10
539.343362
 20
505.883333
 30
0.0
 10
539.070629
 20
506.392656
 30
0.0
 10
538.874891
 20
506.907522
 30
0.0
 10
538.908413
 20
507.027479
 30
0.0
  0
SPLINE
  5
499
100
AcDbEntity
  8
0
 62
7
100
AcDbSpline
 70
8
 71
3
 72
8
 73
4
 74
0
 40
0
 40
0
 40
0
 40
0
 40
1
 40
1
 40
1
 40
1
 10
538.908413
 20
507.027479
 30
0.0
 10
538.941936
 20
507.147436
 30
0.0
 10
538.857137
 20
507.176220
 30
0.0
 10
538.719951
 20
507.091445
 30
0.0
  0
SPLINE
  5
49a
100
AcDbEntity
  8
0
 62
7
100
AcDbSpline
 70
8
 71
3
 72
8
 73
4
 74
0
 40
0
 40
0
 40
0
 40
0
 40
1
 40
1
 40
1
 40
1
 10
538.719951
 20
507.091445
 30
0.0
 10
538.368901
 20
506.874484
 30
0.0
 10
536.839583
 20
510.038181
 30
0.0
 10
536.839583
 20
510.981359
 30
0.0
  0
SPLINE
  5
49b
100
AcDbEntity
  8
0
 62
7
100
AcDbSpline
 70
8
 71
3
 72
8
 73
4
 74
0
 40
0
 40
0
 40
0
 40
0
 40
1
 40
1
 40
1
 40
1
 10
536.839583
 20
510.981359
 30
0.0
 10
536.839583
 20
511.700158
 30
0.0
 10
536.896813
 20
511.747225
 30
0.0
 10
537.567188
 20
511.579664
 30
0.0
  0
SPLINE
  5
49c
100
AcDbEntity
  8
0
 62
7
100
AcDbSpline
 70
8
 71
3
 72
8
 73
4
 74
0
 40
0
 40
0
 40
0
 40
0
 40
1
 40
1
 40
1
 40
1
 10
537.567188
 20
511.579664
 30
0.0
 10
537.967370
 20
511.479636
 30
0.0
 10
540.170476
 20
510.452119
 30
0.0
 10
542.462958
 20
509.296294
 30
0.0
  0
SPLINE
  5
49d
100
AcDbEntity
  8
0
 62
7
100
AcDbSpline
 70
8
 71
3
 72
8
 73
4
 74
0
 40
0
 40
0
 40
0
 40
0
 40
1
 40
1
 40
1
 40
1
 10
542.462958
 20
509.296294
 30
0.0
 10
547.184739
 20
506.915682
 30
0.0
 10
549.232773
 20
506.272485
 30
0.0
 10
551.312768
 20
506.516950
 30
0.0
  0
SPLINE
  5
49e
100
AcDbEntity
  8
0
 62
7
100
AcDbSpline
 70
8
 71
3
 72
8
 73
4
 74
0
 40
0
 40
0
 40
0
 40
0
 40
1
 40
1
 40
1
 40
1
 10
551.312768
 20
506.516950
 30
0.0
 10
552.780756
 20
506.689484
 30
0.0
 10
555.063157
 20
507.616333
 30
0.0
 10
556.117601
 20
508.468138
 30
0.0
  0
SPLINE
  5
49f
100
AcDbEntity
  8
0
 62
7
100
AcDbSpline
 70
8
 71
3
 72
8
 73
4
 74
0
 40
0
 40
0
 40
0
 40
0
 40
1
 40
1
 40
1
 40
1
 10
556.117601
 20
508.468138
 30
0.0
 10
556.735985
 20
508.967695
 30
0.0
 10
556.759322
 20
508.965941
 30
0.0
 10
558.366560
 20
508.298966
 30
0.0
  0
SPLINE
  5
4a0
100
AcDbEntity
  8
0
 62
7
100
AcDbSpline
 70
8
 71
3
 72
8
 73
4
 74
0
 40
0
 40
0
 40
0
 40
0
 40
1
 40
1
 40
1
 40
1
 10
558.366560
 20
508.298966
 30
0.0
 10
560.557733
 20
507.389659
 30
0.0
 10
563.991866
 20
507.399446
 30
0.0
 10
569.780208
 20
508.331491
 30
0.0
  0
SPLINE
  5
4a1
100
AcDbEntity
  8
0
 62
7
100
AcDbSpline
 70
8
 71
3
 72
8
 73
4
 74
0
 40
0
 40
0
 40
0
 40
0
 40
1
 40
1
 40
1
 40
1
 10
569.780208
 20
508.331491
 30
0.0
 10
572.108542
 20
508.706403
 30
0.0
 10
574.698151
 20
509.083887
 30
0.0
 10
575.534896
 20
509.170345
 30
0.0
  0
SPLINE
  5
4a2
100
AcDbEntity
  8
0
 62
7
100
AcDbSpline
 70
8
 71
3
 72
8
 73
4
 74
0
 40
0
 40
0
 40
0
 40
0
 40
1
 40
1
 40
1
 40
1
 10
575.534896
 20
509.170345
 30
0.0
 10
577.005873
 20
509.322335
 30
0.0
 10
577.056250
 20
509.306632
 30
0.0
 10
577.056250
 20
508.696166
 30
0.0
  0
SPLINE
  5
4a3
100
AcDbEntity
  8
0
 62
7
100
AcDbSpline
 70
8
 71
3
 72
8
 73
4
 74
0
 40
0
 40
0
 40
0
 40
0
 40
1
 40
1
 40
1
 40
1
 10
577.056250
 20
508.696166
 30
0.0
 10
577.056250
 20
507.909785
 30
0.0
 10
577.371660
 20
507.661728
 30
0.0
 10
579.051394
 20
507.127073
 30
0.0
  0
SPLINE
  5
4a4
100
AcDbEntity
  8
0
 62
7
100
AcDbSpline
 70
8
 71
3
 72
8
 73
4
 74
0
 40
0
 40
0
 40
0
 40
0
 40
1
 40
1
 40
1
 40
1
 10
579.051394
 20
507.127073
 30
0.0
 10
580.235774
 20
506.750085
 30
0.0
 10
580.531949
 20
506.745227
 30
0.0
 10
581.697227
 20
507.083679
 30
0.0
  0
SPLINE
  5
4a5
100
AcDbEntity
  8
0
 62
7
100
AcDbSpline
 70
8
 71
3
 72
8
 73
4
 74
0
 40
0
 40
0
 40
0
 40
0
 40
1
 40
1
 40
1
 40
1
 10
581.697227
 20
507.083679
 30
0.0
 10
582.418904
 20
507.293290
 30
0.0
 10
585.152500
 20
507.824428
 30
0.0
 10
587.771875
 20
508.263985
 30
0.0
  0
SPLINE
  5
4a6
100
AcDbEntity
  8
0
 62
7
100
AcDbSpline
 70
8
 71
3
 72
8
 73
4
 74
0
 40
0
 40
0
 40
0
 40
0
 40
1
 40
1
 40
1
 40
1
 10
587.771875
 20
508.263985
 30
0.0
 10
590.391250
 20
508.703543
 30
0.0
 10
593.397578
 20
509.317559
 30
0.0
 10
594.452604
 20
509.628465
 30
0.0
  0
LWPOLYLINE
  5
4a7
100
AcDbEntity
  8
0
 62
7
100
AcDbPolyline
 90
3
 70
0
 10
540.648022
 20
501.019556
 30
0.0
 10
539.826253
 20
500.884732
 30
0.0
 10
540.017176
 20
501.928823
 30
0.0
  0
SPLINE
  5
4a8
100
AcDbEntity
  8
0
 62
7
100
AcDbSpline
 70
8
 71
3
 72
8
 73
4
 74
0
 40
0
 40
0
 40
0
 40
0
 40
1
 40
1
 40
1
 40
1
 10
594.981771
 20
523.325090
 30
0.0
 10
589.892272
 20
521.318138
 30
0.0
 10
588.442303
 20
521.086993
 30
0.0
 10
586.887690
 20
522.034794
 30
0.0
  0
SPLINE
  5
4a9
100
AcDbEntity
  8
0
 62
7
100
AcDbSpline
 70
8
 71
3
 72
8
 73
4
 74
0
 40
0
 40
0
 40
0
 40
0
 40
1
 40
1
 40
1
 40
1
 10
586.887690
 20
522.034794
 30
0.0
 10
586.368393
 20
522.351392
 30
0.0
 10
585.822425
 20
523.005018
 30
0.0
 10
585.564774
 20
523.618613
 30
0.0
  0
SPLINE
  5
4aa
100
AcDbEntity
  8
0
 62
7
100
AcDbSpline
 70
8
 71
3
 72
8
 73
4
 74
0
 40
0
 40
0
 40
0
 40
0
 40
1
 40
1
 40
1
 40
1
 10
585.564774
 20
523.618613
 30
0.0
 10
584.935118
 20
525.118012
 30
0.0
 10
584.245561
 20
525.027700
 30
0.0
 10
582.976937
 20
523.279688
 30
0.0
  0
LWPOLYLINE
  5
4ab
100
AcDbEntity
  8
0
 62
7
100
AcDbPolyline
 90
5
 70
0
 10
594.452604
 20
509.628465
 30
0.0
 10
596.370833
 20
510.193753
 30
0.0
 10
596.370833
 20
517.033298
 30
0.0
 10
596.370833
 20
523.872844
 30
0.0
 10
594.981771
 20
523.325090
 30
0.0
  0
SPLINE
  5
4ac
100
AcDbEntity
  8
0
 62
7
100
AcDbSpline
 70
8
 71
3
 72
8
 73
4
 74
0
 40
0
 40
0
 40
0
 40
0
 40
1
 40
1
 40
1
 40
1
 10
581.654602
 20
523.213542
 30
0.0
 10
581.481777
 20
523.941146
 30
0.0
 10
581.328953
 20
524.863880
 30
0.0
 10
581.314983
 20
525.264063
 30
0.0
  0
SPLINE
  5
4ad
100
AcDbEntity
  8
0
 62
7
100
AcDbSpline
 70
8
 71
3
 72
8
 73
4
 74
0
 40
0
 40
0
 40
0
 40
0
 40
1
 40
1
 40
1
 40
1
 10
581.314983
 20
525.264063
 30
0.0
 10
581.283524
 20
526.165067
 30
0.0
 10
580.954118
 20
526.189104
 30
0.0
 10
580.285569
 20
525.339180
 30
0.0
  0
SPLINE
  5
4ae
100
AcDbEntity
  8
0
 62
7
100
AcDbSpline
 70
8
 71
3
 72
8
 73
4
 74
0
 40
0
 40
0
 40
0
 40
0
 40
1
 40
1
 40
1
 40
1
 10
580.285569
 20
525.339180
 30
0.0
 10
580.003285
 20
524.980313
 30
0.0
 10
579.697003
 20
524.742188
 30
0.0
 10
579.604928
 20
524.810014
 30
0.0
  0
SPLINE
  5
4af
100
AcDbEntity
  8
0
 62
7
100
AcDbSpline
 70
8
 71
3
 72
8
 73
4
 74
0
 40
0
 40
0
 40
0
 40
0
 40
1
 40
1
 40
1
 40
1
 10
579.604928
 20
524.810014
 30
0.0
 10
579.512827
 20
524.877840
 30
0.0
 10
579.491925
 20
524.859060
 30
0.0
 10
579.558467
 20
524.768281
 30
0.0
  0
SPLINE
  5
4b0
100
AcDbEntity
  8
0
 62
7
100
AcDbSpline
 70
8
 71
3
 72
8
 73
4
 74
0
 40
0
 40
0
 40
0
 40
0
 40
1
 40
1
 40
1
 40
1
 10
579.558467
 20
524.768281
 30
0.0
 10
579.710471
 20
524.560850
 30
0.0
 10
578.823005
 20
522.879013
 30
0.0
 10
578.145354
 20
522.090330
 30
0.0
  0
SPLINE
  5
4b1
100
AcDbEntity
  8
0
 62
7
100
AcDbSpline
 70
8
 71
3
 72
8
 73
4
 74
0
 40
0
 40
0
 40
0
 40
0
 40
1
 40
1
 40
1
 40
1
 10
578.145354
 20
522.090330
 30
0.0
 10
577.661564
 20
521.527281
 30
0.0
 10
577.160205
 20
521.357212
 30
0.0
 10
576.262500
 20
521.451663
 30
0.0
  0
SPLINE
  5
4b2
100
AcDbEntity
  8
0
 62
7
100
AcDbSpline
 70
8
 71
3
 72
8
 73
4
 74
0
 40
0
 40
0
 40
0
 40
0
 40
1
 40
1
 40
1
 40
1
 10
576.262500
 20
521.451663
 30
0.0
 10
575.954366
 20
521.484085
 30
0.0
 10
575.886130
 20
521.789258
 30
0.0
 10
575.957303
 20
522.816503
 30
0.0
  0
LWPOLYLINE
  5
4b3
100
AcDbEntity
  8
0
 62
7
100
AcDbPolyline
 90
3
 70
0
 10
582.976937
 20
523.279688
 30
0.0
 10
581.968822
 20
521.890625
 30
0.0
 10
581.654602
 20
523.213542
 30
0.0
  0
SPLINE
  5
4b4
100
AcDbEntity
  8
0
 62
7
100
AcDbSpline
 70
8
 71
3
 72
8
 73
4
 74
0
 40
0
 40
0
 40
0
 40
0
 40
1
 40
1
 40
1
 40
1
 10
574.351679
 20
524.139583
 30
0.0
 10
572.273986
 20
524.139583
 30
0.0
 10
570.200314
 20
523.553843
 30
0.0
 10
569.150421
 20
522.670416
 30
0.0
  0
LWPOLYLINE
  5
4b5
100
AcDbEntity
  8
0
 62
7
100
AcDbPolyline
 90
3
 70
0
 10
575.957303
 20
522.816503
 30
0.0
 10
576.048981
 20
524.139583
 30
0.0
 10
574.351679
 20
524.139583
 30
0.0
  0
SPLINE
  5
4b6
100
AcDbEntity
  8
0
 62
7
100
AcDbSpline
 70
8
 71
3
 72
8
 73
4
 74
0
 40
0
 40
0
 40
0
 40
0
 40
1
 40
1
 40
1
 40
1
 10
565.573148
 20
524.696161
 30
0.0
 10
564.047428
 20
523.103652
 30
0.0
 10
562.518745
 20
522.539854
 30
0.0
 10
558.726763
 20
522.171128
 30
0.0
  0
SPLINE
  5
4b7
100
AcDbEntity
  8
0
 62
7
100
AcDbSpline
 70
8
 71
3
 72
8
 73
4
 74
0
 40
0
 40
0
 40
0
 40
0
 40
1
 40
1
 40
1
 40
1
 10
558.726763
 20
522.171128
 30
0.0
 10
556.802502
 20
521.984018
 30
0.0
 10
555.056146
 20
521.784829
 30
0.0
 10
554.845961
 20
521.728486
 30
0.0
  0
SPLINE
  5
4b8
100
AcDbEntity
  8
0
 62
7
100
AcDbSpline
 70
8
 71
3
 72
8
 73
4
 74
0
 40
0
 40
0
 40
0
 40
0
 40
1
 40
1
 40
1
 40
1
 10
554.845961
 20
521.728486
 30
0.0
 10
554.371775
 20
521.601375
 30
0.0
 10
554.111504
 20
522.632808
 30
0.0
 10
554.068800
 20
524.808315
 30
0.0
  0
SPLINE
  5
4b9
100
AcDbEntity
  8
0
 62
7
100
AcDbSpline
 70
8
 71
3
 72
8
 73
4
 74
0
 40
0
 40
0
 40
0
 40
0
 40
1
 40
1
 40
1
 40
1
 10
554.068800
 20
524.808315
 30
0.0
 10
554.049486
 20
525.787975
 30
0.0
 10
553.876316
 20
526.633212
 30
0.0
 10
553.619617
 20
526.999719
 30
0.0
  0
LWPOLYLINE
  5
4ba
100
AcDbEntity
  8
0
 62
7
100
AcDbPolyline
 90
5
 70
0
 10
569.150421
 20
522.670416
 30
0.0
 10
568.363232
 20
522.008044
 30
0.0
 10
567.331304
 20
523.731114
 30
0.0
 10
566.299376
 20
525.454182
 30
0.0
 10
565.573148
 20
524.696161
 30
0.0
  0
SPLINE
  5
4bb
100
AcDbEntity
  8
0
 62
7
100
AcDbSpline
 70
8
 71
3
 72
8
 73
4
 74
0
 40
0
 40
0
 40
0
 40
0
 40
1
 40
1
 40
1
 40
1
 10
552.254394
 20
527.010873
 30
0.0
 10
551.643841
 20
526.633525
 30
0.0
 10
550.859563
 20
526.418850
 30
0.0
 10
550.048139
 20
526.406970
 30
0.0
  0
SPLINE
  5
4bc
100
AcDbEntity
  8
0
 62
7
100
AcDbSpline
 70
8
 71
3
 72
8
 73
4
 74
0
 40
0
 40
0
 40
0
 40
0
 40
1
 40
1
 40
1
 40
1
 10
550.048139
 20
526.406970
 30
0.0
 10
548.412591
 20
526.383025
 30
0.0
 10
547.582381
 20
527.122885
 30
0.0
 10
547.143226
 20
528.995764
 30
0.0
  0
SPLINE
  5
4bd
100
AcDbEntity
  8
0
 62
7
100
AcDbSpline
 70
8
 71
3
 72
8
 73
4
 74
0
 40
0
 40
0
 40
0
 40
0
 40
1
 40
1
 40
1
 40
1
 10
547.143226
 20
528.995764
 30
0.0
 10
546.967622
 20
529.744604
 30
0.0
 10
546.781858
 20
530.432449
 30
0.0
 10
546.730370
 20
530.524307
 30
0.0
  0
SPLINE
  5
4be
100
AcDbEntity
  8
0
 62
7
100
AcDbSpline
 70
8
 71
3
 72
8
 73
4
 74
0
 40
0
 40
0
 40
0
 40
0
 40
1
 40
1
 40
1
 40
1
 10
546.730370
 20
530.524307
 30
0.0
 10
546.678882
 20
530.616168
 30
0.0
 10
546.120929
 20
530.505839
 30
0.0
 10
545.490453
 20
530.279107
 30
0.0
  0
SPLINE
  5
4bf
100
AcDbEntity
  8
0
 62
7
100
AcDbSpline
 70
8
 71
3
 72
8
 73
4
 74
0
 40
0
 40
0
 40
0
 40
0
 40
1
 40
1
 40
1
 40
1
 10
545.490453
 20
530.279107
 30
0.0
 10
544.050432
 20
529.761275
 30
0.0
 10
543.615536
 20
529.929751
 30
0.0
 10
542.931588
 20
531.270443
 30
0.0
  0
SPLINE
  5
4c0
100
AcDbEntity
  8
0
 62
7
100
AcDbSpline
 70
8
 71
3
 72
8
 73
4
 74
0
 40
0
 40
0
 40
0
 40
0
 40
1
 40
1
 40
1
 40
1
 10
542.931588
 20
531.270443
 30
0.0
 10
542.126699
 20
532.848116
 30
0.0
 10
541.128585
 20
532.749353
 30
0.0
 10
538.790674
 20
530.860699
 30
0.0
  0
LWPOLYLINE
  5
4c1
100
AcDbEntity
  8
0
 62
7
100
AcDbPolyline
 90
3
 70
0
 10
553.619617
 20
526.999719
 30
0.0
 10
553.201708
 20
527.596343
 30
0.0
 10
552.254394
 20
527.010873
 30
0.0
  0
SPLINE
  5
4c2
100
AcDbEntity
  8
0
 62
7
100
AcDbSpline
 70
8
 71
3
 72
8
 73
4
 74
0
 40
0
 40
0
 40
0
 40
0
 40
1
 40
1
 40
1
 40
1
 10
537.529140
 20
531.259844
 30
0.0
 10
537.276754
 20
533.162431
 30
0.0
 10
535.976830
 20
535.511248
 30
0.0
 10
533.927711
 20
537.767239
 30
0.0
  0
SPLINE
  5
4c3
100
AcDbEntity
  8
0
 62
7
100
AcDbSpline
 70
8
 71
3
 72
8
 73
4
 74
0
 40
0
 40
0
 40
0
 40
0
 40
1
 40
1
 40
1
 40
1
 10
533.927711
 20
537.767239
 30
0.0
 10
531.961566
 20
539.931864
 30
0.0
 10
531.672191
 20
540.477824
 30
0.0
 10
531.935293
 20
541.526151
 30
0.0
  0
LWPOLYLINE
  5
4c4
100
AcDbEntity
  8
0
 62
7
100
AcDbPolyline
 90
3
 70
0
 10
538.790674
 20
530.860699
 30
0.0
 10
537.699056
 20
529.978848
 30
0.0
 10
537.529140
 20
531.259844
 30
0.0
  0
SPLINE
  5
4c5
100
AcDbEntity
  8
0
 62
7
100
AcDbSpline
 70
8
 71
3
 72
8
 73
4
 74
0
 40
0
 40
0
 40
0
 40
0
 40
1
 40
1
 40
1
 40
1
 10
534.803456
 20
542.061657
 30
0.0
 10
537.991632
 20
541.891326
 30
0.0
 10
539.816834
 20
541.299614
 30
0.0
 10
544.777083
 20
538.828308
 30
0.0
  0
SPLINE
  5
4c6
100
AcDbEntity
  8
0
 62
7
100
AcDbSpline
 70
8
 71
3
 72
8
 73
4
 74
0
 40
0
 40
0
 40
0
 40
0
 40
1
 40
1
 40
1
 40
1
 10
544.777083
 20
538.828308
 30
0.0
 10
550.317749
 20
536.067831
 30
0.0
 10
551.343116
 20
535.730810
 30
0.0
 10
553.583528
 20
535.933827
 30
0.0
  0
SPLINE
  5
4c7
100
AcDbEntity
  8
0
 62
7
100
AcDbSpline
 70
8
 71
3
 72
8
 73
4
 74
0
 40
0
 40
0
 40
0
 40
0
 40
1
 40
1
 40
1
 40
1
 10
553.583528
 20
535.933827
 30
0.0
 10
555.149253
 20
536.075710
 30
0.0
 10
556.097652
 20
535.974605
 30
0.0
 10
558.764334
 20
535.381528
 30
0.0
  0
SPLINE
  5
4c8
100
AcDbEntity
  8
0
 62
7
100
AcDbSpline
 70
8
 71
3
 72
8
 73
4
 74
0
 40
0
 40
0
 40
0
 40
0
 40
1
 40
1
 40
1
 40
1
 10
558.764334
 20
535.381528
 30
0.0
 10
563.805626
 20
534.260330
 30
0.0
 10
565.327218
 20
534.637874
 30
0.0
 10
568.258590
 20
537.737264
 30
0.0
  0
SPLINE
  5
4c9
100
AcDbEntity
  8
0
 62
7
100
AcDbSpline
 70
8
 71
3
 72
8
 73
4
 74
0
 40
0
 40
0
 40
0
 40
0
 40
1
 40
1
 40
1
 40
1
 10
568.258590
 20
537.737264
 30
0.0
 10
569.167936
 20
538.698747
 30
0.0
 10
570.086490
 20
539.485417
 30
0.0
 10
570.299797
 20
539.485417
 30
0.0
  0
SPLINE
  5
4ca
100
AcDbEntity
  8
0
 62
7
100
AcDbSpline
 70
8
 71
3
 72
8
 73
4
 74
0
 40
0
 40
0
 40
0
 40
0
 40
1
 40
1
 40
1
 40
1
 10
570.299797
 20
539.485417
 30
0.0
 10
570.778984
 20
539.485417
 30
0.0
 10
571.109237
 20
538.872147
 30
0.0
 10
571.351331
 20
537.532723
 30
0.0
  0
LWPOLYLINE
  5
4cb
100
AcDbEntity
  8
0
 62
7
100
AcDbPolyline
 90
3
 70
0
 10
531.935293
 20
541.526151
 30
0.0
 10
532.105870
 20
542.205775
 30
0.0
 10
534.803456
 20
542.061657
 30
0.0
  0
SPLINE
  5
4cc
100
AcDbEntity
  8
0
 62
7
100
AcDbSpline
 70
8
 71
3
 72
8
 73
4
 74
0
 40
0
 40
0
 40
0
 40
0
 40
1
 40
1
 40
1
 40
1
 10
581.086780
 20
536.002317
 30
0.0
 10
580.999759
 20
535.248080
 30
0.0
 10
581.101861
 20
535.051079
 30
0.0
 10
581.789778
 20
534.647098
 30
0.0
  0
SPLINE
  5
4cd
100
AcDbEntity
  8
0
 62
7
100
AcDbSpline
 70
8
 71
3
 72
8
 73
4
 74
0
 40
0
 40
0
 40
0
 40
0
 40
1
 40
1
 40
1
 40
1
 10
581.789778
 20
534.647098
 30
0.0
 10
582.583184
 20
534.181108
 30
0.0
 10
582.609378
 20
534.184180
 30
0.0
 10
583.636199
 20
534.863701
 30
0.0
  0
SPLINE
  5
4ce
100
AcDbEntity
  8
0
 62
7
100
AcDbSpline
 70
8
 71
3
 72
8
 73
4
 74
0
 40
0
 40
0
 40
0
 40
0
 40
1
 40
1
 40
1
 40
1
 10
583.636199
 20
534.863701
 30
0.0
 10
585.493521
 20
536.092807
 30
0.0
 10
586.863428
 20
536.351768
 30
0.0
 10
591.383173
 20
536.328154
 30
0.0
  0
SPLINE
  5
4cf
100
AcDbEntity
  8
0
 62
7
100
AcDbSpline
 70
8
 71
3
 72
8
 73
4
 74
0
 40
0
 40
0
 40
0
 40
0
 40
1
 40
1
 40
1
 40
1
 10
591.383173
 20
536.328154
 30
0.0
 10
593.660442
 20
536.316248
 30
0.0
 10
595.714270
 20
536.379669
 30
0.0
 10
595.947235
 20
536.469069
 30
0.0
  0
SPLINE
  5
4d0
100
AcDbEntity
  8
0
 62
7
100
AcDbSpline
 70
8
 71
3
 72
8
 73
4
 74
0
 40
0
 40
0
 40
0
 40
0
 40
1
 40
1
 40
1
 40
1
 10
595.947235
 20
536.469069
 30
0.0
 10
596.291326
 20
536.601101
 30
0.0
 10
596.370833
 20
537.069477
 30
0.0
 10
596.370833
 20
538.964023
 30
0.0
  0
LWPOLYLINE
  5
4d1
100
AcDbEntity
  8
0
 62
7
100
AcDbPolyline
 90
5
 70
0
 10
571.351331
 20
537.532723
 30
0.0
 10
571.536909
 20
536.506073
 30
0.0
 10
576.362751
 20
536.695460
 30
0.0
 10
581.188618
 20
536.884846
 30
0.0
 10
581.086780
 20
536.002317
 30
0.0
  0
SPLINE
  5
4d2
100
AcDbEntity
  8
0
 62
7
100
AcDbSpline
 70
8
 71
3
 72
8
 73
4
 74
0
 40
0
 40
0
 40
0
 40
0
 40
1
 40
1
 40
1
 40
1
 10
594.168680
 20
541.250820
 30
0.0
 10
592.150200
 20
541.209013
 30
0.0
 10
591.888633
 20
541.264552
 30
0.0
 10
591.032600
 20
541.916586
 30
0.0
  0
SPLINE
  5
4d3
100
AcDbEntity
  8
0
 62
7
100
AcDbSpline
 70
8
 71
3
 72
8
 73
4
 74
0
 40
0
 40
0
 40
0
 40
0
 40
1
 40
1
 40
1
 40
1
 10
591.032600
 20
541.916586
 30
0.0
 10
590.398235
 20
542.399786
 30
0.0
 10
589.996015
 20
542.993845
 30
0.0
 10
589.778607
 20
543.768669
 30
0.0
  0
LWPOLYLINE
  5
4d4
100
AcDbEntity
  8
0
 62
7
100
AcDbPolyline
 90
3
 70
0
 10
596.370833
 20
538.964023
 30
0.0
 10
596.370833
 20
541.296431
 30
0.0
 10
594.168680
 20
541.250820
 30
0.0
  0
SPLINE
  5
4d5
100
AcDbEntity
  8
0
 62
7
100
AcDbSpline
 70
8
 71
3
 72
8
 73
4
 74
0
 40
0
 40
0
 40
0
 40
0
 40
1
 40
1
 40
1
 40
1
 10
587.602330
 20
544.909375
 30
0.0
 10
585.791125
 20
544.909375
 30
0.0
 10
585.723815
 20
544.933743
 30
0.0
 10
584.825369
 20
545.914498
 30
0.0
  0
SPLINE
  5
4d6
100
AcDbEntity
  8
0
 62
7
100
AcDbSpline
 70
8
 71
3
 72
8
 73
4
 74
0
 40
0
 40
0
 40
0
 40
0
 40
1
 40
1
 40
1
 40
1
 10
584.825369
 20
545.914498
 30
0.0
 10
583.696630
 20
547.146636
 30
0.0
 10
583.511210
 20
547.105528
 30
0.0
 10
580.924009
 20
545.049586
 30
0.0
  0
SPLINE
  5
4d7
100
AcDbEntity
  8
0
 62
7
100
AcDbSpline
 70
8
 71
3
 72
8
 73
4
 74
0
 40
0
 40
0
 40
0
 40
0
 40
1
 40
1
 40
1
 40
1
 10
580.924009
 20
545.049586
 30
0.0
 10
578.712304
 20
543.292027
 30
0.0
 10
577.196876
 20
542.295101
 30
0.0
 10
576.308829
 20
542.013489
 30
0.0
  0
SPLINE
  5
4d8
100
AcDbEntity
  8
0
 62
7
100
AcDbSpline
 70
8
 71
3
 72
8
 73
4
 74
0
 40
0
 40
0
 40
0
 40
0
 40
1
 40
1
 40
1
 40
1
 10
576.308829
 20
542.013489
 30
0.0
 10
575.709891
 20
541.823566
 30
0.0
 10
575.698488
 20
541.850561
 30
0.0
 10
575.876394
 20
543.036816
 30
0.0
  0
SPLINE
  5
4d9
100
AcDbEntity
  8
0
 62
7
100
AcDbSpline
 70
8
 71
3
 72
8
 73
4
 74
0
 40
0
 40
0
 40
0
 40
0
 40
1
 40
1
 40
1
 40
1
 10
575.876394
 20
543.036816
 30
0.0
 10
576.131240
 20
544.736377
 30
0.0
 10
575.672559
 20
545.648994
 30
0.0
 10
573.948851
 20
546.871805
 30
0.0
  0
SPLINE
  5
4da
100
AcDbEntity
  8
0
 62
7
100
AcDbSpline
 70
8
 71
3
 72
8
 73
4
 74
0
 40
0
 40
0
 40
0
 40
0
 40
1
 40
1
 40
1
 40
1
 10
573.948851
 20
546.871805
 30
0.0
 10
573.149386
 20
547.438940
 30
0.0
 10
572.283828
 20
548.225340
 30
0.0
 10
572.025357
 20
548.619362
 30
0.0
  0
LWPOLYLINE
  5
4db
100
AcDbEntity
  8
0
 62
7
100
AcDbPolyline
 90
3
 70
0
 10
589.778607
 20
543.768669
 30
0.0
 10
589.458541
 20
544.909375
 30
0.0
 10
587.602330
 20
544.909375
 30
0.0
  0
SPLINE
  5
4dc
100
AcDbEntity
  8
0
 62
7
100
AcDbSpline
 70
8
 71
3
 72
8
 73
4
 74
0
 40
0
 40
0
 40
0
 40
0
 40
1
 40
1
 40
1
 40
1
 10
571.381678
 20
548.544861
 30
0.0
 10
571.071481
 20
547.132552
 30
0.0
 10
569.553593
 20
546.106707
 30
0.0
 10
567.747071
 20
546.088477
 30
0.0
  0
SPLINE
  5
4dd
100
AcDbEntity
  8
0
 62
7
100
AcDbSpline
 70
8
 71
3
 72
8
 73
4
 74
0
 40
0
 40
0
 40
0
 40
0
 40
1
 40
1
 40
1
 40
1
 10
567.747071
 20
546.088477
 30
0.0
 10
567.119056
 20
546.082127
 30
0.0
 10
566.096626
 20
545.978596
 30
0.0
 10
565.475041
 20
545.858380
 30
0.0
  0
SPLINE
  5
4de
100
AcDbEntity
  8
0
 62
7
100
AcDbSpline
 70
8
 71
3
 72
8
 73
4
 74
0
 40
0
 40
0
 40
0
 40
0
 40
1
 40
1
 40
1
 40
1
 10
565.475041
 20
545.858380
 30
0.0
 10
564.853429
 20
545.738161
 30
0.0
 10
564.282299
 20
545.741005
 30
0.0
 10
564.205861
 20
545.864703
 30
0.0
  0
SPLINE
  5
4df
100
AcDbEntity
  8
0
 62
7
100
AcDbSpline
 70
8
 71
3
 72
8
 73
4
 74
0
 40
0
 40
0
 40
0
 40
0
 40
1
 40
1
 40
1
 40
1
 10
564.205861
 20
545.864703
 30
0.0
 10
564.129423
 20
545.988396
 30
0.0
 10
564.047005
 20
546.806316
 30
0.0
 10
564.022716
 20
547.682301
 30
0.0
  0
SPLINE
  5
4e0
100
AcDbEntity
  8
0
 62
7
100
AcDbSpline
 70
8
 71
3
 72
8
 73
4
 74
0
 40
0
 40
0
 40
0
 40
0
 40
1
 40
1
 40
1
 40
1
 10
564.022716
 20
547.682301
 30
0.0
 10
563.998375
 20
548.558286
 30
0.0
 10
563.907543
 20
549.275003
 30
0.0
 10
563.820733
 20
549.275003
 30
0.0
  0
SPLINE
  5
4e1
100
AcDbEntity
  8
0
 62
7
100
AcDbSpline
 70
8
 71
3
 72
8
 73
4
 74
0
 40
0
 40
0
 40
0
 40
0
 40
1
 40
1
 40
1
 40
1
 10
563.820733
 20
549.275003
 30
0.0
 10
563.733897
 20
549.275003
 30
0.0
 10
561.765053
 20
549.038280
 30
0.0
 10
559.445504
 20
548.748953
 30
0.0
  0
SPLINE
  5
4e2
100
AcDbEntity
  8
0
 62
7
100
AcDbSpline
 70
8
 71
3
 72
8
 73
4
 74
0
 40
0
 40
0
 40
0
 40
0
 40
1
 40
1
 40
1
 40
1
 10
559.445504
 20
548.748953
 30
0.0
 10
554.454351
 20
548.126388
 30
0.0
 10
554.266206
 20
548.118985
 30
0.0
 10
554.321821
 20
548.547398
 30
0.0
  0
SPLINE
  5
4e3
100
AcDbEntity
  8
0
 62
7
100
AcDbSpline
 70
8
 71
3
 72
8
 73
4
 74
0
 40
0
 40
0
 40
0
 40
0
 40
1
 40
1
 40
1
 40
1
 10
554.321821
 20
548.547398
 30
0.0
 10
554.441916
 20
549.472215
 30
0.0
 10
554.309650
 20
549.558797
 30
0.0
 10
553.033830
 20
549.389573
 30
0.0
  0
SPLINE
  5
4e4
100
AcDbEntity
  8
0
 62
7
100
AcDbSpline
 70
8
 71
3
 72
8
 73
4
 74
0
 40
0
 40
0
 40
0
 40
0
 40
1
 40
1
 40
1
 40
1
 10
553.033830
 20
549.389573
 30
0.0
 10
551.150843
 20
549.139785
 30
0.0
 10
550.964709
 20
549.511747
 30
0.0
 10
551.790288
 20
551.874730
 30
0.0
  0
SPLINE
  5
4e5
100
AcDbEntity
  8
0
 62
7
100
AcDbSpline
 70
8
 71
3
 72
8
 73
4
 74
0
 40
0
 40
0
 40
0
 40
0
 40
1
 40
1
 40
1
 40
1
 10
551.790288
 20
551.874730
 30
0.0
 10
552.589303
 20
554.161674
 30
0.0
 10
552.622667
 20
555.187760
 30
0.0
 10
551.920833
 20
555.889586
 30
0.0
  0
SPLINE
  5
4e6
100
AcDbEntity
  8
0
 62
7
100
AcDbSpline
 70
8
 71
3
 72
8
 73
4
 74
0
 40
0
 40
0
 40
0
 40
0
 40
1
 40
1
 40
1
 40
1
 10
551.920833
 20
555.889586
 30
0.0
 10
551.207728
 20
556.602702
 30
0.0
 10
550.862923
 20
556.561638
 30
0.0
 10
549.274894
 20
555.574462
 30
0.0
  0
SPLINE
  5
4e7
100
AcDbEntity
  8
0
 62
7
100
AcDbSpline
 70
8
 71
3
 72
8
 73
4
 74
0
 40
0
 40
0
 40
0
 40
0
 40
1
 40
1
 40
1
 40
1
 10
549.274894
 20
555.574462
 30
0.0
 10
548.264001
 20
554.946047
 30
0.0
 10
547.532243
 20
554.705536
 30
0.0
 10
546.413055
 20
554.633829
 30
0.0
  0
SPLINE
  5
4e8
100
AcDbEntity
  8
0
 62
7
100
AcDbSpline
 70
8
 71
3
 72
8
 73
4
 74
0
 40
0
 40
0
 40
0
 40
0
 40
1
 40
1
 40
1
 40
1
 10
546.413055
 20
554.633829
 30
0.0
 10
544.364757
 20
554.502598
 30
0.0
 10
543.598709
 20
555.036837
 30
0.0
 10
541.623964
 20
557.973727
 30
0.0
  0
SPLINE
  5
4e9
100
AcDbEntity
  8
0
 62
7
100
AcDbSpline
 70
8
 71
3
 72
8
 73
4
 74
0
 40
0
 40
0
 40
0
 40
0
 40
1
 40
1
 40
1
 40
1
 10
541.623964
 20
557.973727
 30
0.0
 10
539.683431
 20
560.859710
 30
0.0
 10
538.627373
 20
561.893966
 30
0.0
 10
537.236458
 20
562.270688
 30
0.0
  0
SPLINE
  5
4ea
100
AcDbEntity
  8
0
 62
7
100
AcDbSpline
 70
8
 71
3
 72
8
 73
4
 74
0
 40
0
 40
0
 40
0
 40
0
 40
1
 40
1
 40
1
 40
1
 10
537.236458
 20
562.270688
 30
0.0
 10
536.654375
 20
562.428342
 30
0.0
 10
535.925660
 20
562.654852
 30
0.0
 10
535.617076
 20
562.774044
 30
0.0
  0
SPLINE
  5
4eb
100
AcDbEntity
  8
0
 62
7
100
AcDbSpline
 70
8
 71
3
 72
8
 73
4
 74
0
 40
0
 40
0
 40
0
 40
0
 40
1
 40
1
 40
1
 40
1
 10
535.617076
 20
562.774044
 30
0.0
 10
534.807319
 20
563.086835
 30
0.0
 10
533.664583
 20
565.534717
 30
0.0
 10
533.664583
 20
566.956578
 30
0.0
  0
LWPOLYLINE
  5
4ec
100
AcDbEntity
  8
0
 62
7
100
AcDbPolyline
 90
3
 70
0
 10
572.025357
 20
548.619362
 30
0.0
 10
571.555404
 20
549.335769
 30
0.0
 10
571.381678
 20
548.544861
 30
0.0
  0
SPLINE
  5
4ed
100
AcDbEntity
  8
0
 62
7
100
AcDbSpline
 70
8
 71
3
 72
8
 73
4
 74
0
 40
0
 40
0
 40
0
 40
0
 40
1
 40
1
 40
1
 40
1
 10
534.728314
 20
567.987415
 30
0.0
 10
535.391572
 20
567.898455
 30
0.0
 10
536.472580
 20
567.379765
 30
0.0
 10
537.599546
 20
566.609741
 30
0.0
  0
SPLINE
  5
4ee
100
AcDbEntity
  8
0
 62
7
100
AcDbSpline
 70
8
 71
3
 72
8
 73
4
 74
0
 40
0
 40
0
 40
0
 40
0
 40
1
 40
1
 40
1
 40
1
 10
537.599546
 20
566.609741
 30
0.0
 10
540.464190
 20
564.652414
 30
0.0
 10
542.215123
 20
564.729625
 30
0.0
 10
543.687344
 20
566.878195
 30
0.0
  0
LWPOLYLINE
  5
4ef
100
AcDbEntity
  8
0
 62
7
100
AcDbPolyline
 90
3
 70
0
 10
533.664583
 20
566.956578
 30
0.0
 10
533.664583
 20
568.130092
 30
0.0
 10
534.728314
 20
567.987415
 30
0.0
  0
SPLINE
  5
4f0
100
AcDbEntity
  8
0
 62
7
100
AcDbSpline
 70
8
 71
3
 72
8
 73
4
 74
0
 40
0
 40
0
 40
0
 40
0
 40
1
 40
1
 40
1
 40
1
 10
545.527336
 20
566.884677
 30
0.0
 10
547.956872
 20
565.156742
 30
0.0
 10
551.051174
 20
564.043960
 30
0.0
 10
557.666737
 20
562.519042
 30
0.0
  0
SPLINE
  5
4f1
100
AcDbEntity
  8
0
 62
7
100
AcDbSpline
 70
8
 71
3
 72
8
 73
4
 74
0
 40
0
 40
0
 40
0
 40
0
 40
1
 40
1
 40
1
 40
1
 10
557.666737
 20
562.519042
 30
0.0
 10
560.172129
 20
561.941535
 30
0.0
 10
563.220235
 20
561.135146
 30
0.0
 10
564.440308
 20
560.727064
 30
0.0
  0
SPLINE
  5
4f2
100
AcDbEntity
  8
0
 62
7
100
AcDbSpline
 70
8
 71
3
 72
8
 73
4
 74
0
 40
0
 40
0
 40
0
 40
0
 40
1
 40
1
 40
1
 40
1
 10
564.440308
 20
560.727064
 30
0.0
 10
566.246116
 20
560.123065
 30
0.0
 10
566.875030
 20
560.024156
 30
0.0
 10
567.822530
 20
560.195143
 30
0.0
  0
SPLINE
  5
4f3
100
AcDbEntity
  8
0
 62
7
100
AcDbSpline
 70
8
 71
3
 72
8
 73
4
 74
0
 40
0
 40
0
 40
0
 40
0
 40
1
 40
1
 40
1
 40
1
 10
567.822530
 20
560.195143
 30
0.0
 10
569.811879
 20
560.554148
 30
0.0
 10
571.751248
 20
560.149261
 30
0.0
 10
576.419715
 20
558.400289
 30
0.0
  0
SPLINE
  5
4f4
100
AcDbEntity
  8
0
 62
7
100
AcDbSpline
 70
8
 71
3
 72
8
 73
4
 74
0
 40
0
 40
0
 40
0
 40
0
 40
1
 40
1
 40
1
 40
1
 10
576.419715
 20
558.400289
 30
0.0
 10
579.870649
 20
557.107445
 30
0.0
 10
582.340482
 20
556.904295
 30
0.0
 10
584.530729
 20
557.733137
 30
0.0
  0
SPLINE
  5
4f5
100
AcDbEntity
  8
0
 62
7
100
AcDbSpline
 70
8
 71
3
 72
8
 73
4
 74
0
 40
0
 40
0
 40
0
 40
0
 40
1
 40
1
 40
1
 40
1
 10
584.530729
 20
557.733137
 30
0.0
 10
585.367474
 20
558.049782
 30
0.0
 10
586.052083
 20
558.397436
 30
0.0
 10
586.052083
 20
558.505707
 30
0.0
  0
SPLINE
  5
4f6
100
AcDbEntity
  8
0
 62
7
100
AcDbSpline
 70
8
 71
3
 72
8
 73
4
 74
0
 40
0
 40
0
 40
0
 40
0
 40
1
 40
1
 40
1
 40
1
 10
586.052083
 20
558.505707
 30
0.0
 10
586.052083
 20
558.888395
 30
0.0
 10
584.025216
 20
559.817839
 30
0.0
 10
580.495833
 20
561.053591
 30
0.0
  0
SPLINE
  5
4f7
100
AcDbEntity
  8
0
 62
7
100
AcDbSpline
 70
8
 71
3
 72
8
 73
4
 74
0
 40
0
 40
0
 40
0
 40
0
 40
1
 40
1
 40
1
 40
1
 10
580.495833
 20
561.053591
 30
0.0
 10
576.249297
 20
562.540444
 30
0.0
 10
574.684499
 20
563.408155
 30
0.0
 10
573.087500
 20
565.161650
 30
0.0
  0
LWPOLYLINE
  5
4f8
100
AcDbEntity
  8
0
 62
7
100
AcDbPolyline
 90
3
 70
0
 10
543.687344
 20
566.878195
 30
0.0
 10
544.293213
 20
567.762406
 30
0.0
 10
545.527336
 20
566.884677
 30
0.0
  0
SPLINE
  5
4f9
100
AcDbEntity
  8
0
 62
7
100
AcDbSpline
 70
8
 71
3
 72
8
 73
4
 74
0
 40
0
 40
0
 40
0
 40
0
 40
1
 40
1
 40
1
 40
1
 10
570.843172
 20
566.176930
 30
0.0
 10
570.263629
 20
566.016315
 30
0.0
 10
568.768653
 20
565.933712
 30
0.0
 10
567.520984
 20
565.993362
 30
0.0
  0
SPLINE
  5
4fa
100
AcDbEntity
  8
0
 62
7
100
AcDbSpline
 70
8
 71
3
 72
8
 73
4
 74
0
 40
0
 40
0
 40
0
 40
0
 40
1
 40
1
 40
1
 40
1
 10
567.520984
 20
565.993362
 30
0.0
 10
564.982360
 20
566.114734
 30
0.0
 10
563.857643
 20
566.615157
 30
0.0
 10
562.693714
 20
568.141168
 30
0.0
  0
LWPOLYLINE
  5
4fb
100
AcDbEntity
  8
0
 62
7
100
AcDbPolyline
 90
3
 70
0
 10
573.087500
 20
565.161650
 30
0.0
 10
571.896875
 20
566.468953
 30
0.0
 10
570.843172
 20
566.176930
 30
0.0
  0
SPLINE
  5
4fc
100
AcDbEntity
  8
0
 62
7
100
AcDbSpline
 70
8
 71
3
 72
8
 73
4
 74
0
 40
0
 40
0
 40
0
 40
0
 40
1
 40
1
 40
1
 40
1
 10
562.815475
 20
570.584457
 30
0.0
 10
564.813609
 20
574.611254
 30
0.0
 10
566.413756
 20
574.889331
 30
0.0
 10
570.329325
 20
571.890239
 30
0.0
  0
SPLINE
  5
4fd
100
AcDbEntity
  8
0
 62
7
100
AcDbSpline
 70
8
 71
3
 72
8
 73
4
 74
0
 40
0
 40
0
 40
0
 40
0
 40
1
 40
1
 40
1
 40
1
 10
570.329325
 20
571.890239
 30
0.0
 10
572.964231
 20
569.872072
 30
0.0
 10
573.791583
 20
569.603707
 30
0.0
 10
576.286471
 20
569.957929
 30
0.0
  0
SPLINE
  5
4fe
100
AcDbEntity
  8
0
 62
7
100
AcDbSpline
 70
8
 71
3
 72
8
 73
4
 74
0
 40
0
 40
0
 40
0
 40
0
 40
1
 40
1
 40
1
 40
1
 10
576.286471
 20
569.957929
 30
0.0
 10
579.838211
 20
570.462209
 30
0.0
 10
584.076228
 20
570.001273
 30
0.0
 10
591.211458
 20
568.334655
 30
0.0
  0
SPLINE
  5
4ff
100
AcDbEntity
  8
0
 62
7
100
AcDbSpline
 70
8
 71
3
 72
8
 73
4
 74
0
 40
0
 40
0
 40
0
 40
0
 40
1
 40
1
 40
1
 40
1
 10
591.211458
 20
568.334655
 30
0.0
 10
592.957708
 20
567.926770
 30
0.0
 10
594.832943
 20
567.514219
 30
0.0
 10
595.378646
 20
567.417868
 30
0.0
  0
LWPOLYLINE
  5
500
100
AcDbEntity
  8
0
 62
7
100
AcDbPolyline
 90
3
 70
0
 10
562.693714
 20
568.141168
 30
0.0
 10
562.032970
 20
569.007453
 30
0.0
 10
562.815475
 20
570.584457
 30
0.0
  0
SPLINE
  5
501
100
AcDbEntity
  8
0
 62
7
100
AcDbSpline
 70
8
 71
3
 72
8
 73
4
 74
0
 40
0
 40
0
 40
0
 40
0
 40
1
 40
1
 40
1
 40
1
 10
596.370833
 20
568.313012
 30
0.0
 10
596.370833
 20
569.246292
 30
0.0
 10
596.294607
 20
569.383460
 30
0.0
 10
595.775521
 20
569.384323
 30
0.0
  0
SPLINE
  5
502
100
AcDbEntity
  8
0
 62
7
100
AcDbSpline
 70
8
 71
3
 72
8
 73
4
 74
0
 40
0
 40
0
 40
0
 40
0
 40
1
 40
1
 40
1
 40
1
 10
595.775521
 20
569.384323
 30
0.0
 10
594.287028
 20
569.386704
 30
0.0
 10
592.759244
 20
571.047758
 30
0.0
 10
592.125885
 20
573.352083
 30
0.0
  0
SPLINE
  5
503
100
AcDbEntity
  8
0
 62
7
100
AcDbSpline
 70
8
 71
3
 72
8
 73
4
 74
0
 40
0
 40
0
 40
0
 40
0
 40
1
 40
1
 40
1
 40
1
 10
592.125885
 20
573.352083
 30
0.0
 10
591.716627
 20
574.841195
 30
0.0
 10
590.798364
 20
575.733402
 30
0.0
 10
589.675340
 20
575.733124
 30
0.0
  0
SPLINE
  5
504
100
AcDbEntity
  8
0
 62
7
100
AcDbSpline
 70
8
 71
3
 72
8
 73
4
 74
0
 40
0
 40
0
 40
0
 40
0
 40
1
 40
1
 40
1
 40
1
 10
589.675340
 20
575.733124
 30
0.0
 10
588.672437
 20
575.732876
 30
0.0
 10
585.995277
 20
574.514665
 30
0.0
 10
584.823253
 20
573.525248
 30
0.0
  0
SPLINE
  5
505
100
AcDbEntity
  8
0
 62
7
100
AcDbSpline
 70
8
 71
3
 72
8
 73
4
 74
0
 40
0
 40
0
 40
0
 40
0
 40
1
 40
1
 40
1
 40
1
 10
584.823253
 20
573.525248
 30
0.0
 10
584.365682
 20
573.138967
 30
0.0
 10
583.935390
 20
572.822917
 30
0.0
 10
583.867048
 20
572.822917
 30
0.0
  0
SPLINE
  5
506
100
AcDbEntity
  8
0
 62
7
100
AcDbSpline
 70
8
 71
3
 72
8
 73
4
 74
0
 40
0
 40
0
 40
0
 40
0
 40
1
 40
1
 40
1
 40
1
 10
583.867048
 20
572.822917
 30
0.0
 10
583.798680
 20
572.822917
 30
0.0
 10
583.756347
 20
573.269401
 30
0.0
 10
583.772936
 20
573.815104
 30
0.0
  0
LWPOLYLINE
  5
507
100
AcDbEntity
  8
0
 62
7
100
AcDbPolyline
 90
3
 70
0
 10
595.378646
 20
567.417868
 30
0.0
 10
596.370833
 20
567.242687
 30
0.0
 10
596.370833
 20
568.313012
 30
0.0
  0
SPLINE
  5
508
100
AcDbEntity
  8
0
 62
7
100
AcDbSpline
 70
8
 71
3
 72
8
 73
4
 74
0
 40
0
 40
0
 40
0
 40
0
 40
1
 40
1
 40
1
 40
1
 10
582.347917
 20
574.939583
 30
0.0
 10
581.165626
 20
575.047065
 30
0.0
 10
580.844078
 20
575.182677
 30
0.0
 10
580.633470
 20
575.662666
 30
0.0
  0
SPLINE
  5
509
100
AcDbEntity
  8
0
 62
7
100
AcDbSpline
 70
8
 71
3
 72
8
 73
4
 74
0
 40
0
 40
0
 40
0
 40
0
 40
1
 40
1
 40
1
 40
1
 10
580.633470
 20
575.662666
 30
0.0
 10
580.428047
 20
576.130843
 30
0.0
 10
579.961296
 20
576.341886
 30
0.0
 10
578.384511
 20
576.679549
 30
0.0
  0
SPLINE
  5
50a
100
AcDbEntity
  8
0
 62
7
100
AcDbSpline
 70
8
 71
3
 72
8
 73
4
 74
0
 40
0
 40
0
 40
0
 40
0
 40
1
 40
1
 40
1
 40
1
 10
578.384511
 20
576.679549
 30
0.0
 10
574.435182
 20
577.525290
 30
0.0
 10
573.577111
 20
577.891016
 30
0.0
 10
572.029167
 20
579.388306
 30
0.0
  0
LWPOLYLINE
  5
50b
100
AcDbEntity
  8
0
 62
7
100
AcDbPolyline
 90
3
 70
0
 10
583.772936
 20
573.815104
 30
0.0
 10
583.803125
 20
574.807292
 30
0.0
 10
582.347917
 20
574.939583
 30
0.0
  0
SPLINE
  5
50c
100
AcDbEntity
  8
0
 62
7
100
AcDbSpline
 70
8
 71
3
 72
8
 73
4
 74
0
 40
0
 40
0
 40
0
 40
0
 40
1
 40
1
 40
1
 40
1
 10
569.573119
 20
580.468375
 30
0.0
 10
568.683510
 20
580.177238
 30
0.0
 10
568.494466
 20
580.198939
 30
0.0
 10
567.872033
 20
580.663666
 30
0.0
  0
SPLINE
  5
50d
100
AcDbEntity
  8
0
 62
7
100
AcDbSpline
 70
8
 71
3
 72
8
 73
4
 74
0
 40
0
 40
0
 40
0
 40
0
 40
1
 40
1
 40
1
 40
1
 10
567.872033
 20
580.663666
 30
0.0
 10
566.960703
 20
581.344061
 30
0.0
 10
566.518002
 20
582.619556
 30
0.0
 10
566.493051
 20
584.636631
 30
0.0
  0
LWPOLYLINE
  5
50e
100
AcDbEntity
  8
0
 62
7
100
AcDbPolyline
 90
3
 70
0
 10
572.029167
 20
579.388306
 30
0.0
 10
570.573958
 20
580.795905
 30
0.0
 10
569.573119
 20
580.468375
 30
0.0
  0
SPLINE
  5
50f
100
AcDbEntity
  8
0
 62
7
100
AcDbSpline
 70
8
 71
3
 72
8
 73
4
 74
0
 40
0
 40
0
 40
0
 40
0
 40
1
 40
1
 40
1
 40
1
 10
565.083881
 20
586.596588
 30
0.0
 10
562.978988
 20
587.100741
 30
0.0
 10
562.049586
 20
587.559965
 30
0.0
 10
560.796519
 20
588.715001
 30
0.0
  0
SPLINE
  5
510
100
AcDbEntity
  8
0
 62
7
100
AcDbSpline
 70
8
 71
3
 72
8
 73
4
 74
0
 40
0
 40
0
 40
0
 40
0
 40
1
 40
1
 40
1
 40
1
 10
560.796519
 20
588.715001
 30
0.0
 10
559.386819
 20
590.014412
 30
0.0
 10
558.446199
 20
592.075910
 30
0.0
 10
558.480410
 20
593.791146
 30
0.0
  0
LWPOLYLINE
  5
511
100
AcDbEntity
  8
0
 62
7
100
AcDbPolyline
 90
3
 70
0
 10
566.493051
 20
584.636631
 30
0.0
 10
566.472943
 20
586.263888
 30
0.0
 10
565.083881
 20
586.596588
 30
0.0
  0
SPLINE
  5
512
100
AcDbEntity
  8
0
 62
7
100
AcDbSpline
 70
8
 71
3
 72
8
 73
4
 74
0
 40
0
 40
0
 40
0
 40
0
 40
1
 40
1
 40
1
 40
1
 10
439.193464
 20
595.047917
 30
0.0
 10
373.571691
 20
595.047917
 30
0.0
 10
319.881250
 20
595.005327
 30
0.0
 10
319.881250
 20
594.953273
 30
0.0
  0
SPLINE
  5
513
100
AcDbEntity
  8
0
 62
7
100
AcDbSpline
 70
8
 71
3
 72
8
 73
4
 74
0
 40
0
 40
0
 40
0
 40
0
 40
1
 40
1
 40
1
 40
1
 10
319.881250
 20
594.953273
 30
0.0
 10
319.881250
 20
594.901216
 30
0.0
 10
321.158367
 20
593.799888
 30
0.0
 10
322.719303
 20
592.505877
 30
0.0
  0
SPLINE
  5
514
100
AcDbEntity
  8
0
 62
7
100
AcDbSpline
 70
8
 71
3
 72
8
 73
4
 74
0
 40
0
 40
0
 40
0
 40
0
 40
1
 40
1
 40
1
 40
1
 10
322.719303
 20
592.505877
 30
0.0
 10
332.973098
 20
584.005470
 30
0.0
 10
341.577083
 20
575.554930
 30
0.0
 10
341.577083
 20
573.984435
 30
0.0
  0
SPLINE
  5
515
100
AcDbEntity
  8
0
 62
7
100
AcDbSpline
 70
8
 71
3
 72
8
 73
4
 74
0
 40
0
 40
0
 40
0
 40
0
 40
1
 40
1
 40
1
 40
1
 10
341.577083
 20
573.984435
 30
0.0
 10
341.577083
 20
573.759571
 30
0.0
 10
341.294350
 20
573.616749
 30
0.0
 10
340.849479
 20
573.616876
 30
0.0
  0
SPLINE
  5
516
100
AcDbEntity
  8
0
 62
7
100
AcDbSpline
 70
8
 71
3
 72
8
 73
4
 74
0
 40
0
 40
0
 40
0
 40
0
 40
1
 40
1
 40
1
 40
1
 10
340.849479
 20
573.616876
 30
0.0
 10
338.130436
 20
573.617669
 30
0.0
 10
326.784838
 20
581.352115
 30
0.0
 10
313.617531
 20
592.181273
 30
0.0
  0
LWPOLYLINE
  5
517
100
AcDbEntity
  8
0
 62
7
100
AcDbPolyline
 90
3
 70
0
 10
558.480410
 20
593.791146
 30
0.0
 10
558.505545
 20
595.047917
 30
0.0
 10
439.193464
 20
595.047917
 30
0.0
  0
SPLINE
  5
518
100
AcDbEntity
  8
0
 62
7
100
AcDbSpline
 70
8
 71
3
 72
8
 73
4
 74
0
 40
0
 40
0
 40
0
 40
0
 40
1
 40
1
 40
1
 40
1
 10
301.563326
 20
592.468229
 30
0.0
 10
298.951438
 20
586.835313
 30
0.0
 10
297.798834
 20
581.990605
 30
0.0
 10
297.802247
 20
576.659375
 30
0.0
  0
SPLINE
  5
519
100
AcDbEntity
  8
0
 62
7
100
AcDbSpline
 70
8
 71
3
 72
8
 73
4
 74
0
 40
0
 40
0
 40
0
 40
0
 40
1
 40
1
 40
1
 40
1
 10
297.802247
 20
576.659375
 30
0.0
 10
297.805687
 20
571.423485
 30
0.0
 10
298.534402
 20
568.384952
 30
0.0
 10
300.901947
 20
563.736609
 30
0.0
  0
SPLINE
  5
51a
100
AcDbEntity
  8
0
 62
7
100
AcDbSpline
 70
8
 71
3
 72
8
 73
4
 74
0
 40
0
 40
0
 40
0
 40
0
 40
1
 40
1
 40
1
 40
1
 10
300.901947
 20
563.736609
 30
0.0
 10
302.572155
 20
560.457361
 30
0.0
 10
304.763196
 20
557.536204
 30
0.0
 10
307.975000
 20
554.306671
 30
0.0
  0
SPLINE
  5
51b
100
AcDbEntity
  8
0
 62
7
100
AcDbSpline
 70
8
 71
3
 72
8
 73
4
 74
0
 40
0
 40
0
 40
0
 40
0
 40
1
 40
1
 40
1
 40
1
 10
307.975000
 20
554.306671
 30
0.0
 10
311.102560
 20
551.161828
 30
0.0
 10
313.393058
 20
549.294561
 30
0.0
 10
318.498564
 20
545.727588
 30
0.0
  0
SPLINE
  5
51c
100
AcDbEntity
  8
0
 62
7
100
AcDbSpline
 70
8
 71
3
 72
8
 73
4
 74
0
 40
0
 40
0
 40
0
 40
0
 40
1
 40
1
 40
1
 40
1
 10
318.498564
 20
545.727588
 30
0.0
 10
324.621869
 20
541.449543
 30
0.0
 10
330.707894
 20
537.799201
 30
0.0
 10
330.896727
 20
538.291289
 30
0.0
  0
SPLINE
  5
51d
100
AcDbEntity
  8
0
 62
7
100
AcDbSpline
 70
8
 71
3
 72
8
 73
4
 74
0
 40
0
 40
0
 40
0
 40
0
 40
1
 40
1
 40
1
 40
1
 10
330.896727
 20
538.291289
 30
0.0
 10
331.019679
 20
538.611683
 30
0.0
 10
331.533632
 20
538.685412
 30
0.0
 10
333.469456
 20
538.660364
 30
0.0
  0
SPLINE
  5
51e
100
AcDbEntity
  8
0
 62
7
100
AcDbSpline
 70
8
 71
3
 72
8
 73
4
 74
0
 40
0
 40
0
 40
0
 40
0
 40
1
 40
1
 40
1
 40
1
 10
333.469456
 20
538.660364
 30
0.0
 10
337.499960
 20
538.608207
 30
0.0
 10
337.327901
 20
538.716130
 30
0.0
 10
338.272199
 20
535.647903
 30
0.0
  0
SPLINE
  5
51f
100
AcDbEntity
  8
0
 62
7
100
AcDbSpline
 70
8
 71
3
 72
8
 73
4
 74
0
 40
0
 40
0
 40
0
 40
0
 40
1
 40
1
 40
1
 40
1
 10
338.272199
 20
535.647903
 30
0.0
 10
339.066558
 20
533.066863
 30
0.0
 10
339.116935
 20
532.983996
 30
0.0
 10
340.362011
 20
532.209375
 30
0.0
  0
SPLINE
  5
520
100
AcDbEntity
  8
0
 62
7
100
AcDbSpline
 70
8
 71
3
 72
8
 73
4
 74
0
 40
0
 40
0
 40
0
 40
0
 40
1
 40
1
 40
1
 40
1
 10
340.362011
 20
532.209375
 30
0.0
 10
345.754537
 20
528.854413
 30
0.0
 10
352.583909
 20
524.019463
 30
0.0
 10
357.617289
 20
519.993237
 30
0.0
  0
LWPOLYLINE
  5
521
100
AcDbEntity
  8
0
 62
7
100
AcDbPolyline
 90
5
 70
0
 10
313.617531
 20
592.181273
 30
0.0
 10
310.131963
 20
595.047917
 30
0.0
 10
306.445708
 20
595.047917
 30
0.0
 10
302.759480
 20
595.047917
 30
0.0
 10
301.563326
 20
592.468229
 30
0.0
  0
SPLINE
  5
522
100
AcDbEntity
  8
0
 62
7
100
AcDbSpline
 70
8
 71
3
 72
8
 73
4
 74
0
 40
0
 40
0
 40
0
 40
0
 40
1
 40
1
 40
1
 40
1
 10
369.502373
 20
525.630291
 30
0.0
 10
382.252194
 20
533.250063
 30
0.0
 10
391.672577
 20
538.658787
 30
0.0
 10
395.816667
 20
540.738637
 30
0.0
  0
SPLINE
  5
523
100
AcDbEntity
  8
0
 62
7
100
AcDbSpline
 70
8
 71
3
 72
8
 73
4
 74
0
 40
0
 40
0
 40
0
 40
0
 40
1
 40
1
 40
1
 40
1
 10
395.816667
 20
540.738637
 30
0.0
 10
395.889427
 20
540.775155
 30
0.0
 10
397.020521
 20
539.441821
 30
0.0
 10
398.330208
 20
537.775674
 30
0.0
  0
SPLINE
  5
524
100
AcDbEntity
  8
0
 62
7
100
AcDbSpline
 70
8
 71
3
 72
8
 73
4
 74
0
 40
0
 40
0
 40
0
 40
0
 40
1
 40
1
 40
1
 40
1
 10
398.330208
 20
537.775674
 30
0.0
 10
399.639896
 20
536.109529
 30
0.0
 10
400.811497
 20
534.741054
 30
0.0
 10
400.933788
 20
534.734617
 30
0.0
  0
SPLINE
  5
525
100
AcDbEntity
  8
0
 62
7
100
AcDbSpline
 70
8
 71
3
 72
8
 73
4
 74
0
 40
0
 40
0
 40
0
 40
0
 40
1
 40
1
 40
1
 40
1
 10
400.933788
 20
534.734617
 30
0.0
 10
401.056052
 20
534.728187
 30
0.0
 10
410.384837
 20
541.106667
 30
0.0
 10
421.664368
 20
548.909031
 30
0.0
  0
LWPOLYLINE
  5
526
100
AcDbEntity
  8
0
 62
7
100
AcDbPolyline
 90
3
 70
0
 10
357.617289
 20
519.993237
 30
0.0
 10
358.666230
 20
519.154182
 30
0.0
 10
369.502373
 20
525.630291
 30
0.0
  0
SPLINE
  5
527
100
AcDbEntity
  8
0
 62
7
100
AcDbSpline
 70
8
 71
3
 72
8
 73
4
 74
0
 40
0
 40
0
 40
0
 40
0
 40
1
 40
1
 40
1
 40
1
 10
455.176414
 20
554.352240
 30
0.0
 10
502.437982
 20
522.576621
 30
0.0
 10
499.347464
 20
524.590833
 30
0.0
 10
500.533723
 20
524.791252
 30
0.0
  0
SPLINE
  5
528
100
AcDbEntity
  8
0
 62
7
100
AcDbSpline
 70
8
 71
3
 72
8
 73
4
 74
0
 40
0
 40
0
 40
0
 40
0
 40
1
 40
1
 40
1
 40
1
 10
500.533723
 20
524.791252
 30
0.0
 10
501.124352
 20
524.891040
 30
0.0
 10
502.480342
 20
525.497832
 30
0.0
 10
503.547036
 20
526.139680
 30
0.0
  0
SPLINE
  5
529
100
AcDbEntity
  8
0
 62
7
100
AcDbSpline
 70
8
 71
3
 72
8
 73
4
 74
0
 40
0
 40
0
 40
0
 40
0
 40
1
 40
1
 40
1
 40
1
 10
503.547036
 20
526.139680
 30
0.0
 10
504.613704
 20
526.781527
 30
0.0
 10
505.869945
 20
527.435609
 30
0.0
 10
506.338655
 20
527.593192
 30
0.0
  0
SPLINE
  5
52a
100
AcDbEntity
  8
0
 62
7
100
AcDbSpline
 70
8
 71
3
 72
8
 73
4
 74
0
 40
0
 40
0
 40
0
 40
0
 40
1
 40
1
 40
1
 40
1
 10
506.338655
 20
527.593192
 30
0.0
 10
507.144099
 20
527.863991
 30
0.0
 10
507.238159
 20
527.824303
 30
0.0
 10
508.053261
 20
526.869541
 30
0.0
  0
SPLINE
  5
52b
100
AcDbEntity
  8
0
 62
7
100
AcDbSpline
 70
8
 71
3
 72
8
 73
4
 74
0
 40
0
 40
0
 40
0
 40
0
 40
1
 40
1
 40
1
 40
1
 10
508.053261
 20
526.869541
 30
0.0
 10
508.527579
 20
526.313950
 30
0.0
 10
509.729502
 20
525.025938
 30
0.0
 10
510.724229
 20
524.007292
 30
0.0
  0
LWPOLYLINE
  5
52c
100
AcDbEntity
  8
0
 62
7
100
AcDbPolyline
 90
3
 70
0
 10
421.664368
 20
548.909031
 30
0.0
 10
442.172646
 20
563.095143
 30
0.0
 10
455.176414
 20
554.352240
 30
0.0
  0
SPLINE
  5
52d
100
AcDbEntity
  8
0
 62
7
100
AcDbSpline
 70
8
 71
3
 72
8
 73
4
 74
0
 40
0
 40
0
 40
0
 40
0
 40
1
 40
1
 40
1
 40
1
 10
512.359460
 20
526.653125
 30
0.0
 10
512.172955
 20
531.492666
 30
0.0
 10
512.386871
 20
532.820060
 30
0.0
 10
513.622634
 20
534.491546
 30
0.0
  0
SPLINE
  5
52e
100
AcDbEntity
  8
0
 62
7
100
AcDbSpline
 70
8
 71
3
 72
8
 73
4
 74
0
 40
0
 40
0
 40
0
 40
0
 40
1
 40
1
 40
1
 40
1
 10
513.622634
 20
534.491546
 30
0.0
 10
515.037917
 20
536.405810
 30
0.0
 10
519.251591
 20
535.736871
 30
0.0
 10
521.072957
 20
533.308774
 30
0.0
  0
SPLINE
  5
52f
100
AcDbEntity
  8
0
 62
7
100
AcDbSpline
 70
8
 71
3
 72
8
 73
4
 74
0
 40
0
 40
0
 40
0
 40
0
 40
1
 40
1
 40
1
 40
1
 10
521.072957
 20
533.308774
 30
0.0
 10
521.635514
 20
532.558837
 30
0.0
 10
521.732007
 20
532.016645
 30
0.0
 10
522.022017
 20
527.976042
 30
0.0
  0
SPLINE
  5
530
100
AcDbEntity
  8
0
 62
7
100
AcDbSpline
 70
8
 71
3
 72
8
 73
4
 74
0
 40
0
 40
0
 40
0
 40
0
 40
1
 40
1
 40
1
 40
1
 10
522.022017
 20
527.976042
 30
0.0
 10
522.309857
 20
523.965323
 30
0.0
 10
522.243129
 20
517.193398
 30
0.0
 10
521.887741
 20
514.350000
 30
0.0
  0
SPLINE
  5
531
100
AcDbEntity
  8
0
 62
7
100
AcDbSpline
 70
8
 71
3
 72
8
 73
4
 74
0
 40
0
 40
0
 40
0
 40
0
 40
1
 40
1
 40
1
 40
1
 10
521.887741
 20
514.350000
 30
0.0
 10
521.780161
 20
513.489329
 30
0.0
 10
521.879010
 20
513.338770
 30
0.0
 10
523.286514
 20
512.217199
 30
0.0
  0
SPLINE
  5
532
100
AcDbEntity
  8
0
 62
7
100
AcDbSpline
 70
8
 71
3
 72
8
 73
4
 74
0
 40
0
 40
0
 40
0
 40
0
 40
1
 40
1
 40
1
 40
1
 10
523.286514
 20
512.217199
 30
0.0
 10
527.296036
 20
509.022453
 30
0.0
 10
526.973985
 20
509.214980
 30
0.0
 10
527.635814
 20
509.616996
 30
0.0
  0
SPLINE
  5
533
100
AcDbEntity
  8
0
 62
7
100
AcDbSpline
 70
8
 71
3
 72
8
 73
4
 74
0
 40
0
 40
0
 40
0
 40
0
 40
1
 40
1
 40
1
 40
1
 10
527.635814
 20
509.616996
 30
0.0
 10
528.033086
 20
509.858301
 30
0.0
 10
528.840779
 20
509.957819
 30
0.0
 10
529.989468
 20
509.906987
 30
0.0
  0
LWPOLYLINE
  5
534
100
AcDbEntity
  8
0
 62
7
100
AcDbPolyline
 90
3
 70
0
 10
510.724229
 20
524.007292
 30
0.0
 10
512.532815
 20
522.155208
 30
0.0
 10
512.359460
 20
526.653125
 30
0.0
  0
SPLINE
  5
535
100
AcDbEntity
  8
0
 62
7
100
AcDbSpline
 70
8
 71
3
 72
8
 73
4
 74
0
 40
0
 40
0
 40
0
 40
0
 40
1
 40
1
 40
1
 40
1
 10
531.917910
 20
507.675774
 30
0.0
 10
532.066500
 20
505.894279
 30
0.0
 10
532.196358
 20
505.450279
 30
0.0
 10
532.669194
 20
505.107332
 30
0.0
  0
SPLINE
  5
536
100
AcDbEntity
  8
0
 62
7
100
AcDbSpline
 70
8
 71
3
 72
8
 73
4
 74
0
 40
0
 40
0
 40
0
 40
0
 40
1
 40
1
 40
1
 40
1
 10
532.669194
 20
505.107332
 30
0.0
 10
532.983625
 20
504.879287
 30
0.0
 10
534.675662
 20
503.692017
 30
0.0
 10
536.429294
 20
502.468946
 30
0.0
  0
SPLINE
  5
537
100
AcDbEntity
  8
0
 62
7
100
AcDbSpline
 70
8
 71
3
 72
8
 73
4
 74
0
 40
0
 40
0
 40
0
 40
0
 40
1
 40
1
 40
1
 40
1
 10
536.429294
 20
502.468946
 30
0.0
 10
541.153165
 20
499.174278
 30
0.0
 10
559.283261
 20
487.379722
 30
0.0
 10
559.641401
 20
487.368260
 30
0.0
  0
SPLINE
  5
538
100
AcDbEntity
  8
0
 62
7
100
AcDbSpline
 70
8
 71
3
 72
8
 73
4
 74
0
 40
0
 40
0
 40
0
 40
0
 40
1
 40
1
 40
1
 40
1
 10
559.641401
 20
487.368260
 30
0.0
 10
559.740382
 20
487.365085
 30
0.0
 10
561.050149
 20
488.126572
 30
0.0
 10
562.552030
 20
489.060437
 30
0.0
  0
LWPOLYLINE
  5
539
100
AcDbEntity
  8
0
 62
7
100
AcDbPolyline
 90
3
 70
0
 10
529.989468
 20
509.906987
 30
0.0
 10
531.738284
 20
509.829596
 30
0.0
 10
531.917910
 20
507.675774
 30
0.0
  0
LWPOLYLINE
  5
53a
100
AcDbEntity
  8
0
 62
7
100
AcDbPolyline
 90
1
 70
1
 10
562.552030
 20
489.060437
 30
0.0
  0
SPLINE
  5
53b
100
AcDbEntity
  8
0
 62
7
100
AcDbSpline
 70
8
 71
3
 72
8
 73
4
 74
0
 40
0
 40
0
 40
0
 40
0
 40
1
 40
1
 40
1
 40
1
 10
521.813525
 20
493.510972
 30
0.0
 10
521.703750
 20
490.279431
 30
0.0
 10
521.967486
 20
489.992641
 30
0.0
 10
522.759437
 20
492.482296
 30
0.0
  0
LWPOLYLINE
  5
53c
100
AcDbEntity
  8
0
 62
7
100
AcDbPolyline
 90
3
 70
0
 10
522.655403
 20
495.170243
 30
0.0
 10
521.890625
 20
495.781105
 30
0.0
 10
521.813525
 20
493.510972
 30
0.0
  0
SPLINE
  5
53d
100
AcDbEntity
  8
0
 62
7
100
AcDbSpline
 70
8
 71
3
 72
8
 73
4
 74
0
 40
0
 40
0
 40
0
 40
0
 40
1
 40
1
 40
1
 40
1
 10
328.147495
 20
499.499395
 30
0.0
 10
332.345083
 20
502.495423
 30
0.0
 10
333.084990
 20
503.123584
 30
0.0
 10
332.977966
 20
503.600437
 30
0.0
  0
SPLINE
  5
53e
100
AcDbEntity
  8
0
 62
7
100
AcDbSpline
 70
8
 71
3
 72
8
 73
4
 74
0
 40
0
 40
0
 40
0
 40
0
 40
1
 40
1
 40
1
 40
1
 10
332.977966
 20
503.600437
 30
0.0
 10
332.633346
 20
505.136306
 30
0.0
 10
329.161166
 20
530.718882
 30
0.0
 10
329.213448
 20
531.336893
 30
0.0
  0
SPLINE
  5
53f
100
AcDbEntity
  8
0
 62
7
100
AcDbSpline
 70
8
 71
3
 72
8
 73
4
 74
0
 40
0
 40
0
 40
0
 40
0
 40
1
 40
1
 40
1
 40
1
 10
329.213448
 20
531.336893
 30
0.0
 10
329.270307
 20
532.008837
 30
0.0
 10
328.488781
 20
532.546790
 30
0.0
 10
316.240716
 20
540.266580
 30
0.0
  0
SPLINE
  5
540
100
AcDbEntity
  8
0
 62
7
100
AcDbSpline
 70
8
 71
3
 72
8
 73
4
 74
0
 40
0
 40
0
 40
0
 40
0
 40
1
 40
1
 40
1
 40
1
 10
316.240716
 20
540.266580
 30
0.0
 10
309.072439
 20
544.784648
 30
0.0
 10
303.162917
 20
548.481250
 30
0.0
 10
303.108439
 20
548.481250
 30
0.0
  0
SPLINE
  5
541
100
AcDbEntity
  8
0
 62
7
100
AcDbSpline
 70
8
 71
3
 72
8
 73
4
 74
0
 40
0
 40
0
 40
0
 40
0
 40
1
 40
1
 40
1
 40
1
 10
303.108439
 20
548.481250
 30
0.0
 10
302.979164
 20
548.481250
 30
0.0
 10
302.042433
 20
546.064633
 30
0.0
 10
301.518796
 20
544.380208
 30
0.0
  0
SPLINE
  5
542
100
AcDbEntity
  8
0
 62
7
100
AcDbSpline
 70
8
 71
3
 72
8
 73
4
 74
0
 40
0
 40
0
 40
0
 40
0
 40
1
 40
1
 40
1
 40
1
 10
301.518796
 20
544.380208
 30
0.0
 10
298.455900
 20
534.527662
 30
0.0
 10
297.745970
 20
517.434761
 30
0.0
 10
299.793739
 20
502.845197
 30
0.0
  0
SPLINE
  5
543
100
AcDbEntity
  8
0
 62
7
100
AcDbSpline
 70
8
 71
3
 72
8
 73
4
 74
0
 40
0
 40
0
 40
0
 40
0
 40
1
 40
1
 40
1
 40
1
 10
299.793739
 20
502.845197
 30
0.0
 10
300.090073
 20
500.734028
 30
0.0
 10
300.771586
 20
499.816678
 30
0.0
 10
302.905372
 20
498.656890
 30
0.0
  0
SPLINE
  5
544
100
AcDbEntity
  8
0
 62
7
100
AcDbSpline
 70
8
 71
3
 72
8
 73
4
 74
0
 40
0
 40
0
 40
0
 40
0
 40
1
 40
1
 40
1
 40
1
 10
302.905372
 20
498.656890
 30
0.0
 10
305.029579
 20
497.502294
 30
0.0
 10
307.350134
 20
497.132573
 30
0.0
 10
314.060417
 20
496.879607
 30
0.0
  0
SPLINE
  5
545
100
AcDbEntity
  8
0
 62
7
100
AcDbSpline
 70
8
 71
3
 72
8
 73
4
 74
0
 40
0
 40
0
 40
0
 40
0
 40
1
 40
1
 40
1
 40
1
 10
314.060417
 20
496.879607
 30
0.0
 10
318.032051
 20
496.729885
 30
0.0
 10
320.756015
 20
496.506831
 30
0.0
 10
321.601042
 20
496.262133
 30
0.0
  0
SPLINE
  5
546
100
AcDbEntity
  8
0
 62
7
100
AcDbSpline
 70
8
 71
3
 72
8
 73
4
 74
0
 40
0
 40
0
 40
0
 40
0
 40
1
 40
1
 40
1
 40
1
 10
321.601042
 20
496.262133
 30
0.0
 10
322.328646
 20
496.051440
 30
0.0
 10
322.983966
 20
495.897596
 30
0.0
 10
323.057308
 20
495.920257
 30
0.0
  0
SPLINE
  5
547
100
AcDbEntity
  8
0
 62
7
100
AcDbSpline
 70
8
 71
3
 72
8
 73
4
 74
0
 40
0
 40
0
 40
0
 40
0
 40
1
 40
1
 40
1
 40
1
 10
323.057308
 20
495.920257
 30
0.0
 10
323.130624
 20
495.942906
 30
0.0
 10
325.421228
 20
497.553530
 30
0.0
 10
328.147495
 20
499.499395
 30
0.0
  0
LWPOLYLINE
  5
548
100
AcDbEntity
  8
0
 62
7
100
AcDbPolyline
 90
3
 70
0
 10
522.759437
 20
492.482296
 30
0.0
 10
523.420181
 20
494.559384
 30
0.0
 10
522.655403
 20
495.170243
 30
0.0
  0
SPLINE
  5
549
100
AcDbEntity
  8
0
 62
7
100
AcDbSpline
 70
8
 71
3
 72
8
 73
4
 74
0
 40
0
 40
0
 40
0
 40
0
 40
1
 40
1
 40
1
 40
1
 10
345.828779
 20
515.554156
 30
0.0
 10
348.510146
 20
516.128990
 30
0.0
 10
349.646214
 20
516.057705
 30
0.0
 10
350.261052
 20
515.276042
 30
0.0
  0
SPLINE
  5
54a
100
AcDbEntity
  8
0
 62
7
100
AcDbSpline
 70
8
 71
3
 72
8
 73
4
 74
0
 40
0
 40
0
 40
0
 40
0
 40
1
 40
1
 40
1
 40
1
 10
350.261052
 20
515.276042
 30
0.0
 10
350.547226
 20
514.912240
 30
0.0
 10
350.847554
 20
514.614583
 30
0.0
 10
350.928464
 20
514.614583
 30
0.0
  0
SPLINE
  5
54b
100
AcDbEntity
  8
0
 62
7
100
AcDbSpline
 70
8
 71
3
 72
8
 73
4
 74
0
 40
0
 40
0
 40
0
 40
0
 40
1
 40
1
 40
1
 40
1
 10
350.928464
 20
514.614583
 30
0.0
 10
351.009373
 20
514.614583
 30
0.0
 10
351.752032
 20
515.022063
 30
0.0
 10
352.578776
 20
515.520096
 30
0.0
  0
LWPOLYLINE
  5
54c
100
AcDbEntity
  8
0
 62
7
100
AcDbPolyline
 90
1
 70
1
 10
328.147495
 20
499.499395
 30
0.0
  0
SPLINE
  5
54d
100
AcDbEntity
  8
0
 62
7
100
AcDbSpline
 70
8
 71
3
 72
8
 73
4
 74
0
 40
0
 40
0
 40
0
 40
0
 40
1
 40
1
 40
1
 40
1
 10
352.261302
 20
517.590421
 30
0.0
 10
350.174825
 20
518.925281
 30
0.0
 10
342.161813
 20
523.947530
 30
0.0
 10
341.598276
 20
524.273600
 30
0.0
  0
SPLINE
  5
54e
100
AcDbEntity
  8
0
 62
7
100
AcDbSpline
 70
8
 71
3
 72
8
 73
4
 74
0
 40
0
 40
0
 40
0
 40
0
 40
1
 40
1
 40
1
 40
1
 10
341.598276
 20
524.273600
 30
0.0
 10
341.310913
 20
524.439854
 30
0.0
 10
341.266436
 20
524.376679
 30
0.0
 10
341.409073
 20
524.004958
 30
0.0
  0
SPLINE
  5
54f
100
AcDbEntity
  8
0
 62
7
100
AcDbSpline
 70
8
 71
3
 72
8
 73
4
 74
0
 40
0
 40
0
 40
0
 40
0
 40
1
 40
1
 40
1
 40
1
 10
341.409073
 20
524.004958
 30
0.0
 10
341.511652
 20
523.737650
 30
0.0
 10
341.889371
 20
521.664290
 30
0.0
 10
342.248464
 20
519.397491
 30
0.0
  0
SPLINE
  5
550
100
AcDbEntity
  8
0
 62
7
100
AcDbSpline
 70
8
 71
3
 72
8
 73
4
 74
0
 40
0
 40
0
 40
0
 40
0
 40
1
 40
1
 40
1
 40
1
 10
342.248464
 20
519.397491
 30
0.0
 10
342.607530
 20
517.130694
 30
0.0
 10
342.969559
 20
514.981309
 30
0.0
 10
343.052956
 20
514.621079
 30
0.0
  0
LWPOLYLINE
  5
551
100
AcDbEntity
  8
0
 62
7
100
AcDbPolyline
 90
3
 70
0
 10
352.578776
 20
515.520096
 30
0.0
 10
354.081980
 20
516.425609
 30
0.0
 10
352.261302
 20
517.590421
 30
0.0
  0
SPLINE
  5
552
100
AcDbEntity
  8
0
 62
7
100
AcDbSpline
 70
8
 71
3
 72
8
 73
4
 74
0
 40
0
 40
0
 40
0
 40
0
 40
1
 40
1
 40
1
 40
1
 10
343.665969
 20
514.577756
 30
0.0
 10
343.988284
 20
515.005058
 30
0.0
 10
344.640112
 20
515.299330
 30
0.0
 10
345.828779
 20
515.554156
 30
0.0
  0
LWPOLYLINE
  5
553
100
AcDbEntity
  8
0
 62
7
100
AcDbPolyline
 90
3
 70
0
 10
343.052956
 20
514.621079
 30
0.0
 10
343.204615
 20
513.966113
 30
0.0
 10
343.665969
 20
514.577756
 30
0.0
  0
SPLINE
  5
554
100
AcDbEntity
  8
0
 62
7
100
AcDbSpline
 70
8
 71
3
 72
8
 73
4
 74
0
 40
0
 40
0
 40
0
 40
0
 40
1
 40
1
 40
1
 40
1
 10
593.460417
 20
555.975755
 30
0.0
 10
593.460417
 20
556.383068
 30
0.0
 10
592.546175
 20
557.268179
 30
0.0
 10
591.644211
 20
557.734105
 30
0.0
  0
SPLINE
  5
555
100
AcDbEntity
  8
0
 62
7
100
AcDbSpline
 70
8
 71
3
 72
8
 73
4
 74
0
 40
0
 40
0
 40
0
 40
0
 40
1
 40
1
 40
1
 40
1
 10
591.644211
 20
557.734105
 30
0.0
 10
591.058582
 20
558.036632
 30
0.0
 10
591.072049
 20
557.979649
 30
0.0
 10
591.855375
 20
556.841126
 30
0.0
  0
SPLINE
  5
556
100
AcDbEntity
  8
0
 62
7
100
AcDbSpline
 70
8
 71
3
 72
8
 73
4
 74
0
 40
0
 40
0
 40
0
 40
0
 40
1
 40
1
 40
1
 40
1
 10
591.855375
 20
556.841126
 30
0.0
 10
592.659020
 20
555.673043
 30
0.0
 10
593.460417
 20
555.240973
 30
0.0
 10
593.460417
 20
555.975755
 30
0.0
  0
LWPOLYLINE
  5
557
100
AcDbEntity
  8
0
 62
7
100
AcDbPolyline
 90
1
 70
1
 10
345.828779
 20
515.554156
 30
0.0
  0
LWPOLYLINE
  5
558
100
AcDbEntity
  8
0
 62
7
100
AcDbPolyline
 90
1
 70
1
 10
593.460417
 20
555.975755
 30
0.0
  0
SPLINE
  5
559
100
AcDbEntity
  8
0
 62
7
100
AcDbSpline
 70
8
 71
3
 72
8
 73
4
 74
0
 40
0
 40
0
 40
0
 40
0
 40
1
 40
1
 40
1
 40
1
 10
596.362367
 20
589.015710
 30
0.0
 10
596.356281
 20
591.935618
 30
0.0
 10
596.257248
 20
593.190862
 30
0.0
 10
596.006925
 20
593.520456
 30
0.0
  0
SPLINE
  5
55a
100
AcDbEntity
  8
0
 62
7
100
AcDbSpline
 70
8
 71
3
 72
8
 73
4
 74
0
 40
0
 40
0
 40
0
 40
0
 40
1
 40
1
 40
1
 40
1
 10
596.006925
 20
593.520456
 30
0.0
 10
595.684927
 20
593.944430
 30
0.0
 10
595.635741
 20
593.932222
 30
0.0
 10
595.324777
 20
593.351144
 30
0.0
  0
SPLINE
  5
55b
100
AcDbEntity
  8
0
 62
7
100
AcDbSpline
 70
8
 71
3
 72
8
 73
4
 74
0
 40
0
 40
0
 40
0
 40
0
 40
1
 40
1
 40
1
 40
1
 10
595.324777
 20
593.351144
 30
0.0
 10
595.140441
 20
593.006717
 30
0.0
 10
594.701180
 20
592.570549
 30
0.0
 10
594.348649
 20
592.381880
 30
0.0
  0
SPLINE
  5
55c
100
AcDbEntity
  8
0
 62
7
100
AcDbSpline
 70
8
 71
3
 72
8
 73
4
 74
0
 40
0
 40
0
 40
0
 40
0
 40
1
 40
1
 40
1
 40
1
 10
594.348649
 20
592.381880
 30
0.0
 10
593.747119
 20
592.059940
 30
0.0
 10
593.614669
 20
592.130668
 30
0.0
 10
592.194967
 20
593.532068
 30
0.0
  0
LWPOLYLINE
  5
55d
100
AcDbEntity
  8
0
 62
7
100
AcDbPolyline
 90
3
 70
0
 10
595.246354
 20
584.457458
 30
0.0
 10
596.370833
 20
584.967879
 30
0.0
 10
596.362367
 20
589.015710
 30
0.0
  0
SPLINE
  5
55e
100
AcDbEntity
  8
0
 62
7
100
AcDbSpline
 70
8
 71
3
 72
8
 73
4
 74
0
 40
0
 40
0
 40
0
 40
0
 40
1
 40
1
 40
1
 40
1
 10
576.952692
 20
595.042596
 30
0.0
 10
564.566038
 20
595.058206
 30
0.0
 10
563.256509
 20
595.019683
 30
0.0
 10
563.564326
 20
594.648779
 30
0.0
  0
SPLINE
  5
55f
100
AcDbEntity
  8
0
 62
7
100
AcDbSpline
 70
8
 71
3
 72
8
 73
4
 74
0
 40
0
 40
0
 40
0
 40
0
 40
1
 40
1
 40
1
 40
1
 10
563.564326
 20
594.648779
 30
0.0
 10
563.941648
 20
594.194135
 30
0.0
 10
567.436529
 20
592.005005
 30
0.0
 10
570.309322
 20
590.423841
 30
0.0
  0
SPLINE
  5
560
100
AcDbEntity
  8
0
 62
7
100
AcDbSpline
 70
8
 71
3
 72
8
 73
4
 74
0
 40
0
 40
0
 40
0
 40
0
 40
1
 40
1
 40
1
 40
1
 10
570.309322
 20
590.423841
 30
0.0
 10
572.987038
 20
588.950046
 30
0.0
 10
575.931480
 20
586.928828
 30
0.0
 10
577.453072
 20
585.520019
 30
0.0
  0
LWPOLYLINE
  5
561
100
AcDbEntity
  8
0
 62
7
100
AcDbPolyline
 90
3
 70
0
 10
592.194967
 20
593.532068
 30
0.0
 10
590.682239
 20
595.025292
 30
0.0
 10
576.952692
 20
595.042596
 30
0.0
  0
SPLINE
  5
562
100
AcDbEntity
  8
0
 62
7
100
AcDbSpline
 70
8
 71
3
 72
8
 73
4
 74
0
 40
0
 40
0
 40
0
 40
0
 40
1
 40
1
 40
1
 40
1
 10
581.157239
 20
584.632162
 30
0.0
 10
582.466926
 20
584.817522
 30
0.0
 10
584.907707
 20
585.039235
 30
0.0
 10
586.581197
 20
585.124862
 30
0.0
  0
SPLINE
  5
563
100
AcDbEntity
  8
0
 62
7
100
AcDbSpline
 70
8
 71
3
 72
8
 73
4
 74
0
 40
0
 40
0
 40
0
 40
0
 40
1
 40
1
 40
1
 40
1
 10
586.581197
 20
585.124862
 30
0.0
 10
589.412530
 20
585.269732
 30
0.0
 10
589.725003
 20
585.235876
 30
0.0
 10
591.079114
 20
584.637539
 30
0.0
  0
SPLINE
  5
564
100
AcDbEntity
  8
0
 62
7
100
AcDbSpline
 70
8
 71
3
 72
8
 73
4
 74
0
 40
0
 40
0
 40
0
 40
0
 40
1
 40
1
 40
1
 40
1
 10
591.079114
 20
584.637539
 30
0.0
 10
592.879180
 20
583.842146
 30
0.0
 10
593.802814
 20
583.802233
 30
0.0
 10
595.246301
 20
584.457461
 30
0.0
  0
LWPOLYLINE
  5
565
100
AcDbEntity
  8
0
 62
7
100
AcDbPolyline
 90
3
 70
0
 10
577.453072
 20
585.520019
 30
0.0
 10
578.775989
 20
584.295149
 30
0.0
 10
581.157239
 20
584.632162
 30
0.0
  0
LWPOLYLINE
  5
566
100
AcDbEntity
  8
0
 62
7
100
AcDbPolyline
 90
1
 70
1
 10
595.246301
 20
584.457461
 30
0.0
  0
SPLINE
  5
567
100
AcDbEntity
  8
0
 62
7
100
AcDbSpline
 70
8
 71
3
 72
8
 73
4
 74
0
 40
0
 40
0
 40
0
 40
0
 40
1
 40
1
 40
1
 40
1
 10
224.967027
 20
595.039487
 30
0.0
 10
222.648272
 20
595.047477
 30
0.0
 10
222.517674
 20
595.017791
 30
0.0
 10
222.386520
 20
594.452596
 30
0.0
  0
SPLINE
  5
568
100
AcDbEntity
  8
0
 62
7
100
AcDbSpline
 70
8
 71
3
 72
8
 73
4
 74
0
 40
0
 40
0
 40
0
 40
0
 40
1
 40
1
 40
1
 40
1
 10
222.386520
 20
594.452596
 30
0.0
 10
222.153581
 20
593.448698
 30
0.0
 10
221.456245
 20
589.994907
 30
0.0
 10
221.456245
 20
589.845065
 30
0.0
  0
SPLINE
  5
569
100
AcDbEntity
  8
0
 62
7
100
AcDbSpline
 70
8
 71
3
 72
8
 73
4
 74
0
 40
0
 40
0
 40
0
 40
0
 40
1
 40
1
 40
1
 40
1
 10
221.456245
 20
589.845065
 30
0.0
 10
221.456245
 20
589.707762
 30
0.0
 10
222.985457
 20
591.022620
 30
0.0
 10
225.954161
 20
593.712533
 30
0.0
  0
LWPOLYLINE
  5
56a
100
AcDbEntity
  8
0
 62
7
100
AcDbPolyline
 90
3
 70
0
 10
225.954161
 20
593.712533
 30
0.0
 10
227.409370
 20
595.031073
 30
0.0
 10
224.967027
 20
595.039487
 30
0.0
  0
LWPOLYLINE
  5
56b
100
AcDbEntity
  8
0
 62
7
100
AcDbPolyline
 90
1
 70
1
 10
225.954161
 20
593.712533
 30
0.0
  0
ENDSEC
  0
SECTION
  2
OBJECTS
  0
DICTIONARY
  5
C
330
0
100
AcDbDictionary
  3
ACAD_GROUP
350
D
  3
ACAD_MLINESTYLE
350
17
  0
DICTIONARY
  5
D
330
C
100
AcDbDictionary
  0
DICTIONARY
  5
1A
330
C
100
AcDbDictionary
  0
DICTIONARY
  5
17
330
C
100
AcDbDictionary
  3
STANDARD
350
18
  0
DICTIONARY
  5
19
330
C
100
AcDbDictionary
  0
ENDSEC
  0
EOF
