  0
SECTION
  2
HEADER
  9
$ACADVER
  1
AC1015
  9
$ACADMAINTVER
 70
     6
  9
$DWGCODEPAGE
  3
ANSI_1252
  9
$INSBASE
 10
0.0
 20
0.0
 30
0.0
  9
$EXTMIN
 10
-216.9109
 20
-147.5362
 30
0.0
  9
$EXTMAX
 10
146.6513
 20
110.9742
 30
0.0
  9
$LIMMIN
 10
0.0
 20
0.0
  9
$LIMMAX
 10
12.0
 20
9.0
  9
$ORTHOMODE
 70
     0
  9
$REGENMODE
 70
     1
  9
$FILLMODE
 70
     1
  9
$QTEXTMODE
 70
     0
  9
$MIRRTEXT
 70
     1
  9
$LTSCALE
 40
1.0
  9
$ATTMODE
 70
     1
  9
$TEXTSIZE
 40
0.2
  9
$TRACEWID
 40
0.05
  9
$TEXTSTYLE
  7
Standard
  9
$CLAYER
  8
0
  9
$CELTYPE
  6
ByLayer
  9
$CECOLOR
 62
   256
  9
$CELTSCALE
 40
1.0
  9
$DISPSILH
 70
     0
  9
$DIMSCALE
 40
1.0
  9
$DIMASZ
 40
0.18
  9
$DIMEXO
 40
0.0625
  9
$DIMDLI
 40
0.38
  9
$DIMRND
 40
0.0
  9
$DIMDLE
 40
0.0
  9
$DIMEXE
 40
0.18
  9
$DIMTP
 40
0.0
  9
$DIMTM
 40
0.0
  9
$DIMTXT
 40
0.18
  9
$DIMCEN
 40
0.09
  9
$DIMTSZ
 40
0.0
  9
$DIMTOL
 70
     0
  9
$DIMLIM
 70
     0
  9
$DIMTIH
 70
     1
  9
$DIMTOH
 70
     1
  9
$DIMSE1
 70
     0
  9
$DIMSE2
 70
     0
  9
$DIMTAD
 70
     0
  9
$DIMZIN
 70
     0
  9
$DIMBLK
  1

  9
$DIMASO
 70
     1
  9
$DIMSHO
 70
     1
  9
$DIMPOST
  1

  9
$DIMAPOST
  1

  9
$DIMALT
 70
     0
  9
$DIMALTD
 70
     2
  9
$DIMALTF
 40
25.4
  9
$DIMLFAC
 40
1.0
  9
$DIMTOFL
 70
     0
  9
$DIMTVP
 40
0.0
  9
$DIMTIX
 70
     0
  9
$DIMSOXD
 70
     0
  9
$DIMSAH
 70
     0
  9
$DIMBLK1
  1

  9
$DIMBLK2
  1

  9
$DIMSTYLE
  2
Standard
  9
$DIMCLRD
 70
     0
  9
$DIMCLRE
 70
     0
  9
$DIMCLRT
 70
     0
  9
$DIMTFAC
 40
1.0
  9
$DIMGAP
 40
0.09
  9
$DIMJUST
 70
     0
  9
$DIMSD1
 70
     0
  9
$DIMSD2
 70
     0
  9
$DIMTOLJ
 70
     1
  9
$DIMTZIN
 70
     0
  9
$DIMALTZ
 70
     0
  9
$DIMALTTZ
 70
     0
  9
$DIMUPT
 70
     0
  9
$DIMDEC
 70
     4
  9
$DIMTDEC
 70
     4
  9
$DIMALTU
 70
     2
  9
$DIMALTTD
 70
     2
  9
$DIMTXSTY
  7
Standard
  9
$DIMAUNIT
 70
     0
  9
$DIMADEC
 70
     0
  9
$DIMALTRND
 40
0.0
  9
$DIMAZIN
 70
     0
  9
$DIMDSEP
 70
    46
  9
$DIMATFIT
 70
     3
  9
$DIMFRAC
 70
     0
  9
$DIMLDRBLK
  1

  9
$DIMLUNIT
 70
     2
  9
$DIMLWD
 70
    -2
  9
$DIMLWE
 70
    -2
  9
$DIMTMOVE
 70
     0
  9
$LUNITS
 70
     2
  9
$LUPREC
 70
     4
  9
$SKETCHINC
 40
0.1
  9
$FILLETRAD
 40
0.5
  9
$AUNITS
 70
     0
  9
$AUPREC
 70
     0
  9
$MENU
  1
.
  9
$ELEVATION
 40
0.0
  9
$PELEVATION
 40
0.0
  9
$THICKNESS
 40
0.0
  9
$LIMCHECK
 70
     0
  9
$CHAMFERA
 40
0.0
  9
$CHAMFERB
 40
0.0
  9
$CHAMFERC
 40
0.0
  9
$CHAMFERD
 40
0.0
  9
$SKPOLY
 70
     0
  9
$TDCREATE
 40
2458005.467146713
  9
$TDUCREATE
 40
2458005.592146713
  9
$TDUPDATE
 40
2458005.467148021
  9
$TDUUPDATE
 40
2458005.592148021
  9
$TDINDWG
 40
0.0000000116
  9
$TDUSRTIMER
 40
0.0000000116
  9
$USRTIMER
 70
     1
  9
$ANGBASE
 50
0.0
  9
$ANGDIR
 70
     0
  9
$PDMODE
 70
     0
  9
$PDSIZE
 40
0.0
  9
$PLINEWID
 40
0.0
  9
$SPLFRAME
 70
     0
  9
$SPLINETYPE
 70
     6
  9
$SPLINESEGS
 70
     8
  9
$HANDSEED
  5
C9
  9
$SURFTAB1
 70
     6
  9
$SURFTAB2
 70
     6
  9
$SURFTYPE
 70
     6
  9
$SURFU
 70
     6
  9
$SURFV
 70
     6
  9
$UCSBASE
  2

  9
$UCSNAME
  2

  9
$UCSORG
 10
0.0
 20
0.0
 30
0.0
  9
$UCSXDIR
 10
1.0
 20
0.0
 30
0.0
  9
$UCSYDIR
 10
0.0
 20
1.0
 30
0.0
  9
$UCSORTHOREF
  2

  9
$UCSORTHOVIEW
 70
     0
  9
$UCSORGTOP
 10
0.0
 20
0.0
 30
0.0
  9
$UCSORGBOTTOM
 10
0.0
 20
0.0
 30
0.0
  9
$UCSORGLEFT
 10
0.0
 20
0.0
 30
0.0
  9
$UCSORGRIGHT
 10
0.0
 20
0.0
 30
0.0
  9
$UCSORGFRONT
 10
0.0
 20
0.0
 30
0.0
  9
$UCSORGBACK
 10
0.0
 20
0.0
 30
0.0
  9
$PUCSBASE
  2

  9
$PUCSNAME
  2

  9
$PUCSORG
 10
0.0
 20
0.0
 30
0.0
  9
$PUCSXDIR
 10
1.0
 20
0.0
 30
0.0
  9
$PUCSYDIR
 10
0.0
 20
1.0
 30
0.0
  9
$PUCSORTHOREF
  2

  9
$PUCSORTHOVIEW
 70
     0
  9
$PUCSORGTOP
 10
0.0
 20
0.0
 30
0.0
  9
$PUCSORGBOTTOM
 10
0.0
 20
0.0
 30
0.0
  9
$PUCSORGLEFT
 10
0.0
 20
0.0
 30
0.0
  9
$PUCSORGRIGHT
 10
0.0
 20
0.0
 30
0.0
  9
$PUCSORGFRONT
 10
0.0
 20
0.0
 30
0.0
  9
$PUCSORGBACK
 10
0.0
 20
0.0
 30
0.0
  9
$USERI1
 70
     0
  9
$USERI2
 70
     0
  9
$USERI3
 70
     0
  9
$USERI4
 70
     0
  9
$USERI5
 70
     0
  9
$USERR1
 40
0.0
  9
$USERR2
 40
0.0
  9
$USERR3
 40
0.0
  9
$USERR4
 40
0.0
  9
$USERR5
 40
0.0
  9
$WORLDVIEW
 70
     1
  9
$SHADEDGE
 70
     3
  9
$SHADEDIF
 70
    70
  9
$TILEMODE
 70
     1
  9
$MAXACTVP
 70
    64
  9
$PINSBASE
 10
0.0
 20
0.0
 30
0.0
  9
$PLIMCHECK
 70
     0
  9
$PEXTMIN
 10
1.000000000000000E+20
 20
1.000000000000000E+20
 30
1.000000000000000E+20
  9
$PEXTMAX
 10
-1.000000000000000E+20
 20
-1.000000000000000E+20
 30
-1.000000000000000E+20
  9
$PLIMMIN
 10
0.0
 20
0.0
  9
$PLIMMAX
 10
12.0
 20
9.0
  9
$UNITMODE
 70
     0
  9
$VISRETAIN
 70
     1
  9
$PLINEGEN
 70
     0
  9
$PSLTSCALE
 70
     1
  9
$TREEDEPTH
 70
  3020
  9
$CMLSTYLE
  2
Standard
  9
$CMLJUST
 70
     0
  9
$CMLSCALE
 40
1.0
  9
$PROXYGRAPHICS
 70
     1
  9
$MEASUREMENT
 70
     0
  9
$CELWEIGHT
370
    -1
  9
$ENDCAPS
280
     0
  9
$JOINSTYLE
280
     0
  9
$LWDISPLAY
290
     0
  9
$INSUNITS
 70
     4
  9
$HYPERLINKBASE
  1

  9
$STYLESHEET
  1

  9
$XEDIT
290
     1
  9
$CEPSNTYPE
380
     0
  9
$PSTYLEMODE
290
     1
  9
$FINGERPRINTGUID
  2
{2AE9B605-D946-4362-BF16-4C080038EC2C}
  9
$VERSIONGUID
  2
{FAEB1C32-E019-11D5-929B-00C0DF256EC4}
  9
$EXTNAMES
290
     1
  9
$PSVPSCALE
 40
0.0
  9
$OLESTARTUP
290
     0
  0
ENDSEC
  0
SECTION
  2
CLASSES
  0
CLASS
  1
ACDBDICTIONARYWDFLT
  2
AcDbDictionaryWithDefault
  3
ObjectDBX Classes
 90
        0
280
     0
281
     0
  0
CLASS
  1
VISUALSTYLE
  2
AcDbVisualStyle
  3
ObjectDBX Classes
 90
     4095
280
     0
281
     0
  0
CLASS
  1
MATERIAL
  2
AcDbMaterial
  3
ObjectDBX Classes
 90
     1153
280
     0
281
     0
  0
CLASS
  1
SCALE
  2
AcDbScale
  3
ObjectDBX Classes
 90
     1153
280
     0
281
     0
  0
CLASS
  1
TABLESTYLE
  2
AcDbTableStyle
  3
ObjectDBX Classes
 90
     4095
280
     0
281
     0
  0
CLASS
  1
MLEADERSTYLE
  2
AcDbMLeaderStyle
  3
ACDB_MLEADERSTYLE_CLASS
 90
     4095
280
     0
281
     0
  0
CLASS
  1
SUN
  2
AcDbSun
  3
SCENEOE
 90
     1153
280
     0
281
     0
  0
CLASS
  1
DICTIONARYVAR
  2
AcDbDictionaryVar
  3
ObjectDBX Classes
 90
        0
280
     0
281
     0
  0
CLASS
  1
ACDBPLACEHOLDER
  2
AcDbPlaceHolder
  3
ObjectDBX Classes
 90
        0
280
     0
281
     0
  0
CLASS
  1
LAYOUT
  2
AcDbLayout
  3
ObjectDBX Classes
 90
        0
280
     0
281
     0
  0
ENDSEC
  0
SECTION
  2
TABLES
  0
TABLE
  2
VPORT
  5
8
102
{ACAD_XDICTIONARY
360
8C
102
}
330
0
100
AcDbSymbolTable
 70
     1
  0
VPORT
  5
29
330
8
100
AcDbSymbolTableRecord
100
AcDbViewportTableRecord
  2
*Active
 70
     0
 10
0.0
 20
0.0
 11
1.0
 21
1.0
 12
10.42990654205607
 22
4.5
 13
0.0
 23
0.0
 14
0.5
 24
0.5
 15
0.5
 25
0.5
 16
0.0
 26
0.0
 36
1.0
 17
0.0
 27
0.0
 37
0.0
 40
9.0
 41
1.972972972850329
 42
50.0
 43
0.0
 44
0.0
 50
0.0
 51
0.0
 71
     0
 72
   100
 73
     1
 74
     3
 75
     0
 76
     0
 77
     0
 78
     0
281
     0
 65
     1
110
0.0
120
0.0
130
0.0
111
1.0
121
0.0
131
0.0
112
0.0
122
1.0
132
0.0
 79
     0
146
0.0
  0
ENDTAB
  0
TABLE
  2
LTYPE
  5
5
330
0
100
AcDbSymbolTable
 70
     1
  0
LTYPE
  5
14
330
5
100
AcDbSymbolTableRecord
100
AcDbLinetypeTableRecord
  2
ByBlock
 70
     0
  3

 72
    65
 73
     0
 40
0.0
  0
LTYPE
  5
15
330
5
100
AcDbSymbolTableRecord
100
AcDbLinetypeTableRecord
  2
ByLayer
 70
     0
  3

 72
    65
 73
     0
 40
0.0
  0
LTYPE
  5
16
330
5
100
AcDbSymbolTableRecord
100
AcDbLinetypeTableRecord
  2
Continuous
 70
     0
  3
Solid line
 72
    65
 73
     0
 40
0.0
  0
ENDTAB
  0
TABLE
  2
LAYER
  5
2
330
0
100
AcDbSymbolTable
 70
     2
  0
LAYER
  5
10
330
2
100
AcDbSymbolTableRecord
100
AcDbLayerTableRecord
  2
0
 70
     0
 62
     7
  6
Continuous
370
    -3
390
F
  0
LAYER
  5
6F
330
2
100
AcDbSymbolTableRecord
100
AcDbLayerTableRecord
  2
Camada 1
 70
     0
 62
     7
  6
Continuous
370
    -3
390
F
  0
ENDTAB
  0
TABLE
  2
STYLE
  5
3
330
0
100
AcDbSymbolTable
 70
     1
  0
STYLE
  5
11
330
3
100
AcDbSymbolTableRecord
100
AcDbTextStyleTableRecord
  2
Standard
 70
     0
 40
0.0
 41
1.0
 50
0.0
 71
     0
 42
0.2
  3
txt
  4

  0
ENDTAB
  0
TABLE
  2
VIEW
  5
6
330
0
100
AcDbSymbolTable
 70
     0
  0
ENDTAB
  0
TABLE
  2
UCS
  5
7
330
0
100
AcDbSymbolTable
 70
     0
  0
ENDTAB
  0
TABLE
  2
APPID
  5
9
330
0
100
AcDbSymbolTable
 70
     3
  0
APPID
  5
12
330
9
100
AcDbSymbolTableRecord
100
AcDbRegAppTableRecord
  2
ACAD
 70
     0
  0
APPID
  5
6E
330
9
100
AcDbSymbolTableRecord
100
AcDbRegAppTableRecord
  2
ODA
 70
     0
  0
APPID
  5
C6
330
9
100
AcDbSymbolTableRecord
100
AcDbRegAppTableRecord
  2
ACAD_MLEADERVER
 70
     0
  0
ENDTAB
  0
TABLE
  2
DIMSTYLE
  5
A
330
0
100
AcDbSymbolTable
 70
     1
100
AcDbDimStyleTable
  0
DIMSTYLE
105
27
330
A
100
AcDbSymbolTableRecord
100
AcDbDimStyleTableRecord
  2
Standard
 70
     0
178
     0
340
11
  0
ENDTAB
  0
TABLE
  2
BLOCK_RECORD
  5
1
330
0
100
AcDbSymbolTable
 70
     1
  0
BLOCK_RECORD
  5
1F
330
1
100
AcDbSymbolTableRecord
100
AcDbBlockTableRecord
  2
*Model_Space
340
22
  0
BLOCK_RECORD
  5
1B
330
1
100
AcDbSymbolTableRecord
100
AcDbBlockTableRecord
  2
*Paper_Space
340
1E
  0
BLOCK_RECORD
  5
23
330
1
100
AcDbSymbolTableRecord
100
AcDbBlockTableRecord
  2
*Paper_Space0
340
26
  0
ENDTAB
  0
ENDSEC
  0
SECTION
  2
BLOCKS
  0
BLOCK
  5
20
330
1F
100
AcDbEntity
  8
0
100
AcDbBlockBegin
  2
*Model_Space
 70
     0
 10
0.0
 20
0.0
 30
0.0
  3
*Model_Space
  1

  0
ENDBLK
  5
21
330
1F
100
AcDbEntity
  8
0
100
AcDbBlockEnd
  0
BLOCK
  5
1C
330
1B
100
AcDbEntity
 67
     1
  8
0
100
AcDbBlockBegin
  2
*Paper_Space
 70
     0
 10
0.0
 20
0.0
 30
0.0
  3
*Paper_Space
  1

  0
ENDBLK
  5
1D
330
1B
100
AcDbEntity
 67
     1
  8
0
100
AcDbBlockEnd
  0
BLOCK
  5
24
330
23
100
AcDbEntity
  8
0
100
AcDbBlockBegin
  2
*Paper_Space0
 70
     0
 10
0.0
 20
0.0
 30
0.0
  3
*Paper_Space0
  1

  0
ENDBLK
  5
25
330
23
100
AcDbEntity
  8
0
100
AcDbBlockEnd
  0
ENDSEC
  0
SECTION
  2
ENTITIES
  0
SPLINE
  5
70
330
1F
100
AcDbEntity
  8
Camada 1
 62
   250
100
AcDbSpline
210
0.0
220
0.0
230
1.0
 70
    11
 71
     3
 72
    92
 73
    88
 74
     0
 42
0.000000001
 43
0.0000000001
 40
0.0
 40
0.0
 40
0.0
 40
0.0
 40
0.0434782608695652
 40
0.0434782608695652
 40
0.0434782608695652
 40
0.0434782608695652
 40
0.0869565217391304
 40
0.0869565217391304
 40
0.0869565217391304
 40
0.0869565217391304
 40
0.1304347826086956
 40
0.1304347826086956
 40
0.1304347826086956
 40
0.1304347826086956
 40
0.1739130434782609
 40
0.1739130434782609
 40
0.1739130434782609
 40
0.1739130434782609
 40
0.2173913043478261
 40
0.2173913043478261
 40
0.2173913043478261
 40
0.2173913043478261
 40
0.2608695652173913
 40
0.2608695652173913
 40
0.2608695652173913
 40
0.2608695652173913
 40
0.3043478260869565
 40
0.3043478260869565
 40
0.3043478260869565
 40
0.3043478260869565
 40
0.3478260869565217
 40
0.3478260869565217
 40
0.3478260869565217
 40
0.3478260869565217
 40
0.391304347826087
 40
0.391304347826087
 40
0.391304347826087
 40
0.391304347826087
 40
0.4347826086956522
 40
0.4347826086956522
 40
0.4347826086956522
 40
0.4347826086956522
 40
0.4782608695652174
 40
0.4782608695652174
 40
0.4782608695652174
 40
0.4782608695652174
 40
0.5217391304347826
 40
0.5217391304347826
 40
0.5217391304347826
 40
0.5217391304347826
 40
0.5652173913043478
 40
0.5652173913043478
 40
0.5652173913043478
 40
0.5652173913043478
 40
0.6086956521739131
 40
0.6086956521739131
 40
0.6086956521739131
 40
0.6086956521739131
 40
0.6521739130434783
 40
0.6521739130434783
 40
0.6521739130434783
 40
0.6521739130434783
 40
0.6956521739130435
 40
0.6956521739130435
 40
0.6956521739130435
 40
0.6956521739130435
 40
0.7391304347826086
 40
0.7391304347826086
 40
0.7391304347826086
 40
0.7391304347826086
 40
0.782608695652174
 40
0.782608695652174
 40
0.782608695652174
 40
0.782608695652174
 40
0.8260869565217391
 40
0.8260869565217391
 40
0.8260869565217391
 40
0.8260869565217391
 40
0.8695652173913043
 40
0.8695652173913043
 40
0.8695652173913043
 40
0.8695652173913043
 40
0.9130434782608695
 40
0.9130434782608695
 40
0.9130434782608695
 40
0.9130434782608695
 40
1.0
 40
1.0
 40
1.0
 40
1.0
 10
-192.1665
 20
-144.6693
 30
0.0
 10
-192.1665
 20
-144.6693
 30
0.0
 10
-192.1665
 20
-147.5362
 30
0.0
 10
-192.1665
 20
-147.5362
 30
0.0
 10
-192.1665
 20
-147.5362
 30
0.0
 10
-192.1665
 20
-147.5362
 30
0.0
 10
-208.3438
 20
-147.5362
 30
0.0
 10
-208.3438
 20
-147.5362
 30
0.0
 10
-208.3438
 20
-147.5362
 30
0.0
 10
-208.3665
 20
-146.8138
 30
0.0
 10
-208.2471
 20
-146.1198
 30
0.0
 10
-207.9911
 20
-145.4486
 30
0.0
 10
-207.9911
 20
-145.4486
 30
0.0
 10
-207.5758
 20
-144.3508
 30
0.0
 10
-206.9103
 20
-143.2644
 30
0.0
 10
-205.9945
 20
-142.2007
 30
0.0
 10
-205.9945
 20
-142.2007
 30
0.0
 10
-205.0787
 20
-141.137
 30
0.0
 10
-203.7704
 20
-139.9083
 30
0.0
 10
-202.0697
 20
-138.5147
 30
0.0
 10
-202.0697
 20
-138.5147
 30
0.0
 10
-199.4247
 20
-136.3361
 30
0.0
 10
-197.6272
 20
-134.6126
 30
0.0
 10
-196.6886
 20
-133.3385
 30
0.0
 10
-196.6886
 20
-133.3385
 30
0.0
 10
-195.7444
 20
-132.0643
 30
0.0
 10
-195.2723
 20
-130.8584
 30
0.0
 10
-195.2723
 20
-129.7208
 30
0.0
 10
-195.2723
 20
-129.7208
 30
0.0
 10
-195.2723
 20
-128.5319
 30
0.0
 10
-195.6989
 20
-127.5308
 30
0.0
 10
-196.5521
 20
-126.7117
 30
0.0
 10
-196.5521
 20
-126.7117
 30
0.0
 10
-197.4053
 20
-125.8983
 30
0.0
 10
-198.5202
 20
-125.4887
 30
0.0
 10
-199.8911
 20
-125.4887
 30
0.0
 10
-199.8911
 20
-125.4887
 30
0.0
 10
-201.3416
 20
-125.4887
 30
0.0
 10
-202.502
 20
-125.921
 30
0.0
 10
-203.3723
 20
-126.7856
 30
0.0
 10
-203.3723
 20
-126.7856
 30
0.0
 10
-204.2426
 20
-127.6446
 30
0.0
 10
-204.6806
 20
-128.8391
 30
0.0
 10
-204.6919
 20
-130.3692
 30
0.0
 10
-204.6919
 20
-130.3692
 30
0.0
 10
-204.6919
 20
-130.3692
 30
0.0
 10
-207.7636
 20
-130.062
 30
0.0
 10
-207.7636
 20
-130.062
 30
0.0
 10
-207.7636
 20
-130.062
 30
0.0
 10
-207.5531
 20
-127.764
 30
0.0
 10
-206.7567
 20
-126.0121
 30
0.0
 10
-205.3802
 20
-124.8062
 30
0.0
 10
-205.3802
 20
-124.8062
 30
0.0
 10
-203.998
 20
-123.6003
 30
0.0
 10
-202.1493
 20
-122.9973
 30
0.0
 10
-199.8228
 20
-122.9973
 30
0.0
 10
-199.8228
 20
-122.9973
 30
0.0
 10
-197.4793
 20
-122.9973
 30
0.0
 10
-195.6192
 20
-123.6458
 30
0.0
 10
-194.2541
 20
-124.9484
 30
0.0
 10
-194.2541
 20
-124.9484
 30
0.0
 10
-192.8832
 20
-126.251
 30
0.0
 10
-192.2006
 20
-127.8664
 30
0.0
 10
-192.2006
 20
-129.789
 30
0.0
 10
-192.2006
 20
-129.789
 30
0.0
 10
-192.2006
 20
-130.7674
 30
0.0
 10
-192.3997
 20
-131.7287
 30
0.0
 10
-192.8036
 20
-132.6729
 30
0.0
 10
-192.8036
 20
-132.6729
 30
0.0
 10
-193.2018
 20
-133.6229
 30
0.0
 10
-193.8673
 20
-134.6183
 30
0.0
 10
-194.7945
 20
-135.6649
 30
0.0
 10
-194.7945
 20
-135.6649
 30
0.0
 10
-195.7273
 20
-136.7059
 30
0.0
 10
-197.2688
 20
-138.145
 30
0.0
 10
-199.419
 20
-139.9652
 30
0.0
 10
-199.419
 20
-139.9652
 30
0.0
 10
-201.2221
 20
-141.4783
 30
0.0
 10
-202.3825
 20
-142.5021
 30
0.0
 10
-202.8945
 20
-143.0425
 30
0.0
 10
-202.8945
 20
-143.0425
 30
0.0
 10
-203.4064
 20
-143.5829
 30
0.0
 10
-203.8273
 20
-144.1233
 30
0.0
 10
-204.1629
 20
-144.6693
 30
0.0
 10
-204.1629
 20
-144.6693
 30
0.0
 10
-204.1629
 20
-144.6693
 30
0.0
 10
-192.1665
 20
-144.6693
 30
0.0
 10
-192.1665
 20
-144.6693
 30
0.0
  0
SPLINE
  5
71
330
1F
100
AcDbEntity
  8
Camada 1
 62
   250
100
AcDbSpline
210
0.0
220
0.0
230
1.0
 70
    11
 71
     3
 72
    40
 73
    36
 74
     0
 42
0.000000001
 43
0.0000000001
 40
0.0
 40
0.0
 40
0.0
 40
0.0
 40
0.1
 40
0.1
 40
0.1
 40
0.1
 40
0.2
 40
0.2
 40
0.2
 40
0.2
 40
0.3
 40
0.3
 40
0.3
 40
0.3
 40
0.4
 40
0.4
 40
0.4
 40
0.4
 40
0.5
 40
0.5
 40
0.5
 40
0.5
 40
0.6
 40
0.6
 40
0.6
 40
0.6
 40
0.7
 40
0.7
 40
0.7
 40
0.7
 40
0.8
 40
0.8
 40
0.8
 40
0.8
 40
1.0
 40
1.0
 40
1.0
 40
1.0
 10
-177.6559
 20
-147.5362
 30
0.0
 10
-177.6559
 20
-147.5362
 30
0.0
 10
-180.6593
 20
-147.5362
 30
0.0
 10
-180.6593
 20
-147.5362
 30
0.0
 10
-180.6593
 20
-147.5362
 30
0.0
 10
-180.6593
 20
-147.5362
 30
0.0
 10
-180.6593
 20
-128.4125
 30
0.0
 10
-180.6593
 20
-128.4125
 30
0.0
 10
-180.6593
 20
-128.4125
 30
0.0
 10
-181.3817
 20
-129.1064
 30
0.0
 10
-182.3316
 20
-129.7947
 30
0.0
 10
-183.5034
 20
-130.483
 30
0.0
 10
-183.5034
 20
-130.483
 30
0.0
 10
-184.6752
 20
-131.1712
 30
0.0
 10
-185.7332
 20
-131.6889
 30
0.0
 10
-186.666
 20
-132.0302
 30
0.0
 10
-186.666
 20
-132.0302
 30
0.0
 10
-186.666
 20
-132.0302
 30
0.0
 10
-186.666
 20
-129.1292
 30
0.0
 10
-186.666
 20
-129.1292
 30
0.0
 10
-186.666
 20
-129.1292
 30
0.0
 10
-184.988
 20
-128.3442
 30
0.0
 10
-183.5205
 20
-127.3886
 30
0.0
 10
-182.2634
 20
-126.2623
 30
0.0
 10
-182.2634
 20
-126.2623
 30
0.0
 10
-181.0063
 20
-125.1418
 30
0.0
 10
-180.1132
 20
-124.0553
 30
0.0
 10
-179.5899
 20
-122.9973
 30
0.0
 10
-179.5899
 20
-122.9973
 30
0.0
 10
-179.5899
 20
-122.9973
 30
0.0
 10
-177.6559
 20
-122.9973
 30
0.0
 10
-177.6559
 20
-122.9973
 30
0.0
 10
-177.6559
 20
-122.9973
 30
0.0
 10
-177.6559
 20
-122.9973
 30
0.0
 10
-177.6559
 20
-147.5362
 30
0.0
 10
-177.6559
 20
-147.5362
 30
0.0
  0
SPLINE
  5
72
330
1F
100
AcDbEntity
  8
Camada 1
 62
   250
100
AcDbSpline
210
0.0
220
0.0
230
1.0
 70
    11
 71
     3
 72
    68
 73
    64
 74
     0
 42
0.000000001
 43
0.0000000001
 40
0.0
 40
0.0
 40
0.0
 40
0.0
 40
0.0588235294117647
 40
0.0588235294117647
 40
0.0588235294117647
 40
0.0588235294117647
 40
0.1176470588235294
 40
0.1176470588235294
 40
0.1176470588235294
 40
0.1176470588235294
 40
0.1764705882352941
 40
0.1764705882352941
 40
0.1764705882352941
 40
0.1764705882352941
 40
0.2352941176470588
 40
0.2352941176470588
 40
0.2352941176470588
 40
0.2352941176470588
 40
0.2941176470588235
 40
0.2941176470588235
 40
0.2941176470588235
 40
0.2941176470588235
 40
0.3529411764705883
 40
0.3529411764705883
 40
0.3529411764705883
 40
0.3529411764705883
 40
0.4117647058823529
 40
0.4117647058823529
 40
0.4117647058823529
 40
0.4117647058823529
 40
0.4705882352941176
 40
0.4705882352941176
 40
0.4705882352941176
 40
0.4705882352941176
 40
0.5294117647058824
 40
0.5294117647058824
 40
0.5294117647058824
 40
0.5294117647058824
 40
0.5882352941176471
 40
0.5882352941176471
 40
0.5882352941176471
 40
0.5882352941176471
 40
0.6470588235294118
 40
0.6470588235294118
 40
0.6470588235294118
 40
0.6470588235294118
 40
0.7058823529411765
 40
0.7058823529411765
 40
0.7058823529411765
 40
0.7058823529411765
 40
0.7647058823529411
 40
0.7647058823529411
 40
0.7647058823529411
 40
0.7647058823529411
 40
0.8235294117647058
 40
0.8235294117647058
 40
0.8235294117647058
 40
0.8235294117647058
 40
0.8823529411764706
 40
0.8823529411764706
 40
0.8823529411764706
 40
0.8823529411764706
 40
1.0
 40
1.0
 40
1.0
 40
1.0
 10
-171.2226
 20
-147.5362
 30
0.0
 10
-171.2226
 20
-147.5362
 30
0.0
 10
-161.7802
 20
-134.8572
 30
0.0
 10
-161.7802
 20
-134.8572
 30
0.0
 10
-161.7802
 20
-134.8572
 30
0.0
 10
-161.7802
 20
-134.8572
 30
0.0
 10
-170.0963
 20
-123.0997
 30
0.0
 10
-170.0963
 20
-123.0997
 30
0.0
 10
-170.0963
 20
-123.0997
 30
0.0
 10
-170.0963
 20
-123.0997
 30
0.0
 10
-166.2454
 20
-123.0997
 30
0.0
 10
-166.2454
 20
-123.0997
 30
0.0
 10
-166.2454
 20
-123.0997
 30
0.0
 10
-166.2454
 20
-123.0997
 30
0.0
 10
-161.7916
 20
-129.351
 30
0.0
 10
-161.7916
 20
-129.351
 30
0.0
 10
-161.7916
 20
-129.351
 30
0.0
 10
-160.8644
 20
-130.6479
 30
0.0
 10
-160.2216
 20
-131.6377
 30
0.0
 10
-159.8519
 20
-132.326
 30
0.0
 10
-159.8519
 20
-132.326
 30
0.0
 10
-159.3001
 20
-131.4727
 30
0.0
 10
-158.6517
 20
-130.5626
 30
0.0
 10
-157.9065
 20
-129.6013
 30
0.0
 10
-157.9065
 20
-129.6013
 30
0.0
 10
-157.9065
 20
-129.6013
 30
0.0
 10
-153.0261
 20
-123.0997
 30
0.0
 10
-153.0261
 20
-123.0997
 30
0.0
 10
-153.0261
 20
-123.0997
 30
0.0
 10
-153.0261
 20
-123.0997
 30
0.0
 10
-149.4823
 20
-123.0997
 30
0.0
 10
-149.4823
 20
-123.0997
 30
0.0
 10
-149.4823
 20
-123.0997
 30
0.0
 10
-149.4823
 20
-123.0997
 30
0.0
 10
-157.9691
 20
-134.715
 30
0.0
 10
-157.9691
 20
-134.715
 30
0.0
 10
-157.9691
 20
-134.715
 30
0.0
 10
-157.9691
 20
-134.715
 30
0.0
 10
-148.8339
 20
-147.5362
 30
0.0
 10
-148.8339
 20
-147.5362
 30
0.0
 10
-148.8339
 20
-147.5362
 30
0.0
 10
-148.8339
 20
-147.5362
 30
0.0
 10
-152.8042
 20
-147.5362
 30
0.0
 10
-152.8042
 20
-147.5362
 30
0.0
 10
-152.8042
 20
-147.5362
 30
0.0
 10
-152.8042
 20
-147.5362
 30
0.0
 10
-158.9702
 20
-138.8219
 30
0.0
 10
-158.9702
 20
-138.8219
 30
0.0
 10
-158.9702
 20
-138.8219
 30
0.0
 10
-159.3229
 20
-138.327
 30
0.0
 10
-159.6585
 20
-137.8321
 30
0.0
 10
-159.9713
 20
-137.3429
 30
0.0
 10
-159.9713
 20
-137.3429
 30
0.0
 10
-160.5174
 20
-138.162
 30
0.0
 10
-160.9042
 20
-138.7366
 30
0.0
 10
-161.1431
 20
-139.0608
 30
0.0
 10
-161.1431
 20
-139.0608
 30
0.0
 10
-161.1431
 20
-139.0608
 30
0.0
 10
-167.3376
 20
-147.5362
 30
0.0
 10
-167.3376
 20
-147.5362
 30
0.0
 10
-167.3376
 20
-147.5362
 30
0.0
 10
-167.3376
 20
-147.5362
 30
0.0
 10
-171.2226
 20
-147.5362
 30
0.0
 10
-171.2226
 20
-147.5362
 30
0.0
  0
SPLINE
  5
73
330
1F
100
AcDbEntity
  8
Camada 1
 62
   250
370
     9
100
AcDbSpline
210
0.0
220
0.0
230
1.0
 70
    11
 71
     3
 72
    88
 73
    84
 74
     0
 42
0.000000001
 43
0.0000000001
 40
0.0
 40
0.0
 40
0.0
 40
0.0
 40
0.0454545454545455
 40
0.0454545454545455
 40
0.0454545454545455
 40
0.0454545454545455
 40
0.0909090909090909
 40
0.0909090909090909
 40
0.0909090909090909
 40
0.0909090909090909
 40
0.1363636363636364
 40
0.1363636363636364
 40
0.1363636363636364
 40
0.1363636363636364
 40
0.1818181818181818
 40
0.1818181818181818
 40
0.1818181818181818
 40
0.1818181818181818
 40
0.2272727272727273
 40
0.2272727272727273
 40
0.2272727272727273
 40
0.2272727272727273
 40
0.2727272727272727
 40
0.2727272727272727
 40
0.2727272727272727
 40
0.2727272727272727
 40
0.3181818181818182
 40
0.3181818181818182
 40
0.3181818181818182
 40
0.3181818181818182
 40
0.3636363636363636
 40
0.3636363636363636
 40
0.3636363636363636
 40
0.3636363636363636
 40
0.4090909090909091
 40
0.4090909090909091
 40
0.4090909090909091
 40
0.4090909090909091
 40
0.4545454545454545
 40
0.4545454545454545
 40
0.4545454545454545
 40
0.4545454545454545
 40
0.5
 40
0.5
 40
0.5
 40
0.5
 40
0.5454545454545454
 40
0.5454545454545454
 40
0.5454545454545454
 40
0.5454545454545454
 40
0.5909090909090909
 40
0.5909090909090909
 40
0.5909090909090909
 40
0.5909090909090909
 40
0.6363636363636364
 40
0.6363636363636364
 40
0.6363636363636364
 40
0.6363636363636364
 40
0.6818181818181818
 40
0.6818181818181818
 40
0.6818181818181818
 40
0.6818181818181818
 40
0.7272727272727273
 40
0.7272727272727273
 40
0.7272727272727273
 40
0.7272727272727273
 40
0.7727272727272727
 40
0.7727272727272727
 40
0.7727272727272727
 40
0.7727272727272727
 40
0.8181818181818182
 40
0.8181818181818182
 40
0.8181818181818182
 40
0.8181818181818182
 40
0.8636363636363636
 40
0.8636363636363636
 40
0.8636363636363636
 40
0.8636363636363636
 40
0.9090909090909091
 40
0.9090909090909091
 40
0.9090909090909091
 40
0.9090909090909091
 40
1.0
 40
1.0
 40
1.0
 40
1.0
 10
-183.1392
 20
-38.6177
 30
0.0
 10
-183.3332
 20
-28.2853
 30
0.0
 10
-178.4768
 20
-26.6798
 30
0.0
 10
-177.5247
 20
-39.5555
 30
0.0
 10
-177.5247
 20
-39.5555
 30
0.0
 10
-177.6024
 20
-39.5737
 30
0.0
 10
-176.4172
 20
-44.1654
 30
0.0
 10
-176.2222
 20
-44.8833
 30
0.0
 10
-176.2222
 20
-44.8833
 30
0.0
 10
-175.6081
 20
-47.1446
 30
0.0
 10
-174.8659
 20
-49.4147
 30
0.0
 10
-174.3616
 20
-51.7359
 30
0.0
 10
-174.3616
 20
-51.7359
 30
0.0
 10
-174.3616
 20
-51.7359
 30
0.0
 10
-173.7185
 20
-54.2002
 30
0.0
 10
-173.7185
 20
-54.2002
 30
0.0
 10
-173.7185
 20
-54.2002
 30
0.0
 10
-173.3997
 20
-55.7066
 30
0.0
 10
-173.408
 20
-59.148
 30
0.0
 10
-173.3598
 20
-60.8081
 30
0.0
 10
-173.3598
 20
-60.8081
 30
0.0
 10
-173.2458
 20
-64.7369
 30
0.0
 10
-173.1738
 20
-68.6717
 30
0.0
 10
-173.1207
 20
-72.6029
 30
0.0
 10
-173.1207
 20
-72.6029
 30
0.0
 10
-173.0696
 20
-76.375
 30
0.0
 10
-173.0349
 20
-80.1528
 30
0.0
 10
-173.0505
 20
-83.9254
 30
0.0
 10
-173.0505
 20
-83.9254
 30
0.0
 10
-173.0669
 20
-87.8681
 30
0.0
 10
-171.7568
 20
-99.3754
 30
0.0
 10
-173.4755
 20
-102.1505
 30
0.0
 10
-173.4755
 20
-102.1505
 30
0.0
 10
-173.4018
 20
-104.7339
 30
0.0
 10
-173.2867
 20
-107.4092
 30
0.0
 10
-173.3326
 20
-109.9913
 30
0.0
 10
-173.3326
 20
-109.9913
 30
0.0
 10
-173.3326
 20
-109.9913
 30
0.0
 10
-173.3493
 20
-110.9333
 30
0.0
 10
-173.3493
 20
-110.9333
 30
0.0
 10
-173.3493
 20
-110.9333
 30
0.0
 10
-176.1021
 20
-114.419
 30
0.0
 10
-179.6037
 20
-116.6086
 30
0.0
 10
-183.3813
 20
-114.6382
 30
0.0
 10
-183.3813
 20
-114.6382
 30
0.0
 10
-185.3083
 20
-113.6332
 30
0.0
 10
-187.4015
 20
-111.7499
 30
0.0
 10
-187.6601
 20
-108.754
 30
0.0
 10
-187.6601
 20
-108.754
 30
0.0
 10
-187.6601
 20
-108.754
 30
0.0
 10
-187.3499
 20
-102.3626
 30
0.0
 10
-187.3499
 20
-102.3626
 30
0.0
 10
-187.3499
 20
-102.3626
 30
0.0
 10
-187.5582
 20
-102.074
 30
0.0
 10
-187.7426
 20
-101.7582
 30
0.0
 10
-187.8979
 20
-101.4127
 30
0.0
 10
-187.8979
 20
-101.4127
 30
0.0
 10
-189.4739
 20
-97.9063
 30
0.0
 10
-187.8517
 20
-91.1658
 30
0.0
 10
-187.8947
 20
-86.6462
 30
0.0
 10
-187.8947
 20
-86.6462
 30
0.0
 10
-187.9125
 20
-84.7836
 30
0.0
 10
-187.9051
 20
-82.9192
 30
0.0
 10
-187.8965
 20
-81.0567
 30
0.0
 10
-187.8965
 20
-81.0567
 30
0.0
 10
-187.8836
 20
-78.2572
 30
0.0
 10
-187.8315
 20
-75.3978
 30
0.0
 10
-187.906
 20
-72.6028
 30
0.0
 10
-187.906
 20
-72.6028
 30
0.0
 10
-187.9846
 20
-69.6541
 30
0.0
 10
-187.8866
 20
-66.7094
 30
0.0
 10
-187.8923
 20
-63.7609
 30
0.0
 10
-187.8923
 20
-63.7609
 30
0.0
 10
-187.8979
 20
-60.821
 30
0.0
 10
-187.9935
 20
-57.9493
 30
0.0
 10
-187.7777
 20
-55.0137
 30
0.0
 10
-187.7777
 20
-55.0137
 30
0.0
 10
-187.0056
 20
-51.6184
 30
0.0
 10
-186.179
 20
-48.5705
 30
0.0
 10
-185.2994
 20
-45.2333
 30
0.0
 10
-185.2994
 20
-45.2333
 30
0.0
 10
-184.7622
 20
-43.1952
 30
0.0
 10
-184.3502
 20
-40.2667
 30
0.0
 10
-183.1392
 20
-38.6177
 30
0.0
  0
SPLINE
  5
74
330
1F
100
AcDbEntity
  8
Camada 1
 62
   240
370
     9
100
AcDbSpline
210
0.0
220
0.0
230
1.0
 70
    11
 71
     3
 72
    32
 73
    28
 74
     0
 42
0.000000001
 43
0.0000000001
 40
0.0
 40
0.0
 40
0.0
 40
0.0
 40
0.125
 40
0.125
 40
0.125
 40
0.125
 40
0.25
 40
0.25
 40
0.25
 40
0.25
 40
0.375
 40
0.375
 40
0.375
 40
0.375
 40
0.5
 40
0.5
 40
0.5
 40
0.5
 40
0.625
 40
0.625
 40
0.625
 40
0.625
 40
0.75
 40
0.75
 40
0.75
 40
0.75
 40
1.0
 40
1.0
 40
1.0
 40
1.0
 10
-181.0182
 20
-54.6376
 30
0.0
 10
-182.7056
 20
-55.8492
 30
0.0
 10
-182.7643
 20
-56.255
 30
0.0
 10
-182.7102
 20
-58.466
 30
0.0
 10
-182.7102
 20
-58.466
 30
0.0
 10
-182.7102
 20
-58.466
 30
0.0
 10
-182.5194
 20
-90.7955
 30
0.0
 10
-182.5194
 20
-90.7955
 30
0.0
 10
-182.5194
 20
-90.7955
 30
0.0
 10
-181.5641
 20
-91.1323
 30
0.0
 10
-179.6447
 20
-91.2964
 30
0.0
 10
-178.5611
 20
-90.8708
 30
0.0
 10
-178.5611
 20
-90.8708
 30
0.0
 10
-178.3743
 20
-89.719
 30
0.0
 10
-178.4874
 20
-87.7045
 30
0.0
 10
-178.4914
 20
-86.4617
 30
0.0
 10
-178.4914
 20
-86.4617
 30
0.0
 10
-178.4914
 20
-86.4617
 30
0.0
 10
-178.571
 20
-58.1536
 30
0.0
 10
-178.571
 20
-58.1536
 30
0.0
 10
-178.571
 20
-58.1536
 30
0.0
 10
-178.6022
 20
-56.5988
 30
0.0
 10
-178.2093
 20
-57.1788
 30
0.0
 10
-179.2326
 20
-55.9678
 30
0.0
 10
-179.2326
 20
-55.9678
 30
0.0
 10
-179.6095
 20
-55.5218
 30
0.0
 10
-180.7141
 20
-54.8398
 30
0.0
 10
-181.0182
 20
-54.6376
 30
0.0
  0
SPLINE
  5
75
330
1F
100
AcDbEntity
  8
Camada 1
 62
   240
370
     9
100
AcDbSpline
210
0.0
220
0.0
230
1.0
 70
    11
 71
     3
 72
    24
 73
    20
 74
     0
 42
0.000000001
 43
0.0000000001
 40
0.0
 40
0.0
 40
0.0
 40
0.0
 40
0.1666666666666667
 40
0.1666666666666667
 40
0.1666666666666667
 40
0.1666666666666667
 40
0.3333333333333333
 40
0.3333333333333333
 40
0.3333333333333333
 40
0.3333333333333333
 40
0.5
 40
0.5
 40
0.5
 40
0.5
 40
0.6666666666666666
 40
0.6666666666666666
 40
0.6666666666666666
 40
0.6666666666666666
 40
1.0
 40
1.0
 40
1.0
 40
1.0
 10
-174.2365
 20
-91.4568
 30
0.0
 10
-175.459
 20
-91.5967
 30
0.0
 10
-176.1267
 20
-92.2614
 30
0.0
 10
-177.336
 20
-92.5362
 30
0.0
 10
-177.336
 20
-92.5362
 30
0.0
 10
-182.3331
 20
-93.6715
 30
0.0
 10
-184.7563
 20
-91.7438
 30
0.0
 10
-186.4679
 20
-91.7264
 30
0.0
 10
-186.4679
 20
-91.7264
 30
0.0
 10
-186.6497
 20
-92.9193
 30
0.0
 10
-186.885
 20
-98.1865
 30
0.0
 10
-186.2455
 20
-99.6096
 30
0.0
 10
-186.2455
 20
-99.6096
 30
0.0
 10
-184.6267
 20
-103.2113
 30
0.0
 10
-175.9918
 20
-103.18
 30
0.0
 10
-174.398
 20
-99.7849
 30
0.0
 10
-174.398
 20
-99.7849
 30
0.0
 10
-173.8884
 20
-98.6994
 30
0.0
 10
-173.907
 20
-93.1677
 30
0.0
 10
-174.2365
 20
-91.4568
 30
0.0
  0
SPLINE
  5
76
330
1F
100
AcDbEntity
  8
Camada 1
 62
   240
370
     9
100
AcDbSpline
210
0.0
220
0.0
230
1.0
 70
    11
 71
     3
 72
    32
 73
    28
 74
     0
 42
0.000000001
 43
0.0000000001
 40
0.0
 40
0.0
 40
0.0
 40
0.0
 40
0.125
 40
0.125
 40
0.125
 40
0.125
 40
0.25
 40
0.25
 40
0.25
 40
0.25
 40
0.375
 40
0.375
 40
0.375
 40
0.375
 40
0.5
 40
0.5
 40
0.5
 40
0.5
 40
0.625
 40
0.625
 40
0.625
 40
0.625
 40
0.75
 40
0.75
 40
0.75
 40
0.75
 40
1.0
 40
1.0
 40
1.0
 40
1.0
 10
-185.3925
 20
-52.7903
 30
0.0
 10
-185.3925
 20
-52.7903
 30
0.0
 10
-183.546
 20
-54.825
 30
0.0
 10
-183.546
 20
-54.825
 30
0.0
 10
-183.546
 20
-54.825
 30
0.0
 10
-181.1192
 20
-52.5569
 30
0.0
 10
-180.6133
 20
-52.4275
 30
0.0
 10
-178.3455
 20
-54.8662
 30
0.0
 10
-178.3455
 20
-54.8662
 30
0.0
 10
-177.188
 20
-53.4808
 30
0.0
 10
-176.8399
 20
-53.1609
 30
0.0
 10
-175.5849
 20
-52.6012
 30
0.0
 10
-175.5849
 20
-52.6012
 30
0.0
 10
-176.018
 20
-50.2594
 30
0.0
 10
-176.9269
 20
-47.4479
 30
0.0
 10
-177.5864
 20
-45.0196
 30
0.0
 10
-177.5864
 20
-45.0196
 30
0.0
 10
-178.347
 20
-42.2186
 30
0.0
 10
-178.5696
 20
-38.4224
 30
0.0
 10
-180.9914
 20
-39.0257
 30
0.0
 10
-180.9914
 20
-39.0257
 30
0.0
 10
-182.3567
 20
-39.3657
 30
0.0
 10
-182.6755
 20
-42.2158
 30
0.0
 10
-183.5016
 20
-45.3495
 30
0.0
 10
-183.5016
 20
-45.3495
 30
0.0
 10
-184.0432
 20
-47.4043
 30
0.0
 10
-185.1423
 20
-50.8678
 30
0.0
 10
-185.3925
 20
-52.7903
 30
0.0
  0
SPLINE
  5
77
330
1F
100
AcDbEntity
  8
Camada 1
 62
   240
370
     9
100
AcDbSpline
210
0.0
220
0.0
230
1.0
 70
    11
 71
     3
 72
    20
 73
    16
 74
     0
 42
0.000000001
 43
0.0000000001
 40
0.0
 40
0.0
 40
0.0
 40
0.0
 40
0.2
 40
0.2
 40
0.2
 40
0.2
 40
0.4
 40
0.4
 40
0.4
 40
0.4
 40
0.6
 40
0.6
 40
0.6
 40
0.6
 40
1.0
 40
1.0
 40
1.0
 40
1.0
 10
-175.1204
 20
-54.1806
 30
0.0
 10
-176.7627
 20
-55.1919
 30
0.0
 10
-177.2483
 20
-55.0657
 30
0.0
 10
-177.3219
 20
-57.4853
 30
0.0
 10
-177.3219
 20
-57.4853
 30
0.0
 10
-177.3219
 20
-57.4853
 30
0.0
 10
-177.122
 20
-90.5158
 30
0.0
 10
-177.122
 20
-90.5158
 30
0.0
 10
-177.122
 20
-90.5158
 30
0.0
 10
-176.2253
 20
-90.6317
 30
0.0
 10
-175.4917
 20
-90.0961
 30
0.0
 10
-174.6989
 20
-89.6654
 30
0.0
 10
-174.6989
 20
-89.6654
 30
0.0
 10
-174.2326
 20
-86.491
 30
0.0
 10
-174.7469
 20
-55.944
 30
0.0
 10
-175.1204
 20
-54.1806
 30
0.0
  0
SPLINE
  5
78
330
1F
100
AcDbEntity
  8
Camada 1
 62
   240
370
     9
100
AcDbSpline
210
0.0
220
0.0
230
1.0
 70
    11
 71
     3
 72
    28
 73
    24
 74
     0
 42
0.000000001
 43
0.0000000001
 40
0.0
 40
0.0
 40
0.0
 40
0.0
 40
0.1428571428571428
 40
0.1428571428571428
 40
0.1428571428571428
 40
0.1428571428571428
 40
0.2857142857142857
 40
0.2857142857142857
 40
0.2857142857142857
 40
0.2857142857142857
 40
0.4285714285714285
 40
0.4285714285714285
 40
0.4285714285714285
 40
0.4285714285714285
 40
0.5714285714285714
 40
0.5714285714285714
 40
0.5714285714285714
 40
0.5714285714285714
 40
0.7142857142857143
 40
0.7142857142857143
 40
0.7142857142857143
 40
0.7142857142857143
 40
1.0
 40
1.0
 40
1.0
 40
1.0
 10
-174.9004
 20
-102.9939
 30
0.0
 10
-176.7235
 20
-103.2215
 30
0.0
 10
-182.1497
 20
-105.4565
 30
0.0
 10
-185.4966
 20
-102.5762
 30
0.0
 10
-185.4966
 20
-102.5762
 30
0.0
 10
-185.4966
 20
-102.5762
 30
0.0
 10
-185.7771
 20
-107.8571
 30
0.0
 10
-185.7771
 20
-107.8571
 30
0.0
 10
-185.7771
 20
-107.8571
 30
0.0
 10
-185.6037
 20
-109.8658
 30
0.0
 10
-183.8837
 20
-111.2068
 30
0.0
 10
-182.5591
 20
-111.8978
 30
0.0
 10
-182.5591
 20
-111.8978
 30
0.0
 10
-180.3757
 20
-113.0365
 30
0.0
 10
-177.3186
 20
-112.4925
 30
0.0
 10
-174.7981
 20
-109.3008
 30
0.0
 10
-174.7981
 20
-109.3008
 30
0.0
 10
-174.7738
 20
-107.9343
 30
0.0
 10
-174.8289
 20
-107.5852
 30
0.0
 10
-174.8093
 20
-106.1873
 30
0.0
 10
-174.8093
 20
-106.1873
 30
0.0
 10
-174.8093
 20
-106.1873
 30
0.0
 10
-174.9004
 20
-102.9939
 30
0.0
 10
-174.9004
 20
-102.9939
 30
0.0
  0
SPLINE
  5
79
330
1F
100
AcDbEntity
  8
Camada 1
 62
   240
370
     9
100
AcDbSpline
210
0.0
220
0.0
230
1.0
 70
    11
 71
     3
 72
    28
 73
    24
 74
     0
 42
0.000000001
 43
0.0000000001
 40
0.0
 40
0.0
 40
0.0
 40
0.0
 40
0.1428571428571428
 40
0.1428571428571428
 40
0.1428571428571428
 40
0.1428571428571428
 40
0.2857142857142857
 40
0.2857142857142857
 40
0.2857142857142857
 40
0.2857142857142857
 40
0.4285714285714285
 40
0.4285714285714285
 40
0.4285714285714285
 40
0.4285714285714285
 40
0.5714285714285714
 40
0.5714285714285714
 40
0.5714285714285714
 40
0.5714285714285714
 40
0.7142857142857143
 40
0.7142857142857143
 40
0.7142857142857143
 40
0.7142857142857143
 40
1.0
 40
1.0
 40
1.0
 40
1.0
 10
-185.8917
 20
-54.5986
 30
0.0
 10
-186.1064
 20
-57.5194
 30
0.0
 10
-186.004
 20
-60.0134
 30
0.0
 10
-185.9981
 20
-63.118
 30
0.0
 10
-185.9981
 20
-63.118
 30
0.0
 10
-185.9922
 20
-66.1704
 30
0.0
 10
-186.0916
 20
-68.9332
 30
0.0
 10
-186.0129
 20
-71.885
 30
0.0
 10
-186.0129
 20
-71.885
 30
0.0
 10
-185.901
 20
-76.0762
 30
0.0
 10
-186.1533
 20
-86.7923
 30
0.0
 10
-185.8718
 20
-89.8537
 30
0.0
 10
-185.8718
 20
-89.8537
 30
0.0
 10
-185.8718
 20
-89.8537
 30
0.0
 10
-183.9179
 20
-90.2541
 30
0.0
 10
-183.9179
 20
-90.2541
 30
0.0
 10
-183.9179
 20
-90.2541
 30
0.0
 10
-183.9179
 20
-90.2541
 30
0.0
 10
-183.9557
 20
-63.1028
 30
0.0
 10
-183.9557
 20
-63.1028
 30
0.0
 10
-183.9557
 20
-63.1028
 30
0.0
 10
-183.9165
 20
-58.0783
 30
0.0
 10
-183.4862
 20
-56.3333
 30
0.0
 10
-185.8917
 20
-54.5986
 30
0.0
  0
SPLINE
  5
7A
330
1F
100
AcDbEntity
  8
Camada 1
 62
   240
370
     9
100
AcDbSpline
210
0.0
220
0.0
230
1.0
 70
    11
 71
     3
 72
    16
 73
    12
 74
     0
 42
0.000000001
 43
0.0000000001
 40
0.0
 40
0.0
 40
0.0
 40
0.0
 40
0.25
 40
0.25
 40
0.25
 40
0.25
 40
0.5
 40
0.5
 40
0.5
 40
0.5
 40
1.0
 40
1.0
 40
1.0
 40
1.0
 10
-180.4536
 20
-33.5481
 30
0.0
 10
-180.9584
 20
-34.6318
 30
0.0
 10
-181.3481
 20
-36.2585
 30
0.0
 10
-181.2661
 20
-37.5532
 30
0.0
 10
-181.2661
 20
-37.5532
 30
0.0
 10
-181.2661
 20
-37.5532
 30
0.0
 10
-179.5368
 20
-37.1488
 30
0.0
 10
-179.5368
 20
-37.1488
 30
0.0
 10
-179.5368
 20
-37.1488
 30
0.0
 10
-179.5368
 20
-37.1488
 30
0.0
 10
-180.4536
 20
-33.5481
 30
0.0
 10
-180.4536
 20
-33.5481
 30
0.0
  0
SPLINE
  5
7B
330
1F
100
AcDbEntity
  8
Camada 1
 62
   250
370
     9
100
AcDbSpline
210
0.0
220
0.0
230
1.0
 70
    11
 71
     3
 72
    20
 73
    16
 74
     0
 42
0.000000001
 43
0.0000000001
 40
0.0
 40
0.0
 40
0.0
 40
0.0
 40
0.2
 40
0.2
 40
0.2
 40
0.2
 40
0.4
 40
0.4
 40
0.4
 40
0.4
 40
0.6
 40
0.6
 40
0.6
 40
0.6
 40
1.0
 40
1.0
 40
1.0
 40
1.0
 10
-183.6389
 20
-106.2152
 30
0.0
 10
-183.6389
 20
-106.2152
 30
0.0
 10
-177.6389
 20
-106.2152
 30
0.0
 10
-177.6389
 20
-106.2152
 30
0.0
 10
-177.6389
 20
-106.2152
 30
0.0
 10
-177.6389
 20
-106.2152
 30
0.0
 10
-177.6389
 20
-109.2152
 30
0.0
 10
-177.6389
 20
-109.2152
 30
0.0
 10
-177.6389
 20
-109.2152
 30
0.0
 10
-177.6389
 20
-109.2152
 30
0.0
 10
-183.6389
 20
-109.2152
 30
0.0
 10
-183.6389
 20
-109.2152
 30
0.0
 10
-183.6389
 20
-109.2152
 30
0.0
 10
-183.6389
 20
-109.2152
 30
0.0
 10
-183.6389
 20
-106.2152
 30
0.0
 10
-183.6389
 20
-106.2152
 30
0.0
  0
SPLINE
  5
7C
330
1F
100
AcDbEntity
  8
Camada 1
 62
   250
370
     9
100
AcDbSpline
210
0.0
220
0.0
230
1.0
 70
    11
 71
     3
 72
    20
 73
    16
 74
     0
 42
0.000000001
 43
0.0000000001
 40
0.0
 40
0.0
 40
0.0
 40
0.0
 40
0.2
 40
0.2
 40
0.2
 40
0.2
 40
0.4
 40
0.4
 40
0.4
 40
0.4
 40
0.6
 40
0.6
 40
0.6
 40
0.6
 40
1.0
 40
1.0
 40
1.0
 40
1.0
 10
-183.6389
 20
-46.2164
 30
0.0
 10
-183.6389
 20
-46.2164
 30
0.0
 10
-177.6389
 20
-46.2164
 30
0.0
 10
-177.6389
 20
-46.2164
 30
0.0
 10
-177.6389
 20
-46.2164
 30
0.0
 10
-177.6389
 20
-46.2164
 30
0.0
 10
-177.6389
 20
-49.2164
 30
0.0
 10
-177.6389
 20
-49.2164
 30
0.0
 10
-177.6389
 20
-49.2164
 30
0.0
 10
-177.6389
 20
-49.2164
 30
0.0
 10
-183.6389
 20
-49.2164
 30
0.0
 10
-183.6389
 20
-49.2164
 30
0.0
 10
-183.6389
 20
-49.2164
 30
0.0
 10
-183.6389
 20
-49.2164
 30
0.0
 10
-183.6389
 20
-46.2164
 30
0.0
 10
-183.6389
 20
-46.2164
 30
0.0
  0
SPLINE
  5
7D
330
1F
100
AcDbEntity
  8
Camada 1
 62
   250
370
    20
100
AcDbSpline
210
0.0
220
0.0
230
1.0
 70
    11
 71
     3
 72
    20
 73
    16
 74
     0
 42
0.000000001
 43
0.0000000001
 40
0.0
 40
0.0
 40
0.0
 40
0.0
 40
0.2
 40
0.2
 40
0.2
 40
0.2
 40
0.4
 40
0.4
 40
0.4
 40
0.4
 40
0.6
 40
0.6
 40
0.6
 40
0.6
 40
1.0
 40
1.0
 40
1.0
 40
1.0
 10
-55.7771
 20
103.5413
 30
0.0
 10
-30.9243
 20
103.5413
 30
0.0
 10
-10.7771
 20
83.3941
 30
0.0
 10
-10.7771
 20
58.5413
 30
0.0
 10
-10.7771
 20
58.5413
 30
0.0
 10
-10.7771
 20
33.6885
 30
0.0
 10
-30.9243
 20
13.5413
 30
0.0
 10
-55.7771
 20
13.5413
 30
0.0
 10
-55.7771
 20
13.5413
 30
0.0
 10
-80.6299
 20
13.5413
 30
0.0
 10
-100.7771
 20
33.6885
 30
0.0
 10
-100.7771
 20
58.5413
 30
0.0
 10
-100.7771
 20
58.5413
 30
0.0
 10
-100.7771
 20
83.3941
 30
0.0
 10
-80.6299
 20
103.5413
 30
0.0
 10
-55.7771
 20
103.5413
 30
0.0
  0
SPLINE
  5
7E
330
1F
100
AcDbEntity
  8
Camada 1
 62
   250
370
     9
100
AcDbSpline
210
0.0
220
0.0
230
1.0
 70
    11
 71
     3
 72
   404
 73
   400
 74
     0
 42
0.000000001
 43
0.0000000001
 40
0.0
 40
0.0
 40
0.0
 40
0.0
 40
0.0099009900990099
 40
0.0099009900990099
 40
0.0099009900990099
 40
0.0099009900990099
 40
0.0198019801980198
 40
0.0198019801980198
 40
0.0198019801980198
 40
0.0198019801980198
 40
0.0297029702970297
 40
0.0297029702970297
 40
0.0297029702970297
 40
0.0297029702970297
 40
0.0396039603960396
 40
0.0396039603960396
 40
0.0396039603960396
 40
0.0396039603960396
 40
0.0495049504950495
 40
0.0495049504950495
 40
0.0495049504950495
 40
0.0495049504950495
 40
0.0594059405940594
 40
0.0594059405940594
 40
0.0594059405940594
 40
0.0594059405940594
 40
0.0693069306930693
 40
0.0693069306930693
 40
0.0693069306930693
 40
0.0693069306930693
 40
0.0792079207920792
 40
0.0792079207920792
 40
0.0792079207920792
 40
0.0792079207920792
 40
0.0891089108910891
 40
0.0891089108910891
 40
0.0891089108910891
 40
0.0891089108910891
 40
0.099009900990099
 40
0.099009900990099
 40
0.099009900990099
 40
0.099009900990099
 40
0.1089108910891089
 40
0.1089108910891089
 40
0.1089108910891089
 40
0.1089108910891089
 40
0.1188118811881188
 40
0.1188118811881188
 40
0.1188118811881188
 40
0.1188118811881188
 40
0.1287128712871287
 40
0.1287128712871287
 40
0.1287128712871287
 40
0.1287128712871287
 40
0.1386138613861386
 40
0.1386138613861386
 40
0.1386138613861386
 40
0.1386138613861386
 40
0.1485148514851485
 40
0.1485148514851485
 40
0.1485148514851485
 40
0.1485148514851485
 40
0.1584158415841584
 40
0.1584158415841584
 40
0.1584158415841584
 40
0.1584158415841584
 40
0.1683168316831683
 40
0.1683168316831683
 40
0.1683168316831683
 40
0.1683168316831683
 40
0.1782178217821782
 40
0.1782178217821782
 40
0.1782178217821782
 40
0.1782178217821782
 40
0.1881188118811881
 40
0.1881188118811881
 40
0.1881188118811881
 40
0.1881188118811881
 40
0.198019801980198
 40
0.198019801980198
 40
0.198019801980198
 40
0.198019801980198
 40
0.2079207920792079
 40
0.2079207920792079
 40
0.2079207920792079
 40
0.2079207920792079
 40
0.2178217821782178
 40
0.2178217821782178
 40
0.2178217821782178
 40
0.2178217821782178
 40
0.2277227722772277
 40
0.2277227722772277
 40
0.2277227722772277
 40
0.2277227722772277
 40
0.2376237623762376
 40
0.2376237623762376
 40
0.2376237623762376
 40
0.2376237623762376
 40
0.2475247524752475
 40
0.2475247524752475
 40
0.2475247524752475
 40
0.2475247524752475
 40
0.2574257425742574
 40
0.2574257425742574
 40
0.2574257425742574
 40
0.2574257425742574
 40
0.2673267326732673
 40
0.2673267326732673
 40
0.2673267326732673
 40
0.2673267326732673
 40
0.2772277227722773
 40
0.2772277227722773
 40
0.2772277227722773
 40
0.2772277227722773
 40
0.2871287128712871
 40
0.2871287128712871
 40
0.2871287128712871
 40
0.2871287128712871
 40
0.297029702970297
 40
0.297029702970297
 40
0.297029702970297
 40
0.297029702970297
 40
0.3069306930693069
 40
0.3069306930693069
 40
0.3069306930693069
 40
0.3069306930693069
 40
0.3168316831683168
 40
0.3168316831683168
 40
0.3168316831683168
 40
0.3168316831683168
 40
0.3267326732673267
 40
0.3267326732673267
 40
0.3267326732673267
 40
0.3267326732673267
 40
0.3366336633663367
 40
0.3366336633663367
 40
0.3366336633663367
 40
0.3366336633663367
 40
0.3465346534653465
 40
0.3465346534653465
 40
0.3465346534653465
 40
0.3465346534653465
 40
0.3564356435643564
 40
0.3564356435643564
 40
0.3564356435643564
 40
0.3564356435643564
 40
0.3663366336633663
 40
0.3663366336633663
 40
0.3663366336633663
 40
0.3663366336633663
 40
0.3762376237623762
 40
0.3762376237623762
 40
0.3762376237623762
 40
0.3762376237623762
 40
0.3861386138613861
 40
0.3861386138613861
 40
0.3861386138613861
 40
0.3861386138613861
 40
0.3960396039603961
 40
0.3960396039603961
 40
0.3960396039603961
 40
0.3960396039603961
 40
0.405940594059406
 40
0.405940594059406
 40
0.405940594059406
 40
0.405940594059406
 40
0.4158415841584158
 40
0.4158415841584158
 40
0.4158415841584158
 40
0.4158415841584158
 40
0.4257425742574257
 40
0.4257425742574257
 40
0.4257425742574257
 40
0.4257425742574257
 40
0.4356435643564356
 40
0.4356435643564356
 40
0.4356435643564356
 40
0.4356435643564356
 40
0.4455445544554456
 40
0.4455445544554456
 40
0.4455445544554456
 40
0.4455445544554456
 40
0.4554455445544555
 40
0.4554455445544555
 40
0.4554455445544555
 40
0.4554455445544555
 40
0.4653465346534654
 40
0.4653465346534654
 40
0.4653465346534654
 40
0.4653465346534654
 40
0.4752475247524752
 40
0.4752475247524752
 40
0.4752475247524752
 40
0.4752475247524752
 40
0.4851485148514851
 40
0.4851485148514851
 40
0.4851485148514851
 40
0.4851485148514851
 40
0.495049504950495
 40
0.495049504950495
 40
0.495049504950495
 40
0.495049504950495
 40
0.504950495049505
 40
0.504950495049505
 40
0.504950495049505
 40
0.504950495049505
 40
0.5148514851485149
 40
0.5148514851485149
 40
0.5148514851485149
 40
0.5148514851485149
 40
0.5247524752475248
 40
0.5247524752475248
 40
0.5247524752475248
 40
0.5247524752475248
 40
0.5346534653465347
 40
0.5346534653465347
 40
0.5346534653465347
 40
0.5346534653465347
 40
0.5445544554455446
 40
0.5445544554455446
 40
0.5445544554455446
 40
0.5445544554455446
 40
0.5544554455445545
 40
0.5544554455445545
 40
0.5544554455445545
 40
0.5544554455445545
 40
0.5643564356435643
 40
0.5643564356435643
 40
0.5643564356435643
 40
0.5643564356435643
 40
0.5742574257425742
 40
0.5742574257425742
 40
0.5742574257425742
 40
0.5742574257425742
 40
0.5841584158415841
 40
0.5841584158415841
 40
0.5841584158415841
 40
0.5841584158415841
 40
0.594059405940594
 40
0.594059405940594
 40
0.594059405940594
 40
0.594059405940594
 40
0.6039603960396039
 40
0.6039603960396039
 40
0.6039603960396039
 40
0.6039603960396039
 40
0.6138613861386139
 40
0.6138613861386139
 40
0.6138613861386139
 40
0.6138613861386139
 40
0.6237623762376238
 40
0.6237623762376238
 40
0.6237623762376238
 40
0.6237623762376238
 40
0.6336633663366337
 40
0.6336633663366337
 40
0.6336633663366337
 40
0.6336633663366337
 40
0.6435643564356436
 40
0.6435643564356436
 40
0.6435643564356436
 40
0.6435643564356436
 40
0.6534653465346535
 40
0.6534653465346535
 40
0.6534653465346535
 40
0.6534653465346535
 40
0.6633663366336634
 40
0.6633663366336634
 40
0.6633663366336634
 40
0.6633663366336634
 40
0.6732673267326733
 40
0.6732673267326733
 40
0.6732673267326733
 40
0.6732673267326733
 40
0.6831683168316832
 40
0.6831683168316832
 40
0.6831683168316832
 40
0.6831683168316832
 40
0.693069306930693
 40
0.693069306930693
 40
0.693069306930693
 40
0.693069306930693
 40
0.7029702970297029
 40
0.7029702970297029
 40
0.7029702970297029
 40
0.7029702970297029
 40
0.7128712871287128
 40
0.7128712871287128
 40
0.7128712871287128
 40
0.7128712871287128
 40
0.7227722772277227
 40
0.7227722772277227
 40
0.7227722772277227
 40
0.7227722772277227
 40
0.7326732673267327
 40
0.7326732673267327
 40
0.7326732673267327
 40
0.7326732673267327
 40
0.7425742574257426
 40
0.7425742574257426
 40
0.7425742574257426
 40
0.7425742574257426
 40
0.7524752475247525
 40
0.7524752475247525
 40
0.7524752475247525
 40
0.7524752475247525
 40
0.7623762376237624
 40
0.7623762376237624
 40
0.7623762376237624
 40
0.7623762376237624
 40
0.7722772277227723
 40
0.7722772277227723
 40
0.7722772277227723
 40
0.7722772277227723
 40
0.7821782178217822
 40
0.7821782178217822
 40
0.7821782178217822
 40
0.7821782178217822
 40
0.7920792079207921
 40
0.7920792079207921
 40
0.7920792079207921
 40
0.7920792079207921
 40
0.801980198019802
 40
0.801980198019802
 40
0.801980198019802
 40
0.801980198019802
 40
0.8118811881188119
 40
0.8118811881188119
 40
0.8118811881188119
 40
0.8118811881188119
 40
0.8217821782178217
 40
0.8217821782178217
 40
0.8217821782178217
 40
0.8217821782178217
 40
0.8316831683168316
 40
0.8316831683168316
 40
0.8316831683168316
 40
0.8316831683168316
 40
0.8415841584158416
 40
0.8415841584158416
 40
0.8415841584158416
 40
0.8415841584158416
 40
0.8514851485148515
 40
0.8514851485148515
 40
0.8514851485148515
 40
0.8514851485148515
 40
0.8613861386138614
 40
0.8613861386138614
 40
0.8613861386138614
 40
0.8613861386138614
 40
0.8712871287128713
 40
0.8712871287128713
 40
0.8712871287128713
 40
0.8712871287128713
 40
0.8811881188118812
 40
0.8811881188118812
 40
0.8811881188118812
 40
0.8811881188118812
 40
0.8910891089108911
 40
0.8910891089108911
 40
0.8910891089108911
 40
0.8910891089108911
 40
0.900990099009901
 40
0.900990099009901
 40
0.900990099009901
 40
0.900990099009901
 40
0.9108910891089109
 40
0.9108910891089109
 40
0.9108910891089109
 40
0.9108910891089109
 40
0.9207920792079208
 40
0.9207920792079208
 40
0.9207920792079208
 40
0.9207920792079208
 40
0.9306930693069307
 40
0.9306930693069307
 40
0.9306930693069307
 40
0.9306930693069307
 40
0.9405940594059405
 40
0.9405940594059405
 40
0.9405940594059405
 40
0.9405940594059405
 40
0.9504950495049505
 40
0.9504950495049505
 40
0.9504950495049505
 40
0.9504950495049505
 40
0.9603960396039604
 40
0.9603960396039604
 40
0.9603960396039604
 40
0.9603960396039604
 40
0.9702970297029703
 40
0.9702970297029703
 40
0.9702970297029703
 40
0.9702970297029703
 40
0.9801980198019802
 40
0.9801980198019802
 40
0.9801980198019802
 40
0.9801980198019802
 40
1.0
 40
1.0
 40
1.0
 40
1.0
 10
-52.7755
 20
9.038
 30
0.0
 10
-52.7755
 20
9.038
 30
0.0
 10
-52.7755
 20
6.1534
 30
0.0
 10
-52.7755
 20
6.1534
 30
0.0
 10
-52.7755
 20
6.1534
 30
0.0
 10
-52.7755
 20
6.1534
 30
0.0
 10
-58.7755
 20
6.1534
 30
0.0
 10
-58.7755
 20
6.1534
 30
0.0
 10
-58.7755
 20
6.1534
 30
0.0
 10
-58.7755
 20
6.1534
 30
0.0
 10
-58.7755
 20
9.038
 30
0.0
 10
-58.7755
 20
9.038
 30
0.0
 10
-58.7755
 20
9.038
 30
0.0
 10
-58.7755
 20
9.038
 30
0.0
 10
-63.6156
 20
9.0379
 30
0.0
 10
-63.6156
 20
9.0379
 30
0.0
 10
-63.6156
 20
9.0379
 30
0.0
 10
-63.6156
 20
9.0379
 30
0.0
 10
-68.2196
 20
10.534
 30
0.0
 10
-68.2196
 20
10.534
 30
0.0
 10
-68.2196
 20
10.534
 30
0.0
 10
-68.2196
 20
10.534
 30
0.0
 10
-69.1111
 20
7.7904
 30
0.0
 10
-69.1111
 20
7.7904
 30
0.0
 10
-69.1111
 20
7.7904
 30
0.0
 10
-69.1111
 20
7.7904
 30
0.0
 10
-74.8173
 20
9.6445
 30
0.0
 10
-74.8173
 20
9.6445
 30
0.0
 10
-74.8173
 20
9.6445
 30
0.0
 10
-74.8173
 20
9.6445
 30
0.0
 10
-73.9262
 20
12.3882
 30
0.0
 10
-73.9262
 20
12.3882
 30
0.0
 10
-73.9262
 20
12.3882
 30
0.0
 10
-73.9262
 20
12.3882
 30
0.0
 10
-78.5281
 20
13.8834
 30
0.0
 10
-78.5281
 20
13.8834
 30
0.0
 10
-78.5281
 20
13.8834
 30
0.0
 10
-78.5281
 20
13.8834
 30
0.0
 10
-82.4453
 20
16.7293
 30
0.0
 10
-82.4453
 20
16.7293
 30
0.0
 10
-82.4453
 20
16.7293
 30
0.0
 10
-82.4453
 20
16.7293
 30
0.0
 10
-84.1413
 20
14.3952
 30
0.0
 10
-84.1413
 20
14.3952
 30
0.0
 10
-84.1413
 20
14.3952
 30
0.0
 10
-84.1413
 20
14.3952
 30
0.0
 10
-88.9953
 20
17.9219
 30
0.0
 10
-88.9953
 20
17.9219
 30
0.0
 10
-88.9953
 20
17.9219
 30
0.0
 10
-88.9953
 20
17.9219
 30
0.0
 10
-87.2997
 20
20.2562
 30
0.0
 10
-87.2997
 20
20.2562
 30
0.0
 10
-87.2997
 20
20.2562
 30
0.0
 10
-87.2997
 20
20.2562
 30
0.0
 10
-91.2135
 20
23.0999
 30
0.0
 10
-91.2135
 20
23.0999
 30
0.0
 10
-91.2135
 20
23.0999
 30
0.0
 10
-91.2135
 20
23.0999
 30
0.0
 10
-94.06
 20
27.0177
 30
0.0
 10
-94.06
 20
27.0177
 30
0.0
 10
-94.06
 20
27.0177
 30
0.0
 10
-94.06
 20
27.0177
 30
0.0
 10
-96.3948
 20
25.3214
 30
0.0
 10
-96.3948
 20
25.3214
 30
0.0
 10
-96.3948
 20
25.3214
 30
0.0
 10
-96.3948
 20
25.3214
 30
0.0
 10
-99.9215
 20
30.1754
 30
0.0
 10
-99.9215
 20
30.1754
 30
0.0
 10
-99.9215
 20
30.1754
 30
0.0
 10
-99.9215
 20
30.1754
 30
0.0
 10
-97.5868
 20
31.872
 30
0.0
 10
-97.5868
 20
31.872
 30
0.0
 10
-97.5868
 20
31.872
 30
0.0
 10
-97.5868
 20
31.872
 30
0.0
 10
-100.43
 20
35.7852
 30
0.0
 10
-100.43
 20
35.7852
 30
0.0
 10
-100.43
 20
35.7852
 30
0.0
 10
-100.43
 20
35.7852
 30
0.0
 10
-101.9266
 20
40.3914
 30
0.0
 10
-101.9266
 20
40.3914
 30
0.0
 10
-101.9266
 20
40.3914
 30
0.0
 10
-101.9266
 20
40.3914
 30
0.0
 10
-104.6723
 20
39.4994
 30
0.0
 10
-104.6723
 20
39.4994
 30
0.0
 10
-104.6723
 20
39.4994
 30
0.0
 10
-104.6723
 20
39.4994
 30
0.0
 10
-106.5264
 20
45.2056
 30
0.0
 10
-106.5264
 20
45.2056
 30
0.0
 10
-106.5264
 20
45.2056
 30
0.0
 10
-106.5264
 20
45.2056
 30
0.0
 10
-103.7808
 20
46.098
 30
0.0
 10
-103.7808
 20
46.098
 30
0.0
 10
-103.7808
 20
46.098
 30
0.0
 10
-103.7808
 20
46.098
 30
0.0
 10
-105.2754
 20
50.6979
 30
0.0
 10
-105.2754
 20
50.6979
 30
0.0
 10
-105.2754
 20
50.6979
 30
0.0
 10
-105.2754
 20
50.6979
 30
0.0
 10
-105.2754
 20
55.5412
 30
0.0
 10
-105.2754
 20
55.5412
 30
0.0
 10
-105.2754
 20
55.5412
 30
0.0
 10
-105.2754
 20
55.5412
 30
0.0
 10
-108.1634
 20
55.5413
 30
0.0
 10
-108.1634
 20
55.5413
 30
0.0
 10
-108.1634
 20
55.5413
 30
0.0
 10
-108.1634
 20
55.5413
 30
0.0
 10
-108.1634
 20
61.5412
 30
0.0
 10
-108.1634
 20
61.5412
 30
0.0
 10
-108.1634
 20
61.5412
 30
0.0
 10
-108.1634
 20
61.5412
 30
0.0
 10
-105.2754
 20
61.5414
 30
0.0
 10
-105.2754
 20
61.5414
 30
0.0
 10
-105.2754
 20
61.5414
 30
0.0
 10
-105.2754
 20
61.5414
 30
0.0
 10
-105.2755
 20
66.378
 30
0.0
 10
-105.2755
 20
66.378
 30
0.0
 10
-105.2755
 20
66.378
 30
0.0
 10
-105.2755
 20
66.378
 30
0.0
 10
-103.7788
 20
70.9841
 30
0.0
 10
-103.7788
 20
70.9841
 30
0.0
 10
-103.7788
 20
70.9841
 30
0.0
 10
-103.7788
 20
70.9841
 30
0.0
 10
-106.5264
 20
71.8769
 30
0.0
 10
-106.5264
 20
71.8769
 30
0.0
 10
-106.5264
 20
71.8769
 30
0.0
 10
-106.5264
 20
71.8769
 30
0.0
 10
-104.6723
 20
77.5831
 30
0.0
 10
-104.6723
 20
77.5831
 30
0.0
 10
-104.6723
 20
77.5831
 30
0.0
 10
-104.6723
 20
77.5831
 30
0.0
 10
-101.9246
 20
76.6906
 30
0.0
 10
-101.9246
 20
76.6906
 30
0.0
 10
-101.9246
 20
76.6906
 30
0.0
 10
-101.9246
 20
76.6906
 30
0.0
 10
-100.43
 20
81.2905
 30
0.0
 10
-100.43
 20
81.2905
 30
0.0
 10
-100.43
 20
81.2905
 30
0.0
 10
-100.43
 20
81.2905
 30
0.0
 10
-97.5836
 20
85.2083
 30
0.0
 10
-97.5836
 20
85.2083
 30
0.0
 10
-97.5836
 20
85.2083
 30
0.0
 10
-97.5836
 20
85.2083
 30
0.0
 10
-99.9216
 20
86.9071
 30
0.0
 10
-99.9216
 20
86.9071
 30
0.0
 10
-99.9216
 20
86.9071
 30
0.0
 10
-99.9216
 20
86.9071
 30
0.0
 10
-96.3949
 20
91.7611
 30
0.0
 10
-96.3949
 20
91.7611
 30
0.0
 10
-96.3949
 20
91.7611
 30
0.0
 10
-96.3949
 20
91.7611
 30
0.0
 10
-94.0568
 20
90.0626
 30
0.0
 10
-94.0568
 20
90.0626
 30
0.0
 10
-94.0568
 20
90.0626
 30
0.0
 10
-94.0568
 20
90.0626
 30
0.0
 10
-91.2135
 20
93.9759
 30
0.0
 10
-91.2135
 20
93.9759
 30
0.0
 10
-91.2135
 20
93.9759
 30
0.0
 10
-91.2135
 20
93.9759
 30
0.0
 10
-87.2962
 20
96.822
 30
0.0
 10
-87.2962
 20
96.822
 30
0.0
 10
-87.2962
 20
96.822
 30
0.0
 10
-87.2962
 20
96.822
 30
0.0
 10
-88.9952
 20
99.1607
 30
0.0
 10
-88.9952
 20
99.1607
 30
0.0
 10
-88.9952
 20
99.1607
 30
0.0
 10
-88.9952
 20
99.1607
 30
0.0
 10
-84.1412
 20
102.6874
 30
0.0
 10
-84.1412
 20
102.6874
 30
0.0
 10
-84.1412
 20
102.6874
 30
0.0
 10
-84.1412
 20
102.6874
 30
0.0
 10
-82.4419
 20
100.3488
 30
0.0
 10
-82.4419
 20
100.3488
 30
0.0
 10
-82.4419
 20
100.3488
 30
0.0
 10
-82.4419
 20
100.3488
 30
0.0
 10
-78.5282
 20
103.1924
 30
0.0
 10
-78.5282
 20
103.1924
 30
0.0
 10
-78.5282
 20
103.1924
 30
0.0
 10
-78.5282
 20
103.1924
 30
0.0
 10
-73.9239
 20
104.6884
 30
0.0
 10
-73.9239
 20
104.6884
 30
0.0
 10
-73.9239
 20
104.6884
 30
0.0
 10
-73.9239
 20
104.6884
 30
0.0
 10
-74.8172
 20
107.4381
 30
0.0
 10
-74.8172
 20
107.4381
 30
0.0
 10
-74.8172
 20
107.4381
 30
0.0
 10
-74.8172
 20
107.4381
 30
0.0
 10
-69.111
 20
109.2922
 30
0.0
 10
-69.111
 20
109.2922
 30
0.0
 10
-69.111
 20
109.2922
 30
0.0
 10
-69.111
 20
109.2922
 30
0.0
 10
-68.2174
 20
106.5425
 30
0.0
 10
-68.2174
 20
106.5425
 30
0.0
 10
-68.2174
 20
106.5425
 30
0.0
 10
-68.2174
 20
106.5425
 30
0.0
 10
-63.6155
 20
108.0378
 30
0.0
 10
-63.6155
 20
108.0378
 30
0.0
 10
-63.6155
 20
108.0378
 30
0.0
 10
-63.6155
 20
108.0378
 30
0.0
 10
-58.7754
 20
108.0378
 30
0.0
 10
-58.7754
 20
108.0378
 30
0.0
 10
-58.7754
 20
108.0378
 30
0.0
 10
-58.7754
 20
108.0378
 30
0.0
 10
-58.7753
 20
110.9292
 30
0.0
 10
-58.7753
 20
110.9292
 30
0.0
 10
-58.7753
 20
110.9292
 30
0.0
 10
-58.7753
 20
110.9292
 30
0.0
 10
-52.7754
 20
110.9292
 30
0.0
 10
-52.7754
 20
110.9292
 30
0.0
 10
-52.7754
 20
110.9292
 30
0.0
 10
-52.7754
 20
110.9292
 30
0.0
 10
-52.7753
 20
108.0378
 30
0.0
 10
-52.7753
 20
108.0378
 30
0.0
 10
-52.7753
 20
108.0378
 30
0.0
 10
-52.7753
 20
108.0378
 30
0.0
 10
-47.9354
 20
108.0379
 30
0.0
 10
-47.9354
 20
108.0379
 30
0.0
 10
-47.9354
 20
108.0379
 30
0.0
 10
-47.9354
 20
108.0379
 30
0.0
 10
-43.3332
 20
106.5424
 30
0.0
 10
-43.3332
 20
106.5424
 30
0.0
 10
-43.3332
 20
106.5424
 30
0.0
 10
-43.3332
 20
106.5424
 30
0.0
 10
-42.4397
 20
109.2922
 30
0.0
 10
-42.4397
 20
109.2922
 30
0.0
 10
-42.4397
 20
109.2922
 30
0.0
 10
-42.4397
 20
109.2922
 30
0.0
 10
-36.7335
 20
107.4381
 30
0.0
 10
-36.7335
 20
107.4381
 30
0.0
 10
-36.7335
 20
107.4381
 30
0.0
 10
-36.7335
 20
107.4381
 30
0.0
 10
-37.6268
 20
104.6882
 30
0.0
 10
-37.6268
 20
104.6882
 30
0.0
 10
-37.6268
 20
104.6882
 30
0.0
 10
-37.6268
 20
104.6882
 30
0.0
 10
-33.0229
 20
103.1924
 30
0.0
 10
-33.0229
 20
103.1924
 30
0.0
 10
-33.0229
 20
103.1924
 30
0.0
 10
-33.0229
 20
103.1924
 30
0.0
 10
-29.1087
 20
100.3487
 30
0.0
 10
-29.1087
 20
100.3487
 30
0.0
 10
-29.1087
 20
100.3487
 30
0.0
 10
-29.1087
 20
100.3487
 30
0.0
 10
-27.4095
 20
102.6873
 30
0.0
 10
-27.4095
 20
102.6873
 30
0.0
 10
-27.4095
 20
102.6873
 30
0.0
 10
-27.4095
 20
102.6873
 30
0.0
 10
-22.5555
 20
99.1606
 30
0.0
 10
-22.5555
 20
99.1606
 30
0.0
 10
-22.5555
 20
99.1606
 30
0.0
 10
-22.5555
 20
99.1606
 30
0.0
 10
-24.2546
 20
96.8219
 30
0.0
 10
-24.2546
 20
96.8219
 30
0.0
 10
-24.2546
 20
96.8219
 30
0.0
 10
-24.2546
 20
96.8219
 30
0.0
 10
-20.3375
 20
93.9759
 30
0.0
 10
-20.3375
 20
93.9759
 30
0.0
 10
-20.3375
 20
93.9759
 30
0.0
 10
-20.3375
 20
93.9759
 30
0.0
 10
-17.4926
 20
90.0603
 30
0.0
 10
-17.4926
 20
90.0603
 30
0.0
 10
-17.4926
 20
90.0603
 30
0.0
 10
-17.4926
 20
90.0603
 30
0.0
 10
-15.1587
 20
91.7559
 30
0.0
 10
-15.1587
 20
91.7559
 30
0.0
 10
-15.1587
 20
91.7559
 30
0.0
 10
-15.1587
 20
91.7559
 30
0.0
 10
-11.632
 20
86.9018
 30
0.0
 10
-11.632
 20
86.9018
 30
0.0
 10
-11.632
 20
86.9018
 30
0.0
 10
-11.632
 20
86.9018
 30
0.0
 10
-13.9658
 20
85.2061
 30
0.0
 10
-13.9658
 20
85.2061
 30
0.0
 10
-13.9658
 20
85.2061
 30
0.0
 10
-13.9658
 20
85.2061
 30
0.0
 10
-11.121
 20
81.2906
 30
0.0
 10
-11.121
 20
81.2906
 30
0.0
 10
-11.121
 20
81.2906
 30
0.0
 10
-11.121
 20
81.2906
 30
0.0
 10
-9.6254
 20
76.6874
 30
0.0
 10
-9.6254
 20
76.6874
 30
0.0
 10
-9.6254
 20
76.6874
 30
0.0
 10
-9.6254
 20
76.6874
 30
0.0
 10
-6.8817
 20
77.5788
 30
0.0
 10
-6.8817
 20
77.5788
 30
0.0
 10
-6.8817
 20
77.5788
 30
0.0
 10
-6.8817
 20
77.5788
 30
0.0
 10
-5.0276
 20
71.8726
 30
0.0
 10
-5.0276
 20
71.8726
 30
0.0
 10
-5.0276
 20
71.8726
 30
0.0
 10
-5.0276
 20
71.8726
 30
0.0
 10
-7.7712
 20
70.981
 30
0.0
 10
-7.7712
 20
70.981
 30
0.0
 10
-7.7712
 20
70.981
 30
0.0
 10
-7.7712
 20
70.981
 30
0.0
 10
-6.2756
 20
66.3779
 30
0.0
 10
-6.2756
 20
66.3779
 30
0.0
 10
-6.2756
 20
66.3779
 30
0.0
 10
-6.2756
 20
66.3779
 30
0.0
 10
-6.2756
 20
61.538
 30
0.0
 10
-6.2756
 20
61.538
 30
0.0
 10
-6.2756
 20
61.538
 30
0.0
 10
-6.2756
 20
61.538
 30
0.0
 10
-3.3908
 20
61.5379
 30
0.0
 10
-3.3908
 20
61.5379
 30
0.0
 10
-3.3908
 20
61.5379
 30
0.0
 10
-3.3908
 20
61.5379
 30
0.0
 10
-3.3908
 20
55.538
 30
0.0
 10
-3.3908
 20
55.538
 30
0.0
 10
-3.3908
 20
55.538
 30
0.0
 10
-3.3908
 20
55.538
 30
0.0
 10
-6.2756
 20
55.5379
 30
0.0
 10
-6.2756
 20
55.5379
 30
0.0
 10
-6.2756
 20
55.5379
 30
0.0
 10
-6.2756
 20
55.5379
 30
0.0
 10
-6.2755
 20
50.6978
 30
0.0
 10
-6.2755
 20
50.6978
 30
0.0
 10
-6.2755
 20
50.6978
 30
0.0
 10
-6.2755
 20
50.6978
 30
0.0
 10
-7.7712
 20
46.0949
 30
0.0
 10
-7.7712
 20
46.0949
 30
0.0
 10
-7.7712
 20
46.0949
 30
0.0
 10
-7.7712
 20
46.0949
 30
0.0
 10
-5.0277
 20
45.2034
 30
0.0
 10
-5.0277
 20
45.2034
 30
0.0
 10
-5.0277
 20
45.2034
 30
0.0
 10
-5.0277
 20
45.2034
 30
0.0
 10
-6.8818
 20
39.4972
 30
0.0
 10
-6.8818
 20
39.4972
 30
0.0
 10
-6.8818
 20
39.4972
 30
0.0
 10
-6.8818
 20
39.4972
 30
0.0
 10
-9.6253
 20
40.3885
 30
0.0
 10
-9.6253
 20
40.3885
 30
0.0
 10
-9.6253
 20
40.3885
 30
0.0
 10
-9.6253
 20
40.3885
 30
0.0
 10
-11.121
 20
35.7853
 30
0.0
 10
-11.121
 20
35.7853
 30
0.0
 10
-11.121
 20
35.7853
 30
0.0
 10
-11.121
 20
35.7853
 30
0.0
 10
-13.9658
 20
31.8697
 30
0.0
 10
-13.9658
 20
31.8697
 30
0.0
 10
-13.9658
 20
31.8697
 30
0.0
 10
-13.9658
 20
31.8697
 30
0.0
 10
-11.6321
 20
30.1742
 30
0.0
 10
-11.6321
 20
30.1742
 30
0.0
 10
-11.6321
 20
30.1742
 30
0.0
 10
-11.6321
 20
30.1742
 30
0.0
 10
-15.1588
 20
25.3201
 30
0.0
 10
-15.1588
 20
25.3201
 30
0.0
 10
-15.1588
 20
25.3201
 30
0.0
 10
-15.1588
 20
25.3201
 30
0.0
 10
-17.4926
 20
27.0155
 30
0.0
 10
-17.4926
 20
27.0155
 30
0.0
 10
-17.4926
 20
27.0155
 30
0.0
 10
-17.4926
 20
27.0155
 30
0.0
 10
-20.3375
 20
23.0999
 30
0.0
 10
-20.3375
 20
23.0999
 30
0.0
 10
-20.3375
 20
23.0999
 30
0.0
 10
-20.3375
 20
23.0999
 30
0.0
 10
-24.2532
 20
20.255
 30
0.0
 10
-24.2532
 20
20.255
 30
0.0
 10
-24.2532
 20
20.255
 30
0.0
 10
-24.2532
 20
20.255
 30
0.0
 10
-22.5576
 20
17.9213
 30
0.0
 10
-22.5576
 20
17.9213
 30
0.0
 10
-22.5576
 20
17.9213
 30
0.0
 10
-22.5576
 20
17.9213
 30
0.0
 10
-27.4117
 20
14.3946
 30
0.0
 10
-27.4117
 20
14.3946
 30
0.0
 10
-27.4117
 20
14.3946
 30
0.0
 10
-27.4117
 20
14.3946
 30
0.0
 10
-29.1073
 20
16.7283
 30
0.0
 10
-29.1073
 20
16.7283
 30
0.0
 10
-29.1073
 20
16.7283
 30
0.0
 10
-29.1073
 20
16.7283
 30
0.0
 10
-33.0228
 20
13.8834
 30
0.0
 10
-33.0228
 20
13.8834
 30
0.0
 10
-33.0228
 20
13.8834
 30
0.0
 10
-33.0228
 20
13.8834
 30
0.0
 10
-37.626
 20
12.3877
 30
0.0
 10
-37.626
 20
12.3877
 30
0.0
 10
-37.626
 20
12.3877
 30
0.0
 10
-37.626
 20
12.3877
 30
0.0
 10
-36.7346
 20
9.6443
 30
0.0
 10
-36.7346
 20
9.6443
 30
0.0
 10
-36.7346
 20
9.6443
 30
0.0
 10
-36.7346
 20
9.6443
 30
0.0
 10
-42.441
 20
7.7902
 30
0.0
 10
-42.441
 20
7.7902
 30
0.0
 10
-42.441
 20
7.7902
 30
0.0
 10
-42.441
 20
7.7902
 30
0.0
 10
-43.3323
 20
10.5337
 30
0.0
 10
-43.3323
 20
10.5337
 30
0.0
 10
-43.3323
 20
10.5337
 30
0.0
 10
-43.3323
 20
10.5337
 30
0.0
 10
-47.9355
 20
9.038
 30
0.0
 10
-47.9355
 20
9.038
 30
0.0
 10
-47.9355
 20
9.038
 30
0.0
 10
-47.9355
 20
9.038
 30
0.0
 10
-52.7755
 20
9.038
 30
0.0
 10
-52.7755
 20
9.038
 30
0.0
  0
SPLINE
  5
7F
330
1F
100
AcDbEntity
  8
Camada 1
 62
   250
370
    20
100
AcDbSpline
210
0.0
220
0.0
230
1.0
 70
    11
 71
     3
 72
    20
 73
    16
 74
     0
 42
0.000000001
 43
0.0000000001
 40
0.0
 40
0.0
 40
0.0
 40
0.0
 40
0.2
 40
0.2
 40
0.2
 40
0.2
 40
0.4
 40
0.4
 40
0.4
 40
0.4
 40
0.6
 40
0.6
 40
0.6
 40
0.6
 40
1.0
 40
1.0
 40
1.0
 40
1.0
 10
47.1873
 20
106.0413
 30
0.0
 10
73.4208
 20
106.0413
 30
0.0
 10
94.6873
 20
84.7748
 30
0.0
 10
94.6873
 20
58.5413
 30
0.0
 10
94.6873
 20
58.5413
 30
0.0
 10
94.6873
 20
32.3078
 30
0.0
 10
73.4208
 20
11.0413
 30
0.0
 10
47.1873
 20
11.0413
 30
0.0
 10
47.1873
 20
11.0413
 30
0.0
 10
20.9538
 20
11.0413
 30
0.0
 10
-0.3127
 20
32.3078
 30
0.0
 10
-0.3127
 20
58.5413
 30
0.0
 10
-0.3127
 20
58.5413
 30
0.0
 10
-0.3127
 20
84.7748
 30
0.0
 10
20.9538
 20
106.0413
 30
0.0
 10
47.1873
 20
106.0413
 30
0.0
  0
SPLINE
  5
80
330
1F
100
AcDbEntity
  8
Camada 1
 62
   250
370
     9
100
AcDbSpline
210
0.0
220
0.0
230
1.0
 70
    11
 71
     3
 72
   404
 73
   400
 74
     0
 42
0.000000001
 43
0.0000000001
 40
0.0
 40
0.0
 40
0.0
 40
0.0
 40
0.0099009900990099
 40
0.0099009900990099
 40
0.0099009900990099
 40
0.0099009900990099
 40
0.0198019801980198
 40
0.0198019801980198
 40
0.0198019801980198
 40
0.0198019801980198
 40
0.0297029702970297
 40
0.0297029702970297
 40
0.0297029702970297
 40
0.0297029702970297
 40
0.0396039603960396
 40
0.0396039603960396
 40
0.0396039603960396
 40
0.0396039603960396
 40
0.0495049504950495
 40
0.0495049504950495
 40
0.0495049504950495
 40
0.0495049504950495
 40
0.0594059405940594
 40
0.0594059405940594
 40
0.0594059405940594
 40
0.0594059405940594
 40
0.0693069306930693
 40
0.0693069306930693
 40
0.0693069306930693
 40
0.0693069306930693
 40
0.0792079207920792
 40
0.0792079207920792
 40
0.0792079207920792
 40
0.0792079207920792
 40
0.0891089108910891
 40
0.0891089108910891
 40
0.0891089108910891
 40
0.0891089108910891
 40
0.099009900990099
 40
0.099009900990099
 40
0.099009900990099
 40
0.099009900990099
 40
0.1089108910891089
 40
0.1089108910891089
 40
0.1089108910891089
 40
0.1089108910891089
 40
0.1188118811881188
 40
0.1188118811881188
 40
0.1188118811881188
 40
0.1188118811881188
 40
0.1287128712871287
 40
0.1287128712871287
 40
0.1287128712871287
 40
0.1287128712871287
 40
0.1386138613861386
 40
0.1386138613861386
 40
0.1386138613861386
 40
0.1386138613861386
 40
0.1485148514851485
 40
0.1485148514851485
 40
0.1485148514851485
 40
0.1485148514851485
 40
0.1584158415841584
 40
0.1584158415841584
 40
0.1584158415841584
 40
0.1584158415841584
 40
0.1683168316831683
 40
0.1683168316831683
 40
0.1683168316831683
 40
0.1683168316831683
 40
0.1782178217821782
 40
0.1782178217821782
 40
0.1782178217821782
 40
0.1782178217821782
 40
0.1881188118811881
 40
0.1881188118811881
 40
0.1881188118811881
 40
0.1881188118811881
 40
0.198019801980198
 40
0.198019801980198
 40
0.198019801980198
 40
0.198019801980198
 40
0.2079207920792079
 40
0.2079207920792079
 40
0.2079207920792079
 40
0.2079207920792079
 40
0.2178217821782178
 40
0.2178217821782178
 40
0.2178217821782178
 40
0.2178217821782178
 40
0.2277227722772277
 40
0.2277227722772277
 40
0.2277227722772277
 40
0.2277227722772277
 40
0.2376237623762376
 40
0.2376237623762376
 40
0.2376237623762376
 40
0.2376237623762376
 40
0.2475247524752475
 40
0.2475247524752475
 40
0.2475247524752475
 40
0.2475247524752475
 40
0.2574257425742574
 40
0.2574257425742574
 40
0.2574257425742574
 40
0.2574257425742574
 40
0.2673267326732673
 40
0.2673267326732673
 40
0.2673267326732673
 40
0.2673267326732673
 40
0.2772277227722773
 40
0.2772277227722773
 40
0.2772277227722773
 40
0.2772277227722773
 40
0.2871287128712871
 40
0.2871287128712871
 40
0.2871287128712871
 40
0.2871287128712871
 40
0.297029702970297
 40
0.297029702970297
 40
0.297029702970297
 40
0.297029702970297
 40
0.3069306930693069
 40
0.3069306930693069
 40
0.3069306930693069
 40
0.3069306930693069
 40
0.3168316831683168
 40
0.3168316831683168
 40
0.3168316831683168
 40
0.3168316831683168
 40
0.3267326732673267
 40
0.3267326732673267
 40
0.3267326732673267
 40
0.3267326732673267
 40
0.3366336633663367
 40
0.3366336633663367
 40
0.3366336633663367
 40
0.3366336633663367
 40
0.3465346534653465
 40
0.3465346534653465
 40
0.3465346534653465
 40
0.3465346534653465
 40
0.3564356435643564
 40
0.3564356435643564
 40
0.3564356435643564
 40
0.3564356435643564
 40
0.3663366336633663
 40
0.3663366336633663
 40
0.3663366336633663
 40
0.3663366336633663
 40
0.3762376237623762
 40
0.3762376237623762
 40
0.3762376237623762
 40
0.3762376237623762
 40
0.3861386138613861
 40
0.3861386138613861
 40
0.3861386138613861
 40
0.3861386138613861
 40
0.3960396039603961
 40
0.3960396039603961
 40
0.3960396039603961
 40
0.3960396039603961
 40
0.405940594059406
 40
0.405940594059406
 40
0.405940594059406
 40
0.405940594059406
 40
0.4158415841584158
 40
0.4158415841584158
 40
0.4158415841584158
 40
0.4158415841584158
 40
0.4257425742574257
 40
0.4257425742574257
 40
0.4257425742574257
 40
0.4257425742574257
 40
0.4356435643564356
 40
0.4356435643564356
 40
0.4356435643564356
 40
0.4356435643564356
 40
0.4455445544554456
 40
0.4455445544554456
 40
0.4455445544554456
 40
0.4455445544554456
 40
0.4554455445544555
 40
0.4554455445544555
 40
0.4554455445544555
 40
0.4554455445544555
 40
0.4653465346534654
 40
0.4653465346534654
 40
0.4653465346534654
 40
0.4653465346534654
 40
0.4752475247524752
 40
0.4752475247524752
 40
0.4752475247524752
 40
0.4752475247524752
 40
0.4851485148514851
 40
0.4851485148514851
 40
0.4851485148514851
 40
0.4851485148514851
 40
0.495049504950495
 40
0.495049504950495
 40
0.495049504950495
 40
0.495049504950495
 40
0.504950495049505
 40
0.504950495049505
 40
0.504950495049505
 40
0.504950495049505
 40
0.5148514851485149
 40
0.5148514851485149
 40
0.5148514851485149
 40
0.5148514851485149
 40
0.5247524752475248
 40
0.5247524752475248
 40
0.5247524752475248
 40
0.5247524752475248
 40
0.5346534653465347
 40
0.5346534653465347
 40
0.5346534653465347
 40
0.5346534653465347
 40
0.5445544554455446
 40
0.5445544554455446
 40
0.5445544554455446
 40
0.5445544554455446
 40
0.5544554455445545
 40
0.5544554455445545
 40
0.5544554455445545
 40
0.5544554455445545
 40
0.5643564356435643
 40
0.5643564356435643
 40
0.5643564356435643
 40
0.5643564356435643
 40
0.5742574257425742
 40
0.5742574257425742
 40
0.5742574257425742
 40
0.5742574257425742
 40
0.5841584158415841
 40
0.5841584158415841
 40
0.5841584158415841
 40
0.5841584158415841
 40
0.594059405940594
 40
0.594059405940594
 40
0.594059405940594
 40
0.594059405940594
 40
0.6039603960396039
 40
0.6039603960396039
 40
0.6039603960396039
 40
0.6039603960396039
 40
0.6138613861386139
 40
0.6138613861386139
 40
0.6138613861386139
 40
0.6138613861386139
 40
0.6237623762376238
 40
0.6237623762376238
 40
0.6237623762376238
 40
0.6237623762376238
 40
0.6336633663366337
 40
0.6336633663366337
 40
0.6336633663366337
 40
0.6336633663366337
 40
0.6435643564356436
 40
0.6435643564356436
 40
0.6435643564356436
 40
0.6435643564356436
 40
0.6534653465346535
 40
0.6534653465346535
 40
0.6534653465346535
 40
0.6534653465346535
 40
0.6633663366336634
 40
0.6633663366336634
 40
0.6633663366336634
 40
0.6633663366336634
 40
0.6732673267326733
 40
0.6732673267326733
 40
0.6732673267326733
 40
0.6732673267326733
 40
0.6831683168316832
 40
0.6831683168316832
 40
0.6831683168316832
 40
0.6831683168316832
 40
0.693069306930693
 40
0.693069306930693
 40
0.693069306930693
 40
0.693069306930693
 40
0.7029702970297029
 40
0.7029702970297029
 40
0.7029702970297029
 40
0.7029702970297029
 40
0.7128712871287128
 40
0.7128712871287128
 40
0.7128712871287128
 40
0.7128712871287128
 40
0.7227722772277227
 40
0.7227722772277227
 40
0.7227722772277227
 40
0.7227722772277227
 40
0.7326732673267327
 40
0.7326732673267327
 40
0.7326732673267327
 40
0.7326732673267327
 40
0.7425742574257426
 40
0.7425742574257426
 40
0.7425742574257426
 40
0.7425742574257426
 40
0.7524752475247525
 40
0.7524752475247525
 40
0.7524752475247525
 40
0.7524752475247525
 40
0.7623762376237624
 40
0.7623762376237624
 40
0.7623762376237624
 40
0.7623762376237624
 40
0.7722772277227723
 40
0.7722772277227723
 40
0.7722772277227723
 40
0.7722772277227723
 40
0.7821782178217822
 40
0.7821782178217822
 40
0.7821782178217822
 40
0.7821782178217822
 40
0.7920792079207921
 40
0.7920792079207921
 40
0.7920792079207921
 40
0.7920792079207921
 40
0.801980198019802
 40
0.801980198019802
 40
0.801980198019802
 40
0.801980198019802
 40
0.8118811881188119
 40
0.8118811881188119
 40
0.8118811881188119
 40
0.8118811881188119
 40
0.8217821782178217
 40
0.8217821782178217
 40
0.8217821782178217
 40
0.8217821782178217
 40
0.8316831683168316
 40
0.8316831683168316
 40
0.8316831683168316
 40
0.8316831683168316
 40
0.8415841584158416
 40
0.8415841584158416
 40
0.8415841584158416
 40
0.8415841584158416
 40
0.8514851485148515
 40
0.8514851485148515
 40
0.8514851485148515
 40
0.8514851485148515
 40
0.8613861386138614
 40
0.8613861386138614
 40
0.8613861386138614
 40
0.8613861386138614
 40
0.8712871287128713
 40
0.8712871287128713
 40
0.8712871287128713
 40
0.8712871287128713
 40
0.8811881188118812
 40
0.8811881188118812
 40
0.8811881188118812
 40
0.8811881188118812
 40
0.8910891089108911
 40
0.8910891089108911
 40
0.8910891089108911
 40
0.8910891089108911
 40
0.900990099009901
 40
0.900990099009901
 40
0.900990099009901
 40
0.900990099009901
 40
0.9108910891089109
 40
0.9108910891089109
 40
0.9108910891089109
 40
0.9108910891089109
 40
0.9207920792079208
 40
0.9207920792079208
 40
0.9207920792079208
 40
0.9207920792079208
 40
0.9306930693069307
 40
0.9306930693069307
 40
0.9306930693069307
 40
0.9306930693069307
 40
0.9405940594059405
 40
0.9405940594059405
 40
0.9405940594059405
 40
0.9405940594059405
 40
0.9504950495049505
 40
0.9504950495049505
 40
0.9504950495049505
 40
0.9504950495049505
 40
0.9603960396039604
 40
0.9603960396039604
 40
0.9603960396039604
 40
0.9603960396039604
 40
0.9702970297029703
 40
0.9702970297029703
 40
0.9702970297029703
 40
0.9702970297029703
 40
0.9801980198019802
 40
0.9801980198019802
 40
0.9801980198019802
 40
0.9801980198019802
 40
1.0
 40
1.0
 40
1.0
 40
1.0
 10
-161.478
 20
9.038
 30
0.0
 10
-161.478
 20
9.038
 30
0.0
 10
-161.478
 20
6.1534
 30
0.0
 10
-161.478
 20
6.1534
 30
0.0
 10
-161.478
 20
6.1534
 30
0.0
 10
-161.478
 20
6.1534
 30
0.0
 10
-167.478
 20
6.1534
 30
0.0
 10
-167.478
 20
6.1534
 30
0.0
 10
-167.478
 20
6.1534
 30
0.0
 10
-167.478
 20
6.1534
 30
0.0
 10
-167.478
 20
9.038
 30
0.0
 10
-167.478
 20
9.038
 30
0.0
 10
-167.478
 20
9.038
 30
0.0
 10
-167.478
 20
9.038
 30
0.0
 10
-172.3181
 20
9.0379
 30
0.0
 10
-172.3181
 20
9.0379
 30
0.0
 10
-172.3181
 20
9.0379
 30
0.0
 10
-172.3181
 20
9.0379
 30
0.0
 10
-176.9221
 20
10.534
 30
0.0
 10
-176.9221
 20
10.534
 30
0.0
 10
-176.9221
 20
10.534
 30
0.0
 10
-176.9221
 20
10.534
 30
0.0
 10
-177.8136
 20
7.7904
 30
0.0
 10
-177.8136
 20
7.7904
 30
0.0
 10
-177.8136
 20
7.7904
 30
0.0
 10
-177.8136
 20
7.7904
 30
0.0
 10
-183.5198
 20
9.6445
 30
0.0
 10
-183.5198
 20
9.6445
 30
0.0
 10
-183.5198
 20
9.6445
 30
0.0
 10
-183.5198
 20
9.6445
 30
0.0
 10
-182.6287
 20
12.3882
 30
0.0
 10
-182.6287
 20
12.3882
 30
0.0
 10
-182.6287
 20
12.3882
 30
0.0
 10
-182.6287
 20
12.3882
 30
0.0
 10
-187.2306
 20
13.8834
 30
0.0
 10
-187.2306
 20
13.8834
 30
0.0
 10
-187.2306
 20
13.8834
 30
0.0
 10
-187.2306
 20
13.8834
 30
0.0
 10
-191.1479
 20
16.7293
 30
0.0
 10
-191.1479
 20
16.7293
 30
0.0
 10
-191.1479
 20
16.7293
 30
0.0
 10
-191.1479
 20
16.7293
 30
0.0
 10
-192.8438
 20
14.3952
 30
0.0
 10
-192.8438
 20
14.3952
 30
0.0
 10
-192.8438
 20
14.3952
 30
0.0
 10
-192.8438
 20
14.3952
 30
0.0
 10
-197.6978
 20
17.9219
 30
0.0
 10
-197.6978
 20
17.9219
 30
0.0
 10
-197.6978
 20
17.9219
 30
0.0
 10
-197.6978
 20
17.9219
 30
0.0
 10
-196.0022
 20
20.2562
 30
0.0
 10
-196.0022
 20
20.2562
 30
0.0
 10
-196.0022
 20
20.2562
 30
0.0
 10
-196.0022
 20
20.2562
 30
0.0
 10
-199.916
 20
23.0999
 30
0.0
 10
-199.916
 20
23.0999
 30
0.0
 10
-199.916
 20
23.0999
 30
0.0
 10
-199.916
 20
23.0999
 30
0.0
 10
-202.7625
 20
27.0177
 30
0.0
 10
-202.7625
 20
27.0177
 30
0.0
 10
-202.7625
 20
27.0177
 30
0.0
 10
-202.7625
 20
27.0177
 30
0.0
 10
-205.0973
 20
25.3214
 30
0.0
 10
-205.0973
 20
25.3214
 30
0.0
 10
-205.0973
 20
25.3214
 30
0.0
 10
-205.0973
 20
25.3214
 30
0.0
 10
-208.624
 20
30.1754
 30
0.0
 10
-208.624
 20
30.1754
 30
0.0
 10
-208.624
 20
30.1754
 30
0.0
 10
-208.624
 20
30.1754
 30
0.0
 10
-206.2893
 20
31.872
 30
0.0
 10
-206.2893
 20
31.872
 30
0.0
 10
-206.2893
 20
31.872
 30
0.0
 10
-206.2893
 20
31.872
 30
0.0
 10
-209.1325
 20
35.7852
 30
0.0
 10
-209.1325
 20
35.7852
 30
0.0
 10
-209.1325
 20
35.7852
 30
0.0
 10
-209.1325
 20
35.7852
 30
0.0
 10
-210.6291
 20
40.3914
 30
0.0
 10
-210.6291
 20
40.3914
 30
0.0
 10
-210.6291
 20
40.3914
 30
0.0
 10
-210.6291
 20
40.3914
 30
0.0
 10
-213.3748
 20
39.4994
 30
0.0
 10
-213.3748
 20
39.4994
 30
0.0
 10
-213.3748
 20
39.4994
 30
0.0
 10
-213.3748
 20
39.4994
 30
0.0
 10
-215.2289
 20
45.2056
 30
0.0
 10
-215.2289
 20
45.2056
 30
0.0
 10
-215.2289
 20
45.2056
 30
0.0
 10
-215.2289
 20
45.2056
 30
0.0
 10
-212.4833
 20
46.098
 30
0.0
 10
-212.4833
 20
46.098
 30
0.0
 10
-212.4833
 20
46.098
 30
0.0
 10
-212.4833
 20
46.098
 30
0.0
 10
-213.9779
 20
50.6979
 30
0.0
 10
-213.9779
 20
50.6979
 30
0.0
 10
-213.9779
 20
50.6979
 30
0.0
 10
-213.9779
 20
50.6979
 30
0.0
 10
-213.9779
 20
55.5412
 30
0.0
 10
-213.9779
 20
55.5412
 30
0.0
 10
-213.9779
 20
55.5412
 30
0.0
 10
-213.9779
 20
55.5412
 30
0.0
 10
-216.8659
 20
55.5413
 30
0.0
 10
-216.8659
 20
55.5413
 30
0.0
 10
-216.8659
 20
55.5413
 30
0.0
 10
-216.8659
 20
55.5413
 30
0.0
 10
-216.8659
 20
61.5412
 30
0.0
 10
-216.8659
 20
61.5412
 30
0.0
 10
-216.8659
 20
61.5412
 30
0.0
 10
-216.8659
 20
61.5412
 30
0.0
 10
-213.9779
 20
61.5414
 30
0.0
 10
-213.9779
 20
61.5414
 30
0.0
 10
-213.9779
 20
61.5414
 30
0.0
 10
-213.9779
 20
61.5414
 30
0.0
 10
-213.978
 20
66.378
 30
0.0
 10
-213.978
 20
66.378
 30
0.0
 10
-213.978
 20
66.378
 30
0.0
 10
-213.978
 20
66.378
 30
0.0
 10
-212.4813
 20
70.9841
 30
0.0
 10
-212.4813
 20
70.9841
 30
0.0
 10
-212.4813
 20
70.9841
 30
0.0
 10
-212.4813
 20
70.9841
 30
0.0
 10
-215.2289
 20
71.8769
 30
0.0
 10
-215.2289
 20
71.8769
 30
0.0
 10
-215.2289
 20
71.8769
 30
0.0
 10
-215.2289
 20
71.8769
 30
0.0
 10
-213.3748
 20
77.5831
 30
0.0
 10
-213.3748
 20
77.5831
 30
0.0
 10
-213.3748
 20
77.5831
 30
0.0
 10
-213.3748
 20
77.5831
 30
0.0
 10
-210.6271
 20
76.6906
 30
0.0
 10
-210.6271
 20
76.6906
 30
0.0
 10
-210.6271
 20
76.6906
 30
0.0
 10
-210.6271
 20
76.6906
 30
0.0
 10
-209.1325
 20
81.2905
 30
0.0
 10
-209.1325
 20
81.2905
 30
0.0
 10
-209.1325
 20
81.2905
 30
0.0
 10
-209.1325
 20
81.2905
 30
0.0
 10
-206.2861
 20
85.2083
 30
0.0
 10
-206.2861
 20
85.2083
 30
0.0
 10
-206.2861
 20
85.2083
 30
0.0
 10
-206.2861
 20
85.2083
 30
0.0
 10
-208.6241
 20
86.9071
 30
0.0
 10
-208.6241
 20
86.9071
 30
0.0
 10
-208.6241
 20
86.9071
 30
0.0
 10
-208.6241
 20
86.9071
 30
0.0
 10
-205.0974
 20
91.7611
 30
0.0
 10
-205.0974
 20
91.7611
 30
0.0
 10
-205.0974
 20
91.7611
 30
0.0
 10
-205.0974
 20
91.7611
 30
0.0
 10
-202.7593
 20
90.0626
 30
0.0
 10
-202.7593
 20
90.0626
 30
0.0
 10
-202.7593
 20
90.0626
 30
0.0
 10
-202.7593
 20
90.0626
 30
0.0
 10
-199.916
 20
93.9759
 30
0.0
 10
-199.916
 20
93.9759
 30
0.0
 10
-199.916
 20
93.9759
 30
0.0
 10
-199.916
 20
93.9759
 30
0.0
 10
-195.9987
 20
96.822
 30
0.0
 10
-195.9987
 20
96.822
 30
0.0
 10
-195.9987
 20
96.822
 30
0.0
 10
-195.9987
 20
96.822
 30
0.0
 10
-197.6977
 20
99.1607
 30
0.0
 10
-197.6977
 20
99.1607
 30
0.0
 10
-197.6977
 20
99.1607
 30
0.0
 10
-197.6977
 20
99.1607
 30
0.0
 10
-192.8437
 20
102.6874
 30
0.0
 10
-192.8437
 20
102.6874
 30
0.0
 10
-192.8437
 20
102.6874
 30
0.0
 10
-192.8437
 20
102.6874
 30
0.0
 10
-191.1444
 20
100.3488
 30
0.0
 10
-191.1444
 20
100.3488
 30
0.0
 10
-191.1444
 20
100.3488
 30
0.0
 10
-191.1444
 20
100.3488
 30
0.0
 10
-187.2307
 20
103.1924
 30
0.0
 10
-187.2307
 20
103.1924
 30
0.0
 10
-187.2307
 20
103.1924
 30
0.0
 10
-187.2307
 20
103.1924
 30
0.0
 10
-182.6264
 20
104.6884
 30
0.0
 10
-182.6264
 20
104.6884
 30
0.0
 10
-182.6264
 20
104.6884
 30
0.0
 10
-182.6264
 20
104.6884
 30
0.0
 10
-183.5197
 20
107.4381
 30
0.0
 10
-183.5197
 20
107.4381
 30
0.0
 10
-183.5197
 20
107.4381
 30
0.0
 10
-183.5197
 20
107.4381
 30
0.0
 10
-177.8135
 20
109.2922
 30
0.0
 10
-177.8135
 20
109.2922
 30
0.0
 10
-177.8135
 20
109.2922
 30
0.0
 10
-177.8135
 20
109.2922
 30
0.0
 10
-176.9199
 20
106.5425
 30
0.0
 10
-176.9199
 20
106.5425
 30
0.0
 10
-176.9199
 20
106.5425
 30
0.0
 10
-176.9199
 20
106.5425
 30
0.0
 10
-172.318
 20
108.0378
 30
0.0
 10
-172.318
 20
108.0378
 30
0.0
 10
-172.318
 20
108.0378
 30
0.0
 10
-172.318
 20
108.0378
 30
0.0
 10
-167.4779
 20
108.0378
 30
0.0
 10
-167.4779
 20
108.0378
 30
0.0
 10
-167.4779
 20
108.0378
 30
0.0
 10
-167.4779
 20
108.0378
 30
0.0
 10
-167.4778
 20
110.9292
 30
0.0
 10
-167.4778
 20
110.9292
 30
0.0
 10
-167.4778
 20
110.9292
 30
0.0
 10
-167.4778
 20
110.9292
 30
0.0
 10
-161.4779
 20
110.9292
 30
0.0
 10
-161.4779
 20
110.9292
 30
0.0
 10
-161.4779
 20
110.9292
 30
0.0
 10
-161.4779
 20
110.9292
 30
0.0
 10
-161.4778
 20
108.0378
 30
0.0
 10
-161.4778
 20
108.0378
 30
0.0
 10
-161.4778
 20
108.0378
 30
0.0
 10
-161.4778
 20
108.0378
 30
0.0
 10
-156.6379
 20
108.0379
 30
0.0
 10
-156.6379
 20
108.0379
 30
0.0
 10
-156.6379
 20
108.0379
 30
0.0
 10
-156.6379
 20
108.0379
 30
0.0
 10
-152.0357
 20
106.5424
 30
0.0
 10
-152.0357
 20
106.5424
 30
0.0
 10
-152.0357
 20
106.5424
 30
0.0
 10
-152.0357
 20
106.5424
 30
0.0
 10
-151.1422
 20
109.2922
 30
0.0
 10
-151.1422
 20
109.2922
 30
0.0
 10
-151.1422
 20
109.2922
 30
0.0
 10
-151.1422
 20
109.2922
 30
0.0
 10
-145.436
 20
107.4381
 30
0.0
 10
-145.436
 20
107.4381
 30
0.0
 10
-145.436
 20
107.4381
 30
0.0
 10
-145.436
 20
107.4381
 30
0.0
 10
-146.3293
 20
104.6882
 30
0.0
 10
-146.3293
 20
104.6882
 30
0.0
 10
-146.3293
 20
104.6882
 30
0.0
 10
-146.3293
 20
104.6882
 30
0.0
 10
-141.7254
 20
103.1924
 30
0.0
 10
-141.7254
 20
103.1924
 30
0.0
 10
-141.7254
 20
103.1924
 30
0.0
 10
-141.7254
 20
103.1924
 30
0.0
 10
-137.8112
 20
100.3487
 30
0.0
 10
-137.8112
 20
100.3487
 30
0.0
 10
-137.8112
 20
100.3487
 30
0.0
 10
-137.8112
 20
100.3487
 30
0.0
 10
-136.112
 20
102.6873
 30
0.0
 10
-136.112
 20
102.6873
 30
0.0
 10
-136.112
 20
102.6873
 30
0.0
 10
-136.112
 20
102.6873
 30
0.0
 10
-131.258
 20
99.1606
 30
0.0
 10
-131.258
 20
99.1606
 30
0.0
 10
-131.258
 20
99.1606
 30
0.0
 10
-131.258
 20
99.1606
 30
0.0
 10
-132.9571
 20
96.8219
 30
0.0
 10
-132.9571
 20
96.8219
 30
0.0
 10
-132.9571
 20
96.8219
 30
0.0
 10
-132.9571
 20
96.8219
 30
0.0
 10
-129.04
 20
93.9759
 30
0.0
 10
-129.04
 20
93.9759
 30
0.0
 10
-129.04
 20
93.9759
 30
0.0
 10
-129.04
 20
93.9759
 30
0.0
 10
-126.1951
 20
90.0603
 30
0.0
 10
-126.1951
 20
90.0603
 30
0.0
 10
-126.1951
 20
90.0603
 30
0.0
 10
-126.1951
 20
90.0603
 30
0.0
 10
-123.8612
 20
91.7559
 30
0.0
 10
-123.8612
 20
91.7559
 30
0.0
 10
-123.8612
 20
91.7559
 30
0.0
 10
-123.8612
 20
91.7559
 30
0.0
 10
-120.3345
 20
86.9018
 30
0.0
 10
-120.3345
 20
86.9018
 30
0.0
 10
-120.3345
 20
86.9018
 30
0.0
 10
-120.3345
 20
86.9018
 30
0.0
 10
-122.6683
 20
85.2061
 30
0.0
 10
-122.6683
 20
85.2061
 30
0.0
 10
-122.6683
 20
85.2061
 30
0.0
 10
-122.6683
 20
85.2061
 30
0.0
 10
-119.8235
 20
81.2906
 30
0.0
 10
-119.8235
 20
81.2906
 30
0.0
 10
-119.8235
 20
81.2906
 30
0.0
 10
-119.8235
 20
81.2906
 30
0.0
 10
-118.3279
 20
76.6874
 30
0.0
 10
-118.3279
 20
76.6874
 30
0.0
 10
-118.3279
 20
76.6874
 30
0.0
 10
-118.3279
 20
76.6874
 30
0.0
 10
-115.5842
 20
77.5788
 30
0.0
 10
-115.5842
 20
77.5788
 30
0.0
 10
-115.5842
 20
77.5788
 30
0.0
 10
-115.5842
 20
77.5788
 30
0.0
 10
-113.7301
 20
71.8726
 30
0.0
 10
-113.7301
 20
71.8726
 30
0.0
 10
-113.7301
 20
71.8726
 30
0.0
 10
-113.7301
 20
71.8726
 30
0.0
 10
-116.4737
 20
70.981
 30
0.0
 10
-116.4737
 20
70.981
 30
0.0
 10
-116.4737
 20
70.981
 30
0.0
 10
-116.4737
 20
70.981
 30
0.0
 10
-114.9781
 20
66.3779
 30
0.0
 10
-114.9781
 20
66.3779
 30
0.0
 10
-114.9781
 20
66.3779
 30
0.0
 10
-114.9781
 20
66.3779
 30
0.0
 10
-114.9781
 20
61.538
 30
0.0
 10
-114.9781
 20
61.538
 30
0.0
 10
-114.9781
 20
61.538
 30
0.0
 10
-114.9781
 20
61.538
 30
0.0
 10
-112.0933
 20
61.5379
 30
0.0
 10
-112.0933
 20
61.5379
 30
0.0
 10
-112.0933
 20
61.5379
 30
0.0
 10
-112.0933
 20
61.5379
 30
0.0
 10
-112.0933
 20
55.538
 30
0.0
 10
-112.0933
 20
55.538
 30
0.0
 10
-112.0933
 20
55.538
 30
0.0
 10
-112.0933
 20
55.538
 30
0.0
 10
-114.9781
 20
55.5379
 30
0.0
 10
-114.9781
 20
55.5379
 30
0.0
 10
-114.9781
 20
55.5379
 30
0.0
 10
-114.9781
 20
55.5379
 30
0.0
 10
-114.978
 20
50.6978
 30
0.0
 10
-114.978
 20
50.6978
 30
0.0
 10
-114.978
 20
50.6978
 30
0.0
 10
-114.978
 20
50.6978
 30
0.0
 10
-116.4737
 20
46.0949
 30
0.0
 10
-116.4737
 20
46.0949
 30
0.0
 10
-116.4737
 20
46.0949
 30
0.0
 10
-116.4737
 20
46.0949
 30
0.0
 10
-113.7302
 20
45.2034
 30
0.0
 10
-113.7302
 20
45.2034
 30
0.0
 10
-113.7302
 20
45.2034
 30
0.0
 10
-113.7302
 20
45.2034
 30
0.0
 10
-115.5843
 20
39.4972
 30
0.0
 10
-115.5843
 20
39.4972
 30
0.0
 10
-115.5843
 20
39.4972
 30
0.0
 10
-115.5843
 20
39.4972
 30
0.0
 10
-118.3278
 20
40.3885
 30
0.0
 10
-118.3278
 20
40.3885
 30
0.0
 10
-118.3278
 20
40.3885
 30
0.0
 10
-118.3278
 20
40.3885
 30
0.0
 10
-119.8235
 20
35.7853
 30
0.0
 10
-119.8235
 20
35.7853
 30
0.0
 10
-119.8235
 20
35.7853
 30
0.0
 10
-119.8235
 20
35.7853
 30
0.0
 10
-122.6683
 20
31.8697
 30
0.0
 10
-122.6683
 20
31.8697
 30
0.0
 10
-122.6683
 20
31.8697
 30
0.0
 10
-122.6683
 20
31.8697
 30
0.0
 10
-120.3346
 20
30.1742
 30
0.0
 10
-120.3346
 20
30.1742
 30
0.0
 10
-120.3346
 20
30.1742
 30
0.0
 10
-120.3346
 20
30.1742
 30
0.0
 10
-123.8613
 20
25.3201
 30
0.0
 10
-123.8613
 20
25.3201
 30
0.0
 10
-123.8613
 20
25.3201
 30
0.0
 10
-123.8613
 20
25.3201
 30
0.0
 10
-126.1951
 20
27.0155
 30
0.0
 10
-126.1951
 20
27.0155
 30
0.0
 10
-126.1951
 20
27.0155
 30
0.0
 10
-126.1951
 20
27.0155
 30
0.0
 10
-129.04
 20
23.0999
 30
0.0
 10
-129.04
 20
23.0999
 30
0.0
 10
-129.04
 20
23.0999
 30
0.0
 10
-129.04
 20
23.0999
 30
0.0
 10
-132.9557
 20
20.255
 30
0.0
 10
-132.9557
 20
20.255
 30
0.0
 10
-132.9557
 20
20.255
 30
0.0
 10
-132.9557
 20
20.255
 30
0.0
 10
-131.2601
 20
17.9213
 30
0.0
 10
-131.2601
 20
17.9213
 30
0.0
 10
-131.2601
 20
17.9213
 30
0.0
 10
-131.2601
 20
17.9213
 30
0.0
 10
-136.1142
 20
14.3946
 30
0.0
 10
-136.1142
 20
14.3946
 30
0.0
 10
-136.1142
 20
14.3946
 30
0.0
 10
-136.1142
 20
14.3946
 30
0.0
 10
-137.8098
 20
16.7283
 30
0.0
 10
-137.8098
 20
16.7283
 30
0.0
 10
-137.8098
 20
16.7283
 30
0.0
 10
-137.8098
 20
16.7283
 30
0.0
 10
-141.7253
 20
13.8834
 30
0.0
 10
-141.7253
 20
13.8834
 30
0.0
 10
-141.7253
 20
13.8834
 30
0.0
 10
-141.7253
 20
13.8834
 30
0.0
 10
-146.3285
 20
12.3877
 30
0.0
 10
-146.3285
 20
12.3877
 30
0.0
 10
-146.3285
 20
12.3877
 30
0.0
 10
-146.3285
 20
12.3877
 30
0.0
 10
-145.4371
 20
9.6443
 30
0.0
 10
-145.4371
 20
9.6443
 30
0.0
 10
-145.4371
 20
9.6443
 30
0.0
 10
-145.4371
 20
9.6443
 30
0.0
 10
-151.1435
 20
7.7902
 30
0.0
 10
-151.1435
 20
7.7902
 30
0.0
 10
-151.1435
 20
7.7902
 30
0.0
 10
-151.1435
 20
7.7902
 30
0.0
 10
-152.0348
 20
10.5337
 30
0.0
 10
-152.0348
 20
10.5337
 30
0.0
 10
-152.0348
 20
10.5337
 30
0.0
 10
-152.0348
 20
10.5337
 30
0.0
 10
-156.638
 20
9.038
 30
0.0
 10
-156.638
 20
9.038
 30
0.0
 10
-156.638
 20
9.038
 30
0.0
 10
-156.638
 20
9.038
 30
0.0
 10
-161.478
 20
9.038
 30
0.0
 10
-161.478
 20
9.038
 30
0.0
  0
SPLINE
  5
81
330
1F
100
AcDbEntity
  8
Camada 1
 62
   250
370
     9
100
AcDbSpline
210
0.0
220
0.0
230
1.0
 70
    11
 71
     3
 72
    20
 73
    16
 74
     0
 42
0.000000001
 43
0.0000000001
 40
0.0
 40
0.0
 40
0.0
 40
0.0
 40
0.2
 40
0.2
 40
0.2
 40
0.2
 40
0.4
 40
0.4
 40
0.4
 40
0.4
 40
0.6
 40
0.6
 40
0.6
 40
0.6
 40
1.0
 40
1.0
 40
1.0
 40
1.0
 10
45.6873
 20
56.0413
 30
0.0
 10
45.6873
 20
56.0413
 30
0.0
 10
45.6873
 20
61.0413
 30
0.0
 10
45.6873
 20
61.0413
 30
0.0
 10
45.6873
 20
61.0413
 30
0.0
 10
45.6873
 20
61.0413
 30
0.0
 10
48.6873
 20
61.0413
 30
0.0
 10
48.6873
 20
61.0413
 30
0.0
 10
48.6873
 20
61.0413
 30
0.0
 10
48.6873
 20
61.0413
 30
0.0
 10
48.6873
 20
56.0413
 30
0.0
 10
48.6873
 20
56.0413
 30
0.0
 10
48.6873
 20
56.0413
 30
0.0
 10
48.6873
 20
56.0413
 30
0.0
 10
45.6873
 20
56.0413
 30
0.0
 10
45.6873
 20
56.0413
 30
0.0
  0
SPLINE
  5
82
330
1F
100
AcDbEntity
  8
Camada 1
 62
   250
370
     9
100
AcDbSpline
210
0.0
220
0.0
230
1.0
 70
    11
 71
     3
 72
    32
 73
    28
 74
     0
 42
0.000000001
 43
0.0000000001
 40
0.0
 40
0.0
 40
0.0
 40
0.0
 40
0.125
 40
0.125
 40
0.125
 40
0.125
 40
0.25
 40
0.25
 40
0.25
 40
0.25
 40
0.375
 40
0.375
 40
0.375
 40
0.375
 40
0.5
 40
0.5
 40
0.5
 40
0.5
 40
0.625
 40
0.625
 40
0.625
 40
0.625
 40
0.75
 40
0.75
 40
0.75
 40
0.75
 40
1.0
 40
1.0
 40
1.0
 40
1.0
 10
146.6063
 20
65.3256
 30
0.0
 10
146.6063
 20
61.6971
 30
0.0
 10
144.0296
 20
58.6708
 30
0.0
 10
140.6063
 20
57.9758
 30
0.0
 10
140.6063
 20
57.9758
 30
0.0
 10
140.6063
 20
57.9758
 30
0.0
 10
140.6063
 20
65.3256
 30
0.0
 10
140.6063
 20
65.3256
 30
0.0
 10
140.6063
 20
65.3256
 30
0.0
 10
140.6063
 20
65.3256
 30
0.0
 10
137.6063
 20
65.3256
 30
0.0
 10
137.6063
 20
65.3256
 30
0.0
 10
137.6063
 20
65.3256
 30
0.0
 10
137.6063
 20
65.3256
 30
0.0
 10
137.6063
 20
57.9758
 30
0.0
 10
137.6063
 20
57.9758
 30
0.0
 10
137.6063
 20
57.9758
 30
0.0
 10
134.1829
 20
58.6708
 30
0.0
 10
131.6063
 20
61.6971
 30
0.0
 10
131.6063
 20
65.3256
 30
0.0
 10
131.6063
 20
65.3256
 30
0.0
 10
131.6063
 20
69.4678
 30
0.0
 10
134.9641
 20
72.8256
 30
0.0
 10
139.1063
 20
72.8256
 30
0.0
 10
139.1063
 20
72.8256
 30
0.0
 10
143.2485
 20
72.8256
 30
0.0
 10
146.6063
 20
69.4678
 30
0.0
 10
146.6063
 20
65.3256
 30
0.0
  0
SPLINE
  5
83
330
1F
100
AcDbEntity
  8
Camada 1
 62
   250
370
     9
100
AcDbSpline
210
0.0
220
0.0
230
1.0
 70
     8
 71
     3
 72
    52
 73
    48
 74
     0
 42
0.000000001
 43
0.0000000001
 40
0.0
 40
0.0
 40
0.0
 40
0.0
 40
0.0769230769230769
 40
0.0769230769230769
 40
0.0769230769230769
 40
0.0769230769230769
 40
0.1538461538461539
 40
0.1538461538461539
 40
0.1538461538461539
 40
0.1538461538461539
 40
0.2307692307692308
 40
0.2307692307692308
 40
0.2307692307692308
 40
0.2307692307692308
 40
0.3076923076923077
 40
0.3076923076923077
 40
0.3076923076923077
 40
0.3076923076923077
 40
0.3846153846153846
 40
0.3846153846153846
 40
0.3846153846153846
 40
0.3846153846153846
 40
0.4615384615384616
 40
0.4615384615384616
 40
0.4615384615384616
 40
0.4615384615384616
 40
0.5384615384615384
 40
0.5384615384615384
 40
0.5384615384615384
 40
0.5384615384615384
 40
0.6153846153846154
 40
0.6153846153846154
 40
0.6153846153846154
 40
0.6153846153846154
 40
0.6923076923076923
 40
0.6923076923076923
 40
0.6923076923076923
 40
0.6923076923076923
 40
0.7692307692307693
 40
0.7692307692307693
 40
0.7692307692307693
 40
0.7692307692307693
 40
0.8461538461538461
 40
0.8461538461538461
 40
0.8461538461538461
 40
0.8461538461538461
 40
1.0
 40
1.0
 40
1.0
 40
1.0
 10
116.1233
 20
62.5619
 30
0.0
 10
116.1233
 20
62.5619
 30
0.0
 10
116.2189
 20
60.9508
 30
0.0
 10
116.2189
 20
60.9508
 30
0.0
 10
116.2189
 20
60.9508
 30
0.0
 10
116.2189
 20
60.9508
 30
0.0
 10
114.7997
 20
60.9508
 30
0.0
 10
114.7997
 20
60.9508
 30
0.0
 10
114.7997
 20
60.9508
 30
0.0
 10
114.7997
 20
60.9508
 30
0.0
 10
114.7997
 20
57.9607
 30
0.0
 10
114.7997
 20
57.9607
 30
0.0
 10
114.7997
 20
57.9607
 30
0.0
 10
114.7997
 20
57.9607
 30
0.0
 10
112.2997
 20
57.9607
 30
0.0
 10
112.2997
 20
57.9607
 30
0.0
 10
112.2997
 20
57.9607
 30
0.0
 10
112.2997
 20
57.9607
 30
0.0
 10
112.2997
 20
54.9607
 30
0.0
 10
112.2997
 20
54.9607
 30
0.0
 10
112.2997
 20
54.9607
 30
0.0
 10
112.2997
 20
54.9607
 30
0.0
 10
114.7997
 20
54.9607
 30
0.0
 10
114.7997
 20
54.9607
 30
0.0
 10
114.7997
 20
54.9607
 30
0.0
 10
114.7997
 20
53.58
 30
0.0
 10
113.6804
 20
52.4607
 30
0.0
 10
112.2997
 20
52.4607
 30
0.0
 10
112.2997
 20
52.4607
 30
0.0
 10
110.919
 20
52.4607
 30
0.0
 10
109.7997
 20
53.58
 30
0.0
 10
109.7997
 20
54.9607
 30
0.0
 10
109.7997
 20
54.9607
 30
0.0
 10
109.7997
 20
54.9607
 30
0.0
 10
109.7997
 20
57.9607
 30
0.0
 10
109.7997
 20
57.9607
 30
0.0
 10
109.7997
 20
57.9607
 30
0.0
 10
109.7997
 20
57.9607
 30
0.0
 10
109.7997
 20
60.9508
 30
0.0
 10
109.7997
 20
60.9508
 30
0.0
 10
109.7997
 20
60.9508
 30
0.0
 10
109.7997
 20
60.9508
 30
0.0
 10
108.3534
 20
60.9523
 30
0.0
 10
108.3534
 20
60.9523
 30
0.0
 10
108.3534
 20
60.9523
 30
0.0
 10
108.3534
 20
60.9523
 30
0.0
 10
108.4407
 20
62.2054
 30
0.0
 10
108.4407
 20
62.2054
 30
0.0
  0
SPLINE
  5
84
330
1F
100
AcDbEntity
  8
Camada 1
 62
   250
370
     9
100
AcDbSpline
210
0.0
220
0.0
230
1.0
 70
     8
 71
     3
 72
    28
 73
    24
 74
     0
 42
0.000000001
 43
0.0000000001
 40
0.0
 40
0.0
 40
0.0
 40
0.0
 40
0.1428571428571428
 40
0.1428571428571428
 40
0.1428571428571428
 40
0.1428571428571428
 40
0.2857142857142857
 40
0.2857142857142857
 40
0.2857142857142857
 40
0.2857142857142857
 40
0.4285714285714285
 40
0.4285714285714285
 40
0.4285714285714285
 40
0.4285714285714285
 40
0.5714285714285714
 40
0.5714285714285714
 40
0.5714285714285714
 40
0.5714285714285714
 40
0.7142857142857143
 40
0.7142857142857143
 40
0.7142857142857143
 40
0.7142857142857143
 40
1.0
 40
1.0
 40
1.0
 40
1.0
 10
108.4407
 20
62.2054
 30
0.0
 10
104.9286
 20
65.9403
 30
0.0
 10
102.233
 20
69.5394
 30
0.0
 10
102.233
 20
73.2743
 30
0.0
 10
102.233
 20
73.2743
 30
0.0
 10
102.233
 20
76.0021
 30
0.0
 10
104.4468
 20
78.2159
 30
0.0
 10
107.1746
 20
78.2159
 30
0.0
 10
107.1746
 20
78.2159
 30
0.0
 10
109.6454
 20
78.2159
 30
0.0
 10
110.8808
 20
76.9805
 30
0.0
 10
112.1162
 20
74.5097
 30
0.0
 10
112.1162
 20
74.5097
 30
0.0
 10
113.3516
 20
76.9805
 30
0.0
 10
114.5869
 20
78.2159
 30
0.0
 10
117.0579
 20
78.2159
 30
0.0
 10
117.0579
 20
78.2159
 30
0.0
 10
119.7857
 20
78.2159
 30
0.0
 10
121.9995
 20
76.0021
 30
0.0
 10
121.9995
 20
73.2743
 30
0.0
 10
121.9995
 20
73.2743
 30
0.0
 10
121.9995
 20
69.7054
 30
0.0
 10
119.422
 20
66.1364
 30
0.0
 10
116.1285
 20
62.5675
 30
0.0
  0
ENDSEC
  0
SECTION
  2
OBJECTS
  0
DICTIONARY
  5
C
330
0
100
AcDbDictionary
281
     1
  3
ACAD_GROUP
350
D
  3
ACAD_LAYOUT
350
1A
  3
ACAD_MATERIAL
350
43
  3
ACAD_MLEADERSTYLE
350
6B
  3
ACAD_MLINESTYLE
350
17
  3
ACAD_PLOTSETTINGS
350
19
  3
ACAD_PLOTSTYLENAME
350
E
  3
ACAD_SCALELIST
350
47
  3
ACAD_TABLESTYLE
350
69
  3
ACAD_VISUALSTYLE
350
2A
  3
AcDbVariableDictionary
350
85
  0
DICTIONARY
  5
8C
330
8
100
AcDbDictionary
280
     1
281
     1
  3
ACAD_XREC_ROUNDTRIP
360
8D
  0
DICTIONARY
  5
D
102
{ACAD_REACTORS
330
C
102
}
330
C
100
AcDbDictionary
281
     1
  0
DICTIONARY
  5
1A
102
{ACAD_REACTORS
330
C
102
}
330
C
100
AcDbDictionary
281
     1
  3
Layout1
350
1E
  3
Layout2
350
26
  3
Model
350
22
  0
DICTIONARY
  5
43
102
{ACAD_REACTORS
330
C
102
}
330
C
100
AcDbDictionary
281
     1
  3
ByBlock
350
45
  3
ByLayer
350
44
  3
Global
350
46
  0
DICTIONARY
  5
6B
102
{ACAD_REACTORS
330
C
102
}
330
C
100
AcDbDictionary
281
     1
  3
Standard
350
6C
  0
DICTIONARY
  5
17
102
{ACAD_REACTORS
330
C
102
}
330
C
100
AcDbDictionary
281
     1
  3
Standard
350
18
  0
DICTIONARY
  5
19
102
{ACAD_REACTORS
330
C
102
}
330
C
100
AcDbDictionary
281
     1
  0
ACDBDICTIONARYWDFLT
  5
E
102
{ACAD_REACTORS
330
C
102
}
330
C
100
AcDbDictionary
281
     1
  3
Normal
350
F
100
AcDbDictionaryWithDefault
340
F
  0
DICTIONARY
  5
47
102
{ACAD_REACTORS
330
C
102
}
330
C
100
AcDbDictionary
281
     1
  3
A0
350
48
  3
A1
350
49
  3
A2
350
4A
  3
A3
350
4B
  3
A4
350
4C
  3
A5
350
4D
  3
A6
350
4E
  3
A7
350
4F
  3
A8
350
50
  3
A9
350
51
  3
B0
350
52
  3
B1
350
53
  3
B2
350
54
  3
B3
350
55
  3
B4
350
56
  3
B5
350
57
  3
B6
350
58
  3
B7
350
59
  3
B8
350
5A
  3
B9
350
5B
  3
C0
350
5C
  3
C1
350
5D
  3
C2
350
5E
  3
C3
350
5F
  3
C4
350
60
  3
C5
350
61
  3
C6
350
62
  3
C7
350
63
  3
C8
350
64
  3
C9
350
65
  3
D0
350
66
  3
D1
350
67
  3
D2
350
68
  0
DICTIONARY
  5
69
102
{ACAD_REACTORS
330
C
102
}
330
C
100
AcDbDictionary
281
     1
  3
Standard
350
6A
  0
DICTIONARY
  5
2A
102
{ACAD_REACTORS
330
C
102
}
330
C
100
AcDbDictionary
281
     1
  3
2dWireframe
350
2F
  3
Basic
350
32
  3
Brighten
350
36
  3
ColorChange
350
3A
  3
Conceptual
350
34
  3
Dim
350
35
  3
EdgeColorOff
350
3D
  3
Facepattern
350
39
  3
Flat
350
2B
  3
FlatWithEdges
350
2C
  3
Gouraud
350
2D
  3
GouraudWithEdges
350
2E
  3
Hidden
350
31
  3
JitterOff
350
3B
  3
Linepattern
350
38
  3
OverhangOff
350
3C
  3
Realistic
350
33
  3
Shaded
350
42
  3
Shaded with edges
350
41
  3
Shades of Gray
350
3E
  3
Sketchy
350
3F
  3
Thicken
350
37
  3
Wireframe
350
30
  3
X-Ray
350
40
  0
DICTIONARY
  5
85
102
{ACAD_REACTORS
330
C
102
}
330
C
100
AcDbDictionary
281
     1
  3
CANNOSCALE
350
8E
  3
CMLEADERSTYLE
350
87
  3
CTABLESTYLE
350
86
  3
DIMASSOC
350
8A
  3
HIDETEXT
350
8B
  3
MSLTSCALE
350
8F
  0
XRECORD
  5
8D
102
{ACAD_REACTORS
330
8C
102
}
330
8C
100
AcDbXrecord
280
     1
102
VTR_0.000_0.000_1.000_1.000_VISUALSTYLE
340
2F
102
VTR_0.000_0.000_1.000_1.000_GRIDDISPLAY
 70
     3
102
VTR_0.000_0.000_1.000_1.000_GRIDMAJOR
 70
     5
102
VTR_0.000_0.000_1.000_1.000_DEFAULTLIGHTING
280
     1
102
VTR_0.000_0.000_1.000_1.000_DEFAULTLIGHTINGTYPE
 70
     1
102
VTR_0.000_0.000_1.000_1.000_BRIGHTNESS
141
0.0
102
VTR_0.000_0.000_1.000_1.000_CONTRAST
142
0.0
  0
LAYOUT
  5
1E
102
{ACAD_REACTORS
330
1A
102
}
330
1A
100
AcDbPlotSettings
  1

  2
none_device
  4

  6

 40
0.0
 41
0.0
 42
0.0
 43
0.0
 44
0.0
 45
0.0
 46
0.0
 47
0.0
 48
0.0
 49
0.0
140
0.0
141
0.0
142
1.0
143
1.0
 70
   688
 72
     0
 73
     0
 74
     5
  7

 75
    16
147
1.0
148
0.0
149
0.0
100
AcDbLayout
  1
Layout1
 70
     1
 71
     1
 10
0.0
 20
0.0
 11
12.0
 21
9.0
 12
0.0
 22
0.0
 32
0.0
 14
1.000000000000000E+20
 24
1.000000000000000E+20
 34
1.000000000000000E+20
 15
-1.000000000000000E+20
 25
-1.000000000000000E+20
 35
-1.000000000000000E+20
146
0.0
 13
0.0
 23
0.0
 33
0.0
 16
1.0
 26
0.0
 36
0.0
 17
0.0
 27
1.0
 37
0.0
 76
     0
330
1B
  0
LAYOUT
  5
26
102
{ACAD_REACTORS
330
1A
102
}
330
1A
100
AcDbPlotSettings
  1

  2
none_device
  4

  6

 40
0.0
 41
0.0
 42
0.0
 43
0.0
 44
0.0
 45
0.0
 46
0.0
 47
0.0
 48
0.0
 49
0.0
140
0.0
141
0.0
142
1.0
143
1.0
 70
   688
 72
     0
 73
     0
 74
     5
  7

 75
    16
147
1.0
148
0.0
149
0.0
100
AcDbLayout
  1
Layout2
 70
     1
 71
     2
 10
0.0
 20
0.0
 11
0.0
 21
0.0
 12
0.0
 22
0.0
 32
0.0
 14
0.0
 24
0.0
 34
0.0
 15
0.0
 25
0.0
 35
0.0
146
0.0
 13
0.0
 23
0.0
 33
0.0
 16
1.0
 26
0.0
 36
0.0
 17
0.0
 27
1.0
 37
0.0
 76
     0
330
23
  0
LAYOUT
  5
22
102
{ACAD_REACTORS
330
1A
102
}
330
1A
100
AcDbPlotSettings
  1

  2
none_device
  4
Letter_(8.50_x_11.00_Inches)
  6

 40
6.35
 41
6.35
 42
6.35000508
 43
6.35000508
 44
215.9
 45
279.4
 46
0.0
 47
0.0
 48
0.0
 49
0.0
140
0.0
141
0.0
142
1.0
143
1.0
 70
  1712
 72
     0
 73
     0
 74
     0
  7

 75
     0
147
1.0
148
0.0
149
0.0
100
AcDbLayout
  1
Model
 70
     1
 71
     0
 10
0.0
 20
0.0
 11
12.0
 21
9.0
 12
0.0
 22
0.0
 32
0.0
 14
-216.9109
 24
-147.5362
 34
0.0
 15
146.6513
 25
110.9742
 35
0.0
146
0.0
 13
0.0
 23
0.0
 33
0.0
 16
1.0
 26
0.0
 36
0.0
 17
0.0
 27
1.0
 37
0.0
 76
     0
330
1F
331
29
  0
MATERIAL
  5
45
102
{ACAD_REACTORS
330
43
102
}
102
{ACAD_XDICTIONARY
360
C2
102
}
330
43
100
AcDbMaterial
  1
ByBlock
  0
MATERIAL
  5
44
102
{ACAD_REACTORS
330
43
102
}
102
{ACAD_XDICTIONARY
360
C0
102
}
330
43
100
AcDbMaterial
  1
ByLayer
  0
MATERIAL
  5
46
102
{ACAD_REACTORS
330
43
102
}
102
{ACAD_XDICTIONARY
360
C4
102
}
330
43
100
AcDbMaterial
  1
Global
  0
MLEADERSTYLE
  5
6C
102
{ACAD_REACTORS
330
6B
102
}
102
{ACAD_XDICTIONARY
360
C7
102
}
330
6B
100
AcDbMLeaderStyle
170
     2
171
     1
172
     0
 90
        2
 40
0.0
 41
0.0
173
     1
 91
-1056964608
340
14
 92
       -2
290
     1
 42
0.09
291
     1
 43
0.36
  3
Standard
341
0
 44
0.18
300

342
11
174
     1
178
     6
175
     1
176
     0
 93
-1056964608
 45
0.18
292
     0
297
     0
 46
0.18
343
0
 94
-1056964608
 47
1.0
 49
1.0
140
1.0
293
     1
141
0.0
294
     1
177
     0
142
1.0
295
     0
296
     0
143
0.125
1001
ACAD_MLEADERVER
1070
     2
  0
MLINESTYLE
  5
18
102
{ACAD_REACTORS
330
17
102
}
330
17
100
AcDbMlineStyle
  2
Standard
 70
     0
  3

 62
   256
 51
90.0
 52
90.0
 71
     2
 49
0.5
 62
   256
  6
BYLAYER
 49
-0.5
 62
   256
  6
BYLAYER
  0
ACDBPLACEHOLDER
  5
F
102
{ACAD_REACTORS
330
E
102
}
330
E
  0
SCALE
  5
48
102
{ACAD_REACTORS
330
47
102
}
330
47
100
AcDbScale
 70
     0
300
1:1
140
1.0
141
1.0
290
     1
  0
SCALE
  5
49
102
{ACAD_REACTORS
330
47
102
}
330
47
100
AcDbScale
 70
     0
300
1:2
140
1.0
141
2.0
290
     0
  0
SCALE
  5
4A
102
{ACAD_REACTORS
330
47
102
}
330
47
100
AcDbScale
 70
     0
300
1:4
140
1.0
141
4.0
290
     0
  0
SCALE
  5
4B
102
{ACAD_REACTORS
330
47
102
}
330
47
100
AcDbScale
 70
     0
300
1:5
140
1.0
141
5.0
290
     0
  0
SCALE
  5
4C
102
{ACAD_REACTORS
330
47
102
}
330
47
100
AcDbScale
 70
     0
300
1:8
140
1.0
141
8.0
290
     0
  0
SCALE
  5
4D
102
{ACAD_REACTORS
330
47
102
}
330
47
100
AcDbScale
 70
     0
300
1:10
140
1.0
141
10.0
290
     0
  0
SCALE
  5
4E
102
{ACAD_REACTORS
330
47
102
}
330
47
100
AcDbScale
 70
     0
300
1:16
140
1.0
141
16.0
290
     0
  0
SCALE
  5
4F
102
{ACAD_REACTORS
330
47
102
}
330
47
100
AcDbScale
 70
     0
300
1:20
140
1.0
141
20.0
290
     0
  0
SCALE
  5
50
102
{ACAD_REACTORS
330
47
102
}
330
47
100
AcDbScale
 70
     0
300
1:30
140
1.0
141
30.0
290
     0
  0
SCALE
  5
51
102
{ACAD_REACTORS
330
47
102
}
330
47
100
AcDbScale
 70
     0
300
1:40
140
1.0
141
40.0
290
     0
  0
SCALE
  5
52
102
{ACAD_REACTORS
330
47
102
}
330
47
100
AcDbScale
 70
     0
300
1:50
140
1.0
141
50.0
290
     0
  0
SCALE
  5
53
102
{ACAD_REACTORS
330
47
102
}
330
47
100
AcDbScale
 70
     0
300
1:100
140
1.0
141
100.0
290
     0
  0
SCALE
  5
54
102
{ACAD_REACTORS
330
47
102
}
330
47
100
AcDbScale
 70
     0
300
2:1
140
2.0
141
1.0
290
     0
  0
SCALE
  5
55
102
{ACAD_REACTORS
330
47
102
}
330
47
100
AcDbScale
 70
     0
300
4:1
140
4.0
141
1.0
290
     0
  0
SCALE
  5
56
102
{ACAD_REACTORS
330
47
102
}
330
47
100
AcDbScale
 70
     0
300
8:1
140
8.0
141
1.0
290
     0
  0
SCALE
  5
57
102
{ACAD_REACTORS
330
47
102
}
330
47
100
AcDbScale
 70
     0
300
10:1
140
10.0
141
1.0
290
     0
  0
SCALE
  5
58
102
{ACAD_REACTORS
330
47
102
}
330
47
100
AcDbScale
 70
     0
300
100:1
140
100.0
141
1.0
290
     0
  0
SCALE
  5
59
102
{ACAD_REACTORS
330
47
102
}
330
47
100
AcDbScale
 70
     0
300
1/128" = 1'-0"
140
0.0078125
141
12.0
290
     0
  0
SCALE
  5
5A
102
{ACAD_REACTORS
330
47
102
}
330
47
100
AcDbScale
 70
     0
300
1/64" = 1'-0"
140
0.015625
141
12.0
290
     0
  0
SCALE
  5
5B
102
{ACAD_REACTORS
330
47
102
}
330
47
100
AcDbScale
 70
     0
300
1/32" = 1'-0"
140
0.03125
141
12.0
290
     0
  0
SCALE
  5
5C
102
{ACAD_REACTORS
330
47
102
}
330
47
100
AcDbScale
 70
     0
300
1/16" = 1'-0"
140
0.0625
141
12.0
290
     0
  0
SCALE
  5
5D
102
{ACAD_REACTORS
330
47
102
}
330
47
100
AcDbScale
 70
     0
300
3/32" = 1'-0"
140
0.09375
141
12.0
290
     0
  0
SCALE
  5
5E
102
{ACAD_REACTORS
330
47
102
}
330
47
100
AcDbScale
 70
     0
300
1/8" = 1'-0"
140
0.125
141
12.0
290
     0
  0
SCALE
  5
5F
102
{ACAD_REACTORS
330
47
102
}
330
47
100
AcDbScale
 70
     0
300
3/16" = 1'-0"
140
0.1875
141
12.0
290
     0
  0
SCALE
  5
60
102
{ACAD_REACTORS
330
47
102
}
330
47
100
AcDbScale
 70
     0
300
1/4" = 1'-0"
140
0.25
141
12.0
290
     0
  0
SCALE
  5
61
102
{ACAD_REACTORS
330
47
102
}
330
47
100
AcDbScale
 70
     0
300
3/8" = 1'-0"
140
0.375
141
12.0
290
     0
  0
SCALE
  5
62
102
{ACAD_REACTORS
330
47
102
}
330
47
100
AcDbScale
 70
     0
300
1/2" = 1'-0"
140
0.5
141
12.0
290
     0
  0
SCALE
  5
63
102
{ACAD_REACTORS
330
47
102
}
330
47
100
AcDbScale
 70
     0
300
3/4" = 1'-0"
140
0.75
141
12.0
290
     0
  0
SCALE
  5
64
102
{ACAD_REACTORS
330
47
102
}
330
47
100
AcDbScale
 70
     0
300
1" = 1'-0"
140
1.0
141
12.0
290
     0
  0
SCALE
  5
65
102
{ACAD_REACTORS
330
47
102
}
330
47
100
AcDbScale
 70
     0
300
1-1/2" = 1'-0"
140
1.5
141
12.0
290
     0
  0
SCALE
  5
66
102
{ACAD_REACTORS
330
47
102
}
330
47
100
AcDbScale
 70
     0
300
3" = 1'-0"
140
3.0
141
12.0
290
     0
  0
SCALE
  5
67
102
{ACAD_REACTORS
330
47
102
}
330
47
100
AcDbScale
 70
     0
300
6" = 1'-0"
140
6.0
141
12.0
290
     0
  0
SCALE
  5
68
102
{ACAD_REACTORS
330
47
102
}
330
47
100
AcDbScale
 70
     0
300
1'-0" = 1'-0"
140
12.0
141
12.0
290
     0
  0
TABLESTYLE
  5
6A
102
{ACAD_REACTORS
330
69
102
}
330
69
100
AcDbTableStyle
  3
Standard
 70
     0
 71
     0
 40
0.06
 41
0.06
280
     0
281
     0
  7
Standard
140
0.18
170
     2
 62
     0
 63
   257
283
     0
274
    -2
284
     1
 64
     0
275
    -2
285
     1
 65
     0
276
    -2
286
     1
 66
     0
277
    -2
287
     1
 67
     0
278
    -2
288
     1
 68
     0
279
    -2
289
     1
 69
     0
  7
Standard
140
0.25
170
     5
 62
     0
 63
   257
283
     0
274
    -2
284
     1
 64
     0
275
    -2
285
     1
 65
     0
276
    -2
286
     1
 66
     0
277
    -2
287
     1
 67
     0
278
    -2
288
     1
 68
     0
279
    -2
289
     1
 69
     0
  7
Standard
140
0.18
170
     5
 62
     0
 63
   257
283
     0
274
    -2
284
     1
 64
     0
275
    -2
285
     1
 65
     0
276
    -2
286
     1
 66
     0
277
    -2
287
     1
 67
     0
278
    -2
288
     1
 68
     0
279
    -2
289
     1
 69
     0
  0
VISUALSTYLE
  5
2F
102
{ACAD_REACTORS
330
2A
102
}
102
{ACAD_XDICTIONARY
360
98
102
}
330
2A
100
AcDbVisualStyle
  2
2dWireframe
 70
     4
 71
     0
 72
     2
 73
     0
 90
        0
 40
0.6
 41
30.0
 62
     5
 63
     7
 74
     1
 91
        4
 64
     7
 65
   257
 75
     1
175
     1
 42
1.0
 92
        0
 66
   257
 43
1.0
 76
     1
 77
     6
 78
     2
 67
     7
 79
     5
170
     0
171
     0
290
     0
174
     0
 93
        1
 44
0.0
173
     0
291
     0
 45
0.0
1001
ACAD
1000
AcDbSavedByObjectVersion
1070
     0
  0
VISUALSTYLE
  5
32
102
{ACAD_REACTORS
330
2A
102
}
102
{ACAD_XDICTIONARY
360
9E
102
}
330
2A
100
AcDbVisualStyle
  2
Basic
 70
     7
 71
     1
 72
     0
 73
     1
 90
        0
 40
0.6
 41
30.0
 62
     5
 63
     7
 74
     0
 91
        4
 64
     7
 65
   257
 75
     1
175
     1
 42
1.0
 92
        8
 66
     7
 43
1.0
 76
     1
 77
     6
 78
     2
 67
     7
 79
     5
170
     0
171
     0
290
     0
174
     0
 93
        1
 44
0.0
173
     0
291
     1
 45
0.0
1001
ACAD
1000
AcDbSavedByObjectVersion
1070
     0
  0
VISUALSTYLE
  5
36
102
{ACAD_REACTORS
330
2A
102
}
102
{ACAD_XDICTIONARY
360
A6
102
}
330
2A
100
AcDbVisualStyle
  2
Brighten
 70
    12
 71
     2
 72
     2
 73
     0
 90
        0
 40
0.6
 41
30.0
 62
     5
 63
     7
 74
     1
 91
        4
 64
     7
 65
   257
 75
     1
175
     1
 42
1.0
 92
        8
 66
     7
 43
1.0
 76
     1
 77
     6
 78
     2
 67
     7
 79
     5
170
     0
171
     0
290
     0
174
     0
 93
        1
 44
50.0
173
     0
291
     1
 45
0.0
1001
ACAD
1000
AcDbSavedByObjectVersion
1070
     0
  0
VISUALSTYLE
  5
3A
102
{ACAD_REACTORS
330
2A
102
}
102
{ACAD_XDICTIONARY
360
AE
102
}
330
2A
100
AcDbVisualStyle
  2
ColorChange
 70
    16
 71
     2
 72
     2
 73
     3
 90
        0
 40
0.6
 41
30.0
 62
     5
 63
     8
 74
     1
 91
        4
 64
     7
 65
   257
 75
     1
175
     1
 42
1.0
 92
        8
 66
     8
 43
1.0
 76
     1
 77
     6
 78
     2
 67
     7
 79
     5
170
     0
171
     0
290
     0
174
     0
 93
        1
 44
0.0
173
     0
291
     1
 45
0.0
1001
ACAD
1000
AcDbSavedByObjectVersion
1070
     0
  0
VISUALSTYLE
  5
34
102
{ACAD_REACTORS
330
2A
102
}
102
{ACAD_XDICTIONARY
360
A2
102
}
330
2A
100
AcDbVisualStyle
  2
Conceptual
 70
     9
 71
     3
 72
     2
 73
     0
 90
        0
 40
0.6
 41
30.0
 62
     5
 63
     7
 74
     2
 91
        2
 64
     7
 65
   257
 75
     1
175
     1
 42
179.0
 92
        8
 66
     7
 43
1.0
 76
     1
 77
     6
 78
     2
 67
     7
 79
     3
170
     0
171
     0
290
     0
174
     0
 93
        1
 44
0.0
173
     0
291
     0
 45
0.0
1001
ACAD
1000
AcDbSavedByObjectVersion
1070
     0
  0
VISUALSTYLE
  5
35
102
{ACAD_REACTORS
330
2A
102
}
102
{ACAD_XDICTIONARY
360
A4
102
}
330
2A
100
AcDbVisualStyle
  2
Dim
 70
    11
 71
     2
 72
     2
 73
     0
 90
        0
 40
0.6
 41
30.0
 62
     5
 63
     7
 74
     1
 91
        4
 64
     7
 65
   257
 75
     1
175
     1
 42
1.0
 92
        8
 66
     7
 43
1.0
 76
     1
 77
     6
 78
     2
 67
     7
 79
     5
170
     0
171
     0
290
     0
174
     0
 93
        1
 44
-50.0
173
     0
291
     1
 45
0.0
1001
ACAD
1000
AcDbSavedByObjectVersion
1070
     0
  0
VISUALSTYLE
  5
3D
102
{ACAD_REACTORS
330
2A
102
}
102
{ACAD_XDICTIONARY
360
B4
102
}
330
2A
100
AcDbVisualStyle
  2
EdgeColorOff
 70
    22
 71
     2
 72
     2
 73
     0
 90
        0
 40
0.6
 41
30.0
 62
     5
 63
     7
 74
     1
 91
        4
 64
     7
 65
   257
 75
     1
175
     1
 42
1.0
 92
        8
 66
     7
 43
1.0
 76
     1
 77
     6
 78
     2
 67
     7
 79
     5
170
     0
171
     0
290
     0
174
     0
 93
        1
 44
0.0
173
     0
291
     1
 45
0.0
1001
ACAD
1000
AcDbSavedByObjectVersion
1070
     0
  0
VISUALSTYLE
  5
39
102
{ACAD_REACTORS
330
2A
102
}
102
{ACAD_XDICTIONARY
360
AC
102
}
330
2A
100
AcDbVisualStyle
  2
Facepattern
 70
    15
 71
     2
 72
     2
 73
     0
 90
        0
 40
0.6
 41
30.0
 62
     5
 63
     7
 74
     1
 91
        4
 64
     7
 65
   257
 75
     1
175
     1
 42
1.0
 92
        8
 66
     7
 43
1.0
 76
     1
 77
     6
 78
     2
 67
     7
 79
     5
170
     0
171
     0
290
     0
174
     0
 93
        1
 44
0.0
173
     0
291
     1
 45
0.0
1001
ACAD
1000
AcDbSavedByObjectVersion
1070
     0
  0
VISUALSTYLE
  5
2B
102
{ACAD_REACTORS
330
2A
102
}
102
{ACAD_XDICTIONARY
360
90
102
}
330
2A
100
AcDbVisualStyle
  2
Flat
 70
     0
 71
     2
 72
     1
 73
     1
 90
        2
 40
0.6
 41
30.0
 62
     5
 63
     7
 74
     0
 91
        0
 64
     7
 65
   257
 75
     1
175
     1
 42
1.0
 92
        8
 66
     7
 43
1.0
 76
     1
 77
     6
 78
     2
 67
     7
 79
     5
170
     0
171
     0
290
     0
174
     0
 93
       13
 44
0.0
173
     0
291
     1
 45
0.0
1001
ACAD
1000
AcDbSavedByObjectVersion
1070
     0
  0
VISUALSTYLE
  5
2C
102
{ACAD_REACTORS
330
2A
102
}
102
{ACAD_XDICTIONARY
360
92
102
}
330
2A
100
AcDbVisualStyle
  2
FlatWithEdges
 70
     1
 71
     2
 72
     1
 73
     1
 90
        2
 40
0.6
 41
30.0
 62
     5
 63
     7
 74
     1
 91
        0
 64
     7
 65
   257
 75
     1
175
     1
 42
1.0
 92
        0
 66
   257
 43
1.0
 76
     1
 77
     6
 78
     2
 67
     7
 79
     5
170
     0
171
     0
290
     0
174
     0
 93
       13
 44
0.0
173
     0
291
     1
 45
0.0
1001
ACAD
1000
AcDbSavedByObjectVersion
1070
     0
  0
VISUALSTYLE
  5
2D
102
{ACAD_REACTORS
330
2A
102
}
102
{ACAD_XDICTIONARY
360
94
102
}
330
2A
100
AcDbVisualStyle
  2
Gouraud
 70
     2
 71
     2
 72
     2
 73
     1
 90
        2
 40
0.6
 41
30.0
 62
     5
 63
     7
 74
     0
 91
        0
 64
     7
 65
   257
 75
     1
175
     1
 42
1.0
 92
        0
 66
     7
 43
1.0
 76
     1
 77
     6
 78
     2
 67
     7
 79
     5
170
     0
171
     0
290
     0
174
     0
 93
       13
 44
0.0
173
     0
291
     1
 45
0.0
1001
ACAD
1000
AcDbSavedByObjectVersion
1070
     0
  0
VISUALSTYLE
  5
2E
102
{ACAD_REACTORS
330
2A
102
}
102
{ACAD_XDICTIONARY
360
96
102
}
330
2A
100
AcDbVisualStyle
  2
GouraudWithEdges
 70
     3
 71
     2
 72
     2
 73
     1
 90
        2
 40
0.6
 41
30.0
 62
     5
 63
     7
 74
     1
 91
        0
 64
     7
 65
   257
 75
     1
175
     1
 42
1.0
 92
        0
 66
   257
 43
1.0
 76
     1
 77
     6
 78
     2
 67
     7
 79
     5
170
     0
171
     0
290
     0
174
     0
 93
       13
 44
0.0
173
     0
291
     1
 45
0.0
1001
ACAD
1000
AcDbSavedByObjectVersion
1070
     0
  0
VISUALSTYLE
  5
31
102
{ACAD_REACTORS
330
2A
102
}
102
{ACAD_XDICTIONARY
360
9C
102
}
330
2A
100
AcDbVisualStyle
  2
Hidden
 70
     6
 71
     1
 72
     2
 73
     2
 90
        0
 40
0.6
 41
30.0
 62
     5
 63
     7
 74
     2
 91
        2
 64
     7
 65
   257
 75
     2
175
     1
 42
40.0
 92
        0
 66
   257
 43
1.0
 76
     1
 77
     6
 78
     2
 67
     7
 79
     3
170
     0
171
     0
290
     0
174
     0
 93
        1
 44
0.0
173
     0
291
     0
 45
0.0
1001
ACAD
1000
AcDbSavedByObjectVersion
1070
     0
  0
VISUALSTYLE
  5
3B
102
{ACAD_REACTORS
330
2A
102
}
102
{ACAD_XDICTIONARY
360
B0
102
}
330
2A
100
AcDbVisualStyle
  2
JitterOff
 70
    20
 71
     2
 72
     2
 73
     0
 90
        0
 40
0.6
 41
30.0
 62
     5
 63
     7
 74
     1
 91
        4
 64
     7
 65
   257
 75
     1
175
     1
 42
1.0
 92
       10
 66
     7
 43
1.0
 76
     1
 77
     6
 78
     2
 67
     7
 79
     5
170
     0
171
     0
290
     0
174
     0
 93
        1
 44
0.0
173
     0
291
     1
 45
0.0
1001
ACAD
1000
AcDbSavedByObjectVersion
1070
     0
  0
VISUALSTYLE
  5
38
102
{ACAD_REACTORS
330
2A
102
}
102
{ACAD_XDICTIONARY
360
AA
102
}
330
2A
100
AcDbVisualStyle
  2
Linepattern
 70
    14
 71
     2
 72
     2
 73
     0
 90
        0
 40
0.6
 41
30.0
 62
     5
 63
     7
 74
     1
 91
        4
 64
     7
 65
   257
 75
     7
175
     7
 42
1.0
 92
        8
 66
     7
 43
1.0
 76
     1
 77
     6
 78
     2
 67
     7
 79
     5
170
     0
171
     0
290
     0
174
     0
 93
        1
 44
0.0
173
     0
291
     1
 45
0.0
1001
ACAD
1000
AcDbSavedByObjectVersion
1070
     0
  0
VISUALSTYLE
  5
3C
102
{ACAD_REACTORS
330
2A
102
}
102
{ACAD_XDICTIONARY
360
B2
102
}
330
2A
100
AcDbVisualStyle
  2
OverhangOff
 70
    21
 71
     2
 72
     2
 73
     0
 90
        0
 40
0.6
 41
30.0
 62
     5
 63
     7
 74
     1
 91
        4
 64
     7
 65
   257
 75
     1
175
     1
 42
1.0
 92
        9
 66
     7
 43
1.0
 76
     1
 77
     6
 78
     2
 67
     7
 79
     5
170
     0
171
     0
290
     0
174
     0
 93
        1
 44
0.0
173
     0
291
     1
 45
0.0
1001
ACAD
1000
AcDbSavedByObjectVersion
1070
     0
  0
VISUALSTYLE
  5
33
102
{ACAD_REACTORS
330
2A
102
}
102
{ACAD_XDICTIONARY
360
A0
102
}
330
2A
100
AcDbVisualStyle
  2
Realistic
 70
     8
 71
     2
 72
     3
 73
     0
 90
        2
 40
0.6
 41
30.0
 62
     5
 63
     7
 74
     0
 91
        0
 64
     7
 65
   257
 75
     1
175
     1
 42
1.0
 92
        8
 66
   257
 43
1.0
 76
     1
 77
     6
 78
     2
 67
     7
 79
     3
170
     0
171
     0
290
     0
174
     0
 93
       13
 44
0.0
173
     0
291
     0
 45
0.0
1001
ACAD
1000
AcDbSavedByObjectVersion
1070
     0
  0
VISUALSTYLE
  5
42
102
{ACAD_REACTORS
330
2A
102
}
102
{ACAD_XDICTIONARY
360
BE
102
}
330
2A
100
AcDbVisualStyle
  2
Shaded
 70
    27
 71
     2
 72
     2
 73
     1
 90
        2
 40
0.6
 41
30.0
 62
     5
 63
     7
 74
     0
 91
        4
 64
     7
 65
   257
 75
     1
175
     1
 42
1.0
 92
        8
 66
   257
 43
1.0
 76
     1
 77
     6
 78
     2
 67
     8
 79
     3
170
     0
171
     0
290
     0
174
     0
 93
        5
 44
0.0
173
     0
291
     0
 45
0.0
1001
ACAD
1000
AcDbSavedByObjectVersion
1070
     0
  0
VISUALSTYLE
  5
41
102
{ACAD_REACTORS
330
2A
102
}
102
{ACAD_XDICTIONARY
360
BC
102
}
330
2A
100
AcDbVisualStyle
  2
Shaded with edges
 70
    26
 71
     2
 72
     2
 73
     1
 90
        2
 40
0.6
 41
30.0
 62
     5
 63
     7
 74
     1
 91
       10
 64
     7
 65
   257
 75
     2
175
     1
 42
1.0
 92
        8
 66
   257
 43
1.0
 76
     1
 77
     6
 78
     2
 67
     7
 79
     3
170
     0
171
     0
290
     0
174
     0
 93
        5
 44
0.0
173
     0
291
     0
 45
0.0
1001
ACAD
1000
AcDbSavedByObjectVersion
1070
     0
  0
VISUALSTYLE
  5
3E
102
{ACAD_REACTORS
330
2A
102
}
102
{ACAD_XDICTIONARY
360
B6
102
}
330
2A
100
AcDbVisualStyle
  2
Shades of Gray
 70
    23
 71
     2
 72
     2
 73
     3
 90
        0
 40
0.6
 41
30.0
 62
     5
 63
     7
 74
     2
 91
        2
 64
     7
 65
     7
 75
     1
175
     1
 42
40.0
 92
        8
 66
     7
 43
1.0
 76
     1
 77
     6
 78
     2
 67
     7
 79
     3
170
     0
171
     0
290
     0
174
     0
 93
        1
 44
0.0
173
     0
291
     0
 45
0.0
1001
ACAD
1000
AcDbSavedByObjectVersion
1070
     0
  0
VISUALSTYLE
  5
3F
102
{ACAD_REACTORS
330
2A
102
}
102
{ACAD_XDICTIONARY
360
B8
102
}
330
2A
100
AcDbVisualStyle
  2
Sketchy
 70
    24
 71
     1
 72
     2
 73
     2
 90
        0
 40
0.6
 41
30.0
 62
     5
 63
     7
 74
     2
 91
        2
 64
     7
 65
     7
 75
     1
175
     1
 42
40.0
 92
       11
 66
     7
 43
1.0
 76
     1
 77
     6
 78
     2
 67
     7
 79
     6
170
     0
171
     0
290
     0
174
     0
 93
        1
 44
0.0
173
     0
291
     0
 45
0.0
1001
ACAD
1000
AcDbSavedByObjectVersion
1070
     0
  0
VISUALSTYLE
  5
37
102
{ACAD_REACTORS
330
2A
102
}
102
{ACAD_XDICTIONARY
360
A8
102
}
330
2A
100
AcDbVisualStyle
  2
Thicken
 70
    13
 71
     2
 72
     2
 73
     0
 90
        0
 40
0.6
 41
30.0
 62
     5
 63
     7
 74
     1
 91
        4
 64
     7
 65
   257
 75
     1
175
     1
 42
1.0
 92
       12
 66
     7
 43
1.0
 76
     1
 77
     6
 78
     2
 67
     7
 79
     5
170
     0
171
     0
290
     0
174
     0
 93
        1
 44
0.0
173
     0
291
     1
 45
0.0
1001
ACAD
1000
AcDbSavedByObjectVersion
1070
     0
  0
VISUALSTYLE
  5
30
102
{ACAD_REACTORS
330
2A
102
}
102
{ACAD_XDICTIONARY
360
9A
102
}
330
2A
100
AcDbVisualStyle
  2
Wireframe
 70
     5
 71
     0
 72
     2
 73
     0
 90
        0
 40
0.6
 41
30.0
 62
     5
 63
     7
 74
     1
 91
        4
 64
     7
 65
   257
 75
     1
175
     1
 42
1.0
 92
        0
 66
   257
 43
1.0
 76
     1
 77
     6
 78
     2
 67
     7
 79
     3
170
     0
171
     0
290
     0
174
     0
 93
        1
 44
0.0
173
     0
291
     0
 45
0.0
1001
ACAD
1000
AcDbSavedByObjectVersion
1070
     0
  0
VISUALSTYLE
  5
40
102
{ACAD_REACTORS
330
2A
102
}
102
{ACAD_XDICTIONARY
360
BA
102
}
330
2A
100
AcDbVisualStyle
  2
X-Ray
 70
    25
 71
     2
 72
     2
 73
     1
 90
        1
 40
0.5
 41
30.0
 62
     5
 63
     7
 74
     1
 91
        0
 64
     7
 65
   257
 75
     1
175
     1
 42
1.0
 92
        8
 66
     7
 43
1.0
 76
     1
 77
     6
 78
     2
 67
     7
 79
     3
170
     0
171
     0
290
     0
174
     0
 93
       13
 44
0.0
173
     0
291
     0
 45
0.0
1001
ACAD
1000
AcDbSavedByObjectVersion
1070
     0
  0
DICTIONARYVAR
  5
8E
102
{ACAD_REACTORS
330
85
102
}
330
85
100
DictionaryVariables
280
     0
  1
1:1
  0
DICTIONARYVAR
  5
87
102
{ACAD_REACTORS
330
85
102
}
330
85
100
DictionaryVariables
280
     0
  1
Standard
  0
DICTIONARYVAR
  5
86
102
{ACAD_REACTORS
330
85
102
}
330
85
100
DictionaryVariables
280
     0
  1
Standard
  0
DICTIONARYVAR
  5
8A
102
{ACAD_REACTORS
330
85
102
}
330
85
100
DictionaryVariables
280
     0
  1
2
  0
DICTIONARYVAR
  5
8B
102
{ACAD_REACTORS
330
85
102
}
330
85
100
DictionaryVariables
280
     0
  1
1
  0
DICTIONARYVAR
  5
8F
102
{ACAD_REACTORS
330
85
102
}
330
85
100
DictionaryVariables
280
     0
  1
1
  0
DICTIONARY
  5
C2
330
45
100
AcDbDictionary
280
     1
281
     1
  3
ACAD_XREC_ROUNDTRIP
360
C3
  0
DICTIONARY
  5
C0
330
44
100
AcDbDictionary
280
     1
281
     1
  3
ACAD_XREC_ROUNDTRIP
360
C1
  0
DICTIONARY
  5
C4
330
46
100
AcDbDictionary
280
     1
281
     1
  3
ACAD_XREC_ROUNDTRIP
360
C5
  0
DICTIONARY
  5
C7
330
6C
100
AcDbDictionary
280
     1
281
     1
  3
ACAD_XREC_ROUNDTRIP
360
C8
  0
DICTIONARY
  5
98
330
2F
100
AcDbDictionary
280
     1
281
     1
  3
ACAD_XREC_ROUNDTRIP
360
99
  0
DICTIONARY
  5
9E
330
32
100
AcDbDictionary
280
     1
281
     1
  3
ACAD_XREC_ROUNDTRIP
360
9F
  0
DICTIONARY
  5
A6
330
36
100
AcDbDictionary
280
     1
281
     1
  3
ACAD_XREC_ROUNDTRIP
360
A7
  0
DICTIONARY
  5
AE
330
3A
100
AcDbDictionary
280
     1
281
     1
  3
ACAD_XREC_ROUNDTRIP
360
AF
  0
DICTIONARY
  5
A2
330
34
100
AcDbDictionary
280
     1
281
     1
  3
ACAD_XREC_ROUNDTRIP
360
A3
  0
DICTIONARY
  5
A4
330
35
100
AcDbDictionary
280
     1
281
     1
  3
ACAD_XREC_ROUNDTRIP
360
A5
  0
DICTIONARY
  5
B4
330
3D
100
AcDbDictionary
280
     1
281
     1
  3
ACAD_XREC_ROUNDTRIP
360
B5
  0
DICTIONARY
  5
AC
330
39
100
AcDbDictionary
280
     1
281
     1
  3
ACAD_XREC_ROUNDTRIP
360
AD
  0
DICTIONARY
  5
90
330
2B
100
AcDbDictionary
280
     1
281
     1
  3
ACAD_XREC_ROUNDTRIP
360
91
  0
DICTIONARY
  5
92
330
2C
100
AcDbDictionary
280
     1
281
     1
  3
ACAD_XREC_ROUNDTRIP
360
93
  0
DICTIONARY
  5
94
330
2D
100
AcDbDictionary
280
     1
281
     1
  3
ACAD_XREC_ROUNDTRIP
360
95
  0
DICTIONARY
  5
96
330
2E
100
AcDbDictionary
280
     1
281
     1
  3
ACAD_XREC_ROUNDTRIP
360
97
  0
DICTIONARY
  5
9C
330
31
100
AcDbDictionary
280
     1
281
     1
  3
ACAD_XREC_ROUNDTRIP
360
9D
  0
DICTIONARY
  5
B0
330
3B
100
AcDbDictionary
280
     1
281
     1
  3
ACAD_XREC_ROUNDTRIP
360
B1
  0
DICTIONARY
  5
AA
330
38
100
AcDbDictionary
280
     1
281
     1
  3
ACAD_XREC_ROUNDTRIP
360
AB
  0
DICTIONARY
  5
B2
330
3C
100
AcDbDictionary
280
     1
281
     1
  3
ACAD_XREC_ROUNDTRIP
360
B3
  0
DICTIONARY
  5
A0
330
33
100
AcDbDictionary
280
     1
281
     1
  3
ACAD_XREC_ROUNDTRIP
360
A1
  0
DICTIONARY
  5
BE
330
42
100
AcDbDictionary
280
     1
281
     1
  3
ACAD_XREC_ROUNDTRIP
360
BF
  0
DICTIONARY
  5
BC
330
41
100
AcDbDictionary
280
     1
281
     1
  3
ACAD_XREC_ROUNDTRIP
360
BD
  0
DICTIONARY
  5
B6
330
3E
100
AcDbDictionary
280
     1
281
     1
  3
ACAD_XREC_ROUNDTRIP
360
B7
  0
DICTIONARY
  5
B8
330
3F
100
AcDbDictionary
280
     1
281
     1
  3
ACAD_XREC_ROUNDTRIP
360
B9
  0
DICTIONARY
  5
A8
330
37
100
AcDbDictionary
280
     1
281
     1
  3
ACAD_XREC_ROUNDTRIP
360
A9
  0
DICTIONARY
  5
9A
330
30
100
AcDbDictionary
280
     1
281
     1
  3
ACAD_XREC_ROUNDTRIP
360
9B
  0
DICTIONARY
  5
BA
330
40
100
AcDbDictionary
280
     1
281
     1
  3
ACAD_XREC_ROUNDTRIP
360
BB
  0
XRECORD
  5
C3
102
{ACAD_REACTORS
330
C2
102
}
330
C2
100
AcDbXrecord
280
     1
102
MATERIAL
148
0.0
149
0.0
149
0.0
 93
        0
 94
      127
282
     0
 72
     1
 77
     1
171
     1
175
     1
179
     1
273
     0
  0
XRECORD
  5
C1
102
{ACAD_REACTORS
330
C0
102
}
330
C0
100
AcDbXrecord
280
     1
102
MATERIAL
148
0.0
149
0.0
149
0.0
 93
        0
 94
      127
282
     0
 72
     1
 77
     1
171
     1
175
     1
179
     1
273
     0
  0
XRECORD
  5
C5
102
{ACAD_REACTORS
330
C4
102
}
330
C4
100
AcDbXrecord
280
     1
102
MATERIAL
148
0.0
149
0.0
149
0.0
 93
        0
 94
      127
282
     0
 72
     1
 77
     1
171
     1
175
     1
179
     1
273
     0
  0
XRECORD
  5
C8
102
{ACAD_REACTORS
330
C7
102
}
330
C7
100
AcDbXrecord
280
     1
102
ACAD_ROUNDTRIP_2010_MLEADER_STYLE
  0
XRECORD
  5
99
102
{ACAD_REACTORS
330
98
102
}
330
98
100
AcDbXrecord
280
     1
102
RTVSPropertyOp0
 70
     1
102
RTVSPropertyOp1
 70
     1
102
RTVSPropertyOp2
 70
     1
102
RTVSPropertyOp3
 70
     1
102
RTVSPropertyOp4
 70
     1
102
RTVSPropertyOp5
 70
     1
102
RTVSPropertyOp6
 70
     1
102
RTVSPropertyOp7
 70
     1
102
RTVSPropertyOp8
 70
     1
102
RTVSPropertyOp9
 70
     1
102
RTVSPropertyOp10
 70
     1
102
RTVSPropertyOp11
 70
     1
102
RTVSPropertyOp12
 70
     1
102
RTVSPropertyOp13
 70
     1
102
RTVSPropertyOp14
 70
     1
102
RTVSPropertyOp15
 70
     1
102
RTVSPropertyOp16
 70
     1
102
RTVSPropertyOp17
 70
     1
102
RTVSPropertyOp18
 70
     1
102
RTVSPropertyOp19
 70
     1
102
RTVSPropertyOp20
 70
     1
102
RTVSPropertyOp21
 70
     1
102
RTVSPropertyOp22
 70
     1
102
RTVSPropertyOp23
 70
     1
102
RTVSPropertyOp24
 70
     1
102
RTVSPropertyOp25
 70
     1
102
RTVSPropertyOp26
 70
     1
102
RTVSPropertyOp27
 70
     1
102
RTVSPropertyOp28
 70
     1
102
RTVSPropertyOp29
 70
     1
102
RTVSPropertyOp30
 70
     1
102
RTVSPropertyOp31
 70
     1
102
RTVSPropertyOp32
 70
     1
102
RTVSPropertyOp33
 70
     1
102
RTVSPropertyOp34
 70
     1
102
RTVSPropertyOp35
 70
     1
102
RTVSPropertyOp36
 70
     1
102
RTVSPropertyOp37
 70
     1
102
RTVSPropertyOp38
 70
     1
102
RTVSPropertyOp39
 70
     1
102
RTVSPropertyOp40
 70
     1
102
RTVSPropertyOp41
 70
     1
102
RTVSPropertyOp42
 70
     1
102
RTVSPropertyOp43
 70
     1
102
RTVSPropertyOp44
 70
     1
102
RTVSPropertyOp45
 70
     1
102
RTVSPropertyOp46
 70
     1
102
RTVSPropertyOp47
 70
     1
102
RTVSPropertyOp48
 70
     1
102
RTVSPropertyOp49
 70
     1
102
RTVSPropertyOp50
 70
     1
102
RTVSPropertyOp51
 70
     0
102
RTVSPropertyOp52
 70
     0
102
RTVSPropertyOp53
 70
     1
102
RTVSPropertyOp54
 70
     1
102
RTVSPropertyOp55
 70
     1
102
RTVSPropertyOp56
 70
     1
102
RTVSPropertyOp57
 70
     1
102
RTVSPost2010Prop28
280
     1
102
RTVSPost2010PropOp28
 70
     1
102
RTVSPost2010Prop29
280
     1
102
RTVSPost2010PropOp29
 70
     1
102
RTVSPost2010Prop30
280
     0
102
RTVSPost2010PropOp30
 70
     1
102
RTVSPost2010Prop31
280
     0
102
RTVSPost2010PropOp31
 70
     1
102
RTVSPost2010Prop32
280
     0
102
RTVSPost2010PropOp32
 70
     1
102
RTVSPost2010Prop33
280
     0
102
RTVSPost2010PropOp33
 70
     1
102
RTVSPost2010Prop34
280
     0
102
RTVSPost2010PropOp34
 70
     1
102
RTVSPost2010Prop35
280
     0
102
RTVSPost2010PropOp35
 70
     1
102
RTVSPost2010Prop36
280
     0
102
RTVSPost2010PropOp36
 70
     1
102
RTVSPost2010Prop37
 90
       50
102
RTVSPost2010PropOp37
 70
     1
102
RTVSPost2010Prop38
140
0.0
102
RTVSPost2010PropOp38
 70
     1
102
RTVSPost2010Prop39
140
1.0
102
RTVSPost2010PropOp39
 70
     1
102
RTVSPost2010Prop40
 90
        0
102
RTVSPost2010PropOp40
 70
     1
102
RTVSPost2010Prop41ColorIndex
 90
       18
102
RTVSPost2010Prop41ColorRGB
 90
        0
102
RTVSPost2010PropOp41
 70
     1
102
RTVSPost2010Prop42
 90
       50
102
RTVSPost2010PropOp42
 70
     1
102
RTVSPost2010Prop43
 90
        3
102
RTVSPost2010PropOp43
 70
     1
102
RTVSPost2010Prop44ColorIndex
 90
        5
102
RTVSPost2010Prop44ColorRGB
 90
      255
102
RTVSPost2010PropOp44
 70
     1
102
RTVSPost2010Prop45
280
     0
102
RTVSPost2010PropOp45
 70
     1
102
RTVSPost2010Prop46
 90
       50
102
RTVSPost2010PropOp46
 70
     1
102
RTVSPost2010Prop47
 90
       50
102
RTVSPost2010PropOp47
 70
     1
102
RTVSPost2010Prop48
 90
       50
102
RTVSPost2010PropOp48
 70
     1
102
RTVSPost2010Prop49
280
     0
102
RTVSPost2010PropOp49
 70
     1
102
RTVSPost2010Prop50
 90
       50
102
RTVSPost2010PropOp50
 70
     1
102
RTVSPost2010Prop51ColorIndex
 90
      256
102
RTVSPost2010Prop51ColorRGB
 90
-16777216
102
RTVSPost2010PropOp51
 70
     0
102
RTVSPost2010Prop52
140
1.0
102
RTVSPost2010PropOp52
 70
     0
102
RTVSPost2010Prop53
 90
        2
102
RTVSPost2010PropOp53
 70
     1
102
RTVSPost2010Prop54
  1
strokes_ogs.tif
102
RTVSPost2010PropOp54
 70
     1
102
RTVSPost2010Prop55
280
     0
102
RTVSPost2010PropOp55
 70
     1
102
RTVSPost2010Prop56
140
1.0
102
RTVSPost2010PropOp56
 70
     1
102
RTVSPost2010Prop57
140
1.0
102
RTVSPost2010PropOp57
 70
     1
  0
XRECORD
  5
9F
102
{ACAD_REACTORS
330
9E
102
}
330
9E
100
AcDbXrecord
280
     1
102
RTVSPropertyOp0
 70
     1
102
RTVSPropertyOp1
 70
     1
102
RTVSPropertyOp2
 70
     1
102
RTVSPropertyOp3
 70
     1
102
RTVSPropertyOp4
 70
     1
102
RTVSPropertyOp5
 70
     1
102
RTVSPropertyOp6
 70
     1
102
RTVSPropertyOp7
 70
     1
102
RTVSPropertyOp8
 70
     1
102
RTVSPropertyOp9
 70
     1
102
RTVSPropertyOp10
 70
     1
102
RTVSPropertyOp11
 70
     1
102
RTVSPropertyOp12
 70
     1
102
RTVSPropertyOp13
 70
     1
102
RTVSPropertyOp14
 70
     1
102
RTVSPropertyOp15
 70
     1
102
RTVSPropertyOp16
 70
     1
102
RTVSPropertyOp17
 70
     1
102
RTVSPropertyOp18
 70
     1
102
RTVSPropertyOp19
 70
     1
102
RTVSPropertyOp20
 70
     1
102
RTVSPropertyOp21
 70
     1
102
RTVSPropertyOp22
 70
     1
102
RTVSPropertyOp23
 70
     1
102
RTVSPropertyOp24
 70
     1
102
RTVSPropertyOp25
 70
     1
102
RTVSPropertyOp26
 70
     1
102
RTVSPropertyOp27
 70
     1
102
RTVSPropertyOp28
 70
     1
102
RTVSPropertyOp29
 70
     1
102
RTVSPropertyOp30
 70
     1
102
RTVSPropertyOp31
 70
     1
102
RTVSPropertyOp32
 70
     1
102
RTVSPropertyOp33
 70
     1
102
RTVSPropertyOp34
 70
     1
102
RTVSPropertyOp35
 70
     1
102
RTVSPropertyOp36
 70
     1
102
RTVSPropertyOp37
 70
     1
102
RTVSPropertyOp38
 70
     1
102
RTVSPropertyOp39
 70
     1
102
RTVSPropertyOp40
 70
     1
102
RTVSPropertyOp41
 70
     1
102
RTVSPropertyOp42
 70
     1
102
RTVSPropertyOp43
 70
     1
102
RTVSPropertyOp44
 70
     1
102
RTVSPropertyOp45
 70
     1
102
RTVSPropertyOp46
 70
     1
102
RTVSPropertyOp47
 70
     1
102
RTVSPropertyOp48
 70
     1
102
RTVSPropertyOp49
 70
     1
102
RTVSPropertyOp50
 70
     1
102
RTVSPropertyOp51
 70
     0
102
RTVSPropertyOp52
 70
     0
102
RTVSPropertyOp53
 70
     1
102
RTVSPropertyOp54
 70
     1
102
RTVSPropertyOp55
 70
     1
102
RTVSPropertyOp56
 70
     1
102
RTVSPropertyOp57
 70
     1
102
RTVSPost2010Prop28
280
     0
102
RTVSPost2010PropOp28
 70
     1
102
RTVSPost2010Prop29
280
     1
102
RTVSPost2010PropOp29
 70
     1
102
RTVSPost2010Prop30
280
     1
102
RTVSPost2010PropOp30
 70
     1
102
RTVSPost2010Prop31
280
     0
102
RTVSPost2010PropOp31
 70
     1
102
RTVSPost2010Prop32
280
     0
102
RTVSPost2010PropOp32
 70
     1
102
RTVSPost2010Prop33
280
     0
102
RTVSPost2010PropOp33
 70
     1
102
RTVSPost2010Prop34
280
     0
102
RTVSPost2010PropOp34
 70
     1
102
RTVSPost2010Prop35
280
     0
102
RTVSPost2010PropOp35
 70
     1
102
RTVSPost2010Prop36
280
     0
102
RTVSPost2010PropOp36
 70
     1
102
RTVSPost2010Prop37
 90
       50
102
RTVSPost2010PropOp37
 70
     1
102
RTVSPost2010Prop38
140
0.0
102
RTVSPost2010PropOp38
 70
     1
102
RTVSPost2010Prop39
140
1.0
102
RTVSPost2010PropOp39
 70
     1
102
RTVSPost2010Prop40
 90
        0
102
RTVSPost2010PropOp40
 70
     1
102
RTVSPost2010Prop41ColorIndex
 90
       18
102
RTVSPost2010Prop41ColorRGB
 90
        0
102
RTVSPost2010PropOp41
 70
     1
102
RTVSPost2010Prop42
 90
       50
102
RTVSPost2010PropOp42
 70
     1
102
RTVSPost2010Prop43
 90
        3
102
RTVSPost2010PropOp43
 70
     1
102
RTVSPost2010Prop44ColorIndex
 90
        5
102
RTVSPost2010Prop44ColorRGB
 90
      255
102
RTVSPost2010PropOp44
 70
     1
102
RTVSPost2010Prop45
280
     0
102
RTVSPost2010PropOp45
 70
     1
102
RTVSPost2010Prop46
 90
       50
102
RTVSPost2010PropOp46
 70
     1
102
RTVSPost2010Prop47
 90
       50
102
RTVSPost2010PropOp47
 70
     1
102
RTVSPost2010Prop48
 90
       50
102
RTVSPost2010PropOp48
 70
     1
102
RTVSPost2010Prop49
280
     0
102
RTVSPost2010PropOp49
 70
     1
102
RTVSPost2010Prop50
 90
       50
102
RTVSPost2010PropOp50
 70
     1
102
RTVSPost2010Prop51ColorIndex
 90
      256
102
RTVSPost2010Prop51ColorRGB
 90
-16777216
102
RTVSPost2010PropOp51
 70
     0
102
RTVSPost2010Prop52
140
1.0
102
RTVSPost2010PropOp52
 70
     0
102
RTVSPost2010Prop53
 90
        2
102
RTVSPost2010PropOp53
 70
     1
102
RTVSPost2010Prop54
  1
strokes_ogs.tif
102
RTVSPost2010PropOp54
 70
     1
102
RTVSPost2010Prop55
280
     0
102
RTVSPost2010PropOp55
 70
     1
102
RTVSPost2010Prop56
140
1.0
102
RTVSPost2010PropOp56
 70
     1
102
RTVSPost2010Prop57
140
1.0
102
RTVSPost2010PropOp57
 70
     1
  0
XRECORD
  5
A7
102
{ACAD_REACTORS
330
A6
102
}
330
A6
100
AcDbXrecord
280
     1
102
RTVSPropertyOp0
 70
     1
102
RTVSPropertyOp1
 70
     1
102
RTVSPropertyOp2
 70
     1
102
RTVSPropertyOp3
 70
     1
102
RTVSPropertyOp4
 70
     1
102
RTVSPropertyOp5
 70
     1
102
RTVSPropertyOp6
 70
     1
102
RTVSPropertyOp7
 70
     1
102
RTVSPropertyOp8
 70
     1
102
RTVSPropertyOp9
 70
     1
102
RTVSPropertyOp10
 70
     1
102
RTVSPropertyOp11
 70
     1
102
RTVSPropertyOp12
 70
     1
102
RTVSPropertyOp13
 70
     1
102
RTVSPropertyOp14
 70
     1
102
RTVSPropertyOp15
 70
     1
102
RTVSPropertyOp16
 70
     1
102
RTVSPropertyOp17
 70
     1
102
RTVSPropertyOp18
 70
     1
102
RTVSPropertyOp19
 70
     1
102
RTVSPropertyOp20
 70
     1
102
RTVSPropertyOp21
 70
     1
102
RTVSPropertyOp22
 70
     1
102
RTVSPropertyOp23
 70
     1
102
RTVSPropertyOp24
 70
     1
102
RTVSPropertyOp25
 70
     1
102
RTVSPropertyOp26
 70
     1
102
RTVSPropertyOp27
 70
     1
102
RTVSPropertyOp28
 70
     1
102
RTVSPropertyOp29
 70
     1
102
RTVSPropertyOp30
 70
     1
102
RTVSPropertyOp31
 70
     1
102
RTVSPropertyOp32
 70
     1
102
RTVSPropertyOp33
 70
     1
102
RTVSPropertyOp34
 70
     1
102
RTVSPropertyOp35
 70
     1
102
RTVSPropertyOp36
 70
     1
102
RTVSPropertyOp37
 70
     1
102
RTVSPropertyOp38
 70
     1
102
RTVSPropertyOp39
 70
     1
102
RTVSPropertyOp40
 70
     1
102
RTVSPropertyOp41
 70
     1
102
RTVSPropertyOp42
 70
     1
102
RTVSPropertyOp43
 70
     1
102
RTVSPropertyOp44
 70
     1
102
RTVSPropertyOp45
 70
     1
102
RTVSPropertyOp46
 70
     1
102
RTVSPropertyOp47
 70
     1
102
RTVSPropertyOp48
 70
     1
102
RTVSPropertyOp49
 70
     1
102
RTVSPropertyOp50
 70
     1
102
RTVSPropertyOp51
 70
     0
102
RTVSPropertyOp52
 70
     0
102
RTVSPropertyOp53
 70
     1
102
RTVSPropertyOp54
 70
     1
102
RTVSPropertyOp55
 70
     1
102
RTVSPropertyOp56
 70
     1
102
RTVSPropertyOp57
 70
     1
102
RTVSPost2010Prop28
280
     0
102
RTVSPost2010PropOp28
 70
     1
102
RTVSPost2010Prop29
280
     1
102
RTVSPost2010PropOp29
 70
     1
102
RTVSPost2010Prop30
280
     1
102
RTVSPost2010PropOp30
 70
     1
102
RTVSPost2010Prop31
280
     0
102
RTVSPost2010PropOp31
 70
     1
102
RTVSPost2010Prop32
280
     0
102
RTVSPost2010PropOp32
 70
     1
102
RTVSPost2010Prop33
280
     0
102
RTVSPost2010PropOp33
 70
     1
102
RTVSPost2010Prop34
280
     0
102
RTVSPost2010PropOp34
 70
     1
102
RTVSPost2010Prop35
280
     0
102
RTVSPost2010PropOp35
 70
     1
102
RTVSPost2010Prop36
280
     0
102
RTVSPost2010PropOp36
 70
     1
102
RTVSPost2010Prop37
 90
       50
102
RTVSPost2010PropOp37
 70
     1
102
RTVSPost2010Prop38
140
0.0
102
RTVSPost2010PropOp38
 70
     1
102
RTVSPost2010Prop39
140
1.0
102
RTVSPost2010PropOp39
 70
     1
102
RTVSPost2010Prop40
 90
        0
102
RTVSPost2010PropOp40
 70
     1
102
RTVSPost2010Prop41ColorIndex
 90
       18
102
RTVSPost2010Prop41ColorRGB
 90
        0
102
RTVSPost2010PropOp41
 70
     1
102
RTVSPost2010Prop42
 90
       50
102
RTVSPost2010PropOp42
 70
     1
102
RTVSPost2010Prop43
 90
        3
102
RTVSPost2010PropOp43
 70
     1
102
RTVSPost2010Prop44ColorIndex
 90
        5
102
RTVSPost2010Prop44ColorRGB
 90
      255
102
RTVSPost2010PropOp44
 70
     1
102
RTVSPost2010Prop45
280
     0
102
RTVSPost2010PropOp45
 70
     1
102
RTVSPost2010Prop46
 90
       50
102
RTVSPost2010PropOp46
 70
     1
102
RTVSPost2010Prop47
 90
       50
102
RTVSPost2010PropOp47
 70
     1
102
RTVSPost2010Prop48
 90
       50
102
RTVSPost2010PropOp48
 70
     1
102
RTVSPost2010Prop49
280
     0
102
RTVSPost2010PropOp49
 70
     1
102
RTVSPost2010Prop50
 90
       50
102
RTVSPost2010PropOp50
 70
     1
102
RTVSPost2010Prop51ColorIndex
 90
      256
102
RTVSPost2010Prop51ColorRGB
 90
-16777216
102
RTVSPost2010PropOp51
 70
     0
102
RTVSPost2010Prop52
140
1.0
102
RTVSPost2010PropOp52
 70
     0
102
RTVSPost2010Prop53
 90
        2
102
RTVSPost2010PropOp53
 70
     1
102
RTVSPost2010Prop54
  1
strokes_ogs.tif
102
RTVSPost2010PropOp54
 70
     1
102
RTVSPost2010Prop55
280
     0
102
RTVSPost2010PropOp55
 70
     1
102
RTVSPost2010Prop56
140
1.0
102
RTVSPost2010PropOp56
 70
     1
102
RTVSPost2010Prop57
140
1.0
102
RTVSPost2010PropOp57
 70
     1
  0
XRECORD
  5
AF
102
{ACAD_REACTORS
330
AE
102
}
330
AE
100
AcDbXrecord
280
     1
102
RTVSPropertyOp0
 70
     1
102
RTVSPropertyOp1
 70
     1
102
RTVSPropertyOp2
 70
     1
102
RTVSPropertyOp3
 70
     1
102
RTVSPropertyOp4
 70
     1
102
RTVSPropertyOp5
 70
     1
102
RTVSPropertyOp6
 70
     1
102
RTVSPropertyOp7
 70
     1
102
RTVSPropertyOp8
 70
     1
102
RTVSPropertyOp9
 70
     1
102
RTVSPropertyOp10
 70
     1
102
RTVSPropertyOp11
 70
     1
102
RTVSPropertyOp12
 70
     1
102
RTVSPropertyOp13
 70
     1
102
RTVSPropertyOp14
 70
     1
102
RTVSPropertyOp15
 70
     1
102
RTVSPropertyOp16
 70
     1
102
RTVSPropertyOp17
 70
     1
102
RTVSPropertyOp18
 70
     1
102
RTVSPropertyOp19
 70
     1
102
RTVSPropertyOp20
 70
     1
102
RTVSPropertyOp21
 70
     1
102
RTVSPropertyOp22
 70
     1
102
RTVSPropertyOp23
 70
     1
102
RTVSPropertyOp24
 70
     1
102
RTVSPropertyOp25
 70
     1
102
RTVSPropertyOp26
 70
     1
102
RTVSPropertyOp27
 70
     1
102
RTVSPropertyOp28
 70
     1
102
RTVSPropertyOp29
 70
     1
102
RTVSPropertyOp30
 70
     1
102
RTVSPropertyOp31
 70
     1
102
RTVSPropertyOp32
 70
     1
102
RTVSPropertyOp33
 70
     1
102
RTVSPropertyOp34
 70
     1
102
RTVSPropertyOp35
 70
     1
102
RTVSPropertyOp36
 70
     1
102
RTVSPropertyOp37
 70
     1
102
RTVSPropertyOp38
 70
     1
102
RTVSPropertyOp39
 70
     1
102
RTVSPropertyOp40
 70
     1
102
RTVSPropertyOp41
 70
     1
102
RTVSPropertyOp42
 70
     1
102
RTVSPropertyOp43
 70
     1
102
RTVSPropertyOp44
 70
     1
102
RTVSPropertyOp45
 70
     1
102
RTVSPropertyOp46
 70
     1
102
RTVSPropertyOp47
 70
     1
102
RTVSPropertyOp48
 70
     1
102
RTVSPropertyOp49
 70
     1
102
RTVSPropertyOp50
 70
     1
102
RTVSPropertyOp51
 70
     0
102
RTVSPropertyOp52
 70
     0
102
RTVSPropertyOp53
 70
     1
102
RTVSPropertyOp54
 70
     1
102
RTVSPropertyOp55
 70
     1
102
RTVSPropertyOp56
 70
     1
102
RTVSPropertyOp57
 70
     1
102
RTVSPost2010Prop28
280
     0
102
RTVSPost2010PropOp28
 70
     1
102
RTVSPost2010Prop29
280
     1
102
RTVSPost2010PropOp29
 70
     1
102
RTVSPost2010Prop30
280
     1
102
RTVSPost2010PropOp30
 70
     1
102
RTVSPost2010Prop31
280
     0
102
RTVSPost2010PropOp31
 70
     1
102
RTVSPost2010Prop32
280
     0
102
RTVSPost2010PropOp32
 70
     1
102
RTVSPost2010Prop33
280
     0
102
RTVSPost2010PropOp33
 70
     1
102
RTVSPost2010Prop34
280
     0
102
RTVSPost2010PropOp34
 70
     1
102
RTVSPost2010Prop35
280
     0
102
RTVSPost2010PropOp35
 70
     1
102
RTVSPost2010Prop36
280
     0
102
RTVSPost2010PropOp36
 70
     1
102
RTVSPost2010Prop37
 90
       50
102
RTVSPost2010PropOp37
 70
     1
102
RTVSPost2010Prop38
140
0.0
102
RTVSPost2010PropOp38
 70
     1
102
RTVSPost2010Prop39
140
1.0
102
RTVSPost2010PropOp39
 70
     1
102
RTVSPost2010Prop40
 90
        0
102
RTVSPost2010PropOp40
 70
     1
102
RTVSPost2010Prop41ColorIndex
 90
       18
102
RTVSPost2010Prop41ColorRGB
 90
        0
102
RTVSPost2010PropOp41
 70
     1
102
RTVSPost2010Prop42
 90
       50
102
RTVSPost2010PropOp42
 70
     1
102
RTVSPost2010Prop43
 90
        3
102
RTVSPost2010PropOp43
 70
     1
102
RTVSPost2010Prop44ColorIndex
 90
        5
102
RTVSPost2010Prop44ColorRGB
 90
      255
102
RTVSPost2010PropOp44
 70
     1
102
RTVSPost2010Prop45
280
     0
102
RTVSPost2010PropOp45
 70
     1
102
RTVSPost2010Prop46
 90
       50
102
RTVSPost2010PropOp46
 70
     1
102
RTVSPost2010Prop47
 90
       50
102
RTVSPost2010PropOp47
 70
     1
102
RTVSPost2010Prop48
 90
       50
102
RTVSPost2010PropOp48
 70
     1
102
RTVSPost2010Prop49
280
     0
102
RTVSPost2010PropOp49
 70
     1
102
RTVSPost2010Prop50
 90
       50
102
RTVSPost2010PropOp50
 70
     1
102
RTVSPost2010Prop51ColorIndex
 90
      256
102
RTVSPost2010Prop51ColorRGB
 90
-16777216
102
RTVSPost2010PropOp51
 70
     0
102
RTVSPost2010Prop52
140
1.0
102
RTVSPost2010PropOp52
 70
     0
102
RTVSPost2010Prop53
 90
        2
102
RTVSPost2010PropOp53
 70
     1
102
RTVSPost2010Prop54
  1
strokes_ogs.tif
102
RTVSPost2010PropOp54
 70
     1
102
RTVSPost2010Prop55
280
     0
102
RTVSPost2010PropOp55
 70
     1
102
RTVSPost2010Prop56
140
1.0
102
RTVSPost2010PropOp56
 70
     1
102
RTVSPost2010Prop57
140
1.0
102
RTVSPost2010PropOp57
 70
     1
  0
XRECORD
  5
A3
102
{ACAD_REACTORS
330
A2
102
}
330
A2
100
AcDbXrecord
280
     1
102
RTVSPropertyOp0
 70
     1
102
RTVSPropertyOp1
 70
     1
102
RTVSPropertyOp2
 70
     1
102
RTVSPropertyOp3
 70
     1
102
RTVSPropertyOp4
 70
     1
102
RTVSPropertyOp5
 70
     1
102
RTVSPropertyOp6
 70
     1
102
RTVSPropertyOp7
 70
     1
102
RTVSPropertyOp8
 70
     1
102
RTVSPropertyOp9
 70
     1
102
RTVSPropertyOp10
 70
     1
102
RTVSPropertyOp11
 70
     1
102
RTVSPropertyOp12
 70
     1
102
RTVSPropertyOp13
 70
     1
102
RTVSPropertyOp14
 70
     1
102
RTVSPropertyOp15
 70
     1
102
RTVSPropertyOp16
 70
     1
102
RTVSPropertyOp17
 70
     1
102
RTVSPropertyOp18
 70
     1
102
RTVSPropertyOp19
 70
     1
102
RTVSPropertyOp20
 70
     1
102
RTVSPropertyOp21
 70
     1
102
RTVSPropertyOp22
 70
     1
102
RTVSPropertyOp23
 70
     1
102
RTVSPropertyOp24
 70
     1
102
RTVSPropertyOp25
 70
     1
102
RTVSPropertyOp26
 70
     1
102
RTVSPropertyOp27
 70
     1
102
RTVSPropertyOp28
 70
     1
102
RTVSPropertyOp29
 70
     1
102
RTVSPropertyOp30
 70
     1
102
RTVSPropertyOp31
 70
     1
102
RTVSPropertyOp32
 70
     1
102
RTVSPropertyOp33
 70
     1
102
RTVSPropertyOp34
 70
     1
102
RTVSPropertyOp35
 70
     1
102
RTVSPropertyOp36
 70
     1
102
RTVSPropertyOp37
 70
     1
102
RTVSPropertyOp38
 70
     1
102
RTVSPropertyOp39
 70
     1
102
RTVSPropertyOp40
 70
     1
102
RTVSPropertyOp41
 70
     1
102
RTVSPropertyOp42
 70
     1
102
RTVSPropertyOp43
 70
     1
102
RTVSPropertyOp44
 70
     1
102
RTVSPropertyOp45
 70
     1
102
RTVSPropertyOp46
 70
     1
102
RTVSPropertyOp47
 70
     1
102
RTVSPropertyOp48
 70
     1
102
RTVSPropertyOp49
 70
     1
102
RTVSPropertyOp50
 70
     1
102
RTVSPropertyOp51
 70
     0
102
RTVSPropertyOp52
 70
     0
102
RTVSPropertyOp53
 70
     1
102
RTVSPropertyOp54
 70
     1
102
RTVSPropertyOp55
 70
     1
102
RTVSPropertyOp56
 70
     1
102
RTVSPropertyOp57
 70
     1
102
RTVSPost2010Prop28
280
     0
102
RTVSPost2010PropOp28
 70
     1
102
RTVSPost2010Prop29
280
     1
102
RTVSPost2010PropOp29
 70
     1
102
RTVSPost2010Prop30
280
     1
102
RTVSPost2010PropOp30
 70
     1
102
RTVSPost2010Prop31
280
     0
102
RTVSPost2010PropOp31
 70
     1
102
RTVSPost2010Prop32
280
     0
102
RTVSPost2010PropOp32
 70
     1
102
RTVSPost2010Prop33
280
     0
102
RTVSPost2010PropOp33
 70
     1
102
RTVSPost2010Prop34
280
     0
102
RTVSPost2010PropOp34
 70
     1
102
RTVSPost2010Prop35
280
     0
102
RTVSPost2010PropOp35
 70
     1
102
RTVSPost2010Prop36
280
     0
102
RTVSPost2010PropOp36
 70
     1
102
RTVSPost2010Prop37
 90
       50
102
RTVSPost2010PropOp37
 70
     1
102
RTVSPost2010Prop38
140
0.0
102
RTVSPost2010PropOp38
 70
     1
102
RTVSPost2010Prop39
140
1.0
102
RTVSPost2010PropOp39
 70
     1
102
RTVSPost2010Prop40
 90
        0
102
RTVSPost2010PropOp40
 70
     1
102
RTVSPost2010Prop41ColorIndex
 90
       18
102
RTVSPost2010Prop41ColorRGB
 90
        0
102
RTVSPost2010PropOp41
 70
     1
102
RTVSPost2010Prop42
 90
       50
102
RTVSPost2010PropOp42
 70
     1
102
RTVSPost2010Prop43
 90
        3
102
RTVSPost2010PropOp43
 70
     1
102
RTVSPost2010Prop44ColorIndex
 90
        5
102
RTVSPost2010Prop44ColorRGB
 90
      255
102
RTVSPost2010PropOp44
 70
     1
102
RTVSPost2010Prop45
280
     0
102
RTVSPost2010PropOp45
 70
     1
102
RTVSPost2010Prop46
 90
       50
102
RTVSPost2010PropOp46
 70
     1
102
RTVSPost2010Prop47
 90
       50
102
RTVSPost2010PropOp47
 70
     1
102
RTVSPost2010Prop48
 90
       50
102
RTVSPost2010PropOp48
 70
     1
102
RTVSPost2010Prop49
280
     0
102
RTVSPost2010PropOp49
 70
     1
102
RTVSPost2010Prop50
 90
       50
102
RTVSPost2010PropOp50
 70
     1
102
RTVSPost2010Prop51ColorIndex
 90
      256
102
RTVSPost2010Prop51ColorRGB
 90
-16777216
102
RTVSPost2010PropOp51
 70
     0
102
RTVSPost2010Prop52
140
1.0
102
RTVSPost2010PropOp52
 70
     0
102
RTVSPost2010Prop53
 90
        2
102
RTVSPost2010PropOp53
 70
     1
102
RTVSPost2010Prop54
  1
strokes_ogs.tif
102
RTVSPost2010PropOp54
 70
     1
102
RTVSPost2010Prop55
280
     0
102
RTVSPost2010PropOp55
 70
     1
102
RTVSPost2010Prop56
140
1.0
102
RTVSPost2010PropOp56
 70
     1
102
RTVSPost2010Prop57
140
1.0
102
RTVSPost2010PropOp57
 70
     1
  0
XRECORD
  5
A5
102
{ACAD_REACTORS
330
A4
102
}
330
A4
100
AcDbXrecord
280
     1
102
RTVSPropertyOp0
 70
     1
102
RTVSPropertyOp1
 70
     1
102
RTVSPropertyOp2
 70
     1
102
RTVSPropertyOp3
 70
     1
102
RTVSPropertyOp4
 70
     1
102
RTVSPropertyOp5
 70
     1
102
RTVSPropertyOp6
 70
     1
102
RTVSPropertyOp7
 70
     1
102
RTVSPropertyOp8
 70
     1
102
RTVSPropertyOp9
 70
     1
102
RTVSPropertyOp10
 70
     1
102
RTVSPropertyOp11
 70
     1
102
RTVSPropertyOp12
 70
     1
102
RTVSPropertyOp13
 70
     1
102
RTVSPropertyOp14
 70
     1
102
RTVSPropertyOp15
 70
     1
102
RTVSPropertyOp16
 70
     1
102
RTVSPropertyOp17
 70
     1
102
RTVSPropertyOp18
 70
     1
102
RTVSPropertyOp19
 70
     1
102
RTVSPropertyOp20
 70
     1
102
RTVSPropertyOp21
 70
     1
102
RTVSPropertyOp22
 70
     1
102
RTVSPropertyOp23
 70
     1
102
RTVSPropertyOp24
 70
     1
102
RTVSPropertyOp25
 70
     1
102
RTVSPropertyOp26
 70
     1
102
RTVSPropertyOp27
 70
     1
102
RTVSPropertyOp28
 70
     1
102
RTVSPropertyOp29
 70
     1
102
RTVSPropertyOp30
 70
     1
102
RTVSPropertyOp31
 70
     1
102
RTVSPropertyOp32
 70
     1
102
RTVSPropertyOp33
 70
     1
102
RTVSPropertyOp34
 70
     1
102
RTVSPropertyOp35
 70
     1
102
RTVSPropertyOp36
 70
     1
102
RTVSPropertyOp37
 70
     1
102
RTVSPropertyOp38
 70
     1
102
RTVSPropertyOp39
 70
     1
102
RTVSPropertyOp40
 70
     1
102
RTVSPropertyOp41
 70
     1
102
RTVSPropertyOp42
 70
     1
102
RTVSPropertyOp43
 70
     1
102
RTVSPropertyOp44
 70
     1
102
RTVSPropertyOp45
 70
     1
102
RTVSPropertyOp46
 70
     1
102
RTVSPropertyOp47
 70
     1
102
RTVSPropertyOp48
 70
     1
102
RTVSPropertyOp49
 70
     1
102
RTVSPropertyOp50
 70
     1
102
RTVSPropertyOp51
 70
     0
102
RTVSPropertyOp52
 70
     0
102
RTVSPropertyOp53
 70
     1
102
RTVSPropertyOp54
 70
     1
102
RTVSPropertyOp55
 70
     1
102
RTVSPropertyOp56
 70
     1
102
RTVSPropertyOp57
 70
     1
102
RTVSPost2010Prop28
280
     0
102
RTVSPost2010PropOp28
 70
     1
102
RTVSPost2010Prop29
280
     1
102
RTVSPost2010PropOp29
 70
     1
102
RTVSPost2010Prop30
280
     1
102
RTVSPost2010PropOp30
 70
     1
102
RTVSPost2010Prop31
280
     0
102
RTVSPost2010PropOp31
 70
     1
102
RTVSPost2010Prop32
280
     0
102
RTVSPost2010PropOp32
 70
     1
102
RTVSPost2010Prop33
280
     0
102
RTVSPost2010PropOp33
 70
     1
102
RTVSPost2010Prop34
280
     0
102
RTVSPost2010PropOp34
 70
     1
102
RTVSPost2010Prop35
280
     0
102
RTVSPost2010PropOp35
 70
     1
102
RTVSPost2010Prop36
280
     0
102
RTVSPost2010PropOp36
 70
     1
102
RTVSPost2010Prop37
 90
       50
102
RTVSPost2010PropOp37
 70
     1
102
RTVSPost2010Prop38
140
0.0
102
RTVSPost2010PropOp38
 70
     1
102
RTVSPost2010Prop39
140
1.0
102
RTVSPost2010PropOp39
 70
     1
102
RTVSPost2010Prop40
 90
        0
102
RTVSPost2010PropOp40
 70
     1
102
RTVSPost2010Prop41ColorIndex
 90
       18
102
RTVSPost2010Prop41ColorRGB
 90
        0
102
RTVSPost2010PropOp41
 70
     1
102
RTVSPost2010Prop42
 90
       50
102
RTVSPost2010PropOp42
 70
     1
102
RTVSPost2010Prop43
 90
        3
102
RTVSPost2010PropOp43
 70
     1
102
RTVSPost2010Prop44ColorIndex
 90
        5
102
RTVSPost2010Prop44ColorRGB
 90
      255
102
RTVSPost2010PropOp44
 70
     1
102
RTVSPost2010Prop45
280
     0
102
RTVSPost2010PropOp45
 70
     1
102
RTVSPost2010Prop46
 90
       50
102
RTVSPost2010PropOp46
 70
     1
102
RTVSPost2010Prop47
 90
       50
102
RTVSPost2010PropOp47
 70
     1
102
RTVSPost2010Prop48
 90
       50
102
RTVSPost2010PropOp48
 70
     1
102
RTVSPost2010Prop49
280
     0
102
RTVSPost2010PropOp49
 70
     1
102
RTVSPost2010Prop50
 90
       50
102
RTVSPost2010PropOp50
 70
     1
102
RTVSPost2010Prop51ColorIndex
 90
      256
102
RTVSPost2010Prop51ColorRGB
 90
-16777216
102
RTVSPost2010PropOp51
 70
     0
102
RTVSPost2010Prop52
140
1.0
102
RTVSPost2010PropOp52
 70
     0
102
RTVSPost2010Prop53
 90
        2
102
RTVSPost2010PropOp53
 70
     1
102
RTVSPost2010Prop54
  1
strokes_ogs.tif
102
RTVSPost2010PropOp54
 70
     1
102
RTVSPost2010Prop55
280
     0
102
RTVSPost2010PropOp55
 70
     1
102
RTVSPost2010Prop56
140
1.0
102
RTVSPost2010PropOp56
 70
     1
102
RTVSPost2010Prop57
140
1.0
102
RTVSPost2010PropOp57
 70
     1
  0
XRECORD
  5
B5
102
{ACAD_REACTORS
330
B4
102
}
330
B4
100
AcDbXrecord
280
     1
102
RTVSPropertyOp0
 70
     0
102
RTVSPropertyOp1
 70
     0
102
RTVSPropertyOp2
 70
     0
102
RTVSPropertyOp3
 70
     0
102
RTVSPropertyOp4
 70
     0
102
RTVSPropertyOp5
 70
     0
102
RTVSPropertyOp6
 70
     0
102
RTVSPropertyOp7
 70
     0
102
RTVSPropertyOp8
 70
     0
102
RTVSPropertyOp9
 70
     0
102
RTVSPropertyOp10
 70
     0
102
RTVSPropertyOp11
 70
     0
102
RTVSPropertyOp12
 70
     0
102
RTVSPropertyOp13
 70
     0
102
RTVSPropertyOp14
 70
     2
102
RTVSPropertyOp15
 70
     0
102
RTVSPropertyOp16
 70
     0
102
RTVSPropertyOp17
 70
     0
102
RTVSPropertyOp18
 70
     0
102
RTVSPropertyOp19
 70
     0
102
RTVSPropertyOp20
 70
     0
102
RTVSPropertyOp21
 70
     0
102
RTVSPropertyOp22
 70
     0
102
RTVSPropertyOp23
 70
     0
102
RTVSPropertyOp24
 70
     0
102
RTVSPropertyOp25
 70
     0
102
RTVSPropertyOp26
 70
     0
102
RTVSPropertyOp27
 70
     0
102
RTVSPropertyOp28
 70
     0
102
RTVSPropertyOp29
 70
     0
102
RTVSPropertyOp30
 70
     0
102
RTVSPropertyOp31
 70
     0
102
RTVSPropertyOp32
 70
     0
102
RTVSPropertyOp33
 70
     0
102
RTVSPropertyOp34
 70
     0
102
RTVSPropertyOp35
 70
     0
102
RTVSPropertyOp36
 70
     0
102
RTVSPropertyOp37
 70
     0
102
RTVSPropertyOp38
 70
     0
102
RTVSPropertyOp39
 70
     0
102
RTVSPropertyOp40
 70
     0
102
RTVSPropertyOp41
 70
     0
102
RTVSPropertyOp42
 70
     0
102
RTVSPropertyOp43
 70
     0
102
RTVSPropertyOp44
 70
     0
102
RTVSPropertyOp45
 70
     0
102
RTVSPropertyOp46
 70
     0
102
RTVSPropertyOp47
 70
     0
102
RTVSPropertyOp48
 70
     0
102
RTVSPropertyOp49
 70
     0
102
RTVSPropertyOp50
 70
     0
102
RTVSPropertyOp51
 70
     0
102
RTVSPropertyOp52
 70
     0
102
RTVSPropertyOp53
 70
     0
102
RTVSPropertyOp54
 70
     0
102
RTVSPropertyOp55
 70
     0
102
RTVSPropertyOp56
 70
     0
102
RTVSPropertyOp57
 70
     0
102
RTVSPost2010Prop28
280
     0
102
RTVSPost2010PropOp28
 70
     0
102
RTVSPost2010Prop29
280
     1
102
RTVSPost2010PropOp29
 70
     0
102
RTVSPost2010Prop30
280
     1
102
RTVSPost2010PropOp30
 70
     0
102
RTVSPost2010Prop31
280
     0
102
RTVSPost2010PropOp31
 70
     0
102
RTVSPost2010Prop32
280
     0
102
RTVSPost2010PropOp32
 70
     0
102
RTVSPost2010Prop33
280
     0
102
RTVSPost2010PropOp33
 70
     0
102
RTVSPost2010Prop34
280
     0
102
RTVSPost2010PropOp34
 70
     0
102
RTVSPost2010Prop35
280
     0
102
RTVSPost2010PropOp35
 70
     0
102
RTVSPost2010Prop36
280
     0
102
RTVSPost2010PropOp36
 70
     0
102
RTVSPost2010Prop37
 90
       50
102
RTVSPost2010PropOp37
 70
     0
102
RTVSPost2010Prop38
140
0.0
102
RTVSPost2010PropOp38
 70
     0
102
RTVSPost2010Prop39
140
1.0
102
RTVSPost2010PropOp39
 70
     0
102
RTVSPost2010Prop40
 90
        0
102
RTVSPost2010PropOp40
 70
     0
102
RTVSPost2010Prop41ColorIndex
 90
       18
102
RTVSPost2010Prop41ColorRGB
 90
        0
102
RTVSPost2010PropOp41
 70
     0
102
RTVSPost2010Prop42
 90
       50
102
RTVSPost2010PropOp42
 70
     0
102
RTVSPost2010Prop43
 90
        3
102
RTVSPost2010PropOp43
 70
     0
102
RTVSPost2010Prop44ColorIndex
 90
        5
102
RTVSPost2010Prop44ColorRGB
 90
      255
102
RTVSPost2010PropOp44
 70
     0
102
RTVSPost2010Prop45
280
     0
102
RTVSPost2010PropOp45
 70
     0
102
RTVSPost2010Prop46
 90
       50
102
RTVSPost2010PropOp46
 70
     0
102
RTVSPost2010Prop47
 90
       50
102
RTVSPost2010PropOp47
 70
     0
102
RTVSPost2010Prop48
 90
       50
102
RTVSPost2010PropOp48
 70
     0
102
RTVSPost2010Prop49
280
     0
102
RTVSPost2010PropOp49
 70
     0
102
RTVSPost2010Prop50
 90
       50
102
RTVSPost2010PropOp50
 70
     0
102
RTVSPost2010Prop51ColorIndex
 90
      256
102
RTVSPost2010Prop51ColorRGB
 90
-16777216
102
RTVSPost2010PropOp51
 70
     0
102
RTVSPost2010Prop52
140
1.0
102
RTVSPost2010PropOp52
 70
     0
102
RTVSPost2010Prop53
 90
        2
102
RTVSPost2010PropOp53
 70
     0
102
RTVSPost2010Prop54
  1
strokes_ogs.tif
102
RTVSPost2010PropOp54
 70
     0
102
RTVSPost2010Prop55
280
     0
102
RTVSPost2010PropOp55
 70
     0
102
RTVSPost2010Prop56
140
1.0
102
RTVSPost2010PropOp56
 70
     0
102
RTVSPost2010Prop57
140
1.0
102
RTVSPost2010PropOp57
 70
     0
  0
XRECORD
  5
AD
102
{ACAD_REACTORS
330
AC
102
}
330
AC
100
AcDbXrecord
280
     1
102
RTVSPropertyOp0
 70
     1
102
RTVSPropertyOp1
 70
     1
102
RTVSPropertyOp2
 70
     1
102
RTVSPropertyOp3
 70
     1
102
RTVSPropertyOp4
 70
     1
102
RTVSPropertyOp5
 70
     1
102
RTVSPropertyOp6
 70
     1
102
RTVSPropertyOp7
 70
     1
102
RTVSPropertyOp8
 70
     1
102
RTVSPropertyOp9
 70
     1
102
RTVSPropertyOp10
 70
     1
102
RTVSPropertyOp11
 70
     1
102
RTVSPropertyOp12
 70
     1
102
RTVSPropertyOp13
 70
     1
102
RTVSPropertyOp14
 70
     1
102
RTVSPropertyOp15
 70
     1
102
RTVSPropertyOp16
 70
     1
102
RTVSPropertyOp17
 70
     1
102
RTVSPropertyOp18
 70
     1
102
RTVSPropertyOp19
 70
     1
102
RTVSPropertyOp20
 70
     1
102
RTVSPropertyOp21
 70
     1
102
RTVSPropertyOp22
 70
     1
102
RTVSPropertyOp23
 70
     1
102
RTVSPropertyOp24
 70
     1
102
RTVSPropertyOp25
 70
     1
102
RTVSPropertyOp26
 70
     1
102
RTVSPropertyOp27
 70
     1
102
RTVSPropertyOp28
 70
     1
102
RTVSPropertyOp29
 70
     1
102
RTVSPropertyOp30
 70
     1
102
RTVSPropertyOp31
 70
     1
102
RTVSPropertyOp32
 70
     1
102
RTVSPropertyOp33
 70
     1
102
RTVSPropertyOp34
 70
     1
102
RTVSPropertyOp35
 70
     1
102
RTVSPropertyOp36
 70
     1
102
RTVSPropertyOp37
 70
     1
102
RTVSPropertyOp38
 70
     1
102
RTVSPropertyOp39
 70
     1
102
RTVSPropertyOp40
 70
     1
102
RTVSPropertyOp41
 70
     1
102
RTVSPropertyOp42
 70
     1
102
RTVSPropertyOp43
 70
     1
102
RTVSPropertyOp44
 70
     1
102
RTVSPropertyOp45
 70
     1
102
RTVSPropertyOp46
 70
     1
102
RTVSPropertyOp47
 70
     1
102
RTVSPropertyOp48
 70
     1
102
RTVSPropertyOp49
 70
     1
102
RTVSPropertyOp50
 70
     1
102
RTVSPropertyOp51
 70
     0
102
RTVSPropertyOp52
 70
     0
102
RTVSPropertyOp53
 70
     1
102
RTVSPropertyOp54
 70
     1
102
RTVSPropertyOp55
 70
     1
102
RTVSPropertyOp56
 70
     1
102
RTVSPropertyOp57
 70
     1
102
RTVSPost2010Prop28
280
     0
102
RTVSPost2010PropOp28
 70
     1
102
RTVSPost2010Prop29
280
     1
102
RTVSPost2010PropOp29
 70
     1
102
RTVSPost2010Prop30
280
     1
102
RTVSPost2010PropOp30
 70
     1
102
RTVSPost2010Prop31
280
     0
102
RTVSPost2010PropOp31
 70
     1
102
RTVSPost2010Prop32
280
     0
102
RTVSPost2010PropOp32
 70
     1
102
RTVSPost2010Prop33
280
     0
102
RTVSPost2010PropOp33
 70
     1
102
RTVSPost2010Prop34
280
     0
102
RTVSPost2010PropOp34
 70
     1
102
RTVSPost2010Prop35
280
     0
102
RTVSPost2010PropOp35
 70
     1
102
RTVSPost2010Prop36
280
     0
102
RTVSPost2010PropOp36
 70
     1
102
RTVSPost2010Prop37
 90
       50
102
RTVSPost2010PropOp37
 70
     1
102
RTVSPost2010Prop38
140
0.0
102
RTVSPost2010PropOp38
 70
     1
102
RTVSPost2010Prop39
140
1.0
102
RTVSPost2010PropOp39
 70
     1
102
RTVSPost2010Prop40
 90
        0
102
RTVSPost2010PropOp40
 70
     1
102
RTVSPost2010Prop41ColorIndex
 90
       18
102
RTVSPost2010Prop41ColorRGB
 90
        0
102
RTVSPost2010PropOp41
 70
     1
102
RTVSPost2010Prop42
 90
       50
102
RTVSPost2010PropOp42
 70
     1
102
RTVSPost2010Prop43
 90
        3
102
RTVSPost2010PropOp43
 70
     1
102
RTVSPost2010Prop44ColorIndex
 90
        5
102
RTVSPost2010Prop44ColorRGB
 90
      255
102
RTVSPost2010PropOp44
 70
     1
102
RTVSPost2010Prop45
280
     0
102
RTVSPost2010PropOp45
 70
     1
102
RTVSPost2010Prop46
 90
       50
102
RTVSPost2010PropOp46
 70
     1
102
RTVSPost2010Prop47
 90
       50
102
RTVSPost2010PropOp47
 70
     1
102
RTVSPost2010Prop48
 90
       50
102
RTVSPost2010PropOp48
 70
     1
102
RTVSPost2010Prop49
280
     0
102
RTVSPost2010PropOp49
 70
     1
102
RTVSPost2010Prop50
 90
       50
102
RTVSPost2010PropOp50
 70
     1
102
RTVSPost2010Prop51ColorIndex
 90
      256
102
RTVSPost2010Prop51ColorRGB
 90
-16777216
102
RTVSPost2010PropOp51
 70
     0
102
RTVSPost2010Prop52
140
1.0
102
RTVSPost2010PropOp52
 70
     0
102
RTVSPost2010Prop53
 90
        2
102
RTVSPost2010PropOp53
 70
     1
102
RTVSPost2010Prop54
  1
strokes_ogs.tif
102
RTVSPost2010PropOp54
 70
     1
102
RTVSPost2010Prop55
280
     0
102
RTVSPost2010PropOp55
 70
     1
102
RTVSPost2010Prop56
140
1.0
102
RTVSPost2010PropOp56
 70
     1
102
RTVSPost2010Prop57
140
1.0
102
RTVSPost2010PropOp57
 70
     1
  0
XRECORD
  5
91
102
{ACAD_REACTORS
330
90
102
}
330
90
100
AcDbXrecord
280
     1
102
RTVSPropertyOp0
 70
     1
102
RTVSPropertyOp1
 70
     1
102
RTVSPropertyOp2
 70
     1
102
RTVSPropertyOp3
 70
     1
102
RTVSPropertyOp4
 70
     1
102
RTVSPropertyOp5
 70
     1
102
RTVSPropertyOp6
 70
     1
102
RTVSPropertyOp7
 70
     1
102
RTVSPropertyOp8
 70
     1
102
RTVSPropertyOp9
 70
     1
102
RTVSPropertyOp10
 70
     1
102
RTVSPropertyOp11
 70
     1
102
RTVSPropertyOp12
 70
     1
102
RTVSPropertyOp13
 70
     1
102
RTVSPropertyOp14
 70
     1
102
RTVSPropertyOp15
 70
     1
102
RTVSPropertyOp16
 70
     1
102
RTVSPropertyOp17
 70
     1
102
RTVSPropertyOp18
 70
     1
102
RTVSPropertyOp19
 70
     1
102
RTVSPropertyOp20
 70
     1
102
RTVSPropertyOp21
 70
     1
102
RTVSPropertyOp22
 70
     1
102
RTVSPropertyOp23
 70
     1
102
RTVSPropertyOp24
 70
     1
102
RTVSPropertyOp25
 70
     1
102
RTVSPropertyOp26
 70
     1
102
RTVSPropertyOp27
 70
     1
102
RTVSPropertyOp28
 70
     1
102
RTVSPropertyOp29
 70
     1
102
RTVSPropertyOp30
 70
     1
102
RTVSPropertyOp31
 70
     1
102
RTVSPropertyOp32
 70
     1
102
RTVSPropertyOp33
 70
     1
102
RTVSPropertyOp34
 70
     1
102
RTVSPropertyOp35
 70
     1
102
RTVSPropertyOp36
 70
     1
102
RTVSPropertyOp37
 70
     1
102
RTVSPropertyOp38
 70
     1
102
RTVSPropertyOp39
 70
     1
102
RTVSPropertyOp40
 70
     1
102
RTVSPropertyOp41
 70
     1
102
RTVSPropertyOp42
 70
     1
102
RTVSPropertyOp43
 70
     1
102
RTVSPropertyOp44
 70
     1
102
RTVSPropertyOp45
 70
     1
102
RTVSPropertyOp46
 70
     1
102
RTVSPropertyOp47
 70
     1
102
RTVSPropertyOp48
 70
     1
102
RTVSPropertyOp49
 70
     1
102
RTVSPropertyOp50
 70
     1
102
RTVSPropertyOp51
 70
     0
102
RTVSPropertyOp52
 70
     0
102
RTVSPropertyOp53
 70
     1
102
RTVSPropertyOp54
 70
     1
102
RTVSPropertyOp55
 70
     1
102
RTVSPropertyOp56
 70
     1
102
RTVSPropertyOp57
 70
     1
102
RTVSPost2010Prop28
280
     0
102
RTVSPost2010PropOp28
 70
     1
102
RTVSPost2010Prop29
280
     1
102
RTVSPost2010PropOp29
 70
     1
102
RTVSPost2010Prop30
280
     1
102
RTVSPost2010PropOp30
 70
     1
102
RTVSPost2010Prop31
280
     0
102
RTVSPost2010PropOp31
 70
     1
102
RTVSPost2010Prop32
280
     0
102
RTVSPost2010PropOp32
 70
     1
102
RTVSPost2010Prop33
280
     0
102
RTVSPost2010PropOp33
 70
     1
102
RTVSPost2010Prop34
280
     0
102
RTVSPost2010PropOp34
 70
     1
102
RTVSPost2010Prop35
280
     0
102
RTVSPost2010PropOp35
 70
     1
102
RTVSPost2010Prop36
280
     0
102
RTVSPost2010PropOp36
 70
     1
102
RTVSPost2010Prop37
 90
       50
102
RTVSPost2010PropOp37
 70
     1
102
RTVSPost2010Prop38
140
0.0
102
RTVSPost2010PropOp38
 70
     1
102
RTVSPost2010Prop39
140
1.0
102
RTVSPost2010PropOp39
 70
     1
102
RTVSPost2010Prop40
 90
        0
102
RTVSPost2010PropOp40
 70
     1
102
RTVSPost2010Prop41ColorIndex
 90
       18
102
RTVSPost2010Prop41ColorRGB
 90
        0
102
RTVSPost2010PropOp41
 70
     1
102
RTVSPost2010Prop42
 90
       50
102
RTVSPost2010PropOp42
 70
     1
102
RTVSPost2010Prop43
 90
        3
102
RTVSPost2010PropOp43
 70
     1
102
RTVSPost2010Prop44ColorIndex
 90
        5
102
RTVSPost2010Prop44ColorRGB
 90
      255
102
RTVSPost2010PropOp44
 70
     1
102
RTVSPost2010Prop45
280
     0
102
RTVSPost2010PropOp45
 70
     1
102
RTVSPost2010Prop46
 90
       50
102
RTVSPost2010PropOp46
 70
     1
102
RTVSPost2010Prop47
 90
       50
102
RTVSPost2010PropOp47
 70
     1
102
RTVSPost2010Prop48
 90
       50
102
RTVSPost2010PropOp48
 70
     1
102
RTVSPost2010Prop49
280
     0
102
RTVSPost2010PropOp49
 70
     1
102
RTVSPost2010Prop50
 90
       50
102
RTVSPost2010PropOp50
 70
     1
102
RTVSPost2010Prop51ColorIndex
 90
      256
102
RTVSPost2010Prop51ColorRGB
 90
-16777216
102
RTVSPost2010PropOp51
 70
     0
102
RTVSPost2010Prop52
140
1.0
102
RTVSPost2010PropOp52
 70
     0
102
RTVSPost2010Prop53
 90
        2
102
RTVSPost2010PropOp53
 70
     1
102
RTVSPost2010Prop54
  1
strokes_ogs.tif
102
RTVSPost2010PropOp54
 70
     1
102
RTVSPost2010Prop55
280
     0
102
RTVSPost2010PropOp55
 70
     1
102
RTVSPost2010Prop56
140
1.0
102
RTVSPost2010PropOp56
 70
     1
102
RTVSPost2010Prop57
140
1.0
102
RTVSPost2010PropOp57
 70
     1
  0
XRECORD
  5
93
102
{ACAD_REACTORS
330
92
102
}
330
92
100
AcDbXrecord
280
     1
102
RTVSPropertyOp0
 70
     1
102
RTVSPropertyOp1
 70
     1
102
RTVSPropertyOp2
 70
     1
102
RTVSPropertyOp3
 70
     1
102
RTVSPropertyOp4
 70
     1
102
RTVSPropertyOp5
 70
     1
102
RTVSPropertyOp6
 70
     1
102
RTVSPropertyOp7
 70
     1
102
RTVSPropertyOp8
 70
     1
102
RTVSPropertyOp9
 70
     1
102
RTVSPropertyOp10
 70
     1
102
RTVSPropertyOp11
 70
     1
102
RTVSPropertyOp12
 70
     1
102
RTVSPropertyOp13
 70
     1
102
RTVSPropertyOp14
 70
     1
102
RTVSPropertyOp15
 70
     1
102
RTVSPropertyOp16
 70
     1
102
RTVSPropertyOp17
 70
     1
102
RTVSPropertyOp18
 70
     1
102
RTVSPropertyOp19
 70
     1
102
RTVSPropertyOp20
 70
     1
102
RTVSPropertyOp21
 70
     1
102
RTVSPropertyOp22
 70
     1
102
RTVSPropertyOp23
 70
     1
102
RTVSPropertyOp24
 70
     1
102
RTVSPropertyOp25
 70
     1
102
RTVSPropertyOp26
 70
     1
102
RTVSPropertyOp27
 70
     1
102
RTVSPropertyOp28
 70
     1
102
RTVSPropertyOp29
 70
     1
102
RTVSPropertyOp30
 70
     1
102
RTVSPropertyOp31
 70
     1
102
RTVSPropertyOp32
 70
     1
102
RTVSPropertyOp33
 70
     1
102
RTVSPropertyOp34
 70
     1
102
RTVSPropertyOp35
 70
     1
102
RTVSPropertyOp36
 70
     1
102
RTVSPropertyOp37
 70
     1
102
RTVSPropertyOp38
 70
     1
102
RTVSPropertyOp39
 70
     1
102
RTVSPropertyOp40
 70
     1
102
RTVSPropertyOp41
 70
     1
102
RTVSPropertyOp42
 70
     1
102
RTVSPropertyOp43
 70
     1
102
RTVSPropertyOp44
 70
     1
102
RTVSPropertyOp45
 70
     1
102
RTVSPropertyOp46
 70
     1
102
RTVSPropertyOp47
 70
     1
102
RTVSPropertyOp48
 70
     1
102
RTVSPropertyOp49
 70
     1
102
RTVSPropertyOp50
 70
     1
102
RTVSPropertyOp51
 70
     0
102
RTVSPropertyOp52
 70
     0
102
RTVSPropertyOp53
 70
     1
102
RTVSPropertyOp54
 70
     1
102
RTVSPropertyOp55
 70
     1
102
RTVSPropertyOp56
 70
     1
102
RTVSPropertyOp57
 70
     1
102
RTVSPost2010Prop28
280
     0
102
RTVSPost2010PropOp28
 70
     1
102
RTVSPost2010Prop29
280
     1
102
RTVSPost2010PropOp29
 70
     1
102
RTVSPost2010Prop30
280
     1
102
RTVSPost2010PropOp30
 70
     1
102
RTVSPost2010Prop31
280
     0
102
RTVSPost2010PropOp31
 70
     1
102
RTVSPost2010Prop32
280
     0
102
RTVSPost2010PropOp32
 70
     1
102
RTVSPost2010Prop33
280
     0
102
RTVSPost2010PropOp33
 70
     1
102
RTVSPost2010Prop34
280
     0
102
RTVSPost2010PropOp34
 70
     1
102
RTVSPost2010Prop35
280
     0
102
RTVSPost2010PropOp35
 70
     1
102
RTVSPost2010Prop36
280
     0
102
RTVSPost2010PropOp36
 70
     1
102
RTVSPost2010Prop37
 90
       50
102
RTVSPost2010PropOp37
 70
     1
102
RTVSPost2010Prop38
140
0.0
102
RTVSPost2010PropOp38
 70
     1
102
RTVSPost2010Prop39
140
1.0
102
RTVSPost2010PropOp39
 70
     1
102
RTVSPost2010Prop40
 90
        0
102
RTVSPost2010PropOp40
 70
     1
102
RTVSPost2010Prop41ColorIndex
 90
       18
102
RTVSPost2010Prop41ColorRGB
 90
        0
102
RTVSPost2010PropOp41
 70
     1
102
RTVSPost2010Prop42
 90
       50
102
RTVSPost2010PropOp42
 70
     1
102
RTVSPost2010Prop43
 90
        3
102
RTVSPost2010PropOp43
 70
     1
102
RTVSPost2010Prop44ColorIndex
 90
        5
102
RTVSPost2010Prop44ColorRGB
 90
      255
102
RTVSPost2010PropOp44
 70
     1
102
RTVSPost2010Prop45
280
     0
102
RTVSPost2010PropOp45
 70
     1
102
RTVSPost2010Prop46
 90
       50
102
RTVSPost2010PropOp46
 70
     1
102
RTVSPost2010Prop47
 90
       50
102
RTVSPost2010PropOp47
 70
     1
102
RTVSPost2010Prop48
 90
       50
102
RTVSPost2010PropOp48
 70
     1
102
RTVSPost2010Prop49
280
     0
102
RTVSPost2010PropOp49
 70
     1
102
RTVSPost2010Prop50
 90
       50
102
RTVSPost2010PropOp50
 70
     1
102
RTVSPost2010Prop51ColorIndex
 90
      256
102
RTVSPost2010Prop51ColorRGB
 90
-16777216
102
RTVSPost2010PropOp51
 70
     0
102
RTVSPost2010Prop52
140
1.0
102
RTVSPost2010PropOp52
 70
     0
102
RTVSPost2010Prop53
 90
        2
102
RTVSPost2010PropOp53
 70
     1
102
RTVSPost2010Prop54
  1
strokes_ogs.tif
102
RTVSPost2010PropOp54
 70
     1
102
RTVSPost2010Prop55
280
     0
102
RTVSPost2010PropOp55
 70
     1
102
RTVSPost2010Prop56
140
1.0
102
RTVSPost2010PropOp56
 70
     1
102
RTVSPost2010Prop57
140
1.0
102
RTVSPost2010PropOp57
 70
     1
  0
XRECORD
  5
95
102
{ACAD_REACTORS
330
94
102
}
330
94
100
AcDbXrecord
280
     1
102
RTVSPropertyOp0
 70
     1
102
RTVSPropertyOp1
 70
     1
102
RTVSPropertyOp2
 70
     1
102
RTVSPropertyOp3
 70
     1
102
RTVSPropertyOp4
 70
     1
102
RTVSPropertyOp5
 70
     1
102
RTVSPropertyOp6
 70
     1
102
RTVSPropertyOp7
 70
     1
102
RTVSPropertyOp8
 70
     1
102
RTVSPropertyOp9
 70
     1
102
RTVSPropertyOp10
 70
     1
102
RTVSPropertyOp11
 70
     1
102
RTVSPropertyOp12
 70
     1
102
RTVSPropertyOp13
 70
     1
102
RTVSPropertyOp14
 70
     1
102
RTVSPropertyOp15
 70
     1
102
RTVSPropertyOp16
 70
     1
102
RTVSPropertyOp17
 70
     1
102
RTVSPropertyOp18
 70
     1
102
RTVSPropertyOp19
 70
     1
102
RTVSPropertyOp20
 70
     1
102
RTVSPropertyOp21
 70
     1
102
RTVSPropertyOp22
 70
     1
102
RTVSPropertyOp23
 70
     1
102
RTVSPropertyOp24
 70
     1
102
RTVSPropertyOp25
 70
     1
102
RTVSPropertyOp26
 70
     1
102
RTVSPropertyOp27
 70
     1
102
RTVSPropertyOp28
 70
     1
102
RTVSPropertyOp29
 70
     1
102
RTVSPropertyOp30
 70
     1
102
RTVSPropertyOp31
 70
     1
102
RTVSPropertyOp32
 70
     1
102
RTVSPropertyOp33
 70
     1
102
RTVSPropertyOp34
 70
     1
102
RTVSPropertyOp35
 70
     1
102
RTVSPropertyOp36
 70
     1
102
RTVSPropertyOp37
 70
     1
102
RTVSPropertyOp38
 70
     1
102
RTVSPropertyOp39
 70
     1
102
RTVSPropertyOp40
 70
     1
102
RTVSPropertyOp41
 70
     1
102
RTVSPropertyOp42
 70
     1
102
RTVSPropertyOp43
 70
     1
102
RTVSPropertyOp44
 70
     1
102
RTVSPropertyOp45
 70
     1
102
RTVSPropertyOp46
 70
     1
102
RTVSPropertyOp47
 70
     1
102
RTVSPropertyOp48
 70
     1
102
RTVSPropertyOp49
 70
     1
102
RTVSPropertyOp50
 70
     1
102
RTVSPropertyOp51
 70
     0
102
RTVSPropertyOp52
 70
     0
102
RTVSPropertyOp53
 70
     1
102
RTVSPropertyOp54
 70
     1
102
RTVSPropertyOp55
 70
     1
102
RTVSPropertyOp56
 70
     1
102
RTVSPropertyOp57
 70
     1
102
RTVSPost2010Prop28
280
     0
102
RTVSPost2010PropOp28
 70
     1
102
RTVSPost2010Prop29
280
     1
102
RTVSPost2010PropOp29
 70
     1
102
RTVSPost2010Prop30
280
     1
102
RTVSPost2010PropOp30
 70
     1
102
RTVSPost2010Prop31
280
     0
102
RTVSPost2010PropOp31
 70
     1
102
RTVSPost2010Prop32
280
     0
102
RTVSPost2010PropOp32
 70
     1
102
RTVSPost2010Prop33
280
     0
102
RTVSPost2010PropOp33
 70
     1
102
RTVSPost2010Prop34
280
     0
102
RTVSPost2010PropOp34
 70
     1
102
RTVSPost2010Prop35
280
     0
102
RTVSPost2010PropOp35
 70
     1
102
RTVSPost2010Prop36
280
     0
102
RTVSPost2010PropOp36
 70
     1
102
RTVSPost2010Prop37
 90
       50
102
RTVSPost2010PropOp37
 70
     1
102
RTVSPost2010Prop38
140
0.0
102
RTVSPost2010PropOp38
 70
     1
102
RTVSPost2010Prop39
140
1.0
102
RTVSPost2010PropOp39
 70
     1
102
RTVSPost2010Prop40
 90
        0
102
RTVSPost2010PropOp40
 70
     1
102
RTVSPost2010Prop41ColorIndex
 90
       18
102
RTVSPost2010Prop41ColorRGB
 90
        0
102
RTVSPost2010PropOp41
 70
     1
102
RTVSPost2010Prop42
 90
       50
102
RTVSPost2010PropOp42
 70
     1
102
RTVSPost2010Prop43
 90
        3
102
RTVSPost2010PropOp43
 70
     1
102
RTVSPost2010Prop44ColorIndex
 90
        5
102
RTVSPost2010Prop44ColorRGB
 90
      255
102
RTVSPost2010PropOp44
 70
     1
102
RTVSPost2010Prop45
280
     0
102
RTVSPost2010PropOp45
 70
     1
102
RTVSPost2010Prop46
 90
       50
102
RTVSPost2010PropOp46
 70
     1
102
RTVSPost2010Prop47
 90
       50
102
RTVSPost2010PropOp47
 70
     1
102
RTVSPost2010Prop48
 90
       50
102
RTVSPost2010PropOp48
 70
     1
102
RTVSPost2010Prop49
280
     0
102
RTVSPost2010PropOp49
 70
     1
102
RTVSPost2010Prop50
 90
       50
102
RTVSPost2010PropOp50
 70
     1
102
RTVSPost2010Prop51ColorIndex
 90
      256
102
RTVSPost2010Prop51ColorRGB
 90
-16777216
102
RTVSPost2010PropOp51
 70
     0
102
RTVSPost2010Prop52
140
1.0
102
RTVSPost2010PropOp52
 70
     0
102
RTVSPost2010Prop53
 90
        2
102
RTVSPost2010PropOp53
 70
     1
102
RTVSPost2010Prop54
  1
strokes_ogs.tif
102
RTVSPost2010PropOp54
 70
     1
102
RTVSPost2010Prop55
280
     0
102
RTVSPost2010PropOp55
 70
     1
102
RTVSPost2010Prop56
140
1.0
102
RTVSPost2010PropOp56
 70
     1
102
RTVSPost2010Prop57
140
1.0
102
RTVSPost2010PropOp57
 70
     1
  0
XRECORD
  5
97
102
{ACAD_REACTORS
330
96
102
}
330
96
100
AcDbXrecord
280
     1
102
RTVSPropertyOp0
 70
     1
102
RTVSPropertyOp1
 70
     1
102
RTVSPropertyOp2
 70
     1
102
RTVSPropertyOp3
 70
     1
102
RTVSPropertyOp4
 70
     1
102
RTVSPropertyOp5
 70
     1
102
RTVSPropertyOp6
 70
     1
102
RTVSPropertyOp7
 70
     1
102
RTVSPropertyOp8
 70
     1
102
RTVSPropertyOp9
 70
     1
102
RTVSPropertyOp10
 70
     1
102
RTVSPropertyOp11
 70
     1
102
RTVSPropertyOp12
 70
     1
102
RTVSPropertyOp13
 70
     1
102
RTVSPropertyOp14
 70
     1
102
RTVSPropertyOp15
 70
     1
102
RTVSPropertyOp16
 70
     1
102
RTVSPropertyOp17
 70
     1
102
RTVSPropertyOp18
 70
     1
102
RTVSPropertyOp19
 70
     1
102
RTVSPropertyOp20
 70
     1
102
RTVSPropertyOp21
 70
     1
102
RTVSPropertyOp22
 70
     1
102
RTVSPropertyOp23
 70
     1
102
RTVSPropertyOp24
 70
     1
102
RTVSPropertyOp25
 70
     1
102
RTVSPropertyOp26
 70
     1
102
RTVSPropertyOp27
 70
     1
102
RTVSPropertyOp28
 70
     1
102
RTVSPropertyOp29
 70
     1
102
RTVSPropertyOp30
 70
     1
102
RTVSPropertyOp31
 70
     1
102
RTVSPropertyOp32
 70
     1
102
RTVSPropertyOp33
 70
     1
102
RTVSPropertyOp34
 70
     1
102
RTVSPropertyOp35
 70
     1
102
RTVSPropertyOp36
 70
     1
102
RTVSPropertyOp37
 70
     1
102
RTVSPropertyOp38
 70
     1
102
RTVSPropertyOp39
 70
     1
102
RTVSPropertyOp40
 70
     1
102
RTVSPropertyOp41
 70
     1
102
RTVSPropertyOp42
 70
     1
102
RTVSPropertyOp43
 70
     1
102
RTVSPropertyOp44
 70
     1
102
RTVSPropertyOp45
 70
     1
102
RTVSPropertyOp46
 70
     1
102
RTVSPropertyOp47
 70
     1
102
RTVSPropertyOp48
 70
     1
102
RTVSPropertyOp49
 70
     1
102
RTVSPropertyOp50
 70
     1
102
RTVSPropertyOp51
 70
     0
102
RTVSPropertyOp52
 70
     0
102
RTVSPropertyOp53
 70
     1
102
RTVSPropertyOp54
 70
     1
102
RTVSPropertyOp55
 70
     1
102
RTVSPropertyOp56
 70
     1
102
RTVSPropertyOp57
 70
     1
102
RTVSPost2010Prop28
280
     0
102
RTVSPost2010PropOp28
 70
     1
102
RTVSPost2010Prop29
280
     1
102
RTVSPost2010PropOp29
 70
     1
102
RTVSPost2010Prop30
280
     1
102
RTVSPost2010PropOp30
 70
     1
102
RTVSPost2010Prop31
280
     0
102
RTVSPost2010PropOp31
 70
     1
102
RTVSPost2010Prop32
280
     0
102
RTVSPost2010PropOp32
 70
     1
102
RTVSPost2010Prop33
280
     0
102
RTVSPost2010PropOp33
 70
     1
102
RTVSPost2010Prop34
280
     0
102
RTVSPost2010PropOp34
 70
     1
102
RTVSPost2010Prop35
280
     0
102
RTVSPost2010PropOp35
 70
     1
102
RTVSPost2010Prop36
280
     0
102
RTVSPost2010PropOp36
 70
     1
102
RTVSPost2010Prop37
 90
       50
102
RTVSPost2010PropOp37
 70
     1
102
RTVSPost2010Prop38
140
0.0
102
RTVSPost2010PropOp38
 70
     1
102
RTVSPost2010Prop39
140
1.0
102
RTVSPost2010PropOp39
 70
     1
102
RTVSPost2010Prop40
 90
        0
102
RTVSPost2010PropOp40
 70
     1
102
RTVSPost2010Prop41ColorIndex
 90
       18
102
RTVSPost2010Prop41ColorRGB
 90
        0
102
RTVSPost2010PropOp41
 70
     1
102
RTVSPost2010Prop42
 90
       50
102
RTVSPost2010PropOp42
 70
     1
102
RTVSPost2010Prop43
 90
        3
102
RTVSPost2010PropOp43
 70
     1
102
RTVSPost2010Prop44ColorIndex
 90
        5
102
RTVSPost2010Prop44ColorRGB
 90
      255
102
RTVSPost2010PropOp44
 70
     1
102
RTVSPost2010Prop45
280
     0
102
RTVSPost2010PropOp45
 70
     1
102
RTVSPost2010Prop46
 90
       50
102
RTVSPost2010PropOp46
 70
     1
102
RTVSPost2010Prop47
 90
       50
102
RTVSPost2010PropOp47
 70
     1
102
RTVSPost2010Prop48
 90
       50
102
RTVSPost2010PropOp48
 70
     1
102
RTVSPost2010Prop49
280
     0
102
RTVSPost2010PropOp49
 70
     1
102
RTVSPost2010Prop50
 90
       50
102
RTVSPost2010PropOp50
 70
     1
102
RTVSPost2010Prop51ColorIndex
 90
      256
102
RTVSPost2010Prop51ColorRGB
 90
-16777216
102
RTVSPost2010PropOp51
 70
     0
102
RTVSPost2010Prop52
140
1.0
102
RTVSPost2010PropOp52
 70
     0
102
RTVSPost2010Prop53
 90
        2
102
RTVSPost2010PropOp53
 70
     1
102
RTVSPost2010Prop54
  1
strokes_ogs.tif
102
RTVSPost2010PropOp54
 70
     1
102
RTVSPost2010Prop55
280
     0
102
RTVSPost2010PropOp55
 70
     1
102
RTVSPost2010Prop56
140
1.0
102
RTVSPost2010PropOp56
 70
     1
102
RTVSPost2010Prop57
140
1.0
102
RTVSPost2010PropOp57
 70
     1
  0
XRECORD
  5
9D
102
{ACAD_REACTORS
330
9C
102
}
330
9C
100
AcDbXrecord
280
     1
102
RTVSPropertyOp0
 70
     1
102
RTVSPropertyOp1
 70
     1
102
RTVSPropertyOp2
 70
     1
102
RTVSPropertyOp3
 70
     1
102
RTVSPropertyOp4
 70
     1
102
RTVSPropertyOp5
 70
     1
102
RTVSPropertyOp6
 70
     1
102
RTVSPropertyOp7
 70
     1
102
RTVSPropertyOp8
 70
     1
102
RTVSPropertyOp9
 70
     1
102
RTVSPropertyOp10
 70
     1
102
RTVSPropertyOp11
 70
     1
102
RTVSPropertyOp12
 70
     1
102
RTVSPropertyOp13
 70
     1
102
RTVSPropertyOp14
 70
     1
102
RTVSPropertyOp15
 70
     1
102
RTVSPropertyOp16
 70
     1
102
RTVSPropertyOp17
 70
     1
102
RTVSPropertyOp18
 70
     1
102
RTVSPropertyOp19
 70
     1
102
RTVSPropertyOp20
 70
     1
102
RTVSPropertyOp21
 70
     1
102
RTVSPropertyOp22
 70
     1
102
RTVSPropertyOp23
 70
     1
102
RTVSPropertyOp24
 70
     1
102
RTVSPropertyOp25
 70
     1
102
RTVSPropertyOp26
 70
     1
102
RTVSPropertyOp27
 70
     1
102
RTVSPropertyOp28
 70
     1
102
RTVSPropertyOp29
 70
     1
102
RTVSPropertyOp30
 70
     1
102
RTVSPropertyOp31
 70
     1
102
RTVSPropertyOp32
 70
     1
102
RTVSPropertyOp33
 70
     1
102
RTVSPropertyOp34
 70
     1
102
RTVSPropertyOp35
 70
     1
102
RTVSPropertyOp36
 70
     1
102
RTVSPropertyOp37
 70
     1
102
RTVSPropertyOp38
 70
     1
102
RTVSPropertyOp39
 70
     1
102
RTVSPropertyOp40
 70
     1
102
RTVSPropertyOp41
 70
     1
102
RTVSPropertyOp42
 70
     1
102
RTVSPropertyOp43
 70
     1
102
RTVSPropertyOp44
 70
     1
102
RTVSPropertyOp45
 70
     1
102
RTVSPropertyOp46
 70
     1
102
RTVSPropertyOp47
 70
     1
102
RTVSPropertyOp48
 70
     1
102
RTVSPropertyOp49
 70
     1
102
RTVSPropertyOp50
 70
     1
102
RTVSPropertyOp51
 70
     0
102
RTVSPropertyOp52
 70
     0
102
RTVSPropertyOp53
 70
     1
102
RTVSPropertyOp54
 70
     1
102
RTVSPropertyOp55
 70
     1
102
RTVSPropertyOp56
 70
     1
102
RTVSPropertyOp57
 70
     1
102
RTVSPost2010Prop28
280
     0
102
RTVSPost2010PropOp28
 70
     1
102
RTVSPost2010Prop29
280
     1
102
RTVSPost2010PropOp29
 70
     1
102
RTVSPost2010Prop30
280
     1
102
RTVSPost2010PropOp30
 70
     1
102
RTVSPost2010Prop31
280
     0
102
RTVSPost2010PropOp31
 70
     1
102
RTVSPost2010Prop32
280
     0
102
RTVSPost2010PropOp32
 70
     1
102
RTVSPost2010Prop33
280
     0
102
RTVSPost2010PropOp33
 70
     1
102
RTVSPost2010Prop34
280
     0
102
RTVSPost2010PropOp34
 70
     1
102
RTVSPost2010Prop35
280
     0
102
RTVSPost2010PropOp35
 70
     1
102
RTVSPost2010Prop36
280
     0
102
RTVSPost2010PropOp36
 70
     1
102
RTVSPost2010Prop37
 90
       50
102
RTVSPost2010PropOp37
 70
     1
102
RTVSPost2010Prop38
140
0.0
102
RTVSPost2010PropOp38
 70
     1
102
RTVSPost2010Prop39
140
1.0
102
RTVSPost2010PropOp39
 70
     1
102
RTVSPost2010Prop40
 90
        0
102
RTVSPost2010PropOp40
 70
     1
102
RTVSPost2010Prop41ColorIndex
 90
       18
102
RTVSPost2010Prop41ColorRGB
 90
        0
102
RTVSPost2010PropOp41
 70
     1
102
RTVSPost2010Prop42
 90
       50
102
RTVSPost2010PropOp42
 70
     1
102
RTVSPost2010Prop43
 90
        3
102
RTVSPost2010PropOp43
 70
     1
102
RTVSPost2010Prop44ColorIndex
 90
        5
102
RTVSPost2010Prop44ColorRGB
 90
      255
102
RTVSPost2010PropOp44
 70
     1
102
RTVSPost2010Prop45
280
     0
102
RTVSPost2010PropOp45
 70
     1
102
RTVSPost2010Prop46
 90
       50
102
RTVSPost2010PropOp46
 70
     1
102
RTVSPost2010Prop47
 90
       50
102
RTVSPost2010PropOp47
 70
     1
102
RTVSPost2010Prop48
 90
       50
102
RTVSPost2010PropOp48
 70
     1
102
RTVSPost2010Prop49
280
     0
102
RTVSPost2010PropOp49
 70
     1
102
RTVSPost2010Prop50
 90
       50
102
RTVSPost2010PropOp50
 70
     1
102
RTVSPost2010Prop51ColorIndex
 90
      256
102
RTVSPost2010Prop51ColorRGB
 90
-16777216
102
RTVSPost2010PropOp51
 70
     0
102
RTVSPost2010Prop52
140
1.0
102
RTVSPost2010PropOp52
 70
     0
102
RTVSPost2010Prop53
 90
        2
102
RTVSPost2010PropOp53
 70
     1
102
RTVSPost2010Prop54
  1
strokes_ogs.tif
102
RTVSPost2010PropOp54
 70
     1
102
RTVSPost2010Prop55
280
     0
102
RTVSPost2010PropOp55
 70
     1
102
RTVSPost2010Prop56
140
1.0
102
RTVSPost2010PropOp56
 70
     1
102
RTVSPost2010Prop57
140
1.0
102
RTVSPost2010PropOp57
 70
     1
  0
XRECORD
  5
B1
102
{ACAD_REACTORS
330
B0
102
}
330
B0
100
AcDbXrecord
280
     1
102
RTVSPropertyOp0
 70
     0
102
RTVSPropertyOp1
 70
     0
102
RTVSPropertyOp2
 70
     0
102
RTVSPropertyOp3
 70
     0
102
RTVSPropertyOp4
 70
     0
102
RTVSPropertyOp5
 70
     0
102
RTVSPropertyOp6
 70
     0
102
RTVSPropertyOp7
 70
     0
102
RTVSPropertyOp8
 70
     0
102
RTVSPropertyOp9
 70
     0
102
RTVSPropertyOp10
 70
     0
102
RTVSPropertyOp11
 70
     0
102
RTVSPropertyOp12
 70
     0
102
RTVSPropertyOp13
 70
     0
102
RTVSPropertyOp14
 70
     2
102
RTVSPropertyOp15
 70
     0
102
RTVSPropertyOp16
 70
     0
102
RTVSPropertyOp17
 70
     0
102
RTVSPropertyOp18
 70
     0
102
RTVSPropertyOp19
 70
     0
102
RTVSPropertyOp20
 70
     0
102
RTVSPropertyOp21
 70
     0
102
RTVSPropertyOp22
 70
     0
102
RTVSPropertyOp23
 70
     0
102
RTVSPropertyOp24
 70
     0
102
RTVSPropertyOp25
 70
     0
102
RTVSPropertyOp26
 70
     0
102
RTVSPropertyOp27
 70
     0
102
RTVSPropertyOp28
 70
     0
102
RTVSPropertyOp29
 70
     0
102
RTVSPropertyOp30
 70
     0
102
RTVSPropertyOp31
 70
     0
102
RTVSPropertyOp32
 70
     0
102
RTVSPropertyOp33
 70
     0
102
RTVSPropertyOp34
 70
     0
102
RTVSPropertyOp35
 70
     0
102
RTVSPropertyOp36
 70
     0
102
RTVSPropertyOp37
 70
     0
102
RTVSPropertyOp38
 70
     0
102
RTVSPropertyOp39
 70
     0
102
RTVSPropertyOp40
 70
     0
102
RTVSPropertyOp41
 70
     0
102
RTVSPropertyOp42
 70
     0
102
RTVSPropertyOp43
 70
     0
102
RTVSPropertyOp44
 70
     0
102
RTVSPropertyOp45
 70
     0
102
RTVSPropertyOp46
 70
     0
102
RTVSPropertyOp47
 70
     0
102
RTVSPropertyOp48
 70
     0
102
RTVSPropertyOp49
 70
     0
102
RTVSPropertyOp50
 70
     0
102
RTVSPropertyOp51
 70
     0
102
RTVSPropertyOp52
 70
     0
102
RTVSPropertyOp53
 70
     0
102
RTVSPropertyOp54
 70
     0
102
RTVSPropertyOp55
 70
     0
102
RTVSPropertyOp56
 70
     0
102
RTVSPropertyOp57
 70
     0
102
RTVSPost2010Prop28
280
     0
102
RTVSPost2010PropOp28
 70
     0
102
RTVSPost2010Prop29
280
     1
102
RTVSPost2010PropOp29
 70
     0
102
RTVSPost2010Prop30
280
     1
102
RTVSPost2010PropOp30
 70
     0
102
RTVSPost2010Prop31
280
     0
102
RTVSPost2010PropOp31
 70
     0
102
RTVSPost2010Prop32
280
     0
102
RTVSPost2010PropOp32
 70
     0
102
RTVSPost2010Prop33
280
     0
102
RTVSPost2010PropOp33
 70
     0
102
RTVSPost2010Prop34
280
     0
102
RTVSPost2010PropOp34
 70
     0
102
RTVSPost2010Prop35
280
     0
102
RTVSPost2010PropOp35
 70
     0
102
RTVSPost2010Prop36
280
     0
102
RTVSPost2010PropOp36
 70
     0
102
RTVSPost2010Prop37
 90
       50
102
RTVSPost2010PropOp37
 70
     0
102
RTVSPost2010Prop38
140
0.0
102
RTVSPost2010PropOp38
 70
     0
102
RTVSPost2010Prop39
140
1.0
102
RTVSPost2010PropOp39
 70
     0
102
RTVSPost2010Prop40
 90
        0
102
RTVSPost2010PropOp40
 70
     0
102
RTVSPost2010Prop41ColorIndex
 90
       18
102
RTVSPost2010Prop41ColorRGB
 90
        0
102
RTVSPost2010PropOp41
 70
     0
102
RTVSPost2010Prop42
 90
       50
102
RTVSPost2010PropOp42
 70
     0
102
RTVSPost2010Prop43
 90
        3
102
RTVSPost2010PropOp43
 70
     0
102
RTVSPost2010Prop44ColorIndex
 90
        5
102
RTVSPost2010Prop44ColorRGB
 90
      255
102
RTVSPost2010PropOp44
 70
     0
102
RTVSPost2010Prop45
280
     0
102
RTVSPost2010PropOp45
 70
     0
102
RTVSPost2010Prop46
 90
       50
102
RTVSPost2010PropOp46
 70
     0
102
RTVSPost2010Prop47
 90
       50
102
RTVSPost2010PropOp47
 70
     0
102
RTVSPost2010Prop48
 90
       50
102
RTVSPost2010PropOp48
 70
     0
102
RTVSPost2010Prop49
280
     0
102
RTVSPost2010PropOp49
 70
     0
102
RTVSPost2010Prop50
 90
       50
102
RTVSPost2010PropOp50
 70
     0
102
RTVSPost2010Prop51ColorIndex
 90
      256
102
RTVSPost2010Prop51ColorRGB
 90
-16777216
102
RTVSPost2010PropOp51
 70
     0
102
RTVSPost2010Prop52
140
1.0
102
RTVSPost2010PropOp52
 70
     0
102
RTVSPost2010Prop53
 90
        2
102
RTVSPost2010PropOp53
 70
     0
102
RTVSPost2010Prop54
  1
strokes_ogs.tif
102
RTVSPost2010PropOp54
 70
     0
102
RTVSPost2010Prop55
280
     0
102
RTVSPost2010PropOp55
 70
     0
102
RTVSPost2010Prop56
140
1.0
102
RTVSPost2010PropOp56
 70
     0
102
RTVSPost2010Prop57
140
1.0
102
RTVSPost2010PropOp57
 70
     0
  0
XRECORD
  5
AB
102
{ACAD_REACTORS
330
AA
102
}
330
AA
100
AcDbXrecord
280
     1
102
RTVSPropertyOp0
 70
     1
102
RTVSPropertyOp1
 70
     1
102
RTVSPropertyOp2
 70
     1
102
RTVSPropertyOp3
 70
     1
102
RTVSPropertyOp4
 70
     1
102
RTVSPropertyOp5
 70
     1
102
RTVSPropertyOp6
 70
     1
102
RTVSPropertyOp7
 70
     1
102
RTVSPropertyOp8
 70
     1
102
RTVSPropertyOp9
 70
     1
102
RTVSPropertyOp10
 70
     1
102
RTVSPropertyOp11
 70
     1
102
RTVSPropertyOp12
 70
     1
102
RTVSPropertyOp13
 70
     1
102
RTVSPropertyOp14
 70
     1
102
RTVSPropertyOp15
 70
     1
102
RTVSPropertyOp16
 70
     1
102
RTVSPropertyOp17
 70
     1
102
RTVSPropertyOp18
 70
     1
102
RTVSPropertyOp19
 70
     1
102
RTVSPropertyOp20
 70
     1
102
RTVSPropertyOp21
 70
     1
102
RTVSPropertyOp22
 70
     1
102
RTVSPropertyOp23
 70
     1
102
RTVSPropertyOp24
 70
     1
102
RTVSPropertyOp25
 70
     1
102
RTVSPropertyOp26
 70
     1
102
RTVSPropertyOp27
 70
     1
102
RTVSPropertyOp28
 70
     1
102
RTVSPropertyOp29
 70
     1
102
RTVSPropertyOp30
 70
     1
102
RTVSPropertyOp31
 70
     1
102
RTVSPropertyOp32
 70
     1
102
RTVSPropertyOp33
 70
     1
102
RTVSPropertyOp34
 70
     1
102
RTVSPropertyOp35
 70
     1
102
RTVSPropertyOp36
 70
     1
102
RTVSPropertyOp37
 70
     1
102
RTVSPropertyOp38
 70
     1
102
RTVSPropertyOp39
 70
     1
102
RTVSPropertyOp40
 70
     1
102
RTVSPropertyOp41
 70
     1
102
RTVSPropertyOp42
 70
     1
102
RTVSPropertyOp43
 70
     1
102
RTVSPropertyOp44
 70
     1
102
RTVSPropertyOp45
 70
     1
102
RTVSPropertyOp46
 70
     1
102
RTVSPropertyOp47
 70
     1
102
RTVSPropertyOp48
 70
     1
102
RTVSPropertyOp49
 70
     1
102
RTVSPropertyOp50
 70
     1
102
RTVSPropertyOp51
 70
     0
102
RTVSPropertyOp52
 70
     0
102
RTVSPropertyOp53
 70
     1
102
RTVSPropertyOp54
 70
     1
102
RTVSPropertyOp55
 70
     1
102
RTVSPropertyOp56
 70
     1
102
RTVSPropertyOp57
 70
     1
102
RTVSPost2010Prop28
280
     0
102
RTVSPost2010PropOp28
 70
     1
102
RTVSPost2010Prop29
280
     1
102
RTVSPost2010PropOp29
 70
     1
102
RTVSPost2010Prop30
280
     1
102
RTVSPost2010PropOp30
 70
     1
102
RTVSPost2010Prop31
280
     0
102
RTVSPost2010PropOp31
 70
     1
102
RTVSPost2010Prop32
280
     0
102
RTVSPost2010PropOp32
 70
     1
102
RTVSPost2010Prop33
280
     0
102
RTVSPost2010PropOp33
 70
     1
102
RTVSPost2010Prop34
280
     0
102
RTVSPost2010PropOp34
 70
     1
102
RTVSPost2010Prop35
280
     0
102
RTVSPost2010PropOp35
 70
     1
102
RTVSPost2010Prop36
280
     0
102
RTVSPost2010PropOp36
 70
     1
102
RTVSPost2010Prop37
 90
       50
102
RTVSPost2010PropOp37
 70
     1
102
RTVSPost2010Prop38
140
0.0
102
RTVSPost2010PropOp38
 70
     1
102
RTVSPost2010Prop39
140
1.0
102
RTVSPost2010PropOp39
 70
     1
102
RTVSPost2010Prop40
 90
        0
102
RTVSPost2010PropOp40
 70
     1
102
RTVSPost2010Prop41ColorIndex
 90
       18
102
RTVSPost2010Prop41ColorRGB
 90
        0
102
RTVSPost2010PropOp41
 70
     1
102
RTVSPost2010Prop42
 90
       50
102
RTVSPost2010PropOp42
 70
     1
102
RTVSPost2010Prop43
 90
        3
102
RTVSPost2010PropOp43
 70
     1
102
RTVSPost2010Prop44ColorIndex
 90
        5
102
RTVSPost2010Prop44ColorRGB
 90
      255
102
RTVSPost2010PropOp44
 70
     1
102
RTVSPost2010Prop45
280
     0
102
RTVSPost2010PropOp45
 70
     1
102
RTVSPost2010Prop46
 90
       50
102
RTVSPost2010PropOp46
 70
     1
102
RTVSPost2010Prop47
 90
       50
102
RTVSPost2010PropOp47
 70
     1
102
RTVSPost2010Prop48
 90
       50
102
RTVSPost2010PropOp48
 70
     1
102
RTVSPost2010Prop49
280
     0
102
RTVSPost2010PropOp49
 70
     1
102
RTVSPost2010Prop50
 90
       50
102
RTVSPost2010PropOp50
 70
     1
102
RTVSPost2010Prop51ColorIndex
 90
      256
102
RTVSPost2010Prop51ColorRGB
 90
-16777216
102
RTVSPost2010PropOp51
 70
     0
102
RTVSPost2010Prop52
140
1.0
102
RTVSPost2010PropOp52
 70
     0
102
RTVSPost2010Prop53
 90
        2
102
RTVSPost2010PropOp53
 70
     1
102
RTVSPost2010Prop54
  1
strokes_ogs.tif
102
RTVSPost2010PropOp54
 70
     1
102
RTVSPost2010Prop55
280
     0
102
RTVSPost2010PropOp55
 70
     1
102
RTVSPost2010Prop56
140
1.0
102
RTVSPost2010PropOp56
 70
     1
102
RTVSPost2010Prop57
140
1.0
102
RTVSPost2010PropOp57
 70
     1
  0
XRECORD
  5
B3
102
{ACAD_REACTORS
330
B2
102
}
330
B2
100
AcDbXrecord
280
     1
102
RTVSPropertyOp0
 70
     0
102
RTVSPropertyOp1
 70
     0
102
RTVSPropertyOp2
 70
     0
102
RTVSPropertyOp3
 70
     0
102
RTVSPropertyOp4
 70
     0
102
RTVSPropertyOp5
 70
     0
102
RTVSPropertyOp6
 70
     0
102
RTVSPropertyOp7
 70
     0
102
RTVSPropertyOp8
 70
     0
102
RTVSPropertyOp9
 70
     0
102
RTVSPropertyOp10
 70
     0
102
RTVSPropertyOp11
 70
     0
102
RTVSPropertyOp12
 70
     0
102
RTVSPropertyOp13
 70
     0
102
RTVSPropertyOp14
 70
     2
102
RTVSPropertyOp15
 70
     0
102
RTVSPropertyOp16
 70
     0
102
RTVSPropertyOp17
 70
     0
102
RTVSPropertyOp18
 70
     0
102
RTVSPropertyOp19
 70
     0
102
RTVSPropertyOp20
 70
     0
102
RTVSPropertyOp21
 70
     0
102
RTVSPropertyOp22
 70
     0
102
RTVSPropertyOp23
 70
     0
102
RTVSPropertyOp24
 70
     0
102
RTVSPropertyOp25
 70
     0
102
RTVSPropertyOp26
 70
     0
102
RTVSPropertyOp27
 70
     0
102
RTVSPropertyOp28
 70
     0
102
RTVSPropertyOp29
 70
     0
102
RTVSPropertyOp30
 70
     0
102
RTVSPropertyOp31
 70
     0
102
RTVSPropertyOp32
 70
     0
102
RTVSPropertyOp33
 70
     0
102
RTVSPropertyOp34
 70
     0
102
RTVSPropertyOp35
 70
     0
102
RTVSPropertyOp36
 70
     0
102
RTVSPropertyOp37
 70
     0
102
RTVSPropertyOp38
 70
     0
102
RTVSPropertyOp39
 70
     0
102
RTVSPropertyOp40
 70
     0
102
RTVSPropertyOp41
 70
     0
102
RTVSPropertyOp42
 70
     0
102
RTVSPropertyOp43
 70
     0
102
RTVSPropertyOp44
 70
     0
102
RTVSPropertyOp45
 70
     0
102
RTVSPropertyOp46
 70
     0
102
RTVSPropertyOp47
 70
     0
102
RTVSPropertyOp48
 70
     0
102
RTVSPropertyOp49
 70
     0
102
RTVSPropertyOp50
 70
     0
102
RTVSPropertyOp51
 70
     0
102
RTVSPropertyOp52
 70
     0
102
RTVSPropertyOp53
 70
     0
102
RTVSPropertyOp54
 70
     0
102
RTVSPropertyOp55
 70
     0
102
RTVSPropertyOp56
 70
     0
102
RTVSPropertyOp57
 70
     0
102
RTVSPost2010Prop28
280
     0
102
RTVSPost2010PropOp28
 70
     0
102
RTVSPost2010Prop29
280
     1
102
RTVSPost2010PropOp29
 70
     0
102
RTVSPost2010Prop30
280
     1
102
RTVSPost2010PropOp30
 70
     0
102
RTVSPost2010Prop31
280
     0
102
RTVSPost2010PropOp31
 70
     0
102
RTVSPost2010Prop32
280
     0
102
RTVSPost2010PropOp32
 70
     0
102
RTVSPost2010Prop33
280
     0
102
RTVSPost2010PropOp33
 70
     0
102
RTVSPost2010Prop34
280
     0
102
RTVSPost2010PropOp34
 70
     0
102
RTVSPost2010Prop35
280
     0
102
RTVSPost2010PropOp35
 70
     0
102
RTVSPost2010Prop36
280
     0
102
RTVSPost2010PropOp36
 70
     0
102
RTVSPost2010Prop37
 90
       50
102
RTVSPost2010PropOp37
 70
     0
102
RTVSPost2010Prop38
140
0.0
102
RTVSPost2010PropOp38
 70
     0
102
RTVSPost2010Prop39
140
1.0
102
RTVSPost2010PropOp39
 70
     0
102
RTVSPost2010Prop40
 90
        0
102
RTVSPost2010PropOp40
 70
     0
102
RTVSPost2010Prop41ColorIndex
 90
       18
102
RTVSPost2010Prop41ColorRGB
 90
        0
102
RTVSPost2010PropOp41
 70
     0
102
RTVSPost2010Prop42
 90
       50
102
RTVSPost2010PropOp42
 70
     0
102
RTVSPost2010Prop43
 90
        3
102
RTVSPost2010PropOp43
 70
     0
102
RTVSPost2010Prop44ColorIndex
 90
        5
102
RTVSPost2010Prop44ColorRGB
 90
      255
102
RTVSPost2010PropOp44
 70
     0
102
RTVSPost2010Prop45
280
     0
102
RTVSPost2010PropOp45
 70
     0
102
RTVSPost2010Prop46
 90
       50
102
RTVSPost2010PropOp46
 70
     0
102
RTVSPost2010Prop47
 90
       50
102
RTVSPost2010PropOp47
 70
     0
102
RTVSPost2010Prop48
 90
       50
102
RTVSPost2010PropOp48
 70
     0
102
RTVSPost2010Prop49
280
     0
102
RTVSPost2010PropOp49
 70
     0
102
RTVSPost2010Prop50
 90
       50
102
RTVSPost2010PropOp50
 70
     0
102
RTVSPost2010Prop51ColorIndex
 90
      256
102
RTVSPost2010Prop51ColorRGB
 90
-16777216
102
RTVSPost2010PropOp51
 70
     0
102
RTVSPost2010Prop52
140
1.0
102
RTVSPost2010PropOp52
 70
     0
102
RTVSPost2010Prop53
 90
        2
102
RTVSPost2010PropOp53
 70
     0
102
RTVSPost2010Prop54
  1
strokes_ogs.tif
102
RTVSPost2010PropOp54
 70
     0
102
RTVSPost2010Prop55
280
     0
102
RTVSPost2010PropOp55
 70
     0
102
RTVSPost2010Prop56
140
1.0
102
RTVSPost2010PropOp56
 70
     0
102
RTVSPost2010Prop57
140
1.0
102
RTVSPost2010PropOp57
 70
     0
  0
XRECORD
  5
A1
102
{ACAD_REACTORS
330
A0
102
}
330
A0
100
AcDbXrecord
280
     1
102
RTVSPropertyOp0
 70
     1
102
RTVSPropertyOp1
 70
     1
102
RTVSPropertyOp2
 70
     1
102
RTVSPropertyOp3
 70
     1
102
RTVSPropertyOp4
 70
     1
102
RTVSPropertyOp5
 70
     1
102
RTVSPropertyOp6
 70
     1
102
RTVSPropertyOp7
 70
     1
102
RTVSPropertyOp8
 70
     1
102
RTVSPropertyOp9
 70
     1
102
RTVSPropertyOp10
 70
     1
102
RTVSPropertyOp11
 70
     1
102
RTVSPropertyOp12
 70
     1
102
RTVSPropertyOp13
 70
     1
102
RTVSPropertyOp14
 70
     1
102
RTVSPropertyOp15
 70
     1
102
RTVSPropertyOp16
 70
     1
102
RTVSPropertyOp17
 70
     1
102
RTVSPropertyOp18
 70
     1
102
RTVSPropertyOp19
 70
     1
102
RTVSPropertyOp20
 70
     1
102
RTVSPropertyOp21
 70
     1
102
RTVSPropertyOp22
 70
     1
102
RTVSPropertyOp23
 70
     1
102
RTVSPropertyOp24
 70
     1
102
RTVSPropertyOp25
 70
     1
102
RTVSPropertyOp26
 70
     1
102
RTVSPropertyOp27
 70
     1
102
RTVSPropertyOp28
 70
     1
102
RTVSPropertyOp29
 70
     1
102
RTVSPropertyOp30
 70
     1
102
RTVSPropertyOp31
 70
     1
102
RTVSPropertyOp32
 70
     1
102
RTVSPropertyOp33
 70
     1
102
RTVSPropertyOp34
 70
     1
102
RTVSPropertyOp35
 70
     1
102
RTVSPropertyOp36
 70
     1
102
RTVSPropertyOp37
 70
     1
102
RTVSPropertyOp38
 70
     1
102
RTVSPropertyOp39
 70
     1
102
RTVSPropertyOp40
 70
     1
102
RTVSPropertyOp41
 70
     1
102
RTVSPropertyOp42
 70
     1
102
RTVSPropertyOp43
 70
     1
102
RTVSPropertyOp44
 70
     1
102
RTVSPropertyOp45
 70
     1
102
RTVSPropertyOp46
 70
     1
102
RTVSPropertyOp47
 70
     1
102
RTVSPropertyOp48
 70
     1
102
RTVSPropertyOp49
 70
     1
102
RTVSPropertyOp50
 70
     1
102
RTVSPropertyOp51
 70
     0
102
RTVSPropertyOp52
 70
     0
102
RTVSPropertyOp53
 70
     1
102
RTVSPropertyOp54
 70
     1
102
RTVSPropertyOp55
 70
     1
102
RTVSPropertyOp56
 70
     1
102
RTVSPropertyOp57
 70
     1
102
RTVSPost2010Prop28
280
     0
102
RTVSPost2010PropOp28
 70
     1
102
RTVSPost2010Prop29
280
     1
102
RTVSPost2010PropOp29
 70
     1
102
RTVSPost2010Prop30
280
     1
102
RTVSPost2010PropOp30
 70
     1
102
RTVSPost2010Prop31
280
     0
102
RTVSPost2010PropOp31
 70
     1
102
RTVSPost2010Prop32
280
     0
102
RTVSPost2010PropOp32
 70
     1
102
RTVSPost2010Prop33
280
     0
102
RTVSPost2010PropOp33
 70
     1
102
RTVSPost2010Prop34
280
     0
102
RTVSPost2010PropOp34
 70
     1
102
RTVSPost2010Prop35
280
     0
102
RTVSPost2010PropOp35
 70
     1
102
RTVSPost2010Prop36
280
     0
102
RTVSPost2010PropOp36
 70
     1
102
RTVSPost2010Prop37
 90
       50
102
RTVSPost2010PropOp37
 70
     1
102
RTVSPost2010Prop38
140
0.0
102
RTVSPost2010PropOp38
 70
     1
102
RTVSPost2010Prop39
140
1.0
102
RTVSPost2010PropOp39
 70
     1
102
RTVSPost2010Prop40
 90
        0
102
RTVSPost2010PropOp40
 70
     1
102
RTVSPost2010Prop41ColorIndex
 90
       18
102
RTVSPost2010Prop41ColorRGB
 90
        0
102
RTVSPost2010PropOp41
 70
     1
102
RTVSPost2010Prop42
 90
       50
102
RTVSPost2010PropOp42
 70
     1
102
RTVSPost2010Prop43
 90
        3
102
RTVSPost2010PropOp43
 70
     1
102
RTVSPost2010Prop44ColorIndex
 90
        5
102
RTVSPost2010Prop44ColorRGB
 90
      255
102
RTVSPost2010PropOp44
 70
     1
102
RTVSPost2010Prop45
280
     0
102
RTVSPost2010PropOp45
 70
     1
102
RTVSPost2010Prop46
 90
       50
102
RTVSPost2010PropOp46
 70
     1
102
RTVSPost2010Prop47
 90
       50
102
RTVSPost2010PropOp47
 70
     1
102
RTVSPost2010Prop48
 90
       50
102
RTVSPost2010PropOp48
 70
     1
102
RTVSPost2010Prop49
280
     0
102
RTVSPost2010PropOp49
 70
     1
102
RTVSPost2010Prop50
 90
       50
102
RTVSPost2010PropOp50
 70
     1
102
RTVSPost2010Prop51ColorIndex
 90
      256
102
RTVSPost2010Prop51ColorRGB
 90
-16777216
102
RTVSPost2010PropOp51
 70
     0
102
RTVSPost2010Prop52
140
1.0
102
RTVSPost2010PropOp52
 70
     0
102
RTVSPost2010Prop53
 90
        2
102
RTVSPost2010PropOp53
 70
     1
102
RTVSPost2010Prop54
  1
strokes_ogs.tif
102
RTVSPost2010PropOp54
 70
     1
102
RTVSPost2010Prop55
280
     0
102
RTVSPost2010PropOp55
 70
     1
102
RTVSPost2010Prop56
140
1.0
102
RTVSPost2010PropOp56
 70
     1
102
RTVSPost2010Prop57
140
1.0
102
RTVSPost2010PropOp57
 70
     1
  0
XRECORD
  5
BF
102
{ACAD_REACTORS
330
BE
102
}
330
BE
100
AcDbXrecord
280
     1
102
RTVSPropertyOp0
 70
     1
102
RTVSPropertyOp1
 70
     1
102
RTVSPropertyOp2
 70
     1
102
RTVSPropertyOp3
 70
     1
102
RTVSPropertyOp4
 70
     1
102
RTVSPropertyOp5
 70
     1
102
RTVSPropertyOp6
 70
     1
102
RTVSPropertyOp7
 70
     1
102
RTVSPropertyOp8
 70
     1
102
RTVSPropertyOp9
 70
     1
102
RTVSPropertyOp10
 70
     1
102
RTVSPropertyOp11
 70
     1
102
RTVSPropertyOp12
 70
     1
102
RTVSPropertyOp13
 70
     1
102
RTVSPropertyOp14
 70
     1
102
RTVSPropertyOp15
 70
     1
102
RTVSPropertyOp16
 70
     1
102
RTVSPropertyOp17
 70
     1
102
RTVSPropertyOp18
 70
     1
102
RTVSPropertyOp19
 70
     1
102
RTVSPropertyOp20
 70
     1
102
RTVSPropertyOp21
 70
     1
102
RTVSPropertyOp22
 70
     1
102
RTVSPropertyOp23
 70
     1
102
RTVSPropertyOp24
 70
     1
102
RTVSPropertyOp25
 70
     1
102
RTVSPropertyOp26
 70
     1
102
RTVSPropertyOp27
 70
     1
102
RTVSPropertyOp28
 70
     1
102
RTVSPropertyOp29
 70
     1
102
RTVSPropertyOp30
 70
     1
102
RTVSPropertyOp31
 70
     1
102
RTVSPropertyOp32
 70
     1
102
RTVSPropertyOp33
 70
     1
102
RTVSPropertyOp34
 70
     1
102
RTVSPropertyOp35
 70
     1
102
RTVSPropertyOp36
 70
     1
102
RTVSPropertyOp37
 70
     1
102
RTVSPropertyOp38
 70
     1
102
RTVSPropertyOp39
 70
     1
102
RTVSPropertyOp40
 70
     1
102
RTVSPropertyOp41
 70
     1
102
RTVSPropertyOp42
 70
     1
102
RTVSPropertyOp43
 70
     1
102
RTVSPropertyOp44
 70
     1
102
RTVSPropertyOp45
 70
     1
102
RTVSPropertyOp46
 70
     1
102
RTVSPropertyOp47
 70
     1
102
RTVSPropertyOp48
 70
     1
102
RTVSPropertyOp49
 70
     1
102
RTVSPropertyOp50
 70
     1
102
RTVSPropertyOp51
 70
     0
102
RTVSPropertyOp52
 70
     0
102
RTVSPropertyOp53
 70
     1
102
RTVSPropertyOp54
 70
     1
102
RTVSPropertyOp55
 70
     1
102
RTVSPropertyOp56
 70
     1
102
RTVSPropertyOp57
 70
     1
102
RTVSPost2010Prop28
280
     0
102
RTVSPost2010PropOp28
 70
     1
102
RTVSPost2010Prop29
280
     1
102
RTVSPost2010PropOp29
 70
     1
102
RTVSPost2010Prop30
280
     1
102
RTVSPost2010PropOp30
 70
     1
102
RTVSPost2010Prop31
280
     0
102
RTVSPost2010PropOp31
 70
     1
102
RTVSPost2010Prop32
280
     0
102
RTVSPost2010PropOp32
 70
     1
102
RTVSPost2010Prop33
280
     0
102
RTVSPost2010PropOp33
 70
     1
102
RTVSPost2010Prop34
280
     0
102
RTVSPost2010PropOp34
 70
     1
102
RTVSPost2010Prop35
280
     0
102
RTVSPost2010PropOp35
 70
     1
102
RTVSPost2010Prop36
280
     0
102
RTVSPost2010PropOp36
 70
     1
102
RTVSPost2010Prop37
 90
       50
102
RTVSPost2010PropOp37
 70
     1
102
RTVSPost2010Prop38
140
0.0
102
RTVSPost2010PropOp38
 70
     1
102
RTVSPost2010Prop39
140
1.0
102
RTVSPost2010PropOp39
 70
     1
102
RTVSPost2010Prop40
 90
        0
102
RTVSPost2010PropOp40
 70
     1
102
RTVSPost2010Prop41ColorIndex
 90
       18
102
RTVSPost2010Prop41ColorRGB
 90
        0
102
RTVSPost2010PropOp41
 70
     1
102
RTVSPost2010Prop42
 90
       50
102
RTVSPost2010PropOp42
 70
     1
102
RTVSPost2010Prop43
 90
        3
102
RTVSPost2010PropOp43
 70
     1
102
RTVSPost2010Prop44ColorIndex
 90
        5
102
RTVSPost2010Prop44ColorRGB
 90
      255
102
RTVSPost2010PropOp44
 70
     1
102
RTVSPost2010Prop45
280
     0
102
RTVSPost2010PropOp45
 70
     1
102
RTVSPost2010Prop46
 90
       50
102
RTVSPost2010PropOp46
 70
     1
102
RTVSPost2010Prop47
 90
       50
102
RTVSPost2010PropOp47
 70
     1
102
RTVSPost2010Prop48
 90
       50
102
RTVSPost2010PropOp48
 70
     1
102
RTVSPost2010Prop49
280
     0
102
RTVSPost2010PropOp49
 70
     1
102
RTVSPost2010Prop50
 90
       50
102
RTVSPost2010PropOp50
 70
     1
102
RTVSPost2010Prop51ColorIndex
 90
      256
102
RTVSPost2010Prop51ColorRGB
 90
-16777216
102
RTVSPost2010PropOp51
 70
     0
102
RTVSPost2010Prop52
140
1.0
102
RTVSPost2010PropOp52
 70
     0
102
RTVSPost2010Prop53
 90
        2
102
RTVSPost2010PropOp53
 70
     1
102
RTVSPost2010Prop54
  1
strokes_ogs.tif
102
RTVSPost2010PropOp54
 70
     1
102
RTVSPost2010Prop55
280
     0
102
RTVSPost2010PropOp55
 70
     1
102
RTVSPost2010Prop56
140
1.0
102
RTVSPost2010PropOp56
 70
     1
102
RTVSPost2010Prop57
140
1.0
102
RTVSPost2010PropOp57
 70
     1
  0
XRECORD
  5
BD
102
{ACAD_REACTORS
330
BC
102
}
330
BC
100
AcDbXrecord
280
     1
102
RTVSPropertyOp0
 70
     1
102
RTVSPropertyOp1
 70
     1
102
RTVSPropertyOp2
 70
     1
102
RTVSPropertyOp3
 70
     1
102
RTVSPropertyOp4
 70
     1
102
RTVSPropertyOp5
 70
     1
102
RTVSPropertyOp6
 70
     1
102
RTVSPropertyOp7
 70
     1
102
RTVSPropertyOp8
 70
     1
102
RTVSPropertyOp9
 70
     1
102
RTVSPropertyOp10
 70
     1
102
RTVSPropertyOp11
 70
     1
102
RTVSPropertyOp12
 70
     1
102
RTVSPropertyOp13
 70
     1
102
RTVSPropertyOp14
 70
     1
102
RTVSPropertyOp15
 70
     1
102
RTVSPropertyOp16
 70
     1
102
RTVSPropertyOp17
 70
     1
102
RTVSPropertyOp18
 70
     1
102
RTVSPropertyOp19
 70
     1
102
RTVSPropertyOp20
 70
     1
102
RTVSPropertyOp21
 70
     1
102
RTVSPropertyOp22
 70
     1
102
RTVSPropertyOp23
 70
     1
102
RTVSPropertyOp24
 70
     1
102
RTVSPropertyOp25
 70
     1
102
RTVSPropertyOp26
 70
     1
102
RTVSPropertyOp27
 70
     1
102
RTVSPropertyOp28
 70
     1
102
RTVSPropertyOp29
 70
     1
102
RTVSPropertyOp30
 70
     1
102
RTVSPropertyOp31
 70
     1
102
RTVSPropertyOp32
 70
     1
102
RTVSPropertyOp33
 70
     1
102
RTVSPropertyOp34
 70
     1
102
RTVSPropertyOp35
 70
     1
102
RTVSPropertyOp36
 70
     1
102
RTVSPropertyOp37
 70
     1
102
RTVSPropertyOp38
 70
     1
102
RTVSPropertyOp39
 70
     1
102
RTVSPropertyOp40
 70
     1
102
RTVSPropertyOp41
 70
     1
102
RTVSPropertyOp42
 70
     1
102
RTVSPropertyOp43
 70
     1
102
RTVSPropertyOp44
 70
     1
102
RTVSPropertyOp45
 70
     1
102
RTVSPropertyOp46
 70
     1
102
RTVSPropertyOp47
 70
     1
102
RTVSPropertyOp48
 70
     1
102
RTVSPropertyOp49
 70
     1
102
RTVSPropertyOp50
 70
     1
102
RTVSPropertyOp51
 70
     0
102
RTVSPropertyOp52
 70
     0
102
RTVSPropertyOp53
 70
     1
102
RTVSPropertyOp54
 70
     1
102
RTVSPropertyOp55
 70
     1
102
RTVSPropertyOp56
 70
     1
102
RTVSPropertyOp57
 70
     1
102
RTVSPost2010Prop28
280
     0
102
RTVSPost2010PropOp28
 70
     1
102
RTVSPost2010Prop29
280
     1
102
RTVSPost2010PropOp29
 70
     1
102
RTVSPost2010Prop30
280
     1
102
RTVSPost2010PropOp30
 70
     1
102
RTVSPost2010Prop31
280
     0
102
RTVSPost2010PropOp31
 70
     1
102
RTVSPost2010Prop32
280
     0
102
RTVSPost2010PropOp32
 70
     1
102
RTVSPost2010Prop33
280
     0
102
RTVSPost2010PropOp33
 70
     1
102
RTVSPost2010Prop34
280
     0
102
RTVSPost2010PropOp34
 70
     1
102
RTVSPost2010Prop35
280
     0
102
RTVSPost2010PropOp35
 70
     1
102
RTVSPost2010Prop36
280
     0
102
RTVSPost2010PropOp36
 70
     1
102
RTVSPost2010Prop37
 90
       50
102
RTVSPost2010PropOp37
 70
     1
102
RTVSPost2010Prop38
140
0.0
102
RTVSPost2010PropOp38
 70
     1
102
RTVSPost2010Prop39
140
1.0
102
RTVSPost2010PropOp39
 70
     1
102
RTVSPost2010Prop40
 90
        0
102
RTVSPost2010PropOp40
 70
     1
102
RTVSPost2010Prop41ColorIndex
 90
       18
102
RTVSPost2010Prop41ColorRGB
 90
        0
102
RTVSPost2010PropOp41
 70
     1
102
RTVSPost2010Prop42
 90
       50
102
RTVSPost2010PropOp42
 70
     1
102
RTVSPost2010Prop43
 90
        3
102
RTVSPost2010PropOp43
 70
     1
102
RTVSPost2010Prop44ColorIndex
 90
        5
102
RTVSPost2010Prop44ColorRGB
 90
      255
102
RTVSPost2010PropOp44
 70
     1
102
RTVSPost2010Prop45
280
     0
102
RTVSPost2010PropOp45
 70
     1
102
RTVSPost2010Prop46
 90
       50
102
RTVSPost2010PropOp46
 70
     1
102
RTVSPost2010Prop47
 90
       50
102
RTVSPost2010PropOp47
 70
     1
102
RTVSPost2010Prop48
 90
       50
102
RTVSPost2010PropOp48
 70
     1
102
RTVSPost2010Prop49
280
     0
102
RTVSPost2010PropOp49
 70
     1
102
RTVSPost2010Prop50
 90
       50
102
RTVSPost2010PropOp50
 70
     1
102
RTVSPost2010Prop51ColorIndex
 90
      256
102
RTVSPost2010Prop51ColorRGB
 90
-16777216
102
RTVSPost2010PropOp51
 70
     0
102
RTVSPost2010Prop52
140
1.0
102
RTVSPost2010PropOp52
 70
     0
102
RTVSPost2010Prop53
 90
        2
102
RTVSPost2010PropOp53
 70
     1
102
RTVSPost2010Prop54
  1
strokes_ogs.tif
102
RTVSPost2010PropOp54
 70
     1
102
RTVSPost2010Prop55
280
     0
102
RTVSPost2010PropOp55
 70
     1
102
RTVSPost2010Prop56
140
1.0
102
RTVSPost2010PropOp56
 70
     1
102
RTVSPost2010Prop57
140
1.0
102
RTVSPost2010PropOp57
 70
     1
  0
XRECORD
  5
B7
102
{ACAD_REACTORS
330
B6
102
}
330
B6
100
AcDbXrecord
280
     1
102
RTVSPropertyOp0
 70
     1
102
RTVSPropertyOp1
 70
     1
102
RTVSPropertyOp2
 70
     1
102
RTVSPropertyOp3
 70
     1
102
RTVSPropertyOp4
 70
     1
102
RTVSPropertyOp5
 70
     1
102
RTVSPropertyOp6
 70
     1
102
RTVSPropertyOp7
 70
     1
102
RTVSPropertyOp8
 70
     1
102
RTVSPropertyOp9
 70
     1
102
RTVSPropertyOp10
 70
     1
102
RTVSPropertyOp11
 70
     1
102
RTVSPropertyOp12
 70
     1
102
RTVSPropertyOp13
 70
     1
102
RTVSPropertyOp14
 70
     1
102
RTVSPropertyOp15
 70
     1
102
RTVSPropertyOp16
 70
     1
102
RTVSPropertyOp17
 70
     1
102
RTVSPropertyOp18
 70
     1
102
RTVSPropertyOp19
 70
     1
102
RTVSPropertyOp20
 70
     1
102
RTVSPropertyOp21
 70
     1
102
RTVSPropertyOp22
 70
     1
102
RTVSPropertyOp23
 70
     1
102
RTVSPropertyOp24
 70
     1
102
RTVSPropertyOp25
 70
     1
102
RTVSPropertyOp26
 70
     1
102
RTVSPropertyOp27
 70
     1
102
RTVSPropertyOp28
 70
     1
102
RTVSPropertyOp29
 70
     1
102
RTVSPropertyOp30
 70
     1
102
RTVSPropertyOp31
 70
     1
102
RTVSPropertyOp32
 70
     1
102
RTVSPropertyOp33
 70
     1
102
RTVSPropertyOp34
 70
     1
102
RTVSPropertyOp35
 70
     1
102
RTVSPropertyOp36
 70
     1
102
RTVSPropertyOp37
 70
     1
102
RTVSPropertyOp38
 70
     1
102
RTVSPropertyOp39
 70
     1
102
RTVSPropertyOp40
 70
     1
102
RTVSPropertyOp41
 70
     1
102
RTVSPropertyOp42
 70
     1
102
RTVSPropertyOp43
 70
     1
102
RTVSPropertyOp44
 70
     1
102
RTVSPropertyOp45
 70
     1
102
RTVSPropertyOp46
 70
     1
102
RTVSPropertyOp47
 70
     1
102
RTVSPropertyOp48
 70
     1
102
RTVSPropertyOp49
 70
     1
102
RTVSPropertyOp50
 70
     1
102
RTVSPropertyOp51
 70
     0
102
RTVSPropertyOp52
 70
     0
102
RTVSPropertyOp53
 70
     1
102
RTVSPropertyOp54
 70
     1
102
RTVSPropertyOp55
 70
     1
102
RTVSPropertyOp56
 70
     1
102
RTVSPropertyOp57
 70
     1
102
RTVSPost2010Prop28
280
     0
102
RTVSPost2010PropOp28
 70
     1
102
RTVSPost2010Prop29
280
     1
102
RTVSPost2010PropOp29
 70
     1
102
RTVSPost2010Prop30
280
     1
102
RTVSPost2010PropOp30
 70
     1
102
RTVSPost2010Prop31
280
     0
102
RTVSPost2010PropOp31
 70
     1
102
RTVSPost2010Prop32
280
     0
102
RTVSPost2010PropOp32
 70
     1
102
RTVSPost2010Prop33
280
     0
102
RTVSPost2010PropOp33
 70
     1
102
RTVSPost2010Prop34
280
     0
102
RTVSPost2010PropOp34
 70
     1
102
RTVSPost2010Prop35
280
     0
102
RTVSPost2010PropOp35
 70
     1
102
RTVSPost2010Prop36
280
     0
102
RTVSPost2010PropOp36
 70
     1
102
RTVSPost2010Prop37
 90
       50
102
RTVSPost2010PropOp37
 70
     1
102
RTVSPost2010Prop38
140
0.0
102
RTVSPost2010PropOp38
 70
     1
102
RTVSPost2010Prop39
140
1.0
102
RTVSPost2010PropOp39
 70
     1
102
RTVSPost2010Prop40
 90
        0
102
RTVSPost2010PropOp40
 70
     1
102
RTVSPost2010Prop41ColorIndex
 90
       18
102
RTVSPost2010Prop41ColorRGB
 90
        0
102
RTVSPost2010PropOp41
 70
     1
102
RTVSPost2010Prop42
 90
       50
102
RTVSPost2010PropOp42
 70
     1
102
RTVSPost2010Prop43
 90
        3
102
RTVSPost2010PropOp43
 70
     1
102
RTVSPost2010Prop44ColorIndex
 90
        5
102
RTVSPost2010Prop44ColorRGB
 90
      255
102
RTVSPost2010PropOp44
 70
     1
102
RTVSPost2010Prop45
280
     0
102
RTVSPost2010PropOp45
 70
     1
102
RTVSPost2010Prop46
 90
       50
102
RTVSPost2010PropOp46
 70
     1
102
RTVSPost2010Prop47
 90
       50
102
RTVSPost2010PropOp47
 70
     1
102
RTVSPost2010Prop48
 90
       50
102
RTVSPost2010PropOp48
 70
     1
102
RTVSPost2010Prop49
280
     0
102
RTVSPost2010PropOp49
 70
     1
102
RTVSPost2010Prop50
 90
       50
102
RTVSPost2010PropOp50
 70
     1
102
RTVSPost2010Prop51ColorIndex
 90
      256
102
RTVSPost2010Prop51ColorRGB
 90
-16777216
102
RTVSPost2010PropOp51
 70
     0
102
RTVSPost2010Prop52
140
1.0
102
RTVSPost2010PropOp52
 70
     0
102
RTVSPost2010Prop53
 90
        2
102
RTVSPost2010PropOp53
 70
     1
102
RTVSPost2010Prop54
  1
strokes_ogs.tif
102
RTVSPost2010PropOp54
 70
     1
102
RTVSPost2010Prop55
280
     0
102
RTVSPost2010PropOp55
 70
     1
102
RTVSPost2010Prop56
140
1.0
102
RTVSPost2010PropOp56
 70
     1
102
RTVSPost2010Prop57
140
1.0
102
RTVSPost2010PropOp57
 70
     1
  0
XRECORD
  5
B9
102
{ACAD_REACTORS
330
B8
102
}
330
B8
100
AcDbXrecord
280
     1
102
RTVSPropertyOp0
 70
     1
102
RTVSPropertyOp1
 70
     1
102
RTVSPropertyOp2
 70
     1
102
RTVSPropertyOp3
 70
     1
102
RTVSPropertyOp4
 70
     1
102
RTVSPropertyOp5
 70
     1
102
RTVSPropertyOp6
 70
     1
102
RTVSPropertyOp7
 70
     1
102
RTVSPropertyOp8
 70
     1
102
RTVSPropertyOp9
 70
     1
102
RTVSPropertyOp10
 70
     1
102
RTVSPropertyOp11
 70
     1
102
RTVSPropertyOp12
 70
     1
102
RTVSPropertyOp13
 70
     1
102
RTVSPropertyOp14
 70
     1
102
RTVSPropertyOp15
 70
     1
102
RTVSPropertyOp16
 70
     1
102
RTVSPropertyOp17
 70
     1
102
RTVSPropertyOp18
 70
     1
102
RTVSPropertyOp19
 70
     1
102
RTVSPropertyOp20
 70
     1
102
RTVSPropertyOp21
 70
     1
102
RTVSPropertyOp22
 70
     1
102
RTVSPropertyOp23
 70
     1
102
RTVSPropertyOp24
 70
     1
102
RTVSPropertyOp25
 70
     1
102
RTVSPropertyOp26
 70
     1
102
RTVSPropertyOp27
 70
     1
102
RTVSPropertyOp28
 70
     1
102
RTVSPropertyOp29
 70
     1
102
RTVSPropertyOp30
 70
     1
102
RTVSPropertyOp31
 70
     1
102
RTVSPropertyOp32
 70
     1
102
RTVSPropertyOp33
 70
     1
102
RTVSPropertyOp34
 70
     1
102
RTVSPropertyOp35
 70
     1
102
RTVSPropertyOp36
 70
     1
102
RTVSPropertyOp37
 70
     1
102
RTVSPropertyOp38
 70
     1
102
RTVSPropertyOp39
 70
     1
102
RTVSPropertyOp40
 70
     1
102
RTVSPropertyOp41
 70
     1
102
RTVSPropertyOp42
 70
     1
102
RTVSPropertyOp43
 70
     1
102
RTVSPropertyOp44
 70
     1
102
RTVSPropertyOp45
 70
     1
102
RTVSPropertyOp46
 70
     1
102
RTVSPropertyOp47
 70
     1
102
RTVSPropertyOp48
 70
     1
102
RTVSPropertyOp49
 70
     1
102
RTVSPropertyOp50
 70
     1
102
RTVSPropertyOp51
 70
     0
102
RTVSPropertyOp52
 70
     0
102
RTVSPropertyOp53
 70
     1
102
RTVSPropertyOp54
 70
     1
102
RTVSPropertyOp55
 70
     1
102
RTVSPropertyOp56
 70
     1
102
RTVSPropertyOp57
 70
     1
102
RTVSPost2010Prop28
280
     0
102
RTVSPost2010PropOp28
 70
     1
102
RTVSPost2010Prop29
280
     1
102
RTVSPost2010PropOp29
 70
     1
102
RTVSPost2010Prop30
280
     1
102
RTVSPost2010PropOp30
 70
     1
102
RTVSPost2010Prop31
280
     0
102
RTVSPost2010PropOp31
 70
     1
102
RTVSPost2010Prop32
280
     0
102
RTVSPost2010PropOp32
 70
     1
102
RTVSPost2010Prop33
280
     0
102
RTVSPost2010PropOp33
 70
     1
102
RTVSPost2010Prop34
280
     0
102
RTVSPost2010PropOp34
 70
     1
102
RTVSPost2010Prop35
280
     0
102
RTVSPost2010PropOp35
 70
     1
102
RTVSPost2010Prop36
280
     0
102
RTVSPost2010PropOp36
 70
     1
102
RTVSPost2010Prop37
 90
       50
102
RTVSPost2010PropOp37
 70
     1
102
RTVSPost2010Prop38
140
0.0
102
RTVSPost2010PropOp38
 70
     1
102
RTVSPost2010Prop39
140
1.0
102
RTVSPost2010PropOp39
 70
     1
102
RTVSPost2010Prop40
 90
        0
102
RTVSPost2010PropOp40
 70
     1
102
RTVSPost2010Prop41ColorIndex
 90
       18
102
RTVSPost2010Prop41ColorRGB
 90
        0
102
RTVSPost2010PropOp41
 70
     1
102
RTVSPost2010Prop42
 90
       50
102
RTVSPost2010PropOp42
 70
     1
102
RTVSPost2010Prop43
 90
        3
102
RTVSPost2010PropOp43
 70
     1
102
RTVSPost2010Prop44ColorIndex
 90
        5
102
RTVSPost2010Prop44ColorRGB
 90
      255
102
RTVSPost2010PropOp44
 70
     1
102
RTVSPost2010Prop45
280
     0
102
RTVSPost2010PropOp45
 70
     1
102
RTVSPost2010Prop46
 90
       50
102
RTVSPost2010PropOp46
 70
     1
102
RTVSPost2010Prop47
 90
       50
102
RTVSPost2010PropOp47
 70
     1
102
RTVSPost2010Prop48
 90
       50
102
RTVSPost2010PropOp48
 70
     1
102
RTVSPost2010Prop49
280
     0
102
RTVSPost2010PropOp49
 70
     1
102
RTVSPost2010Prop50
 90
       50
102
RTVSPost2010PropOp50
 70
     1
102
RTVSPost2010Prop51ColorIndex
 90
      256
102
RTVSPost2010Prop51ColorRGB
 90
-16777216
102
RTVSPost2010PropOp51
 70
     0
102
RTVSPost2010Prop52
140
1.0
102
RTVSPost2010PropOp52
 70
     0
102
RTVSPost2010Prop53
 90
        2
102
RTVSPost2010PropOp53
 70
     1
102
RTVSPost2010Prop54
  1
strokes_ogs.tif
102
RTVSPost2010PropOp54
 70
     1
102
RTVSPost2010Prop55
280
     0
102
RTVSPost2010PropOp55
 70
     1
102
RTVSPost2010Prop56
140
1.0
102
RTVSPost2010PropOp56
 70
     1
102
RTVSPost2010Prop57
140
1.0
102
RTVSPost2010PropOp57
 70
     1
  0
XRECORD
  5
A9
102
{ACAD_REACTORS
330
A8
102
}
330
A8
100
AcDbXrecord
280
     1
102
RTVSPropertyOp0
 70
     1
102
RTVSPropertyOp1
 70
     1
102
RTVSPropertyOp2
 70
     1
102
RTVSPropertyOp3
 70
     1
102
RTVSPropertyOp4
 70
     1
102
RTVSPropertyOp5
 70
     1
102
RTVSPropertyOp6
 70
     1
102
RTVSPropertyOp7
 70
     1
102
RTVSPropertyOp8
 70
     1
102
RTVSPropertyOp9
 70
     1
102
RTVSPropertyOp10
 70
     1
102
RTVSPropertyOp11
 70
     1
102
RTVSPropertyOp12
 70
     1
102
RTVSPropertyOp13
 70
     1
102
RTVSPropertyOp14
 70
     1
102
RTVSPropertyOp15
 70
     1
102
RTVSPropertyOp16
 70
     1
102
RTVSPropertyOp17
 70
     1
102
RTVSPropertyOp18
 70
     1
102
RTVSPropertyOp19
 70
     1
102
RTVSPropertyOp20
 70
     1
102
RTVSPropertyOp21
 70
     1
102
RTVSPropertyOp22
 70
     1
102
RTVSPropertyOp23
 70
     1
102
RTVSPropertyOp24
 70
     1
102
RTVSPropertyOp25
 70
     1
102
RTVSPropertyOp26
 70
     1
102
RTVSPropertyOp27
 70
     1
102
RTVSPropertyOp28
 70
     1
102
RTVSPropertyOp29
 70
     1
102
RTVSPropertyOp30
 70
     1
102
RTVSPropertyOp31
 70
     1
102
RTVSPropertyOp32
 70
     1
102
RTVSPropertyOp33
 70
     1
102
RTVSPropertyOp34
 70
     1
102
RTVSPropertyOp35
 70
     1
102
RTVSPropertyOp36
 70
     1
102
RTVSPropertyOp37
 70
     1
102
RTVSPropertyOp38
 70
     1
102
RTVSPropertyOp39
 70
     1
102
RTVSPropertyOp40
 70
     1
102
RTVSPropertyOp41
 70
     1
102
RTVSPropertyOp42
 70
     1
102
RTVSPropertyOp43
 70
     1
102
RTVSPropertyOp44
 70
     1
102
RTVSPropertyOp45
 70
     1
102
RTVSPropertyOp46
 70
     1
102
RTVSPropertyOp47
 70
     1
102
RTVSPropertyOp48
 70
     1
102
RTVSPropertyOp49
 70
     1
102
RTVSPropertyOp50
 70
     1
102
RTVSPropertyOp51
 70
     0
102
RTVSPropertyOp52
 70
     0
102
RTVSPropertyOp53
 70
     1
102
RTVSPropertyOp54
 70
     1
102
RTVSPropertyOp55
 70
     1
102
RTVSPropertyOp56
 70
     1
102
RTVSPropertyOp57
 70
     1
102
RTVSPost2010Prop28
280
     0
102
RTVSPost2010PropOp28
 70
     1
102
RTVSPost2010Prop29
280
     1
102
RTVSPost2010PropOp29
 70
     1
102
RTVSPost2010Prop30
280
     1
102
RTVSPost2010PropOp30
 70
     1
102
RTVSPost2010Prop31
280
     0
102
RTVSPost2010PropOp31
 70
     1
102
RTVSPost2010Prop32
280
     0
102
RTVSPost2010PropOp32
 70
     1
102
RTVSPost2010Prop33
280
     0
102
RTVSPost2010PropOp33
 70
     1
102
RTVSPost2010Prop34
280
     0
102
RTVSPost2010PropOp34
 70
     1
102
RTVSPost2010Prop35
280
     0
102
RTVSPost2010PropOp35
 70
     1
102
RTVSPost2010Prop36
280
     0
102
RTVSPost2010PropOp36
 70
     1
102
RTVSPost2010Prop37
 90
       50
102
RTVSPost2010PropOp37
 70
     1
102
RTVSPost2010Prop38
140
0.0
102
RTVSPost2010PropOp38
 70
     1
102
RTVSPost2010Prop39
140
1.0
102
RTVSPost2010PropOp39
 70
     1
102
RTVSPost2010Prop40
 90
        0
102
RTVSPost2010PropOp40
 70
     1
102
RTVSPost2010Prop41ColorIndex
 90
       18
102
RTVSPost2010Prop41ColorRGB
 90
        0
102
RTVSPost2010PropOp41
 70
     1
102
RTVSPost2010Prop42
 90
       50
102
RTVSPost2010PropOp42
 70
     1
102
RTVSPost2010Prop43
 90
        3
102
RTVSPost2010PropOp43
 70
     1
102
RTVSPost2010Prop44ColorIndex
 90
        5
102
RTVSPost2010Prop44ColorRGB
 90
      255
102
RTVSPost2010PropOp44
 70
     1
102
RTVSPost2010Prop45
280
     0
102
RTVSPost2010PropOp45
 70
     1
102
RTVSPost2010Prop46
 90
       50
102
RTVSPost2010PropOp46
 70
     1
102
RTVSPost2010Prop47
 90
       50
102
RTVSPost2010PropOp47
 70
     1
102
RTVSPost2010Prop48
 90
       50
102
RTVSPost2010PropOp48
 70
     1
102
RTVSPost2010Prop49
280
     0
102
RTVSPost2010PropOp49
 70
     1
102
RTVSPost2010Prop50
 90
       50
102
RTVSPost2010PropOp50
 70
     1
102
RTVSPost2010Prop51ColorIndex
 90
      256
102
RTVSPost2010Prop51ColorRGB
 90
-16777216
102
RTVSPost2010PropOp51
 70
     0
102
RTVSPost2010Prop52
140
1.0
102
RTVSPost2010PropOp52
 70
     0
102
RTVSPost2010Prop53
 90
        2
102
RTVSPost2010PropOp53
 70
     1
102
RTVSPost2010Prop54
  1
strokes_ogs.tif
102
RTVSPost2010PropOp54
 70
     1
102
RTVSPost2010Prop55
280
     0
102
RTVSPost2010PropOp55
 70
     1
102
RTVSPost2010Prop56
140
1.0
102
RTVSPost2010PropOp56
 70
     1
102
RTVSPost2010Prop57
140
1.0
102
RTVSPost2010PropOp57
 70
     1
  0
XRECORD
  5
9B
102
{ACAD_REACTORS
330
9A
102
}
330
9A
100
AcDbXrecord
280
     1
102
RTVSPropertyOp0
 70
     1
102
RTVSPropertyOp1
 70
     1
102
RTVSPropertyOp2
 70
     1
102
RTVSPropertyOp3
 70
     1
102
RTVSPropertyOp4
 70
     1
102
RTVSPropertyOp5
 70
     1
102
RTVSPropertyOp6
 70
     1
102
RTVSPropertyOp7
 70
     1
102
RTVSPropertyOp8
 70
     1
102
RTVSPropertyOp9
 70
     1
102
RTVSPropertyOp10
 70
     1
102
RTVSPropertyOp11
 70
     1
102
RTVSPropertyOp12
 70
     1
102
RTVSPropertyOp13
 70
     1
102
RTVSPropertyOp14
 70
     1
102
RTVSPropertyOp15
 70
     1
102
RTVSPropertyOp16
 70
     1
102
RTVSPropertyOp17
 70
     1
102
RTVSPropertyOp18
 70
     1
102
RTVSPropertyOp19
 70
     1
102
RTVSPropertyOp20
 70
     1
102
RTVSPropertyOp21
 70
     1
102
RTVSPropertyOp22
 70
     1
102
RTVSPropertyOp23
 70
     1
102
RTVSPropertyOp24
 70
     1
102
RTVSPropertyOp25
 70
     1
102
RTVSPropertyOp26
 70
     1
102
RTVSPropertyOp27
 70
     1
102
RTVSPropertyOp28
 70
     1
102
RTVSPropertyOp29
 70
     1
102
RTVSPropertyOp30
 70
     1
102
RTVSPropertyOp31
 70
     1
102
RTVSPropertyOp32
 70
     1
102
RTVSPropertyOp33
 70
     1
102
RTVSPropertyOp34
 70
     1
102
RTVSPropertyOp35
 70
     1
102
RTVSPropertyOp36
 70
     1
102
RTVSPropertyOp37
 70
     1
102
RTVSPropertyOp38
 70
     1
102
RTVSPropertyOp39
 70
     1
102
RTVSPropertyOp40
 70
     1
102
RTVSPropertyOp41
 70
     1
102
RTVSPropertyOp42
 70
     1
102
RTVSPropertyOp43
 70
     1
102
RTVSPropertyOp44
 70
     1
102
RTVSPropertyOp45
 70
     1
102
RTVSPropertyOp46
 70
     1
102
RTVSPropertyOp47
 70
     1
102
RTVSPropertyOp48
 70
     1
102
RTVSPropertyOp49
 70
     1
102
RTVSPropertyOp50
 70
     1
102
RTVSPropertyOp51
 70
     0
102
RTVSPropertyOp52
 70
     0
102
RTVSPropertyOp53
 70
     1
102
RTVSPropertyOp54
 70
     1
102
RTVSPropertyOp55
 70
     1
102
RTVSPropertyOp56
 70
     1
102
RTVSPropertyOp57
 70
     1
102
RTVSPost2010Prop28
280
     0
102
RTVSPost2010PropOp28
 70
     1
102
RTVSPost2010Prop29
280
     1
102
RTVSPost2010PropOp29
 70
     1
102
RTVSPost2010Prop30
280
     1
102
RTVSPost2010PropOp30
 70
     1
102
RTVSPost2010Prop31
280
     0
102
RTVSPost2010PropOp31
 70
     1
102
RTVSPost2010Prop32
280
     0
102
RTVSPost2010PropOp32
 70
     1
102
RTVSPost2010Prop33
280
     0
102
RTVSPost2010PropOp33
 70
     1
102
RTVSPost2010Prop34
280
     0
102
RTVSPost2010PropOp34
 70
     1
102
RTVSPost2010Prop35
280
     0
102
RTVSPost2010PropOp35
 70
     1
102
RTVSPost2010Prop36
280
     0
102
RTVSPost2010PropOp36
 70
     1
102
RTVSPost2010Prop37
 90
       50
102
RTVSPost2010PropOp37
 70
     1
102
RTVSPost2010Prop38
140
0.0
102
RTVSPost2010PropOp38
 70
     1
102
RTVSPost2010Prop39
140
1.0
102
RTVSPost2010PropOp39
 70
     1
102
RTVSPost2010Prop40
 90
        0
102
RTVSPost2010PropOp40
 70
     1
102
RTVSPost2010Prop41ColorIndex
 90
       18
102
RTVSPost2010Prop41ColorRGB
 90
        0
102
RTVSPost2010PropOp41
 70
     1
102
RTVSPost2010Prop42
 90
       50
102
RTVSPost2010PropOp42
 70
     1
102
RTVSPost2010Prop43
 90
        3
102
RTVSPost2010PropOp43
 70
     1
102
RTVSPost2010Prop44ColorIndex
 90
        5
102
RTVSPost2010Prop44ColorRGB
 90
      255
102
RTVSPost2010PropOp44
 70
     1
102
RTVSPost2010Prop45
280
     0
102
RTVSPost2010PropOp45
 70
     1
102
RTVSPost2010Prop46
 90
       50
102
RTVSPost2010PropOp46
 70
     1
102
RTVSPost2010Prop47
 90
       50
102
RTVSPost2010PropOp47
 70
     1
102
RTVSPost2010Prop48
 90
       50
102
RTVSPost2010PropOp48
 70
     1
102
RTVSPost2010Prop49
280
     0
102
RTVSPost2010PropOp49
 70
     1
102
RTVSPost2010Prop50
 90
       50
102
RTVSPost2010PropOp50
 70
     1
102
RTVSPost2010Prop51ColorIndex
 90
      256
102
RTVSPost2010Prop51ColorRGB
 90
-16777216
102
RTVSPost2010PropOp51
 70
     0
102
RTVSPost2010Prop52
140
1.0
102
RTVSPost2010PropOp52
 70
     0
102
RTVSPost2010Prop53
 90
        2
102
RTVSPost2010PropOp53
 70
     1
102
RTVSPost2010Prop54
  1
strokes_ogs.tif
102
RTVSPost2010PropOp54
 70
     1
102
RTVSPost2010Prop55
280
     0
102
RTVSPost2010PropOp55
 70
     1
102
RTVSPost2010Prop56
140
1.0
102
RTVSPost2010PropOp56
 70
     1
102
RTVSPost2010Prop57
140
1.0
102
RTVSPost2010PropOp57
 70
     1
  0
XRECORD
  5
BB
102
{ACAD_REACTORS
330
BA
102
}
330
BA
100
AcDbXrecord
280
     1
102
RTVSPropertyOp0
 70
     1
102
RTVSPropertyOp1
 70
     1
102
RTVSPropertyOp2
 70
     1
102
RTVSPropertyOp3
 70
     1
102
RTVSPropertyOp4
 70
     1
102
RTVSPropertyOp5
 70
     1
102
RTVSPropertyOp6
 70
     1
102
RTVSPropertyOp7
 70
     1
102
RTVSPropertyOp8
 70
     1
102
RTVSPropertyOp9
 70
     1
102
RTVSPropertyOp10
 70
     1
102
RTVSPropertyOp11
 70
     1
102
RTVSPropertyOp12
 70
     1
102
RTVSPropertyOp13
 70
     1
102
RTVSPropertyOp14
 70
     1
102
RTVSPropertyOp15
 70
     1
102
RTVSPropertyOp16
 70
     1
102
RTVSPropertyOp17
 70
     1
102
RTVSPropertyOp18
 70
     1
102
RTVSPropertyOp19
 70
     1
102
RTVSPropertyOp20
 70
     1
102
RTVSPropertyOp21
 70
     1
102
RTVSPropertyOp22
 70
     1
102
RTVSPropertyOp23
 70
     1
102
RTVSPropertyOp24
 70
     1
102
RTVSPropertyOp25
 70
     1
102
RTVSPropertyOp26
 70
     1
102
RTVSPropertyOp27
 70
     1
102
RTVSPropertyOp28
 70
     1
102
RTVSPropertyOp29
 70
     1
102
RTVSPropertyOp30
 70
     1
102
RTVSPropertyOp31
 70
     1
102
RTVSPropertyOp32
 70
     1
102
RTVSPropertyOp33
 70
     1
102
RTVSPropertyOp34
 70
     1
102
RTVSPropertyOp35
 70
     1
102
RTVSPropertyOp36
 70
     1
102
RTVSPropertyOp37
 70
     1
102
RTVSPropertyOp38
 70
     1
102
RTVSPropertyOp39
 70
     1
102
RTVSPropertyOp40
 70
     1
102
RTVSPropertyOp41
 70
     1
102
RTVSPropertyOp42
 70
     1
102
RTVSPropertyOp43
 70
     1
102
RTVSPropertyOp44
 70
     1
102
RTVSPropertyOp45
 70
     1
102
RTVSPropertyOp46
 70
     1
102
RTVSPropertyOp47
 70
     1
102
RTVSPropertyOp48
 70
     1
102
RTVSPropertyOp49
 70
     1
102
RTVSPropertyOp50
 70
     1
102
RTVSPropertyOp51
 70
     0
102
RTVSPropertyOp52
 70
     0
102
RTVSPropertyOp53
 70
     1
102
RTVSPropertyOp54
 70
     1
102
RTVSPropertyOp55
 70
     1
102
RTVSPropertyOp56
 70
     1
102
RTVSPropertyOp57
 70
     1
102
RTVSPost2010Prop28
280
     0
102
RTVSPost2010PropOp28
 70
     1
102
RTVSPost2010Prop29
280
     1
102
RTVSPost2010PropOp29
 70
     1
102
RTVSPost2010Prop30
280
     1
102
RTVSPost2010PropOp30
 70
     1
102
RTVSPost2010Prop31
280
     0
102
RTVSPost2010PropOp31
 70
     1
102
RTVSPost2010Prop32
280
     0
102
RTVSPost2010PropOp32
 70
     1
102
RTVSPost2010Prop33
280
     0
102
RTVSPost2010PropOp33
 70
     1
102
RTVSPost2010Prop34
280
     0
102
RTVSPost2010PropOp34
 70
     1
102
RTVSPost2010Prop35
280
     0
102
RTVSPost2010PropOp35
 70
     1
102
RTVSPost2010Prop36
280
     0
102
RTVSPost2010PropOp36
 70
     1
102
RTVSPost2010Prop37
 90
       50
102
RTVSPost2010PropOp37
 70
     1
102
RTVSPost2010Prop38
140
0.0
102
RTVSPost2010PropOp38
 70
     1
102
RTVSPost2010Prop39
140
1.0
102
RTVSPost2010PropOp39
 70
     1
102
RTVSPost2010Prop40
 90
        0
102
RTVSPost2010PropOp40
 70
     1
102
RTVSPost2010Prop41ColorIndex
 90
       18
102
RTVSPost2010Prop41ColorRGB
 90
        0
102
RTVSPost2010PropOp41
 70
     1
102
RTVSPost2010Prop42
 90
       50
102
RTVSPost2010PropOp42
 70
     1
102
RTVSPost2010Prop43
 90
        3
102
RTVSPost2010PropOp43
 70
     1
102
RTVSPost2010Prop44ColorIndex
 90
        5
102
RTVSPost2010Prop44ColorRGB
 90
      255
102
RTVSPost2010PropOp44
 70
     1
102
RTVSPost2010Prop45
280
     0
102
RTVSPost2010PropOp45
 70
     1
102
RTVSPost2010Prop46
 90
       50
102
RTVSPost2010PropOp46
 70
     1
102
RTVSPost2010Prop47
 90
       50
102
RTVSPost2010PropOp47
 70
     1
102
RTVSPost2010Prop48
 90
       50
102
RTVSPost2010PropOp48
 70
     1
102
RTVSPost2010Prop49
280
     0
102
RTVSPost2010PropOp49
 70
     1
102
RTVSPost2010Prop50
 90
       50
102
RTVSPost2010PropOp50
 70
     1
102
RTVSPost2010Prop51ColorIndex
 90
      256
102
RTVSPost2010Prop51ColorRGB
 90
-16777216
102
RTVSPost2010PropOp51
 70
     0
102
RTVSPost2010Prop52
140
1.0
102
RTVSPost2010PropOp52
 70
     0
102
RTVSPost2010Prop53
 90
        2
102
RTVSPost2010PropOp53
 70
     1
102
RTVSPost2010Prop54
  1
strokes_ogs.tif
102
RTVSPost2010PropOp54
 70
     1
102
RTVSPost2010Prop55
280
     0
102
RTVSPost2010PropOp55
 70
     1
102
RTVSPost2010Prop56
140
1.0
102
RTVSPost2010PropOp56
 70
     1
102
RTVSPost2010Prop57
140
1.0
102
RTVSPost2010PropOp57
 70
     1
  0
ENDSEC
  0
EOF
