  0
SECTION
  2
HEADER
  9
$ACADVER
  1
AC1009
  9
$INSBASE
 10
0.0
 20
0.0
 30
0.0
  9
$EXTMIN
 10
-1.7596353124624471
 20
-2.1410700356385099
 30
0.0
  9
$EXTMAX
 10
1.993575689897239
 20
1.9613192775943671
 30
0.0
  9
$LIMMIN
 10
0.0
 20
0.0
  9
$LIMMAX
 10
0.0
 20
0.0
  9
$ORTHOMODE
 70
     0
  9
$REGENMODE
 70
     1
  9
$FILLMODE
 70
     1
  9
$QTEXTMODE
 70
     0
  9
$MIRRTEXT
 70
     1
  9
$DRAGMODE
 70
     2
  9
$LTSCALE
 40
0.2
  9
$OSMODE
 70
    37
  9
$ATTMODE
 70
     1
  9
$TEXTSIZE
 40
0.0
  9
$TRACEWID
 40
1.0
  9
$TEXTSTYLE
  7
STANDARD
  9
$CLAYER
  8
OLCP_GW_22
  9
$CELTYPE
  6
CONTINUOUS
  9
$CECOLOR
 62
   256
  9
$DIMSCALE
 40
1.0
  9
$DIMASZ
 40
0.18
  9
$DIMEXO
 40
0.0625
  9
$DIMDLI
 40
0.38
  9
$DIMRND
 40
0.0
  9
$DIMDLE
 40
0.0
  9
$DIMEXE
 40
0.18
  9
$DIMTP
 40
0.0
  9
$DIMTM
 40
0.0
  9
$DIMTXT
 40
0.18
  9
$DIMCEN
 40
0.09
  9
$DIMTSZ
 40
0.0
  9
$DIMTOL
 70
     0
  9
$DIMLIM
 70
     0
  9
$DIMTIH
 70
     1
  9
$DIMTOH
 70
     1
  9
$DIMSE1
 70
     0
  9
$DIMSE2
 70
     0
  9
$DIMTAD
 70
     0
  9
$DIMZIN
 70
     0
  9
$DIMBLK
  1

  9
$DIMASO
 70
     1
  9
$DIMSHO
 70
     1
  9
$DIMPOST
  1

  9
$DIMAPOST
  1

  9
$DIMALT
 70
     0
  9
$DIMALTD
 70
     2
  9
$DIMALTF
 40
25.399999999999999
  9
$DIMLFAC
 40
1.0
  9
$DIMTOFL
 70
     0
  9
$DIMTVP
 40
0.0
  9
$DIMTIX
 70
     0
  9
$DIMSOXD
 70
     0
  9
$DIMSAH
 70
     0
  9
$DIMBLK1
  1

  9
$DIMBLK2
  1

  9
$DIMSTYLE
  2
STANDARD
  9
$DIMCLRD
 70
     0
  9
$DIMCLRE
 70
     0
  9
$DIMCLRT
 70
     0
  9
$DIMTFAC
 40
1.0
  9
$DIMGAP
 40
0.09
  9
$LUNITS
 70
     5
  9
$LUPREC
 70
     4
  9
$SKETCHINC
 40
0.1
  9
$FILLETRAD
 40
0.0
  9
$AUNITS
 70
     0
  9
$AUPREC
 70
     0
  9
$MENU
  1
acad
  9
$ELEVATION
 40
0.0
  9
$PELEVATION
 40
0.0
  9
$THICKNESS
 40
0.0
  9
$LIMCHECK
 70
     0
  9
$BLIPMODE
 70
     0
  9
$CHAMFERA
 40
0.0
  9
$CHAMFERB
 40
0.0
  9
$SKPOLY
 70
     0
  9
$TDCREATE
 40
2454085.5839351858
  9
$TDUPDATE
 40
2455184.0763575928
  9
$TDINDWG
 40
0.0020695833
  9
$TDUSRTIMER
 40
0.002069213
  9
$USRTIMER
 70
     1
  9
$ANGBASE
 50
0.0
  9
$ANGDIR
 70
     0
  9
$PDMODE
 70
     1
  9
$PDSIZE
 40
-2.0
  9
$PLINEWID
 40
0.0
  9
$COORDS
 70
     1
  9
$SPLFRAME
 70
     0
  9
$SPLINETYPE
 70
     6
  9
$SPLINESEGS
 70
     8
  9
$ATTDIA
 70
     0
  9
$ATTREQ
 70
     1
  9
$HANDLING
 70
     1
  9
$HANDSEED
  5
1A3
  9
$SURFTAB1
 70
     6
  9
$SURFTAB2
 70
     6
  9
$SURFTYPE
 70
     6
  9
$SURFU
 70
     6
  9
$SURFV
 70
     6
  9
$UCSNAME
  2

  9
$UCSORG
 10
0.0
 20
0.0
 30
0.0
  9
$UCSXDIR
 10
1.0
 20
0.0
 30
0.0
  9
$UCSYDIR
 10
0.0
 20
1.0
 30
0.0
  9
$PUCSNAME
  2

  9
$PUCSORG
 10
0.0
 20
0.0
 30
0.0
  9
$PUCSXDIR
 10
1.0
 20
0.0
 30
0.0
  9
$PUCSYDIR
 10
0.0
 20
1.0
 30
0.0
  9
$USERI1
 70
     0
  9
$USERI2
 70
     0
  9
$USERI3
 70
     0
  9
$USERI4
 70
     0
  9
$USERI5
 70
     0
  9
$USERR1
 40
0.0
  9
$USERR2
 40
0.0
  9
$USERR3
 40
0.0
  9
$USERR4
 40
0.0
  9
$USERR5
 40
0.0
  9
$WORLDVIEW
 70
     1
  9
$SHADEDGE
 70
     3
  9
$SHADEDIF
 70
    70
  9
$TILEMODE
 70
     0
  9
$MAXACTVP
 70
    64
  9
$PLIMCHECK
 70
     0
  9
$PEXTMIN
 10
1.1237500408503021
 20
0.783083324357281
 30
0.0
  9
$PEXTMAX
 10
10.11375036765271
 20
7.0477499192155246
 30
0.0
  9
$PLIMMIN
 10
-0.2262493944543553
 20
-0.2179166651147557
  9
$PLIMMAX
 10
11.46708330770177
 20
8.0487497772757468
  9
$UNITMODE
 70
     0
  9
$VISRETAIN
 70
     0
  9
$PLINEGEN
 70
     1
  9
$PSLTSCALE
 70
     0
  0
ENDSEC
  0
SECTION
  2
TABLES
  0
TABLE
  2
VPORT
 70
     1
  0
VPORT
  2
*ACTIVE
 70
     0
 10
0.0
 20
0.0
 11
1.0
 21
1.0
 12
6.2318808985646292
 22
0.2434676050013422
 13
0.0
 23
0.0
 14
1.0
 24
1.0
 15
0.0
 25
0.0
 16
0.0
 26
0.0
 36
1.0
 17
0.0
 27
0.0
 37
0.0
 40
12.214759807738361
 41
1.8210922787193971
 42
50.0
 43
0.0
 44
0.0
 50
0.0
 51
0.0
 71
     0
 72
  2000
 73
     1
 74
     1
 75
     0
 76
     0
 77
     0
 78
     0
  0
ENDTAB
  0
TABLE
  2
LTYPE
 70
    11
  0
LTYPE
  2
CONTINUOUS
 70
     0
  3
Solid line
 72
    65
 73
     0
 40
0.0
  0
LTYPE
  2
STYLE_01
 70
     0
  3

 72
    65
 73
     2
 40
0.4166412353515625
 49
0.208282470703125
 49
-0.2083587646484375
  0
LTYPE
  2
STYLE_02
 70
     0
  3

 72
    65
 73
     2
 40
0.694427490234375
 49
0.4860687255859375
 49
-0.2083587646484375
  0
LTYPE
  2
STYLE_03
 70
     0
  3

 72
    65
 73
     2
 40
1.25
 49
1.0416412353515621
 49
-0.2083587646484375
  0
LTYPE
  2
STYLE_04
 70
     0
  3

 72
    65
 73
     2
 40
1.5277099609375
 49
1.319427490234375
 49
-0.208282470703125
  0
LTYPE
  2
STYLE_05
 70
     0
  3

 72
    65
 73
     2
 40
0.208282470703125
 49
0.069427490234375
 49
-0.13885498046875
  0
LTYPE
  2
STYLE_06
 70
     0
  3

 72
    65
 73
     4
 40
1.0416412353515621
 49
0.625
 49
-0.208282470703125
 49
0.069427490234375
 49
-0.1389312744140625
  0
LTYPE
  2
STYLE_07
 70
     0
  3

 72
    65
 73
     6
 40
1.875
 49
0.625
 49
-0.208282470703125
 49
0.625
 49
-0.2083587646484375
 49
0.069427490234375
 49
-0.1389312744140625
  0
LTYPE
  2
STYLE_08
 70
     0
  3

 72
    65
 73
     6
 40
1.25
 49
0.625
 49
-0.208282470703125
 49
0.069427490234375
 49
-0.1389312744140625
 49
0.069427490234375
 49
-0.1389312744140625
  0
LTYPE
  2
STYLE_09
 70
     0
  3

 72
    65
 73
     4
 40
5.0
 49
3.75
 49
-0.2777862548828125
 49
0.694427490234375
 49
-0.2777862548828125
  0
LTYPE
  2
STYLE_10
 70
     0
  3

 72
    65
 73
     6
 40
5.9375
 49
3.75
 49
-0.2777862548828125
 49
0.694427490234375
 49
-0.2777862548828125
 49
0.625
 49
-0.3125
  0
ENDTAB
  0
TABLE
  2
LAYER
 70
     2
  0
LAYER
  2
0
 70
     0
 62
     7
  6
CONTINUOUS
  0
LAYER
  2
OLCP_GW_22
 70
     0
 62
     7
  6
CONTINUOUS
  0
ENDTAB
  0
TABLE
  2
STYLE
 70
     2
  0
STYLE
  2
STANDARD
 70
     0
 40
0.0
 41
1.0
 50
0.0
 71
     0
 42
0.0
  3
txt
  4

  0
STYLE
  2
HELVETICA
 70
     0
 40
0.0
 41
1.0
 50
0.0
 71
     0
 42
0.0
  3
txt
  4

  0
ENDTAB
  0
TABLE
  2
VIEW
 70
     0
  0
ENDTAB
  0
TABLE
  2
UCS
 70
     0
  0
ENDTAB
  0
TABLE
  2
APPID
 70
     3
  0
APPID
  2
ACAD
 70
     0
  0
APPID
  2
ACAD_MLEADERVER
 70
     0
  0
APPID
  2
ACAD_PSEXT
 70
     0
  0
ENDTAB
  0
TABLE
  2
DIMSTYLE
 70
     1
  0
DIMSTYLE
  2
STANDARD
 70
     0
  3

  4

  5

  6

  7

 40
1.0
 41
0.18
 42
0.0625
 43
0.38
 44
0.18
 45
0.0
 46
0.0
 47
0.0
 48
0.0
140
0.18
141
0.09
142
0.0
143
25.399999999999999
144
1.0
145
0.0
146
1.0
147
0.09
 71
     0
 72
     0
 73
     1
 74
     1
 75
     0
 76
     0
 77
     0
 78
     0
170
     0
171
     2
172
     0
173
     0
174
     0
175
     0
176
     0
177
     0
178
     0
  0
ENDTAB
  0
ENDSEC
  0
SECTION
  2
BLOCKS
  0
BLOCK
  8
0
  2
$MODEL_SPACE
 70
     0
 10
0.0
 20
0.0
 30
0.0
  3
$MODEL_SPACE
  1

  0
ENDBLK
  5
E
  8
0
  0
BLOCK
 67
     1
  8
0
  2
$PAPER_SPACE
 70
     0
 10
0.0
 20
0.0
 30
0.0
  3
$PAPER_SPACE
  1

  0
ENDBLK
  5
10
 67
     1
  8
0
  0
BLOCK
  8
OLCP_GW_22
  2
GROUP
 70
     0
 10
0.0
 20
0.0
 30
0.0
  3
GROUP
  1

  0
POLYLINE
  5
32
  8
0
  6
CONTINUOUS
 62
     7
 66
     1
 10
0.0
 20
0.0
 30
0.0
 70
   129
  0
VERTEX
  5
17D
  8
0
  6
CONTINUOUS
 62
     7
 10
-0.2596350358744381
 20
0.2113190010063674
 30
0.0
 42
-0.414213562373095
  0
VERTEX
  5
17E
  8
0
  6
CONTINUOUS
 62
     7
 10
-0.009635035874438
 20
0.4613190010063673
 30
0.0
 42
-0.4142135623730952
  0
VERTEX
  5
17F
  8
0
  6
CONTINUOUS
 62
     7
 10
0.240364964125562
 20
0.2113190010063674
 30
0.0
 42
-0.4142135623730951
  0
VERTEX
  5
180
  8
0
  6
CONTINUOUS
 62
     7
 10
-0.009635035874438
 20
-0.0386809989936326
 30
0.0
 42
-0.4142135623730952
  0
SEQEND
  5
181
  8
0
  6
CONTINUOUS
 62
     7
  0
ARC
  5
33
  8
0
  6
CONTINUOUS
 62
     7
 10
-0.009635035874438
 20
1.451704001006364
 30
0.0
 40
0.5096149999999975
 50
90.0
 51
131.84903146570821
  0
ARC
  5
34
  8
0
  6
CONTINUOUS
 62
     7
 10
-0.5018900358744385
 20
1.685081001006361
 30
0.0
 40
0.2055789815837216
 50
37.883710158547657
 51
90.0
  0
ARC
  5
35
  8
0
  6
CONTINUOUS
 62
     7
 10
-1.009746035874441
 20
1.428925001006363
 30
0.0
 40
0.1507858206762144
 50
254.6603317904426
 51
40.233903850091707
  0
ARC
  5
36
  8
0
  6
CONTINUOUS
 62
     7
 10
-0.8925350358744415
 20
1.0832320010063661
 30
0.0
 40
0.3036916027304695
 50
355.86220222853598
 51
84.852729670701436
  0
ARC
  5
37
  8
0
  6
CONTINUOUS
 62
     7
 10
-0.0310900358744382
 20
1.0209130010063661
 30
0.0
 40
0.5600046087855005
 50
175.86234345106391
 51
272.19566370996392
  0
ARC
  5
38
  8
0
  6
CONTINUOUS
 62
     7
 10
-0.1713020358744381
 20
1.0310560010063661
 30
0.0
 40
0.4194261843626354
 50
141.2550258230041
 51
175.8623229270413
  0
ARC
  5
39
  8
0
  6
CONTINUOUS
 62
     7
 10
-0.009635035874438
 20
0.9050690010063672
 30
0.0
 40
0.4937499999999976
 50
90.0
 51
143.13010235415601
  0
ARC
  5
3A
  8
0
  6
CONTINUOUS
 62
     7
 10
-0.552147035874439
 20
1.1451240010063659
 30
0.0
 40
0.1578533121888806
 50
20.854441887691959
 51
70.104653178784375
  0
POLYLINE
  5
3B
  8
0
  6
CONTINUOUS
 62
     7
 66
     1
 10
0.0
 20
0.0
 30
0.0
 70
   129
  0
VERTEX
  5
182
  8
0
  6
CONTINUOUS
 62
     7
 10
-0.1033850358744381
 20
0.8363190010063673
 30
0.0
 42
-0.4142135623730948
  0
VERTEX
  5
183
  8
0
  6
CONTINUOUS
 62
     7
 10
-0.009635035874438
 20
0.9300690010063673
 30
0.0
 42
-0.4142135623730951
  0
VERTEX
  5
184
  8
0
  6
CONTINUOUS
 62
     7
 10
0.0841149641255621
 20
0.8363190010063673
 30
0.0
 42
-0.4142135623730951
  0
VERTEX
  5
185
  8
0
  6
CONTINUOUS
 62
     7
 10
-0.009635035874438
 20
0.7425690010063675
 30
0.0
 42
-0.4142135623730955
  0
SEQEND
  5
186
  8
0
  6
CONTINUOUS
 62
     7
  0
ARC
  5
3C
  8
0
  6
CONTINUOUS
 62
     7
 10
0.0647629641255619
 20
1.257576001006365
 30
0.0
 40
0.1596391162998577
 50
117.77746313485019
 51
200.6342497233349
  0
ARC
  5
3D
  8
0
  6
CONTINUOUS
 62
     7
 10
-0.2137740358744381
 20
1.032016001006367
 30
0.0
 40
0.0750923906264809
 50
22.968559837815711
 51
98.316152533422169
  0
ARC
  5
3E
  8
0
  6
CONTINUOUS
 62
     7
 10
-0.1308850358744379
 20
1.0563190010063661
 30
0.0
 40
0.1062500000000001
 50
151.92751306414701
 51
208.07248693585279
  0
ARC
  5
3F
  8
0
  6
CONTINUOUS
 62
     7
 10
-0.0408530358744379
 20
0.7751100010063673
 30
0.0
 40
0.2953530517956435
 50
128.48027223167421
 51
223.6293816668429
  0
ARC
  5
40
  8
0
  6
CONTINUOUS
 62
     7
 10
-0.4057000358744383
 20
1.699022001006361
 30
0.0
 40
0.398235797529551
 50
302.00545946115437
 51
345.79811175860073
  0
ARC
  5
41
  8
0
  6
CONTINUOUS
 62
     7
 10
-0.137128035874438
 20
1.507927001006363
 30
0.0
 40
0.1500888760468272
 50
38.480236561085427
 51
98.624483663358475
  0
ARC
  5
42
  8
0
  6
CONTINUOUS
 62
     7
 10
-0.1765390358744381
 20
1.7677660010063601
 30
0.0
 40
0.1127216883523307
 50
278.62473992159659
 51
6.9056153485160481
  0
ARC
  5
43
  8
0
  6
CONTINUOUS
 62
     7
 10
0.165994964125562
 20
1.80925200100636
 30
0.0
 40
0.2323150218754699
 50
139.11276545794951
 51
186.90581546556649
  0
ARC
  5
44
  8
0
  6
CONTINUOUS
 62
     7
 10
-0.8466370358744415
 20
1.265780001006366
 30
0.0
 40
0.4823947123725583
 50
357.68791859877808
 51
90.0
  0
ARC
  5
45
  8
0
  6
CONTINUOUS
 62
     7
 10
-0.237003035874438
 20
1.6294710010063611
 30
0.0
 40
0.3720010974311769
 50
135.4027484677234
 51
171.20980360779961
  0
ARC
  5
46
  8
0
  6
CONTINUOUS
 62
     7
 10
-0.7307840358744411
 20
1.659302001006361
 30
0.0
 40
0.1460148202683553
 50
142.50751299933671
 51
185.30887583022459
  0
ARC
  5
47
  8
0
  6
CONTINUOUS
 62
     7
 10
-1.00569103587444
 20
1.4437070010063631
 30
0.0
 40
0.1661142969704878
 50
123.42077522208631
 51
254.6603016923959
  0
ARC
  5
48
  8
0
  6
CONTINUOUS
 62
     7
 10
-0.8834040358744415
 20
1.2583960010063651
 30
0.0
 40
0.3881374956545636
 50
88.095091665297431
 51
123.4208341981418
  0
ARC
  5
49
  8
0
  6
CONTINUOUS
 62
     7
 10
-0.1875460358744381
 20
1.162567001006366
 30
0.0
 40
0.1099659557544969
 50
292.96823709136572
 51
20.634126841419398
  0
ARC
  5
4A
  8
0
  6
CONTINUOUS
 62
     7
 10
-0.123020035874438
 20
0.9507520010063675
 30
0.0
 40
0.112659214953771
 50
17.601198083881489
 51
101.0614594215012
  0
ARC
  5
4B
  8
0
  6
CONTINUOUS
 62
     7
 10
-0.1490540358744382
 20
0.9424940010063672
 30
0.0
 40
0.1399715620617276
 50
354.90726319858118
 51
17.60078042900647
  0
ARC
  5
4C
  8
0
  6
CONTINUOUS
 62
     7
 10
-1.25002003587444
 20
0.2113190010063672
 30
0.0
 40
0.5096150981132723
 50
138.1509676603192
 51
180.0
  0
ARC
  5
4D
  8
0
  6
CONTINUOUS
 62
     7
 10
-1.4833970358744411
 20
0.7035740010063672
 30
0.0
 40
0.2055789999999999
 50
180.0
 51
232.11628984145219
  0
ARC
  5
4E
  8
0
  6
CONTINUOUS
 62
     7
 10
-1.2272410358744399
 20
1.2114300010063661
 30
0.0
 40
0.1507850574725488
 50
229.76585071517371
 51
15.33978527097951
  0
ARC
  5
4F
  8
0
  6
CONTINUOUS
 62
     7
 10
-0.8815480358744414
 20
1.094219001006367
 30
0.0
 40
0.30369167029242
 50
185.1472686366773
 51
274.13779641014861
  0
ARC
  5
50
  8
0
  6
CONTINUOUS
 62
     7
 10
-0.8192290358744415
 20
0.2327740010063671
 30
0.0
 40
0.5600051444951232
 50
357.80433824995231
 51
94.137652857843776
  0
ARC
  5
51
  8
0
  6
CONTINUOUS
 62
     7
 10
-0.8293720358744415
 20
0.3729860010063676
 30
0.0
 40
0.4194262128885124
 50
94.137677072958724
 51
128.7449741769959
  0
ARC
  5
52
  8
0
  6
CONTINUOUS
 62
     7
 10
-0.7033850358744407
 20
0.2113190010063672
 30
0.0
 40
0.4937500000000006
 50
126.86989764584401
 51
180.0
  0
ARC
  5
53
  8
0
  6
CONTINUOUS
 62
     7
 10
-0.9434400358744415
 20
0.7538310010063674
 30
0.0
 40
0.1578533564673237
 50
199.8953468212151
 51
249.1455581123077
  0
POLYLINE
  5
54
  8
0
  6
CONTINUOUS
 62
     7
 66
     1
 10
0.0
 20
0.0
 30
0.0
 70
   129
  0
VERTEX
  5
187
  8
0
  6
CONTINUOUS
 62
     7
 10
-0.728385035874441
 20
0.2113190010063675
 30
0.0
 42
-0.4142135623730918
  0
VERTEX
  5
188
  8
0
  6
CONTINUOUS
 62
     7
 10
-0.6346350358744399
 20
0.3050690010063676
 30
0.0
 42
-0.4142135623730982
  0
VERTEX
  5
189
  8
0
  6
CONTINUOUS
 62
     7
 10
-0.5408850358744389
 20
0.2113190010063675
 30
0.0
 42
-0.4142135623730919
  0
VERTEX
  5
18A
  8
0
  6
CONTINUOUS
 62
     7
 10
-0.6346350358744399
 20
0.1175690010063674
 30
0.0
 42
-0.4142135623730986
  0
SEQEND
  5
18B
  8
0
  6
CONTINUOUS
 62
     7
  0
ARC
  5
55
  8
0
  6
CONTINUOUS
 62
     7
 10
-1.055892035874441
 20
0.1369210010063673
 30
0.0
 40
0.1596390066775661
 50
69.365737628692472
 51
152.22255189356909
  0
ARC
  5
56
  8
0
  6
CONTINUOUS
 62
     7
 10
-0.8303320358744413
 20
0.4154580010063674
 30
0.0
 40
0.0750925903801435
 50
171.68386953795391
 51
247.0314294597747
  0
ARC
  5
57
  8
0
  6
CONTINUOUS
 62
     7
 10
-0.8546350358744415
 20
0.3325690010063674
 30
0.0
 40
0.1062500000000001
 50
61.927513064146993
 51
118.07248693585289
  0
ARC
  5
58
  8
0
  6
CONTINUOUS
 62
     7
 10
-0.573426035874439
 20
0.2425370010063671
 30
0.0
 40
0.2953532041556356
 50
46.370617676938487
 51
141.51972465327509
  0
ARC
  5
59
  8
0
  6
CONTINUOUS
 62
     7
 10
-1.497338035874441
 20
0.6073840010063673
 30
0.0
 40
0.3982361867460062
 50
284.20188806990058
 51
327.99453901385459
  0
ARC
  5
5A
  8
0
  6
CONTINUOUS
 62
     7
 10
-1.306243035874441
 20
0.3388120010063671
 30
0.0
 40
0.1500891425553496
 50
171.3755335103389
 51
231.5197511789313
  0
ARC
  5
5B
  8
0
  6
CONTINUOUS
 62
     7
 10
-1.5660820358744401
 20
0.3782230010063676
 30
0.0
 40
0.1127217327093584
 50
263.09438465148401
 51
351.37526007840302
  0
ARC
  5
5C
  8
0
  6
CONTINUOUS
 62
     7
 10
-1.60756803587444
 20
0.0356890010063675
 30
0.0
 40
0.2323154092801422
 50
83.094196396078146
 51
130.8872420465043
  0
ARC
  5
5D
  8
0
  6
CONTINUOUS
 62
     7
 10
-1.06409603587444
 20
1.048321001006367
 30
0.0
 40
0.482395
 50
180.0
 51
272.31207996373558
  0
ARC
  5
5E
  8
0
  6
CONTINUOUS
 62
     7
 10
-1.42778703587444
 20
0.4386870010063675
 30
0.0
 40
0.3720013205998063
 50
98.790191684822162
 51
134.5972518384946
  0
ARC
  5
5F
  8
0
  6
CONTINUOUS
 62
     7
 10
-1.4576180358744411
 20
0.9324680010063671
 30
0.0
 40
0.1460143508152536
 50
84.691106016482024
 51
127.4924891325675
  0
ARC
  5
60
  8
0
  6
CONTINUOUS
 62
     7
 10
-1.2420230358744411
 20
1.207375001006366
 30
0.0
 40
0.166113917394058
 50
15.33970154262367
 51
146.5792253624189
  0
ARC
  5
61
  8
0
  6
CONTINUOUS
 62
     7
 10
-1.0567120358744411
 20
1.085088001006367
 30
0.0
 40
0.3881374423628817
 50
146.57916580185861
 51
181.9049088253941
  0
ARC
  5
62
  8
0
  6
CONTINUOUS
 62
     7
 10
-0.9608830358744414
 20
0.3892300010063675
 30
0.0
 40
0.1099654101297315
 50
249.36571423029579
 51
337.03157261281081
  0
ARC
  5
63
  8
0
  6
CONTINUOUS
 62
     7
 10
-0.7490680358744414
 20
0.3247040010063674
 30
0.0
 40
0.1126599738771497
 50
168.9386186390465
 51
252.39897342225649
  0
ARC
  5
64
  8
0
  6
CONTINUOUS
 62
     7
 10
-0.7408100358744411
 20
0.3507380010063674
 30
0.0
 40
0.1399715513452647
 50
252.3992195709933
 51
275.09273680141871
  0
ARC
  5
65
  8
0
  6
CONTINUOUS
 62
     7
 10
-0.009635035874438
 20
1.451704001006364
 30
0.0
 40
0.5096150981132702
 50
48.150967660319061
 51
90.0
  0
ARC
  5
66
  8
0
  6
CONTINUOUS
 62
     7
 10
0.482619964125562
 20
1.685081001006361
 30
0.0
 40
0.2055789999999999
 50
90.0
 51
142.11628984145219
  0
ARC
  5
67
  8
0
  6
CONTINUOUS
 62
     7
 10
0.9904759641255619
 20
1.428925001006363
 30
0.0
 40
0.1507850574725486
 50
139.765850715174
 51
285.3397852709798
  0
ARC
  5
68
  8
0
  6
CONTINUOUS
 62
     7
 10
0.8732649641255617
 20
1.0832320010063661
 30
0.0
 40
0.3036916702924178
 50
95.147268636677367
 51
184.1377964101485
  0
ARC
  5
69
  8
0
  6
CONTINUOUS
 62
     7
 10
0.0118199641255618
 20
1.0209130010063661
 30
0.0
 40
0.56000514449512
 50
267.80433824995231
 51
4.1376528578437606
  0
ARC
  5
6A
  8
0
  6
CONTINUOUS
 62
     7
 10
0.1520319641255618
 20
1.0310560010063661
 30
0.0
 40
0.4194262128885129
 50
4.1376770729587014
 51
38.744974176995846
  0
ARC
  5
6B
  8
0
  6
CONTINUOUS
 62
     7
 10
-0.009635035874438
 20
0.9050690010063672
 30
0.0
 40
0.49375
 50
36.869897645843977
 51
90.0
  0
ARC
  5
6C
  8
0
  6
CONTINUOUS
 62
     7
 10
0.5328769641255617
 20
1.1451240010063659
 30
0.0
 40
0.1578533564673226
 50
109.8953468212153
 51
159.14555811230781
  0
ARC
  5
6D
  8
0
  6
CONTINUOUS
 62
     7
 10
-0.084033035874438
 20
1.257576001006365
 30
0.0
 40
0.159639006677566
 50
339.3657376286925
 51
62.222551893568962
  0
ARC
  5
6E
  8
0
  6
CONTINUOUS
 62
     7
 10
0.194503964125562
 20
1.032016001006367
 30
0.0
 40
0.0750925903801434
 50
81.683869537954209
 51
157.0314294597749
  0
ARC
  5
6F
  8
0
  6
CONTINUOUS
 62
     7
 10
0.1116149641255619
 20
1.0563190010063661
 30
0.0
 40
0.10625
 50
331.92751306414709
 51
28.072486935853021
  0
ARC
  5
70
  8
0
  6
CONTINUOUS
 62
     7
 10
0.0215829641255619
 20
0.7751100010063673
 30
0.0
 40
0.2953532041556346
 50
316.37061767693871
 51
51.519724653274871
  0
ARC
  5
71
  8
0
  6
CONTINUOUS
 62
     7
 10
0.386429964125562
 20
1.699022001006361
 30
0.0
 40
0.3982361867460062
 50
194.20188806990041
 51
237.99453901385439
  0
ARC
  5
72
  8
0
  6
CONTINUOUS
 62
     7
 10
0.1178579641255619
 20
1.507927001006363
 30
0.0
 40
0.150089142555348
 50
81.375533510338855
 51
141.5197511789315
  0
ARC
  5
73
  8
0
  6
CONTINUOUS
 62
     7
 10
0.1572689641255621
 20
1.7677660010063601
 30
0.0
 40
0.1127217327093584
 50
173.09438465148401
 51
261.3752600784033
  0
ARC
  5
74
  8
0
  6
CONTINUOUS
 62
     7
 10
-0.1852650358744381
 20
1.80925200100636
 30
0.0
 40
0.2323154092801422
 50
353.09419639607808
 51
40.887242046504397
  0
ARC
  5
75
  8
0
  6
CONTINUOUS
 62
     7
 10
0.8273669641255619
 20
1.265780001006366
 30
0.0
 40
0.4823949999999954
 50
90.0
 51
182.31207996373561
  0
ARC
  5
76
  8
0
  6
CONTINUOUS
 62
     7
 10
0.217732964125562
 20
1.6294710010063611
 30
0.0
 40
0.3720013205998065
 50
8.7901916848220711
 51
44.597251838494657
  0
ARC
  5
77
  8
0
  6
CONTINUOUS
 62
     7
 10
0.7115139641255617
 20
1.659302001006361
 30
0.0
 40
0.1460143508152542
 50
354.69110601648208
 51
37.492489132567641
  0
ARC
  5
78
  8
0
  6
CONTINUOUS
 62
     7
 10
0.9864209641255619
 20
1.4437070010063631
 30
0.0
 40
0.1661139173940566
 50
285.33970154262391
 51
56.579225362418207
  0
ARC
  5
79
  8
0
  6
CONTINUOUS
 62
     7
 10
0.8641339641255621
 20
1.2583960010063651
 30
0.0
 40
0.3881374423628792
 50
56.57916580185816
 51
91.904908825394216
  0
ARC
  5
7A
  8
0
  6
CONTINUOUS
 62
     7
 10
0.168275964125562
 20
1.162567001006366
 30
0.0
 40
0.1099654101297311
 50
159.36571423029591
 51
247.03157261281089
  0
ARC
  5
7B
  8
0
  6
CONTINUOUS
 62
     7
 10
0.1037499641255619
 20
0.9507520010063675
 30
0.0
 40
0.1126599738771494
 50
78.938618639046396
 51
162.39897342225649
  0
ARC
  5
7C
  8
0
  6
CONTINUOUS
 62
     7
 10
0.1297839641255618
 20
0.9424940010063672
 30
0.0
 40
0.1399715513452643
 50
162.39921957099349
 51
185.09273680141879
  0
ARC
  5
7D
  8
0
  6
CONTINUOUS
 62
     7
 10
1.230749964125561
 20
0.2113190010063672
 30
0.0
 40
0.5096150000000003
 50
0.0
 51
41.849031465708158
  0
ARC
  5
7E
  8
0
  6
CONTINUOUS
 62
     7
 10
1.464126964125561
 20
0.7035740010063672
 30
0.0
 40
0.2055789815837215
 50
307.88371015854779
 51
0.0
  0
ARC
  5
7F
  8
0
  6
CONTINUOUS
 62
     7
 10
1.20797096412556
 20
1.2114300010063661
 30
0.0
 40
0.1507858206762159
 50
164.6603317904428
 51
310.23390385009202
  0
ARC
  5
80
  8
0
  6
CONTINUOUS
 62
     7
 10
0.8622779641255617
 20
1.094219001006367
 30
0.0
 40
0.3036916027304674
 50
265.86220222853598
 51
354.85272967070142
  0
ARC
  5
81
  8
0
  6
CONTINUOUS
 62
     7
 10
0.7999589641255618
 20
0.2327740010063671
 30
0.0
 40
0.5600046087854996
 50
85.862343451063865
 51
182.1956637099639
  0
ARC
  5
82
  8
0
  6
CONTINUOUS
 62
     7
 10
0.8101019641255618
 20
0.3729860010063676
 30
0.0
 40
0.4194261843626361
 50
51.25502582300399
 51
85.862322927041234
  0
ARC
  5
83
  8
0
  6
CONTINUOUS
 62
     7
 10
0.6841149641255618
 20
0.2113190010063672
 30
0.0
 40
0.4937500000000003
 50
0.0
 51
53.130102354155952
  0
ARC
  5
84
  8
0
  6
CONTINUOUS
 62
     7
 10
0.9241699641255619
 20
0.7538310010063674
 30
0.0
 40
0.1578533121888799
 50
290.85444188769208
 51
340.10465317878482
  0
POLYLINE
  5
85
  8
0
  6
CONTINUOUS
 62
     7
 66
     1
 10
0.0
 20
0.0
 30
0.0
 70
   129
  0
VERTEX
  5
18C
  8
0
  6
CONTINUOUS
 62
     7
 10
0.5216149641255619
 20
0.2113190010063675
 30
0.0
 42
-0.4142135623730951
  0
VERTEX
  5
18D
  8
0
  6
CONTINUOUS
 62
     7
 10
0.6153649641255619
 20
0.3050690010063676
 30
0.0
 42
-0.4142135623730951
  0
VERTEX
  5
18E
  8
0
  6
CONTINUOUS
 62
     7
 10
0.7091149641255619
 20
0.2113190010063675
 30
0.0
 42
-0.4142135623730951
  0
VERTEX
  5
18F
  8
0
  6
CONTINUOUS
 62
     7
 10
0.6153649641255619
 20
0.1175690010063674
 30
0.0
 42
-0.4142135623730951
  0
SEQEND
  5
190
  8
0
  6
CONTINUOUS
 62
     7
  0
ARC
  5
86
  8
0
  6
CONTINUOUS
 62
     7
 10
1.0366219641255601
 20
0.1369210010063673
 30
0.0
 40
0.1596391162998592
 50
27.777463134849938
 51
110.6342497233351
  0
ARC
  5
87
  8
0
  6
CONTINUOUS
 62
     7
 10
0.8110619641255619
 20
0.4154580010063674
 30
0.0
 40
0.075092390626481
 50
292.9685598378158
 51
8.316152533422267
  0
ARC
  5
88
  8
0
  6
CONTINUOUS
 62
     7
 10
0.8353649641255618
 20
0.3325690010063674
 30
0.0
 40
0.1062500000000002
 50
61.927513064146858
 51
118.07248693585269
  0
ARC
  5
89
  8
0
  6
CONTINUOUS
 62
     7
 10
0.5541559641255616
 20
0.2425370010063671
 30
0.0
 40
0.2953530517956439
 50
38.480272231674221
 51
133.6293816668429
  0
ARC
  5
8A
  8
0
  6
CONTINUOUS
 62
     7
 10
1.478067964125561
 20
0.6073840010063673
 30
0.0
 40
0.3982357975295546
 50
212.00545946115409
 51
255.79811175860061
  0
ARC
  5
8B
  8
0
  6
CONTINUOUS
 62
     7
 10
1.2869729641255621
 20
0.3388120010063671
 30
0.0
 40
0.1500888760468275
 50
308.48023656108569
 51
8.6244836633582622
  0
ARC
  5
8C
  8
0
  6
CONTINUOUS
 62
     7
 10
1.5468119641255611
 20
0.3782230010063676
 30
0.0
 40
0.1127216883523305
 50
188.62473992159681
 51
276.90561534851639
  0
ARC
  5
8D
  8
0
  6
CONTINUOUS
 62
     7
 10
1.588297964125561
 20
0.0356890010063675
 30
0.0
 40
0.2323150218754701
 50
49.112765457949379
 51
96.90581546556659
  0
ARC
  5
8E
  8
0
  6
CONTINUOUS
 62
     7
 10
1.0448259641255611
 20
1.048321001006367
 30
0.0
 40
0.4823947123725552
 50
267.6879185987782
 51
0.0
  0
ARC
  5
8F
  8
0
  6
CONTINUOUS
 62
     7
 10
1.408516964125561
 20
0.4386870010063675
 30
0.0
 40
0.3720010974311767
 50
45.402748467723363
 51
81.209803607799685
  0
ARC
  5
90
  8
0
  6
CONTINUOUS
 62
     7
 10
1.438347964125561
 20
0.9324680010063671
 30
0.0
 40
0.1460148202683551
 50
52.507512999336541
 51
95.308875830224935
  0
ARC
  5
91
  8
0
  6
CONTINUOUS
 62
     7
 10
1.2227529641255619
 20
1.207375001006366
 30
0.0
 40
0.1661142969704886
 50
33.42077522208573
 51
164.6603016923963
  0
ARC
  5
92
  8
0
  6
CONTINUOUS
 62
     7
 10
1.037441964125561
 20
1.085088001006367
 30
0.0
 40
0.3881374956545685
 50
358.09509166529739
 51
33.420834198141328
  0
ARC
  5
93
  8
0
  6
CONTINUOUS
 62
     7
 10
0.941612964125562
 20
0.3892300010063675
 30
0.0
 40
0.109965955754497
 50
202.96823709136589
 51
290.63412684141929
  0
ARC
  5
94
  8
0
  6
CONTINUOUS
 62
     7
 10
0.7297979641255618
 20
0.3247040010063674
 30
0.0
 40
0.1126592149537713
 50
287.6011980838814
 51
11.061459421500951
  0
ARC
  5
95
  8
0
  6
CONTINUOUS
 62
     7
 10
0.7215399641255619
 20
0.3507380010063674
 30
0.0
 40
0.1399715620617276
 50
264.90726319858112
 51
287.60078042900631
  0
ARC
  5
96
  8
0
  6
CONTINUOUS
 62
     7
 10
-0.009635035874438
 20
-1.0290659989936319
 30
0.0
 40
0.5096150981132726
 50
228.15096766031931
 51
270.0
  0
ARC
  5
97
  8
0
  6
CONTINUOUS
 62
     7
 10
-0.5018900358744385
 20
-1.2624429989936321
 30
0.0
 40
0.2055790000000002
 50
270.0
 51
322.1162898414521
  0
ARC
  5
98
  8
0
  6
CONTINUOUS
 62
     7
 10
-1.009746035874441
 20
-1.0062869989936321
 30
0.0
 40
0.1507850574725493
 50
319.76585071517371
 51
105.3397852709796
  0
ARC
  5
99
  8
0
  6
CONTINUOUS
 62
     7
 10
-0.8925350358744415
 20
-0.6605939989936325
 30
0.0
 40
0.3036916702924203
 50
275.14726863667732
 51
4.1377964101484963
  0
ARC
  5
9A
  8
0
  6
CONTINUOUS
 62
     7
 10
-0.0310900358744382
 20
-0.5982749989936326
 30
0.0
 40
0.56000514449512
 50
87.804338249952323
 51
184.1376528578437
  0
ARC
  5
9B
  8
0
  6
CONTINUOUS
 62
     7
 10
-0.1713020358744381
 20
-0.6084179989936329
 30
0.0
 40
0.419426212888514
 50
184.13767707295861
 51
218.74497417699601
  0
ARC
  5
9C
  8
0
  6
CONTINUOUS
 62
     7
 10
-0.009635035874438
 20
-0.4824309989936326
 30
0.0
 40
0.4937500000000003
 50
216.86989764584399
 51
270.0
  0
ARC
  5
9D
  8
0
  6
CONTINUOUS
 62
     7
 10
-0.552147035874439
 20
-0.7224859989936326
 30
0.0
 40
0.1578533564673245
 50
289.89534682121541
 51
339.14555811230758
  0
POLYLINE
  5
9E
  8
0
  6
CONTINUOUS
 62
     7
 66
     1
 10
0.0
 20
0.0
 30
0.0
 70
   129
  0
VERTEX
  5
191
  8
0
  6
CONTINUOUS
 62
     7
 10
-0.1033850358744381
 20
-0.4136809989936327
 30
0.0
 42
-0.4142135623730951
  0
VERTEX
  5
192
  8
0
  6
CONTINUOUS
 62
     7
 10
-0.009635035874438
 20
-0.3199309989936325
 30
0.0
 42
-0.4142135623730951
  0
VERTEX
  5
193
  8
0
  6
CONTINUOUS
 62
     7
 10
0.0841149641255621
 20
-0.4136809989936327
 30
0.0
 42
-0.4142135623730951
  0
VERTEX
  5
194
  8
0
  6
CONTINUOUS
 62
     7
 10
-0.009635035874438
 20
-0.5074309989936328
 30
0.0
 42
-0.4142135623730951
  0
SEQEND
  5
195
  8
0
  6
CONTINUOUS
 62
     7
  0
ARC
  5
9F
  8
0
  6
CONTINUOUS
 62
     7
 10
0.0647629641255619
 20
-0.8349379989936328
 30
0.0
 40
0.1596390066775661
 50
159.36573762869239
 51
242.22255189356909
  0
ARC
  5
A0
  8
0
  6
CONTINUOUS
 62
     7
 10
-0.2137740358744381
 20
-0.6093779989936327
 30
0.0
 40
0.0750925903801432
 50
261.68386953795408
 51
337.03142945977447
  0
ARC
  5
A1
  8
0
  6
CONTINUOUS
 62
     7
 10
-0.1308850358744379
 20
-0.6336809989936328
 30
0.0
 40
0.10625
 50
151.92751306414709
 51
208.07248693585279
  0
ARC
  5
A2
  8
0
  6
CONTINUOUS
 62
     7
 10
-0.0408530358744379
 20
-0.3524719989936329
 30
0.0
 40
0.295353204155635
 50
136.37061767693851
 51
231.51972465327469
  0
ARC
  5
A3
  8
0
  6
CONTINUOUS
 62
     7
 10
-0.4057000358744383
 20
-1.2763839989936321
 30
0.0
 40
0.3982361867460065
 50
14.201888069900621
 51
57.994539013854833
  0
ARC
  5
A4
  8
0
  6
CONTINUOUS
 62
     7
 10
-0.137128035874438
 20
-1.0852889989936321
 30
0.0
 40
0.1500891425553491
 50
261.37553351033893
 51
321.51975117893147
  0
ARC
  5
A5
  8
0
  6
CONTINUOUS
 62
     7
 10
-0.1765390358744381
 20
-1.345127998993632
 30
0.0
 40
0.1127217327093584
 50
353.09438465148401
 51
81.375260078403301
  0
ARC
  5
A6
  8
0
  6
CONTINUOUS
 62
     7
 10
0.165994964125562
 20
-1.3866139989936319
 30
0.0
 40
0.2323154092801422
 50
173.0941963960781
 51
220.88724204650441
  0
ARC
  5
A7
  8
0
  6
CONTINUOUS
 62
     7
 10
-0.8466370358744415
 20
-0.8431419989936326
 30
0.0
 40
0.4823949999999999
 50
270.0
 51
2.3120799637355831
  0
ARC
  5
A8
  8
0
  6
CONTINUOUS
 62
     7
 10
-0.237003035874438
 20
-1.2068329989936311
 30
0.0
 40
0.3720013205998078
 50
188.79019168482199
 51
224.5972518384946
  0
ARC
  5
A9
  8
0
  6
CONTINUOUS
 62
     7
 10
-0.7307840358744411
 20
-1.2366639989936321
 30
0.0
 40
0.1460143508152542
 50
174.691106016482
 51
217.4924891325677
  0
ARC
  5
AA
  8
0
  6
CONTINUOUS
 62
     7
 10
-1.00569103587444
 20
-1.0210689989936319
 30
0.0
 40
0.1661139173940579
 50
105.3397015426238
 51
236.5792253624187
  0
ARC
  5
AB
  8
0
  6
CONTINUOUS
 62
     7
 10
-0.8834040358744415
 20
-0.8357579989936326
 30
0.0
 40
0.3881374423628826
 50
236.57916580185841
 51
271.9049088253941
  0
ARC
  5
AC
  8
0
  6
CONTINUOUS
 62
     7
 10
-0.1875460358744381
 20
-0.7399289989936329
 30
0.0
 40
0.1099654101297312
 50
339.36571423029579
 51
67.031757194906618
  0
ARC
  5
AD
  8
0
  6
CONTINUOUS
 62
     7
 10
-0.123020035874438
 20
-0.5281139989936327
 30
0.0
 40
0.1126599738771494
 50
258.93861863904641
 51
342.3989734222564
  0
ARC
  5
AE
  8
0
  6
CONTINUOUS
 62
     7
 10
-0.1490540358744382
 20
-0.5198559989936327
 30
0.0
 40
0.1399715513452647
 50
342.39921957099352
 51
5.092736801418936
  0
ARC
  5
AF
  8
0
  6
CONTINUOUS
 62
     7
 10
-1.25002003587444
 20
0.2113190010063672
 30
0.0
 40
0.5096149999999998
 50
180.0
 51
221.84903146570809
  0
ARC
  5
B0
  8
0
  6
CONTINUOUS
 62
     7
 10
-1.4833970358744411
 20
-0.2809359989936327
 30
0.0
 40
0.2055789815837214
 50
127.8837101585476
 51
180.0
  0
ARC
  5
B1
  8
0
  6
CONTINUOUS
 62
     7
 10
-1.2272410358744399
 20
-0.788791998993633
 30
0.0
 40
0.1507858206762161
 50
344.6603317904428
 51
130.23444383140961
  0
ARC
  5
B2
  8
0
  6
CONTINUOUS
 62
     7
 10
-0.8815480358744414
 20
-0.6715809989936326
 30
0.0
 40
0.3036916027304671
 50
85.862202228536034
 51
174.85272967070139
  0
ARC
  5
B3
  8
0
  6
CONTINUOUS
 62
     7
 10
-0.8192290358744415
 20
0.1898640010063673
 30
0.0
 40
0.5600046087854995
 50
265.86234345106379
 51
2.195663709963922
  0
ARC
  5
B4
  8
0
  6
CONTINUOUS
 62
     7
 10
-0.8293720358744415
 20
0.0496520010063674
 30
0.0
 40
0.4194261843626361
 50
231.25502582300399
 51
265.8623229270413
  0
ARC
  5
B5
  8
0
  6
CONTINUOUS
 62
     7
 10
-0.7033850358744407
 20
0.2113190010063672
 30
0.0
 40
0.4937500000000008
 50
180.0
 51
233.13010235415589
  0
ARC
  5
B6
  8
0
  6
CONTINUOUS
 62
     7
 10
-0.9434400358744415
 20
-0.3311929989936326
 30
0.0
 40
0.1578533121888797
 50
110.8544418876922
 51
160.10465317878479
  0
ARC
  5
B7
  8
0
  6
CONTINUOUS
 62
     7
 10
-1.055892035874441
 20
0.2857170010063672
 30
0.0
 40
0.1596391162998593
 50
207.77746313484991
 51
290.63424972333502
  0
ARC
  5
B8
  8
0
  6
CONTINUOUS
 62
     7
 10
-0.8303320358744413
 20
0.0071800010063674
 30
0.0
 40
0.0750923906264807
 50
112.9685598378157
 51
188.3161525334221
  0
ARC
  5
B9
  8
0
  6
CONTINUOUS
 62
     7
 10
-0.8546350358744415
 20
0.0900690010063676
 30
0.0
 40
0.1062500000000003
 50
241.92751306414709
 51
298.07248693585291
  0
ARC
  5
BA
  8
0
  6
CONTINUOUS
 62
     7
 10
-0.573426035874439
 20
0.1801010010063673
 30
0.0
 40
0.2953530517956453
 50
218.48027223167389
 51
313.62938166684302
  0
ARC
  5
BB
  8
0
  6
CONTINUOUS
 62
     7
 10
-1.497338035874441
 20
-0.1847459989936329
 30
0.0
 40
0.3982357975295542
 50
32.005459461154167
 51
75.798111758600726
  0
ARC
  5
BC
  8
0
  6
CONTINUOUS
 62
     7
 10
-1.306243035874441
 20
0.0838260010063673
 30
0.0
 40
0.1500888760468279
 50
128.4802365610856
 51
188.62448366335809
  0
ARC
  5
BD
  8
0
  6
CONTINUOUS
 62
     7
 10
-1.5660820358744401
 20
0.0444150010063674
 30
0.0
 40
0.1127216883523307
 50
8.6247399215965643
 51
96.905615348515937
  0
ARC
  5
BE
  8
0
  6
CONTINUOUS
 62
     7
 10
-1.60756803587444
 20
0.3869490010063675
 30
0.0
 40
0.2323150218754699
 50
229.11276545794959
 51
276.9058154655666
  0
ARC
  5
BF
  8
0
  6
CONTINUOUS
 62
     7
 10
-1.06409603587444
 20
-0.6256829989936327
 30
0.0
 40
0.4823947123725552
 50
87.687918598778126
 51
180.0
  0
ARC
  5
C0
  8
0
  6
CONTINUOUS
 62
     7
 10
-1.42778703587444
 20
-0.0160489989936325
 30
0.0
 40
0.3720010974311771
 50
225.40274846772331
 51
261.2098036077997
  0
ARC
  5
C1
  8
0
  6
CONTINUOUS
 62
     7
 10
-1.4576180358744411
 20
-0.5098299989936325
 30
0.0
 40
0.1460148202683551
 50
232.5075129993366
 51
275.30887583022479
  0
ARC
  5
C2
  8
0
  6
CONTINUOUS
 62
     7
 10
-1.2420230358744411
 20
-0.7847369989936328
 30
0.0
 40
0.1661142969704895
 50
213.42077522208589
 51
344.6603016923961
  0
ARC
  5
C3
  8
0
  6
CONTINUOUS
 62
     7
 10
-1.0567120358744411
 20
-0.6624499989936326
 30
0.0
 40
0.388137495654568
 50
178.0950916652975
 51
213.42083419814151
  0
ARC
  5
C4
  8
0
  6
CONTINUOUS
 62
     7
 10
-0.9608830358744414
 20
0.0334080010063675
 30
0.0
 40
0.1099659557544968
 50
22.968237091365651
 51
110.634291484854
  0
ARC
  5
C5
  8
0
  6
CONTINUOUS
 62
     7
 10
-0.7490680358744414
 20
0.0979340010063675
 30
0.0
 40
0.1126592149537708
 50
107.6011980838815
 51
191.06145942150121
  0
ARC
  5
C6
  8
0
  6
CONTINUOUS
 62
     7
 10
-0.7408100358744411
 20
0.0719000010063676
 30
0.0
 40
0.139971562061727
 50
84.907263198581177
 51
107.6007804290067
  0
ARC
  5
C7
  8
0
  6
CONTINUOUS
 62
     7
 10
-0.009635035874438
 20
-1.0290659989936319
 30
0.0
 40
0.5096150000000003
 50
270.0
 51
311.84903146570798
  0
ARC
  5
C8
  8
0
  6
CONTINUOUS
 62
     7
 10
0.482619964125562
 20
-1.2624429989936321
 30
0.0
 40
0.2055789815837214
 50
217.88371015854781
 51
270.0
  0
ARC
  5
C9
  8
0
  6
CONTINUOUS
 62
     7
 10
0.9904759641255619
 20
-1.0062869989936321
 30
0.0
 40
0.150785820676216
 50
74.660331790442811
 51
220.23390385009191
  0
ARC
  5
CA
  8
0
  6
CONTINUOUS
 62
     7
 10
0.8732649641255617
 20
-0.6605939989936325
 30
0.0
 40
0.3036916027304671
 50
175.86220222853589
 51
264.85272967070159
  0
ARC
  5
CB
  8
0
  6
CONTINUOUS
 62
     7
 10
0.0118199641255618
 20
-0.5982749989936326
 30
0.0
 40
0.5600046087854995
 50
355.86234345106379
 51
92.19566370996391
  0
ARC
  5
CC
  8
0
  6
CONTINUOUS
 62
     7
 10
0.1520319641255618
 20
-0.6084179989936329
 30
0.0
 40
0.4194261843626363
 50
321.25502582300402
 51
355.8623229270413
  0
ARC
  5
CD
  8
0
  6
CONTINUOUS
 62
     7
 10
-0.009635035874438
 20
-0.4824309989936326
 30
0.0
 40
0.4937500000000003
 50
270.0
 51
323.13010235415589
  0
ARC
  5
CE
  8
0
  6
CONTINUOUS
 62
     7
 10
0.5328769641255617
 20
-0.7224859989936326
 30
0.0
 40
0.1578533121888798
 50
200.8544418876923
 51
250.10465317878479
  0
ARC
  5
CF
  8
0
  6
CONTINUOUS
 62
     7
 10
-0.084033035874438
 20
-0.8349379989936328
 30
0.0
 40
0.1596391162998592
 50
297.77746313484988
 51
20.634249723335071
  0
ARC
  5
D0
  8
0
  6
CONTINUOUS
 62
     7
 10
0.194503964125562
 20
-0.6093779989936327
 30
0.0
 40
0.0750923906264808
 50
202.96855983781549
 51
278.3161525334221
  0
ARC
  5
D1
  8
0
  6
CONTINUOUS
 62
     7
 10
0.1116149641255619
 20
-0.6336809989936328
 30
0.0
 40
0.10625
 50
331.92751306414709
 51
28.072486935852901
  0
ARC
  5
D2
  8
0
  6
CONTINUOUS
 62
     7
 10
0.0215829641255619
 20
-0.3524719989936329
 30
0.0
 40
0.2953530517956433
 50
308.48027223167418
 51
43.629381666842903
  0
ARC
  5
D3
  8
0
  6
CONTINUOUS
 62
     7
 10
0.386429964125562
 20
-1.2763839989936321
 30
0.0
 40
0.3982357975295545
 50
122.0054594611541
 51
165.79811175860061
  0
ARC
  5
D4
  8
0
  6
CONTINUOUS
 62
     7
 10
0.1178579641255619
 20
-1.0852889989936321
 30
0.0
 40
0.1500888760468277
 50
218.48023656108569
 51
278.62448366335832
  0
ARC
  5
D5
  8
0
  6
CONTINUOUS
 62
     7
 10
0.1572689641255621
 20
-1.345127998993632
 30
0.0
 40
0.1127216883523313
 50
98.624739921596657
 51
186.90561534851599
  0
ARC
  5
D6
  8
0
  6
CONTINUOUS
 62
     7
 10
-0.1852650358744381
 20
-1.3866139989936319
 30
0.0
 40
0.2323150218754697
 50
319.11276545794948
 51
6.9058154655665476
  0
ARC
  5
D7
  8
0
  6
CONTINUOUS
 62
     7
 10
0.8273669641255619
 20
-0.8431419989936326
 30
0.0
 40
0.4823947123725549
 50
177.68791859877811
 51
270.0
  0
ARC
  5
D8
  8
0
  6
CONTINUOUS
 62
     7
 10
0.217732964125562
 20
-1.2068329989936311
 30
0.0
 40
0.3720010974311769
 50
315.40274846772331
 51
351.2098036077997
  0
ARC
  5
D9
  8
0
  6
CONTINUOUS
 62
     7
 10
0.7115139641255617
 20
-1.2366639989936321
 30
0.0
 40
0.1460148202683551
 50
322.5075129993366
 51
5.3088758302249062
  0
ARC
  5
DA
  8
0
  6
CONTINUOUS
 62
     7
 10
0.9864209641255619
 20
-1.0210689989936319
 30
0.0
 40
0.1661142969704896
 50
303.42077522208592
 51
74.66030169239616
  0
ARC
  5
DB
  8
0
  6
CONTINUOUS
 62
     7
 10
0.8641339641255621
 20
-0.8357579989936326
 30
0.0
 40
0.3881374956545685
 50
268.09509166529739
 51
303.42083419814151
  0
ARC
  5
DC
  8
0
  6
CONTINUOUS
 62
     7
 10
0.168275964125562
 20
-0.7399289989936329
 30
0.0
 40
0.1099659557544974
 50
112.96823709136559
 51
200.63429148485389
  0
ARC
  5
DD
  8
0
  6
CONTINUOUS
 62
     7
 10
0.1037499641255619
 20
-0.5281139989936327
 30
0.0
 40
0.1126592149537712
 50
197.60119808388171
 51
281.06145942150113
  0
ARC
  5
DE
  8
0
  6
CONTINUOUS
 62
     7
 10
0.1297839641255618
 20
-0.5198559989936327
 30
0.0
 40
0.1399715620617272
 50
174.90726319858109
 51
197.60078042900659
  0
ARC
  5
DF
  8
0
  6
CONTINUOUS
 62
     7
 10
1.230749964125561
 20
0.2113190010063672
 30
0.0
 40
0.5096150981132717
 50
318.15096766031922
 51
0.0
  0
ARC
  5
E0
  8
0
  6
CONTINUOUS
 62
     7
 10
1.464126964125561
 20
-0.2809359989936327
 30
0.0
 40
0.2055789999999999
 50
0.0
 51
52.116289841452208
  0
ARC
  5
E1
  8
0
  6
CONTINUOUS
 62
     7
 10
1.20797096412556
 20
-0.788791998993633
 30
0.0
 40
0.1507850574725493
 50
49.765850715173762
 51
195.33978527097969
  0
ARC
  5
E2
  8
0
  6
CONTINUOUS
 62
     7
 10
0.8622779641255617
 20
-0.6715809989936326
 30
0.0
 40
0.3036916702924203
 50
5.1472686366774196
 51
94.137796410148454
  0
ARC
  5
E3
  8
0
  6
CONTINUOUS
 62
     7
 10
0.7999589641255618
 20
0.1898640010063673
 30
0.0
 40
0.5600051444951195
 50
177.80433824995231
 51
274.13765285784382
  0
ARC
  5
E4
  8
0
  6
CONTINUOUS
 62
     7
 10
0.8101019641255618
 20
0.0496520010063674
 30
0.0
 40
0.4194262128885129
 50
274.1376770729587
 51
308.74497417699598
  0
ARC
  5
E5
  8
0
  6
CONTINUOUS
 62
     7
 10
0.6841149641255618
 20
0.2113190010063672
 30
0.0
 40
0.4937500000000003
 50
306.86989764584399
 51
0.0
  0
ARC
  5
E6
  8
0
  6
CONTINUOUS
 62
     7
 10
0.9241699641255619
 20
-0.3311929989936326
 30
0.0
 40
0.1578533564673237
 50
19.89534682121516
 51
69.145558112307725
  0
ARC
  5
E7
  8
0
  6
CONTINUOUS
 62
     7
 10
1.0366219641255601
 20
0.2857170010063672
 30
0.0
 40
0.1596390066775661
 50
249.36573762869239
 51
332.22255189356912
  0
ARC
  5
E8
  8
0
  6
CONTINUOUS
 62
     7
 10
0.8110619641255619
 20
0.0071800010063674
 30
0.0
 40
0.0750925903801437
 50
351.68386953795402
 51
67.031429459774756
  0
ARC
  5
E9
  8
0
  6
CONTINUOUS
 62
     7
 10
0.8353649641255618
 20
0.0900690010063676
 30
0.0
 40
0.1062500000000002
 50
241.92751306414721
 51
298.07248693585302
  0
ARC
  5
EA
  8
0
  6
CONTINUOUS
 62
     7
 10
0.5541559641255616
 20
0.1801010010063673
 30
0.0
 40
0.2953532041556344
 50
226.37061767693859
 51
321.51972465327481
  0
ARC
  5
EB
  8
0
  6
CONTINUOUS
 62
     7
 10
1.478067964125561
 20
-0.1847459989936329
 30
0.0
 40
0.3982361867460068
 50
104.2018880699006
 51
147.99453901385471
  0
ARC
  5
EC
  8
0
  6
CONTINUOUS
 62
     7
 10
1.2869729641255621
 20
0.0838260010063673
 30
0.0
 40
0.1500891425553496
 50
351.37553351033898
 51
51.519751178931372
  0
ARC
  5
ED
  8
0
  6
CONTINUOUS
 62
     7
 10
1.5468119641255611
 20
0.0444150010063674
 30
0.0
 40
0.1127217327093585
 50
83.09438465148375
 51
171.3752600784033
  0
ARC
  5
EE
  8
0
  6
CONTINUOUS
 62
     7
 10
1.588297964125561
 20
0.3869490010063675
 30
0.0
 40
0.2323154092801421
 50
263.0941963960783
 51
310.88724204650418
  0
ARC
  5
EF
  8
0
  6
CONTINUOUS
 62
     7
 10
1.0448259641255611
 20
-0.6256829989936327
 30
0.0
 40
0.4823950000000007
 50
0.0
 51
92.312079963735599
  0
ARC
  5
F0
  8
0
  6
CONTINUOUS
 62
     7
 10
1.408516964125561
 20
-0.0160489989936325
 30
0.0
 40
0.3720013205998068
 50
278.7901916848221
 51
314.59725183849463
  0
ARC
  5
F1
  8
0
  6
CONTINUOUS
 62
     7
 10
1.438347964125561
 20
-0.5098299989936325
 30
0.0
 40
0.1460143508152542
 50
264.69110601648202
 51
307.4924891325677
  0
ARC
  5
F2
  8
0
  6
CONTINUOUS
 62
     7
 10
1.2227529641255619
 20
-0.7847369989936328
 30
0.0
 40
0.1661139173940584
 50
195.3397015426238
 51
326.57922536241853
  0
ARC
  5
F3
  8
0
  6
CONTINUOUS
 62
     7
 10
1.037441964125561
 20
-0.6624499989936326
 30
0.0
 40
0.3881374423628828
 50
326.57916580185849
 51
1.9049088253941009
  0
ARC
  5
F4
  8
0
  6
CONTINUOUS
 62
     7
 10
0.941612964125562
 20
0.0334080010063675
 30
0.0
 40
0.109965410129731
 50
69.365714230295779
 51
157.03175719490631
  0
ARC
  5
F5
  8
0
  6
CONTINUOUS
 62
     7
 10
0.7297979641255618
 20
0.0979340010063675
 30
0.0
 40
0.11265997387715
 50
348.93861863904641
 51
72.398973422256518
  0
ARC
  5
F6
  8
0
  6
CONTINUOUS
 62
     7
 10
0.7215399641255619
 20
0.0719000010063676
 30
0.0
 40
0.139971551345264
 50
72.399219570993623
 51
95.092736801418724
  0
ENDBLK
  5
F7
  8
OLCP_GW_22
  0
BLOCK
  8
0
  2
*U1
 70
     1
 10
0.0
 20
0.0
 30
0.0
  3
*U1
  1

  0
TEXT
  5
197
  8
OLCP_GW_22
  6
CONTINUOUS
 62
     7
 10
0.6141153432622537
 20
-1.972083333333333
 30
0.0
 40
0.1195548230889743
  1
OLCP GW 22
  7
HELVETICA
  0
TEXT
  5
198
  8
OLCP_GW_22
  6
CONTINUOUS
 62
     7
 10
0.6039233387545318
 20
-2.1148271497803042
 30
0.0
 40
0.0908736210299294
  1
3 3/8\" x 3 3/8\" x 3/8\"
  7
HELVETICA
  0
ENDBLK
  5
19A
  8
0
  0
ENDSEC
  0
SECTION
  2
ENTITIES
  0
INSERT
  5
F8
  8
OLCP_GW_22
  6
CONTINUOUS
  2
*U1
 10
0.0
 20
0.0
 30
0.0
  0
INSERT
  5
F9
  8
OLCP_GW_22
 62
     7
  2
GROUP
 10
0.0
 20
0.0
 30
0.0
  0
VIEWPORT
  5
16D
 67
     1
  8
0
  6
CONTINUOUS
 10
4.2695668274683998
 20
5.0487404181190652
 30
0.0
 40
15.87803652630528
 41
8.7189631804220333
 68
     1
 69
     1
1001
ACAD
1000
MVIEW
1002
{
1070
    16
1010
0.0
1020
0.0
1030
0.0
1010
0.0
1020
0.0
1030
1.0
1040
0.0
1040
8.7189631804220333
1040
4.2695668274683998
1040
5.0487404181190652
1040
50.0
1040
0.0
1040
0.0
1070
     0
1070
  2000
1070
     1
1070
     1
1070
     0
1070
     0
1070
     0
1070
     0
1040
0.0
1040
0.0
1040
0.0
1040
10.0
1040
10.0
1040
10.0
1040
10.0
1070
     0
1002
{
1002
}
1002
}
  0
VIEWPORT
  5
170
 67
     1
  8
OLCP_GW_22
  6
CONTINUOUS
 10
5.6187502042515067
 20
3.9154166217864028
 30
0.0
 40
8.9900003268024111
 41
6.2646665948582436
 68
     2
 69
     2
1001
ACAD
1000
MVIEW
1002
{
1070
    16
1010
0.0
1020
0.0
1030
0.0
1010
0.0
1020
0.0
1030
1.0
1040
0.0
1040
4.1671638813365552
1040
0.1169701887173959
1040
-0.0898753790220717
1040
50.0
1040
0.0
1040
0.0
1070
     0
1070
  2000
1070
     1
1070
     1
1070
     0
1070
     0
1070
     0
1070
     0
1040
0.0
1040
0.0
1040
0.0
1040
1.0
1040
1.0
1040
0.0
1040
0.0
1070
     0
1002
{
1002
}
1002
}
  0
ENDSEC
  0
EOF
