  0
SECTION
  2
HEADER
  9
$ACADVER
  1
AC1018
  9
$ACADMAINTVER
 70
     0
  9
$DWGCODEPAGE
  3
ANSI_932
  9
$INSBASE
 10
0.0
 20
0.0
 30
0.0
  9
$EXTMIN
 10
1.000000000000000E+20
 20
1.000000000000000E+20
 30
1.000000000000000E+20
  9
$EXTMAX
 10
-1.000000000000000E+20
 20
-1.000000000000000E+20
 30
-1.000000000000000E+20
  9
$LIMMIN
 10
0.0
 20
0.0
  9
$LIMMAX
 10
12.0
 20
9.0
  9
$ORTHOMODE
 70
     0
  9
$REGENMODE
 70
     1
  9
$FILLMODE
 70
     1
  9
$QTEXTMODE
 70
     0
  9
$MIRRTEXT
 70
     1
  9
$LTSCALE
 40
1.0
  9
$ATTMODE
 70
     1
  9
$TEXTSIZE
 40
0.2
  9
$TRACEWID
 40
0.05
  9
$TEXTSTYLE
  7
Standard
  9
$CLAYER
  8
0
  9
$CELTYPE
  6
ByLayer
  9
$CECOLOR
 62
   256
  9
$CELTSCALE
 40
1.0
  9
$DISPSILH
 70
     0
  9
$DIMSCALE
 40
1.0
  9
$DIMASZ
 40
0.18
  9
$DIMEXO
 40
0.0625
  9
$DIMDLI
 40
0.38
  9
$DIMRND
 40
0.0
  9
$DIMDLE
 40
0.0
  9
$DIMEXE
 40
0.18
  9
$DIMTP
 40
0.0
  9
$DIMTM
 40
0.0
  9
$DIMTXT
 40
0.18
  9
$DIMCEN
 40
0.09
  9
$DIMTSZ
 40
0.0
  9
$DIMTOL
 70
     0
  9
$DIMLIM
 70
     0
  9
$DIMTIH
 70
     1
  9
$DIMTOH
 70
     1
  9
$DIMSE1
 70
     0
  9
$DIMSE2
 70
     0
  9
$DIMTAD
 70
     0
  9
$DIMZIN
 70
     0
  9
$DIMBLK
  1

  9
$DIMASO
 70
     1
  9
$DIMSHO
 70
     1
  9
$DIMPOST
  1

  9
$DIMAPOST
  1

  9
$DIMALT
 70
     0
  9
$DIMALTD
 70
     2
  9
$DIMALTF
 40
25.4
  9
$DIMLFAC
 40
1.0
  9
$DIMTOFL
 70
     0
  9
$DIMTVP
 40
0.0
  9
$DIMTIX
 70
     0
  9
$DIMSOXD
 70
     0
  9
$DIMSAH
 70
     0
  9
$DIMBLK1
  1

  9
$DIMBLK2
  1

  9
$DIMSTYLE
  2
Standard
  9
$DIMCLRD
 70
     0
  9
$DIMCLRE
 70
     0
  9
$DIMCLRT
 70
     0
  9
$DIMTFAC
 40
1.0
  9
$DIMGAP
 40
0.09
  9
$DIMJUST
 70
     0
  9
$DIMSD1
 70
     0
  9
$DIMSD2
 70
     0
  9
$DIMTOLJ
 70
     1
  9
$DIMTZIN
 70
     0
  9
$DIMALTZ
 70
     0
  9
$DIMALTTZ
 70
     0
  9
$DIMUPT
 70
     0
  9
$DIMDEC
 70
     4
  9
$DIMTDEC
 70
     4
  9
$DIMALTU
 70
     2
  9
$DIMALTTD
 70
     2
  9
$DIMTXSTY
  7
Standard
  9
$DIMAUNIT
 70
     0
  9
$DIMADEC
 70
     0
  9
$DIMALTRND
 40
0.0
  9
$DIMAZIN
 70
     0
  9
$DIMDSEP
 70
    46
  9
$DIMATFIT
 70
     3
  9
$DIMFRAC
 70
     0
  9
$DIMLDRBLK
  1

  9
$DIMLUNIT
 70
     2
  9
$DIMLWD
 70
    -2
  9
$DIMLWE
 70
    -2
  9
$DIMTMOVE
 70
     0
  9
$LUNITS
 70
     2
  9
$LUPREC
 70
     4
  9
$SKETCHINC
 40
0.1
  9
$FILLETRAD
 40
0.5
  9
$AUNITS
 70
     0
  9
$AUPREC
 70
     0
  9
$MENU
  1
.
  9
$ELEVATION
 40
0.0
  9
$PELEVATION
 40
0.0
  9
$THICKNESS
 40
0.0
  9
$LIMCHECK
 70
     0
  9
$CHAMFERA
 40
0.5
  9
$CHAMFERB
 40
0.5
  9
$CHAMFERC
 40
1.0
  9
$CHAMFERD
 40
0.0
  9
$SKPOLY
 70
     0
  9
$TDCREATE
 40
2457028.6028125
  9
$TDUCREATE
 40
2457028.811145833
  9
$TDUPDATE
 40
2457028.602812511
  9
$TDUUPDATE
 40
2457028.811145845
  9
$TDINDWG
 40
0.0000000116
  9
$TDUSRTIMER
 40
0.0000000116
  9
$USRTIMER
 70
     1
  9
$ANGBASE
 50
0.0
  9
$ANGDIR
 70
     0
  9
$PDMODE
 70
     0
  9
$PDSIZE
 40
0.0
  9
$PLINEWID
 40
0.0
  9
$SPLFRAME
 70
     0
  9
$SPLINETYPE
 70
     6
  9
$SPLINESEGS
 70
     8
  9
$HANDSEED
  5
A5
  9
$SURFTAB1
 70
     6
  9
$SURFTAB2
 70
     6
  9
$SURFTYPE
 70
     6
  9
$SURFU
 70
     6
  9
$SURFV
 70
     6
  9
$UCSBASE
  2

  9
$UCSNAME
  2

  9
$UCSORG
 10
0.0
 20
0.0
 30
0.0
  9
$UCSXDIR
 10
1.0
 20
0.0
 30
0.0
  9
$UCSYDIR
 10
0.0
 20
1.0
 30
0.0
  9
$UCSORTHOREF
  2

  9
$UCSORTHOVIEW
 70
     0
  9
$UCSORGTOP
 10
0.0
 20
0.0
 30
0.0
  9
$UCSORGBOTTOM
 10
0.0
 20
0.0
 30
0.0
  9
$UCSORGLEFT
 10
0.0
 20
0.0
 30
0.0
  9
$UCSORGRIGHT
 10
0.0
 20
0.0
 30
0.0
  9
$UCSORGFRONT
 10
0.0
 20
0.0
 30
0.0
  9
$UCSORGBACK
 10
0.0
 20
0.0
 30
0.0
  9
$PUCSBASE
  2

  9
$PUCSNAME
  2

  9
$PUCSORG
 10
0.0
 20
0.0
 30
0.0
  9
$PUCSXDIR
 10
1.0
 20
0.0
 30
0.0
  9
$PUCSYDIR
 10
0.0
 20
1.0
 30
0.0
  9
$PUCSORTHOREF
  2

  9
$PUCSORTHOVIEW
 70
     0
  9
$PUCSORGTOP
 10
0.0
 20
0.0
 30
0.0
  9
$PUCSORGBOTTOM
 10
0.0
 20
0.0
 30
0.0
  9
$PUCSORGLEFT
 10
0.0
 20
0.0
 30
0.0
  9
$PUCSORGRIGHT
 10
0.0
 20
0.0
 30
0.0
  9
$PUCSORGFRONT
 10
0.0
 20
0.0
 30
0.0
  9
$PUCSORGBACK
 10
0.0
 20
0.0
 30
0.0
  9
$USERI1
 70
     0
  9
$USERI2
 70
     0
  9
$USERI3
 70
     0
  9
$USERI4
 70
     0
  9
$USERI5
 70
     0
  9
$USERR1
 40
0.0
  9
$USERR2
 40
0.0
  9
$USERR3
 40
0.0
  9
$USERR4
 40
0.0
  9
$USERR5
 40
0.0
  9
$WORLDVIEW
 70
     1
  9
$SHADEDGE
 70
     3
  9
$SHADEDIF
 70
    70
  9
$TILEMODE
 70
     1
  9
$MAXACTVP
 70
    64
  9
$PINSBASE
 10
0.0
 20
0.0
 30
0.0
  9
$PLIMCHECK
 70
     0
  9
$PEXTMIN
 10
1.000000000000000E+20
 20
1.000000000000000E+20
 30
1.000000000000000E+20
  9
$PEXTMAX
 10
-1.000000000000000E+20
 20
-1.000000000000000E+20
 30
-1.000000000000000E+20
  9
$PLIMMIN
 10
0.0
 20
0.0
  9
$PLIMMAX
 10
12.0
 20
9.0
  9
$UNITMODE
 70
     0
  9
$VISRETAIN
 70
     1
  9
$PLINEGEN
 70
     0
  9
$PSLTSCALE
 70
     1
  9
$TREEDEPTH
 70
  3020
  9
$CMLSTYLE
  2
Standard
  9
$CMLJUST
 70
     0
  9
$CMLSCALE
 40
1.0
  9
$PROXYGRAPHICS
 70
     1
  9
$MEASUREMENT
 70
     0
  9
$CELWEIGHT
370
    -1
  9
$ENDCAPS
280
     0
  9
$JOINSTYLE
280
     0
  9
$LWDISPLAY
290
     1
  9
$INSUNITS
 70
     1
  9
$HYPERLINKBASE
  1

  9
$STYLESHEET
  1

  9
$XEDIT
290
     1
  9
$CEPSNTYPE
380
     0
  9
$PSTYLEMODE
290
     1
  9
$FINGERPRINTGUID
  2
{5182347A-EF3E-C94C-9670-A1384F590940}
  9
$VERSIONGUID
  2
{FAEB1C32-E019-11D5-929B-00C0DF256EC4}
  9
$EXTNAMES
290
     1
  9
$PSVPSCALE
 40
0.0
  9
$OLESTARTUP
290
     0
  9
$SORTENTS
280
   127
  9
$INDEXCTL
280
     0
  9
$HIDETEXT
280
     1
  9
$XCLIPFRAME
290
     0
  9
$HALOGAP
280
     0
  9
$OBSCOLOR
 70
   257
  9
$OBSLTYPE
280
     0
  9
$INTERSECTIONDISPLAY
280
     0
  9
$INTERSECTIONCOLOR
 70
   257
  9
$DIMASSOC
280
     2
  9
$PROJECTNAME
  1

  0
ENDSEC
  0
SECTION
  2
CLASSES
  0
CLASS
  1
ACDBDICTIONARYWDFLT
  2
AcDbDictionaryWithDefault
  3
ObjectDBX Classes
 90
        0
 91
        3
280
     0
281
     0
  0
CLASS
  1
VISUALSTYLE
  2
AcDbVisualStyle
  3
ObjectDBX Classes
 90
     4095
 91
        3
280
     0
281
     0
  0
ENDSEC
  0
SECTION
  2
TABLES
  0
TABLE
  2
VPORT
  5
8
330
0
100
AcDbSymbolTable
 70
     1
  0
VPORT
  5
29
330
8
100
AcDbSymbolTableRecord
100
AcDbViewportTableRecord
  2
*Active
 70
     0
 10
0.0
 20
0.0
 11
1.0
 21
1.0
 12
0.0
 22
0.0
 13
0.0
 23
0.0
 14
0.5
 24
0.5
 15
0.5
 25
0.5
 16
0.0
 26
0.0
 36
1.0
 17
11.5
 27
11.5
 37
0.0
 40
23.0
 41
1.0
 42
50.0
 43
0.0
 44
0.0
 50
0.0
 51
0.0
 71
     0
 72
   100
 73
     1
 74
     3
 75
     0
 76
     0
 77
     0
 78
     0
281
     0
 65
     1
110
0.0
120
0.0
130
0.0
111
1.0
121
0.0
131
0.0
112
0.0
122
1.0
132
0.0
 79
     0
146
0.0
  0
ENDTAB
  0
TABLE
  2
LTYPE
  5
5
330
0
100
AcDbSymbolTable
 70
     1
  0
LTYPE
  5
14
330
5
100
AcDbSymbolTableRecord
100
AcDbLinetypeTableRecord
  2
ByBlock
 70
     0
  3

 72
    65
 73
     0
 40
0.0
  0
LTYPE
  5
15
330
5
100
AcDbSymbolTableRecord
100
AcDbLinetypeTableRecord
  2
ByLayer
 70
     0
  3

 72
    65
 73
     0
 40
0.0
  0
LTYPE
  5
16
330
5
100
AcDbSymbolTableRecord
100
AcDbLinetypeTableRecord
  2
Continuous
 70
     0
  3
Solid line
 72
    65
 73
     0
 40
0.0
  0
ENDTAB
  0
TABLE
  2
LAYER
  5
2
330
0
100
AcDbSymbolTable
 70
     2
  0
LAYER
  5
10
330
2
100
AcDbSymbolTableRecord
100
AcDbLayerTableRecord
  2
0
 70
     0
 62
     7
  6
Continuous
370
    -3
390
F
  0
LAYER
  5
3B
330
2
100
AcDbSymbolTableRecord
100
AcDbLayerTableRecord
  2
Layer 1
 70
     0
 62
     7
  6
Continuous
370
    -3
390
F
  0
ENDTAB
  0
TABLE
  2
STYLE
  5
3
330
0
100
AcDbSymbolTable
 70
     1
  0
STYLE
  5
11
330
3
100
AcDbSymbolTableRecord
100
AcDbTextStyleTableRecord
  2
Standard
 70
     0
 40
0.0
 41
1.0
 50
0.0
 71
     0
 42
0.2
  3
txt
  4

  0
ENDTAB
  0
TABLE
  2
VIEW
  5
6
330
0
100
AcDbSymbolTable
 70
     0
  0
ENDTAB
  0
TABLE
  2
UCS
  5
7
330
0
100
AcDbSymbolTable
 70
     0
  0
ENDTAB
  0
TABLE
  2
APPID
  5
9
330
0
100
AcDbSymbolTable
 70
     1
  0
APPID
  5
12
330
9
100
AcDbSymbolTableRecord
100
AcDbRegAppTableRecord
  2
ACAD
 70
     0
  0
ENDTAB
  0
TABLE
  2
DIMSTYLE
  5
A
330
0
100
AcDbSymbolTable
 70
     1
100
AcDbDimStyleTable
  0
DIMSTYLE
105
27
330
A
100
AcDbSymbolTableRecord
100
AcDbDimStyleTableRecord
  2
Standard
 70
     0
340
11
  0
ENDTAB
  0
TABLE
  2
BLOCK_RECORD
  5
1
330
0
100
AcDbSymbolTable
 70
    22
  0
BLOCK_RECORD
  5
1F
330
1
100
AcDbSymbolTableRecord
100
AcDbBlockTableRecord
  2
*Model_Space
340
22
  0
BLOCK_RECORD
  5
1B
330
1
100
AcDbSymbolTableRecord
100
AcDbBlockTableRecord
  2
*Paper_Space
340
1E
  0
BLOCK_RECORD
  5
23
330
1
100
AcDbSymbolTableRecord
100
AcDbBlockTableRecord
  2
*Paper_Space0
340
26
  0
BLOCK_RECORD
  5
3C
330
1
100
AcDbSymbolTableRecord
100
AcDbBlockTableRecord
  2
block 2
340
0
102
{BLKREFS
331
3D
102
}
  0
BLOCK_RECORD
  5
40
330
1
100
AcDbSymbolTableRecord
100
AcDbBlockTableRecord
  2
block 3
340
0
102
{BLKREFS
331
41
102
}
  0
BLOCK_RECORD
  5
45
330
1
100
AcDbSymbolTableRecord
100
AcDbBlockTableRecord
  2
block 4
340
0
102
{BLKREFS
331
46
102
}
  0
BLOCK_RECORD
  5
4A
330
1
100
AcDbSymbolTableRecord
100
AcDbBlockTableRecord
  2
block 5
340
0
102
{BLKREFS
331
4B
102
}
  0
BLOCK_RECORD
  5
4F
330
1
100
AcDbSymbolTableRecord
100
AcDbBlockTableRecord
  2
block 6
340
0
102
{BLKREFS
331
50
102
}
  0
BLOCK_RECORD
  5
54
330
1
100
AcDbSymbolTableRecord
100
AcDbBlockTableRecord
  2
block 7
340
0
102
{BLKREFS
331
55
102
}
  0
BLOCK_RECORD
  5
59
330
1
100
AcDbSymbolTableRecord
100
AcDbBlockTableRecord
  2
block 8
340
0
102
{BLKREFS
331
5A
102
}
  0
BLOCK_RECORD
  5
5E
330
1
100
AcDbSymbolTableRecord
100
AcDbBlockTableRecord
  2
block 9
340
0
102
{BLKREFS
331
5F
102
}
  0
BLOCK_RECORD
  5
63
330
1
100
AcDbSymbolTableRecord
100
AcDbBlockTableRecord
  2
block 10
340
0
102
{BLKREFS
331
64
102
}
  0
BLOCK_RECORD
  5
68
330
1
100
AcDbSymbolTableRecord
100
AcDbBlockTableRecord
  2
block 11
340
0
102
{BLKREFS
331
69
102
}
  0
BLOCK_RECORD
  5
6D
330
1
100
AcDbSymbolTableRecord
100
AcDbBlockTableRecord
  2
block 12
340
0
102
{BLKREFS
331
6E
102
}
  0
BLOCK_RECORD
  5
72
330
1
100
AcDbSymbolTableRecord
100
AcDbBlockTableRecord
  2
block 13
340
0
102
{BLKREFS
331
73
102
}
  0
BLOCK_RECORD
  5
77
330
1
100
AcDbSymbolTableRecord
100
AcDbBlockTableRecord
  2
block 14
340
0
102
{BLKREFS
331
78
102
}
  0
BLOCK_RECORD
  5
7C
330
1
100
AcDbSymbolTableRecord
100
AcDbBlockTableRecord
  2
block 15
340
0
102
{BLKREFS
331
7D
102
}
  0
BLOCK_RECORD
  5
81
330
1
100
AcDbSymbolTableRecord
100
AcDbBlockTableRecord
  2
block 16
340
0
102
{BLKREFS
331
82
102
}
  0
BLOCK_RECORD
  5
86
330
1
100
AcDbSymbolTableRecord
100
AcDbBlockTableRecord
  2
block 17
340
0
102
{BLKREFS
331
87
102
}
  0
BLOCK_RECORD
  5
8B
330
1
100
AcDbSymbolTableRecord
100
AcDbBlockTableRecord
  2
block 18
340
0
102
{BLKREFS
331
8C
102
}
  0
BLOCK_RECORD
  5
90
330
1
100
AcDbSymbolTableRecord
100
AcDbBlockTableRecord
  2
block 19
340
0
102
{BLKREFS
331
91
102
}
  0
BLOCK_RECORD
  5
95
330
1
100
AcDbSymbolTableRecord
100
AcDbBlockTableRecord
  2
block 20
340
0
102
{BLKREFS
331
96
102
}
  0
BLOCK_RECORD
  5
9A
330
1
100
AcDbSymbolTableRecord
100
AcDbBlockTableRecord
  2
block 21
340
0
102
{BLKREFS
331
9B
102
}
  0
BLOCK_RECORD
  5
9F
330
1
100
AcDbSymbolTableRecord
100
AcDbBlockTableRecord
  2
block 22
340
0
102
{BLKREFS
331
A0
102
}
  0
ENDTAB
  0
ENDSEC
  0
SECTION
  2
BLOCKS
  0
BLOCK
  5
20
330
1F
100
AcDbEntity
  8
0
100
AcDbBlockBegin
  2
*Model_Space
 70
     0
 71
     0
 10
0.0
 20
0.0
 30
0.0
  3
*Model_Space
  1

  0
ENDBLK
  5
21
330
1F
100
AcDbEntity
  8
0
100
AcDbBlockEnd
  0
BLOCK
  5
1C
330
1B
100
AcDbEntity
 67
     1
  8
0
100
AcDbBlockBegin
  2
*Paper_Space
 70
     0
 71
     0
 10
0.0
 20
0.0
 30
0.0
  3
*Paper_Space
  1

  0
ENDBLK
  5
1D
330
1B
100
AcDbEntity
 67
     1
  8
0
100
AcDbBlockEnd
  0
BLOCK
  5
24
330
23
100
AcDbEntity
  8
0
100
AcDbBlockBegin
  2
*Paper_Space0
 70
     0
 71
     0
 10
0.0
 20
0.0
 30
0.0
  3
*Paper_Space0
  1

  0
ENDBLK
  5
25
330
23
100
AcDbEntity
  8
0
100
AcDbBlockEnd
  0
BLOCK
  5
3E
330
3C
100
AcDbEntity
  8
0
100
AcDbBlockBegin
  2
block 2
 70
     0
 71
     0
 10
0.0
 20
0.0
 30
0.0
  3
block 2
  1

  0
INSERT
  5
41
330
3C
100
AcDbEntity
  8
Layer 1
100
AcDbBlockReference
  2
block 3
 10
0.0
 20
0.0
 30
0.0
  0
INSERT
  5
46
330
3C
100
AcDbEntity
  8
Layer 1
100
AcDbBlockReference
  2
block 4
 10
0.0
 20
0.0
 30
0.0
  0
INSERT
  5
4B
330
3C
100
AcDbEntity
  8
Layer 1
100
AcDbBlockReference
  2
block 5
 10
0.0
 20
0.0
 30
0.0
  0
INSERT
  5
50
330
3C
100
AcDbEntity
  8
Layer 1
100
AcDbBlockReference
  2
block 6
 10
0.0
 20
0.0
 30
0.0
  0
INSERT
  5
55
330
3C
100
AcDbEntity
  8
Layer 1
100
AcDbBlockReference
  2
block 7
 10
0.0
 20
0.0
 30
0.0
  0
INSERT
  5
5A
330
3C
100
AcDbEntity
  8
Layer 1
100
AcDbBlockReference
  2
block 8
 10
0.0
 20
0.0
 30
0.0
  0
INSERT
  5
5F
330
3C
100
AcDbEntity
  8
Layer 1
100
AcDbBlockReference
  2
block 9
 10
0.0
 20
0.0
 30
0.0
  0
INSERT
  5
64
330
3C
100
AcDbEntity
  8
Layer 1
100
AcDbBlockReference
  2
block 10
 10
0.0
 20
0.0
 30
0.0
  0
INSERT
  5
69
330
3C
100
AcDbEntity
  8
Layer 1
100
AcDbBlockReference
  2
block 11
 10
0.0
 20
0.0
 30
0.0
  0
INSERT
  5
6E
330
3C
100
AcDbEntity
  8
Layer 1
100
AcDbBlockReference
  2
block 12
 10
0.0
 20
0.0
 30
0.0
  0
INSERT
  5
73
330
3C
100
AcDbEntity
  8
Layer 1
100
AcDbBlockReference
  2
block 13
 10
0.0
 20
0.0
 30
0.0
  0
INSERT
  5
78
330
3C
100
AcDbEntity
  8
Layer 1
100
AcDbBlockReference
  2
block 14
 10
0.0
 20
0.0
 30
0.0
  0
INSERT
  5
7D
330
3C
100
AcDbEntity
  8
Layer 1
100
AcDbBlockReference
  2
block 15
 10
0.0
 20
0.0
 30
0.0
  0
INSERT
  5
82
330
3C
100
AcDbEntity
  8
Layer 1
100
AcDbBlockReference
  2
block 16
 10
0.0
 20
0.0
 30
0.0
  0
INSERT
  5
87
330
3C
100
AcDbEntity
  8
Layer 1
100
AcDbBlockReference
  2
block 17
 10
0.0
 20
0.0
 30
0.0
  0
INSERT
  5
8C
330
3C
100
AcDbEntity
  8
Layer 1
100
AcDbBlockReference
  2
block 18
 10
0.0
 20
0.0
 30
0.0
  0
INSERT
  5
91
330
3C
100
AcDbEntity
  8
Layer 1
100
AcDbBlockReference
  2
block 19
 10
0.0
 20
0.0
 30
0.0
  0
INSERT
  5
96
330
3C
100
AcDbEntity
  8
Layer 1
100
AcDbBlockReference
  2
block 20
 10
0.0
 20
0.0
 30
0.0
  0
INSERT
  5
9B
330
3C
100
AcDbEntity
  8
Layer 1
100
AcDbBlockReference
  2
block 21
 10
0.0
 20
0.0
 30
0.0
  0
INSERT
  5
A0
330
3C
100
AcDbEntity
  8
Layer 1
100
AcDbBlockReference
  2
block 22
 10
0.0
 20
0.0
 30
0.0
  0
ENDBLK
  5
3F
330
3C
100
AcDbEntity
  8
0
100
AcDbBlockEnd
  0
BLOCK
  5
42
330
40
100
AcDbEntity
  8
0
100
AcDbBlockBegin
  2
block 3
 70
     0
 71
     0
 10
0.0
 20
0.0
 30
0.0
  3
block 3
  1

  0
SPLINE
  5
44
330
40
100
AcDbEntity
  8
Layer 1
 62
     7
370
    35
100
AcDbSpline
210
0.0
220
0.0
230
1.0
 70
    11
 71
     3
 72
    77
 73
    73
 74
     0
 42
0.0000000001
 43
0.0000000001
 40
0.0
 40
0.0
 40
0.0
 40
0.0
 40
1.0
 40
1.0
 40
1.0
 40
2.0
 40
2.0
 40
2.0
 40
3.0
 40
3.0
 40
3.0
 40
4.0
 40
4.0
 40
4.0
 40
5.0
 40
5.0
 40
5.0
 40
6.0
 40
6.0
 40
6.0
 40
7.0
 40
7.0
 40
7.0
 40
8.0
 40
8.0
 40
8.0
 40
9.0
 40
9.0
 40
9.0
 40
10.0
 40
10.0
 40
10.0
 40
11.0
 40
11.0
 40
11.0
 40
12.0
 40
12.0
 40
12.0
 40
13.0
 40
13.0
 40
13.0
 40
14.0
 40
14.0
 40
14.0
 40
15.0
 40
15.0
 40
15.0
 40
16.0
 40
16.0
 40
16.0
 40
17.0
 40
17.0
 40
17.0
 40
18.0
 40
18.0
 40
18.0
 40
19.0
 40
19.0
 40
19.0
 40
20.0
 40
20.0
 40
20.0
 40
21.0
 40
21.0
 40
21.0
 40
22.0
 40
22.0
 40
22.0
 40
23.0
 40
23.0
 40
23.0
 40
24.0
 40
24.0
 40
24.0
 40
24.0
 10
18.25530327690972
 20
13.25
 30
0.0
 10
18.80228678385416
 20
13.25
 30
0.0
 10
19.34929741753472
 20
13.25
 30
0.0
 10
19.89626736111111
 20
13.25
 30
0.0
 10
19.907470703125
 20
13.24822998046875
 30
0.0
 10
19.89866807725694
 20
13.22650824652778
 30
0.0
 10
19.90146213107639
 20
13.21636962890625
 30
0.0
 10
19.91493055555555
 20
13.21512858072917
 30
0.0
 10
19.93368869357639
 20
13.21915690104167
 30
0.0
 10
19.94300672743055
 20
13.21378580729167
 30
0.0
 10
19.96055772569444
 20
13.21919759114583
 30
0.0
 10
19.94204372829861
 20
13.18868001302083
 30
0.0
 10
19.95598687065972
 20
13.19050428602431
 30
0.0
 10
19.9979248046875
 20
13.19551595052083
 30
0.0
 10
20.02887641059028
 20
13.18364800347222
 30
0.0
 10
20.06764051649305
 20
13.19050428602431
 30
0.0
 10
20.08062065972222
 20
13.19279649522569
 30
0.0
 10
20.07950846354166
 20
13.19124348958333
 30
0.0
 10
20.08840603298611
 20
13.19826253255208
 30
0.0
 10
20.098388671875
 20
13.20612928602431
 30
0.0
 10
20.11085340711805
 20
13.22722032335069
 30
0.0
 10
20.12476942274305
 20
13.23447672526042
 30
0.0
 10
20.13825141059028
 20
13.24150933159722
 30
0.0
 10
20.18092176649305
 20
13.23706732855903
 30
0.0
 10
20.20784505208333
 20
13.23706732855903
 30
0.0
 10
20.255859375
 20
13.23706732855903
 30
0.0
 10
20.30084906684028
 20
13.23706732855903
 30
0.0
 10
20.35065375434028
 20
13.23706732855903
 30
0.0
 10
20.37352159288194
 20
13.23706732855903
 30
0.0
 10
20.40044487847222
 20
13.241943359375
 30
0.0
 10
20.42076280381944
 20
13.23706732855903
 30
0.0
 10
20.42881944444444
 20
13.23512776692708
 30
0.0
 10
20.43189832899305
 20
13.23316786024306
 30
0.0
 10
20.43893771701389
 20
13.22671847873264
 30
0.0
 10
20.46926540798611
 20
13.19892035590278
 30
0.0
 10
20.50698513454861
 20
13.15633816189236
 30
0.0
 10
20.53500705295139
 20
13.12841796875
 30
0.0
 10
20.63991970486111
 20
13.02389187282986
 30
0.0
 10
20.73575846354166
 20
12.93100314670139
 30
0.0
 10
20.843994140625
 20
12.82317437065972
 30
0.0
 10
20.84931098090278
 20
12.81786431206597
 30
0.0
 10
20.85343424479166
 20
12.81163194444444
 30
0.0
 10
20.85697428385416
 20
12.80765109592014
 30
0.0
 10
20.86410861545139
 20
12.79964192708333
 30
0.0
 10
20.865234375
 20
12.80093722873264
 30
0.0
 10
20.86735026041666
 20
12.79212782118056
 30
0.0
 10
20.87307400173611
 20
12.76848687065972
 30
0.0
 10
20.86735026041666
 20
12.73056369357639
 30
0.0
 10
20.86735026041666
 20
12.69641791449653
 30
0.0
 10
20.86735026041666
 20
11.72684054904514
 30
0.0
 10
20.86735026041666
 20
10.70936414930556
 30
0.0
 10
20.86735026041666
 20
9.75
 30
0.0
 10
19.70157877604166
 20
9.75
 30
0.0
 10
18.53561740451389
 20
9.75
 30
0.0
 10
17.36990017361111
 20
9.75
 30
0.0
 10
17.36990017361111
 20
10.912353515625
 30
0.0
 10
17.36990017361111
 20
12.07471381293403
 30
0.0
 10
17.36990017361111
 20
13.23706732855903
 30
0.0
 10
17.4927978515625
 20
13.23706732855903
 30
0.0
 10
17.61569552951389
 20
13.23706732855903
 30
0.0
 10
17.73859320746528
 20
13.23706732855903
 30
0.0
 10
17.75560167100694
 20
13.2427978515625
 30
0.0
 10
17.73807779947916
 20
13.21412489149306
 30
0.0
 10
17.75157335069444
 20
13.21636962890625
 30
0.0
 10
17.91775173611111
 20
13.21809217664931
 30
0.0
 10
18.09086100260416
 20
13.21292453342014
 30
0.0
 10
18.25269911024305
 20
13.21896023220486
 30
0.0
 10
18.25269911024305
 20
13.22671847873264
 30
0.0
 10
18.25269911024305
 20
13.23447672526042
 30
0.0
 10
18.25269911024305
 20
13.24224175347222
 30
0.0
 10
18.25248209635416
 20
13.24591064453125
 30
0.0
 10
18.25227864583333
 20
13.24956597222222
 30
0.0
 10
18.25530327690972
 20
13.25
 30
0.0
  0
ENDBLK
  5
43
330
40
100
AcDbEntity
  8
0
100
AcDbBlockEnd
  0
BLOCK
  5
47
330
45
100
AcDbEntity
  8
0
100
AcDbBlockBegin
  2
block 4
 70
     0
 71
     0
 10
0.0
 20
0.0
 30
0.0
  3
block 4
  1

  0
SPLINE
  5
49
330
45
100
AcDbEntity
  8
Layer 1
 62
     7
370
    35
100
AcDbSpline
210
0.0
220
0.0
230
1.0
 70
    11
 71
     3
 72
    44
 73
    40
 74
     0
 42
0.0000000001
 43
0.0000000001
 40
0.0
 40
0.0
 40
0.0
 40
0.0
 40
1.0
 40
1.0
 40
1.0
 40
2.0
 40
2.0
 40
2.0
 40
3.0
 40
3.0
 40
3.0
 40
4.0
 40
4.0
 40
4.0
 40
5.0
 40
5.0
 40
5.0
 40
6.0
 40
6.0
 40
6.0
 40
7.0
 40
7.0
 40
7.0
 40
8.0
 40
8.0
 40
8.0
 40
9.0
 40
9.0
 40
9.0
 40
10.0
 40
10.0
 40
10.0
 40
11.0
 40
11.0
 40
11.0
 40
12.0
 40
12.0
 40
12.0
 40
13.0
 40
13.0
 40
13.0
 40
13.0
 10
18.28385416666666
 20
13.22413465711806
 30
0.0
 10
18.81353081597222
 20
13.22240532769097
 30
0.0
 10
19.35016547309028
 20
13.22757975260417
 30
0.0
 10
19.87550184461805
 20
13.22154405381944
 30
0.0
 10
19.87550184461805
 20
12.9053955078125
 30
0.0
 10
19.87550184461805
 20
12.58825005425347
 30
0.0
 10
19.87550184461805
 20
12.26182725694444
 30
0.0
 10
19.87550184461805
 20
12.21551513671875
 30
0.0
 10
19.87977430555555
 20
12.16463216145833
 30
0.0
 10
19.8651123046875
 20
12.13507080078125
 30
0.0
 10
19.86454264322916
 20
12.13391791449653
 30
0.0
 10
19.8603515625
 20
12.13343641493056
 30
0.0
 10
19.85991753472222
 20
12.13248019748264
 30
0.0
 10
19.85847981770833
 20
12.12928602430556
 30
0.0
 10
19.85791015625
 20
12.12344699435764
 30
0.0
 10
19.854736328125
 20
12.11954752604167
 30
0.0
 10
19.84733072916666
 20
12.11046006944444
 30
0.0
 10
19.82596842447916
 20
12.09324137369792
 30
0.0
 10
19.81319173177083
 20
12.08850775824653
 30
0.0
 10
19.79280598958333
 20
12.08095296223958
 30
0.0
 10
19.76032172309028
 20
12.08333333333333
 30
0.0
 10
19.72490776909722
 20
12.08333333333333
 30
0.0
 10
19.28645833333333
 20
12.08333333333333
 30
0.0
 10
18.86561414930555
 20
12.08333333333333
 30
0.0
 10
18.424072265625
 20
12.08333333333333
 30
0.0
 10
18.39841037326389
 20
12.08333333333333
 30
0.0
 10
18.37718370225694
 20
12.08138020833333
 30
0.0
 10
18.35655381944444
 20
12.08592393663194
 30
0.0
 10
18.32718912760416
 20
12.09238688151042
 30
0.0
 10
18.2996826171875
 20
12.1097412109375
 30
0.0
 10
18.28645833333333
 20
12.14541965060764
 30
0.0
 10
18.27385796440972
 20
12.17941623263889
 30
0.0
 10
18.27867296006944
 20
12.22834608289931
 30
0.0
 10
18.27867296006944
 20
12.27475992838542
 30
0.0
 10
18.27867296006944
 20
12.58909776475694
 30
0.0
 10
18.27867296006944
 20
12.90511067708333
 30
0.0
 10
18.27867296006944
 20
13.21636962890625
 30
0.0
 10
18.27855088975694
 20
13.22079806857639
 30
0.0
 10
18.28059895833333
 20
13.22306993272569
 30
0.0
 10
18.28385416666666
 20
13.22413465711806
 30
0.0
  0
ENDBLK
  5
48
330
45
100
AcDbEntity
  8
0
100
AcDbBlockEnd
  0
BLOCK
  5
4C
330
4A
100
AcDbEntity
  8
0
100
AcDbBlockBegin
  2
block 5
 70
     0
 71
     0
 10
0.0
 20
0.0
 30
0.0
  3
block 5
  1

  0
SPLINE
  5
4E
330
4A
100
AcDbEntity
  8
Layer 1
 62
     7
370
    35
100
AcDbSpline
210
0.0
220
0.0
230
1.0
 70
    11
 71
     3
 72
   131
 73
   127
 74
     0
 42
0.0000000001
 43
0.0000000001
 40
0.0
 40
0.0
 40
0.0
 40
0.0
 40
1.0
 40
1.0
 40
1.0
 40
2.0
 40
2.0
 40
2.0
 40
3.0
 40
3.0
 40
3.0
 40
4.0
 40
4.0
 40
4.0
 40
5.0
 40
5.0
 40
5.0
 40
6.0
 40
6.0
 40
6.0
 40
7.0
 40
7.0
 40
7.0
 40
8.0
 40
8.0
 40
8.0
 40
9.0
 40
9.0
 40
9.0
 40
10.0
 40
10.0
 40
10.0
 40
11.0
 40
11.0
 40
11.0
 40
12.0
 40
12.0
 40
12.0
 40
13.0
 40
13.0
 40
13.0
 40
14.0
 40
14.0
 40
14.0
 40
15.0
 40
15.0
 40
15.0
 40
16.0
 40
16.0
 40
16.0
 40
17.0
 40
17.0
 40
17.0
 40
18.0
 40
18.0
 40
18.0
 40
19.0
 40
19.0
 40
19.0
 40
20.0
 40
20.0
 40
20.0
 40
21.0
 40
21.0
 40
21.0
 40
22.0
 40
22.0
 40
22.0
 40
23.0
 40
23.0
 40
23.0
 40
24.0
 40
24.0
 40
24.0
 40
25.0
 40
25.0
 40
25.0
 40
26.0
 40
26.0
 40
26.0
 40
27.0
 40
27.0
 40
27.0
 40
28.0
 40
28.0
 40
28.0
 40
29.0
 40
29.0
 40
29.0
 40
30.0
 40
30.0
 40
30.0
 40
31.0
 40
31.0
 40
31.0
 40
32.0
 40
32.0
 40
32.0
 40
33.0
 40
33.0
 40
33.0
 40
34.0
 40
34.0
 40
34.0
 40
35.0
 40
35.0
 40
35.0
 40
36.0
 40
36.0
 40
36.0
 40
37.0
 40
37.0
 40
37.0
 40
38.0
 40
38.0
 40
38.0
 40
39.0
 40
39.0
 40
39.0
 40
40.0
 40
40.0
 40
40.0
 40
41.0
 40
41.0
 40
41.0
 40
42.0
 40
42.0
 40
42.0
 40
42.0
 10
17.39846462673611
 20
13.20861138237847
 30
0.0
 10
17.50490993923611
 20
13.20861138237847
 30
0.0
 10
17.61136881510416
 20
13.20861138237847
 30
0.0
 10
17.71782769097222
 20
13.20861138237847
 30
0.0
 10
17.71782769097222
 20
12.89466010199653
 30
0.0
 10
17.71782769097222
 20
12.58070203993056
 30
0.0
 10
17.71782769097222
 20
12.26441107855903
 30
0.0
 10
17.71782769097222
 20
12.21183268229167
 30
0.0
 10
17.71086968315972
 20
12.14714898003472
 30
0.0
 10
17.7230224609375
 20
12.10403103298611
 30
0.0
 10
17.72707790798611
 20
12.08962673611111
 30
0.0
 10
17.73434787326389
 20
12.07227918836806
 30
0.0
 10
17.74378797743055
 20
12.06005181206597
 30
0.0
 10
17.74667697482639
 20
12.05632188585069
 30
0.0
 10
17.752685546875
 20
12.05118815104167
 30
0.0
 10
17.75676812065972
 20
12.047119140625
 30
0.0
 10
17.75824652777778
 20
12.045654296875
 30
0.0
 10
17.76038953993055
 20
12.04596625434028
 30
0.0
 10
17.761962890625
 20
12.04452853732639
 30
0.0
 10
17.76806640625
 20
12.03899468315972
 30
0.0
 10
17.77208116319444
 20
12.03245035807292
 30
0.0
 10
17.77754720052083
 20
12.02901204427083
 30
0.0
 10
17.78020562065972
 20
12.02733696831597
 30
0.0
 10
17.78289116753472
 20
12.02793375651042
 30
0.0
 10
17.78533257378472
 20
12.02642144097222
 30
0.0
 10
17.79740397135416
 20
12.01894802517361
 30
0.0
 10
17.81803385416666
 20
12.01061333550347
 30
0.0
 10
17.84246148003472
 20
12.00831434461806
 30
0.0
 10
17.88373480902778
 20
12.00443522135417
 30
0.0
 10
17.9273681640625
 20
12.00831434461806
 30
0.0
 10
17.96968587239583
 20
12.00831434461806
 30
0.0
 10
18.54543728298611
 20
12.00831434461806
 30
0.0
 10
19.13328721788194
 20
12.00831434461806
 30
0.0
 10
19.72230360243055
 20
12.00831434461806
 30
0.0
 10
19.76665581597222
 20
12.00831434461806
 30
0.0
 10
19.80919053819444
 20
12.00414360894097
 30
0.0
 10
19.84434678819444
 20
12.01090494791667
 30
0.0
 10
19.89713541666666
 20
12.02105034722222
 30
0.0
 10
19.93359375
 20
12.06197102864583
 30
0.0
 10
19.94561089409722
 20
12.10403103298611
 30
0.0
 10
19.95442708333333
 20
12.13491482204861
 30
0.0
 10
19.95079210069444
 20
12.17256673177083
 30
0.0
 10
19.95079210069444
 20
12.21267361111111
 30
0.0
 10
19.95079210069444
 20
12.4422607421875
 30
0.0
 10
19.95079210069444
 20
12.66494411892361
 30
0.0
 10
19.95079210069444
 20
12.89560275607639
 30
0.0
 10
19.95079210069444
 20
12.93305121527778
 30
0.0
 10
19.94593641493055
 20
12.97406684027778
 30
0.0
 10
19.95079210069444
 20
13.0068359375
 30
0.0
 10
19.951171875
 20
13.00933837890625
 30
0.0
 10
19.95027669270833
 20
13.01212565104167
 30
0.0
 10
19.95079210069444
 20
13.01459418402778
 30
0.0
 10
19.95311143663194
 20
13.02568901909722
 30
0.0
 10
19.96249728732639
 20
13.03401692708333
 30
0.0
 10
19.97157118055555
 20
13.04305013020833
 30
0.0
 10
20.01981608072916
 20
13.09111870659722
 30
0.0
 10
20.06979709201389
 20
13.13832600911458
 30
0.0
 10
20.11957465277778
 20
13.18791368272569
 30
0.0
 10
20.12849934895833
 20
13.19681125217014
 30
0.0
 10
20.13080512152778
 20
13.20507134331597
 30
0.0
 10
20.14553493923611
 20
13.20861138237847
 30
0.0
 10
20.16068522135416
 20
13.21224636501736
 30
0.0
 10
20.18733723958333
 20
13.20861138237847
 30
0.0
 10
20.21044921875
 20
13.20861138237847
 30
0.0
 10
20.25417751736111
 20
13.20861138237847
 30
0.0
 10
20.29484049479166
 20
13.20861138237847
 30
0.0
 10
20.34027777777778
 20
13.20861138237847
 30
0.0
 10
20.36246744791666
 20
13.20861138237847
 30
0.0
 10
20.39017740885416
 20
13.21301947699653
 30
0.0
 10
20.40778266059028
 20
13.20861138237847
 30
0.0
 10
20.41535101996528
 20
13.20671929253472
 30
0.0
 10
20.41878255208333
 20
13.20482042100694
 30
0.0
 10
20.42595757378472
 20
13.19826253255208
 30
0.0
 10
20.45556640625
 20
13.17119004991319
 30
0.0
 10
20.4915771484375
 20
13.13029649522569
 30
0.0
 10
20.51942274305555
 20
13.10255262586806
 30
0.0
 10
20.61900499131944
 20
13.00333658854167
 30
0.0
 10
20.7152099609375
 20
12.90749782986111
 30
0.0
 10
20.81802029079861
 20
12.80506049262153
 30
0.0
 10
20.82838270399305
 20
12.79474555121528
 30
0.0
 10
20.84138997395833
 20
12.79201931423611
 30
0.0
 10
20.84138997395833
 20
12.77143690321181
 30
0.0
 10
20.84130859375
 20
11.79903835720486
 30
0.0
 10
20.84145779079861
 20
10.75360785590278
 30
0.0
 10
20.84138997395833
 20
9.778455946180555
 30
0.0
 10
20.73320855034722
 20
9.778455946180555
 30
0.0
 10
20.62501356336805
 20
9.778455946180555
 30
0.0
 10
20.51683213975694
 20
9.778455946180555
 30
0.0
 10
20.51683213975694
 20
10.334716796875
 30
0.0
 10
20.51683213975694
 20
10.92031521267361
 30
0.0
 10
20.51683213975694
 20
11.4935302734375
 30
0.0
 10
20.51683213975694
 20
11.53453233506944
 30
0.0
 10
20.51803927951389
 20
11.56976318359375
 30
0.0
 10
20.50644259982639
 20
11.59700520833333
 30
0.0
 10
20.49214680989583
 20
11.63060167100694
 30
0.0
 10
20.453857421875
 20
11.66157362196181
 30
0.0
 10
20.41815863715278
 20
11.66944037543403
 30
0.0
 10
20.37460666232639
 20
11.67903645833333
 30
0.0
 10
20.31416829427083
 20
11.67202419704861
 30
0.0
 10
20.25718858506944
 20
11.67202419704861
 30
0.0
 10
19.49632432725694
 20
11.67202419704861
 30
0.0
 10
18.74622938368055
 20
11.67202419704861
 30
0.0
 10
17.982666015625
 20
11.67202419704861
 30
0.0
 10
17.9144287109375
 20
11.67202419704861
 30
0.0
 10
17.83607313368055
 20
11.68193901909722
 30
0.0
 10
17.79052734375
 20
11.65909152560764
 30
0.0
 10
17.75858561197916
 20
11.64306640625
 30
0.0
 10
17.73074001736111
 20
11.60890706380208
 30
0.0
 10
17.7230224609375
 20
11.57113986545139
 30
0.0
 10
17.71628146701389
 20
11.53815375434028
 30
0.0
 10
17.72041829427083
 20
11.49822319878472
 30
0.0
 10
17.72041829427083
 20
11.45990668402778
 30
0.0
 10
17.72041829427083
 20
10.90105523003472
 30
0.0
 10
17.72041829427083
 20
10.34404839409722
 30
0.0
 10
17.72041829427083
 20
9.783623589409721
 30
0.0
 10
17.72047254774305
 20
9.774359809027777
 30
0.0
 10
17.70846896701389
 20
9.778672960069445
 30
0.0
 10
17.70484754774305
 20
9.778455946180555
 30
0.0
 10
17.60820855034722
 20
9.772705078125
 30
0.0
 10
17.49598524305555
 20
9.782769097222221
 30
0.0
 10
17.39586046006944
 20
9.778455946180555
 30
0.0
 10
17.39586046006944
 20
10.91923014322917
 30
0.0
 10
17.39586046006944
 20
12.06011962890625
 30
0.0
 10
17.39586046006944
 20
13.20084635416667
 30
0.0
 10
17.39564344618055
 20
13.20452202690972
 30
0.0
 10
17.39542643229166
 20
13.20817735460069
 30
0.0
 10
17.39846462673611
 20
13.20861138237847
 30
0.0
  0
ENDBLK
  5
4D
330
4A
100
AcDbEntity
  8
0
100
AcDbBlockEnd
  0
BLOCK
  5
51
330
4F
100
AcDbEntity
  8
0
100
AcDbBlockBegin
  2
block 6
 70
     0
 71
     0
 10
0.0
 20
0.0
 30
0.0
  3
block 6
  1

  0
SPLINE
  5
53
330
4F
100
AcDbEntity
  8
Layer 1
 62
     7
370
    35
100
AcDbSpline
210
0.0
220
0.0
230
1.0
 70
    11
 71
     3
 72
    41
 73
    37
 74
     0
 42
0.0000000001
 43
0.0000000001
 40
0.0
 40
0.0
 40
0.0
 40
0.0
 40
1.0
 40
1.0
 40
1.0
 40
2.0
 40
2.0
 40
2.0
 40
3.0
 40
3.0
 40
3.0
 40
4.0
 40
4.0
 40
4.0
 40
5.0
 40
5.0
 40
5.0
 40
6.0
 40
6.0
 40
6.0
 40
7.0
 40
7.0
 40
7.0
 40
8.0
 40
8.0
 40
8.0
 40
9.0
 40
9.0
 40
9.0
 40
10.0
 40
10.0
 40
10.0
 40
11.0
 40
11.0
 40
11.0
 40
12.0
 40
12.0
 40
12.0
 40
12.0
 10
20.48826768663194
 20
9.775865342881945
 30
0.0
 10
19.57514105902778
 20
9.775865342881945
 30
0.0
 10
18.66212293836805
 20
9.775865342881945
 30
0.0
 10
17.74898274739583
 20
9.775865342881945
 30
0.0
 10
17.74898274739583
 20
10.31761338975694
 30
0.0
 10
17.74898274739583
 20
10.90966796875
 30
0.0
 10
17.74898274739583
 20
11.47025553385417
 30
0.0
 10
17.74898274739583
 20
11.50917561848958
 30
0.0
 10
17.74532063802083
 20
11.54842122395833
 30
0.0
 10
17.75417751736111
 20
11.57631429036458
 30
0.0
 10
17.76510959201389
 20
11.61075846354167
 30
0.0
 10
17.79625108506944
 20
11.63844129774306
 30
0.0
 10
17.83207194010416
 20
11.64356825086806
 30
0.0
 10
17.85687934027778
 20
11.64712185329861
 30
0.0
 10
17.88723415798611
 20
11.64356825086806
 30
0.0
 10
17.9151611328125
 20
11.64356825086806
 30
0.0
 10
18.72328016493055
 20
11.64356825086806
 30
0.0
 10
19.52846950954861
 20
11.64357503255208
 30
0.0
 10
20.34286838107639
 20
11.64356825086806
 30
0.0
 10
20.35777452256944
 20
11.64356825086806
 30
0.0
 10
20.37158203125
 20
11.64407009548611
 30
0.0
 10
20.38441297743055
 20
11.64356825086806
 30
0.0
 10
20.40129937065972
 20
11.64290364583333
 30
0.0
 10
20.41175672743055
 20
11.64232720269097
 30
0.0
 10
20.42595757378472
 20
11.63581000434028
 30
0.0
 10
20.43800184461805
 20
11.63027615017361
 30
0.0
 10
20.45118543836805
 20
11.624755859375
 30
0.0
 10
20.46230740017361
 20
11.61252848307292
 30
0.0
 10
20.47018771701389
 20
11.60386827256944
 30
0.0
 10
20.479736328125
 20
11.59054904513889
 30
0.0
 10
20.48307291666666
 20
11.58148871527778
 30
0.0
 10
20.49240451388889
 20
11.55616590711806
 30
0.0
 10
20.48826768663194
 20
11.51154920789931
 30
0.0
 10
20.48826768663194
 20
11.47284613715278
 30
0.0
 10
20.48828125
 20
10.907470703125
 30
0.0
 10
20.48826768663194
 20
10.34023708767361
 30
0.0
 10
20.48826768663194
 20
9.775865342881945
 30
0.0
  0
ENDBLK
  5
52
330
4F
100
AcDbEntity
  8
0
100
AcDbBlockEnd
  0
BLOCK
  5
56
330
54
100
AcDbEntity
  8
0
100
AcDbBlockBegin
  2
block 7
 70
     0
 71
     0
 10
0.0
 20
0.0
 30
0.0
  3
block 7
  1

  0
SPLINE
  5
58
330
54
100
AcDbEntity
  8
Layer 1
 62
     7
370
    35
100
AcDbSpline
210
0.0
220
0.0
230
1.0
 70
    11
 71
     3
 72
    20
 73
    16
 74
     0
 42
0.0000000001
 43
0.0000000001
 40
0.0
 40
0.0
 40
0.0
 40
0.0
 40
1.0
 40
1.0
 40
1.0
 40
2.0
 40
2.0
 40
2.0
 40
3.0
 40
3.0
 40
3.0
 40
4.0
 40
4.0
 40
4.0
 40
5.0
 40
5.0
 40
5.0
 40
5.0
 10
19.31206597222222
 20
13.16722276475694
 30
0.0
 10
19.44535319010416
 20
13.16722276475694
 30
0.0
 10
19.57864040798611
 20
13.16722276475694
 30
0.0
 10
19.71192762586805
 20
13.16722276475694
 30
0.0
 10
19.71192762586805
 20
12.82921006944444
 30
0.0
 10
19.71192762586805
 20
12.49119059244792
 30
0.0
 10
19.71192762586805
 20
12.15317789713542
 30
0.0
 10
19.57864040798611
 20
12.15317789713542
 30
0.0
 10
19.44535319010416
 20
12.15317789713542
 30
0.0
 10
19.31206597222222
 20
12.15317789713542
 30
0.0
 10
19.30600314670139
 20
12.48343912760417
 30
0.0
 10
19.31119791666666
 20
12.82488335503472
 30
0.0
 10
19.30946180555555
 20
13.15946451822917
 30
0.0
 10
19.30924479166666
 20
13.16313340928819
 30
0.0
 10
19.30904134114583
 20
13.16678873697917
 30
0.0
 10
19.31206597222222
 20
13.16722276475694
 30
0.0
  0
ENDBLK
  5
57
330
54
100
AcDbEntity
  8
0
100
AcDbBlockEnd
  0
BLOCK
  5
5B
330
59
100
AcDbEntity
  8
0
100
AcDbBlockBegin
  2
block 8
 70
     0
 71
     0
 10
0.0
 20
0.0
 30
0.0
  3
block 8
  1

  0
SPLINE
  5
5D
330
59
100
AcDbEntity
  8
Layer 1
 62
     7
370
    35
100
AcDbSpline
210
0.0
220
0.0
230
1.0
 70
    11
 71
     3
 72
    26
 73
    22
 74
     0
 42
0.0000000001
 43
0.0000000001
 40
0.0
 40
0.0
 40
0.0
 40
0.0
 40
1.0
 40
1.0
 40
1.0
 40
2.0
 40
2.0
 40
2.0
 40
3.0
 40
3.0
 40
3.0
 40
4.0
 40
4.0
 40
4.0
 40
5.0
 40
5.0
 40
5.0
 40
6.0
 40
6.0
 40
6.0
 40
7.0
 40
7.0
 40
7.0
 40
7.0
 10
17.54905870225694
 20
13.09737820095486
 30
0.0
 10
17.58473036024305
 20
13.03375244140625
 30
0.0
 10
17.61724175347222
 20
12.96698676215278
 30
0.0
 10
17.65291341145833
 20
12.90336100260417
 30
0.0
 10
17.64161512586805
 20
12.89737277560764
 30
0.0
 10
17.61919487847222
 20
12.9024658203125
 30
0.0
 10
17.60358344184028
 20
12.90077718098958
 30
0.0
 10
17.60358344184028
 20
12.84990098741319
 30
0.0
 10
17.60358344184028
 20
12.79902479383681
 30
0.0
 10
17.60358344184028
 20
12.74815538194444
 30
0.0
 10
17.56723361545139
 20
12.74815538194444
 30
0.0
 10
17.5308837890625
 20
12.74815538194444
 30
0.0
 10
17.49453396267361
 20
12.74815538194444
 30
0.0
 10
17.49453396267361
 20
12.79816351996528
 30
0.0
 10
17.49453396267361
 20
12.84817843967014
 30
0.0
 10
17.49453396267361
 20
12.89818657769097
 30
0.0
 10
17.48323567708333
 20
12.90418158637153
 30
0.0
 10
17.46080186631944
 20
12.89908175998264
 30
0.0
 10
17.4451904296875
 20
12.90077718098958
 30
0.0
 10
17.47846137152778
 20
12.96765814887153
 30
0.0
 10
17.51310221354166
 20
13.03316921657986
 30
0.0
 10
17.54905870225694
 20
13.09737820095486
 30
0.0
  0
ENDBLK
  5
5C
330
59
100
AcDbEntity
  8
0
100
AcDbBlockEnd
  0
BLOCK
  5
60
330
5E
100
AcDbEntity
  8
0
100
AcDbBlockBegin
  2
block 9
 70
     0
 71
     0
 10
0.0
 20
0.0
 30
0.0
  3
block 9
  1

  0
SPLINE
  5
62
330
5E
100
AcDbEntity
  8
Layer 1
 62
     7
370
    35
100
AcDbSpline
210
0.0
220
0.0
230
1.0
 70
    11
 71
     3
 72
    26
 73
    22
 74
     0
 42
0.0000000001
 43
0.0000000001
 40
0.0
 40
0.0
 40
0.0
 40
0.0
 40
1.0
 40
1.0
 40
1.0
 40
2.0
 40
2.0
 40
2.0
 40
3.0
 40
3.0
 40
3.0
 40
4.0
 40
4.0
 40
4.0
 40
5.0
 40
5.0
 40
5.0
 40
6.0
 40
6.0
 40
6.0
 40
7.0
 40
7.0
 40
7.0
 40
7.0
 10
17.54905870225694
 20
13.03529188368056
 30
0.0
 10
17.56982421875
 20
13.00252956814236
 30
0.0
 10
17.58540852864583
 20
12.96457926432292
 30
0.0
 10
17.60617404513889
 20
12.93181694878472
 30
0.0
 10
17.60088433159722
 20
12.92588297526042
 30
0.0
 10
17.58460828993055
 20
12.93088107638889
 30
0.0
 10
17.57501898871528
 20
12.92923312717014
 30
0.0
 10
17.57501898871528
 20
12.87835693359375
 30
0.0
 10
17.57501898871528
 20
12.82748074001736
 30
0.0
 10
17.57501898871528
 20
12.77660454644097
 30
0.0
 10
17.55771213107639
 20
12.77660454644097
 30
0.0
 10
17.5404052734375
 20
12.77660454644097
 30
0.0
 10
17.52308485243055
 20
12.77660454644097
 30
0.0
 10
17.52308485243055
 20
12.82661946614583
 30
0.0
 10
17.52308485243055
 20
12.87663438585069
 30
0.0
 10
17.52308485243055
 20
12.92664252387153
 30
0.0
 10
17.51779513888889
 20
12.93258327907986
 30
0.0
 10
17.50153266059028
 20
12.92757839626736
 30
0.0
 10
17.49192979600694
 20
12.92923312717014
 30
0.0
 10
17.51066080729166
 20
12.96489800347222
 30
0.0
 10
17.52789984809028
 20
13.00204806857639
 30
0.0
 10
17.54905870225694
 20
13.03529188368056
 30
0.0
  0
ENDBLK
  5
61
330
5E
100
AcDbEntity
  8
0
100
AcDbBlockEnd
  0
BLOCK
  5
65
330
63
100
AcDbEntity
  8
0
100
AcDbBlockBegin
  2
block 10
 70
     0
 71
     0
 10
0.0
 20
0.0
 30
0.0
  3
block 10
  1

  0
SPLINE
  5
67
330
63
100
AcDbEntity
  8
Layer 1
 62
     7
370
    35
100
AcDbSpline
210
0.0
220
0.0
230
1.0
 70
    11
 71
     3
 72
    56
 73
    52
 74
     0
 42
0.0000000001
 43
0.0000000001
 40
0.0
 40
0.0
 40
0.0
 40
0.0
 40
1.0
 40
1.0
 40
1.0
 40
2.0
 40
2.0
 40
2.0
 40
3.0
 40
3.0
 40
3.0
 40
4.0
 40
4.0
 40
4.0
 40
5.0
 40
5.0
 40
5.0
 40
6.0
 40
6.0
 40
6.0
 40
7.0
 40
7.0
 40
7.0
 40
8.0
 40
8.0
 40
8.0
 40
9.0
 40
9.0
 40
9.0
 40
10.0
 40
10.0
 40
10.0
 40
11.0
 40
11.0
 40
11.0
 40
12.0
 40
12.0
 40
12.0
 40
13.0
 40
13.0
 40
13.0
 40
14.0
 40
14.0
 40
14.0
 40
15.0
 40
15.0
 40
15.0
 40
16.0
 40
16.0
 40
16.0
 40
17.0
 40
17.0
 40
17.0
 40
17.0
 10
20.1143798828125
 20
12.81023491753472
 30
0.0
 10
20.11543782552083
 20
12.78661431206597
 30
0.0
 10
20.11298285590278
 20
12.75908745659722
 30
0.0
 10
20.1143798828125
 20
12.73263210720486
 30
0.0
 10
20.11465115017361
 20
12.72743733723958
 30
0.0
 10
20.11024305555555
 20
12.71457248263889
 30
0.0
 10
20.11957465277778
 20
12.71452501085069
 30
0.0
 10
20.13145616319444
 20
12.70834689670139
 30
0.0
 10
20.12909613715278
 20
12.72165256076389
 30
0.0
 10
20.12995062934028
 20
12.73263210720486
 30
0.0
 10
20.13142903645833
 20
12.75141059027778
 30
0.0
 10
20.12882486979166
 20
12.79044596354167
 30
0.0
 10
20.12995062934028
 20
12.81023491753472
 30
0.0
 10
20.17376030815972
 20
12.80622016059028
 30
0.0
 10
20.21724446614583
 20
12.81573486328125
 30
0.0
 10
20.25199381510416
 20
12.81023491753472
 30
0.0
 10
20.25899251302083
 20
12.80912950303819
 30
0.0
 10
20.26558430989583
 20
12.80577256944444
 30
0.0
 10
20.27275933159722
 20
12.80247667100694
 30
0.0
 10
20.32899305555555
 20
12.77660454644097
 30
0.0
 10
20.33623589409722
 20
12.59650336371528
 30
0.0
 10
20.29612901475694
 20
12.53603108723958
 30
0.0
 10
20.28835720486111
 20
12.52431233723958
 30
0.0
 10
20.27959526909722
 20
12.51636420355903
 30
0.0
 10
20.26497395833333
 20
12.51015896267361
 30
0.0
 10
20.23592122395833
 20
12.49783664279514
 30
0.0
 10
20.18313259548611
 20
12.51373969184028
 30
0.0
 10
20.12995062934028
 20
12.50757514105903
 30
0.0
 10
20.12833658854166
 20
12.53407118055556
 30
0.0
 10
20.132080078125
 20
12.56819661458333
 30
0.0
 10
20.12995062934028
 20
12.59811740451389
 30
0.0
 10
20.12954372829861
 20
12.60386149088542
 30
0.0
 10
20.13492838541666
 20
12.62117513020833
 30
0.0
 10
20.12216525607639
 20
12.61880832248264
 30
0.0
 10
20.109130859375
 20
12.6204833984375
 30
0.0
 10
20.11471896701389
 20
12.60249837239583
 30
0.0
 10
20.1143798828125
 20
12.59552680121528
 30
0.0
 10
20.11314561631944
 20
12.57068549262153
 30
0.0
 10
20.11528862847222
 20
12.53426106770833
 30
0.0
 10
20.1143798828125
 20
12.50757514105903
 30
0.0
 10
20.09101019965278
 20
12.50757514105903
 30
0.0
 10
20.06764051649305
 20
12.50757514105903
 30
0.0
 10
20.04427083333333
 20
12.50757514105903
 30
0.0
 10
20.04427083333333
 20
12.60587565104167
 30
0.0
 10
20.04427083333333
 20
12.70417616102431
 30
0.0
 10
20.04427083333333
 20
12.80247667100694
 30
0.0
 10
20.04416232638889
 20
12.80689832899306
 30
0.0
 10
20.04619683159722
 20
12.80917697482639
 30
0.0
 10
20.04946560329861
 20
12.81023491753472
 30
0.0
 10
20.07109917534722
 20
12.81023491753472
 30
0.0
 10
20.09274631076389
 20
12.81023491753472
 30
0.0
 10
20.1143798828125
 20
12.81023491753472
 30
0.0
  0
ENDBLK
  5
66
330
63
100
AcDbEntity
  8
0
100
AcDbBlockEnd
  0
BLOCK
  5
6A
330
68
100
AcDbEntity
  8
0
100
AcDbBlockBegin
  2
block 11
 70
     0
 71
     0
 10
0.0
 20
0.0
 30
0.0
  3
block 11
  1

  0
SPLINE
  5
6C
330
68
100
AcDbEntity
  8
Layer 1
 62
     7
370
    35
100
AcDbSpline
210
0.0
220
0.0
230
1.0
 70
    11
 71
     3
 72
    53
 73
    49
 74
     0
 42
0.0000000001
 43
0.0000000001
 40
0.0
 40
0.0
 40
0.0
 40
0.0
 40
1.0
 40
1.0
 40
1.0
 40
2.0
 40
2.0
 40
2.0
 40
3.0
 40
3.0
 40
3.0
 40
4.0
 40
4.0
 40
4.0
 40
5.0
 40
5.0
 40
5.0
 40
6.0
 40
6.0
 40
6.0
 40
7.0
 40
7.0
 40
7.0
 40
8.0
 40
8.0
 40
8.0
 40
9.0
 40
9.0
 40
9.0
 40
10.0
 40
10.0
 40
10.0
 40
11.0
 40
11.0
 40
11.0
 40
12.0
 40
12.0
 40
12.0
 40
13.0
 40
13.0
 40
13.0
 40
14.0
 40
14.0
 40
14.0
 40
15.0
 40
15.0
 40
15.0
 40
16.0
 40
16.0
 40
16.0
 40
16.0
 10
20.07283528645833
 20
12.78177897135417
 30
0.0
 10
20.07457139756944
 20
12.78177897135417
 30
0.0
 10
20.0762939453125
 20
12.78177897135417
 30
0.0
 10
20.07803005642361
 20
12.78177897135417
 30
0.0
 10
20.09027777777778
 20
12.78452555338542
 30
0.0
 10
20.08536783854166
 20
12.76933458116319
 30
0.0
 10
20.0858154296875
 20
12.763671875
 30
0.0
 10
20.08751085069444
 20
12.74217393663194
 30
0.0
 10
20.08455403645833
 20
12.70945231119792
 30
0.0
 10
20.0858154296875
 20
12.68606906467014
 30
0.0
 10
20.10918511284722
 20
12.68606906467014
 30
0.0
 10
20.13255479600694
 20
12.68606906467014
 30
0.0
 10
20.15592447916666
 20
12.68606906467014
 30
0.0
 10
20.16134982638889
 20
12.70473904079861
 30
0.0
 10
20.15751139322916
 20
12.73556179470486
 30
0.0
 10
20.15851508246528
 20
12.76108805338542
 30
0.0
 10
20.15875922309028
 20
12.76736789279514
 30
0.0
 10
20.15421549479166
 20
12.78085666232639
 30
0.0
 10
20.16370985243055
 20
12.78177897135417
 30
0.0
 10
20.17306857638889
 20
12.78091091579861
 30
0.0
 10
20.16868760850694
 20
12.76321750217014
 30
0.0
 10
20.16890462239583
 20
12.75332302517361
 30
0.0
 10
20.17031521267361
 20
12.68663194444444
 30
0.0
 10
20.16994900173611
 20
12.60199652777778
 30
0.0
 10
20.16631401909722
 20
12.53603108723958
 30
0.0
 10
20.15326605902778
 20
12.53435601128472
 30
0.0
 10
20.15885416666666
 20
12.55234103732639
 30
0.0
 10
20.15851508246528
 20
12.55931260850694
 30
0.0
 10
20.15729437934028
 20
12.58415391710069
 30
0.0
 10
20.15943739149305
 20
12.62057834201389
 30
0.0
 10
20.15851508246528
 20
12.64726426866319
 30
0.0
 10
20.13514539930555
 20
12.64726426866319
 30
0.0
 10
20.11177571614583
 20
12.64726426866319
 30
0.0
 10
20.08840603298611
 20
12.64726426866319
 30
0.0
 10
20.08291286892361
 20
12.62428114149306
 30
0.0
 10
20.08688693576389
 20
12.58913845486111
 30
0.0
 10
20.0858154296875
 20
12.55931260850694
 30
0.0
 10
20.08555772569444
 20
12.55210367838542
 30
0.0
 10
20.09033203125
 20
12.53839111328125
 30
0.0
 10
20.08062065972222
 20
12.53603108723958
 30
0.0
 10
20.06705729166666
 20
12.53556993272569
 30
0.0
 10
20.07318793402778
 20
12.55292426215278
 30
0.0
 10
20.07283528645833
 20
12.55931260850694
 30
0.0
 10
20.0692138671875
 20
12.62459309895833
 30
0.0
 10
20.07554796006944
 20
12.70601399739583
 30
0.0
 10
20.07283528645833
 20
12.77402072482639
 30
0.0
 10
20.07283528645833
 20
12.77660454644097
 30
0.0
 10
20.07283528645833
 20
12.77919514973958
 30
0.0
 10
20.07283528645833
 20
12.78177897135417
 30
0.0
  0
ENDBLK
  5
6B
330
68
100
AcDbEntity
  8
0
100
AcDbBlockEnd
  0
BLOCK
  5
6F
330
6D
100
AcDbEntity
  8
0
100
AcDbBlockBegin
  2
block 12
 70
     0
 71
     0
 10
0.0
 20
0.0
 30
0.0
  3
block 12
  1

  0
SPLINE
  5
71
330
6D
100
AcDbEntity
  8
Layer 1
 62
     7
370
    35
100
AcDbSpline
210
0.0
220
0.0
230
1.0
 70
    11
 71
     3
 72
    29
 73
    25
 74
     0
 42
0.0000000001
 43
0.0000000001
 40
0.0
 40
0.0
 40
0.0
 40
0.0
 40
1.0
 40
1.0
 40
1.0
 40
2.0
 40
2.0
 40
2.0
 40
3.0
 40
3.0
 40
3.0
 40
4.0
 40
4.0
 40
4.0
 40
5.0
 40
5.0
 40
5.0
 40
6.0
 40
6.0
 40
6.0
 40
7.0
 40
7.0
 40
7.0
 40
8.0
 40
8.0
 40
8.0
 40
8.0
 10
20.20005967881944
 20
12.53603108723958
 30
0.0
 10
20.20179578993055
 20
12.61708577473958
 30
0.0
 10
20.19660101996528
 20
12.70503743489583
 30
0.0
 10
20.20266384548611
 20
12.78177897135417
 30
0.0
 10
20.21333821614583
 20
12.7813720703125
 30
0.0
 10
20.22275119357639
 20
12.78231472439236
 30
0.0
 10
20.23381890190972
 20
12.78177897135417
 30
0.0
 10
20.24058702256944
 20
12.78145345052083
 30
0.0
 10
20.25287543402778
 20
12.78245713975694
 30
0.0
 10
20.25977918836805
 20
12.77919514973958
 30
0.0
 10
20.26547580295139
 20
12.77650282118056
 30
0.0
 10
20.27460394965278
 20
12.76065402560764
 30
0.0
 10
20.2779541015625
 20
12.75073920355903
 30
0.0
 10
20.28286404079861
 20
12.73621283637153
 30
0.0
 10
20.28926595052083
 20
12.71666124131944
 30
0.0
 10
20.29093424479166
 20
12.69382731119792
 30
0.0
 10
20.29273817274305
 20
12.66917588975694
 30
0.0
 10
20.29239908854166
 20
12.64167616102431
 30
0.0
 10
20.29093424479166
 20
12.62139892578125
 30
0.0
 10
20.28860134548611
 20
12.58878580729167
 30
0.0
 10
20.27682834201389
 20
12.54993353949653
 30
0.0
 10
20.26236979166666
 20
12.54120551215278
 30
0.0
 10
20.24785698784722
 20
12.53243679470486
 30
0.0
 10
20.21876356336805
 20
12.53724500868056
 30
0.0
 10
20.20005967881944
 20
12.53603108723958
 30
0.0
  0
ENDBLK
  5
70
330
6D
100
AcDbEntity
  8
0
100
AcDbBlockEnd
  0
BLOCK
  5
74
330
72
100
AcDbEntity
  8
0
100
AcDbBlockBegin
  2
block 13
 70
     0
 71
     0
 10
0.0
 20
0.0
 30
0.0
  3
block 13
  1

  0
SPLINE
  5
76
330
72
100
AcDbEntity
  8
Layer 1
 62
     7
370
    35
100
AcDbSpline
210
0.0
220
0.0
230
1.0
 70
    11
 71
     3
 72
    17
 73
    13
 74
     0
 42
0.0000000001
 43
0.0000000001
 40
0.0
 40
0.0
 40
0.0
 40
0.0
 40
1.0
 40
1.0
 40
1.0
 40
2.0
 40
2.0
 40
2.0
 40
3.0
 40
3.0
 40
3.0
 40
4.0
 40
4.0
 40
4.0
 40
4.0
 10
20.21044921875
 20
12.56448703342014
 30
0.0
 10
20.21217176649305
 20
12.62312147352431
 30
0.0
 10
20.20699055989583
 20
12.68865288628472
 30
0.0
 10
20.21303982204861
 20
12.74297417534722
 30
0.0
 10
20.25141059027778
 20
12.74610731336806
 30
0.0
 10
20.27224392361111
 20
12.73590087890625
 30
0.0
 10
20.2779541015625
 20
12.69641791449653
 30
0.0
 10
20.28274197048611
 20
12.66336398654514
 30
0.0
 10
20.28005642361111
 20
12.58638509114583
 30
0.0
 10
20.26236979166666
 20
12.57224527994792
 30
0.0
 10
20.24820963541666
 20
12.56091986762153
 30
0.0
 10
20.23082139756944
 20
12.56595865885417
 30
0.0
 10
20.21044921875
 20
12.56448703342014
 30
0.0
  0
ENDBLK
  5
75
330
72
100
AcDbEntity
  8
0
100
AcDbBlockEnd
  0
BLOCK
  5
79
330
77
100
AcDbEntity
  8
0
100
AcDbBlockBegin
  2
block 14
 70
     0
 71
     0
 10
0.0
 20
0.0
 30
0.0
  3
block 14
  1

  0
SPLINE
  5
7B
330
77
100
AcDbEntity
  8
Layer 1
 62
     7
370
    35
100
AcDbSpline
210
0.0
220
0.0
230
1.0
 70
    11
 71
     3
 72
    14
 73
    10
 74
     0
 42
0.0000000001
 43
0.0000000001
 40
0.0
 40
0.0
 40
0.0
 40
0.0
 40
1.0
 40
1.0
 40
1.0
 40
2.0
 40
2.0
 40
2.0
 40
3.0
 40
3.0
 40
3.0
 40
3.0
 10
20.239013671875
 20
12.71193440755208
 30
0.0
 10
20.25172254774305
 20
12.70305718315972
 30
0.0
 10
20.2493896484375
 20
12.68172878689236
 30
0.0
 10
20.2493896484375
 20
12.65243869357639
 30
0.0
 10
20.2493896484375
 20
12.62687174479167
 30
0.0
 10
20.25096299913194
 20
12.60660807291667
 30
0.0
 10
20.24160427517361
 20
12.59294297960069
 30
0.0
 10
20.23555501302083
 20
12.62744140625
 30
0.0
 10
20.24073621961805
 20
12.67312961154514
 30
0.0
 10
20.239013671875
 20
12.71193440755208
 30
0.0
  0
ENDBLK
  5
7A
330
77
100
AcDbEntity
  8
0
100
AcDbBlockEnd
  0
BLOCK
  5
7E
330
7C
100
AcDbEntity
  8
0
100
AcDbBlockBegin
  2
block 15
 70
     0
 71
     0
 10
0.0
 20
0.0
 30
0.0
  3
block 15
  1

  0
SPLINE
  5
80
330
7C
100
AcDbEntity
  8
Layer 1
 62
     7
370
    35
100
AcDbSpline
210
0.0
220
0.0
230
1.0
 70
    11
 71
     3
 72
    38
 73
    34
 74
     0
 42
0.0000000001
 43
0.0000000001
 40
0.0
 40
0.0
 40
0.0
 40
0.0
 40
1.0
 40
1.0
 40
1.0
 40
2.0
 40
2.0
 40
2.0
 40
3.0
 40
3.0
 40
3.0
 40
4.0
 40
4.0
 40
4.0
 40
5.0
 40
5.0
 40
5.0
 40
6.0
 40
6.0
 40
6.0
 40
7.0
 40
7.0
 40
7.0
 40
8.0
 40
8.0
 40
8.0
 40
9.0
 40
9.0
 40
9.0
 40
10.0
 40
10.0
 40
10.0
 40
11.0
 40
11.0
 40
11.0
 40
11.0
 10
18.05277506510416
 20
11.30211046006944
 30
0.0
 10
18.57156032986111
 20
11.30211046006944
 30
0.0
 10
19.12523057725694
 20
11.30211046006944
 30
0.0
 10
19.66259765625
 20
11.30211046006944
 30
0.0
 10
19.78720431857639
 20
11.30211046006944
 30
0.0
 10
19.92418077256944
 20
11.30211046006944
 30
0.0
 10
20.06504991319444
 20
11.30211046006944
 30
0.0
 10
20.08235677083333
 20
11.30211046006944
 30
0.0
 10
20.13462999131944
 20
11.30524359809028
 30
0.0
 10
20.16631401909722
 20
11.30211046006944
 30
0.0
 10
20.17465549045139
 20
11.30128309461806
 30
0.0
 10
20.17896864149305
 20
11.30320909288194
 30
0.0
 10
20.181884765625
 20
11.30211046006944
 30
0.0
 10
20.18915473090278
 20
11.29935709635417
 30
0.0
 10
20.18509928385416
 20
11.30208333333333
 30
0.0
 10
20.18707953559028
 20
11.29176161024306
 30
0.0
 10
20.18798828125
 20
11.28702799479167
 30
0.0
 10
20.1883544921875
 20
11.28107367621528
 30
0.0
 10
20.18448893229166
 20
11.27623155381944
 30
0.0
 10
19.66480848524305
 20
11.27623155381944
 30
0.0
 10
19.11027018229166
 20
11.27623155381944
 30
0.0
 10
18.57207573784722
 20
11.27623155381944
 30
0.0
 10
18.49020724826389
 20
11.27623155381944
 30
0.0
 10
18.40327962239583
 20
11.27623155381944
 30
0.0
 10
18.30463324652778
 20
11.27623155381944
 30
0.0
 10
18.24844021267361
 20
11.27623155381944
 30
0.0
 10
18.17725965711805
 20
11.27623155381944
 30
0.0
 10
18.10210503472222
 20
11.27623155381944
 30
0.0
 10
18.09746636284722
 20
11.27623155381944
 30
0.0
 10
18.05982801649305
 20
11.27183702256944
 30
0.0
 10
18.05277506510416
 20
11.27623155381944
 30
0.0
 10
18.04801432291666
 20
11.27920193142361
 30
0.0
 10
18.04859754774305
 20
11.29517957899306
 30
0.0
 10
18.05277506510416
 20
11.30211046006944
 30
0.0
  0
ENDBLK
  5
7F
330
7C
100
AcDbEntity
  8
0
100
AcDbBlockEnd
  0
BLOCK
  5
83
330
81
100
AcDbEntity
  8
0
100
AcDbBlockBegin
  2
block 16
 70
     0
 71
     0
 10
0.0
 20
0.0
 30
0.0
  3
block 16
  1

  0
SPLINE
  5
85
330
81
100
AcDbEntity
  8
Layer 1
 62
     7
370
    35
100
AcDbSpline
210
0.0
220
0.0
230
1.0
 70
    11
 71
     3
 72
    38
 73
    34
 74
     0
 42
0.0000000001
 43
0.0000000001
 40
0.0
 40
0.0
 40
0.0
 40
0.0
 40
1.0
 40
1.0
 40
1.0
 40
2.0
 40
2.0
 40
2.0
 40
3.0
 40
3.0
 40
3.0
 40
4.0
 40
4.0
 40
4.0
 40
5.0
 40
5.0
 40
5.0
 40
6.0
 40
6.0
 40
6.0
 40
7.0
 40
7.0
 40
7.0
 40
8.0
 40
8.0
 40
8.0
 40
9.0
 40
9.0
 40
9.0
 40
10.0
 40
10.0
 40
10.0
 40
11.0
 40
11.0
 40
11.0
 40
11.0
 10
18.05277506510416
 20
11.01238335503472
 30
0.0
 10
18.57156032986111
 20
11.01238335503472
 30
0.0
 10
19.12523057725694
 20
11.01238335503472
 30
0.0
 10
19.66259765625
 20
11.01238335503472
 30
0.0
 10
19.78720431857639
 20
11.01238335503472
 30
0.0
 10
19.92418077256944
 20
11.01238335503472
 30
0.0
 10
20.06504991319444
 20
11.01238335503472
 30
0.0
 10
20.08235677083333
 20
11.01238335503472
 30
0.0
 10
20.13462999131944
 20
11.01551649305556
 30
0.0
 10
20.16631401909722
 20
11.01238335503472
 30
0.0
 10
20.17465549045139
 20
11.01155598958333
 30
0.0
 10
20.17896864149305
 20
11.01348198784722
 30
0.0
 10
20.181884765625
 20
11.01238335503472
 30
0.0
 10
20.18915473090278
 20
11.00962999131944
 30
0.0
 10
20.18509928385416
 20
11.01235622829861
 30
0.0
 10
20.18707953559028
 20
11.00203450520833
 30
0.0
 10
20.18798828125
 20
10.99730088975694
 30
0.0
 10
20.1883544921875
 20
10.99134657118056
 30
0.0
 10
20.18448893229166
 20
10.98651801215278
 30
0.0
 10
19.66480848524305
 20
10.98651801215278
 30
0.0
 10
19.11027018229166
 20
10.98651801215278
 30
0.0
 10
18.57207573784722
 20
10.98651801215278
 30
0.0
 10
18.49020724826389
 20
10.98651801215278
 30
0.0
 10
18.40327962239583
 20
10.98651801215278
 30
0.0
 10
18.30463324652778
 20
10.98651801215278
 30
0.0
 10
18.24844021267361
 20
10.98651801215278
 30
0.0
 10
18.17725965711805
 20
10.98651801215278
 30
0.0
 10
18.10210503472222
 20
10.98651801215278
 30
0.0
 10
18.09746636284722
 20
10.98651801215278
 30
0.0
 10
18.05982801649305
 20
10.98212348090278
 30
0.0
 10
18.05277506510416
 20
10.98651801215278
 30
0.0
 10
18.04801432291666
 20
10.98947482638889
 30
0.0
 10
18.04859754774305
 20
11.00545247395833
 30
0.0
 10
18.05277506510416
 20
11.01238335503472
 30
0.0
  0
ENDBLK
  5
84
330
81
100
AcDbEntity
  8
0
100
AcDbBlockEnd
  0
BLOCK
  5
88
330
86
100
AcDbEntity
  8
0
100
AcDbBlockBegin
  2
block 17
 70
     0
 71
     0
 10
0.0
 20
0.0
 30
0.0
  3
block 17
  1

  0
SPLINE
  5
8A
330
86
100
AcDbEntity
  8
Layer 1
 62
     7
370
    35
100
AcDbSpline
210
0.0
220
0.0
230
1.0
 70
    11
 71
     3
 72
    38
 73
    34
 74
     0
 42
0.0000000001
 43
0.0000000001
 40
0.0
 40
0.0
 40
0.0
 40
0.0
 40
1.0
 40
1.0
 40
1.0
 40
2.0
 40
2.0
 40
2.0
 40
3.0
 40
3.0
 40
3.0
 40
4.0
 40
4.0
 40
4.0
 40
5.0
 40
5.0
 40
5.0
 40
6.0
 40
6.0
 40
6.0
 40
7.0
 40
7.0
 40
7.0
 40
8.0
 40
8.0
 40
8.0
 40
9.0
 40
9.0
 40
9.0
 40
10.0
 40
10.0
 40
10.0
 40
11.0
 40
11.0
 40
11.0
 40
11.0
 10
18.05277506510416
 20
10.72265625
 30
0.0
 10
18.57156032986111
 20
10.72265625
 30
0.0
 10
19.12523057725694
 20
10.72265625
 30
0.0
 10
19.66259765625
 20
10.72265625
 30
0.0
 10
19.78720431857639
 20
10.72265625
 30
0.0
 10
19.92418077256944
 20
10.72265625
 30
0.0
 10
20.06504991319444
 20
10.72265625
 30
0.0
 10
20.08235677083333
 20
10.72265625
 30
0.0
 10
20.13462999131944
 20
10.72578938802083
 30
0.0
 10
20.16631401909722
 20
10.72265625
 30
0.0
 10
20.17465549045139
 20
10.72182888454861
 30
0.0
 10
20.17896864149305
 20
10.7237548828125
 30
0.0
 10
20.181884765625
 20
10.72265625
 30
0.0
 10
20.18915473090278
 20
10.71991644965278
 30
0.0
 10
20.18509928385416
 20
10.72262912326389
 30
0.0
 10
20.18707953559028
 20
10.71230740017361
 30
0.0
 10
20.18798828125
 20
10.70757378472222
 30
0.0
 10
20.1883544921875
 20
10.70161946614583
 30
0.0
 10
20.18448893229166
 20
10.69679090711806
 30
0.0
 10
19.66480848524305
 20
10.69677734375
 30
0.0
 10
19.11027018229166
 20
10.69679090711806
 30
0.0
 10
18.57207573784722
 20
10.69679090711806
 30
0.0
 10
18.49020724826389
 20
10.69677734375
 30
0.0
 10
18.40327962239583
 20
10.69679090711806
 30
0.0
 10
18.30463324652778
 20
10.69679090711806
 30
0.0
 10
18.24844021267361
 20
10.69679090711806
 30
0.0
 10
18.17725965711805
 20
10.69679090711806
 30
0.0
 10
18.10210503472222
 20
10.69679090711806
 30
0.0
 10
18.09746636284722
 20
10.69679090711806
 30
0.0
 10
18.05982801649305
 20
10.69239637586806
 30
0.0
 10
18.05277506510416
 20
10.69679090711806
 30
0.0
 10
18.04801432291666
 20
10.69974772135417
 30
0.0
 10
18.04859754774305
 20
10.71572536892361
 30
0.0
 10
18.05277506510416
 20
10.72265625
 30
0.0
  0
ENDBLK
  5
89
330
86
100
AcDbEntity
  8
0
100
AcDbBlockEnd
  0
BLOCK
  5
8D
330
8B
100
AcDbEntity
  8
0
100
AcDbBlockBegin
  2
block 18
 70
     0
 71
     0
 10
0.0
 20
0.0
 30
0.0
  3
block 18
  1

  0
SPLINE
  5
8F
330
8B
100
AcDbEntity
  8
Layer 1
 62
     7
370
    35
100
AcDbSpline
210
0.0
220
0.0
230
1.0
 70
    11
 71
     3
 72
    38
 73
    34
 74
     0
 42
0.0000000001
 43
0.0000000001
 40
0.0
 40
0.0
 40
0.0
 40
0.0
 40
1.0
 40
1.0
 40
1.0
 40
2.0
 40
2.0
 40
2.0
 40
3.0
 40
3.0
 40
3.0
 40
4.0
 40
4.0
 40
4.0
 40
5.0
 40
5.0
 40
5.0
 40
6.0
 40
6.0
 40
6.0
 40
7.0
 40
7.0
 40
7.0
 40
8.0
 40
8.0
 40
8.0
 40
9.0
 40
9.0
 40
9.0
 40
10.0
 40
10.0
 40
10.0
 40
11.0
 40
11.0
 40
11.0
 40
11.0
 10
18.05536566840278
 20
10.43551974826389
 30
0.0
 10
18.67645941840278
 20
10.43551974826389
 30
0.0
 10
19.30531141493055
 20
10.43551974826389
 30
0.0
 10
19.93522135416666
 20
10.43551974826389
 30
0.0
 10
19.99062771267361
 20
10.43551974826389
 30
0.0
 10
20.0748291015625
 20
10.43551974826389
 30
0.0
 10
20.13774956597222
 20
10.43551974826389
 30
0.0
 10
20.14621310763889
 20
10.43551974826389
 30
0.0
 10
20.17837185329861
 20
10.43901909722222
 30
0.0
 10
20.18448893229166
 20
10.43292914496528
 30
0.0
 10
20.18832736545139
 20
10.42909071180556
 30
0.0
 10
20.18760850694444
 20
10.42656792534722
 30
0.0
 10
20.18707953559028
 20
10.41998969184028
 30
0.0
 10
20.18553331163194
 20
10.40083821614583
 30
0.0
 10
20.18668619791666
 20
10.40949164496528
 30
0.0
 10
20.16631401909722
 20
10.40706380208333
 30
0.0
 10
20.14408365885416
 20
10.40440538194444
 30
0.0
 10
20.08574761284722
 20
10.40706380208333
 30
0.0
 10
20.06504991319444
 20
10.40706380208333
 30
0.0
 10
20.00724283854166
 20
10.40706380208333
 30
0.0
 10
19.96112738715278
 20
10.40706380208333
 30
0.0
 10
19.93002658420139
 20
10.40706380208333
 30
0.0
 10
19.32008192274305
 20
10.40706380208333
 30
0.0
 10
18.71995713975694
 20
10.40706380208333
 30
0.0
 10
18.1072998046875
 20
10.40706380208333
 30
0.0
 10
18.09296332465278
 20
10.40706380208333
 30
0.0
 10
18.07230631510416
 20
10.40401204427083
 30
0.0
 10
18.05796983506944
 20
10.40706380208333
 30
0.0
 10
18.04977756076389
 20
10.40879991319444
 30
0.0
 10
18.05365668402778
 20
10.4051513671875
 30
0.0
 10
18.0501708984375
 20
10.41482204861111
 30
0.0
 10
18.04832628038194
 20
10.41994900173611
 30
0.0
 10
18.04747178819444
 20
10.42994520399306
 30
0.0
 10
18.05536566840278
 20
10.43551974826389
 30
0.0
  0
ENDBLK
  5
8E
330
8B
100
AcDbEntity
  8
0
100
AcDbBlockEnd
  0
BLOCK
  5
92
330
90
100
AcDbEntity
  8
0
100
AcDbBlockBegin
  2
block 19
 70
     0
 71
     0
 10
0.0
 20
0.0
 30
0.0
  3
block 19
  1

  0
SPLINE
  5
94
330
90
100
AcDbEntity
  8
Layer 1
 62
     7
370
    35
100
AcDbSpline
210
0.0
220
0.0
230
1.0
 70
    11
 71
     3
 72
    17
 73
    13
 74
     0
 42
0.0000000001
 43
0.0000000001
 40
0.0
 40
0.0
 40
0.0
 40
0.0
 40
1.0
 40
1.0
 40
1.0
 40
2.0
 40
2.0
 40
2.0
 40
3.0
 40
3.0
 40
3.0
 40
4.0
 40
4.0
 40
4.0
 40
4.0
 10
17.63214789496528
 20
10.16389973958333
 30
0.0
 10
17.63214789496528
 20
10.07766384548611
 30
0.0
 10
17.63214789496528
 20
9.991441514756945
 30
0.0
 10
17.63214789496528
 20
9.905205620659721
 30
0.0
 10
17.58017306857639
 20
9.906901041666666
 30
0.0
 10
17.52141655815972
 20
9.901814778645832
 30
0.0
 10
17.4737548828125
 20
9.907796223958332
 30
0.0
 10
17.47549099392361
 20
9.992296006944445
 30
0.0
 10
17.47029622395833
 20
10.08369954427083
 30
0.0
 10
17.47635904947916
 20
10.16389973958333
 30
0.0
 10
17.52827962239583
 20
10.16389973958333
 30
0.0
 10
17.58021375868055
 20
10.16389973958333
 30
0.0
 10
17.63214789496528
 20
10.16389973958333
 30
0.0
  0
ENDBLK
  5
93
330
90
100
AcDbEntity
  8
0
100
AcDbBlockEnd
  0
BLOCK
  5
97
330
95
100
AcDbEntity
  8
0
100
AcDbBlockBegin
  2
block 20
 70
     0
 71
     0
 10
0.0
 20
0.0
 30
0.0
  3
block 20
  1

  0
SPLINE
  5
99
330
95
100
AcDbEntity
  8
Layer 1
 62
     1
370
    35
100
AcDbSpline
210
0.0
220
0.0
230
1.0
 70
    11
 71
     3
 72
    17
 73
    13
 74
     0
 42
0.0000000001
 43
0.0000000001
 40
0.0
 40
0.0
 40
0.0
 40
0.0
 40
1.0
 40
1.0
 40
1.0
 40
2.0
 40
2.0
 40
2.0
 40
3.0
 40
3.0
 40
3.0
 40
4.0
 40
4.0
 40
4.0
 40
4.0
 10
20.76090494791666
 20
10.16389973958333
 30
0.0
 10
20.76090494791666
 20
10.07766384548611
 30
0.0
 10
20.76090494791666
 20
9.991441514756945
 30
0.0
 10
20.76090494791666
 20
9.905205620659721
 30
0.0
 10
20.70810275607639
 20
9.905205620659721
 30
0.0
 10
20.65531412760416
 20
9.905205620659721
 30
0.0
 10
20.60251193576389
 20
9.905205620659721
 30
0.0
 10
20.604248046875
 20
9.990587022569445
 30
0.0
 10
20.59905327690972
 20
10.08284505208333
 30
0.0
 10
20.60511610243055
 20
10.16389973958333
 30
0.0
 10
20.65703667534722
 20
10.16389973958333
 30
0.0
 10
20.70897081163194
 20
10.16389973958333
 30
0.0
 10
20.76090494791666
 20
10.16389973958333
 30
0.0
  0
ENDBLK
  5
98
330
95
100
AcDbEntity
  8
0
100
AcDbBlockEnd
  0
BLOCK
  5
9C
330
9A
100
AcDbEntity
  8
0
100
AcDbBlockBegin
  2
block 21
 70
     0
 71
     0
 10
0.0
 20
0.0
 30
0.0
  3
block 21
  1

  0
SPLINE
  5
9E
330
9A
100
AcDbEntity
  8
Layer 1
 62
     7
370
    35
100
AcDbSpline
210
0.0
220
0.0
230
1.0
 70
    11
 71
     3
 72
    38
 73
    34
 74
     0
 42
0.0000000001
 43
0.0000000001
 40
0.0
 40
0.0
 40
0.0
 40
0.0
 40
1.0
 40
1.0
 40
1.0
 40
2.0
 40
2.0
 40
2.0
 40
3.0
 40
3.0
 40
3.0
 40
4.0
 40
4.0
 40
4.0
 40
5.0
 40
5.0
 40
5.0
 40
6.0
 40
6.0
 40
6.0
 40
7.0
 40
7.0
 40
7.0
 40
8.0
 40
8.0
 40
8.0
 40
9.0
 40
9.0
 40
9.0
 40
10.0
 40
10.0
 40
10.0
 40
11.0
 40
11.0
 40
11.0
 40
11.0
 10
18.05536566840278
 20
10.14579264322917
 30
0.0
 10
18.67645941840278
 20
10.14577907986111
 30
0.0
 10
19.30531141493055
 20
10.14579264322917
 30
0.0
 10
19.93522135416666
 20
10.14579264322917
 30
0.0
 10
19.99062771267361
 20
10.14579264322917
 30
0.0
 10
20.0748291015625
 20
10.14579264322917
 30
0.0
 10
20.13774956597222
 20
10.14579264322917
 30
0.0
 10
20.14621310763889
 20
10.14579264322917
 30
0.0
 10
20.17837185329861
 20
10.1492919921875
 30
0.0
 10
20.18448893229166
 20
10.14320203993056
 30
0.0
 10
20.18832736545139
 20
10.13937717013889
 30
0.0
 10
20.18760850694444
 20
10.1368408203125
 30
0.0
 10
20.18707953559028
 20
10.13026258680556
 30
0.0
 10
20.18553331163194
 20
10.11111111111111
 30
0.0
 10
20.18668619791666
 20
10.11976453993056
 30
0.0
 10
20.16631401909722
 20
10.11733669704861
 30
0.0
 10
20.14408365885416
 20
10.11467827690972
 30
0.0
 10
20.08574761284722
 20
10.11733669704861
 30
0.0
 10
20.06504991319444
 20
10.11733669704861
 30
0.0
 10
20.00724283854166
 20
10.11733669704861
 30
0.0
 10
19.96112738715278
 20
10.11733669704861
 30
0.0
 10
19.93002658420139
 20
10.11733669704861
 30
0.0
 10
19.32008192274305
 20
10.11733669704861
 30
0.0
 10
18.71995713975694
 20
10.11733669704861
 30
0.0
 10
18.1072998046875
 20
10.11733669704861
 30
0.0
 10
18.09296332465278
 20
10.11733669704861
 30
0.0
 10
18.07230631510416
 20
10.11428493923611
 30
0.0
 10
18.05796983506944
 20
10.11733669704861
 30
0.0
 10
18.04977756076389
 20
10.11907280815972
 30
0.0
 10
18.05365668402778
 20
10.11542426215278
 30
0.0
 10
18.0501708984375
 20
10.12509494357639
 30
0.0
 10
18.04832628038194
 20
10.13023546006944
 30
0.0
 10
18.04747178819444
 20
10.14021809895833
 30
0.0
 10
18.05536566840278
 20
10.14579264322917
 30
0.0
  0
ENDBLK
  5
9D
330
9A
100
AcDbEntity
  8
0
100
AcDbBlockEnd
  0
BLOCK
  5
A1
330
9F
100
AcDbEntity
  8
0
100
AcDbBlockBegin
  2
block 22
 70
     0
 71
     0
 10
0.0
 20
0.0
 30
0.0
  3
block 22
  1

  0
SPLINE
  5
A3
330
9F
100
AcDbEntity
  8
Layer 1
 62
     1
370
    35
100
AcDbSpline
210
0.0
220
0.0
230
1.0
 70
    11
 71
     3
 72
    77
 73
    73
 74
     0
 42
0.0000000001
 43
0.0000000001
 40
0.0
 40
0.0
 40
0.0
 40
0.0
 40
1.0
 40
1.0
 40
1.0
 40
2.0
 40
2.0
 40
2.0
 40
3.0
 40
3.0
 40
3.0
 40
4.0
 40
4.0
 40
4.0
 40
5.0
 40
5.0
 40
5.0
 40
6.0
 40
6.0
 40
6.0
 40
7.0
 40
7.0
 40
7.0
 40
8.0
 40
8.0
 40
8.0
 40
9.0
 40
9.0
 40
9.0
 40
10.0
 40
10.0
 40
10.0
 40
11.0
 40
11.0
 40
11.0
 40
12.0
 40
12.0
 40
12.0
 40
13.0
 40
13.0
 40
13.0
 40
14.0
 40
14.0
 40
14.0
 40
15.0
 40
15.0
 40
15.0
 40
16.0
 40
16.0
 40
16.0
 40
17.0
 40
17.0
 40
17.0
 40
18.0
 40
18.0
 40
18.0
 40
19.0
 40
19.0
 40
19.0
 40
20.0
 40
20.0
 40
20.0
 40
21.0
 40
21.0
 40
21.0
 40
22.0
 40
22.0
 40
22.0
 40
23.0
 40
23.0
 40
23.0
 40
24.0
 40
24.0
 40
24.0
 40
24.0
 10
18.25530327690972
 20
13.25
 30
0.0
 10
18.80228678385416
 20
13.25
 30
0.0
 10
19.34929741753472
 20
13.25
 30
0.0
 10
19.89626736111111
 20
13.25
 30
0.0
 10
19.907470703125
 20
13.24822998046875
 30
0.0
 10
19.89866807725694
 20
13.22650824652778
 30
0.0
 10
19.90146213107639
 20
13.21636962890625
 30
0.0
 10
19.91493055555555
 20
13.21512858072917
 30
0.0
 10
19.93368869357639
 20
13.21915690104167
 30
0.0
 10
19.94300672743055
 20
13.21378580729167
 30
0.0
 10
19.96055772569444
 20
13.21919759114583
 30
0.0
 10
19.94204372829861
 20
13.18868001302083
 30
0.0
 10
19.95598687065972
 20
13.19050428602431
 30
0.0
 10
19.9979248046875
 20
13.19551595052083
 30
0.0
 10
20.02887641059028
 20
13.18364800347222
 30
0.0
 10
20.06764051649305
 20
13.19050428602431
 30
0.0
 10
20.08062065972222
 20
13.19279649522569
 30
0.0
 10
20.07950846354166
 20
13.19124348958333
 30
0.0
 10
20.08840603298611
 20
13.19826253255208
 30
0.0
 10
20.098388671875
 20
13.20612928602431
 30
0.0
 10
20.11085340711805
 20
13.22722032335069
 30
0.0
 10
20.12476942274305
 20
13.23447672526042
 30
0.0
 10
20.13825141059028
 20
13.24150933159722
 30
0.0
 10
20.18092176649305
 20
13.23706732855903
 30
0.0
 10
20.20784505208333
 20
13.23706732855903
 30
0.0
 10
20.255859375
 20
13.23706732855903
 30
0.0
 10
20.30084906684028
 20
13.23706732855903
 30
0.0
 10
20.35065375434028
 20
13.23706732855903
 30
0.0
 10
20.37352159288194
 20
13.23706732855903
 30
0.0
 10
20.40044487847222
 20
13.241943359375
 30
0.0
 10
20.42076280381944
 20
13.23706732855903
 30
0.0
 10
20.42881944444444
 20
13.23512776692708
 30
0.0
 10
20.43189832899305
 20
13.23316786024306
 30
0.0
 10
20.43893771701389
 20
13.22671847873264
 30
0.0
 10
20.46926540798611
 20
13.19892035590278
 30
0.0
 10
20.50698513454861
 20
13.15633816189236
 30
0.0
 10
20.53500705295139
 20
13.12841796875
 30
0.0
 10
20.63991970486111
 20
13.02389187282986
 30
0.0
 10
20.73575846354166
 20
12.93100314670139
 30
0.0
 10
20.843994140625
 20
12.82317437065972
 30
0.0
 10
20.84931098090278
 20
12.81786431206597
 30
0.0
 10
20.85343424479166
 20
12.81163194444444
 30
0.0
 10
20.85697428385416
 20
12.80765109592014
 30
0.0
 10
20.86410861545139
 20
12.79964192708333
 30
0.0
 10
20.865234375
 20
12.80093722873264
 30
0.0
 10
20.86735026041666
 20
12.79212782118056
 30
0.0
 10
20.87307400173611
 20
12.76848687065972
 30
0.0
 10
20.86735026041666
 20
12.73056369357639
 30
0.0
 10
20.86735026041666
 20
12.69641791449653
 30
0.0
 10
20.86735026041666
 20
11.72684054904514
 30
0.0
 10
20.86735026041666
 20
10.70936414930556
 30
0.0
 10
20.86735026041666
 20
9.75
 30
0.0
 10
19.70157877604166
 20
9.75
 30
0.0
 10
18.53561740451389
 20
9.75
 30
0.0
 10
17.36990017361111
 20
9.75
 30
0.0
 10
17.36990017361111
 20
10.912353515625
 30
0.0
 10
17.36990017361111
 20
12.07471381293403
 30
0.0
 10
17.36990017361111
 20
13.23706732855903
 30
0.0
 10
17.4927978515625
 20
13.23706732855903
 30
0.0
 10
17.61569552951389
 20
13.23706732855903
 30
0.0
 10
17.73859320746528
 20
13.23706732855903
 30
0.0
 10
17.75560167100694
 20
13.2427978515625
 30
0.0
 10
17.73807779947916
 20
13.21412489149306
 30
0.0
 10
17.75157335069444
 20
13.21636962890625
 30
0.0
 10
17.91775173611111
 20
13.21809217664931
 30
0.0
 10
18.09086100260416
 20
13.21292453342014
 30
0.0
 10
18.25269911024305
 20
13.21896023220486
 30
0.0
 10
18.25269911024305
 20
13.22671847873264
 30
0.0
 10
18.25269911024305
 20
13.23447672526042
 30
0.0
 10
18.25269911024305
 20
13.24224175347222
 30
0.0
 10
18.25248209635416
 20
13.24591064453125
 30
0.0
 10
18.25227864583333
 20
13.24956597222222
 30
0.0
 10
18.25530327690972
 20
13.25
 30
0.0
  0
ENDBLK
  5
A2
330
9F
100
AcDbEntity
  8
0
100
AcDbBlockEnd
  0
ENDSEC
  0
SECTION
  2
ENTITIES
  0
INSERT
  5
3D
330
1F
100
AcDbEntity
  8
Layer 1
100
AcDbBlockReference
  2
block 2
 10
0.0
 20
0.0
 30
0.0
  0
ENDSEC
  0
SECTION
  2
OBJECTS
  0
DICTIONARY
  5
C
330
0
100
AcDbDictionary
281
     1
  3
ACAD_GROUP
350
D
  3
ACAD_LAYOUT
350
1A
  3
ACAD_MLINESTYLE
350
17
  3
ACAD_PLOTSETTINGS
350
19
  3
ACAD_PLOTSTYLENAME
350
E
  3
ACAD_TABLESTYLE
350
A4
  3
ACAD_VISUALSTYLE
350
2A
  0
DICTIONARY
  5
D
102
{ACAD_REACTORS
330
C
102
}
330
C
100
AcDbDictionary
281
     1
  0
DICTIONARY
  5
1A
102
{ACAD_REACTORS
330
C
102
}
330
C
100
AcDbDictionary
281
     1
  3
Layout1
350
1E
  3
Layout2
350
26
  3
Model
350
22
  0
DICTIONARY
  5
17
102
{ACAD_REACTORS
330
C
102
}
330
C
100
AcDbDictionary
281
     1
  3
Standard
350
18
  0
DICTIONARY
  5
19
102
{ACAD_REACTORS
330
C
102
}
330
C
100
AcDbDictionary
281
     1
  0
ACDBDICTIONARYWDFLT
  5
E
102
{ACAD_REACTORS
330
C
102
}
330
C
100
AcDbDictionary
281
     1
  3
Normal
350
F
100
AcDbDictionaryWithDefault
340
F
  0
DICTIONARY
  5
A4
102
{ACAD_REACTORS
330
C
102
}
330
C
100
AcDbDictionary
281
     1
  0
DICTIONARY
  5
2A
102
{ACAD_REACTORS
330
C
102
}
330
C
100
AcDbDictionary
281
     1
  3
2dWireframe
350
2F
  3
3D Hidden
350
31
  3
3dWireframe
350
30
  3
Basic
350
32
  3
Brighten
350
36
  3
ColorChange
350
3A
  3
Conceptual
350
34
  3
Dim
350
35
  3
Facepattern
350
39
  3
Flat
350
2B
  3
FlatWithEdges
350
2C
  3
Gouraud
350
2D
  3
GouraudWithEdges
350
2E
  3
Linepattern
350
38
  3
Realistic
350
33
  3
Thicken
350
37
  0
LAYOUT
  5
1E
102
{ACAD_REACTORS
330
1A
102
}
330
1A
100
AcDbPlotSettings
  1

  2
none_device
  4

  6

 40
0.0
 41
0.0
 42
0.0
 43
0.0
 44
0.0
 45
0.0
 46
0.0
 47
0.0
 48
0.0
 49
0.0
140
0.0
141
0.0
142
1.0
143
1.0
 70
   688
 72
     0
 73
     0
 74
     5
  7

 75
    16
 76
     0
 77
     2
 78
   300
147
1.0
148
0.0
149
0.0
100
AcDbLayout
  1
Layout1
 70
     1
 71
     1
 10
0.0
 20
0.0
 11
12.0
 21
9.0
 12
0.0
 22
0.0
 32
0.0
 14
1.000000000000000E+20
 24
1.000000000000000E+20
 34
1.000000000000000E+20
 15
-1.000000000000000E+20
 25
-1.000000000000000E+20
 35
-1.000000000000000E+20
146
0.0
 13
0.0
 23
0.0
 33
0.0
 16
1.0
 26
0.0
 36
0.0
 17
0.0
 27
1.0
 37
0.0
 76
     0
330
1B
  0
LAYOUT
  5
26
102
{ACAD_REACTORS
330
1A
102
}
330
1A
100
AcDbPlotSettings
  1

  2
none_device
  4

  6

 40
0.0
 41
0.0
 42
0.0
 43
0.0
 44
0.0
 45
0.0
 46
0.0
 47
0.0
 48
0.0
 49
0.0
140
0.0
141
0.0
142
1.0
143
1.0
 70
   688
 72
     0
 73
     0
 74
     5
  7

 75
    16
 76
     0
 77
     2
 78
   300
147
1.0
148
0.0
149
0.0
100
AcDbLayout
  1
Layout2
 70
     1
 71
     2
 10
0.0
 20
0.0
 11
0.0
 21
0.0
 12
0.0
 22
0.0
 32
0.0
 14
0.0
 24
0.0
 34
0.0
 15
0.0
 25
0.0
 35
0.0
146
0.0
 13
0.0
 23
0.0
 33
0.0
 16
1.0
 26
0.0
 36
0.0
 17
0.0
 27
1.0
 37
0.0
 76
     0
330
23
  0
LAYOUT
  5
22
102
{ACAD_REACTORS
330
1A
102
}
330
1A
100
AcDbPlotSettings
  1

  2
none_device
  4

  6

 40
0.0
 41
0.0
 42
0.0
 43
0.0
 44
0.0
 45
0.0
 46
0.0
 47
0.0
 48
0.0
 49
0.0
140
0.0
141
0.0
142
1.0
143
1.0
 70
  1712
 72
     0
 73
     0
 74
     0
  7

 75
     0
 76
     0
 77
     2
 78
   300
147
1.0
148
0.0
149
0.0
100
AcDbLayout
  1
Model
 70
     1
 71
     0
 10
0.0
 20
0.0
 11
12.0
 21
9.0
 12
0.0
 22
0.0
 32
0.0
 14
1.000000000000000E+20
 24
1.000000000000000E+20
 34
1.000000000000000E+20
 15
-1.000000000000000E+20
 25
-1.000000000000000E+20
 35
-1.000000000000000E+20
146
0.0
 13
0.0
 23
0.0
 33
0.0
 16
1.0
 26
0.0
 36
0.0
 17
0.0
 27
1.0
 37
0.0
 76
     0
330
1F
331
29
  0
MLINESTYLE
  5
18
102
{ACAD_REACTORS
330
17
102
}
330
17
100
AcDbMlineStyle
  2
Standard
 70
     0
  3

 62
   256
 51
90.0
 52
90.0
 71
     2
 49
0.5
 62
   256
  6
BYLAYER
 49
-0.5
 62
   256
  6
BYLAYER
  0
ACDBPLACEHOLDER
  5
F
102
{ACAD_REACTORS
330
E
102
}
330
E
  0
VISUALSTYLE
  5
2F
102
{ACAD_REACTORS
330
2A
102
}
330
2A
100
AcDbVisualStyle
  2
2dWireframe
 70
     4
 71
     0
 72
     2
 73
     0
 90
        0
 40
-0.6
 41
-30.0
 62
     5
 63
     7
421
 16777215
 74
     1
 91
        4
 64
     7
 65
   257
 75
     1
175
     1
 42
1.0
 92
        0
 66
   257
 43
1.0
 76
     1
 77
     6
 78
     2
 67
     7
 79
     5
170
     0
171
     0
290
     0
174
     0
 93
        1
 44
0.0
173
     0
291
     0
 45
0.0
1001
ACAD
1000
AcDbSavedByObjectVersion
1070
     0
  0
VISUALSTYLE
  5
31
102
{ACAD_REACTORS
330
2A
102
}
330
2A
100
AcDbVisualStyle
  2
3D Hidden
 70
     6
 71
     1
 72
     2
 73
     2
 90
        0
 40
-0.6
 41
-30.0
 62
     5
 63
     7
421
 16777215
 74
     2
 91
        2
 64
     7
 65
   257
 75
     2
175
     1
 42
40.0
 92
        0
 66
   257
 43
1.0
 76
     1
 77
     6
 78
     2
 67
     7
 79
     3
170
     0
171
     0
290
     0
174
     0
 93
        1
 44
0.0
173
     0
291
     0
 45
0.0
1001
ACAD
1000
AcDbSavedByObjectVersion
1070
     0
  0
VISUALSTYLE
  5
30
102
{ACAD_REACTORS
330
2A
102
}
330
2A
100
AcDbVisualStyle
  2
3dWireframe
 70
     5
 71
     0
 72
     2
 73
     0
 90
        0
 40
-0.6
 41
-30.0
 62
     5
 63
     7
421
 16777215
 74
     1
 91
        4
 64
     7
 65
   257
 75
     1
175
     1
 42
1.0
 92
        0
 66
   257
 43
1.0
 76
     1
 77
     6
 78
     2
 67
     7
 79
     5
170
     0
171
     0
290
     0
174
     0
 93
        1
 44
0.0
173
     0
291
     0
 45
0.0
1001
ACAD
1000
AcDbSavedByObjectVersion
1070
     0
  0
VISUALSTYLE
  5
32
102
{ACAD_REACTORS
330
2A
102
}
330
2A
100
AcDbVisualStyle
  2
Basic
 70
     7
 71
     1
 72
     0
 73
     1
 90
        0
 40
-0.6
 41
-30.0
 62
     5
 63
     7
421
 16777215
 74
     0
 91
        4
 64
     7
 65
   257
 75
     1
175
     1
 42
1.0
 92
        8
 66
     7
 43
1.0
 76
     1
 77
     6
 78
     2
 67
     7
 79
     5
170
     0
171
     0
290
     0
174
     0
 93
        1
 44
0.0
173
     0
291
     1
 45
0.0
1001
ACAD
1000
AcDbSavedByObjectVersion
1070
     0
  0
VISUALSTYLE
  5
36
102
{ACAD_REACTORS
330
2A
102
}
330
2A
100
AcDbVisualStyle
  2
Brighten
 70
    12
 71
     2
 72
     2
 73
     0
 90
        0
 40
-0.6
 41
-30.0
 62
     5
 63
     7
421
 16777215
 74
     1
 91
        4
 64
     7
 65
   257
 75
     1
175
     1
 42
1.0
 92
        8
 66
     7
 43
1.0
 76
     1
 77
     6
 78
     2
 67
     7
 79
     5
170
     0
171
     0
290
     0
174
     0
 93
        1
 44
50.0
173
     0
291
     1
 45
0.0
1001
ACAD
1000
AcDbSavedByObjectVersion
1070
     0
  0
VISUALSTYLE
  5
3A
102
{ACAD_REACTORS
330
2A
102
}
330
2A
100
AcDbVisualStyle
  2
ColorChange
 70
    16
 71
     2
 72
     2
 73
     3
 90
        0
 40
-0.6
 41
-30.0
 62
     5
 63
     8
421
  8421504
 74
     1
 91
        4
 64
     7
 65
   257
 75
     1
175
     1
 42
1.0
 92
        8
 66
     8
424
  8421504
 43
1.0
 76
     1
 77
     6
 78
     2
 67
     7
 79
     5
170
     0
171
     0
290
     0
174
     0
 93
        1
 44
0.0
173
     0
291
     1
 45
0.0
1001
ACAD
1000
AcDbSavedByObjectVersion
1070
     0
  0
VISUALSTYLE
  5
34
102
{ACAD_REACTORS
330
2A
102
}
330
2A
100
AcDbVisualStyle
  2
Conceptual
 70
     9
 71
     3
 72
     2
 73
     0
 90
        0
 40
-0.6
 41
-30.0
 62
     5
 63
     7
421
 16777215
 74
     2
 91
        2
 64
     7
 65
   257
 75
     1
175
     1
 42
40.0
 92
        8
 66
     7
 43
1.0
 76
     1
 77
     6
 78
     2
 67
     7
 79
     3
170
     0
171
     0
290
     0
174
     0
 93
        1
 44
0.0
173
     0
291
     0
 45
0.0
1001
ACAD
1000
AcDbSavedByObjectVersion
1070
     0
  0
VISUALSTYLE
  5
35
102
{ACAD_REACTORS
330
2A
102
}
330
2A
100
AcDbVisualStyle
  2
Dim
 70
    11
 71
     2
 72
     2
 73
     0
 90
        0
 40
-0.6
 41
-30.0
 62
     5
 63
     7
421
 16777215
 74
     1
 91
        4
 64
     7
 65
   257
 75
     1
175
     1
 42
1.0
 92
        8
 66
     7
 43
1.0
 76
     1
 77
     6
 78
     2
 67
     7
 79
     5
170
     0
171
     0
290
     0
174
     0
 93
        1
 44
-50.0
173
     0
291
     1
 45
0.0
1001
ACAD
1000
AcDbSavedByObjectVersion
1070
     0
  0
VISUALSTYLE
  5
39
102
{ACAD_REACTORS
330
2A
102
}
330
2A
100
AcDbVisualStyle
  2
Facepattern
 70
    15
 71
     2
 72
     2
 73
     0
 90
        0
 40
-0.6
 41
-30.0
 62
     5
 63
     7
421
 16777215
 74
     1
 91
        4
 64
     7
 65
   257
 75
     1
175
     1
 42
1.0
 92
        8
 66
     7
 43
1.0
 76
     1
 77
     6
 78
     2
 67
     7
 79
     5
170
     0
171
     0
290
     0
174
     0
 93
        1
 44
0.0
173
     0
291
     1
 45
0.0
1001
ACAD
1000
AcDbSavedByObjectVersion
1070
     0
  0
VISUALSTYLE
  5
2B
102
{ACAD_REACTORS
330
2A
102
}
330
2A
100
AcDbVisualStyle
  2
Flat
 70
     0
 71
     2
 72
     1
 73
     1
 90
        2
 40
-0.6
 41
30.0
 62
     5
 63
     7
421
 16777215
 74
     0
 91
        4
 64
     7
 65
   257
 75
     1
175
     1
 42
1.0
 92
        8
 66
     7
 43
1.0
 76
     1
 77
     6
 78
     2
 67
     7
 79
     5
170
     0
171
     0
290
     0
174
     0
 93
       13
 44
0.0
173
     0
291
     1
 45
0.0
1001
ACAD
1000
AcDbSavedByObjectVersion
1070
     0
  0
VISUALSTYLE
  5
2C
102
{ACAD_REACTORS
330
2A
102
}
330
2A
100
AcDbVisualStyle
  2
FlatWithEdges
 70
     1
 71
     2
 72
     1
 73
     1
 90
        2
 40
-0.6
 41
30.0
 62
     5
 63
     7
421
 16777215
 74
     1
 91
        4
 64
     7
 65
   257
 75
     1
175
     1
 42
1.0
 92
        0
 66
   257
 43
1.0
 76
     1
 77
     6
 78
     2
 67
     7
 79
     5
170
     0
171
     0
290
     0
174
     0
 93
       13
 44
0.0
173
     0
291
     1
 45
0.0
1001
ACAD
1000
AcDbSavedByObjectVersion
1070
     0
  0
VISUALSTYLE
  5
2D
102
{ACAD_REACTORS
330
2A
102
}
330
2A
100
AcDbVisualStyle
  2
Gouraud
 70
     2
 71
     2
 72
     2
 73
     1
 90
        2
 40
-0.6
 41
30.0
 62
     5
 63
     7
421
 16777215
 74
     0
 91
        4
 64
     7
 65
   257
 75
     1
175
     1
 42
1.0
 92
        0
 66
     7
 43
1.0
 76
     1
 77
     6
 78
     2
 67
     7
 79
     5
170
     0
171
     0
290
     0
174
     0
 93
       13
 44
0.0
173
     0
291
     1
 45
0.0
1001
ACAD
1000
AcDbSavedByObjectVersion
1070
     0
  0
VISUALSTYLE
  5
2E
102
{ACAD_REACTORS
330
2A
102
}
330
2A
100
AcDbVisualStyle
  2
GouraudWithEdges
 70
     3
 71
     2
 72
     2
 73
     1
 90
        2
 40
-0.6
 41
30.0
 62
     5
 63
     7
421
 16777215
 74
     1
 91
        4
 64
     7
 65
   257
 75
     1
175
     1
 42
1.0
 92
        0
 66
   257
 43
1.0
 76
     1
 77
     6
 78
     2
 67
     7
 79
     5
170
     0
171
     0
290
     0
174
     0
 93
       13
 44
0.0
173
     0
291
     1
 45
0.0
1001
ACAD
1000
AcDbSavedByObjectVersion
1070
     0
  0
VISUALSTYLE
  5
38
102
{ACAD_REACTORS
330
2A
102
}
330
2A
100
AcDbVisualStyle
  2
Linepattern
 70
    14
 71
     2
 72
     2
 73
     0
 90
        0
 40
-0.6
 41
-30.0
 62
     5
 63
     7
421
 16777215
 74
     1
 91
        4
 64
     7
 65
   257
 75
     7
175
     7
 42
1.0
 92
        8
 66
     7
 43
1.0
 76
     1
 77
     6
 78
     2
 67
     7
 79
     5
170
     0
171
     0
290
     0
174
     0
 93
        1
 44
0.0
173
     0
291
     1
 45
0.0
1001
ACAD
1000
AcDbSavedByObjectVersion
1070
     0
  0
VISUALSTYLE
  5
33
102
{ACAD_REACTORS
330
2A
102
}
330
2A
100
AcDbVisualStyle
  2
Realistic
 70
     8
 71
     2
 72
     2
 73
     0
 90
        0
 40
-0.6
 41
-30.0
 62
     5
 63
     7
421
 16777215
 74
     1
 91
        0
 64
     7
 65
   257
 75
     1
175
     1
 42
1.0
 92
        8
 66
     8
424
  7895160
 43
1.0
 76
     1
 77
     6
 78
     2
 67
     7
 79
     5
170
     0
171
     0
290
     0
174
     0
 93
       13
 44
0.0
173
     0
291
     0
 45
0.0
1001
ACAD
1000
AcDbSavedByObjectVersion
1070
     0
  0
VISUALSTYLE
  5
37
102
{ACAD_REACTORS
330
2A
102
}
330
2A
100
AcDbVisualStyle
  2
Thicken
 70
    13
 71
     2
 72
     2
 73
     0
 90
        0
 40
-0.6
 41
-30.0
 62
     5
 63
     7
421
 16777215
 74
     1
 91
        4
 64
     7
 65
   257
 75
     1
175
     1
 42
1.0
 92
       12
 66
     7
 43
1.0
 76
     1
 77
     6
 78
     2
 67
     7
 79
     5
170
     0
171
     0
290
     0
174
     0
 93
        1
 44
0.0
173
     0
291
     1
 45
0.0
1001
ACAD
1000
AcDbSavedByObjectVersion
1070
     0
  0
ENDSEC
  0
EOF
