0
SECTION
2
HEADER
9
$EXTMIN
10
0.175501
20
0.295405
9
$EXTMAX
10
2.700221
20
3.668960
0
ENDSEC
0
SECTION
2
TABLES
0
TABLE
2
LTYPE
70
1
0
LTYPE
2
0
70
0
3
Solid Line
72
65
73
0
40
0.0
0
ENDTAB
0
TABLE
2
LAYER
70
1
0
LAYER
2
1
70
0
62
7
6
0
0
ENDTAB
0
ENDSEC
0
SECTION
2
BLOCKS
0
ENDSEC
0
SECTION
2
ENTITIES
0
LINE
8
1
10
1.004136
20
0.561804
11
1.004138
21
0.561806
0
LINE
8
1
10
0.583591
20
1.983396
11
0.594483
21
1.993332
0
ARC
8
1
10
0.583509
20
1.981077
40
0.016450
50
48.157004
51
48.157004
0
LINE
8
1
10
0.536280
20
0.711256
11
0.643460
21
0.816195
0
ARC
8
1
10
1.863301
20
1.982468
40
1.687662
50
92.134008
51
-136.286060
0
LINE
8
1
10
1.800458
20
3.668960
11
1.800458
21
3.281992
0
ARC
8
1
10
1.906018
20
1.582379
40
1.702888
50
93.553979
51
98.574600
0
LINE
8
1
10
1.652122
20
3.266233
11
1.640104
21
3.297936
0
ARC
8
1
10
1.486533
20
3.262561
40
0.157593
50
12.971822
51
-163.685849
0
LINE
8
1
10
1.335286
20
3.218293
11
1.343373
21
3.175234
0
ARC
8
1
10
2.047618
20
1.609387
40
1.716926
50
114.215990
51
118.509766
0
LINE
8
1
10
1.228114
20
3.118112
11
1.169545
21
3.177701
0
ARC
8
1
10
1.075671
20
3.093217
40
0.126292
50
41.986287
51
-143.257084
0
LINE
8
1
10
0.974469
20
3.017666
11
1.009856
21
2.965008
0
ARC
8
1
10
2.206569
20
1.623655
40
1.797596
50
131.738332
51
135.752211
0
LINE
8
1
10
0.918900
20
2.877950
11
0.825161
21
2.935113
0
ARC
8
1
10
0.772352
20
2.855994
40
0.095124
50
56.278048
51
-116.475586
0
LINE
8
1
10
0.729944
20
2.770846
11
0.791580
21
2.721136
0
ARC
8
1
10
2.427465
20
1.629153
40
1.966862
50
146.276165
51
149.716737
0
LINE
8
1
10
0.728995
20
2.620993
11
0.614657
21
2.674746
0
ARC
8
1
10
0.585824
20
2.617841
40
0.063793
50
63.128832
51
-113.354802
0
LINE
8
1
10
0.560535
20
2.559275
11
0.670132
21
2.502978
0
ARC
8
1
10
2.479479
20
1.746418
40
1.961152
50
157.308255
51
161.021052
0
LINE
8
1
10
0.624938
20
2.384225
11
0.481439
21
2.439616
0
ARC
8
1
10
0.467923
20
2.409863
40
0.032679
50
65.569492
51
-103.568550
0
LINE
8
1
10
0.460256
20
2.378096
11
0.580469
21
2.317600
0
LINE
8
1
10
0.580469
20
2.317600
11
0.843986
21
2.209167
0
ARC
8
1
10
1.898924
20
1.982183
40
1.079081
50
167.857169
51
-167.857169
0
LINE
8
1
10
0.843986
20
1.755199
11
0.580469
21
1.646766
0
LINE
8
1
10
0.580469
20
1.646766
11
0.460256
21
1.586269
0
ARC
8
1
10
0.467923
20
1.554502
40
0.032679
50
103.568601
51
-65.569730
0
LINE
8
1
10
0.481438
20
1.524749
11
0.624933
21
1.580139
0
ARC
8
1
10
2.479430
20
2.218086
40
1.961157
50
-161.016778
51
-157.303947
0
LINE
8
1
10
0.670137
20
1.461389
11
0.560534
21
1.405089
0
ARC
8
1
10
0.585824
20
1.346523
40
0.063793
50
113.355828
51
-63.129456
0
LINE
8
1
10
0.614657
20
1.289618
11
0.728990
21
1.343372
0
ARC
8
1
10
2.430325
20
2.337115
40
1.970297
50
-149.710950
51
-146.276221
0
LINE
8
1
10
0.791583
20
1.243227
11
0.729946
21
1.193519
0
ARC
8
1
10
0.772352
20
1.108370
40
0.095125
50
116.474238
51
-56.278436
0
LINE
8
1
10
0.825161
20
1.029250
11
0.918895
21
1.086412
0
ARC
8
1
10
2.208261
20
2.342661
40
1.800175
50
-135.745357
51
-131.737148
0
LINE
8
1
10
1.009859
20
0.999358
11
0.974469
21
0.946698
0
ARC
8
1
10
1.075673
20
0.871148
40
0.126293
50
143.257992
51
-41.986190
0
LINE
8
1
10
1.169547
20
0.786664
11
1.228112
21
0.846251
0
ARC
8
1
10
2.048731
20
2.357328
40
1.719526
50
-118.504999
51
-114.217720
0
LINE
8
1
10
1.343373
20
0.789132
11
1.335286
21
0.746071
0
ARC
8
1
10
1.486533
20
0.701800
40
0.157593
50
163.684902
51
-12.972621
0
LINE
8
1
10
1.640103
20
0.666423
11
1.652114
21
0.698133
0
ARC
8
1
10
1.906273
20
2.384080
40
1.704997
50
-98.572880
51
-93.558023
0
LINE
8
1
10
1.800462
20
0.682370
11
1.800457
21
0.295405
0
ARC
8
1
10
1.865666
20
1.985874
40
1.691725
50
-136.258050
51
-92.209056
0
LINE
8
1
10
1.389894
20
1.953834
11
1.400787
21
1.963770
0
ARC
8
1
10
1.389813
20
1.951516
40
0.016450
50
48.154228
51
48.154228
0
LINE
8
1
10
1.874353
20
0.815102
11
1.941751
21
0.949108
0
ARC
8
1
10
1.883003
20
0.837710
40
0.125940
50
62.194046
51
145.083112
0
LINE
8
1
10
1.779735
20
0.909796
11
1.668615
21
0.762565
0
ARC
8
1
10
2.964716
20
2.255384
40
1.976964
50
-136.528855
51
-130.965279
0
LINE
8
1
10
1.529992
20
0.895254
11
1.649765
21
1.010323
0
ARC
8
1
10
1.579514
20
1.074580
40
0.095206
50
-42.448161
51
144.713412
0
LINE
8
1
10
1.501800
20
1.129577
11
1.395366
21
1.063118
0
ARC
8
1
10
3.145619
20
2.245286
40
2.112086
50
-150.165212
51
-145.963819
0
LINE
8
1
10
1.313461
20
1.194522
11
1.422093
21
1.255902
0
ARC
8
1
10
1.393245
20
1.312813
40
0.063805
50
-63.119270
51
121.674760
0
LINE
8
1
10
1.359741
20
1.367114
11
1.254259
21
1.312536
0
ARC
8
1
10
3.250144
20
2.174783
40
2.174173
50
-160.446722
51
-156.635043
0
LINE
8
1
10
1.201354
20
1.447124
11
1.283604
21
1.488925
0
ARC
8
1
10
1.274890
20
1.520582
40
0.032835
50
-74.610529
51
111.450050
0
LINE
8
1
10
1.262883
20
1.551143
11
1.172553
21
1.540022
0
ARC
8
1
10
2.690125
20
1.948593
40
1.571610
50
164.931737
51
-164.931737
0
LINE
8
1
10
1.172553
20
2.357164
11
1.262881
21
2.346043
0
ARC
8
1
10
1.274883
20
2.376606
40
0.032835
50
-111.439851
51
74.596499
0
LINE
8
1
10
1.283604
20
2.408262
11
1.201354
21
2.450062
0
ARC
8
1
10
3.250085
20
1.722426
40
2.174110
50
156.634979
51
160.446785
0
LINE
8
1
10
1.254259
20
2.584651
11
1.359741
21
2.530071
0
ARC
8
1
10
1.393245
20
2.584373
40
0.063806
50
-121.673981
51
63.133061
0
LINE
8
1
10
1.422080
20
2.641291
11
1.313461
21
2.702664
0
ARC
8
1
10
3.145673
20
1.651867
40
2.112150
50
145.963887
51
150.165161
0
LINE
8
1
10
1.395366
20
2.834069
11
1.501800
21
2.767607
0
ARC
8
1
10
1.579514
20
2.822604
40
0.095206
50
-144.713312
51
42.448316
0
LINE
8
1
10
1.649765
20
2.886861
11
1.529991
21
3.001935
0
ARC
8
1
10
2.965478
20
1.640969
40
1.978094
50
130.966115
51
136.526467
0
LINE
8
1
10
1.668615
20
3.134622
11
1.779735
21
2.987388
0
ARC
8
1
10
1.883219
20
3.059770
40
0.126286
50
-145.029142
51
31.472235
0
LINE
8
1
10
1.990928
20
3.125703
11
1.897465
21
3.294853
0
ARC
8
1
10
2.875215
20
1.538901
40
2.009817
50
114.059310
51
119.109971
0
LINE
8
1
10
2.055849
20
3.374113
11
2.149935
21
3.165730
0
ARC
8
1
10
2.294124
20
3.229161
40
0.157525
50
-156.254708
51
13.380333
0
LINE
8
1
10
2.447373
20
3.265615
11
2.406726
21
3.478676
0
ARC
8
1
10
2.686751
20
1.726731
40
1.774182
50
89.564985
51
99.081129
0
LINE
8
1
10
2.700221
20
3.500862
11
2.700221
21
2.796799
0
ARC
8
1
10
2.671424
20
1.948593
40
0.848695
50
88.055515
51
-88.055515
0
LINE
8
1
10
2.700221
20
1.100387
11
2.700221
21
0.396324
0
ARC
8
1
10
2.686748
20
2.170426
40
1.774153
50
-99.081207
51
-89.564901
0
LINE
8
1
10
2.406726
20
0.418511
11
2.447373
21
0.631570
0
ARC
8
1
10
2.294123
20
0.668021
40
0.157525
50
-13.379346
51
156.253829
0
LINE
8
1
10
2.149935
20
0.731454
11
2.055849
21
0.523073
0
ARC
8
1
10
2.875190
20
2.358238
40
2.009764
50
-119.110005
51
-114.059207
0
LINE
8
1
10
1.897464
20
0.602333
11
1.990928
21
0.771482
0
ARC
8
1
10
1.883454
20
0.837347
40
0.126051
50
-31.502057
51
62.452266
0
ENDSEC
0
EOF
