  0
SECTION
  2
HEADER
  9
$ACADVER
  1
AC1015
  9
$ACADMAINTVER
 70
     6
  9
$DWGCODEPAGE
  3
DOS850
  9
$INSBASE
 10
0.0
 20
0.0
 30
0.0
  9
$EXTMIN
 10
-5.85062
 20
-5.6419
 30
1.000000E 20
  9
$EXTMAX
 10
5.85738
 20
5.63569
 30
-1.000000E 20
  9
$LIMMIN
 10
0.0
 20
0.0
  9
$LIMMAX
 10
0.0
 20
0.0
  9
$ORTHOMODE
 70
     0
  9
$REGENMODE
 70
     1
  9
$FILLMODE
 70
     1
  9
$QTEXTMODE
 70
     0
  9
$MIRRTEXT
 70
     1
  9
$LTSCALE
 40
1.0
  9
$ATTMODE
 70
     1
  9
$TEXTSIZE
 40
0.2
  9
$TRACEWID
 40
0.05
  9
$TEXTSTYLE
  7
Standard
  9
$CLAYER
  8
0
  9
$CELTYPE
  6
Continuous
  9
$CECOLOR
 62
   256
  9
$CELTSCALE
 40
1.0
  9
$DISPSILH
 70
     0
  9
$DIMSCALE
 40
1.0
  9
$DIMASZ
 40
0.18
  9
$DIMEXO
 40
0.0625
  9
$DIMDLI
 40
0.38
  9
$DIMRND
 40
0.0
  9
$DIMDLE
 40
0.0
  9
$DIMEXE
 40
0.18
  9
$DIMTP
 40
0.0
  9
$DIMTM
 40
0.0
  9
$DIMTXT
 40
0.18
  9
$DIMCEN
 40
0.09
  9
$DIMTSZ
 40
0.0
  9
$DIMTOL
 70
     0
  9
$DIMLIM
 70
     0
  9
$DIMTIH
 70
     1
  9
$DIMTOH
 70
     1
  9
$DIMSE1
 70
     0
  9
$DIMSE2
 70
     0
  9
$DIMTAD
 70
     0
  9
$DIMZIN
 70
     0
  9
$DIMBLK
  1

  9
$DIMASO
 70
     1
  9
$DIMSHO
 70
     1
  9
$DIMPOST
  1

  9
$DIMAPOST
  1

  9
$DIMALT
 70
     0
  9
$DIMALTD
 70
     2
  9
$DIMALTF
 40
25.4
  9
$DIMLFAC
 40
1.0
  9
$DIMTOFL
 70
     0
  9
$DIMTVP
 40
0.0
  9
$DIMTIX
 70
     0
  9
$DIMSOXD
 70
     0
  9
$DIMSAH
 70
     0
  9
$DIMBLK1
  1

  9
$DIMBLK2
  1

  9
$DIMSTYLE
  2
Standard
  9
$DIMCLRD
 70
     0
  9
$DIMCLRE
 70
     0
  9
$DIMCLRT
 70
     0
  9
$DIMTFAC
 40
1.0
  9
$DIMGAP
 40
0.09
  9
$DIMJUST
 70
     0
  9
$DIMSD1
 70
     0
  9
$DIMSD2
 70
     0
  9
$DIMTOLJ
 70
     1
  9
$DIMTZIN
 70
     0
  9
$DIMALTZ
 70
     0
  9
$DIMALTTZ
 70
     0
  9
$DIMUPT
 70
     0
  9
$DIMDEC
 70
     4
  9
$DIMTDEC
 70
     4
  9
$DIMALTU
 70
     2
  9
$DIMALTTD
 70
     2
  9
$DIMTXSTY
  7
Standard
  9
$DIMAUNIT
 70
     0
  9
$DIMADEC
 70
     0
  9
$DIMALTRND
 40
0.0
  9
$DIMAZIN
 70
     0
  9
$DIMDSEP
 70
     0
  9
$DIMATFIT
 70
     3
  9
$DIMFRAC
 70
     0
  9
$DIMLDRBLK
  1

  9
$DIMLUNIT
 70
     2
  9
$DIMLWD
 70
     0
  9
$DIMLWE
 70
     0
  9
$DIMTMOVE
 70
     0
  9
$LUNITS
 70
     2
  9
$LUPREC
 70
     4
  9
$SKETCHINC
 40
0.1
  9
$FILLETRAD
 40
0.0
  9
$AUNITS
 70
     0
  9
$AUPREC
 70
     0
  9
$MENU
  1
acad
  9
$ELEVATION
 40
0.0
  9
$PELEVATION
 40
0.0
  9
$THICKNESS
 40
0.0
  9
$LIMCHECK
 70
     0
  9
$CHAMFERA
 40
0.0
  9
$CHAMFERB
 40
0.0
  9
$CHAMFERC
 40
0.0
  9
$CHAMFERD
 40
0.0
  9
$SKPOLY
 70
     0
  9
$TDCREATE
 40
0.000000000
  9
$TDUCREATE
 40
0.000000000
  9
$TDUPDATE
 40
0.000000000
  9
$TDUUPDATE
 40
0.000000000
  9
$TDINDWG
 40
0.0000000000
  9
$TDUSRTIMER
 40
0.0000000000
  9
$USRTIMER
 70
     1
  9
$ANGBASE
 50
0.0
  9
$ANGDIR
 70
     0
  9
$PDMODE
 70
     0
  9
$PDSIZE
 40
0.0
  9
$PLINEWID
 40
0.0
  9
$SPLFRAME
 70
     0
  9
$SPLINETYPE
 70
     6
  9
$SPLINESEGS
 70
     8
  9
$HANDSEED
  5
50
  9
$SURFTAB1
 70
     6
  9
$SURFTAB2
 70
     6
  9
$SURFTYPE
 70
     6
  9
$SURFU
 70
     6
  9
$SURFV
 70
     6
  9
$UCSBASE
  2

  9
$UCSNAME
  2

  9
$UCSORG
 10
0.0
 20
0.0
 30
0.0
  9
$UCSXDIR
 10
1.0
 20
0.0
 30
0.0
  9
$UCSYDIR
 10
0.0
 20
1.0
 30
0.0
  9
$UCSORTHOREF
  2

  9
$UCSORTHOVIEW
 70
     0
  9
$UCSORGTOP
 10
0.0
 20
0.0
 30
0.0
  9
$UCSORGBOTTOM
 10
0.0
 20
0.0
 30
0.0
  9
$UCSORGLEFT
 10
0.0
 20
0.0
 30
0.0
  9
$UCSORGRIGHT
 10
0.0
 20
0.0
 30
0.0
  9
$UCSORGFRONT
 10
0.0
 20
0.0
 30
0.0
  9
$UCSORGBACK
 10
0.0
 20
0.0
 30
0.0
  9
$PUCSBASE
  2

  9
$PUCSNAME
  2

  9
$PUCSORG
 10
0.0
 20
0.0
 30
0.0
  9
$PUCSXDIR
 10
1.0
 20
0.0
 30
0.0
  9
$PUCSYDIR
 10
0.0
 20
1.0
 30
0.0
  9
$PUCSORTHOREF
  2

  9
$PUCSORTHOVIEW
 70
     0
  9
$PUCSORGTOP
 10
0.0
 20
0.0
 30
0.0
  9
$PUCSORGBOTTOM
 10
0.0
 20
0.0
 30
0.0
  9
$PUCSORGLEFT
 10
0.0
 20
0.0
 30
0.0
  9
$PUCSORGRIGHT
 10
0.0
 20
0.0
 30
0.0
  9
$PUCSORGFRONT
 10
0.0
 20
0.0
 30
0.0
  9
$PUCSORGBACK
 10
0.0
 20
0.0
 30
0.0
  9
$USERI1
 70
     0
  9
$USERI2
 70
     0
  9
$USERI3
 70
     0
  9
$USERI4
 70
     0
  9
$USERI5
 70
     0
  9
$USERR1
 40
0.0
  9
$USERR2
 40
0.0
  9
$USERR3
 40
0.0
  9
$USERR4
 40
0.0
  9
$USERR5
 40
0.0
  9
$WORLDVIEW
 70
     1
  9
$SHADEDGE
 70
     3
  9
$SHADEDIF
 70
    70
  9
$TILEMODE
 70
     1
  9
$MAXACTVP
 70
    16
  9
$PINSBASE
 10
0.0
 20
0.0
 30
0.0
  9
$PLIMCHECK
 70
     0
  9
$PEXTMIN
 10
1.000000E 20
 20
1.000000E 20
 30
1.000000E 20
  9
$PEXTMAX
 10
-1.000000E 20
 20
-1.000000E 20
 30
-1.000000E 20
  9
$PLIMMIN
 10
0.0
 20
0.0
  9
$PLIMMAX
 10
12.0
 20
9.0
  9
$UNITMODE
 70
     0
  9
$VISRETAIN
 70
     0
  9
$PLINEGEN
 70
     1
  9
$PSLTSCALE
 70
     0
  9
$TREEDEPTH
 70
  3020
  9
$CMLSTYLE
  2
Standard
  9
$CMLJUST
 70
     0
  9
$CMLSCALE
 40
1.0
  9
$PROXYGRAPHICS
 70
     0
  9
$MEASUREMENT
 70
     0
  9
$CELWEIGHT
370
     0
  9
$ENDCAPS
280
     0
  9
$JOINSTYLE
280
     0
  9
$LWDISPLAY
290
     0
  9
$INSUNITS
 70
     5
  9
$HYPERLINKBASE
  1

  9
$XEDIT
290
     1
  9
$CEPSNTYPE
380
     0
  9
$PSTYLEMODE
290
     1
  9
$FINGERPRINTGUID
  2

  9
$VERSIONGUID
  2

  9
$EXTNAMES
290
     1
  9
$PSVPSCALE
 40
0.0
  0
ENDSEC
  0
SECTION
  2
CLASSES
  0
CLASS
  1
LWPOLYLINE
  2
AcDbPolyline
  3
AutoCAD 2000
 90
    32768
280
     0
281
     1
  0
CLASS
  1
IMAGE
  2
AcDbRasterImage
  3
ISM
 90
    32895
280
     0
281
     1
  0
CLASS
  1
OLE2FRAME
  2
AcDbOle2Frame
  3
AutoCAD 2000
 90
    32768
280
     0
281
     1
  0
CLASS
  1
HATCH
  2
AcDbHatch
  3
AutoCAD 2000
 90
    32768
280
     0
281
     1
  0
CLASS
  1
DICTIONARYVAR
  2
AcDbDictionaryVar
  3
AutoCAD 2000
 90
    32768
280
     0
281
     0
  0
CLASS
  1
RASTERVARIABLES
  2
AcDbRasterVariables
  3
ISM
 90
    32768
280
     0
281
     0
  0
CLASS
  1
IMAGEDEF
  2
AcDbRasterImageDef
  3
ISM
 90
    32768
280
     0
281
     0
  0
CLASS
  1
IMAGEDEF_REACTOR
  2
AcDbRasterImageDefReactor
  3
ISM
 90
    32769
280
     0
281
     0
  0
CLASS
  1
IDBUFFER
  2
AcDbIdBuffer
  3
AutoCAD 2000
 90
    32768
280
     0
281
     0
  0
CLASS
  1
SPATIAL_FILTER
  2
AcDbSpatialFilter
  3
AutoCAD 2000
 90
    32768
280
     0
281
     0
  0
CLASS
  1
XRECORD
  2
AcDbXrecord
  3
AutoCAD 2000
 90
    32768
280
     0
281
     0
  0
CLASS
  1
SORTENTSTABLE
  2
AcDbSortentsTable
  3
AutoCAD 2000
 90
    32768
280
     0
281
     0
  0
CLASS
  1
LAYER_INDEX
  2
AcDbLayerIndex
  3
AutoCAD 2000
 90
    32768
280
     0
281
     0
  0
CLASS
  1
SPATIAL_INDEX
  2
AcDbSpatialIndex
  3
AutoCAD 2000
 90
    32768
280
     0
281
     0
  0
CLASS
  1
OBJECT_PTR
  2
CAseDLPNTableRecord
  3
\"ASE-LPNTableRecord\"
 90
    32769
280
     0
281
     0
  0
CLASS
  1
LAYOUT
  2
AcDbLayout
  3
AutoCAD 2000
 90
        0
280
     0
281
     0
  0
CLASS
  1
PLOTSETTINGS
  2
AcDbPlotSettings
  3
AutoCAD 2000
 90
    32768
280
     0
281
     0
  0
CLASS
  1
ACDBDICTIONARYWDFLT
  2
AcDbDictionaryWithDefault
  3
AutoCAD 2000
 90
        0
280
     0
281
     0
  0
CLASS
  1
ACDBPLACEHOLDER
  2
AcDbPlaceHolder
  3
AutoCAD 2000
 90
        0
280
     0
281
     0
  0
CLASS
  1
VBA_PROJECT
  2
AcDbVbaProject
  3
acadvba
 90
    32768
280
     0
281
     0
  0
CLASS
  1
WIPEOUT
  2
AcDbWipeout
  3
WipeOut|AutoCAD Express Tool|expresstools@autodesk.com
 90
    32895
280
     0
281
     1
  0
CLASS
  1
WIPEOUTVARIABLES
  2
AcDbWipeoutVariables
  3
WipeOut|AutoCAD Express Tool|expresstools@autodesk.com
 90
        0
280
     0
281
     0
  0
CLASS
  1
RTEXT
  2
RText
  3
RText|AutoCAD Express Tool|expresstools@autodesk.com
 90
    32768
280
     0
281
     1
  0
CLASS
  1
ARCALIGNEDTEXT
  2
AcDbArcAlignedText
  3
ATEXT|AutoCAD Express Tool|expresstools@autodesk.com
 90
    32768
280
     0
281
     1
  0
ENDSEC
  0
SECTION
  2
TABLES
  0
TABLE
  2
VPORT
  5
7
100
AcDbSymbolTable
 70
     1
  0
VPORT
  5
15
100
AcDbSymbolTableRecord
100
AcDbViewportTableRecord
  2
*ACTIVE
 70
     0
 10
0.0
 20
0.0
 11
1.0
 21
1.0
 12
6.591288
 22
4.579184
 13
0.0
 23
0.0
 14
1.0
 24
1.0
 15
0.0
 25
0.0
 16
0.0
 26
0.0
 36
1.0
 17
0.0
 27
0.0
 37
0.0
 40
9.158369
 41
0.688564
 42
50.0
 43
0.0
 44
0.0
 50
0.0
 51
0.0
 71
     0
 72
   100
 73
     1
 74
     1
 75
     0
 76
     0
 77
     0
 78
     0
281
     0
 65
     0
110
0.0
120
0.0
130
0.0
111
1.0
121
0.0
131
0.0
112
0.0
122
1.0
132
0.0
345
0
346
0
 79
     0
146
0.0
  0
ENDTAB
  0
TABLE
  2
LTYPE
  5
4
100
AcDbSymbolTable
 70
     3
  0
LTYPE
  5
11
100
AcDbSymbolTableRecord
100
AcDbLinetypeTableRecord
  2
ByBlock
 70
    64
  3

 72
    65
 73
     0
 40
0.0
  0
LTYPE
  5
12
100
AcDbSymbolTableRecord
100
AcDbLinetypeTableRecord
  2
ByLayer
 70
    64
  3

 72
    65
 73
     0
 40
0.0
  0
LTYPE
  5
13
100
AcDbSymbolTableRecord
100
AcDbLinetypeTableRecord
  2
Continuous
 70
    64
  3
Solid line
 72
    65
 73
     0
 40
0.0
  0
ENDTAB
  0
TABLE
  2
LAYER
  5
2
100
AcDbSymbolTable
 70
     2
  0
LAYER
  5
14
100
AcDbSymbolTableRecord
100
AcDbLayerTableRecord
  2
0
 70
     0
 62
     7
  6
Continuous
290
     1
370
    -3
390
1D
  0
LAYER
  5
24
100
AcDbSymbolTableRecord
100
AcDbLayerTableRecord
  2
���� 1
 70
     0
 62
     7
  6
Continuous
290
     1
370
    -3
390
1F
  0
ENDTAB
  0
TABLE
  2
STYLE
  5
3
100
AcDbSymbolTable
 70
     1
  0
STYLE
  5
17
100
AcDbSymbolTableRecord
100
AcDbTextStyleTableRecord
  2
Standard
 70
     0
 40
0.0
 41
1.0
 50
0.0
 71
     0
 42
0.0
  3
txt
  4

  0
ENDTAB
  0
TABLE
  2
VIEW
  5
5
100
AcDbSymbolTable
 70
     0
  0
ENDTAB
  0
TABLE
  2
UCS
  5
6
100
AcDbSymbolTable
 70
     0
  0
ENDTAB
  0
TABLE
  2
APPID
  5
8
100
AcDbSymbolTable
 70
     1
  0
APPID
  5
16
100
AcDbSymbolTableRecord
100
AcDbRegAppTableRecord
  2
ACAD
 70
     0
  0
ENDTAB
  0
TABLE
  2
DIMSTYLE
  5
9
100
AcDbSymbolTable
 70
     1
100
AcDbDimStyleTable
 71
     0
  0
DIMSTYLE
105
18
100
AcDbSymbolTableRecord
100
AcDbDimStyleTableRecord
  2
Standard
 70
     0
  3

  4

 40
1.0
 41
0.18
 42
0.0625
 43
0.38
 44
0.18
 45
0.0
 46
0.0
 47
0.0
 48
0.0
 71
     0
 72
     0
 73
     1
 74
     1
 75
     0
 76
     0
 77
     0
 78
     0
 79
     0
140
0.18
141
0.09
142
0.0
143
25.4
144
1.0
145
0.0
146
1.0
147
0.09
148
0.0
170
     0
171
     2
172
     0
173
     0
174
     0
175
     0
176
     0
177
     0
178
     0
179
     0
271
     4
272
     4
273
     2
274
     2
275
     0
276
     0
277
     2
278
    46
279
     0
280
     0
281
     0
282
     0
283
     1
284
     0
285
     0
286
     0
288
     0
340
17
341
0
342
0
343
0
344
0
371
    -2
372
    -2
  0
ENDTAB
  0
TABLE
  2
BLOCK_RECORD
  5
1
100
AcDbSymbolTable
 70
     0
  0
BLOCK_RECORD
  5
A
100
AcDbSymbolTableRecord
100
AcDbBlockTableRecord
  2
*MODEL_SPACE
340
20
  0
BLOCK_RECORD
  5
B
100
AcDbSymbolTableRecord
100
AcDbBlockTableRecord
  2
*PAPER_SPACE
340
21
  0
ENDTAB
  0
ENDSEC
  0
SECTION
  2
BLOCKS
  0
BLOCK
  5
D
100
AcDbEntity
  8
0
100
AcDbBlockBegin
  2
*MODEL_SPACE
 70
     0
 10
0.0
 20
0.0
 30
0.0
  3
*MODEL_SPACE
  1

  0
ENDBLK
  5
E
100
AcDbEntity
  8
0
100
AcDbBlockEnd
  0
BLOCK
  5
F
100
AcDbEntity
 67
     1
  8
0
100
AcDbBlockBegin
  2
*PAPER_SPACE
 70
     0
 10
0.0
 20
0.0
 30
0.0
  3
*PAPER_SPACE
  1

  0
ENDBLK
  5
10
100
AcDbEntity
 67
     1
  8
0
100
AcDbBlockEnd
  0
ENDSEC
  0
SECTION
  2
ENTITIES
  0
SPLINE
  5
25
100
AcDbEntity
  8
���� 1
100
AcDbSpline
210
0.0
220
0.0
230
1.0
 70
     1
 71
     3
 72
   176
 73
   172
 74
     0
 42
0.0000000001
 43
0.0000000001
 40
0.0
 40
0.0
 40
0.0
 40
0.0
 40
0.0232558139534884
 40
0.0232558139534884
 40
0.0232558139534884
 40
0.0232558139534884
 40
0.0465116279069767
 40
0.0465116279069767
 40
0.0465116279069767
 40
0.0465116279069767
 40
0.0697674418604651
 40
0.0697674418604651
 40
0.0697674418604651
 40
0.0697674418604651
 40
0.0930232558139535
 40
0.0930232558139535
 40
0.0930232558139535
 40
0.0930232558139535
 40
0.1162790697674419
 40
0.1162790697674419
 40
0.1162790697674419
 40
0.1162790697674419
 40
0.1395348837209302
 40
0.1395348837209302
 40
0.1395348837209302
 40
0.1395348837209302
 40
0.1627906976744186
 40
0.1627906976744186
 40
0.1627906976744186
 40
0.1627906976744186
 40
0.186046511627907
 40
0.186046511627907
 40
0.186046511627907
 40
0.186046511627907
 40
0.2093023255813953
 40
0.2093023255813953
 40
0.2093023255813953
 40
0.2093023255813953
 40
0.2325581395348837
 40
0.2325581395348837
 40
0.2325581395348837
 40
0.2325581395348837
 40
0.2558139534883721
 40
0.2558139534883721
 40
0.2558139534883721
 40
0.2558139534883721
 40
0.2790697674418604
 40
0.2790697674418604
 40
0.2790697674418604
 40
0.2790697674418604
 40
0.3023255813953488
 40
0.3023255813953488
 40
0.3023255813953488
 40
0.3023255813953488
 40
0.3255813953488371
 40
0.3255813953488371
 40
0.3255813953488371
 40
0.3255813953488371
 40
0.3488372093023255
 40
0.3488372093023255
 40
0.3488372093023255
 40
0.3488372093023255
 40
0.3720930232558138
 40
0.3720930232558138
 40
0.3720930232558138
 40
0.3720930232558138
 40
0.3953488372093022
 40
0.3953488372093022
 40
0.3953488372093022
 40
0.3953488372093022
 40
0.4186046511627906
 40
0.4186046511627906
 40
0.4186046511627906
 40
0.4186046511627906
 40
0.4418604651162789
 40
0.4418604651162789
 40
0.4418604651162789
 40
0.4418604651162789
 40
0.4651162790697673
 40
0.4651162790697673
 40
0.4651162790697673
 40
0.4651162790697673
 40
0.4883720930232556
 40
0.4883720930232556
 40
0.4883720930232556
 40
0.4883720930232556
 40
0.511627906976744
 40
0.511627906976744
 40
0.511627906976744
 40
0.511627906976744
 40
0.5348837209302324
 40
0.5348837209302324
 40
0.5348837209302324
 40
0.5348837209302324
 40
0.5581395348837208
 40
0.5581395348837208
 40
0.5581395348837208
 40
0.5581395348837208
 40
0.5813953488372092
 40
0.5813953488372092
 40
0.5813953488372092
 40
0.5813953488372092
 40
0.6046511627906976
 40
0.6046511627906976
 40
0.6046511627906976
 40
0.6046511627906976
 40
0.6279069767441861
 40
0.6279069767441861
 40
0.6279069767441861
 40
0.6279069767441861
 40
0.6511627906976745
 40
0.6511627906976745
 40
0.6511627906976745
 40
0.6511627906976745
 40
0.6744186046511629
 40
0.6744186046511629
 40
0.6744186046511629
 40
0.6744186046511629
 40
0.6976744186046513
 40
0.6976744186046513
 40
0.6976744186046513
 40
0.6976744186046513
 40
0.7209302325581397
 40
0.7209302325581397
 40
0.7209302325581397
 40
0.7209302325581397
 40
0.7441860465116281
 40
0.7441860465116281
 40
0.7441860465116281
 40
0.7441860465116281
 40
0.7674418604651165
 40
0.7674418604651165
 40
0.7674418604651165
 40
0.7674418604651165
 40
0.790697674418605
 40
0.790697674418605
 40
0.790697674418605
 40
0.790697674418605
 40
0.8139534883720934
 40
0.8139534883720934
 40
0.8139534883720934
 40
0.8139534883720934
 40
0.8372093023255818
 40
0.8372093023255818
 40
0.8372093023255818
 40
0.8372093023255818
 40
0.8604651162790702
 40
0.8604651162790702
 40
0.8604651162790702
 40
0.8604651162790702
 40
0.8837209302325586
 40
0.8837209302325586
 40
0.8837209302325586
 40
0.8837209302325586
 40
0.906976744186047
 40
0.906976744186047
 40
0.906976744186047
 40
0.906976744186047
 40
0.9302325581395354
 40
0.9302325581395354
 40
0.9302325581395354
 40
0.9302325581395354
 40
0.9534883720930238
 40
0.9534883720930238
 40
0.9534883720930238
 40
0.9534883720930238
 40
0.9767441860465123
 40
0.9767441860465123
 40
0.9767441860465123
 40
0.9767441860465123
 40
1.0
 40
1.0
 40
1.0
 40
1.0
 10
0.36082
 20
5.6356900000000003
 30
0.0
 10
0.6681600000000001
 20
5.6356900000000003
 30
0.0
 10
0.9805800000000001
 20
5.5950500000000005
 30
0.0
 10
1.2168000000000001
 20
5.4045500000000004
 30
0.0
 10
1.2168000000000001
 20
5.4045500000000004
 30
0.0
 10
1.7984600000000002
 20
4.5993700000000004
 30
0.0
 10
1.9940400000000003
 20
3.5884500000000004
 30
0.0
 10
2.7890600000000001
 20
2.9483700000000002
 30
0.0
 10
2.7890600000000001
 20
2.9483700000000002
 30
0.0
 10
2.9363800000000002
 20
3.0855300000000003
 30
0.0
 10
2.7535000000000003
 20
3.5071700000000003
 30
0.0
 10
3.0176600000000002
 20
3.5198700000000005
 30
0.0
 10
3.0176600000000002
 20
3.5198700000000005
 30
0.0
 10
3.0862400000000001
 20
3.0575900000000003
 30
0.0
 10
3.3554800000000005
 20
2.5114900000000002
 30
0.0
 10
2.8576400000000004
 20
2.2244700000000002
 30
0.0
 10
2.8576400000000004
 20
2.2244700000000002
 30
0.0
 10
2.9414600000000002
 20
2.1990700000000003
 30
0.0
 10
3.0659200000000002
 20
2.1990700000000003
 30
0.0
 10
3.1294200000000001
 20
2.1177900000000003
 30
0.0
 10
3.1294200000000001
 20
2.1177900000000003
 30
0.0
 10
2.4537800000000001
 20
1.3532500000000001
 30
0.0
 10
2.8500200000000002
 20
0.20771
 30
0.0
 10
2.2886800000000003
 20
-0.56698
 30
0.0
 10
2.2886800000000003
 20
-0.56698
 30
0.0
 10
2.8043
 20
-0.9632200000000001
 30
0.0
 10
3.5155000000000003
 20
-0.8133600000000001
 30
0.0
 10
4.1098600000000003
 20
-0.7981200000000001
 30
0.0
 10
4.1098600000000003
 20
-0.7981200000000001
 30
0.0
 10
4.7245400000000002
 20
-1.3442200000000002
 30
0.0
 10
5.47384
 20
-1.71252
 30
0.0
 10
5.8573800000000009
 20
-2.4491200000000002
 30
0.0
 10
5.8573800000000009
 20
-2.4491200000000002
 30
0.0
 10
5.7761000000000005
 20
-2.6396200000000003
 30
0.0
 10
5.6922800000000002
 20
-2.5177
 30
0.0
 10
5.6110000000000007
 20
-2.4084800000000004
 30
0.0
 10
5.6110000000000007
 20
-2.4084800000000004
 30
0.0
 10
5.5297200000000002
 20
-2.4059400000000002
 30
0.0
 10
5.6186200000000008
 20
-2.5075400000000001
 30
0.0
 10
5.6186200000000008
 20
-2.5431000000000004
 30
0.0
 10
5.6186200000000008
 20
-2.5431000000000004
 30
0.0
 10
5.6084600000000009
 20
-2.7971000000000004
 30
0.0
 10
5.0776000000000003
 20
-2.6370800000000001
 30
0.0
 10
4.8744000000000005
 20
-2.6142200000000004
 30
0.0
 10
4.8744000000000005
 20
-2.6142200000000004
 30
0.0
 10
4.6280200000000002
 20
-2.1494
 30
0.0
 10
4.24702
 20
-1.5779000000000001
 30
0.0
 10
3.6069400000000003
 20
-1.5499600000000002
 30
0.0
 10
3.6069400000000003
 20
-1.5499600000000002
 30
0.0
 10
3.2996000000000003
 20
-1.7811000000000001
 30
0.0
 10
3.0252800000000004
 20
-2.0554200000000002
 30
0.0
 10
2.6239600000000003
 20
-1.8496800000000002
 30
0.0
 10
2.6239600000000003
 20
-1.8496800000000002
 30
0.0
 10
2.5909400000000002
 20
-1.9182600000000001
 30
0.0
 10
2.7408000000000001
 20
-1.9589000000000001
 30
0.0
 10
2.7306400000000002
 20
-2.0401800000000003
 30
0.0
 10
2.7306400000000002
 20
-2.0401800000000003
 30
0.0
 10
2.2505800000000002
 20
-1.9030200000000002
 30
0.0
 10
1.8949800000000001
 20
-2.3399000000000001
 30
0.0
 10
1.4149200000000002
 20
-1.9868400000000002
 30
0.0
 10
1.4149200000000002
 20
-1.9868400000000002
 30
0.0
 10
1.1914
 20
-2.6396200000000003
 30
0.0
 10
1.7324200000000001
 20
-3.8943800000000004
 30
0.0
 10
1.0009000000000001
 20
-3.9909000000000003
 30
0.0
 10
1.0009000000000001
 20
-3.9909000000000003
 30
0.0
 10
0.785
 20
-3.9629600000000003
 30
0.0
 10
0.6046600000000001
 20
-3.8131000000000004
 30
0.0
 10
0.4827400000000001
 20
-3.6505400000000003
 30
0.0
 10
0.4827400000000001
 20
-3.6505400000000003
 30
0.0
 10
0.29478
 20
-3.0358600000000004
 30
0.0
 10
0.6834
 20
-2.4770600000000003
 30
0.0
 10
0.4522600000000001
 20
-1.9182600000000001
 30
0.0
 10
0.4522600000000001
 20
-1.9182600000000001
 30
0.0
 10
0.11698
 20
-2.1621000000000001
 30
0.0
 10
-0.4926100000000001
 20
-2.1621000000000001
 30
0.0
 10
-1.11999
 20
-1.9030200000000002
 30
0.0
 10
-1.11999
 20
-1.9030200000000002
 30
0.0
 10
-1.1606300000000001
 20
-2.4770600000000003
 30
0.0
 10
-1.6152900000000001
 20
-2.77678
 30
0.0
 10
-2.0191500000000002
 20
-3.0765000000000002
 30
0.0
 10
-2.0191500000000002
 20
-3.0765000000000002
 30
0.0
 10
-2.2020300000000002
 20
-3.6632400000000005
 30
0.0
 10
-2.3696700000000002
 20
-4.1077400000000006
 30
0.0
 10
-2.2782300000000002
 20
-4.7503600000000006
 30
0.0
 10
-2.2782300000000002
 20
-4.7503600000000006
 30
0.0
 10
-2.3341100000000004
 20
-4.8976800000000003
 30
0.0
 10
-2.6084300000000002
 20
-5.2278800000000007
 30
0.0
 10
-2.7303500000000001
 20
-5.3498000000000001
 30
0.0
 10
-2.7303500000000001
 20
-5.3498000000000001
 30
0.0
 10
-3.0300700000000003
 20
-5.3294800000000002
 30
0.0
 10
-3.2078700000000002
 20
-4.9510200000000006
 30
0.0
 10
-3.2154900000000004
 20
-4.7097200000000008
 30
0.0
 10
-3.2154900000000004
 20
-4.7097200000000008
 30
0.0
 10
-3.2231100000000001
 20
-4.5116000000000005
 30
0.0
 10
-3.0935700000000002
 20
-4.4760400000000002
 30
0.0
 10
-2.9919700000000002
 20
-4.2271200000000002
 30
0.0
 10
-2.9919700000000002
 20
-4.2271200000000002
 30
0.0
 10
-2.8243300000000002
 20
-3.8131000000000004
 30
0.0
 10
-2.8065500000000001
 20
-3.1958800000000003
 30
0.0
 10
-2.9386300000000003
 20
-2.8174200000000003
 30
0.0
 10
-2.9386300000000003
 20
-2.8174200000000003
 30
0.0
 10
-2.4280900000000001
 20
-2.4923000000000002
 30
0.0
 10
-2.4839700000000002
 20
-1.9182600000000001
 30
0.0
 10
-3.0224500000000001
 20
-1.5906000000000002
 30
0.0
 10
-3.0224500000000001
 20
-1.5906000000000002
 30
0.0
 10
-3.2815300000000001
 20
-2.3678400000000002
 30
0.0
 10
-3.8809700000000005
 20
-2.8453600000000003
 30
0.0
 10
-4.4194500000000003
 20
-3.3508200000000001
 30
0.0
 10
-4.4194500000000003
 20
-3.3508200000000001
 30
0.0
 10
-4.7039300000000006
 20
-4.1001200000000004
 30
0.0
 10
-4.4372300000000005
 20
-5.0678600000000005
 30
0.0
 10
-5.1204900000000002
 20
-5.6266600000000002
 30
0.0
 10
-5.1204900000000002
 20
-5.6266600000000002
 30
0.0
 10
-5.19923
 20
-5.6139600000000005
 30
0.0
 10
-5.1179500000000004
 20
-5.4768000000000008
 30
0.0
 10
-5.1966900000000003
 20
-5.4920400000000003
 30
0.0
 10
-5.1966900000000003
 20
-5.4920400000000003
 30
0.0
 10
-5.2220900000000006
 20
-5.5606200000000001
 30
0.0
 10
-5.2728900000000003
 20
-5.6419000000000006
 30
0.0
 10
-5.3617900000000001
 20
-5.6419000000000006
 30
0.0
 10
-5.3617900000000001
 20
-5.6419000000000006
 30
0.0
 10
-5.5649900000000008
 20
-5.5174400000000006
 30
0.0
 10
-5.6767500000000002
 20
-5.2736000000000001
 30
0.0
 10
-5.6665900000000002
 20
-5.0424600000000002
 30
0.0
 10
-5.6665900000000002
 20
-5.0424600000000002
 30
0.0
 10
-5.6538900000000005
 20
-4.9053000000000004
 30
0.0
 10
-5.6234100000000007
 20
-4.7681400000000007
 30
0.0
 10
-5.5649900000000008
 20
-4.6309800000000001
 30
0.0
 10
-5.5649900000000008
 20
-4.6309800000000001
 30
0.0
 10
-4.8131500000000003
 20
-4.1534599999999999
 30
0.0
 10
-5.5878500000000004
 20
-2.77678
 30
0.0
 10
-4.7826700000000004
 20
-2.4770600000000003
 30
0.0
 10
-4.7826700000000004
 20
-2.4770600000000003
 30
0.0
 10
-4.7826700000000004
 20
-2.4770600000000003
 30
0.0
 10
-4.7115500000000008
 20
-2.1367000000000003
 30
0.0
 10
-4.7115500000000008
 20
-2.1367000000000003
 30
0.0
 10
-4.7115500000000008
 20
-2.1367000000000003
 30
0.0
 10
-5.1382700000000003
 20
-1.1410200000000001
 30
0.0
 10
-5.0595300000000005
 20
0.12643
 30
0.0
 10
-4.7267900000000003
 20
1.14751
 30
0.0
 10
-4.7267900000000003
 20
1.14751
 30
0.0
 10
-5.2170100000000001
 20
0.95701
 30
0.0
 10
-5.9383700000000008
 20
1.2567300000000001
 30
0.0
 10
-5.8418500000000009
 20
1.8714100000000002
 30
0.0
 10
-5.8418500000000009
 20
1.8714100000000002
 30
0.0
 10
-5.7173900000000009
 20
2.6486500000000004
 30
0.0
 10
-4.9045900000000007
 20
2.9763100000000002
 30
0.0
 10
-4.3864300000000007
 20
3.4385900000000005
 30
0.0
 10
-4.3864300000000007
 20
3.4385900000000005
 30
0.0
 10
-4.5032700000000006
 20
4.0405700000000007
 30
0.0
 10
-4.3229300000000004
 20
4.6120700000000001
 30
0.0
 10
-3.9571700000000005
 20
5.0768900000000006
 30
0.0
 10
-3.9571700000000005
 20
5.0768900000000006
 30
0.0
 10
-3.8606500000000001
 20
4.8711500000000001
 30
0.0
 10
-4.1222700000000003
 20
4.5155500000000002
 30
0.0
 10
-3.9419300000000002
 20
4.2844100000000003
 30
0.0
 10
-3.9419300000000002
 20
4.2844100000000003
 30
0.0
 10
-3.2053300000000005
 20
3.0804500000000004
 30
0.0
 10
-5.1763700000000004
 20
3.3903300000000001
 30
0.0
 10
-5.4456100000000003
 20
1.9298300000000002
 30
0.0
 10
-5.4456100000000003
 20
1.9298300000000002
 30
0.0
 10
-5.4633900000000004
 20
1.8358500000000002
 30
0.0
 10
-5.4252900000000004
 20
1.4954900000000002
 30
0.0
 10
-5.2246300000000003
 20
1.5437500000000002
 30
0.0
 10
-5.2246300000000003
 20
1.5437500000000002
 30
0.0
 10
-4.6582100000000004
 20
1.5437500000000002
 30
0.0
 10
-4.3584900000000006
 20
2.1177900000000003
 30
0.0
 10
-3.9698700000000002
 20
2.4581500000000003
 30
0.0
 10
-3.9698700000000002
 20
2.4581500000000003
 30
0.0
 10
-2.2528300000000003
 20
3.1261700000000001
 30
0.0
 10
-1.4298700000000002
 20
5.2140500000000003
 30
0.0
 10
0.36082
 20
5.6356900000000003
 30
0.0
  0
SPLINE
  5
26
100
AcDbEntity
  8
���� 1
 62
     7
100
AcDbSpline
210
0.0
220
0.0
230
1.0
 70
     1
 71
     3
 72
   492
 73
   488
 74
     0
 42
0.0000000001
 43
0.0000000001
 40
0.0
 40
0.0
 40
0.0
 40
0.0
 40
0.0081967213114754
 40
0.0081967213114754
 40
0.0081967213114754
 40
0.0081967213114754
 40
0.0163934426229508
 40
0.0163934426229508
 40
0.0163934426229508
 40
0.0163934426229508
 40
0.0245901639344262
 40
0.0245901639344262
 40
0.0245901639344262
 40
0.0245901639344262
 40
0.0327868852459016
 40
0.0327868852459016
 40
0.0327868852459016
 40
0.0327868852459016
 40
0.0409836065573771
 40
0.0409836065573771
 40
0.0409836065573771
 40
0.0409836065573771
 40
0.0491803278688525
 40
0.0491803278688525
 40
0.0491803278688525
 40
0.0491803278688525
 40
0.0573770491803279
 40
0.0573770491803279
 40
0.0573770491803279
 40
0.0573770491803279
 40
0.0655737704918033
 40
0.0655737704918033
 40
0.0655737704918033
 40
0.0655737704918033
 40
0.0737704918032787
 40
0.0737704918032787
 40
0.0737704918032787
 40
0.0737704918032787
 40
0.0819672131147541
 40
0.0819672131147541
 40
0.0819672131147541
 40
0.0819672131147541
 40
0.0901639344262295
 40
0.0901639344262295
 40
0.0901639344262295
 40
0.0901639344262295
 40
0.0983606557377049
 40
0.0983606557377049
 40
0.0983606557377049
 40
0.0983606557377049
 40
0.1065573770491803
 40
0.1065573770491803
 40
0.1065573770491803
 40
0.1065573770491803
 40
0.1147540983606557
 40
0.1147540983606557
 40
0.1147540983606557
 40
0.1147540983606557
 40
0.1229508196721311
 40
0.1229508196721311
 40
0.1229508196721311
 40
0.1229508196721311
 40
0.1311475409836065
 40
0.1311475409836065
 40
0.1311475409836065
 40
0.1311475409836065
 40
0.139344262295082
 40
0.139344262295082
 40
0.139344262295082
 40
0.139344262295082
 40
0.1475409836065574
 40
0.1475409836065574
 40
0.1475409836065574
 40
0.1475409836065574
 40
0.1557377049180328
 40
0.1557377049180328
 40
0.1557377049180328
 40
0.1557377049180328
 40
0.1639344262295082
 40
0.1639344262295082
 40
0.1639344262295082
 40
0.1639344262295082
 40
0.1721311475409836
 40
0.1721311475409836
 40
0.1721311475409836
 40
0.1721311475409836
 40
0.1803278688524591
 40
0.1803278688524591
 40
0.1803278688524591
 40
0.1803278688524591
 40
0.1885245901639345
 40
0.1885245901639345
 40
0.1885245901639345
 40
0.1885245901639345
 40
0.1967213114754099
 40
0.1967213114754099
 40
0.1967213114754099
 40
0.1967213114754099
 40
0.2049180327868853
 40
0.2049180327868853
 40
0.2049180327868853
 40
0.2049180327868853
 40
0.2131147540983607
 40
0.2131147540983607
 40
0.2131147540983607
 40
0.2131147540983607
 40
0.2213114754098361
 40
0.2213114754098361
 40
0.2213114754098361
 40
0.2213114754098361
 40
0.2295081967213116
 40
0.2295081967213116
 40
0.2295081967213116
 40
0.2295081967213116
 40
0.237704918032787
 40
0.237704918032787
 40
0.237704918032787
 40
0.237704918032787
 40
0.2459016393442624
 40
0.2459016393442624
 40
0.2459016393442624
 40
0.2459016393442624
 40
0.2540983606557378
 40
0.2540983606557378
 40
0.2540983606557378
 40
0.2540983606557378
 40
0.2622950819672132
 40
0.2622950819672132
 40
0.2622950819672132
 40
0.2622950819672132
 40
0.2704918032786887
 40
0.2704918032786887
 40
0.2704918032786887
 40
0.2704918032786887
 40
0.2786885245901641
 40
0.2786885245901641
 40
0.2786885245901641
 40
0.2786885245901641
 40
0.2868852459016395
 40
0.2868852459016395
 40
0.2868852459016395
 40
0.2868852459016395
 40
0.2950819672131149
 40
0.2950819672131149
 40
0.2950819672131149
 40
0.2950819672131149
 40
0.3032786885245903
 40
0.3032786885245903
 40
0.3032786885245903
 40
0.3032786885245903
 40
0.3114754098360658
 40
0.3114754098360658
 40
0.3114754098360658
 40
0.3114754098360658
 40
0.3196721311475412
 40
0.3196721311475412
 40
0.3196721311475412
 40
0.3196721311475412
 40
0.3278688524590166
 40
0.3278688524590166
 40
0.3278688524590166
 40
0.3278688524590166
 40
0.336065573770492
 40
0.336065573770492
 40
0.336065573770492
 40
0.336065573770492
 40
0.3442622950819674
 40
0.3442622950819674
 40
0.3442622950819674
 40
0.3442622950819674
 40
0.3524590163934429
 40
0.3524590163934429
 40
0.3524590163934429
 40
0.3524590163934429
 40
0.3606557377049183
 40
0.3606557377049183
 40
0.3606557377049183
 40
0.3606557377049183
 40
0.3688524590163937
 40
0.3688524590163937
 40
0.3688524590163937
 40
0.3688524590163937
 40
0.3770491803278691
 40
0.3770491803278691
 40
0.3770491803278691
 40
0.3770491803278691
 40
0.3852459016393445
 40
0.3852459016393445
 40
0.3852459016393445
 40
0.3852459016393445
 40
0.3934426229508199
 40
0.3934426229508199
 40
0.3934426229508199
 40
0.3934426229508199
 40
0.4016393442622954
 40
0.4016393442622954
 40
0.4016393442622954
 40
0.4016393442622954
 40
0.4098360655737708
 40
0.4098360655737708
 40
0.4098360655737708
 40
0.4098360655737708
 40
0.4180327868852462
 40
0.4180327868852462
 40
0.4180327868852462
 40
0.4180327868852462
 40
0.4262295081967216
 40
0.4262295081967216
 40
0.4262295081967216
 40
0.4262295081967216
 40
0.434426229508197
 40
0.434426229508197
 40
0.434426229508197
 40
0.434426229508197
 40
0.4426229508196725
 40
0.4426229508196725
 40
0.4426229508196725
 40
0.4426229508196725
 40
0.4508196721311479
 40
0.4508196721311479
 40
0.4508196721311479
 40
0.4508196721311479
 40
0.4590163934426233
 40
0.4590163934426233
 40
0.4590163934426233
 40
0.4590163934426233
 40
0.4672131147540987
 40
0.4672131147540987
 40
0.4672131147540987
 40
0.4672131147540987
 40
0.4754098360655741
 40
0.4754098360655741
 40
0.4754098360655741
 40
0.4754098360655741
 40
0.4836065573770496
 40
0.4836065573770496
 40
0.4836065573770496
 40
0.4836065573770496
 40
0.491803278688525
 40
0.491803278688525
 40
0.491803278688525
 40
0.491803278688525
 40
0.5000000000000003
 40
0.5000000000000003
 40
0.5000000000000003
 40
0.5000000000000003
 40
0.5081967213114758
 40
0.5081967213114758
 40
0.5081967213114758
 40
0.5081967213114758
 40
0.5163934426229512
 40
0.5163934426229512
 40
0.5163934426229512
 40
0.5163934426229512
 40
0.5245901639344266
 40
0.5245901639344266
 40
0.5245901639344266
 40
0.5245901639344266
 40
0.532786885245902
 40
0.532786885245902
 40
0.532786885245902
 40
0.532786885245902
 40
0.5409836065573774
 40
0.5409836065573774
 40
0.5409836065573774
 40
0.5409836065573774
 40
0.5491803278688529
 40
0.5491803278688529
 40
0.5491803278688529
 40
0.5491803278688529
 40
0.5573770491803283
 40
0.5573770491803283
 40
0.5573770491803283
 40
0.5573770491803283
 40
0.5655737704918037
 40
0.5655737704918037
 40
0.5655737704918037
 40
0.5655737704918037
 40
0.5737704918032791
 40
0.5737704918032791
 40
0.5737704918032791
 40
0.5737704918032791
 40
0.5819672131147545
 40
0.5819672131147545
 40
0.5819672131147545
 40
0.5819672131147545
 40
0.5901639344262299
 40
0.5901639344262299
 40
0.5901639344262299
 40
0.5901639344262299
 40
0.5983606557377054
 40
0.5983606557377054
 40
0.5983606557377054
 40
0.5983606557377054
 40
0.6065573770491808
 40
0.6065573770491808
 40
0.6065573770491808
 40
0.6065573770491808
 40
0.6147540983606562
 40
0.6147540983606562
 40
0.6147540983606562
 40
0.6147540983606562
 40
0.6229508196721316
 40
0.6229508196721316
 40
0.6229508196721316
 40
0.6229508196721316
 40
0.631147540983607
 40
0.631147540983607
 40
0.631147540983607
 40
0.631147540983607
 40
0.6393442622950825
 40
0.6393442622950825
 40
0.6393442622950825
 40
0.6393442622950825
 40
0.6475409836065579
 40
0.6475409836065579
 40
0.6475409836065579
 40
0.6475409836065579
 40
0.6557377049180333
 40
0.6557377049180333
 40
0.6557377049180333
 40
0.6557377049180333
 40
0.6639344262295087
 40
0.6639344262295087
 40
0.6639344262295087
 40
0.6639344262295087
 40
0.6721311475409841
 40
0.6721311475409841
 40
0.6721311475409841
 40
0.6721311475409841
 40
0.6803278688524596
 40
0.6803278688524596
 40
0.6803278688524596
 40
0.6803278688524596
 40
0.688524590163935
 40
0.688524590163935
 40
0.688524590163935
 40
0.688524590163935
 40
0.6967213114754104
 40
0.6967213114754104
 40
0.6967213114754104
 40
0.6967213114754104
 40
0.7049180327868858
 40
0.7049180327868858
 40
0.7049180327868858
 40
0.7049180327868858
 40
0.7131147540983612
 40
0.7131147540983612
 40
0.7131147540983612
 40
0.7131147540983612
 40
0.7213114754098366
 40
0.7213114754098366
 40
0.7213114754098366
 40
0.7213114754098366
 40
0.7295081967213121
 40
0.7295081967213121
 40
0.7295081967213121
 40
0.7295081967213121
 40
0.7377049180327875
 40
0.7377049180327875
 40
0.7377049180327875
 40
0.7377049180327875
 40
0.7459016393442629
 40
0.7459016393442629
 40
0.7459016393442629
 40
0.7459016393442629
 40
0.7540983606557383
 40
0.7540983606557383
 40
0.7540983606557383
 40
0.7540983606557383
 40
0.7622950819672137
 40
0.7622950819672137
 40
0.7622950819672137
 40
0.7622950819672137
 40
0.7704918032786892
 40
0.7704918032786892
 40
0.7704918032786892
 40
0.7704918032786892
 40
0.7786885245901646
 40
0.7786885245901646
 40
0.7786885245901646
 40
0.7786885245901646
 40
0.78688524590164
 40
0.78688524590164
 40
0.78688524590164
 40
0.78688524590164
 40
0.7950819672131154
 40
0.7950819672131154
 40
0.7950819672131154
 40
0.7950819672131154
 40
0.8032786885245908
 40
0.8032786885245908
 40
0.8032786885245908
 40
0.8032786885245908
 40
0.8114754098360663
 40
0.8114754098360663
 40
0.8114754098360663
 40
0.8114754098360663
 40
0.8196721311475417
 40
0.8196721311475417
 40
0.8196721311475417
 40
0.8196721311475417
 40
0.8278688524590171
 40
0.8278688524590171
 40
0.8278688524590171
 40
0.8278688524590171
 40
0.8360655737704925
 40
0.8360655737704925
 40
0.8360655737704925
 40
0.8360655737704925
 40
0.8442622950819679
 40
0.8442622950819679
 40
0.8442622950819679
 40
0.8442622950819679
 40
0.8524590163934434
 40
0.8524590163934434
 40
0.8524590163934434
 40
0.8524590163934434
 40
0.8606557377049188
 40
0.8606557377049188
 40
0.8606557377049188
 40
0.8606557377049188
 40
0.8688524590163942
 40
0.8688524590163942
 40
0.8688524590163942
 40
0.8688524590163942
 40
0.8770491803278696
 40
0.8770491803278696
 40
0.8770491803278696
 40
0.8770491803278696
 40
0.885245901639345
 40
0.885245901639345
 40
0.885245901639345
 40
0.885245901639345
 40
0.8934426229508204
 40
0.8934426229508204
 40
0.8934426229508204
 40
0.8934426229508204
 40
0.9016393442622959
 40
0.9016393442622959
 40
0.9016393442622959
 40
0.9016393442622959
 40
0.9098360655737713
 40
0.9098360655737713
 40
0.9098360655737713
 40
0.9098360655737713
 40
0.9180327868852467
 40
0.9180327868852467
 40
0.9180327868852467
 40
0.9180327868852467
 40
0.9262295081967221
 40
0.9262295081967221
 40
0.9262295081967221
 40
0.9262295081967221
 40
0.9344262295081975
 40
0.9344262295081975
 40
0.9344262295081975
 40
0.9344262295081975
 40
0.942622950819673
 40
0.942622950819673
 40
0.942622950819673
 40
0.942622950819673
 40
0.9508196721311484
 40
0.9508196721311484
 40
0.9508196721311484
 40
0.9508196721311484
 40
0.9590163934426238
 40
0.9590163934426238
 40
0.9590163934426238
 40
0.9590163934426238
 40
0.9672131147540992
 40
0.9672131147540992
 40
0.9672131147540992
 40
0.9672131147540992
 40
0.9754098360655746
 40
0.9754098360655746
 40
0.9754098360655746
 40
0.9754098360655746
 40
0.9836065573770501
 40
0.9836065573770501
 40
0.9836065573770501
 40
0.9836065573770501
 40
0.9918032786885255
 40
0.9918032786885255
 40
0.9918032786885255
 40
0.9918032786885255
 40
1.0
 40
1.0
 40
1.0
 40
1.0
 10
1.0974200000000001
 20
-0.4857
 30
0.0
 10
1.2498200000000002
 20
-0.42982
 30
0.0
 10
0.91454
 20
-0.07676
 30
0.0
 10
0.9297800000000001
 20
0.12643
 30
0.0
 10
0.9297800000000001
 20
0.12643
 30
0.0
 10
0.8434200000000001
 20
-0.02342
 30
0.0
 10
0.9475600000000001
 20
-0.34854
 30
0.0
 10
0.9704200000000001
 20
-0.56698
 30
0.0
 10
0.9704200000000001
 20
-0.56698
 30
0.0
 10
0.7392800000000001
 20
-0.39172
 30
0.0
 10
0.7215
 20
-0.06152
 30
0.0
 10
0.7138800000000001
 20
0.19247
 30
0.0
 10
0.7138800000000001
 20
0.19247
 30
0.0
 10
0.7062600000000001
 20
0.23311
 30
0.0
 10
0.74182
 20
0.3169300000000001
 30
0.0
 10
0.67832
 20
0.30423
 30
0.0
 10
0.67832
 20
0.30423
 30
0.0
 10
0.6326000000000001
 20
0.24835
 30
0.0
 10
0.6224400000000001
 20
0.16707
 30
0.0
 10
0.6199
 20
0.08325
 30
0.0
 10
0.6199
 20
0.08325
 30
0.0
 10
0.658
 20
-0.76002
 30
0.0
 10
0.38368
 20
1.2440300000000002
 30
0.0
 10
0.6503800000000001
 20
0.5201300000000001
 30
0.0
 10
0.6503800000000001
 20
0.5201300000000001
 30
0.0
 10
0.7545200000000001
 20
0.23311
 30
0.0
 10
0.785
 20
0.39821
 30
0.0
 10
0.6910200000000001
 20
0.60141
 30
0.0
 10
0.6910200000000001
 20
0.60141
 30
0.0
 10
0.6910200000000001
 20
0.60141
 30
0.0
 10
0.6732400000000001
 20
0.76651
 30
0.0
 10
0.6732400000000001
 20
0.76651
 30
0.0
 10
0.6732400000000001
 20
0.76651
 30
0.0
 10
0.6732400000000001
 20
0.76651
 30
0.0
 10
0.6732400000000001
 20
1.0509900000000001
 30
0.0
 10
0.6732400000000001
 20
1.0509900000000001
 30
0.0
 10
0.6732400000000001
 20
1.0509900000000001
 30
0.0
 10
0.55386
 20
1.2846700000000002
 30
0.0
 10
0.41416
 20
0.30423
 30
0.0
 10
0.40146
 20
0.72587
 30
0.0
 10
0.40146
 20
0.72587
 30
0.0
 10
0.40146
 20
0.72587
 30
0.0
 10
0.53608
 20
1.1627500000000002
 30
0.0
 10
0.53608
 20
1.1627500000000002
 30
0.0
 10
0.53608
 20
1.1627500000000002
 30
0.0
 10
0.277
 20
0.9163700000000001
 30
0.0
 10
0.3151000000000001
 20
0.76651
 30
0.0
 10
0.3786000000000001
 20
1.2440300000000002
 30
0.0
 10
0.3786000000000001
 20
1.2440300000000002
 30
0.0
 10
0.05094
 20
0.8604900000000001
 30
0.0
 10
0.6453000000000001
 20
1.7621900000000001
 30
0.0
 10
0.4929000000000001
 20
1.6402700000000001
 30
0.0
 10
0.4929000000000001
 20
1.6402700000000001
 30
0.0
 10
0.4624200000000001
 20
1.6402700000000001
 30
0.0
 10
0.29986
 20
1.4827900000000001
 30
0.0
 10
0.3684400000000001
 20
1.6250300000000002
 30
0.0
 10
0.3684400000000001
 20
1.6250300000000002
 30
0.0
 10
0.82564
 20
1.9933300000000003
 30
0.0
 10
-0.5865900000000001
 20
1.6809100000000001
 30
0.0
 10
-0.02779
 20
1.9120500000000002
 30
0.0
 10
-0.02779
 20
1.9120500000000002
 30
0.0
 10
0.00268
 20
1.8434700000000002
 30
0.0
 10
0.05856
 20
1.8612500000000001
 30
0.0
 10
0.13222
 20
1.8460100000000002
 30
0.0
 10
0.13222
 20
1.8460100000000002
 30
0.0
 10
0.23636
 20
1.8637900000000001
 30
0.0
 10
0.33796
 20
1.9399900000000001
 30
0.0
 10
0.3455800000000001
 20
1.9806300000000001
 30
0.0
 10
0.3455800000000001
 20
1.9806300000000001
 30
0.0
 10
0.25668
 20
1.9933300000000003
 30
0.0
 10
-0.11923
 20
2.1558900000000003
 30
0.0
 10
0.14238
 20
2.1431900000000002
 30
0.0
 10
0.14238
 20
2.1431900000000002
 30
0.0
 10
0.6834
 20
1.6885300000000001
 30
0.0
 10
0.68086
 20
2.3667100000000003
 30
0.0
 10
0.9628000000000001
 20
2.8162900000000004
 30
0.0
 10
0.9628000000000001
 20
2.8162900000000004
 30
0.0
 10
1.02884
 20
2.9229700000000003
 30
0.0
 10
1.3234800000000002
 20
3.1134700000000004
 30
0.0
 10
1.2168000000000001
 20
3.1134700000000004
 30
0.0
 10
1.2168000000000001
 20
3.1134700000000004
 30
0.0
 10
1.14314
 20
3.09823
 30
0.0
 10
1.0771000000000002
 20
3.0575900000000003
 30
0.0
 10
1.01868
 20
3.0042500000000003
 30
0.0
 10
1.01868
 20
3.0042500000000003
 30
0.0
 10
0.85104
 20
2.8924900000000004
 30
0.0
 10
1.1710800000000001
 20
3.1795100000000001
 30
0.0
 10
1.0059800000000001
 20
3.09823
 30
0.0
 10
1.0059800000000001
 20
3.09823
 30
0.0
 10
1.0059800000000001
 20
3.09823
 30
0.0
 10
0.9374000000000001
 20
3.0575900000000003
 30
0.0
 10
0.9374000000000001
 20
3.0575900000000003
 30
0.0
 10
0.9374000000000001
 20
3.0575900000000003
 30
0.0
 10
0.9374000000000001
 20
3.0575900000000003
 30
0.0
 10
0.8815200000000001
 20
3.0169500000000005
 30
0.0
 10
0.8815200000000001
 20
3.0169500000000005
 30
0.0
 10
0.8815200000000001
 20
3.0169500000000005
 30
0.0
 10
0.85104
 20
2.9610700000000003
 30
0.0
 10
0.8154800000000001
 20
3.0448900000000001
 30
0.0
 10
0.8612000000000001
 20
3.0575900000000003
 30
0.0
 10
0.8612000000000001
 20
3.0575900000000003
 30
0.0
 10
0.8612000000000001
 20
3.0575900000000003
 30
0.0
 10
0.9297800000000001
 20
3.1668100000000003
 30
0.0
 10
0.9297800000000001
 20
3.1668100000000003
 30
0.0
 10
0.9297800000000001
 20
3.1668100000000003
 30
0.0
 10
1.11266
 20
3.5198700000000005
 30
0.0
 10
0.63768
 20
2.8797900000000003
 30
0.0
 10
0.7062600000000001
 20
3.09823
 30
0.0
 10
0.7062600000000001
 20
3.09823
 30
0.0
 10
0.7062600000000001
 20
3.09823
 30
0.0
 10
0.78246
 20
3.2074500000000001
 30
0.0
 10
0.78246
 20
3.2074500000000001
 30
0.0
 10
0.78246
 20
3.2074500000000001
 30
0.0
 10
0.78246
 20
3.2074500000000001
 30
0.0
 10
0.9577200000000001
 20
3.3979500000000002
 30
0.0
 10
0.9577200000000001
 20
3.3979500000000002
 30
0.0
 10
0.9577200000000001
 20
3.3979500000000002
 30
0.0
 10
0.78754
 20
3.4258900000000003
 30
0.0
 10
0.6681600000000001
 20
3.2607900000000001
 30
0.0
 10
0.5691000000000001
 20
3.1515700000000004
 30
0.0
 10
0.5691000000000001
 20
3.1515700000000004
 30
0.0
 10
0.5462400000000001
 20
3.3446100000000003
 30
0.0
 10
0.5462400000000001
 20
3.6036900000000003
 30
0.0
 10
0.36082
 20
3.6849700000000003
 30
0.0
 10
0.36082
 20
3.6849700000000003
 30
0.0
 10
0.26938
 20
3.2353900000000002
 30
0.0
 10
-0.35291
 20
2.6892900000000002
 30
0.0
 10
0.2516000000000001
 20
2.3082900000000004
 30
0.0
 10
0.2516000000000001
 20
2.3082900000000004
 30
0.0
 10
-0.00239
 20
2.3336900000000003
 30
0.0
 10
-0.25893
 20
2.1838300000000004
 30
0.0
 10
-0.41387
 20
1.9653900000000002
 30
0.0
 10
-0.41387
 20
1.9653900000000002
 30
0.0
 10
-0.30973
 20
1.7063100000000002
 30
0.0
 10
-0.03033
 20
1.57169
 30
0.0
 10
0.24906
 20
1.6529700000000001
 30
0.0
 10
0.24906
 20
1.6529700000000001
 30
0.0
 10
0.10428
 20
1.3380100000000001
 30
0.0
 10
0.17032
 20
0.9849500000000001
 30
0.0
 10
0.20588
 20
0.6699900000000001
 30
0.0
 10
0.20588
 20
0.6699900000000001
 30
0.0
 10
0.09412
 20
0.84779
 30
0.0
 10
0.06618
 20
1.22879
 30
0.0
 10
-0.12685
 20
1.27197
 30
0.0
 10
-0.12685
 20
1.27197
 30
0.0
 10
0.17794
 20
0.68523
 30
0.0
 10
0.12968
 20
-0.17328
 30
0.0
 10
-0.16495
 20
-0.8133600000000001
 30
0.0
 10
-0.16495
 20
-0.8133600000000001
 30
0.0
 10
-0.01509
 20
-0.7727200000000001
 30
0.0
 10
0.08142
 20
-0.3637800000000001
 30
0.0
 10
0.19572
 20
-0.5822200000000001
 30
0.0
 10
0.19572
 20
-0.5822200000000001
 30
0.0
 10
-0.02017
 20
-0.8819400000000001
 30
0.0
 10
-0.38847
 20
-1.2350000000000001
 30
0.0
 10
0.01538
 20
-1.8903200000000002
 30
0.0
 10
0.01538
 20
-1.8903200000000002
 30
0.0
 10
-0.38847
 20
-1.8369800000000001
 30
0.0
 10
-0.4392700000000001
 20
-1.5347200000000001
 30
0.0
 10
-0.6856500000000001
 20
-1.33152
 30
0.0
 10
-0.6856500000000001
 20
-1.33152
 30
0.0
 10
-0.7034300000000001
 20
-1.5499600000000002
 30
0.0
 10
-0.5027700000000001
 20
-1.6998200000000001
 30
0.0
 10
-0.47229
 20
-1.9182600000000001
 30
0.0
 10
-0.47229
 20
-1.9182600000000001
 30
0.0
 10
-0.7999500000000001
 20
-1.6871200000000002
 30
0.0
 10
-0.9777500000000001
 20
-1.29088
 30
0.0
 10
-0.9599700000000001
 20
-0.8946400000000001
 30
0.0
 10
-0.9599700000000001
 20
-0.8946400000000001
 30
0.0
 10
-0.9599700000000001
 20
-0.8946400000000001
 30
0.0
 10
-1.04379
 20
-0.9733800000000001
 30
0.0
 10
-1.04379
 20
-0.9733800000000001
 30
0.0
 10
-1.04379
 20
-0.9733800000000001
 30
0.0
 10
-1.08697
 20
-1.12324
 30
0.0
 10
-0.9345700000000001
 20
-1.4407400000000001
 30
0.0
 10
-0.9066300000000001
 20
-1.5626600000000002
 30
0.0
 10
-0.9066300000000001
 20
-1.5626600000000002
 30
0.0
 10
-0.8558300000000001
 20
-1.67188
 30
0.0
 10
-0.80249
 20
-1.7938000000000001
 30
0.0
 10
-0.7034300000000001
 20
-1.8776200000000001
 30
0.0
 10
-0.7034300000000001
 20
-1.8776200000000001
 30
0.0
 10
-1.13015
 20
-1.6871200000000002
 30
0.0
 10
-1.2571500000000002
 20
-1.16642
 30
0.0
 10
-1.4095500000000001
 20
-0.7854200000000001
 30
0.0
 10
-1.4095500000000001
 20
-0.7854200000000001
 30
0.0
 10
-1.4095500000000001
 20
-0.7854200000000001
 30
0.0
 10
-1.3968500000000001
 20
-0.9632200000000001
 30
0.0
 10
-1.3968500000000001
 20
-0.9632200000000001
 30
0.0
 10
-1.3968500000000001
 20
-0.9632200000000001
 30
0.0
 10
-1.37399
 20
-1.0572000000000001
 30
0.0
 10
-1.38161
 20
-1.1816600000000002
 30
0.0
 10
-1.3181100000000001
 20
-1.2629400000000002
 30
0.0
 10
-1.3181100000000001
 20
-1.2629400000000002
 30
0.0
 10
-1.3181100000000001
 20
-1.4534400000000001
 30
0.0
 10
-1.2698500000000001
 20
-1.63124
 30
0.0
 10
-1.1123700000000001
 20
-1.7557
 30
0.0
 10
-1.1123700000000001
 20
-1.7557
 30
0.0
 10
-1.6508500000000002
 20
-1.7684000000000002
 30
0.0
 10
-1.5797300000000001
 20
-0.34854
 30
0.0
 10
-1.6559300000000001
 20
-1.3188200000000001
 30
0.0
 10
-1.6559300000000001
 20
-1.3188200000000001
 30
0.0
 10
-1.6559300000000001
 20
-1.3188200000000001
 30
0.0
 10
-1.7346700000000002
 20
-1.2223000000000002
 30
0.0
 10
-1.7346700000000002
 20
-1.2223000000000002
 30
0.0
 10
-1.7346700000000002
 20
-1.2223000000000002
 30
0.0
 10
-1.8997700000000002
 20
-0.9759200000000001
 30
0.0
 10
-1.6991100000000001
 20
-0.7041400000000001
 30
0.0
 10
-1.6559300000000001
 20
-0.4577600000000001
 30
0.0
 10
-1.6559300000000001
 20
-0.4577600000000001
 30
0.0
 10
-1.7118100000000001
 20
-0.34854
 30
0.0
 10
-1.7702300000000002
 20
-0.44506
 30
0.0
 10
-1.7880100000000001
 20
-0.5136400000000001
 30
0.0
 10
-1.7880100000000001
 20
-0.5136400000000001
 30
0.0
 10
-1.7880100000000001
 20
-0.5136400000000001
 30
0.0
 10
-1.8565900000000002
 20
-0.71684
 30
0.0
 10
-1.8565900000000002
 20
-0.71684
 30
0.0
 10
-1.8565900000000002
 20
-0.71684
 30
0.0
 10
-1.8819900000000001
 20
-0.3079
 30
0.0
 10
-1.5924300000000002
 20
0.08325
 30
0.0
 10
-1.6178300000000001
 20
0.4947300000000001
 30
0.0
 10
-1.6178300000000001
 20
0.4947300000000001
 30
0.0
 10
-1.75753
 20
0.37027
 30
0.0
 10
-1.7422900000000001
 20
0.00197
 30
0.0
 10
-1.8819900000000001
 20
-0.18598
 30
0.0
 10
-1.8819900000000001
 20
-0.18598
 30
0.0
 10
-1.8032500000000002
 20
0.20771
 30
0.0
 10
-1.7168900000000002
 20
0.61665
 30
0.0
 10
-1.6686300000000001
 20
1.02559
 30
0.0
 10
-1.6686300000000001
 20
1.02559
 30
0.0
 10
-1.7778500000000002
 20
1.1221100000000002
 30
0.0
 10
-1.7346700000000002
 20
1.5564500000000001
 30
0.0
 10
-1.6432300000000002
 20
1.9933300000000003
 30
0.0
 10
-1.6432300000000002
 20
1.9933300000000003
 30
0.0
 10
-2.0140700000000002
 20
1.9653900000000002
 30
0.0
 10
-2.11313
 20
0.7385700000000001
 30
0.0
 10
-1.9302500000000002
 20
0.9443100000000001
 30
0.0
 10
-1.9302500000000002
 20
0.9443100000000001
 30
0.0
 10
-1.7854700000000001
 20
0.13913
 30
0.0
 10
-2.3341100000000004
 20
-0.76002
 30
0.0
 10
-1.6584700000000001
 20
-1.5906000000000002
 30
0.0
 10
-1.6584700000000001
 20
-1.5906000000000002
 30
0.0
 10
-2.0293100000000002
 20
-1.5906000000000002
 30
0.0
 10
-2.4407900000000002
 20
-1.4686800000000002
 30
0.0
 10
-2.69225
 20
-1.16642
 30
0.0
 10
-2.69225
 20
-1.16642
 30
0.0
 10
-2.5957300000000001
 20
-1.4966200000000001
 30
0.0
 10
-2.77861
 20
-1.3442200000000002
 30
0.0
 10
-3.1113500000000003
 20
-1.3035800000000002
 30
0.0
 10
-3.1113500000000003
 20
-1.3035800000000002
 30
0.0
 10
-3.3272500000000003
 20
-1.9462000000000002
 30
0.0
 10
-3.6650700000000005
 20
-2.8606000000000003
 30
0.0
 10
-4.4346900000000007
 20
-2.9139400000000002
 30
0.0
 10
-4.4346900000000007
 20
-2.9139400000000002
 30
0.0
 10
-5.0239700000000003
 20
-3.7318200000000004
 30
0.0
 10
-4.2822900000000006
 20
-3.8131000000000004
 30
0.0
 10
-4.9426900000000007
 20
-4.9738800000000003
 30
0.0
 10
-4.9426900000000007
 20
-4.9738800000000003
 30
0.0
 10
-4.9426900000000007
 20
-5.0551600000000008
 30
0.0
 10
-4.8233100000000002
 20
-4.98658
 30
0.0
 10
-4.8207700000000004
 20
-5.0424600000000002
 30
0.0
 10
-4.8207700000000004
 20
-5.0424600000000002
 30
0.0
 10
-4.8969700000000005
 20
-5.1364400000000003
 30
0.0
 10
-5.0138100000000003
 20
-5.1923200000000005
 30
0.0
 10
-5.1331900000000008
 20
-5.1923200000000005
 30
0.0
 10
-5.1331900000000008
 20
-5.1923200000000005
 30
0.0
 10
-5.5776900000000005
 20
-5.0272200000000007
 30
0.0
 10
-5.3313100000000002
 20
-4.3185600000000006
 30
0.0
 10
-5.1458900000000005
 20
-4.30586
 30
0.0
 10
-5.1458900000000005
 20
-4.30586
 30
0.0
 10
-5.0874700000000006
 20
-4.7402000000000006
 30
0.0
 10
-5.0646100000000001
 20
-3.4041600000000001
 30
0.0
 10
-5.0239700000000003
 20
-3.6911800000000001
 30
0.0
 10
-5.0239700000000003
 20
-3.6911800000000001
 30
0.0
 10
-5.0239700000000003
 20
-3.6911800000000001
 30
0.0
 10
-5.0239700000000003
 20
-3.9096200000000003
 30
0.0
 10
-5.0239700000000003
 20
-3.9096200000000003
 30
0.0
 10
-5.0239700000000003
 20
-3.9096200000000003
 30
0.0
 10
-5.0239700000000003
 20
-3.9096200000000003
 30
0.0
 10
-5.0646100000000001
 20
-4.3465000000000007
 30
0.0
 10
-5.0646100000000001
 20
-4.3465000000000007
 30
0.0
 10
-5.0646100000000001
 20
-4.3465000000000007
 30
0.0
 10
-4.8385500000000006
 20
-3.8562800000000004
 30
0.0
 10
-4.9960300000000002
 20
-3.2009600000000002
 30
0.0
 10
-4.7521900000000006
 20
-2.7361400000000002
 30
0.0
 10
-4.7521900000000006
 20
-2.7361400000000002
 30
0.0
 10
-4.9045900000000007
 20
-2.6396200000000003
 30
0.0
 10
-5.0061900000000001
 20
-2.8860000000000001
 30
0.0
 10
-5.0468300000000008
 20
-3.0079200000000004
 30
0.0
 10
-5.0468300000000008
 20
-3.0079200000000004
 30
0.0
 10
-5.0823900000000002
 20
-2.5177
 30
0.0
 10
-4.5972500000000007
 20
-2.6828000000000003
 30
0.0
 10
-4.5870900000000008
 20
-2.23068
 30
0.0
 10
-4.5870900000000008
 20
-2.23068
 30
0.0
 10
-5.1484300000000003
 20
-0.5568200000000001
 30
0.0
 10
-4.9858700000000002
 20
1.6707500000000002
 30
0.0
 10
-3.4009100000000001
 20
2.6715100000000001
 30
0.0
 10
-3.4009100000000001
 20
2.6715100000000001
 30
0.0
 10
-3.2434300000000005
 20
2.7705700000000002
 30
0.0
 10
-3.0173700000000001
 20
2.9585300000000001
 30
0.0
 10
-2.8319500000000004
 20
3.0296500000000002
 30
0.0
 10
-2.8319500000000004
 20
3.0296500000000002
 30
0.0
 10
-2.8319500000000004
 20
3.0296500000000002
 30
0.0
 10
-2.1055100000000002
 20
3.6036900000000003
 30
0.0
 10
-2.1055100000000002
 20
3.6036900000000003
 30
0.0
 10
-2.1055100000000002
 20
3.6036900000000003
 30
0.0
 10
-2.0496300000000001
 20
3.4944700000000002
 30
0.0
 10
-2.36205
 20
3.3573100000000005
 30
0.0
 10
-2.2147300000000003
 20
3.2760300000000004
 30
0.0
 10
-2.2147300000000003
 20
3.2760300000000004
 30
0.0
 10
-2.2147300000000003
 20
3.2760300000000004
 30
0.0
 10
-1.9683500000000003
 20
3.5351100000000004
 30
0.0
 10
-1.9683500000000003
 20
3.5351100000000004
 30
0.0
 10
-1.9683500000000003
 20
3.5351100000000004
 30
0.0
 10
-2.10297
 20
3.1515700000000004
 30
0.0
 10
-2.2782300000000002
 20
2.7705700000000002
 30
0.0
 10
-2.4966700000000004
 20
2.4581500000000003
 30
0.0
 10
-2.4966700000000004
 20
2.4581500000000003
 30
0.0
 10
-2.3493500000000003
 20
2.4581500000000003
 30
0.0
 10
-2.27569
 20
2.67659
 30
0.0
 10
-2.1563100000000004
 20
2.7705700000000002
 30
0.0
 10
-2.1563100000000004
 20
2.7705700000000002
 30
0.0
 10
-2.0775700000000001
 20
2.8543900000000004
 30
0.0
 10
-2.0318500000000004
 20
2.6613500000000001
 30
0.0
 10
-2.0064500000000001
 20
2.9077300000000004
 30
0.0
 10
-2.0064500000000001
 20
2.9077300000000004
 30
0.0
 10
-1.9048500000000002
 20
2.7299300000000004
 30
0.0
 10
-1.7245100000000002
 20
3.1515700000000004
 30
0.0
 10
-1.62799
 20
3.1388700000000003
 30
0.0
 10
-1.62799
 20
3.1388700000000003
 30
0.0
 10
-1.6889500000000002
 20
3.0042500000000003
 30
0.0
 10
-1.7854700000000001
 20
2.8670900000000001
 30
0.0
 10
-1.7600700000000002
 20
2.6892900000000002
 30
0.0
 10
-1.7600700000000002
 20
2.6892900000000002
 30
0.0
 10
-1.4882900000000001
 20
2.9610700000000003
 30
0.0
 10
-1.2266700000000001
 20
3.3293700000000004
 30
0.0
 10
-0.9904500000000001
 20
3.6443300000000005
 30
0.0
 10
-0.9904500000000001
 20
3.6443300000000005
 30
0.0
 10
-1.1174500000000001
 20
3.6290900000000001
 30
0.0
 10
-1.1961900000000001
 20
3.4817700000000005
 30
0.0
 10
-1.29779
 20
3.4258900000000003
 30
0.0
 10
-1.29779
 20
3.4258900000000003
 30
0.0
 10
-1.29779
 20
3.4258900000000003
 30
0.0
 10
-1.4324100000000002
 20
3.2887300000000002
 30
0.0
 10
-1.4324100000000002
 20
3.2887300000000002
 30
0.0
 10
-1.4324100000000002
 20
3.2887300000000002
 30
0.0
 10
-1.33335
 20
3.4385900000000005
 30
0.0
 10
-1.0590300000000001
 20
4.0939100000000002
 30
0.0
 10
-1.3689100000000001
 20
3.7129100000000004
 30
0.0
 10
-1.3689100000000001
 20
3.7129100000000004
 30
0.0
 10
-1.3689100000000001
 20
3.7129100000000004
 30
0.0
 10
-1.6508500000000002
 20
3.3573100000000005
 30
0.0
 10
-1.6508500000000002
 20
3.3573100000000005
 30
0.0
 10
-1.6508500000000002
 20
3.3573100000000005
 30
0.0
 10
-1.6508500000000002
 20
3.3573100000000005
 30
0.0
 10
-1.9785100000000002
 20
2.9890100000000004
 30
0.0
 10
-1.9785100000000002
 20
2.9890100000000004
 30
0.0
 10
-1.9785100000000002
 20
2.9890100000000004
 30
0.0
 10
-1.9556500000000001
 20
3.4817700000000005
 30
0.0
 10
-1.5771900000000001
 20
3.8881700000000001
 30
0.0
 10
-1.2368300000000001
 20
4.2310700000000008
 30
0.0
 10
-1.2368300000000001
 20
4.2310700000000008
 30
0.0
 10
-1.3206500000000001
 20
4.2844100000000003
 30
0.0
 10
-1.4324100000000002
 20
4.16249
 30
0.0
 10
-1.5086100000000002
 20
4.1091500000000005
 30
0.0
 10
-1.5086100000000002
 20
4.1091500000000005
 30
0.0
 10
-1.7118100000000001
 20
3.9719900000000004
 30
0.0
 10
-1.8794500000000001
 20
3.7662500000000003
 30
0.0
 10
-2.0470900000000003
 20
3.6036900000000003
 30
0.0
 10
-2.0470900000000003
 20
3.6036900000000003
 30
0.0
 10
-1.6762500000000002
 20
4.2996500000000006
 30
0.0
 10
-0.9599700000000001
 20
4.8711500000000001
 30
0.0
 10
-0.21067
 20
5.1581700000000001
 30
0.0
 10
-0.21067
 20
5.1581700000000001
 30
0.0
 10
0.02808
 20
5.1581700000000001
 30
0.0
 10
-0.09129
 20
5.3359700000000005
 30
0.0
 10
-0.26401
 20
5.2394500000000006
 30
0.0
 10
-0.26401
 20
5.2394500000000006
 30
0.0
 10
-0.04049
 20
5.4172500000000001
 30
0.0
 10
0.23636
 20
5.5391700000000004
 30
0.0
 10
0.5386200000000001
 20
5.5264700000000007
 30
0.0
 10
0.5386200000000001
 20
5.5264700000000007
 30
0.0
 10
0.7748400000000001
 20
5.4578900000000008
 30
0.0
 10
1.0059800000000001
 20
5.3080300000000005
 30
0.0
 10
1.09996
 20
5.0616500000000002
 30
0.0
 10
1.09996
 20
5.0616500000000002
 30
0.0
 10
1.2803000000000002
 20
4.9930700000000003
 30
0.0
 10
1.0034400000000001
 20
5.2394500000000006
 30
0.0
 10
1.0872600000000001
 20
5.2953300000000008
 30
0.0
 10
1.0872600000000001
 20
5.2953300000000008
 30
0.0
 10
1.6257400000000002
 20
4.7339900000000004
 30
0.0
 10
1.65622
 20
4.0659700000000001
 30
0.0
 10
2.0346800000000003
 20
3.5630500000000005
 30
0.0
 10
2.0346800000000003
 20
3.5630500000000005
 30
0.0
 10
2.0346800000000003
 20
3.5630500000000005
 30
0.0
 10
1.9457800000000001
 20
3.4817700000000005
 30
0.0
 10
1.9457800000000001
 20
3.4817700000000005
 30
0.0
 10
1.9457800000000001
 20
3.4817700000000005
 30
0.0
 10
2.3293200000000001
 20
3.3852500000000001
 30
0.0
 10
2.6823800000000002
 20
3.0575900000000003
 30
0.0
 10
2.6112600000000001
 20
2.6080100000000002
 30
0.0
 10
2.6112600000000001
 20
2.6080100000000002
 30
0.0
 10
2.6265000000000001
 20
2.5394300000000003
 30
0.0
 10
2.6823800000000002
 20
2.6359500000000002
 30
0.0
 10
2.6925400000000002
 20
2.6613500000000001
 30
0.0
 10
2.6925400000000002
 20
2.6613500000000001
 30
0.0
 10
2.7103200000000003
 20
2.7299300000000004
 30
0.0
 10
2.6976200000000001
 20
2.7985100000000003
 30
0.0
 10
2.6976200000000001
 20
2.8670900000000001
 30
0.0
 10
2.6976200000000001
 20
2.8670900000000001
 30
0.0
 10
2.8424
 20
2.6207100000000003
 30
0.0
 10
2.8805000000000001
 20
2.2676500000000002
 30
0.0
 10
2.5833200000000001
 20
2.1025500000000004
 30
0.0
 10
2.5833200000000001
 20
2.1025500000000004
 30
0.0
 10
2.5630000000000002
 20
2.0085700000000002
 30
0.0
 10
2.6671400000000003
 20
2.0339700000000001
 30
0.0
 10
2.6138000000000003
 20
1.9526900000000003
 30
0.0
 10
2.6138000000000003
 20
1.9526900000000003
 30
0.0
 10
2.9338400000000004
 20
1.9806300000000001
 30
0.0
 10
2.50204
 20
1.6809100000000001
 30
0.0
 10
2.5426800000000003
 20
1.5031100000000002
 30
0.0
 10
2.5426800000000003
 20
1.5031100000000002
 30
0.0
 10
2.5401400000000001
 20
1.4751700000000001
 30
0.0
 10
2.5757000000000003
 20
1.40659
 30
0.0
 10
2.6087200000000004
 20
1.44723
 30
0.0
 10
2.6087200000000004
 20
1.44723
 30
0.0
 10
2.8525600000000004
 20
1.7748900000000001
 30
0.0
 10
2.6214200000000001
 20
1.14751
 30
0.0
 10
2.46394
 20
1.4192900000000002
 30
0.0
 10
2.46394
 20
1.4192900000000002
 30
0.0
 10
2.3902800000000002
 20
1.27197
 30
0.0
 10
2.6417400000000004
 20
1.1754500000000001
 30
0.0
 10
2.50204
 20
1.0509900000000001
 30
0.0
 10
2.50204
 20
1.0509900000000001
 30
0.0
 10
2.4715600000000002
 20
1.1221100000000002
 30
0.0
 10
2.4741000000000004
 20
1.3938900000000001
 30
0.0
 10
2.3648800000000003
 20
1.3253100000000002
 30
0.0
 10
2.3648800000000003
 20
1.3253100000000002
 30
0.0
 10
2.38774
 20
0.9697100000000001
 30
0.0
 10
2.63158
 20
0.39821
 30
0.0
 10
2.13374
 20
0.27629
 30
0.0
 10
2.13374
 20
0.27629
 30
0.0
 10
2.2302600000000004
 20
0.22041
 30
0.0
 10
2.3648800000000003
 20
0.32963
 30
0.0
 10
2.4741000000000004
 20
0.34233
 30
0.0
 10
2.4741000000000004
 20
0.34233
 30
0.0
 10
2.9008200000000004
 20
0.26105
 30
0.0
 10
1.8238600000000003
 20
0.02991
 30
0.0
 10
2.3547200000000004
 20
0.02991
 30
0.0
 10
2.3547200000000004
 20
0.02991
 30
0.0
 10
2.38774
 20
0.04261
 30
0.0
 10
2.4664800000000002
 20
0.11119
 30
0.0
 10
2.4715600000000002
 20
0.05785
 30
0.0
 10
2.4715600000000002
 20
0.05785
 30
0.0
 10
2.4385400000000002
 20
-0.02342
 30
0.0
 10
2.4944200000000003
 20
-0.14534
 30
0.0
 10
2.41568
 20
-0.22662
 30
0.0
 10
2.41568
 20
-0.22662
 30
0.0
 10
2.0931000000000002
 20
-0.15804
 30
0.0
 10
1.6790800000000001
 20
-0.3079
 30
0.0
 10
1.4504800000000002
 20
-0.18598
 30
0.0
 10
1.4504800000000002
 20
-0.18598
 30
0.0
 10
1.5851000000000002
 20
-0.3637800000000001
 30
0.0
 10
1.6435200000000001
 20
-0.6076200000000001
 30
0.0
 10
1.9127600000000002
 20
-0.52634
 30
0.0
 10
1.9127600000000002
 20
-0.52634
 30
0.0
 10
2.0600800000000001
 20
-0.4857
 30
0.0
 10
2.2226400000000002
 20
-0.5009400000000001
 30
0.0
 10
2.25312
 20
-0.32314
 30
0.0
 10
2.25312
 20
-0.32314
 30
0.0
 10
2.3420200000000002
 20
-0.3002800000000001
 30
0.0
 10
2.2658200000000002
 20
-0.43236
 30
0.0
 10
2.2505800000000002
 20
-0.473
 30
0.0
 10
2.2505800000000002
 20
-0.473
 30
0.0
 10
2.12866
 20
-0.8032
 30
0.0
 10
1.5038200000000002
 20
-0.7041400000000001
 30
0.0
 10
1.44032
 20
-0.3637800000000001
 30
0.0
 10
1.44032
 20
-0.3637800000000001
 30
0.0
 10
1.3844400000000001
 20
-0.52634
 30
0.0
 10
1.5520800000000001
 20
-1.0724400000000001
 30
0.0
 10
1.3565
 20
-0.76002
 30
0.0
 10
1.3565
 20
-0.76002
 30
0.0
 10
1.3565
 20
-0.76002
 30
0.0
 10
1.2930000000000001
 20
-0.6635000000000001
 30
0.0
 10
1.2930000000000001
 20
-0.6635000000000001
 30
0.0
 10
1.2930000000000001
 20
-0.6635000000000001
 30
0.0
 10
1.3387200000000001
 20
-1.0572000000000001
 30
0.0
 10
1.1228200000000002
 20
-0.7041400000000001
 30
0.0
 10
1.0974200000000001
 20
-0.4857
 30
0.0
  0
SPLINE
  5
27
100
AcDbEntity
  8
���� 1
100
AcDbSpline
210
0.0
220
0.0
230
1.0
 70
     1
 71
     3
 72
    20
 73
    16
 74
     0
 42
0.0000000001
 43
0.0000000001
 40
0.0
 40
0.0
 40
0.0
 40
0.0
 40
0.25
 40
0.25
 40
0.25
 40
0.25
 40
0.5
 40
0.5
 40
0.5
 40
0.5
 40
0.75
 40
0.75
 40
0.75
 40
0.75
 40
1.0
 40
1.0
 40
1.0
 40
1.0
 10
0.36082
 20
5.2521500000000003
 30
0.0
 10
0.3786000000000001
 20
5.2521500000000003
 30
0.0
 10
0.40654
 20
5.2394500000000006
 30
0.0
 10
0.41416
 20
5.22675
 30
0.0
 10
0.41416
 20
5.22675
 30
0.0
 10
0.27954
 20
4.9803700000000006
 30
0.0
 10
0.04586
 20
4.7746300000000002
 30
0.0
 10
0.01538
 20
4.4901500000000008
 30
0.0
 10
0.01538
 20
4.4901500000000008
 30
0.0
 10
0.00268
 20
4.4774500000000002
 30
0.0
 10
-0.01763
 20
4.4495100000000001
 30
0.0
 10
-0.04557
 20
4.4622100000000007
 30
0.0
 10
-0.04557
 20
4.4622100000000007
 30
0.0
 10
-0.10653
 20
4.7898700000000005
 30
0.0
 10
0.13476
 20
5.0616500000000002
 30
0.0
 10
0.36082
 20
5.2521500000000003
 30
0.0
  0
SPLINE
  5
28
100
AcDbEntity
  8
���� 1
100
AcDbSpline
210
0.0
220
0.0
230
1.0
 70
     1
 71
     3
 72
    20
 73
    16
 74
     0
 42
0.0000000001
 43
0.0000000001
 40
0.0
 40
0.0
 40
0.0
 40
0.0
 40
0.25
 40
0.25
 40
0.25
 40
0.25
 40
0.5
 40
0.5
 40
0.5
 40
0.5
 40
0.75
 40
0.75
 40
0.75
 40
0.75
 40
1.0
 40
1.0
 40
1.0
 40
1.0
 10
0.22366
 20
4.5307900000000005
 30
0.0
 10
0.3532
 20
4.4342700000000006
 30
0.0
 10
0.21858
 20
4.1904300000000001
 30
0.0
 10
0.32018
 20
4.0659700000000001
 30
0.0
 10
0.32018
 20
4.0659700000000001
 30
0.0
 10
0.0865
 20
3.9567500000000004
 30
0.0
 10
0.0992
 20
3.6036900000000003
 30
0.0
 10
-0.08367
 20
3.4665300000000001
 30
0.0
 10
-0.08367
 20
3.4665300000000001
 30
0.0
 10
-0.04303
 20
3.7662500000000003
 30
0.0
 10
0.19318
 20
4.0253300000000003
 30
0.0
 10
0.15508
 20
4.3402900000000004
 30
0.0
 10
0.15508
 20
4.3402900000000004
 30
0.0
 10
0.15508
 20
4.3402900000000004
 30
0.0
 10
0.22366
 20
4.5307900000000005
 30
0.0
 10
0.22366
 20
4.5307900000000005
 30
0.0
  0
SPLINE
  5
29
100
AcDbEntity
  8
���� 1
100
AcDbSpline
210
0.0
220
0.0
230
1.0
 70
     1
 71
     3
 72
    28
 73
    24
 74
     0
 42
0.0000000001
 43
0.0000000001
 40
0.0
 40
0.0
 40
0.0
 40
0.0
 40
0.1666666666666667
 40
0.1666666666666667
 40
0.1666666666666667
 40
0.1666666666666667
 40
0.3333333333333333
 40
0.3333333333333333
 40
0.3333333333333333
 40
0.3333333333333333
 40
0.5
 40
0.5
 40
0.5
 40
0.5
 40
0.6666666666666666
 40
0.6666666666666666
 40
0.6666666666666666
 40
0.6666666666666666
 40
0.8333333333333333
 40
0.8333333333333333
 40
0.8333333333333333
 40
0.8333333333333333
 40
1.0
 40
1.0
 40
1.0
 40
1.0
 10
1.3285600000000002
 20
4.1904300000000001
 30
0.0
 10
1.4682600000000001
 20
3.9973900000000002
 30
0.0
 10
1.5165200000000001
 20
3.6722700000000001
 30
0.0
 10
1.7476600000000002
 20
3.5198700000000005
 30
0.0
 10
1.7476600000000002
 20
3.5198700000000005
 30
0.0
 10
1.7476600000000002
 20
3.5198700000000005
 30
0.0
 10
1.7476600000000002
 20
3.4385900000000005
 30
0.0
 10
1.7476600000000002
 20
3.4385900000000005
 30
0.0
 10
1.7476600000000002
 20
3.4385900000000005
 30
0.0
 10
1.6079600000000001
 20
3.3725500000000004
 30
0.0
 10
1.4479400000000002
 20
3.4817700000000005
 30
0.0
 10
1.3006200000000001
 20
3.4131900000000002
 30
0.0
 10
1.3006200000000001
 20
3.4131900000000002
 30
0.0
 10
1.27268
 20
3.4258900000000003
 30
0.0
 10
1.15076
 20
3.3827100000000003
 30
0.0
 10
1.1533
 20
3.4716100000000001
 30
0.0
 10
1.1533
 20
3.4716100000000001
 30
0.0
 10
1.1533
 20
3.4716100000000001
 30
0.0
 10
1.4352400000000001
 20
3.5630500000000005
 30
0.0
 10
1.4352400000000001
 20
3.5630500000000005
 30
0.0
 10
1.4352400000000001
 20
3.5630500000000005
 30
0.0
 10
1.35904
 20
3.7535500000000002
 30
0.0
 10
1.27268
 20
3.9973900000000002
 30
0.0
 10
1.3285600000000002
 20
4.1904300000000001
 30
0.0
  0
SPLINE
  5
2A
100
AcDbEntity
  8
���� 1
 62
     7
100
AcDbSpline
210
0.0
220
0.0
230
1.0
 70
     1
 71
     3
 72
    12
 73
     8
 74
     0
 42
0.0000000001
 43
0.0000000001
 40
0.0
 40
0.0
 40
0.0
 40
0.0
 40
0.5
 40
0.5
 40
0.5
 40
0.5
 40
1.0
 40
1.0
 40
1.0
 40
1.0
 10
-4.19339
 20
4.16249
 30
0.0
 10
-4.19339
 20
4.16249
 30
0.0
 10
-4.1273500000000007
 20
3.7941900000000004
 30
0.0
 10
-4.1273500000000007
 20
3.7941900000000004
 30
0.0
 10
-4.1273500000000007
 20
3.7941900000000004
 30
0.0
 10
-4.19339
 20
3.9034100000000005
 30
0.0
 10
-4.2111700000000001
 20
4.0405700000000007
 30
0.0
 10
-4.19339
 20
4.16249
 30
0.0
  0
SPLINE
  5
2B
100
AcDbEntity
  8
���� 1
100
AcDbSpline
210
0.0
220
0.0
230
1.0
 70
     1
 71
     3
 72
    68
 73
    64
 74
     0
 42
0.0000000001
 43
0.0000000001
 40
0.0
 40
0.0
 40
0.0
 40
0.0
 40
0.0625
 40
0.0625
 40
0.0625
 40
0.0625
 40
0.125
 40
0.125
 40
0.125
 40
0.125
 40
0.1875
 40
0.1875
 40
0.1875
 40
0.1875
 40
0.25
 40
0.25
 40
0.25
 40
0.25
 40
0.3125
 40
0.3125
 40
0.3125
 40
0.3125
 40
0.375
 40
0.375
 40
0.375
 40
0.375
 40
0.4375
 40
0.4375
 40
0.4375
 40
0.4375
 40
0.5
 40
0.5
 40
0.5
 40
0.5
 40
0.5625
 40
0.5625
 40
0.5625
 40
0.5625
 40
0.625
 40
0.625
 40
0.625
 40
0.625
 40
0.6875
 40
0.6875
 40
0.6875
 40
0.6875
 40
0.75
 40
0.75
 40
0.75
 40
0.75
 40
0.8125
 40
0.8125
 40
0.8125
 40
0.8125
 40
0.875
 40
0.875
 40
0.875
 40
0.875
 40
0.9375
 40
0.9375
 40
0.9375
 40
0.9375
 40
1.0
 40
1.0
 40
1.0
 40
1.0
 10
-0.78217
 20
4.16249
 30
0.0
 10
-0.6272300000000001
 20
3.9313500000000001
 30
0.0
 10
-0.7897900000000001
 20
3.5630500000000005
 30
0.0
 10
-0.8736100000000001
 20
3.3039700000000001
 30
0.0
 10
-0.8736100000000001
 20
3.3039700000000001
 30
0.0
 10
-0.8532900000000001
 20
3.2887300000000002
 30
0.0
 10
-0.8405900000000001
 20
3.3293700000000004
 30
0.0
 10
-0.82535
 20
3.3293700000000004
 30
0.0
 10
-0.82535
 20
3.3293700000000004
 30
0.0
 10
-0.72375
 20
3.4131900000000002
 30
0.0
 10
-0.74153
 20
3.5884500000000004
 30
0.0
 10
-0.6475500000000001
 20
3.6570300000000002
 30
0.0
 10
-0.6475500000000001
 20
3.6570300000000002
 30
0.0
 10
-0.55103
 20
3.6036900000000003
 30
0.0
 10
-0.6678700000000001
 20
3.4665300000000001
 30
0.0
 10
-0.65517
 20
3.3725500000000004
 30
0.0
 10
-0.65517
 20
3.3725500000000004
 30
0.0
 10
-0.5383300000000001
 20
3.4665300000000001
 30
0.0
 10
-0.51293
 20
3.6722700000000001
 30
0.0
 10
-0.46467
 20
3.8068900000000001
 30
0.0
 10
-0.46467
 20
3.8068900000000001
 30
0.0
 10
-0.30973
 20
3.8068900000000001
 30
0.0
 10
-0.4265700000000001
 20
3.5478100000000001
 30
0.0
 10
-0.38339
 20
3.4538300000000004
 30
0.0
 10
-0.38339
 20
3.4538300000000004
 30
0.0
 10
-0.3656100000000001
 20
3.4944700000000002
 30
0.0
 10
-0.30465
 20
3.5478100000000001
 30
0.0
 10
-0.26401
 20
3.5071700000000003
 30
0.0
 10
-0.26401
 20
3.5071700000000003
 30
0.0
 10
-0.3224300000000001
 20
3.3039700000000001
 30
0.0
 10
-0.4824500000000001
 20
3.1388700000000003
 30
0.0
 10
-0.5611900000000001
 20
2.9356700000000004
 30
0.0
 10
-0.5611900000000001
 20
2.9356700000000004
 30
0.0
 10
-0.48499
 20
2.9204300000000001
 30
0.0
 10
-0.5180100000000001
 20
3.0448900000000001
 30
0.0
 10
-0.45451
 20
3.0575900000000003
 30
0.0
 10
-0.45451
 20
3.0575900000000003
 30
0.0
 10
-0.42149
 20
3.0448900000000001
 30
0.0
 10
-0.40879
 20
3.0169500000000005
 30
0.0
 10
-0.41387
 20
2.9763100000000002
 30
0.0
 10
-0.41387
 20
2.9763100000000002
 30
0.0
 10
-0.5992900000000001
 20
2.6892900000000002
 30
0.0
 10
-0.61199
 20
2.3082900000000004
 30
0.0
 10
-0.7135900000000001
 20
2.0085700000000002
 30
0.0
 10
-0.7135900000000001
 20
2.0085700000000002
 30
0.0
 10
-0.9447300000000001
 20
2.1838300000000004
 30
0.0
 10
-0.8634500000000001
 20
2.5673700000000004
 30
0.0
 10
-0.8405900000000001
 20
2.8112100000000004
 30
0.0
 10
-0.8405900000000001
 20
2.8112100000000004
 30
0.0
 10
-0.8405900000000001
 20
2.8112100000000004
 30
0.0
 10
-0.6627900000000001
 20
3.1795100000000001
 30
0.0
 10
-0.6627900000000001
 20
3.1795100000000001
 30
0.0
 10
-0.6627900000000001
 20
3.1795100000000001
 30
0.0
 10
-0.7288300000000001
 20
3.1261700000000001
 30
0.0
 10
-0.9244100000000001
 20
2.9483700000000002
 30
0.0
 10
-0.9066300000000001
 20
3.1388700000000003
 30
0.0
 10
-0.9066300000000001
 20
3.1388700000000003
 30
0.0
 10
-1.03617
 20
3.0575900000000003
 30
0.0
 10
-1.16571
 20
2.9077300000000004
 30
0.0
 10
-1.3104900000000002
 20
2.9077300000000004
 30
0.0
 10
-1.3104900000000002
 20
2.9077300000000004
 30
0.0
 10
-1.0717300000000001
 20
3.2760300000000004
 30
0.0
 10
-0.7745500000000001
 20
3.6849700000000003
 30
0.0
 10
-0.78217
 20
4.16249
 30
0.0
  0
SPLINE
  5
2C
100
AcDbEntity
  8
���� 1
 62
     7
100
AcDbSpline
210
0.0
220
0.0
230
1.0
 70
     1
 71
     3
 72
    12
 73
     8
 74
     0
 42
0.0000000001
 43
0.0000000001
 40
0.0
 40
0.0
 40
0.0
 40
0.0
 40
0.5
 40
0.5
 40
0.5
 40
0.5
 40
1.0
 40
1.0
 40
1.0
 40
1.0
 10
-4.1121100000000004
 20
4.0405700000000007
 30
0.0
 10
-4.0740100000000004
 20
4.0126300000000006
 30
0.0
 10
-4.0333700000000006
 20
3.9440500000000003
 30
0.0
 10
-4.0689299999999999
 20
3.9034100000000005
 30
0.0
 10
-4.0689299999999999
 20
3.9034100000000005
 30
0.0
 10
-4.1044900000000002
 20
3.9313500000000001
 30
0.0
 10
-4.1171899999999999
 20
3.9973900000000002
 30
0.0
 10
-4.1121100000000004
 20
4.0405700000000007
 30
0.0
  0
SPLINE
  5
2D
100
AcDbEntity
  8
���� 1
 62
     7
100
AcDbSpline
210
0.0
220
0.0
230
1.0
 70
     1
 71
     3
 72
    12
 73
     8
 74
     0
 42
0.0000000001
 43
0.0000000001
 40
0.0
 40
0.0
 40
0.0
 40
0.0
 40
0.5
 40
0.5
 40
0.5
 40
0.5
 40
1.0
 40
1.0
 40
1.0
 40
1.0
 10
-3.9749500000000002
 20
3.9313500000000001
 30
0.0
 10
-3.8987500000000002
 20
3.8627700000000003
 30
0.0
 10
-3.8835100000000002
 20
3.7129100000000004
 30
0.0
 10
-3.9698700000000002
 20
3.6290900000000001
 30
0.0
 10
-3.9698700000000002
 20
3.6290900000000001
 30
0.0
 10
-3.9698700000000002
 20
3.6290900000000001
 30
0.0
 10
-3.9749500000000002
 20
3.9313500000000001
 30
0.0
 10
-3.9749500000000002
 20
3.9313500000000001
 30
0.0
  0
SPLINE
  5
2E
100
AcDbEntity
  8
���� 1
 62
     7
100
AcDbSpline
210
0.0
220
0.0
230
1.0
 70
     1
 71
     3
 72
    12
 73
     8
 74
     0
 42
0.0000000001
 43
0.0000000001
 40
0.0
 40
0.0
 40
0.0
 40
0.0
 40
0.5
 40
0.5
 40
0.5
 40
0.5
 40
1.0
 40
1.0
 40
1.0
 40
1.0
 10
-4.2340300000000006
 20
3.7941900000000004
 30
0.0
 10
-4.1806900000000002
 20
3.7941900000000004
 30
0.0
 10
-4.1984700000000004
 20
3.6722700000000001
 30
0.0
 10
-4.2568900000000003
 20
3.6849700000000003
 30
0.0
 10
-4.2568900000000003
 20
3.6849700000000003
 30
0.0
 10
-4.2568900000000003
 20
3.6849700000000003
 30
0.0
 10
-4.2340300000000006
 20
3.7941900000000004
 30
0.0
 10
-4.2340300000000006
 20
3.7941900000000004
 30
0.0
  0
SPLINE
  5
2F
100
AcDbEntity
  8
���� 1
 62
     7
100
AcDbSpline
210
0.0
220
0.0
230
1.0
 70
     1
 71
     3
 72
    24
 73
    20
 74
     0
 42
0.0000000001
 43
0.0000000001
 40
0.0
 40
0.0
 40
0.0
 40
0.0
 40
0.2
 40
0.2
 40
0.2
 40
0.2
 40
0.4
 40
0.4
 40
0.4
 40
0.4
 40
0.6000000000000001
 40
0.6000000000000001
 40
0.6000000000000001
 40
0.6000000000000001
 40
0.8
 40
0.8
 40
0.8
 40
0.8
 40
1.0
 40
1.0
 40
1.0
 40
1.0
 10
0.42686
 20
3.3293700000000004
 30
0.0
 10
0.4802
 20
3.1668100000000003
 30
0.0
 10
0.46496
 20
2.9890100000000004
 30
0.0
 10
0.44718
 20
2.8112100000000004
 30
0.0
 10
0.44718
 20
2.8112100000000004
 30
0.0
 10
0.44718
 20
2.8112100000000004
 30
0.0
 10
0.6707000000000001
 20
2.6486500000000004
 30
0.0
 10
0.6707000000000001
 20
2.6486500000000004
 30
0.0
 10
0.6707000000000001
 20
2.6486500000000004
 30
0.0
 10
0.6707000000000001
 20
2.6486500000000004
 30
0.0
 10
0.658
 20
2.5673700000000004
 30
0.0
 10
0.658
 20
2.5673700000000004
 30
0.0
 10
0.658
 20
2.5673700000000004
 30
0.0
 10
0.48528
 20
2.55213
 30
0.0
 10
0.3024
 20
2.6080100000000002
 30
0.0
 10
0.22366
 20
2.7705700000000002
 30
0.0
 10
0.22366
 20
2.7705700000000002
 30
0.0
 10
0.22366
 20
2.7705700000000002
 30
0.0
 10
0.42686
 20
3.3293700000000004
 30
0.0
 10
0.42686
 20
3.3293700000000004
 30
0.0
  0
SPLINE
  5
30
100
AcDbEntity
  8
���� 1
 62
     7
100
AcDbSpline
210
0.0
220
0.0
230
1.0
 70
     1
 71
     3
 72
    28
 73
    24
 74
     0
 42
0.0000000001
 43
0.0000000001
 40
0.0
 40
0.0
 40
0.0
 40
0.0
 40
0.1666666666666667
 40
0.1666666666666667
 40
0.1666666666666667
 40
0.1666666666666667
 40
0.3333333333333333
 40
0.3333333333333333
 40
0.3333333333333333
 40
0.3333333333333333
 40
0.5
 40
0.5
 40
0.5
 40
0.5
 40
0.6666666666666666
 40
0.6666666666666666
 40
0.6666666666666666
 40
0.6666666666666666
 40
0.8333333333333333
 40
0.8333333333333333
 40
0.8333333333333333
 40
0.8333333333333333
 40
1.0
 40
1.0
 40
1.0
 40
1.0
 10
3.0049600000000001
 20
3.0296500000000002
 30
0.0
 10
3.1218000000000004
 20
2.8670900000000001
 30
0.0
 10
3.1243400000000001
 20
2.5800700000000001
 30
0.0
 10
2.9414600000000002
 20
2.4581500000000003
 30
0.0
 10
2.9414600000000002
 20
2.4581500000000003
 30
0.0
 10
2.9414600000000002
 20
2.4581500000000003
 30
0.0
 10
3.0176600000000002
 20
2.5800700000000001
 30
0.0
 10
3.0176600000000002
 20
2.5800700000000001
 30
0.0
 10
3.0176600000000002
 20
2.5800700000000001
 30
0.0
 10
3.0252800000000004
 20
2.6359500000000002
 30
0.0
 10
3.0938600000000003
 20
2.75787
 30
0.0
 10
3.01004
 20
2.7705700000000002
 30
0.0
 10
3.01004
 20
2.7705700000000002
 30
0.0
 10
2.9821000000000004
 20
2.7172300000000003
 30
0.0
 10
2.9592400000000003
 20
2.6359500000000002
 30
0.0
 10
2.8881200000000002
 20
2.6359500000000002
 30
0.0
 10
2.8881200000000002
 20
2.6359500000000002
 30
0.0
 10
2.8881200000000002
 20
2.6359500000000002
 30
0.0
 10
2.8424
 20
2.7985100000000003
 30
0.0
 10
2.8424
 20
2.7985100000000003
 30
0.0
 10
2.8424
 20
2.7985100000000003
 30
0.0
 10
2.9262200000000003
 20
2.8391500000000001
 30
0.0
 10
2.9973400000000003
 20
2.9483700000000002
 30
0.0
 10
3.0049600000000001
 20
3.0296500000000002
 30
0.0
  0
SPLINE
  5
31
100
AcDbEntity
  8
���� 1
 62
     7
100
AcDbSpline
210
0.0
220
0.0
230
1.0
 70
     1
 71
     3
 72
    16
 73
    12
 74
     0
 42
0.0000000001
 43
0.0000000001
 40
0.0
 40
0.0
 40
0.0
 40
0.0
 40
0.3333333333333333
 40
0.3333333333333333
 40
0.3333333333333333
 40
0.3333333333333333
 40
0.6666666666666666
 40
0.6666666666666666
 40
0.6666666666666666
 40
0.6666666666666666
 40
1.0
 40
1.0
 40
1.0
 40
1.0
 10
0.0738
 20
2.8264500000000004
 30
0.0
 10
0.0865
 20
2.8264500000000004
 30
0.0
 10
0.0992
 20
2.8112100000000004
 30
0.0
 10
0.10174
 20
2.7985100000000003
 30
0.0
 10
0.10174
 20
2.7985100000000003
 30
0.0
 10
0.03062
 20
2.5394300000000003
 30
0.0
 10
0.3252600000000001
 20
2.5114900000000002
 30
0.0
 10
0.4548
 20
2.3895700000000004
 30
0.0
 10
0.4548
 20
2.3895700000000004
 30
0.0
 10
0.27192
 20
2.4022700000000001
 30
0.0
 10
-0.03287
 20
2.5927700000000002
 30
0.0
 10
0.0738
 20
2.8264500000000004
 30
0.0
  0
SPLINE
  5
32
100
AcDbEntity
  8
���� 1
 62
     7
100
AcDbSpline
210
0.0
220
0.0
230
1.0
 70
     1
 71
     3
 72
    32
 73
    28
 74
     0
 42
0.0000000001
 43
0.0000000001
 40
0.0
 40
0.0
 40
0.0
 40
0.0
 40
0.1428571428571429
 40
0.1428571428571429
 40
0.1428571428571429
 40
0.1428571428571429
 40
0.2857142857142857
 40
0.2857142857142857
 40
0.2857142857142857
 40
0.2857142857142857
 40
0.4285714285714286
 40
0.4285714285714286
 40
0.4285714285714286
 40
0.4285714285714286
 40
0.5714285714285714
 40
0.5714285714285714
 40
0.5714285714285714
 40
0.5714285714285714
 40
0.7142857142857142
 40
0.7142857142857142
 40
0.7142857142857142
 40
0.7142857142857142
 40
0.857142857142857
 40
0.857142857142857
 40
0.857142857142857
 40
0.857142857142857
 40
1.0
 40
1.0
 40
1.0
 40
1.0
 10
-5.0925500000000001
 20
2.7451700000000003
 30
0.0
 10
-5.3821100000000008
 20
2.4860900000000004
 30
0.0
 10
-5.6513500000000008
 20
2.0898500000000002
 30
0.0
 10
-5.5395900000000005
 20
1.6529700000000001
 30
0.0
 10
-5.5395900000000005
 20
1.6529700000000001
 30
0.0
 10
-5.3541700000000008
 20
1.22879
 30
0.0
 10
-4.8055300000000001
 20
1.3532500000000001
 30
0.0
 10
-4.5642300000000002
 20
1.6402700000000001
 30
0.0
 10
-4.5642300000000002
 20
1.6402700000000001
 30
0.0
 10
-4.5972500000000007
 20
1.5437500000000002
 30
0.0
 10
-4.6937700000000007
 20
1.4624700000000002
 30
0.0
 10
-4.7674300000000001
 20
1.3811900000000001
 30
0.0
 10
-4.7674300000000001
 20
1.3811900000000001
 30
0.0
 10
-4.7674300000000001
 20
1.3811900000000001
 30
0.0
 10
-4.8233100000000002
 20
1.3253100000000002
 30
0.0
 10
-4.8233100000000002
 20
1.3253100000000002
 30
0.0
 10
-4.8233100000000002
 20
1.3253100000000002
 30
0.0
 10
-5.1382700000000003
 20
1.1754500000000001
 30
0.0
 10
-5.5751500000000007
 20
1.2440300000000002
 30
0.0
 10
-5.7478700000000007
 20
1.5843900000000002
 30
0.0
 10
-5.7478700000000007
 20
1.5843900000000002
 30
0.0
 10
-5.8494700000000002
 20
2.0365100000000003
 30
0.0
 10
-5.5599100000000004
 20
2.4429100000000004
 30
0.0
 10
-5.2017700000000007
 20
2.6867500000000004
 30
0.0
 10
-5.2017700000000007
 20
2.6867500000000004
 30
0.0
 10
-5.1712900000000008
 20
2.7070700000000003
 30
0.0
 10
-5.0874700000000006
 20
2.80613
 30
0.0
 10
-5.0925500000000001
 20
2.7451700000000003
 30
0.0
  0
SPLINE
  5
33
100
AcDbEntity
  8
���� 1
100
AcDbSpline
210
0.0
220
0.0
230
1.0
 70
     1
 71
     3
 72
    64
 73
    60
 74
     0
 42
0.0000000001
 43
0.0000000001
 40
0.0
 40
0.0
 40
0.0
 40
0.0
 40
0.0666666666666667
 40
0.0666666666666667
 40
0.0666666666666667
 40
0.0666666666666667
 40
0.1333333333333333
 40
0.1333333333333333
 40
0.1333333333333333
 40
0.1333333333333333
 40
0.2
 40
0.2
 40
0.2
 40
0.2
 40
0.2666666666666667
 40
0.2666666666666667
 40
0.2666666666666667
 40
0.2666666666666667
 40
0.3333333333333333
 40
0.3333333333333333
 40
0.3333333333333333
 40
0.3333333333333333
 40
0.4
 40
0.4
 40
0.4
 40
0.4
 40
0.4666666666666666
 40
0.4666666666666666
 40
0.4666666666666666
 40
0.4666666666666666
 40
0.5333333333333333
 40
0.5333333333333333
 40
0.5333333333333333
 40
0.5333333333333333
 40
0.6
 40
0.6
 40
0.6
 40
0.6
 40
0.6666666666666666
 40
0.6666666666666666
 40
0.6666666666666666
 40
0.6666666666666666
 40
0.7333333333333333
 40
0.7333333333333333
 40
0.7333333333333333
 40
0.7333333333333333
 40
0.7999999999999999
 40
0.7999999999999999
 40
0.7999999999999999
 40
0.7999999999999999
 40
0.8666666666666666
 40
0.8666666666666666
 40
0.8666666666666666
 40
0.8666666666666666
 40
0.9333333333333332
 40
0.9333333333333332
 40
0.9333333333333332
 40
0.9333333333333332
 40
1.0
 40
1.0
 40
1.0
 40
1.0
 10
1.06694
 20
2.22193
 30
0.0
 10
1.27014
 20
2.3870300000000002
 30
0.0
 10
1.3717400000000002
 20
2.5699100000000001
 30
0.0
 10
1.56986
 20
2.7451700000000003
 30
0.0
 10
1.56986
 20
2.7451700000000003
 30
0.0
 10
1.5470000000000002
 20
2.6486500000000004
 30
0.0
 10
1.3768200000000002
 20
2.1990700000000003
 30
0.0
 10
1.5978000000000001
 20
2.3336900000000003
 30
0.0
 10
1.5978000000000001
 20
2.3336900000000003
 30
0.0
 10
1.8822800000000002
 20
2.4987900000000001
 30
0.0
 10
1.5851000000000002
 20
2.13049
 30
0.0
 10
1.4555600000000002
 20
2.0898500000000002
 30
0.0
 10
1.4555600000000002
 20
2.0898500000000002
 30
0.0
 10
1.4250800000000001
 20
2.04921
 30
0.0
 10
1.3819000000000001
 20
2.04921
 30
0.0
 10
1.3412600000000001
 20
2.0619100000000001
 30
0.0
 10
1.3412600000000001
 20
2.0619100000000001
 30
0.0
 10
1.2193400000000001
 20
2.0746100000000003
 30
0.0
 10
1.4377800000000001
 20
2.29305
 30
0.0
 10
1.3793600000000001
 20
2.3895700000000004
 30
0.0
 10
1.3793600000000001
 20
2.3895700000000004
 30
0.0
 10
1.2574400000000001
 20
2.3336900000000003
 30
0.0
 10
1.2396600000000002
 20
1.9247500000000002
 30
0.0
 10
1.11012
 20
2.13049
 30
0.0
 10
1.11012
 20
2.13049
 30
0.0
 10
1.11012
 20
2.13049
 30
0.0
 10
1.0466200000000001
 20
2.0898500000000002
 30
0.0
 10
1.0466200000000001
 20
2.0898500000000002
 30
0.0
 10
1.0466200000000001
 20
2.0898500000000002
 30
0.0
 10
1.1990200000000002
 20
1.9196700000000002
 30
0.0
 10
1.0059800000000001
 20
1.9730100000000002
 30
0.0
 10
0.8612000000000001
 20
1.9196700000000002
 30
0.0
 10
0.8612000000000001
 20
1.9196700000000002
 30
0.0
 10
0.8205600000000001
 20
1.9069700000000001
 30
0.0
 10
0.8434200000000001
 20
1.8256900000000003
 30
0.0
 10
0.7469
 20
1.8434700000000002
 30
0.0
 10
0.7469
 20
1.8434700000000002
 30
0.0
 10
0.8408800000000001
 20
1.9653900000000002
 30
0.0
 10
0.6021200000000001
 20
2.2397100000000001
 30
0.0
 10
0.7697600000000001
 20
2.2524100000000002
 30
0.0
 10
0.7697600000000001
 20
2.2524100000000002
 30
0.0
 10
0.7697600000000001
 20
2.2524100000000002
 30
0.0
 10
0.7748400000000001
 20
2.1558900000000003
 30
0.0
 10
0.7748400000000001
 20
2.1558900000000003
 30
0.0
 10
0.7748400000000001
 20
2.1558900000000003
 30
0.0
 10
0.7748400000000001
 20
2.1558900000000003
 30
0.0
 10
1.1355200000000001
 20
2.5927700000000002
 30
0.0
 10
1.1355200000000001
 20
2.5927700000000002
 30
0.0
 10
1.1355200000000001
 20
2.5927700000000002
 30
0.0
 10
1.1355200000000001
 20
2.5927700000000002
 30
0.0
 10
1.0796400000000002
 20
2.4429100000000004
 30
0.0
 10
1.0796400000000002
 20
2.4429100000000004
 30
0.0
 10
1.0796400000000002
 20
2.4429100000000004
 30
0.0
 10
1.0440800000000001
 20
2.3819500000000002
 30
0.0
 10
1.0059800000000001
 20
2.3133700000000004
 30
0.0
 10
0.9983600000000001
 20
2.2422500000000003
 30
0.0
 10
0.9983600000000001
 20
2.2422500000000003
 30
0.0
 10
0.9856600000000001
 20
2.13557
 30
0.0
 10
0.9856600000000001
 20
2.1558900000000003
 30
0.0
 10
1.06694
 20
2.22193
 30
0.0
  0
SPLINE
  5
34
100
AcDbEntity
  8
���� 1
100
AcDbSpline
210
0.0
220
0.0
230
1.0
 70
     1
 71
     3
 72
    24
 73
    20
 74
     0
 42
0.0000000001
 43
0.0000000001
 40
0.0
 40
0.0
 40
0.0
 40
0.0
 40
0.2
 40
0.2
 40
0.2
 40
0.2
 40
0.4
 40
0.4
 40
0.4
 40
0.4
 40
0.6000000000000001
 40
0.6000000000000001
 40
0.6000000000000001
 40
0.6000000000000001
 40
0.8
 40
0.8
 40
0.8
 40
0.8
 40
1.0
 40
1.0
 40
1.0
 40
1.0
 10
2.4055200000000001
 20
2.6486500000000004
 30
0.0
 10
2.5299800000000001
 20
2.5800700000000001
 30
0.0
 10
2.5096600000000002
 20
2.4022700000000001
 30
0.0
 10
2.4918800000000001
 20
2.2803500000000003
 30
0.0
 10
2.4918800000000001
 20
2.2803500000000003
 30
0.0
 10
2.54522
 20
2.2803500000000003
 30
0.0
 10
2.5909400000000002
 20
2.3768700000000003
 30
0.0
 10
2.6493600000000002
 20
2.3209900000000001
 30
0.0
 10
2.6493600000000002
 20
2.3209900000000001
 30
0.0
 10
2.63666
 20
2.1838300000000004
 30
0.0
 10
2.4766400000000002
 20
2.0619100000000001
 30
0.0
 10
2.3420200000000002
 20
2.04921
 30
0.0
 10
2.3420200000000002
 20
2.04921
 30
0.0
 10
2.3420200000000002
 20
2.04921
 30
0.0
 10
2.3242400000000001
 20
2.1177900000000003
 30
0.0
 10
2.3242400000000001
 20
2.1177900000000003
 30
0.0
 10
2.3242400000000001
 20
2.1177900000000003
 30
0.0
 10
2.4233000000000002
 20
2.2803500000000003
 30
0.0
 10
2.3750400000000003
 20
2.4987900000000001
 30
0.0
 10
2.4055200000000001
 20
2.6486500000000004
 30
0.0
  0
SPLINE
  5
35
100
AcDbEntity
  8
���� 1
100
AcDbSpline
210
0.0
220
0.0
230
1.0
 70
     1
 71
     3
 72
    56
 73
    52
 74
     0
 42
0.0000000001
 43
0.0000000001
 40
0.0
 40
0.0
 40
0.0
 40
0.0
 40
0.0769230769230769
 40
0.0769230769230769
 40
0.0769230769230769
 40
0.0769230769230769
 40
0.1538461538461539
 40
0.1538461538461539
 40
0.1538461538461539
 40
0.1538461538461539
 40
0.2307692307692308
 40
0.2307692307692308
 40
0.2307692307692308
 40
0.2307692307692308
 40
0.3076923076923077
 40
0.3076923076923077
 40
0.3076923076923077
 40
0.3076923076923077
 40
0.3846153846153846
 40
0.3846153846153846
 40
0.3846153846153846
 40
0.3846153846153846
 40
0.4615384615384616
 40
0.4615384615384616
 40
0.4615384615384616
 40
0.4615384615384616
 40
0.5384615384615386
 40
0.5384615384615386
 40
0.5384615384615386
 40
0.5384615384615386
 40
0.6153846153846154
 40
0.6153846153846154
 40
0.6153846153846154
 40
0.6153846153846154
 40
0.6923076923076923
 40
0.6923076923076923
 40
0.6923076923076923
 40
0.6923076923076923
 40
0.7692307692307692
 40
0.7692307692307692
 40
0.7692307692307692
 40
0.7692307692307692
 40
0.846153846153846
 40
0.846153846153846
 40
0.846153846153846
 40
0.846153846153846
 40
0.9230769230769229
 40
0.9230769230769229
 40
0.9230769230769229
 40
0.9230769230769229
 40
1.0
 40
1.0
 40
1.0
 40
1.0
 10
1.8873600000000001
 20
2.0568300000000002
 30
0.0
 10
1.8873600000000001
 20
2.0568300000000002
 30
0.0
 10
1.8365600000000002
 20
2.0212700000000003
 30
0.0
 10
1.8365600000000002
 20
2.0212700000000003
 30
0.0
 10
1.8365600000000002
 20
2.0212700000000003
 30
0.0
 10
1.56732
 20
1.8714100000000002
 30
0.0
 10
1.9457800000000001
 20
2.3489300000000002
 30
0.0
 10
1.7248000000000001
 20
2.0898500000000002
 30
0.0
 10
1.7248000000000001
 20
2.0898500000000002
 30
0.0
 10
1.6765400000000001
 20
2.04921
 30
0.0
 10
1.5749400000000002
 20
1.9653900000000002
 30
0.0
 10
1.5114400000000001
 20
1.9933300000000003
 30
0.0
 10
1.5114400000000001
 20
1.9933300000000003
 30
0.0
 10
1.65368
 20
2.13049
 30
0.0
 10
1.7959200000000002
 20
2.29305
 30
0.0
 10
1.8645
 20
2.4987900000000001
 30
0.0
 10
1.8645
 20
2.4987900000000001
 30
0.0
 10
1.9711800000000002
 20
2.5114900000000002
 30
0.0
 10
1.9559400000000002
 20
2.3616300000000003
 30
0.0
 10
1.9559400000000002
 20
2.29305
 30
0.0
 10
1.9559400000000002
 20
2.29305
 30
0.0
 10
1.9559400000000002
 20
2.29305
 30
0.0
 10
2.0143600000000004
 20
2.3336900000000003
 30
0.0
 10
2.0143600000000004
 20
2.3336900000000003
 30
0.0
 10
2.0143600000000004
 20
2.3336900000000003
 30
0.0
 10
2.0956400000000004
 20
2.4149700000000003
 30
0.0
 10
2.1439000000000004
 20
2.5114900000000002
 30
0.0
 10
2.1464400000000001
 20
2.6207100000000003
 30
0.0
 10
2.1464400000000001
 20
2.6207100000000003
 30
0.0
 10
2.3217000000000003
 20
2.5114900000000002
 30
0.0
 10
2.0829400000000002
 20
2.2524100000000002
 30
0.0
 10
2.12358
 20
2.1558900000000003
 30
0.0
 10
2.12358
 20
2.1558900000000003
 30
0.0
 10
2.12358
 20
2.1558900000000003
 30
0.0
 10
2.25312
 20
2.2524100000000002
 30
0.0
 10
2.25312
 20
2.2524100000000002
 30
0.0
 10
2.25312
 20
2.2524100000000002
 30
0.0
 10
2.2734400000000003
 20
2.2803500000000003
 30
0.0
 10
2.2963
 20
2.29305
 30
0.0
 10
2.3242400000000001
 20
2.3082900000000004
 30
0.0
 10
2.3242400000000001
 20
2.3082900000000004
 30
0.0
 10
2.3471000000000002
 20
2.13049
 30
0.0
 10
2.08548
 20
1.9526900000000003
 30
0.0
 10
1.8924400000000001
 20
1.9653900000000002
 30
0.0
 10
1.8924400000000001
 20
1.9653900000000002
 30
0.0
 10
1.8924400000000001
 20
1.9653900000000002
 30
0.0
 10
1.9153000000000002
 20
2.0161900000000004
 30
0.0
 10
1.9153000000000002
 20
2.0161900000000004
 30
0.0
 10
1.9153000000000002
 20
2.0161900000000004
 30
0.0
 10
2.0423
 20
2.1482700000000001
 30
0.0
 10
1.9889600000000001
 20
2.12541
 30
0.0
 10
1.8873600000000001
 20
2.0568300000000002
 30
0.0
  0
SPLINE
  5
36
100
AcDbEntity
  8
���� 1
 62
     7
100
AcDbSpline
210
0.0
220
0.0
230
1.0
 70
     1
 71
     3
 72
    12
 73
     8
 74
     0
 42
0.0000000001
 43
0.0000000001
 40
0.0
 40
0.0
 40
0.0
 40
0.0
 40
0.5
 40
0.5
 40
0.5
 40
0.5
 40
1.0
 40
1.0
 40
1.0
 40
1.0
 10
2.9922600000000004
 20
2.1025500000000004
 30
0.0
 10
3.0379800000000001
 20
2.1025500000000004
 30
0.0
 10
3.01004
 20
2.0619100000000001
 30
0.0
 10
2.9897200000000002
 20
2.04921
 30
0.0
 10
2.9897200000000002
 20
2.04921
 30
0.0
 10
2.9516200000000001
 20
2.0619100000000001
 30
0.0
 10
2.9744800000000002
 20
2.0898500000000002
 30
0.0
 10
2.9922600000000004
 20
2.1025500000000004
 30
0.0
  0
SPLINE
  5
37
100
AcDbEntity
  8
���� 1
 62
     7
100
AcDbSpline
210
0.0
220
0.0
230
1.0
 70
     1
 71
     3
 72
    16
 73
    12
 74
     0
 42
0.0000000001
 43
0.0000000001
 40
0.0
 40
0.0
 40
0.0
 40
0.0
 40
0.3333333333333333
 40
0.3333333333333333
 40
0.3333333333333333
 40
0.3333333333333333
 40
0.6666666666666666
 40
0.6666666666666666
 40
0.6666666666666666
 40
0.6666666666666666
 40
1.0
 40
1.0
 40
1.0
 40
1.0
 10
2.9109800000000003
 20
1.9806300000000001
 30
0.0
 10
2.9109800000000003
 20
1.9806300000000001
 30
0.0
 10
2.9490800000000004
 20
1.9806300000000001
 30
0.0
 10
2.9490800000000004
 20
1.9806300000000001
 30
0.0
 10
2.9490800000000004
 20
1.9806300000000001
 30
0.0
 10
2.9490800000000004
 20
1.9806300000000001
 30
0.0
 10
2.8576400000000004
 20
1.8307700000000002
 30
0.0
 10
2.8576400000000004
 20
1.8307700000000002
 30
0.0
 10
2.8576400000000004
 20
1.8307700000000002
 30
0.0
 10
2.8322400000000001
 20
1.8714100000000002
 30
0.0
 10
2.84748
 20
1.9526900000000003
 30
0.0
 10
2.9109800000000003
 20
1.9806300000000001
 30
0.0
  0
SPLINE
  5
38
100
AcDbEntity
  8
���� 1
100
AcDbSpline
210
0.0
220
0.0
230
1.0
 70
     1
 71
     3
 72
    24
 73
    20
 74
     0
 42
0.0000000001
 43
0.0000000001
 40
0.0
 40
0.0
 40
0.0
 40
0.0
 40
0.2
 40
0.2
 40
0.2
 40
0.2
 40
0.4
 40
0.4
 40
0.4
 40
0.4
 40
0.6000000000000001
 40
0.6000000000000001
 40
0.6000000000000001
 40
0.6000000000000001
 40
0.8
 40
0.8
 40
0.8
 40
0.8
 40
1.0
 40
1.0
 40
1.0
 40
1.0
 10
1.1380600000000001
 20
1.9247500000000002
 30
0.0
 10
1.1558400000000002
 20
1.9247500000000002
 30
0.0
 10
1.1761600000000001
 20
1.9247500000000002
 30
0.0
 10
1.18886
 20
1.9120500000000002
 30
0.0
 10
1.18886
 20
1.9120500000000002
 30
0.0
 10
1.2396600000000002
 20
1.7215500000000001
 30
0.0
 10
1.4098400000000002
 20
1.8307700000000002
 30
0.0
 10
1.5165200000000001
 20
1.8841100000000002
 30
0.0
 10
1.5165200000000001
 20
1.8841100000000002
 30
0.0
 10
1.4581000000000002
 20
1.7621900000000001
 30
0.0
 10
1.4504800000000002
 20
1.6402700000000001
 30
0.0
 10
1.4631800000000001
 20
1.49041
 30
0.0
 10
1.4631800000000001
 20
1.49041
 30
0.0
 10
1.4631800000000001
 20
1.49041
 30
0.0
 10
1.3387200000000001
 20
1.6809100000000001
 30
0.0
 10
1.3387200000000001
 20
1.6809100000000001
 30
0.0
 10
1.3387200000000001
 20
1.6809100000000001
 30
0.0
 10
1.2066400000000002
 20
1.61233
 30
0.0
 10
1.1177400000000002
 20
1.8155300000000001
 30
0.0
 10
1.1380600000000001
 20
1.9247500000000002
 30
0.0
  0
SPLINE
  5
39
100
AcDbEntity
  8
���� 1
100
AcDbSpline
210
0.0
220
0.0
230
1.0
 70
     1
 71
     3
 72
    20
 73
    16
 74
     0
 42
0.0000000001
 43
0.0000000001
 40
0.0
 40
0.0
 40
0.0
 40
0.0
 40
0.25
 40
0.25
 40
0.25
 40
0.25
 40
0.5
 40
0.5
 40
0.5
 40
0.5
 40
0.75
 40
0.75
 40
0.75
 40
0.75
 40
1.0
 40
1.0
 40
1.0
 40
1.0
 10
2.6112600000000001
 20
1.8993500000000001
 30
0.0
 10
2.6112600000000001
 20
1.8993500000000001
 30
0.0
 10
2.63666
 20
1.8993500000000001
 30
0.0
 10
2.63666
 20
1.8993500000000001
 30
0.0
 10
2.63666
 20
1.8993500000000001
 30
0.0
 10
2.6087200000000004
 20
1.8028300000000002
 30
0.0
 10
2.4766400000000002
 20
1.8028300000000002
 30
0.0
 10
2.4233000000000002
 20
1.7342500000000001
 30
0.0
 10
2.4233000000000002
 20
1.7342500000000001
 30
0.0
 10
2.4233000000000002
 20
1.7342500000000001
 30
0.0
 10
2.38266
 20
1.8841100000000002
 30
0.0
 10
2.38266
 20
1.8841100000000002
 30
0.0
 10
2.38266
 20
1.8841100000000002
 30
0.0
 10
2.4614000000000003
 20
1.8841100000000002
 30
0.0
 10
2.54522
 20
1.8434700000000002
 30
0.0
 10
2.6112600000000001
 20
1.8993500000000001
 30
0.0
  0
SPLINE
  5
3A
100
AcDbEntity
  8
���� 1
100
AcDbSpline
210
0.0
220
0.0
230
1.0
 70
     1
 71
     3
 72
    24
 73
    20
 74
     0
 42
0.0000000001
 43
0.0000000001
 40
0.0
 40
0.0
 40
0.0
 40
0.0
 40
0.2
 40
0.2
 40
0.2
 40
0.2
 40
0.4
 40
0.4
 40
0.4
 40
0.4
 40
0.6000000000000001
 40
0.6000000000000001
 40
0.6000000000000001
 40
0.6000000000000001
 40
0.8
 40
0.8
 40
0.8
 40
0.8
 40
1.0
 40
1.0
 40
1.0
 40
1.0
 10
2.2429600000000001
 20
1.7621900000000001
 30
0.0
 10
2.2709000000000001
 20
1.7748900000000001
 30
0.0
 10
2.2886800000000003
 20
1.7494900000000002
 30
0.0
 10
2.3064600000000004
 20
1.7342500000000001
 30
0.0
 10
2.3064600000000004
 20
1.7342500000000001
 30
0.0
 10
2.3242400000000001
 20
1.6250300000000002
 30
0.0
 10
2.3471000000000002
 20
1.5031100000000002
 30
0.0
 10
2.2963
 20
1.40659
 30
0.0
 10
2.2963
 20
1.40659
 30
0.0
 10
2.3293200000000001
 20
1.3532500000000001
 30
0.0
 10
2.3039200000000002
 20
1.27197
 30
0.0
 10
2.2556600000000002
 20
1.2440300000000002
 30
0.0
 10
2.2556600000000002
 20
1.2440300000000002
 30
0.0
 10
2.2556600000000002
 20
1.2440300000000002
 30
0.0
 10
2.1591400000000003
 20
1.3659500000000002
 30
0.0
 10
2.1591400000000003
 20
1.3659500000000002
 30
0.0
 10
2.1591400000000003
 20
1.3659500000000002
 30
0.0
 10
2.2632800000000004
 20
1.4751700000000001
 30
0.0
 10
2.2505800000000002
 20
1.6250300000000002
 30
0.0
 10
2.2429600000000001
 20
1.7621900000000001
 30
0.0
  0
SPLINE
  5
3B
100
AcDbEntity
  8
���� 1
100
AcDbSpline
210
0.0
220
0.0
230
1.0
 70
     1
 71
     3
 72
    40
 73
    36
 74
     0
 42
0.0000000001
 43
0.0000000001
 40
0.0
 40
0.0
 40
0.0
 40
0.0
 40
0.1111111111111111
 40
0.1111111111111111
 40
0.1111111111111111
 40
0.1111111111111111
 40
0.2222222222222222
 40
0.2222222222222222
 40
0.2222222222222222
 40
0.2222222222222222
 40
0.3333333333333333
 40
0.3333333333333333
 40
0.3333333333333333
 40
0.3333333333333333
 40
0.4444444444444444
 40
0.4444444444444444
 40
0.4444444444444444
 40
0.4444444444444444
 40
0.5555555555555556
 40
0.5555555555555556
 40
0.5555555555555556
 40
0.5555555555555556
 40
0.6666666666666667
 40
0.6666666666666667
 40
0.6666666666666667
 40
0.6666666666666667
 40
0.7777777777777779
 40
0.7777777777777779
 40
0.7777777777777779
 40
0.7777777777777779
 40
0.8888888888888891
 40
0.8888888888888891
 40
0.8888888888888891
 40
0.8888888888888891
 40
1.0
 40
1.0
 40
1.0
 40
1.0
 10
0.8332600000000001
 20
1.7139300000000002
 30
0.0
 10
0.8942200000000001
 20
1.7901300000000002
 30
0.0
 10
1.06694
 20
1.7291700000000001
 30
0.0
 10
1.1152000000000002
 20
1.6402700000000001
 30
0.0
 10
1.1152000000000002
 20
1.6402700000000001
 30
0.0
 10
1.2447400000000002
 20
1.6656700000000002
 30
0.0
 10
1.3742800000000002
 20
1.4751700000000001
 30
0.0
 10
1.23458
 20
1.4192900000000002
 30
0.0
 10
1.23458
 20
1.4192900000000002
 30
0.0
 10
1.23458
 20
1.4192900000000002
 30
0.0
 10
1.15076
 20
1.5158100000000001
 30
0.0
 10
1.15076
 20
1.5158100000000001
 30
0.0
 10
1.15076
 20
1.5158100000000001
 30
0.0
 10
1.0872600000000001
 20
1.4624700000000002
 30
0.0
 10
0.9805800000000001
 20
1.4624700000000002
 30
0.0
 10
0.9247000000000001
 20
1.53105
 30
0.0
 10
0.9247000000000001
 20
1.53105
 30
0.0
 10
0.9196200000000001
 20
1.49041
 30
0.0
 10
0.9374000000000001
 20
1.44723
 30
0.0
 10
0.9653400000000001
 20
1.40659
 30
0.0
 10
0.9653400000000001
 20
1.40659
 30
0.0
 10
0.9653400000000001
 20
1.40659
 30
0.0
 10
1.1202800000000002
 20
1.3811900000000001
 30
0.0
 10
1.1202800000000002
 20
1.3811900000000001
 30
0.0
 10
1.1202800000000002
 20
1.3811900000000001
 30
0.0
 10
1.1279000000000001
 20
1.3253100000000002
 30
0.0
 10
1.06694
 20
1.3253100000000002
 30
0.0
 10
1.0339200000000002
 20
1.3253100000000002
 30
0.0
 10
1.0339200000000002
 20
1.3253100000000002
 30
0.0
 10
0.89168
 20
1.2084700000000002
 30
0.0
 10
0.7697600000000001
 20
1.4142100000000002
 30
0.0
 10
0.7748400000000001
 20
1.5513700000000001
 30
0.0
 10
0.7748400000000001
 20
1.5513700000000001
 30
0.0
 10
0.7748400000000001
 20
1.5818500000000002
 30
0.0
 10
0.8180200000000001
 20
1.69615
 30
0.0
 10
0.8332600000000001
 20
1.7139300000000002
 30
0.0
  0
SPLINE
  5
3C
100
AcDbEntity
  8
���� 1
100
AcDbSpline
210
0.0
220
0.0
230
1.0
 70
     1
 71
     3
 72
    24
 73
    20
 74
     0
 42
0.0000000001
 43
0.0000000001
 40
0.0
 40
0.0
 40
0.0
 40
0.0
 40
0.2
 40
0.2
 40
0.2
 40
0.2
 40
0.4
 40
0.4
 40
0.4
 40
0.4
 40
0.6000000000000001
 40
0.6000000000000001
 40
0.6000000000000001
 40
0.6000000000000001
 40
0.8
 40
0.8
 40
0.8
 40
0.8
 40
1.0
 40
1.0
 40
1.0
 40
1.0
 10
-1.3155700000000001
 20
1.44723
 30
0.0
 10
-1.29525
 20
1.44723
 30
0.0
 10
-1.2749300000000001
 20
1.44723
 30
0.0
 10
-1.2622300000000002
 20
1.4345300000000001
 30
0.0
 10
-1.2622300000000002
 20
1.4345300000000001
 30
0.0
 10
-1.0691900000000001
 20
1.0128900000000001
 30
0.0
 10
-0.9701300000000001
 20
0.56077
 30
0.0
 10
-0.9904500000000001
 20
0.07055
 30
0.0
 10
-0.9904500000000001
 20
0.07055
 30
0.0
 10
-0.9904500000000001
 20
0.07055
 30
0.0
 10
-1.0920500000000002
 20
-0.02342
 30
0.0
 10
-1.0920500000000002
 20
-0.02342
 30
0.0
 10
-1.0920500000000002
 20
-0.02342
 30
0.0
 10
-1.1072900000000001
 20
-0.15804
 30
0.0
 10
-1.1123700000000001
 20
-0.34854
 30
0.0
 10
-1.1784100000000002
 20
-0.44506
 30
0.0
 10
-1.1784100000000002
 20
-0.44506
 30
0.0
 10
-1.1098300000000001
 20
0.17977
 30
0.0
 10
-1.1377700000000002
 20
0.8350900000000001
 30
0.0
 10
-1.3155700000000001
 20
1.44723
 30
0.0
  0
SPLINE
  5
3D
100
AcDbEntity
  8
���� 1
100
AcDbSpline
210
0.0
220
0.0
230
1.0
 70
     1
 71
     3
 72
    36
 73
    32
 74
     0
 42
0.0000000001
 43
0.0000000001
 40
0.0
 40
0.0
 40
0.0
 40
0.0
 40
0.125
 40
0.125
 40
0.125
 40
0.125
 40
0.25
 40
0.25
 40
0.25
 40
0.25
 40
0.375
 40
0.375
 40
0.375
 40
0.375
 40
0.5
 40
0.5
 40
0.5
 40
0.5
 40
0.625
 40
0.625
 40
0.625
 40
0.625
 40
0.75
 40
0.75
 40
0.75
 40
0.75
 40
0.875
 40
0.875
 40
0.875
 40
0.875
 40
1.0
 40
1.0
 40
1.0
 40
1.0
 10
1.8187800000000001
 20
1.4345300000000001
 30
0.0
 10
1.8975200000000001
 20
1.4624700000000002
 30
0.0
 10
1.8721200000000002
 20
1.3532500000000001
 30
0.0
 10
1.9127600000000002
 20
1.3253100000000002
 30
0.0
 10
1.9127600000000002
 20
1.3253100000000002
 30
0.0
 10
1.9178400000000002
 20
1.40659
 30
0.0
 10
2.0626200000000003
 20
1.3938900000000001
 30
0.0
 10
2.1032600000000001
 20
1.3532500000000001
 30
0.0
 10
2.1032600000000001
 20
1.3532500000000001
 30
0.0
 10
2.1566000000000001
 20
1.2440300000000002
 30
0.0
 10
2.0651600000000001
 20
1.1627500000000002
 30
0.0
 10
1.9965800000000002
 20
1.27197
 30
0.0
 10
1.9965800000000002
 20
1.27197
 30
0.0
 10
1.9965800000000002
 20
1.27197
 30
0.0
 10
1.9203800000000002
 20
1.2160900000000001
 30
0.0
 10
1.9203800000000002
 20
1.2160900000000001
 30
0.0
 10
1.9203800000000002
 20
1.2160900000000001
 30
0.0
 10
1.9203800000000002
 20
1.2160900000000001
 30
0.0
 10
1.9127600000000002
 20
0.8350900000000001
 30
0.0
 10
1.9127600000000002
 20
0.8350900000000001
 30
0.0
 10
1.9127600000000002
 20
0.8350900000000001
 30
0.0
 10
1.8010000000000002
 20
0.8757300000000001
 30
0.0
 10
1.7933800000000002
 20
1.0509900000000001
 30
0.0
 10
1.7908400000000002
 20
1.1627500000000002
 30
0.0
 10
1.7908400000000002
 20
1.1627500000000002
 30
0.0
 10
1.7908400000000002
 20
1.1627500000000002
 30
0.0
 10
1.7756000000000001
 20
1.2567300000000001
 30
0.0
 10
1.7756000000000001
 20
1.2567300000000001
 30
0.0
 10
1.7756000000000001
 20
1.2567300000000001
 30
0.0
 10
1.6105
 20
1.1348100000000001
 30
0.0
 10
1.6917800000000001
 20
1.4192900000000002
 30
0.0
 10
1.8187800000000001
 20
1.4345300000000001
 30
0.0
  0
SPLINE
  5
3E
100
AcDbEntity
  8
���� 1
100
AcDbSpline
210
0.0
220
0.0
230
1.0
 70
     1
 71
     3
 72
    24
 73
    20
 74
     0
 42
0.0000000001
 43
0.0000000001
 40
0.0
 40
0.0
 40
0.0
 40
0.0
 40
0.2
 40
0.2
 40
0.2
 40
0.2
 40
0.4
 40
0.4
 40
0.4
 40
0.4
 40
0.6000000000000001
 40
0.6000000000000001
 40
0.6000000000000001
 40
0.6000000000000001
 40
0.8
 40
0.8
 40
0.8
 40
0.8
 40
1.0
 40
1.0
 40
1.0
 40
1.0
 10
1.27522
 20
1.3532500000000001
 30
0.0
 10
1.27522
 20
1.3532500000000001
 30
0.0
 10
1.3260200000000002
 20
1.3532500000000001
 30
0.0
 10
1.3260200000000002
 20
1.3532500000000001
 30
0.0
 10
1.3260200000000002
 20
1.3532500000000001
 30
0.0
 10
1.3260200000000002
 20
1.3532500000000001
 30
0.0
 10
0.9882000000000001
 20
0.9697100000000001
 30
0.0
 10
0.9882000000000001
 20
0.9697100000000001
 30
0.0
 10
0.9882000000000001
 20
0.9697100000000001
 30
0.0
 10
0.8485
 20
1.02559
 30
0.0
 10
0.7138800000000001
 20
1.18815
 30
0.0
 10
0.8154800000000001
 20
1.3380100000000001
 30
0.0
 10
0.8154800000000001
 20
1.3380100000000001
 30
0.0
 10
0.8154800000000001
 20
1.3380100000000001
 30
0.0
 10
0.8764400000000001
 20
1.27197
 30
0.0
 10
0.8764400000000001
 20
1.27197
 30
0.0
 10
0.8764400000000001
 20
1.27197
 30
0.0
 10
0.9399400000000001
 20
1.0382900000000002
 30
0.0
 10
1.1609200000000002
 20
1.2973700000000001
 30
0.0
 10
1.27522
 20
1.3532500000000001
 30
0.0
  0
SPLINE
  5
3F
100
AcDbEntity
  8
���� 1
100
AcDbSpline
210
0.0
220
0.0
230
1.0
 70
     1
 71
     3
 72
    20
 73
    16
 74
     0
 42
0.0000000001
 43
0.0000000001
 40
0.0
 40
0.0
 40
0.0
 40
0.0
 40
0.25
 40
0.25
 40
0.25
 40
0.25
 40
0.5
 40
0.5
 40
0.5
 40
0.5
 40
0.75
 40
0.75
 40
0.75
 40
0.75
 40
1.0
 40
1.0
 40
1.0
 40
1.0
 10
1.5190600000000001
 20
1.2160900000000001
 30
0.0
 10
1.5190600000000001
 20
1.2160900000000001
 30
0.0
 10
1.65368
 20
1.18815
 30
0.0
 10
1.65368
 20
1.18815
 30
0.0
 10
1.65368
 20
1.18815
 30
0.0
 10
1.48604
 20
0.99765
 30
0.0
 10
1.6155800000000002
 20
0.72587
 30
0.0
 10
1.5317600000000002
 20
0.5074300000000001
 30
0.0
 10
1.5317600000000002
 20
0.5074300000000001
 30
0.0
 10
1.5165200000000001
 20
0.5074300000000001
 30
0.0
 10
1.5038200000000002
 20
0.5074300000000001
 30
0.0
 10
1.4962000000000002
 20
0.5201300000000001
 30
0.0
 10
1.4962000000000002
 20
0.5201300000000001
 30
0.0
 10
1.4504800000000002
 20
0.7538100000000001
 30
0.0
 10
1.3539600000000001
 20
1.0128900000000001
 30
0.0
 10
1.5190600000000001
 20
1.2160900000000001
 30
0.0
  0
SPLINE
  5
40
100
AcDbEntity
  8
���� 1
100
AcDbSpline
210
0.0
220
0.0
230
1.0
 70
     1
 71
     3
 72
    24
 73
    20
 74
     0
 42
0.0000000001
 43
0.0000000001
 40
0.0
 40
0.0
 40
0.0
 40
0.0
 40
0.2
 40
0.2
 40
0.2
 40
0.2
 40
0.4
 40
0.4
 40
0.4
 40
0.4
 40
0.6000000000000001
 40
0.6000000000000001
 40
0.6000000000000001
 40
0.6000000000000001
 40
0.8
 40
0.8
 40
0.8
 40
0.8
 40
1.0
 40
1.0
 40
1.0
 40
1.0
 10
-3.5380700000000003
 20
1.18815
 30
0.0
 10
-3.4872700000000001
 20
1.2033900000000002
 30
0.0
 10
-3.4821900000000001
 20
1.1754500000000001
 30
0.0
 10
-3.4694900000000004
 20
1.1348100000000001
 30
0.0
 10
-3.4694900000000004
 20
1.1348100000000001
 30
0.0
 10
-3.5406100000000005
 20
0.39821
 30
0.0
 10
-3.3018500000000004
 20
-0.3079
 30
0.0
 10
-3.0732500000000003
 20
-0.9759200000000001
 30
0.0
 10
-3.0732500000000003
 20
-0.9759200000000001
 30
0.0
 10
-3.0808700000000004
 20
-1.0724400000000001
 30
0.0
 10
-3.1037300000000001
 20
-1.16642
 30
0.0
 10
-3.1545300000000003
 20
-1.25024
 30
0.0
 10
-3.1545300000000003
 20
-1.25024
 30
0.0
 10
-3.1850100000000001
 20
-1.2350000000000001
 30
0.0
 10
-3.2154900000000004
 20
-1.2223000000000002
 30
0.0
 10
-3.2231100000000001
 20
-1.1816600000000002
 30
0.0
 10
-3.2231100000000001
 20
-1.1816600000000002
 30
0.0
 10
-3.3501100000000004
 20
-0.4044200000000001
 30
0.0
 10
-3.6828500000000002
 20
0.37027
 30
0.0
 10
-3.5380700000000003
 20
1.18815
 30
0.0
  0
SPLINE
  5
41
100
AcDbEntity
  8
���� 1
100
AcDbSpline
210
0.0
220
0.0
230
1.0
 70
     1
 71
     3
 72
    24
 73
    20
 74
     0
 42
0.0000000001
 43
0.0000000001
 40
0.0
 40
0.0
 40
0.0
 40
0.0
 40
0.2
 40
0.2
 40
0.2
 40
0.2
 40
0.4
 40
0.4
 40
0.4
 40
0.4
 40
0.6000000000000001
 40
0.6000000000000001
 40
0.6000000000000001
 40
0.6000000000000001
 40
0.8
 40
0.8
 40
0.8
 40
0.8
 40
1.0
 40
1.0
 40
1.0
 40
1.0
 10
1.3565
 20
0.5201300000000001
 30
0.0
 10
1.5495400000000001
 20
0.46679
 30
0.0
 10
1.7044800000000002
 20
0.30423
 30
0.0
 10
1.9000600000000001
 20
0.26105
 30
0.0
 10
1.9000600000000001
 20
0.26105
 30
0.0
 10
1.7146400000000002
 20
0.20771
 30
0.0
 10
1.5470000000000002
 20
0.34233
 30
0.0
 10
1.3742800000000002
 20
0.37027
 30
0.0
 10
1.3742800000000002
 20
0.37027
 30
0.0
 10
1.2599800000000001
 20
0.28899
 30
0.0
 10
1.2041000000000002
 20
0.07055
 30
0.0
 10
1.3285600000000002
 20
-0.00818
 30
0.0
 10
1.3285600000000002
 20
-0.00818
 30
0.0
 10
1.3361800000000001
 20
-0.03612
 30
0.0
 10
1.3107800000000001
 20
-0.04882
 30
0.0
 10
1.2980800000000001
 20
-0.06152
 30
0.0
 10
1.2980800000000001
 20
-0.06152
 30
0.0
 10
1.0136000000000001
 20
0.01721
 30
0.0
 10
1.1406000000000001
 20
0.42615
 30
0.0
 10
1.3565
 20
0.5201300000000001
 30
0.0
  0
SPLINE
  5
42
100
AcDbEntity
  8
���� 1
 62
     7
100
AcDbSpline
210
0.0
220
0.0
230
1.0
 70
     1
 71
     3
 72
    16
 73
    12
 74
     0
 42
0.0000000001
 43
0.0000000001
 40
0.0
 40
0.0
 40
0.0
 40
0.0
 40
0.3333333333333333
 40
0.3333333333333333
 40
0.3333333333333333
 40
0.3333333333333333
 40
0.6666666666666666
 40
0.6666666666666666
 40
0.6666666666666666
 40
0.6666666666666666
 40
1.0
 40
1.0
 40
1.0
 40
1.0
 10
0.27954
 20
0.32963
 30
0.0
 10
0.36336
 20
0.19247
 30
0.0
 10
0.4090800000000001
 20
-0.04882
 30
0.0
 10
0.30494
 20
-0.19868
 30
0.0
 10
0.30494
 20
-0.19868
 30
0.0
 10
0.29224
 20
-0.19868
 30
0.0
 10
0.27954
 20
-0.18598
 30
0.0
 10
0.27954
 20
-0.17328
 30
0.0
 10
0.27954
 20
-0.17328
 30
0.0
 10
0.3354200000000001
 20
-0.00818
 30
0.0
 10
0.29986
 20
0.16707
 30
0.0
 10
0.27954
 20
0.32963
 30
0.0
  0
SPLINE
  5
43
100
AcDbEntity
  8
���� 1
100
AcDbSpline
210
0.0
220
0.0
230
1.0
 70
     1
 71
     3
 72
    24
 73
    20
 74
     0
 42
0.0000000001
 43
0.0000000001
 40
0.0
 40
0.0
 40
0.0
 40
0.0
 40
0.2
 40
0.2
 40
0.2
 40
0.2
 40
0.4
 40
0.4
 40
0.4
 40
0.4
 40
0.6000000000000001
 40
0.6000000000000001
 40
0.6000000000000001
 40
0.6000000000000001
 40
0.8
 40
0.8
 40
0.8
 40
0.8
 40
1.0
 40
1.0
 40
1.0
 40
1.0
 10
1.4377800000000001
 20
0.26105
 30
0.0
 10
1.5520800000000001
 20
0.30423
 30
0.0
 10
1.61304
 20
0.20771
 30
0.0
 10
1.6740000000000002
 20
0.12643
 30
0.0
 10
1.6740000000000002
 20
0.12643
 30
0.0
 10
1.7171800000000002
 20
0.11119
 30
0.0
 10
1.7527400000000002
 20
0.17977
 30
0.0
 10
1.7425800000000002
 20
0.08325
 30
0.0
 10
1.7425800000000002
 20
0.08325
 30
0.0
 10
1.7832200000000002
 20
0.07055
 30
0.0
 10
1.8391000000000002
 20
0.04261
 30
0.0
 10
1.8035400000000001
 20
-0.00818
 30
0.0
 10
1.8035400000000001
 20
-0.00818
 30
0.0
 10
1.6663800000000002
 20
-0.00818
 30
0.0
 10
1.5317600000000002
 20
0.15183
 30
0.0
 10
1.4149200000000002
 20
0.05785
 30
0.0
 10
1.4149200000000002
 20
0.05785
 30
0.0
 10
1.3539600000000001
 20
0.11119
 30
0.0
 10
1.3666600000000002
 20
0.22041
 30
0.0
 10
1.4377800000000001
 20
0.26105
 30
0.0
  0
SPLINE
  5
44
100
AcDbEntity
  8
���� 1
 62
     7
100
AcDbSpline
210
0.0
220
0.0
230
1.0
 70
     1
 71
     3
 72
    16
 73
    12
 74
     0
 42
0.0000000001
 43
0.0000000001
 40
0.0
 40
0.0
 40
0.0
 40
0.0
 40
0.3333333333333333
 40
0.3333333333333333
 40
0.3333333333333333
 40
0.3333333333333333
 40
0.6666666666666666
 40
0.6666666666666666
 40
0.6666666666666666
 40
0.6666666666666666
 40
1.0
 40
1.0
 40
1.0
 40
1.0
 10
2.13374
 20
-0.37648
 30
0.0
 10
2.2074000000000003
 20
-0.4044200000000001
 30
0.0
 10
2.0575400000000004
 20
-0.473
 30
0.0
 10
2.0423
 20
-0.4044200000000001
 30
0.0
 10
2.0423
 20
-0.4044200000000001
 30
0.0
 10
2.0423
 20
-0.4044200000000001
 30
0.0
 10
2.0753200000000001
 20
-0.4044200000000001
 30
0.0
 10
2.0753200000000001
 20
-0.4044200000000001
 30
0.0
 10
2.0753200000000001
 20
-0.4044200000000001
 30
0.0
 10
2.0753200000000001
 20
-0.4044200000000001
 30
0.0
 10
2.13374
 20
-0.37648
 30
0.0
 10
2.13374
 20
-0.37648
 30
0.0
  0
SPLINE
  5
45
100
AcDbEntity
  8
���� 1
100
AcDbSpline
210
0.0
220
0.0
230
1.0
 70
     1
 71
     3
 72
    44
 73
    40
 74
     0
 42
0.0000000001
 43
0.0000000001
 40
0.0
 40
0.0
 40
0.0
 40
0.0
 40
0.1
 40
0.1
 40
0.1
 40
0.1
 40
0.2
 40
0.2
 40
0.2
 40
0.2
 40
0.3
 40
0.3
 40
0.3
 40
0.3
 40
0.4
 40
0.4
 40
0.4
 40
0.4
 40
0.5
 40
0.5
 40
0.5
 40
0.5
 40
0.6
 40
0.6
 40
0.6
 40
0.6
 40
0.7
 40
0.7
 40
0.7
 40
0.7
 40
0.7999999999999999
 40
0.7999999999999999
 40
0.7999999999999999
 40
0.7999999999999999
 40
0.8999999999999999
 40
0.8999999999999999
 40
0.8999999999999999
 40
0.8999999999999999
 40
1.0
 40
1.0
 40
1.0
 40
1.0
 10
-0.38847
 20
-0.52634
 30
0.0
 10
-0.35799
 20
-0.5136400000000001
 30
0.0
 10
-0.34021
 20
-0.5415800000000001
 30
0.0
 10
-0.3224300000000001
 20
-0.55428
 30
0.0
 10
-0.3224300000000001
 20
-0.55428
 30
0.0
 10
-0.23607
 20
-0.8413000000000001
 30
0.0
 10
-0.37323
 20
-1.16642
 30
0.0
 10
-0.24623
 20
-1.4407400000000001
 30
0.0
 10
-0.24623
 20
-1.4407400000000001
 30
0.0
 10
-0.24623
 20
-1.4407400000000001
 30
0.0
 10
-0.21321
 20
-1.4255000000000002
 30
0.0
 10
-0.21321
 20
-1.4255000000000002
 30
0.0
 10
-0.21321
 20
-1.4255000000000002
 30
0.0
 10
-0.21321
 20
-1.4255000000000002
 30
0.0
 10
-0.19543
 20
-1.4966200000000001
 30
0.0
 10
-0.19543
 20
-1.4966200000000001
 30
0.0
 10
-0.19543
 20
-1.4966200000000001
 30
0.0
 10
-0.25131
 20
-1.5347200000000001
 30
0.0
 10
-0.16749
 20
-1.5779000000000001
 30
0.0
 10
-0.21321
 20
-1.6185400000000001
 30
0.0
 10
-0.21321
 20
-1.6185400000000001
 30
0.0
 10
-0.33005
 20
-1.6185400000000001
 30
0.0
 10
-0.37323
 20
-1.4686800000000002
 30
0.0
 10
-0.38339
 20
-1.37216
 30
0.0
 10
-0.38339
 20
-1.37216
 30
0.0
 10
-0.38339
 20
-1.37216
 30
0.0
 10
-0.40371
 20
-1.2350000000000001
 30
0.0
 10
-0.40371
 20
-1.2350000000000001
 30
0.0
 10
-0.40371
 20
-1.2350000000000001
 30
0.0
 10
-0.40371
 20
-1.2350000000000001
 30
0.0
 10
-0.44435
 20
-1.4255000000000002
 30
0.0
 10
-0.44435
 20
-1.4255000000000002
 30
0.0
 10
-0.44435
 20
-1.4255000000000002
 30
0.0
 10
-0.47483
 20
-1.4407400000000001
 30
0.0
 10
-0.5027700000000001
 20
-1.4255000000000002
 30
0.0
 10
-0.5205500000000001
 20
-1.4001000000000001
 30
0.0
 10
-0.5205500000000001
 20
-1.4001000000000001
 30
0.0
 10
-0.5815100000000001
 20
-1.08514
 30
0.0
 10
-0.39101
 20
-0.82606
 30
0.0
 10
-0.38847
 20
-0.52634
 30
0.0
  0
SPLINE
  5
46
100
AcDbEntity
  8
���� 1
 62
     7
100
AcDbSpline
210
0.0
220
0.0
230
1.0
 70
     1
 71
     3
 72
   132
 73
   128
 74
     0
 42
0.0000000001
 43
0.0000000001
 40
0.0
 40
0.0
 40
0.0
 40
0.0
 40
0.03125
 40
0.03125
 40
0.03125
 40
0.03125
 40
0.0625
 40
0.0625
 40
0.0625
 40
0.0625
 40
0.09375
 40
0.09375
 40
0.09375
 40
0.09375
 40
0.125
 40
0.125
 40
0.125
 40
0.125
 40
0.15625
 40
0.15625
 40
0.15625
 40
0.15625
 40
0.1875
 40
0.1875
 40
0.1875
 40
0.1875
 40
0.21875
 40
0.21875
 40
0.21875
 40
0.21875
 40
0.25
 40
0.25
 40
0.25
 40
0.25
 40
0.28125
 40
0.28125
 40
0.28125
 40
0.28125
 40
0.3125
 40
0.3125
 40
0.3125
 40
0.3125
 40
0.34375
 40
0.34375
 40
0.34375
 40
0.34375
 40
0.375
 40
0.375
 40
0.375
 40
0.375
 40
0.40625
 40
0.40625
 40
0.40625
 40
0.40625
 40
0.4375
 40
0.4375
 40
0.4375
 40
0.4375
 40
0.46875
 40
0.46875
 40
0.46875
 40
0.46875
 40
0.5
 40
0.5
 40
0.5
 40
0.5
 40
0.53125
 40
0.53125
 40
0.53125
 40
0.53125
 40
0.5625
 40
0.5625
 40
0.5625
 40
0.5625
 40
0.59375
 40
0.59375
 40
0.59375
 40
0.59375
 40
0.625
 40
0.625
 40
0.625
 40
0.625
 40
0.65625
 40
0.65625
 40
0.65625
 40
0.65625
 40
0.6875
 40
0.6875
 40
0.6875
 40
0.6875
 40
0.71875
 40
0.71875
 40
0.71875
 40
0.71875
 40
0.75
 40
0.75
 40
0.75
 40
0.75
 40
0.78125
 40
0.78125
 40
0.78125
 40
0.78125
 40
0.8125
 40
0.8125
 40
0.8125
 40
0.8125
 40
0.84375
 40
0.84375
 40
0.84375
 40
0.84375
 40
0.875
 40
0.875
 40
0.875
 40
0.875
 40
0.90625
 40
0.90625
 40
0.90625
 40
0.90625
 40
0.9375
 40
0.9375
 40
0.9375
 40
0.9375
 40
0.96875
 40
0.96875
 40
0.96875
 40
0.96875
 40
1.0
 40
1.0
 40
1.0
 40
1.0
 10
2.4842600000000004
 20
-1.8776200000000001
 30
0.0
 10
2.3064600000000004
 20
-1.7277600000000002
 30
0.0
 10
2.2505800000000002
 20
-1.4128000000000001
 30
0.0
 10
2.1515200000000001
 20
-1.2781800000000001
 30
0.0
 10
2.1515200000000001
 20
-1.2781800000000001
 30
0.0
 10
2.0880200000000002
 20
-1.3874000000000002
 30
0.0
 10
2.1185
 20
-1.5220200000000002
 30
0.0
 10
2.13374
 20
-1.63124
 30
0.0
 10
2.13374
 20
-1.63124
 30
0.0
 10
2.13374
 20
-1.63124
 30
0.0
 10
2.25312
 20
-1.9309600000000002
 30
0.0
 10
2.25312
 20
-1.9309600000000002
 30
0.0
 10
2.25312
 20
-1.9309600000000002
 30
0.0
 10
1.9965800000000002
 20
-1.9589000000000001
 30
0.0
 10
1.8365600000000002
 20
-1.7277600000000002
 30
0.0
 10
1.69686
 20
-1.5626600000000002
 30
0.0
 10
1.69686
 20
-1.5626600000000002
 30
0.0
 10
1.6917800000000001
 20
-1.6464800000000002
 30
0.0
 10
1.7349600000000001
 20
-1.7811000000000001
 30
0.0
 10
1.7908400000000002
 20
-1.8649200000000001
 30
0.0
 10
1.7908400000000002
 20
-1.8649200000000001
 30
0.0
 10
1.8822800000000002
 20
-2.0401800000000003
 30
0.0
 10
1.5012800000000002
 20
-1.8014200000000002
 30
0.0
 10
1.4454
 20
-1.7328400000000002
 30
0.0
 10
1.4454
 20
-1.7328400000000002
 30
0.0
 10
1.4454
 20
-1.7328400000000002
 30
0.0
 10
1.4657200000000001
 20
-1.4813800000000001
 30
0.0
 10
1.4657200000000001
 20
-1.4813800000000001
 30
0.0
 10
1.4657200000000001
 20
-1.4813800000000001
 30
0.0
 10
1.4835
 20
-1.5220200000000002
 30
0.0
 10
1.56986
 20
-1.71252
 30
0.0
 10
1.5927200000000001
 20
-1.5906000000000002
 30
0.0
 10
1.5927200000000001
 20
-1.5906000000000002
 30
0.0
 10
1.5927200000000001
 20
-1.5906000000000002
 30
0.0
 10
1.56986
 20
-1.4255000000000002
 30
0.0
 10
1.56986
 20
-1.4255000000000002
 30
0.0
 10
1.56986
 20
-1.4255000000000002
 30
0.0
 10
1.4098400000000002
 20
-1.16642
 30
0.0
 10
1.9965800000000002
 20
-1.6591800000000001
 30
0.0
 10
1.8924400000000001
 20
-1.4686800000000002
 30
0.0
 10
1.8924400000000001
 20
-1.4686800000000002
 30
0.0
 10
1.7603600000000001
 20
-1.25024
 30
0.0
 10
1.8086200000000001
 20
-0.8413000000000001
 30
0.0
 10
2.05246
 20
-0.7320800000000001
 30
0.0
 10
2.05246
 20
-0.7320800000000001
 30
0.0
 10
2.4283800000000002
 20
-0.8413000000000001
 30
0.0
 10
2.8246200000000004
 20
-0.90988
 30
0.0
 10
3.2081600000000003
 20
-0.9632200000000001
 30
0.0
 10
3.2081600000000003
 20
-0.9632200000000001
 30
0.0
 10
3.1802200000000003
 20
-1.0724400000000001
 30
0.0
 10
2.9313000000000002
 20
-1.00386
 30
0.0
 10
2.9516200000000001
 20
-1.1003800000000001
 30
0.0
 10
2.9516200000000001
 20
-1.1003800000000001
 30
0.0
 10
3.1345000000000001
 20
-1.0724400000000001
 30
0.0
 10
3.3173800000000004
 20
-1.0445
 30
0.0
 10
3.5104200000000003
 20
-1.0445
 30
0.0
 10
3.5104200000000003
 20
-1.0445
 30
0.0
 10
4.1378000000000004
 20
-0.6635000000000001
 30
0.0
 10
4.5899200000000002
 20
-1.33152
 30
0.0
 10
4.9582200000000007
 20
-1.7684000000000002
 30
0.0
 10
4.9582200000000007
 20
-1.7684000000000002
 30
0.0
 10
4.9582200000000007
 20
-1.7684000000000002
 30
0.0
 10
5.2554000000000007
 20
-1.7938000000000001
 30
0.0
 10
5.2554000000000007
 20
-1.7938000000000001
 30
0.0
 10
5.2554000000000007
 20
-1.7938000000000001
 30
0.0
 10
5.2706400000000002
 20
-1.8903200000000002
 30
0.0
 10
5.2427000000000001
 20
-1.8776200000000001
 30
0.0
 10
5.3239800000000006
 20
-1.8649200000000001
 30
0.0
 10
5.3239800000000006
 20
-1.8649200000000001
 30
0.0
 10
5.1055400000000004
 20
-2.1087600000000002
 30
0.0
 10
5.1334800000000005
 20
-2.1240000000000001
 30
0.0
 10
4.7118400000000005
 20
-2.1087600000000002
 30
0.0
 10
4.7118400000000005
 20
-2.1087600000000002
 30
0.0
 10
4.5467400000000007
 20
-2.1087600000000002
 30
0.0
 10
4.6026199999999999
 20
-1.9309600000000002
 30
0.0
 10
4.7524800000000003
 20
-2.0554200000000002
 30
0.0
 10
4.7524800000000003
 20
-2.0554200000000002
 30
0.0
 10
4.7804200000000003
 20
-2.0274800000000002
 30
0.0
 10
4.8337600000000007
 20
-2.0808200000000001
 30
0.0
 10
4.8617000000000008
 20
-2.0401800000000003
 30
0.0
 10
4.8617000000000008
 20
-2.0401800000000003
 30
0.0
 10
4.8210600000000001
 20
-2.01478
 30
0.0
 10
4.8058200000000006
 20
-1.9716000000000002
 30
0.0
 10
4.8058200000000006
 20
-1.9309600000000002
 30
0.0
 10
4.8058200000000006
 20
-1.9309600000000002
 30
0.0
 10
4.4781600000000008
 20
-1.9868400000000002
 30
0.0
 10
3.8660200000000002
 20
-1.4813800000000001
 30
0.0
 10
4.24702
 20
-1.3035800000000002
 30
0.0
 10
4.24702
 20
-1.3035800000000002
 30
0.0
 10
4.3283000000000005
 20
-1.1816600000000002
 30
0.0
 10
4.0158800000000001
 20
-1.2223000000000002
 30
0.0
 10
3.9473000000000003
 20
-1.1130800000000001
 30
0.0
 10
3.9473000000000003
 20
-1.1130800000000001
 30
0.0
 10
3.8533200000000005
 20
-1.16642
 30
0.0
 10
3.9879400000000005
 20
-1.2629400000000002
 30
0.0
 10
3.9879400000000005
 20
-1.33152
 30
0.0
 10
3.9879400000000005
 20
-1.33152
 30
0.0
 10
3.8380800000000002
 20
-1.3594600000000001
 30
0.0
 10
3.4469200000000004
 20
-1.4534400000000001
 30
0.0
 10
3.6856800000000005
 20
-1.2629400000000002
 30
0.0
 10
3.6856800000000005
 20
-1.2629400000000002
 30
0.0
 10
3.5155000000000003
 20
-1.2096
 30
0.0
 10
3.4215200000000001
 20
-1.4128000000000001
 30
0.0
 10
3.2818200000000002
 20
-1.4001000000000001
 30
0.0
 10
3.2818200000000002
 20
-1.4001000000000001
 30
0.0
 10
3.2157800000000001
 20
-1.2629400000000002
 30
0.0
 10
3.0608400000000002
 20
-1.6033000000000002
 30
0.0
 10
3.1268800000000003
 20
-1.71252
 30
0.0
 10
3.1268800000000003
 20
-1.71252
 30
0.0
 10
2.9948000000000001
 20
-1.7404600000000001
 30
0.0
 10
3.0125800000000003
 20
-1.5347200000000001
 30
0.0
 10
2.9135200000000001
 20
-1.5499600000000002
 30
0.0
 10
2.9135200000000001
 20
-1.5499600000000002
 30
0.0
 10
2.8373200000000001
 20
-1.63124
 30
0.0
 10
2.9795600000000002
 20
-1.71252
 30
0.0
 10
2.9770200000000004
 20
-1.7938000000000001
 30
0.0
 10
2.9770200000000004
 20
-1.7938000000000001
 30
0.0
 10
2.8576400000000004
 20
-1.7684000000000002
 30
0.0
 10
2.7662000000000004
 20
-1.6591800000000001
 30
0.0
 10
2.7433400000000003
 20
-1.5347200000000001
 30
0.0
 10
2.7433400000000003
 20
-1.5347200000000001
 30
0.0
 10
2.6138000000000003
 20
-1.5499600000000002
 30
0.0
 10
2.7230200000000004
 20
-1.7277600000000002
 30
0.0
 10
2.7306400000000002
 20
-1.8090400000000002
 30
0.0
 10
2.7306400000000002
 20
-1.8090400000000002
 30
0.0
 10
2.6036400000000004
 20
-1.7480800000000001
 30
0.0
 10
2.2404200000000003
 20
-1.16388
 30
0.0
 10
2.4842600000000004
 20
-1.8776200000000001
 30
0.0
  0
SPLINE
  5
47
100
AcDbEntity
  8
���� 1
 62
     7
100
AcDbSpline
210
0.0
220
0.0
230
1.0
 70
     1
 71
     3
 72
    60
 73
    56
 74
     0
 42
0.0000000001
 43
0.0000000001
 40
0.0
 40
0.0
 40
0.0
 40
0.0
 40
0.0714285714285714
 40
0.0714285714285714
 40
0.0714285714285714
 40
0.0714285714285714
 40
0.1428571428571429
 40
0.1428571428571429
 40
0.1428571428571429
 40
0.1428571428571429
 40
0.2142857142857143
 40
0.2142857142857143
 40
0.2142857142857143
 40
0.2142857142857143
 40
0.2857142857142857
 40
0.2857142857142857
 40
0.2857142857142857
 40
0.2857142857142857
 40
0.3571428571428571
 40
0.3571428571428571
 40
0.3571428571428571
 40
0.3571428571428571
 40
0.4285714285714285
 40
0.4285714285714285
 40
0.4285714285714285
 40
0.4285714285714285
 40
0.4999999999999999
 40
0.4999999999999999
 40
0.4999999999999999
 40
0.4999999999999999
 40
0.5714285714285713
 40
0.5714285714285713
 40
0.5714285714285713
 40
0.5714285714285713
 40
0.6428571428571427
 40
0.6428571428571427
 40
0.6428571428571427
 40
0.6428571428571427
 40
0.7142857142857141
 40
0.7142857142857141
 40
0.7142857142857141
 40
0.7142857142857141
 40
0.7857142857142855
 40
0.7857142857142855
 40
0.7857142857142855
 40
0.7857142857142855
 40
0.8571428571428569
 40
0.8571428571428569
 40
0.8571428571428569
 40
0.8571428571428569
 40
0.9285714285714283
 40
0.9285714285714283
 40
0.9285714285714283
 40
0.9285714285714283
 40
1.0
 40
1.0
 40
1.0
 40
1.0
 10
0.70118
 20
-2.2814800000000002
 30
0.0
 10
0.7088000000000001
 20
-2.1290800000000001
 30
0.0
 10
0.68086
 20
-1.9716000000000002
 30
0.0
 10
0.6453000000000001
 20
-1.8217400000000001
 30
0.0
 10
0.6453000000000001
 20
-1.8217400000000001
 30
0.0
 10
0.59958
 20
-1.7684000000000002
 30
0.0
 10
0.5564
 20
-1.8369800000000001
 30
0.0
 10
0.5564
 20
-1.8776200000000001
 30
0.0
 10
0.5564
 20
-1.8776200000000001
 30
0.0
 10
0.5564
 20
-1.8776200000000001
 30
0.0
 10
0.4522600000000001
 20
-1.6591800000000001
 30
0.0
 10
0.4522600000000001
 20
-1.6591800000000001
 30
0.0
 10
0.4522600000000001
 20
-1.6591800000000001
 30
0.0
 10
0.25414
 20
-1.7404600000000001
 30
0.0
 10
0.20334
 20
-1.4813800000000001
 30
0.0
 10
0.0992
 20
-1.3594600000000001
 30
0.0
 10
0.0992
 20
-1.3594600000000001
 30
0.0
 10
0.0738
 20
-1.5093200000000002
 30
0.0
 10
0.07888
 20
-1.6033000000000002
 30
0.0
 10
-0.02017
 20
-1.4001000000000001
 30
0.0
 10
-0.02017
 20
-1.4001000000000001
 30
0.0
 10
0.023
 20
-1.1537200000000001
 30
0.0
 10
0.19318
 20
-0.9225800000000001
 30
0.0
 10
0.3913
 20
-0.7727200000000001
 30
0.0
 10
0.3913
 20
-0.7727200000000001
 30
0.0
 10
0.3913
 20
-0.7727200000000001
 30
0.0
 10
0.47004
 20
-0.8540000000000001
 30
0.0
 10
0.47004
 20
-0.8540000000000001
 30
0.0
 10
0.47004
 20
-0.8540000000000001
 30
0.0
 10
1.27014
 20
-0.8819400000000001
 30
0.0
 10
1.3946000000000001
 20
-1.7938000000000001
 30
0.0
 10
1.23458
 20
-2.4211800000000001
 30
0.0
 10
1.23458
 20
-2.4211800000000001
 30
0.0
 10
1.2066400000000002
 20
-2.5583400000000003
 30
0.0
 10
1.2803000000000002
 20
-2.7082000000000002
 30
0.0
 10
1.23458
 20
-2.8326600000000002
 30
0.0
 10
1.23458
 20
-2.8326600000000002
 30
0.0
 10
1.1990200000000002
 20
-2.9825200000000001
 30
0.0
 10
1.40476
 20
-3.0638000000000001
 30
0.0
 10
1.3260200000000002
 20
-3.2136600000000004
 30
0.0
 10
1.3260200000000002
 20
-3.2136600000000004
 30
0.0
 10
1.06948
 20
-3.3508200000000001
 30
0.0
 10
0.80786
 20
-3.3762200000000004
 30
0.0
 10
0.5640200000000001
 20
-3.2009600000000002
 30
0.0
 10
0.5640200000000001
 20
-3.2009600000000002
 30
0.0
 10
0.55386
 20
-3.1450800000000001
 30
0.0
 10
0.6300600000000001
 20
-3.1857200000000003
 30
0.0
 10
0.6326000000000001
 20
-3.1450800000000001
 30
0.0
 10
0.6326000000000001
 20
-3.1450800000000001
 30
0.0
 10
0.55386
 20
-2.9647400000000004
 30
0.0
 10
0.57164
 20
-2.7666200000000001
 30
0.0
 10
0.6300600000000001
 20
-2.57104
 30
0.0
 10
0.6300600000000001
 20
-2.57104
 30
0.0
 10
0.6884800000000001
 20
-2.3805400000000003
 30
0.0
 10
0.6935600000000001
 20
-2.48468
 30
0.0
 10
0.70118
 20
-2.2814800000000002
 30
0.0
  0
SPLINE
  5
48
100
AcDbEntity
  8
���� 1
 62
     7
100
AcDbSpline
210
0.0
220
0.0
230
1.0
 70
     1
 71
     3
 72
    16
 73
    12
 74
     0
 42
0.0000000001
 43
0.0000000001
 40
0.0
 40
0.0
 40
0.0
 40
0.0
 40
0.3333333333333333
 40
0.3333333333333333
 40
0.3333333333333333
 40
0.3333333333333333
 40
0.6666666666666666
 40
0.6666666666666666
 40
0.6666666666666666
 40
0.6666666666666666
 40
1.0
 40
1.0
 40
1.0
 40
1.0
 10
1.69686
 20
-0.7981200000000001
 30
0.0
 10
1.69686
 20
-0.7981200000000001
 30
0.0
 10
1.7222600000000001
 20
-0.7981200000000001
 30
0.0
 10
1.7222600000000001
 20
-0.7981200000000001
 30
0.0
 10
1.7222600000000001
 20
-0.7981200000000001
 30
0.0
 10
1.7222600000000001
 20
-0.7981200000000001
 30
0.0
 10
1.6409800000000001
 20
-1.0724400000000001
 30
0.0
 10
1.6409800000000001
 20
-1.0724400000000001
 30
0.0
 10
1.6409800000000001
 20
-1.0724400000000001
 30
0.0
 10
1.5800200000000002
 20
-0.99116
 30
0.0
 10
1.6663800000000002
 20
-0.8819400000000001
 30
0.0
 10
1.69686
 20
-0.7981200000000001
 30
0.0
  0
SPLINE
  5
49
100
AcDbEntity
  8
���� 1
100
AcDbSpline
210
0.0
220
0.0
230
1.0
 70
     1
 71
     3
 72
    28
 73
    24
 74
     0
 42
0.0000000001
 43
0.0000000001
 40
0.0
 40
0.0
 40
0.0
 40
0.0
 40
0.1666666666666667
 40
0.1666666666666667
 40
0.1666666666666667
 40
0.1666666666666667
 40
0.3333333333333333
 40
0.3333333333333333
 40
0.3333333333333333
 40
0.3333333333333333
 40
0.5
 40
0.5
 40
0.5
 40
0.5
 40
0.6666666666666666
 40
0.6666666666666666
 40
0.6666666666666666
 40
0.6666666666666666
 40
0.8333333333333333
 40
0.8333333333333333
 40
0.8333333333333333
 40
0.8333333333333333
 40
1.0
 40
1.0
 40
1.0
 40
1.0
 10
0.6046600000000001
 20
-1.1003800000000001
 30
0.0
 10
0.6275200000000001
 20
-1.1130800000000001
 30
0.0
 10
0.66054
 20
-1.1130800000000001
 30
0.0
 10
0.6453000000000001
 20
-1.1537200000000001
 30
0.0
 10
0.6453000000000001
 20
-1.1537200000000001
 30
0.0
 10
0.59196
 20
-1.1943600000000001
 30
0.0
 10
0.55132
 20
-1.25024
 30
0.0
 10
0.52846
 20
-1.3188200000000001
 30
0.0
 10
0.52846
 20
-1.3188200000000001
 30
0.0
 10
0.63514
 20
-1.4534400000000001
 30
0.0
 10
0.7773800000000001
 20
-1.5906000000000002
 30
0.0
 10
0.80786
 20
-1.7811000000000001
 30
0.0
 10
0.80786
 20
-1.7811000000000001
 30
0.0
 10
0.7367400000000001
 20
-1.8014200000000002
 30
0.0
 10
0.23382
 20
-1.3975600000000001
 30
0.0
 10
0.15508
 20
-1.33152
 30
0.0
 10
0.15508
 20
-1.33152
 30
0.0
 10
0.20588
 20
-1.2781800000000001
 30
0.0
 10
0.2897
 20
-1.29088
 30
0.0
 10
0.35828
 20
-1.3035800000000002
 30
0.0
 10
0.35828
 20
-1.3035800000000002
 30
0.0
 10
0.4192400000000001
 20
-1.1943600000000001
 30
0.0
 10
0.5208400000000001
 20
-1.1410200000000001
 30
0.0
 10
0.6046600000000001
 20
-1.1003800000000001
 30
0.0
  0
SPLINE
  5
4A
100
AcDbEntity
  8
���� 1
 62
     7
100
AcDbSpline
210
0.0
220
0.0
230
1.0
 70
     1
 71
     3
 72
    12
 73
     8
 74
     0
 42
0.0000000001
 43
0.0000000001
 40
0.0
 40
0.0
 40
0.0
 40
0.0
 40
0.5
 40
0.5
 40
0.5
 40
0.5
 40
1.0
 40
1.0
 40
1.0
 40
1.0
 10
-0.29195
 20
-1.4966200000000001
 30
0.0
 10
-0.27163
 20
-1.5093200000000002
 30
0.0
 10
-0.23607
 20
-1.5093200000000002
 30
0.0
 10
-0.25385
 20
-1.5499600000000002
 30
0.0
 10
-0.25385
 20
-1.5499600000000002
 30
0.0
 10
-0.28433
 20
-1.5626600000000002
 30
0.0
 10
-0.29957
 20
-1.5220200000000002
 30
0.0
 10
-0.29195
 20
-1.4966200000000001
 30
0.0
  0
SPLINE
  5
4B
100
AcDbEntity
  8
���� 1
100
AcDbSpline
210
0.0
220
0.0
230
1.0
 70
     1
 71
     3
 72
    24
 73
    20
 74
     0
 42
0.0000000001
 43
0.0000000001
 40
0.0
 40
0.0
 40
0.0
 40
0.0
 40
0.2
 40
0.2
 40
0.2
 40
0.2
 40
0.4
 40
0.4
 40
0.4
 40
0.4
 40
0.6000000000000001
 40
0.6000000000000001
 40
0.6000000000000001
 40
0.6000000000000001
 40
0.8
 40
0.8
 40
0.8
 40
0.8
 40
1.0
 40
1.0
 40
1.0
 40
1.0
 10
0.7291200000000001
 20
-1.8090400000000002
 30
0.0
 10
0.9374000000000001
 20
-2.0808200000000001
 30
0.0
 10
0.8434200000000001
 20
-2.4923000000000002
 30
0.0
 10
0.7697600000000001
 20
-2.8047200000000001
 30
0.0
 10
0.7697600000000001
 20
-2.8047200000000001
 30
0.0
 10
0.78754
 20
-2.8733000000000004
 30
0.0
 10
0.8332600000000001
 20
-2.8987000000000003
 30
0.0
 10
0.8789800000000001
 20
-2.9418800000000003
 30
0.0
 10
0.8789800000000001
 20
-2.9418800000000003
 30
0.0
 10
0.86882
 20
-2.9672800000000001
 30
0.0
 10
0.85104
 20
-2.9952200000000002
 30
0.0
 10
0.8205600000000001
 20
-3.0079200000000004
 30
0.0
 10
0.8205600000000001
 20
-3.0079200000000004
 30
0.0
 10
0.46496
 20
-2.7513800000000002
 30
0.0
 10
0.9272400000000001
 20
-2.2459200000000004
 30
0.0
 10
0.7291200000000001
 20
-1.9030200000000002
 30
0.0
 10
0.7291200000000001
 20
-1.9030200000000002
 30
0.0
 10
0.7291200000000001
 20
-1.9030200000000002
 30
0.0
 10
0.7291200000000001
 20
-1.8090400000000002
 30
0.0
 10
0.7291200000000001
 20
-1.8090400000000002
 30
0.0
  0
SPLINE
  5
4C
100
AcDbEntity
  8
���� 1
 62
     7
100
AcDbSpline
210
0.0
220
0.0
230
1.0
 70
     1
 71
     3
 72
    64
 73
    60
 74
     0
 42
0.0000000001
 43
0.0000000001
 40
0.0
 40
0.0
 40
0.0
 40
0.0
 40
0.0666666666666667
 40
0.0666666666666667
 40
0.0666666666666667
 40
0.0666666666666667
 40
0.1333333333333333
 40
0.1333333333333333
 40
0.1333333333333333
 40
0.1333333333333333
 40
0.2
 40
0.2
 40
0.2
 40
0.2
 40
0.2666666666666667
 40
0.2666666666666667
 40
0.2666666666666667
 40
0.2666666666666667
 40
0.3333333333333333
 40
0.3333333333333333
 40
0.3333333333333333
 40
0.3333333333333333
 40
0.4
 40
0.4
 40
0.4
 40
0.4
 40
0.4666666666666666
 40
0.4666666666666666
 40
0.4666666666666666
 40
0.4666666666666666
 40
0.5333333333333333
 40
0.5333333333333333
 40
0.5333333333333333
 40
0.5333333333333333
 40
0.6
 40
0.6
 40
0.6
 40
0.6
 40
0.6666666666666666
 40
0.6666666666666666
 40
0.6666666666666666
 40
0.6666666666666666
 40
0.7333333333333333
 40
0.7333333333333333
 40
0.7333333333333333
 40
0.7333333333333333
 40
0.7999999999999999
 40
0.7999999999999999
 40
0.7999999999999999
 40
0.7999999999999999
 40
0.8666666666666666
 40
0.8666666666666666
 40
0.8666666666666666
 40
0.8666666666666666
 40
0.9333333333333332
 40
0.9333333333333332
 40
0.9333333333333332
 40
0.9333333333333332
 40
1.0
 40
1.0
 40
1.0
 40
1.0
 10
-1.8870700000000002
 20
-1.8649200000000001
 30
0.0
 10
-1.7473700000000001
 20
-1.8903200000000002
 30
0.0
 10
-1.5771900000000001
 20
-1.8496800000000002
 30
0.0
 10
-1.4679700000000002
 20
-1.9589000000000001
 30
0.0
 10
-1.4679700000000002
 20
-1.9589000000000001
 30
0.0
 10
-1.3943100000000002
 20
-2.4491200000000002
 30
0.0
 10
-1.8692900000000001
 20
-2.7640800000000003
 30
0.0
 10
-2.2096500000000003
 20
-3.0231600000000003
 30
0.0
 10
-2.2096500000000003
 20
-3.0231600000000003
 30
0.0
 10
-2.2198100000000003
 20
-3.4321000000000002
 30
0.0
 10
-2.3417300000000001
 20
-3.8131000000000004
 30
0.0
 10
-2.5017500000000004
 20
-4.1814
 30
0.0
 10
-2.5017500000000004
 20
-4.1814
 30
0.0
 10
-2.44333
 20
-4.2906200000000005
 30
0.0
 10
-2.3849100000000001
 20
-4.2906200000000005
 30
0.0
 10
-2.3798300000000001
 20
-4.4557200000000003
 30
0.0
 10
-2.3798300000000001
 20
-4.4557200000000003
 30
0.0
 10
-2.3798300000000001
 20
-4.5217600000000004
 30
0.0
 10
-2.40015
 20
-4.5776400000000006
 30
0.0
 10
-2.4230100000000001
 20
-4.6309800000000001
 30
0.0
 10
-2.4230100000000001
 20
-4.6309800000000001
 30
0.0
 10
-2.6617700000000002
 20
-4.7681400000000007
 30
0.0
 10
-2.9513300000000005
 20
-4.5776400000000006
 30
0.0
 10
-2.9233900000000004
 20
-4.30586
 30
0.0
 10
-2.9233900000000004
 20
-4.30586
 30
0.0
 10
-2.7481300000000002
 20
-4.0315400000000006
 30
0.0
 10
-2.7633700000000001
 20
-3.6632400000000005
 30
0.0
 10
-2.7862300000000002
 20
-3.3635200000000003
 30
0.0
 10
-2.7862300000000002
 20
-3.3635200000000003
 30
0.0
 10
-2.6998700000000002
 20
-3.3508200000000001
 30
0.0
 10
-2.7811500000000002
 20
-3.1323800000000004
 30
0.0
 10
-2.7303500000000001
 20
-3.1577800000000003
 30
0.0
 10
-2.7303500000000001
 20
-3.1577800000000003
 30
0.0
 10
-2.6693900000000004
 20
-3.3228800000000001
 30
0.0
 10
-2.69225
 20
-3.5006800000000005
 30
0.0
 10
-2.7049500000000002
 20
-3.6784800000000004
 30
0.0
 10
-2.7049500000000002
 20
-3.6784800000000004
 30
0.0
 10
-2.7049500000000002
 20
-3.6784800000000004
 30
0.0
 10
-2.7557500000000004
 20
-4.2906200000000005
 30
0.0
 10
-2.7557500000000004
 20
-4.2906200000000005
 30
0.0
 10
-2.7557500000000004
 20
-4.2906200000000005
 30
0.0
 10
-2.7227300000000003
 20
-4.30586
 30
0.0
 10
-2.6871700000000001
 20
-4.2906200000000005
 30
0.0
 10
-2.6668500000000002
 20
-4.2626800000000005
 30
0.0
 10
-2.6668500000000002
 20
-4.2626800000000005
 30
0.0
 10
-2.5474700000000001
 20
-3.8410400000000005
 30
0.0
 10
-2.4915900000000004
 20
-3.4041600000000001
 30
0.0
 10
-2.4611100000000001
 20
-2.9672800000000001
 30
0.0
 10
-2.4611100000000001
 20
-2.9672800000000001
 30
0.0
 10
-2.4611100000000001
 20
-2.9672800000000001
 30
0.0
 10
-2.5550900000000003
 20
-2.9139400000000002
 30
0.0
 10
-2.5550900000000003
 20
-2.9139400000000002
 30
0.0
 10
-2.5550900000000003
 20
-2.9139400000000002
 30
0.0
 10
-2.5550900000000003
 20
-2.9139400000000002
 30
0.0
 10
-2.4966700000000004
 20
-2.7361400000000002
 30
0.0
 10
-2.4966700000000004
 20
-2.7361400000000002
 30
0.0
 10
-2.4966700000000004
 20
-2.7361400000000002
 30
0.0
 10
-1.9785100000000002
 20
-2.6828000000000003
 30
0.0
 10
-2.31379
 20
-1.9716000000000002
 30
0.0
 10
-1.8870700000000002
 20
-1.8649200000000001
 30
0.0
  0
SPLINE
  5
4D
100
AcDbEntity
  8
���� 1
 62
     7
100
AcDbSpline
210
0.0
220
0.0
230
1.0
 70
     1
 71
     3
 72
    16
 73
    12
 74
     0
 42
0.0000000001
 43
0.0000000001
 40
0.0
 40
0.0
 40
0.0
 40
0.0
 40
0.3333333333333333
 40
0.3333333333333333
 40
0.3333333333333333
 40
0.3333333333333333
 40
0.6666666666666666
 40
0.6666666666666666
 40
0.6666666666666666
 40
0.6666666666666666
 40
1.0
 40
1.0
 40
1.0
 40
1.0
 10
5.2985800000000003
 20
-2.1494
 30
0.0
 10
5.3392200000000001
 20
-2.1367000000000003
 30
0.0
 10
5.3519200000000007
 20
-2.1621000000000001
 30
0.0
 10
5.3646200000000004
 20
-2.1900400000000002
 30
0.0
 10
5.3646200000000004
 20
-2.1900400000000002
 30
0.0
 10
5.3925600000000005
 20
-2.2179800000000003
 30
0.0
 10
5.3925600000000005
 20
-2.2459200000000004
 30
0.0
 10
5.4078000000000008
 20
-2.2713200000000002
 30
0.0
 10
5.4078000000000008
 20
-2.2713200000000002
 30
0.0
 10
5.3519200000000007
 20
-2.2586200000000001
 30
0.0
 10
5.1741200000000003
 20
-2.2052800000000001
 30
0.0
 10
5.2985800000000003
 20
-2.1494
 30
0.0
  0
SPLINE
  5
4E
100
AcDbEntity
  8
���� 1
 62
     7
100
AcDbSpline
210
0.0
220
0.0
230
1.0
 70
     1
 71
     3
 72
    12
 73
     8
 74
     0
 42
0.0000000001
 43
0.0000000001
 40
0.0
 40
0.0
 40
0.0
 40
0.0
 40
0.5
 40
0.5
 40
0.5
 40
0.5
 40
1.0
 40
1.0
 40
1.0
 40
1.0
 10
0.8840600000000001
 20
-3.4117800000000003
 30
0.0
 10
1.09996
 20
-3.4219400000000002
 30
0.0
 10
0.9069200000000001
 20
-3.7978600000000005
 30
0.0
 10
0.9170800000000001
 20
-3.8918400000000002
 30
0.0
 10
0.9170800000000001
 20
-3.8918400000000002
 30
0.0
 10
0.6656200000000001
 20
-3.7750000000000004
 30
0.0
 10
0.9094600000000001
 20
-3.5083000000000002
 30
0.0
 10
0.8840600000000001
 20
-3.4117800000000003
 30
0.0
  0
SPLINE
  5
4F
100
AcDbEntity
  8
���� 1
 62
     7
100
AcDbSpline
210
0.0
220
0.0
230
1.0
 70
     1
 71
     3
 72
    12
 73
     8
 74
     0
 42
0.0000000001
 43
0.0000000001
 40
0.0
 40
0.0
 40
0.0
 40
0.0
 40
0.5
 40
0.5
 40
0.5
 40
0.5
 40
1.0
 40
1.0
 40
1.0
 40
1.0
 10
-5.3643300000000007
 20
-5.0958000000000006
 30
0.0
 10
-5.3338500000000009
 20
-5.0831000000000008
 30
0.0
 10
-5.3338500000000009
 20
-5.1237400000000006
 30
0.0
 10
-5.3414700000000002
 20
-5.1491400000000001
 30
0.0
 10
-5.3414700000000002
 20
-5.1491400000000001
 30
0.0
 10
-5.3643300000000007
 20
-5.1491400000000001
 30
0.0
 10
-5.3668700000000005
 20
-5.1085000000000003
 30
0.0
 10
-5.3643300000000007
 20
-5.0958000000000006
 30
0.0
  0
ENDSEC
  0
SECTION
  2
OBJECTS
  0
DICTIONARY
  5
19
100
AcDbDictionary
280
     0
281
     1
  3
ACAD_GROUP
350
1A
  3
ACAD_MLINESTYLE
350
1B
  3
ACAD_LAYOUT
350
1E
  3
ACAD_PLOTSETTINGS
350
22
  3
ACAD_PLOTSTYLENAME
350
1F
  3
ACAD_WIPEOUT_VARS
350
23
  0
DICTIONARY
  5
1A
102
{ACAD_REACTORS
330
19
102
}
100
AcDbDictionary
280
     0
281
     1
  0
DICTIONARY
  5
1B
102
{ACAD_REACTORS
330
19
102
}
100
AcDbDictionary
280
     0
281
     1
  3
Standard
350
1C
  0
MLINESTYLE
  5
1C
102
{ACAD_REACTORS
330
1B
102
}
100
AcDbMlineStyle
  2
Standard
 70
     0
  3

 62
     0
 51
90.0
 52
90.0
 71
     2
 49
0.5
 62
   256
  6
BYLAYER
 49
-0.5
 62
   256
  6
BYLAYER
  0
ACDBDICTIONARYWDFLT
  5
1F
102
{ACAD_REACTORS
330
19
102
}
100
AcDbDictionary
281
     1
  3
Normal
350
1D
100
AcDbDictionaryWithDefault
340
1D
  0
ACDBPLACEHOLDER
  5
1D
102
{ACAD_REACTORS
330
1F
102
}
  0
LAYOUT
  5
20
102
{ACAD_REACTORS
330
1E
102
}
100
AcDbPlotSettings
  1

  2

  4

  6

 40
0.0
 41
0.0
 42
0.0
 43
0.0
 44
0.0
 45
0.0
 46
0.0
 47
0.0
 48
0.0
 49
0.0
140
0.0
141
0.0
142
1.0
143
1.0
 70
  1024
 72
     0
 73
     0
 74
     0
  7

 75
     0
147
1.0
148
0.0
149
0.0
100
AcDbLayout
  1
Model
 70
     0
 71
     0
 10
0.0
 20
0.0
 11
0.0
 21
0.0
 12
0.0
 22
0.0
 32
0.0
 14
0.0
 24
0.0
 34
0.0
 15
0.0
 25
0.0
 35
0.0
146
0.0
 13
0.0
 23
0.0
 33
0.0
 16
0.0
 26
0.0
 36
0.0
 17
0.0
 27
0.0
 37
0.0
 76
     0
330
A
331
0
345
0
346
0
  0
LAYOUT
  5
21
102
{ACAD_REACTORS
330
1E
102
}
100
AcDbPlotSettings
  1

  2

  4

  6

 40
0.0
 41
0.0
 42
0.0
 43
0.0
 44
0.0
 45
0.0
 46
0.0
 47
0.0
 48
0.0
 49
0.0
140
0.0
141
0.0
142
1.0
143
1.0
 70
     0
 72
     0
 73
     0
 74
     0
  7

 75
     0
147
1.0
148
0.0
149
0.0
100
AcDbLayout
  1
Layout1
 70
     0
 71
     0
 10
0.0
 20
0.0
 11
0.0
 21
0.0
 12
0.0
 22
0.0
 32
0.0
 14
0.0
 24
0.0
 34
0.0
 15
0.0
 25
0.0
 35
0.0
146
0.0
 13
0.0
 23
0.0
 33
0.0
 16
0.0
 26
0.0
 36
0.0
 17
0.0
 27
0.0
 37
0.0
 76
     0
330
B
331
0
345
0
346
0
  0
DICTIONARY
  5
1E
102
{ACAD_REACTORS
330
19
102
}
100
AcDbDictionary
280
     0
281
     1
  3
Layout1
350
21
  3
Model
350
20
  0
DICTIONARY
  5
22
102
{ACAD_REACTORS
330
19
102
}
100
AcDbDictionary
280
     0
281
     1
  0
WIPEOUTVARIABLES
  5
23
100
AcDbWipeoutVariables
 70
     1
  0
ENDSEC
  0
EOF
