  0
SECTION
  2
ENTITIES
  0
LINE
  8
APS_GEOMETRY
 10
0.014219
 11
0.131719
 20
-0.0625
 21
-0.0625
  0
LINE
  8
APS_GEOMETRY
 10
0.131719
 11
0.131875
 20
-0.0625
 21
-0.095469
  0
LINE
  8
APS_GEOMETRY
 10
0.131875
 11
0.132031
 20
-0.095469
 21
-0.095469
  0
LINE
  8
APS_GEOMETRY
 10
0.132031
 11
0.133594
 20
-0.095469
 21
-0.093906
  0
LINE
  8
APS_GEOMETRY
 10
0.133594
 11
0.133906
 20
-0.093906
 21
-0.093906
  0
LINE
  8
APS_GEOMETRY
 10
0.133906
 11
0.133906
 20
-0.093906
 21
-0.094375
  0
ARC
  8
APS_GEOMETRY
 10
0.138889
 20
-0.099025
 40
0.006816
 50
136.974934
 51
162.645975
  0
ARC
  8
APS_GEOMETRY
 10
0.149774
 20
-0.102427
 40
0.018219
 50
162.645975
 51
178.264295
  0
LINE
  8
APS_GEOMETRY
 10
0.131563
 11
0.13168
 20
-0.101875
 21
-0.100742
  0
LINE
  8
APS_GEOMETRY
 10
0.13168
 11
0.131719
 20
-0.100742
 21
-0.110469
  0
LINE
  8
APS_GEOMETRY
 10
0.131719
 11
0.135625
 20
-0.110469
 21
-0.109844
  0
ARC
  8
APS_GEOMETRY
 10
0.137389
 20
-0.113959
 40
0.004478
 50
98.130102
 51
113.198591
  0
ARC
  8
APS_GEOMETRY
 10
0.145498
 20
-0.170725
 40
0.06182
 50
94.085617
 51
98.130102
  0
ARC
  8
APS_GEOMETRY
 10
0.142105
 20
-0.12372
 40
0.014692
 50
78.310631
 51
93.945186
  0
ARC
  8
APS_GEOMETRY
 10
0.144943
 20
-0.11
 40
0.000682
 50
0.0
 51
78.310631
  0
ARC
  8
APS_GEOMETRY
 10
0.142585
 20
-0.125202
 40
0.015503
 50
78.690068
 51
84.559668
  0
ARC
  8
APS_GEOMETRY
 10
0.142344
 20
-0.127731
 40
0.018044
 50
84.559668
 51
90.0
  0
ARC
  8
APS_GEOMETRY
 10
0.142344
 20
-0.13137
 40
0.021682
 50
90.0
 51
95.355825
  0
ARC
  8
APS_GEOMETRY
 10
0.144756
 20
-0.157101
 40
0.047526
 50
95.355825
 51
98.972627
  0
LINE
  8
APS_GEOMETRY
 10
0.137344
 11
0.132344
 20
-0.110156
 21
-0.110937
  0
ARC
  8
APS_GEOMETRY
 10
0.132344
 20
-0.111413
 40
0.000476
 50
90.0
 51
108.434949
  0
ARC
  8
APS_GEOMETRY
 10
0.132962
 20
-0.113267
 40
0.00243
 50
108.434949
 51
116.565051
  0
LINE
  8
APS_GEOMETRY
 10
0.131875
 11
0.131719
 20
-0.111094
 21
-0.111094
  0
LINE
  8
APS_GEOMETRY
 10
0.131719
 11
0.131719
 20
-0.111094
 21
-0.143438
  0
LINE
  8
APS_GEOMETRY
 10
0.131719
 11
0.138125
 20
-0.143438
 21
-0.14375
  0
LINE
  8
APS_GEOMETRY
 10
0.138125
 11
0.141719
 20
-0.14375
 21
-0.145156
  0
LINE
  8
APS_GEOMETRY
 10
0.141719
 11
0.141719
 20
-0.145156
 21
-0.145313
  0
LINE
  8
APS_GEOMETRY
 10
0.141719
 11
0.141563
 20
-0.145313
 21
-0.145313
  0
LINE
  8
APS_GEOMETRY
 10
0.141563
 11
0.141563
 20
-0.145313
 21
-0.145469
  0
ARC
  8
APS_GEOMETRY
 10
0.136217
 20
-0.156694
 40
0.012433
 50
64.536655
 51
80.980678
  0
ARC
  8
APS_GEOMETRY
 10
0.131719
 20
-0.185035
 40
0.041128
 50
80.980678
 51
90.0
  0
LINE
  8
APS_GEOMETRY
 10
0.131719
 11
0.131719
 20
-0.143906
 21
-0.155938
  0
ARC
  8
APS_GEOMETRY
 10
0.131142
 20
-0.174972
 40
0.019043
 50
72.992053
 51
88.264295
  0
ARC
  8
APS_GEOMETRY
 10
0.119493
 20
-0.213054
 40
0.058867
 50
64.323184
 51
72.992053
  0
LINE
  8
APS_GEOMETRY
 10
0.145
 11
0.145
 20
-0.16
 21
-0.160156
  0
LINE
  8
APS_GEOMETRY
 10
0.145
 11
0.144844
 20
-0.160156
 21
-0.160156
  0
LINE
  8
APS_GEOMETRY
 10
0.144844
 11
0.144844
 20
-0.160156
 21
-0.160313
  0
ARC
  8
APS_GEOMETRY
 10
0.110138
 20
-0.242218
 40
0.088955
 50
67.036227
 51
73.425992
  0
ARC
  8
APS_GEOMETRY
 10
0.131719
 20
-0.169707
 40
0.0133
 50
73.425992
 51
90.0
  0
LINE
  8
APS_GEOMETRY
 10
0.131719
 11
0.131719
 20
-0.156406
 21
-0.1875
  0
LINE
  8
APS_GEOMETRY
 10
0.131719
 11
0.014219
 20
-0.1875
 21
-0.1875
  0
LINE
  8
APS_GEOMETRY
 10
0.014219
 11
0.014219
 20
-0.1875
 21
-0.155625
  0
LINE
  8
APS_GEOMETRY
 10
0.014219
 11
0.014062
 20
-0.155625
 21
-0.155625
  0
LINE
  8
APS_GEOMETRY
 10
0.014062
 11
0.004375
 20
-0.155625
 21
-0.159687
  0
LINE
  8
APS_GEOMETRY
 10
0.004375
 11
0.0
 20
-0.159687
 21
-0.162187
  0
LINE
  8
APS_GEOMETRY
 10
0.0
 11
0.0
 20
-0.162187
 21
-0.161563
  0
ARC
  8
APS_GEOMETRY
 10
-0.212274
 20
0.294828
 40
0.503341
 50
294.943905
 51
295.787328
  0
ARC
  8
APS_GEOMETRY
 10
-0.250832
 20
0.374633
 40
0.591973
 50
295.787328
 51
296.565051
  0
ARC
  8
APS_GEOMETRY
 10
0.012429
 20
-0.154105
 40
0.001651
 50
333.434949
 51
357.207298
  0
ARC
  8
APS_GEOMETRY
 10
-0.103759
 20
-0.148437
 40
0.117978
 50
357.207298
 51
360.0
  0
LINE
  8
APS_GEOMETRY
 10
0.014219
 11
0.014062
 20
-0.148438
 21
-0.148438
  0
LINE
  8
APS_GEOMETRY
 10
0.014062
 11
0.012813
 20
-0.148438
 21
-0.148906
  0
LINE
  8
APS_GEOMETRY
 10
0.012813
 11
0.012656
 20
-0.148906
 21
-0.148906
  0
ARC
  8
APS_GEOMETRY
 10
0.012975
 20
-0.148906
 40
0.000318
 50
153.434949
 51
180.0
  0
ARC
  8
APS_GEOMETRY
 10
0.013275
 20
-0.149057
 40
0.000655
 50
135.0
 51
153.434949
  0
ARC
  8
APS_GEOMETRY
 10
0.020504
 20
-0.160132
 40
0.013867
 50
119.054604
 51
123.690068
  0
ARC
  8
APS_GEOMETRY
 10
0.015056
 20
-0.150325
 40
0.002648
 50
108.434949
 51
119.054604
  0
LINE
  8
APS_GEOMETRY
 10
0.014219
 11
0.014219
 20
-0.147812
 21
-0.14125
  0
LINE
  8
APS_GEOMETRY
 10
0.014219
 11
0.009844
 20
-0.14125
 21
-0.141875
  0
LINE
  8
APS_GEOMETRY
 10
0.009844
 11
0.007031
 20
-0.141875
 21
-0.142969
  0
LINE
  8
APS_GEOMETRY
 10
0.007031
 11
0.007031
 20
-0.142969
 21
-0.142813
  0
LINE
  8
APS_GEOMETRY
 10
0.007031
 11
0.006875
 20
-0.142813
 21
-0.142813
  0
LINE
  8
APS_GEOMETRY
 10
0.006875
 11
0.006875
 20
-0.142813
 21
-0.142656
  0
LINE
  8
APS_GEOMETRY
 10
0.006875
 11
0.007031
 20
-0.142656
 21
-0.142656
  0
ARC
  8
APS_GEOMETRY
 10
0.010937
 20
-0.147272
 40
0.006046
 50
106.144339
 51
130.236358
  0
ARC
  8
APS_GEOMETRY
 10
0.012969
 20
-0.154292
 40
0.013355
 50
90.0
 51
106.144339
  0
ARC
  8
APS_GEOMETRY
 10
0.012026
 20
-0.139524
 40
0.001699
 50
303.690068
 51
355.746164
  0
ARC
  8
APS_GEOMETRY
 10
-0.223151
 20
-0.122031
 40
0.237526
 50
355.746164
 51
0.0
  0
ARC
  8
APS_GEOMETRY
 10
-0.861756
 20
-0.122031
 40
0.876131
 50
359.274776
 51
360.0
  0
ARC
  8
APS_GEOMETRY
 10
0.003043
 20
-0.132978
 40
0.011262
 50
352.874984
 51
359.274776
  0
LINE
  8
APS_GEOMETRY
 10
0.014219
 11
0.014219
 20
-0.134375
 21
-0.1
  0
LINE
  8
APS_GEOMETRY
 10
0.014219
 11
0.009844
 20
-0.1
 21
-0.098906
  0
LINE
  8
APS_GEOMETRY
 10
0.009844
 11
0.009844
 20
-0.098906
 21
-0.09875
  0
ARC
  8
APS_GEOMETRY
 10
0.009844
 20
-0.098594
 40
0.000156
 50
270.0
 51
315.0
  0
ARC
  8
APS_GEOMETRY
 10
0.009844
 20
-0.098594
 40
0.000156
 50
315.0
 51
0.0
  0
ARC
  8
APS_GEOMETRY
 10
0.011643
 20
-0.093664
 40
0.005196
 50
251.565051
 51
257.005383
  0
ARC
  8
APS_GEOMETRY
 10
0.022651
 20
-0.045963
 40
0.054151
 50
257.005383
 51
258.690068
  0
ARC
  8
APS_GEOMETRY
 10
0.012347
 20
-0.097485
 40
0.001609
 50
258.690068
 51
321.009006
  0
ARC
  8
APS_GEOMETRY
 10
0.009732
 20
-0.095368
 40
0.004973
 50
321.009006
 51
355.236358
  0
LINE
  8
APS_GEOMETRY
 10
0.014687
 11
0.014219
 20
-0.095781
 21
-0.0625
  0
LINE
  8
APS_GEOMETRY
 10
0.014531
 11
0.014531
 20
-0.062656
 21
-0.187344
  0
LINE
  8
APS_GEOMETRY
 10
0.014531
 11
0.130938
 20
-0.187344
 21
-0.186875
  0
LINE
  8
APS_GEOMETRY
 10
0.130938
 11
0.131406
 20
-0.186875
 21
-0.184688
  0
LINE
  8
APS_GEOMETRY
 10
0.131406
 11
0.131406
 20
-0.184688
 21
-0.062656
  0
LINE
  8
APS_GEOMETRY
 10
0.131406
 11
0.014531
 20
-0.062656
 21
-0.062656
  0
LINE
  8
APS_GEOMETRY
 10
0.018438
 11
0.127344
 20
-0.066406
 21
-0.066562
  0
LINE
  8
APS_GEOMETRY
 10
0.127344
 11
0.127188
 20
-0.066562
 21
-0.183281
  0
LINE
  8
APS_GEOMETRY
 10
0.127188
 11
0.018281
 20
-0.183281
 21
-0.183125
  0
LINE
  8
APS_GEOMETRY
 10
0.018281
 11
0.018438
 20
-0.183125
 21
-0.066406
  0
LINE
  8
APS_GEOMETRY
 10
0.018594
 11
0.018633
 20
-0.066719
 21
-0.080586
  0
LINE
  8
APS_GEOMETRY
 10
0.018633
 11
0.01875
 20
-0.080586
 21
-0.1
  0
LINE
  8
APS_GEOMETRY
 10
0.01875
 11
0.019375
 20
-0.1
 21
-0.100625
  0
LINE
  8
APS_GEOMETRY
 10
0.019375
 11
0.027813
 20
-0.100625
 21
-0.104062
  0
ARC
  8
APS_GEOMETRY
 10
0.004187
 20
-0.161984
 40
0.062554
 50
56.214915
 51
67.809711
  0
ARC
  8
APS_GEOMETRY
 10
-0.001427
 20
-0.170374
 40
0.072649
 50
45.458356
 51
56.214915
  0
LINE
  8
APS_GEOMETRY
 10
0.049531
 11
0.049531
 20
-0.118594
 21
-0.118906
  0
LINE
  8
APS_GEOMETRY
 10
0.049531
 11
0.043125
 20
-0.118906
 21
-0.113281
  0
ARC
  8
APS_GEOMETRY
 10
0.003057
 20
-0.169567
 40
0.069091
 50
54.55429
 51
63.87455
  0
ARC
  8
APS_GEOMETRY
 10
-0.029549
 20
-0.236049
 40
0.143138
 50
63.87455
 51
70.346176
  0
LINE
  8
APS_GEOMETRY
 10
0.018594
 11
0.018594
 20
-0.10125
 21
-0.122812
  0
ARC
  8
APS_GEOMETRY
 10
0.0486
 20
-0.122812
 40
0.030007
 50
180.0
 51
182.385944
  0
ARC
  8
APS_GEOMETRY
 10
0.139049
 20
-0.119044
 40
0.120534
 50
182.385944
 51
183.576334
  0
ARC
  8
APS_GEOMETRY
 10
-0.101549
 20
-0.134081
 40
0.120534
 50
2.385944
 51
3.576334
  0
ARC
  8
APS_GEOMETRY
 10
-0.0111
 20
-0.130313
 40
0.030007
 50
0.0
 51
2.385944
  0
LINE
  8
APS_GEOMETRY
 10
0.018906
 11
0.02
 20
-0.130313
 21
-0.13125
  0
LINE
  8
APS_GEOMETRY
 10
0.02
 11
0.035938
 20
-0.13125
 21
-0.138125
  0
ARC
  8
APS_GEOMETRY
 10
-0.028794
 20
-0.286083
 40
0.161498
 50
62.507163
 51
66.370622
  0
ARC
  8
APS_GEOMETRY
 10
0.020073
 20
-0.192182
 40
0.055643
 50
55.922805
 51
62.507163
  0
LINE
  8
APS_GEOMETRY
 10
0.05125
 11
0.053711
 20
-0.146094
 21
-0.147812
  0
LINE
  8
APS_GEOMETRY
 10
0.053711
 11
0.057969
 20
-0.147812
 21
-0.150781
  0
LINE
  8
APS_GEOMETRY
 10
0.057969
 11
0.057969
 20
-0.150781
 21
-0.151094
  0
LINE
  8
APS_GEOMETRY
 10
0.057969
 11
0.057813
 20
-0.151094
 21
-0.151094
  0
LINE
  8
APS_GEOMETRY
 10
0.057813
 11
0.057813
 20
-0.151094
 21
-0.15125
  0
LINE
  8
APS_GEOMETRY
 10
0.057813
 11
0.0575
 20
-0.15125
 21
-0.15125
  0
LINE
  8
APS_GEOMETRY
 10
0.0575
 11
0.0575
 20
-0.15125
 21
-0.151094
  0
ARC
  8
APS_GEOMETRY
 10
0.040841
 20
-0.168546
 40
0.024127
 50
46.33222
 51
57.528808
  0
ARC
  8
APS_GEOMETRY
 10
0.000067
 20
-0.23262
 40
0.100074
 50
57.528808
 51
63.019769
  0
ARC
  8
APS_GEOMETRY
 10
-0.097296
 20
-0.422892
 40
0.31381
 50
62.938894
 51
65.883159
  0
ARC
  8
APS_GEOMETRY
 10
-0.056747
 20
-0.332315
 40
0.214571
 50
65.883159
 51
69.443955
  0
LINE
  8
APS_GEOMETRY
 10
0.018594
 11
0.018594
 20
-0.131406
 21
-0.140781
  0
ARC
  8
APS_GEOMETRY
 10
0.017258
 20
-0.182867
 40
0.042107
 50
74.920866
 51
88.181697
  0
ARC
  8
APS_GEOMETRY
 10
-0.025853
 20
-0.342875
 40
0.207821
 50
68.962489
 51
74.920866
  0
LINE
  8
APS_GEOMETRY
 10
0.04875
 11
0.052969
 20
-0.148906
 21
-0.150547
  0
LINE
  8
APS_GEOMETRY
 10
0.052969
 11
0.06
 20
-0.150547
 21
-0.153281
  0
LINE
  8
APS_GEOMETRY
 10
0.06
 11
0.06
 20
-0.153281
 21
-0.153594
  0
LINE
  8
APS_GEOMETRY
 10
0.06
 11
0.059844
 20
-0.153594
 21
-0.153594
  0
LINE
  8
APS_GEOMETRY
 10
0.059844
 11
0.059844
 20
-0.153594
 21
-0.15375
  0
ARC
  8
APS_GEOMETRY
 10
-0.084407
 20
-0.516055
 40
0.389966
 50
68.290117
 51
70.956469
  0
ARC
  8
APS_GEOMETRY
 10
-0.037612
 20
-0.380486
 40
0.246548
 50
70.956469
 51
74.310007
  0
ARC
  8
APS_GEOMETRY
 10
0.009407
 20
-0.213556
 40
0.073122
 50
74.407189
 51
79.845733
  0
ARC
  8
APS_GEOMETRY
 10
0.018594
 20
-0.162265
 40
0.021015
 50
79.845733
 51
90.0
  0
LINE
  8
APS_GEOMETRY
 10
0.018594
 11
0.018906
 20
-0.14125
 21
-0.145781
  0
LINE
  8
APS_GEOMETRY
 10
0.018906
 11
0.020156
 20
-0.145781
 21
-0.145781
  0
ARC
  8
APS_GEOMETRY
 10
0.024533
 20
-0.167666
 40
0.022318
 50
95.194429
 51
101.309932
  0
ARC
  8
APS_GEOMETRY
 10
0.025313
 20
-0.176239
 40
0.030926
 50
90.0
 51
95.194429
  0
ARC
  8
APS_GEOMETRY
 10
0.025313
 20
-0.176833
 40
0.031521
 50
75.963757
 51
90.0
  0
ARC
  8
APS_GEOMETRY
 10
-0.00653
 20
-0.304201
 40
0.162809
 50
69.800193
 51
75.963757
  0
ARC
  8
APS_GEOMETRY
 10
0.053131
 20
-0.144518
 40
0.007701
 50
243.434949
 51
248.629378
  0
ARC
  8
APS_GEOMETRY
 10
0.334324
 20
0.574085
 40
0.779361
 50
248.629378
 51
249.145542
  0
LINE
  8
APS_GEOMETRY
 10
0.056875
 11
0.056875
 20
-0.154219
 21
-0.154531
  0
LINE
  8
APS_GEOMETRY
 10
0.056875
 11
0.056719
 20
-0.154531
 21
-0.154531
  0
LINE
  8
APS_GEOMETRY
 10
0.056719
 11
0.056719
 20
-0.154531
 21
-0.154688
  0
ARC
  8
APS_GEOMETRY
 10
-0.036733
 20
-0.399597
 40
0.262133
 50
69.114199
 51
74.63006
  0
ARC
  8
APS_GEOMETRY
 10
0.02375
 20
-0.179562
 40
0.033937
 50
74.63006
 51
90.0
  0
ARC
  8
APS_GEOMETRY
 10
0.02375
 20
-0.158279
 40
0.012654
 50
90.0
 51
104.931417
  0
ARC
  8
APS_GEOMETRY
 10
0.021308
 20
-0.14912
 40
0.003175
 50
104.931417
 51
135.0
  0
ARC
  8
APS_GEOMETRY
 10
0.020105
 20
-0.147657
 40
0.001303
 50
143.130102
 51
176.185925
  0
ARC
  8
APS_GEOMETRY
 10
0.113844
 20
-0.153906
 40
0.09525
 50
176.185925
 51
180.0
  0
LINE
  8
APS_GEOMETRY
 10
0.018594
 11
0.019219
 20
-0.153906
 21
-0.153906
  0
LINE
  8
APS_GEOMETRY
 10
0.019219
 11
0.022031
 20
-0.153906
 21
-0.153125
  0
ARC
  8
APS_GEOMETRY
 10
0.025386
 20
-0.161176
 40
0.008722
 50
99.462322
 51
112.619865
  0
ARC
  8
APS_GEOMETRY
 10
0.026719
 20
-0.169173
 40
0.016829
 50
90.0
 51
99.462322
  0
ARC
  8
APS_GEOMETRY
 10
0.030073
 20
-0.160395
 40
0.008722
 50
99.462322
 51
112.619865
  0
ARC
  8
APS_GEOMETRY
 10
0.031406
 20
-0.168392
 40
0.016829
 50
90.0
 51
99.462322
  0
ARC
  8
APS_GEOMETRY
 10
0.038594
 20
-0.176206
 40
0.025671
 50
89.370401
 51
106.260205
  0
ARC
  8
APS_GEOMETRY
 10
0.038643
 20
-0.171733
 40
0.021197
 50
70.769328
 51
89.370401
  0
LINE
  8
APS_GEOMETRY
 10
0.045625
 11
0.051563
 20
-0.151719
 21
-0.15375
  0
LINE
  8
APS_GEOMETRY
 10
0.051563
 11
0.051563
 20
-0.15375
 21
-0.154062
  0
LINE
  8
APS_GEOMETRY
 10
0.051563
 11
0.051406
 20
-0.154062
 21
-0.154062
  0
LINE
  8
APS_GEOMETRY
 10
0.051406
 11
0.051406
 20
-0.154062
 21
-0.154219
  0
ARC
  8
APS_GEOMETRY
 10
0.034751
 20
-0.197245
 40
0.046137
 50
68.83874
 51
75.256437
  0
ARC
  8
APS_GEOMETRY
 10
0.039228
 20
-0.180232
 40
0.028545
 50
75.256437
 51
83.418055
  0
ARC
  8
APS_GEOMETRY
 10
0.039154
 20
-0.180869
 40
0.029187
 50
83.418055
 51
91.414423
  0
ARC
  8
APS_GEOMETRY
 10
0.041654
 20
-0.2821
 40
0.130449
 50
91.414423
 51
95.194429
  0
ARC
  8
APS_GEOMETRY
 10
0.036101
 20
-0.21893
 40
0.067036
 50
95.355825
 51
103.650419
  0
ARC
  8
APS_GEOMETRY
 10
0.020786
 20
-0.155869
 40
0.002141
 50
103.650419
 51
151.38954
  0
ARC
  8
APS_GEOMETRY
 10
0.020365
 20
-0.155573
 40
0.001631
 50
153.434949
 51
177.510447
  0
ARC
  8
APS_GEOMETRY
 10
0.168903
 20
-0.162031
 40
0.150309
 50
177.510447
 51
180.0
  0
LINE
  8
APS_GEOMETRY
 10
0.018594
 11
0.018594
 20
-0.162031
 21
-0.182969
  0
LINE
  8
APS_GEOMETRY
 10
0.018594
 11
0.125938
 20
-0.182969
 21
-0.182812
  0
ARC
  8
APS_GEOMETRY
 10
0.125667
 20
-0.18173
 40
0.001116
 50
284.036243
 51
339.145542
  0
ARC
  8
APS_GEOMETRY
 10
0.119896
 20
-0.179531
 40
0.007292
 50
339.145542
 51
0.0
  0
ARC
  8
APS_GEOMETRY
 10
0.11709
 20
-0.179531
 40
0.010098
 50
0.0
 51
64.520599
  0
ARC
  8
APS_GEOMETRY
 10
0.063834
 20
-0.291288
 40
0.133895
 50
64.520599
 51
81.378225
  0
LINE
  8
APS_GEOMETRY
 10
0.083906
 11
0.082813
 20
-0.158906
 21
-0.158594
  0
LINE
  8
APS_GEOMETRY
 10
0.082813
 11
0.082656
 20
-0.158594
 21
-0.158594
  0
LINE
  8
APS_GEOMETRY
 10
0.082656
 11
0.082656
 20
-0.158594
 21
-0.158438
  0
ARC
  8
APS_GEOMETRY
 10
0.082656
 20
-0.158281
 40
0.000156
 50
270.0
 51
315.0
  0
ARC
  8
APS_GEOMETRY
 10
0.082656
 20
-0.158281
 40
0.000156
 50
315.0
 51
0.0
  0
ARC
  8
APS_GEOMETRY
 10
0.080491
 20
-0.238369
 40
0.080122
 50
80.67046
 51
88.339718
  0
ARC
  8
APS_GEOMETRY
 10
0.078528
 20
-0.25032
 40
0.092232
 50
73.523119
 51
80.67046
  0
ARC
  8
APS_GEOMETRY
 10
0.084672
 20
-0.230626
 40
0.071605
 50
63.618589
 51
73.767649
  0
ARC
  8
APS_GEOMETRY
 10
0.099514
 20
-0.200702
 40
0.038203
 50
49.707852
 51
63.618589
  0
ARC
  8
APS_GEOMETRY
 10
0.126985
 20
-0.169718
 40
0.003325
 50
213.690068
 51
223.363423
  0
ARC
  8
APS_GEOMETRY
 10
0.208824
 20
-0.092426
 40
0.115893
 50
223.363423
 51
225.0
  0
LINE
  8
APS_GEOMETRY
 10
0.126875
 11
0.127031
 20
-0.174375
 21
-0.174375
  0
ARC
  8
APS_GEOMETRY
 10
0.137826
 20
-0.174375
 40
0.010794
 50
175.030259
 51
180.0
  0
ARC
  8
APS_GEOMETRY
 10
0.214741
 20
-0.181063
 40
0.088
 50
173.290163
 51
175.030259
  0
ARC
  8
APS_GEOMETRY
 10
0.10739
 20
-0.168287
 40
0.020109
 50
352.874984
 51
0.0
  0
ARC
  8
APS_GEOMETRY
 10
0.119503
 20
-0.168287
 40
0.007997
 50
0.0
 51
11.309932
  0
ARC
  8
APS_GEOMETRY
 10
0.115939
 20
-0.166719
 40
0.011405
 50
0.0
 51
10.784298
  0
ARC
  8
APS_GEOMETRY
 10
0.123495
 20
-0.165279
 40
0.003712
 50
10.784298
 51
29.744881
  0
ARC
  8
APS_GEOMETRY
 10
0.120057
 20
-0.167174
 40
0.007638
 50
29.291362
 51
78.581553
  0
ARC
  8
APS_GEOMETRY
 10
0.095
 20
-0.291239
 40
0.134207
 50
78.581553
 51
90.0
  0
ARC
  8
APS_GEOMETRY
 10
0.095
 20
-0.278451
 40
0.12142
 50
90.0
 51
91.548158
  0
ARC
  8
APS_GEOMETRY
 10
0.112648
 20
-0.93141
 40
0.774617
 50
91.548158
 51
92.161079
  0
LINE
  8
APS_GEOMETRY
 10
0.083438
 11
0.075156
 20
-0.157344
 21
-0.157656
  0
ARC
  8
APS_GEOMETRY
 10
0.075156
 20
-0.157548
 40
0.000108
 50
270.0
 51
333.434949
  0
ARC
  8
APS_GEOMETRY
 10
0.074747
 20
-0.157344
 40
0.000565
 50
333.434949
 51
0.0
  0
LINE
  8
APS_GEOMETRY
 10
0.075313
 11
0.075313
 20
-0.157344
 21
-0.157187
  0
LINE
  8
APS_GEOMETRY
 10
0.075313
 11
0.077813
 20
-0.157187
 21
-0.157187
  0
ARC
  8
APS_GEOMETRY
 10
0.080023
 20
-0.166029
 40
0.009114
 50
91.952509
 51
104.036243
  0
ARC
  8
APS_GEOMETRY
 10
0.091562
 20
-0.504525
 40
0.347806
 50
90.0
 51
91.952509
  0
ARC
  8
APS_GEOMETRY
 10
0.093379
 20
-0.163986
 40
0.007491
 50
94.236395
 51
104.036243
  0
ARC
  8
APS_GEOMETRY
 10
0.095781
 20
-0.196412
 40
0.040006
 50
90.0
 51
94.236395
  0
ARC
  8
APS_GEOMETRY
 10
0.095781
 20
-0.251691
 40
0.095284
 50
84.47246
 51
90.0
  0
ARC
  8
APS_GEOMETRY
 10
0.093434
 20
-0.275941
 40
0.119648
 50
79.540091
 51
84.47246
  0
ARC
  8
APS_GEOMETRY
 10
0.10477
 20
-0.213923
 40
0.056603
 50
68.198591
 51
79.426477
  0
ARC
  8
APS_GEOMETRY
 10
0.125152
 20
-0.162969
 40
0.001723
 50
0.0
 51
68.198591
  0
LINE
  8
APS_GEOMETRY
 10
0.126875
 11
0.127031
 20
-0.162969
 21
-0.162969
  0
LINE
  8
APS_GEOMETRY
 10
0.127031
 11
0.127031
 20
-0.162969
 21
-0.155781
  0
ARC
  8
APS_GEOMETRY
 10
0.116522
 20
-0.279269
 40
0.123934
 50
85.135486
 51
88.540551
  0
ARC
  8
APS_GEOMETRY
 10
0.1025
 20
-0.82962
 40
0.674463
 50
88.540551
 51
90.0
  0
LINE
  8
APS_GEOMETRY
 10
0.1025
 11
0.091875
 20
-0.155156
 21
-0.155195
  0
LINE
  8
APS_GEOMETRY
 10
0.091875
 11
0.079688
 20
-0.155195
 21
-0.155312
  0
LINE
  8
APS_GEOMETRY
 10
0.079688
 11
0.078906
 20
-0.155312
 21
-0.155469
  0
LINE
  8
APS_GEOMETRY
 10
0.078906
 11
0.073906
 20
-0.155469
 21
-0.155469
  0
ARC
  8
APS_GEOMETRY
 10
0.074225
 20
-0.155469
 40
0.000318
 50
153.434949
 51
180.0
  0
ARC
  8
APS_GEOMETRY
 10
0.074525
 20
-0.155619
 40
0.000655
 50
135.0
 51
153.434949
  0
LINE
  8
APS_GEOMETRY
 10
0.074063
 11
0.074063
 20
-0.155156
 21
-0.155
  0
LINE
  8
APS_GEOMETRY
 10
0.074063
 11
0.077813
 20
-0.155
 21
-0.155
  0
ARC
  8
APS_GEOMETRY
 10
0.077813
 20
-0.150077
 40
0.004923
 50
270.0
 51
271.818303
  0
ARC
  8
APS_GEOMETRY
 10
-0.523279
 20
18.784299
 40
18.948838
 50
271.818303
 51
271.84761
  0
ARC
  8
APS_GEOMETRY
 10
0.10022
 20
-0.59441
 40
0.439902
 50
90.924045
 51
91.636577
  0
ARC
  8
APS_GEOMETRY
 10
0.097344
 20
-0.416098
 40
0.261566
 50
90.0
 51
90.924045
  0
LINE
  8
APS_GEOMETRY
 10
0.097344
 11
0.126719
 20
-0.154531
 21
-0.154688
  0
ARC
  8
APS_GEOMETRY
 10
0.125305
 20
-0.153981
 40
0.00158
 50
333.434949
 51
358.290186
  0
ARC
  8
APS_GEOMETRY
 10
-0.201723
 20
-0.144219
 40
0.328754
 50
358.290186
 51
0.0
  0
ARC
  8
APS_GEOMETRY
 10
0.133486
 20
-0.257183
 40
0.113148
 50
93.270488
 51
101.556138
  0
ARC
  8
APS_GEOMETRY
 10
0.206755
 20
-0.615513
 40
0.478892
 50
101.556138
 51
105.580924
  0
LINE
  8
APS_GEOMETRY
 10
0.078125
 11
0.078125
 20
-0.154219
 21
-0.154062
  0
LINE
  8
APS_GEOMETRY
 10
0.078125
 11
0.077969
 20
-0.154062
 21
-0.154062
  0
ARC
  8
APS_GEOMETRY
 10
0.078287
 20
-0.154062
 40
0.000318
 50
153.434949
 51
180.0
  0
ARC
  8
APS_GEOMETRY
 10
0.078588
 20
-0.154213
 40
0.000655
 50
135.0
 51
153.434949
  0
LINE
  8
APS_GEOMETRY
 10
0.078125
 11
0.08625
 20
-0.15375
 21
-0.151562
  0
ARC
  8
APS_GEOMETRY
 10
0.117709
 20
-0.266913
 40
0.119563
 50
103.547939
 51
105.255119
  0
ARC
  8
APS_GEOMETRY
 10
0.300722
 20
-1.026418
 40
0.900807
 50
102.925999
 51
103.547939
  0
LINE
  8
APS_GEOMETRY
 10
0.099219
 11
0.10125
 20
-0.148438
 21
-0.147969
  0
LINE
  8
APS_GEOMETRY
 10
0.10125
 11
0.114063
 20
-0.147969
 21
-0.145313
  0
LINE
  8
APS_GEOMETRY
 10
0.114063
 11
0.118125
 20
-0.145313
 21
-0.145
  0
LINE
  8
APS_GEOMETRY
 10
0.118125
 11
0.120156
 20
-0.145
 21
-0.144531
  0
ARC
  8
APS_GEOMETRY
 10
0.103883
 20
0.007355
 40
0.152756
 50
276.115504
 51
277.765166
  0
ARC
  8
APS_GEOMETRY
 10
0.117628
 20
-0.093442
 40
0.051026
 50
277.765166
 51
280.619655
  0
LINE
  8
APS_GEOMETRY
 10
0.127031
 11
0.127031
 20
-0.143594
 21
-0.112344
  0
ARC
  8
APS_GEOMETRY
 10
0.17074
 20
-0.281715
 40
0.17492
 50
104.470294
 51
109.37414
  0
ARC
  8
APS_GEOMETRY
 10
0.172605
 20
-0.287019
 40
0.180543
 50
109.37414
 51
114.200972
  0
LINE
  8
APS_GEOMETRY
 10
0.098594
 11
0.098594
 20
-0.122344
 21
-0.122187
  0
LINE
  8
APS_GEOMETRY
 10
0.098594
 11
0.098438
 20
-0.122187
 21
-0.122187
  0
ARC
  8
APS_GEOMETRY
 10
0.098756
 20
-0.122187
 40
0.000318
 50
153.434949
 51
180.0
  0
ARC
  8
APS_GEOMETRY
 10
0.099057
 20
-0.122338
 40
0.000655
 50
135.0
 51
153.434949
  0
ARC
  8
APS_GEOMETRY
 10
0.111943
 20
-0.139674
 40
0.022249
 50
113.198591
 51
126.869898
  0
ARC
  8
APS_GEOMETRY
 10
0.10625
 20
-0.12639
 40
0.007796
 50
90.0
 51
113.198591
  0
ARC
  8
APS_GEOMETRY
 10
0.152458
 20
-0.226412
 40
0.117302
 50
112.036227
 51
113.198591
  0
ARC
  8
APS_GEOMETRY
 10
0.280141
 20
-0.541864
 40
0.457616
 50
111.447736
 51
112.036227
  0
ARC
  8
APS_GEOMETRY
 10
0.066767
 20
0.05509
 40
0.177118
 50
285.068488
 51
286.429301
  0
ARC
  8
APS_GEOMETRY
 10
-0.087685
 20
0.578882
 40
0.723207
 50
286.429301
 51
287.102729
  0
ARC
  8
APS_GEOMETRY
 10
0.123587
 20
-0.109518
 40
0.00316
 50
296.565051
 51
336.194056
  0
ARC
  8
APS_GEOMETRY
 10
0.11709
 20
-0.106651
 40
0.01026
 50
336.194056
 51
357.878904
  0
LINE
  8
APS_GEOMETRY
 10
0.127344
 11
0.127109
 20
-0.107031
 21
-0.108437
  0
LINE
  8
APS_GEOMETRY
 10
0.127109
 11
0.127031
 20
-0.108437
 21
-0.099844
  0
LINE
  8
APS_GEOMETRY
 10
0.127031
 11
0.126719
 20
-0.099844
 21
-0.1
  0
LINE
  8
APS_GEOMETRY
 10
0.126719
 11
0.1175
 20
-0.1
 21
-0.106719
  0
ARC
  8
APS_GEOMETRY
 10
0.164972
 20
-0.173179
 40
0.081674
 50
125.537678
 51
126.480578
  0
ARC
  8
APS_GEOMETRY
 10
18.639002
 20
-25.157105
 40
31.153949
 50
126.480578
 51
126.528855
  0
ARC
  8
APS_GEOMETRY
 10
0.095156
 20
-0.123125
 40
0.000156
 50
0.0
 51
45.0
  0
ARC
  8
APS_GEOMETRY
 10
0.095156
 20
-0.123125
 40
0.000156
 50
45.0
 51
90.0
  0
LINE
  8
APS_GEOMETRY
 10
0.095156
 11
0.095
 20
-0.122969
 21
-0.122969
  0
ARC
  8
APS_GEOMETRY
 10
0.095318
 20
-0.122969
 40
0.000318
 50
153.434949
 51
180.0
  0
ARC
  8
APS_GEOMETRY
 10
0.095619
 20
-0.123119
 40
0.000655
 50
135.0
 51
153.434949
  0
LINE
  8
APS_GEOMETRY
 10
0.095156
 11
0.107539
 20
-0.122656
 21
-0.11332
  0
LINE
  8
APS_GEOMETRY
 10
0.107539
 11
0.119688
 20
-0.11332
 21
-0.104375
  0
ARC
  8
APS_GEOMETRY
 10
0.103466
 20
-0.072742
 40
0.03555
 50
297.149682
 51
307.874984
  0
ARC
  8
APS_GEOMETRY
 10
0.122504
 20
-0.09722
 40
0.004539
 50
307.874984
 51
338.198591
  0
ARC
  8
APS_GEOMETRY
 10
-0.13475
 20
-0.083526
 40
0.261921
 50
356.633539
 51
357.797402
  0
ARC
  8
APS_GEOMETRY
 10
0.053893
 20
-0.090781
 40
0.073138
 50
357.797402
 51
0.0
  0
LINE
  8
APS_GEOMETRY
 10
0.127031
 11
0.127031
 20
-0.090781
 21
-0.066719
  0
LINE
  8
APS_GEOMETRY
 10
0.127031
 11
0.018594
 20
-0.066719
 21
-0.066719
  0
LINE
  8
APS_GEOMETRY
 10
0.037656
 11
0.03875
 20
-0.075
 21
-0.075313
  0
LINE
  8
APS_GEOMETRY
 10
0.03875
 11
0.03875
 20
-0.075313
 21
-0.075625
  0
LINE
  8
APS_GEOMETRY
 10
0.03875
 11
0.038594
 20
-0.075625
 21
-0.075625
  0
ARC
  8
APS_GEOMETRY
 10
0.037026
 20
-0.077193
 40
0.002218
 50
45.0
 51
56.309932
  0
ARC
  8
APS_GEOMETRY
 10
0.035162
 20
-0.079989
 40
0.005577
 50
56.309932
 51
63.434949
  0
ARC
  8
APS_GEOMETRY
 10
0.010031
 20
0.119424
 40
0.211726
 50
284.82648
 51
286.189206
  0
ARC
  8
APS_GEOMETRY
 10
0.06375
 20
-0.083514
 40
0.001799
 50
270.0
 51
284.82648
  0
ARC
  8
APS_GEOMETRY
 10
0.078519
 20
-0.050852
 40
0.037492
 50
244.983107
 51
246.801409
  0
ARC
  8
APS_GEOMETRY
 10
0.546075
 20
0.951055
 40
1.143126
 50
244.653824
 51
244.983107
  0
ARC
  8
APS_GEOMETRY
 10
0.002726
 20
-0.195078
 40
0.125279
 50
64.470302
 51
69.749366
  0
ARC
  8
APS_GEOMETRY
 10
0.035682
 20
-0.10575
 40
0.030065
 50
69.749366
 51
80.537678
  0
ARC
  8
APS_GEOMETRY
 10
0.020411
 20
-0.119462
 40
0.047848
 50
42.101423
 51
65.009694
  0
ARC
  8
APS_GEOMETRY
 10
0.028287
 20
-0.112345
 40
0.037232
 50
16.081652
 51
42.101423
  0
ARC
  8
APS_GEOMETRY
 10
0.039545
 20
-0.109036
 40
0.025498
 50
8.32565
 51
15.945396
  0
ARC
  8
APS_GEOMETRY
 10
0.043636
 20
-0.108437
 40
0.021364
 50
0.0
 51
8.32565
  0
LINE
  8
APS_GEOMETRY
 10
0.065
 11
0.064844
 20
-0.108437
 21
-0.108906
  0
LINE
  8
APS_GEOMETRY
 10
0.064844
 11
0.064844
 20
-0.108906
 21
-0.109062
  0
LINE
  8
APS_GEOMETRY
 10
0.064844
 11
0.064531
 20
-0.109062
 21
-0.109062
  0
LINE
  8
APS_GEOMETRY
 10
0.064531
 11
0.064531
 20
-0.109062
 21
-0.108906
  0
LINE
  8
APS_GEOMETRY
 10
0.064531
 11
0.060781
 20
-0.108906
 21
-0.099375
  0
LINE
  8
APS_GEOMETRY
 10
0.060781
 11
0.060625
 20
-0.099375
 21
-0.099375
  0
LINE
  8
APS_GEOMETRY
 10
0.060625
 11
0.060938
 20
-0.099375
 21
-0.104375
  0
LINE
  8
APS_GEOMETRY
 10
0.060938
 11
0.060625
 20
-0.104375
 21
-0.104375
  0
LINE
  8
APS_GEOMETRY
 10
0.060625
 11
0.060625
 20
-0.104375
 21
-0.104219
  0
LINE
  8
APS_GEOMETRY
 10
0.060625
 11
0.056094
 20
-0.104219
 21
-0.098125
  0
LINE
  8
APS_GEOMETRY
 10
0.056094
 11
0.055938
 20
-0.098125
 21
-0.098125
  0
ARC
  8
APS_GEOMETRY
 10
-0.064591
 20
-0.147999
 40
0.13044
 50
18.199165
 51
22.479434
  0
ARC
  8
APS_GEOMETRY
 10
0.052415
 20
-0.109531
 40
0.007273
 50
0.0
 51
18.199165
  0
ARC
  8
APS_GEOMETRY
 10
0.056685
 20
-0.109531
 40
0.003003
 50
335.224859
 51
0.0
  0
ARC
  8
APS_GEOMETRY
 10
0.057712
 20
-0.110005
 40
0.001871
 50
303.690068
 51
335.224859
  0
LINE
  8
APS_GEOMETRY
 10
0.05875
 11
0.053438
 20
-0.111563
 21
-0.102812
  0
LINE
  8
APS_GEOMETRY
 10
0.053438
 11
0.053281
 20
-0.102812
 21
-0.102812
  0
ARC
  8
APS_GEOMETRY
 10
0.052818
 20
-0.103275
 40
0.000655
 50
26.565051
 51
45.0
  0
ARC
  8
APS_GEOMETRY
 10
0.053119
 20
-0.103125
 40
0.000318
 50
0.0
 51
26.565051
  0
LINE
  8
APS_GEOMETRY
 10
0.053438
 11
0.057031
 20
-0.103125
 21
-0.111406
  0
LINE
  8
APS_GEOMETRY
 10
0.057031
 11
0.056875
 20
-0.111406
 21
-0.111406
  0
LINE
  8
APS_GEOMETRY
 10
0.056875
 11
0.056719
 20
-0.111406
 21
-0.111094
  0
LINE
  8
APS_GEOMETRY
 10
0.056719
 11
0.053125
 20
-0.111094
 21
-0.1075
  0
LINE
  8
APS_GEOMETRY
 10
0.053125
 11
0.052813
 20
-0.1075
 21
-0.1075
  0
LINE
  8
APS_GEOMETRY
 10
0.052813
 11
0.052813
 20
-0.1075
 21
-0.107656
  0
ARC
  8
APS_GEOMETRY
 10
0.034822
 20
-0.127031
 40
0.02644
 50
34.508523
 51
47.121096
  0
ARC
  8
APS_GEOMETRY
 10
0.049193
 20
-0.117151
 40
0.009
 50
12.804266
 51
34.508523
  0
LINE
  8
APS_GEOMETRY
 10
0.057969
 11
0.057969
 20
-0.115156
 21
-0.116875
  0
LINE
  8
APS_GEOMETRY
 10
0.057969
 11
0.050625
 20
-0.116875
 21
-0.113906
  0
LINE
  8
APS_GEOMETRY
 10
0.050625
 11
0.050625
 20
-0.113906
 21
-0.114063
  0
LINE
  8
APS_GEOMETRY
 10
0.050625
 11
0.050781
 20
-0.114063
 21
-0.114063
  0
ARC
  8
APS_GEOMETRY
 10
0.028925
 20
-0.148213
 40
0.040546
 50
50.844566
 51
57.380757
  0
ARC
  8
APS_GEOMETRY
 10
-0.053437
 20
-0.249359
 40
0.170983
 50
47.663001
 51
50.844566
  0
LINE
  8
APS_GEOMETRY
 10
0.061719
 11
0.061992
 20
-0.122969
 21
-0.123242
  0
LINE
  8
APS_GEOMETRY
 10
0.061992
 11
0.0625
 20
-0.123242
 21
-0.12375
  0
ARC
  8
APS_GEOMETRY
 10
0.0625
 20
-0.123494
 40
0.000256
 50
270.0
 51
351.027373
  0
ARC
  8
APS_GEOMETRY
 10
0.045319
 20
-0.120781
 40
0.01765
 50
351.027373
 51
0.0
  0
LINE
  8
APS_GEOMETRY
 10
0.062969
 11
0.062969
 20
-0.120781
 21
-0.120937
  0
ARC
  8
APS_GEOMETRY
 10
0.062066
 20
-0.120486
 40
0.001009
 50
333.434949
 51
352.874984
  0
ARC
  8
APS_GEOMETRY
 10
0.055676
 20
-0.119687
 40
0.007449
 50
352.874984
 51
0.0
  0
LINE
  8
APS_GEOMETRY
 10
0.063125
 11
0.063125
 20
-0.119687
 21
-0.114531
  0
LINE
  8
APS_GEOMETRY
 10
0.063125
 11
0.063594
 20
-0.114531
 21
-0.114531
  0
ARC
  8
APS_GEOMETRY
 10
0.050472
 20
-0.121092
 40
0.01467
 50
13.038657
 51
26.565051
  0
ARC
  8
APS_GEOMETRY
 10
-0.10226
 20
-0.156462
 40
0.171444
 50
9.090277
 51
13.038657
  0
LINE
  8
APS_GEOMETRY
 10
0.067031
 11
0.068438
 20
-0.129375
 21
-0.11375
  0
LINE
  8
APS_GEOMETRY
 10
0.068438
 11
0.068906
 20
-0.11375
 21
-0.11375
  0
ARC
  8
APS_GEOMETRY
 10
0.050289
 20
-0.122394
 40
0.020526
 50
11.659293
 51
24.904769
  0
ARC
  8
APS_GEOMETRY
 10
0.044473
 20
-0.123594
 40
0.026464
 50
0.0
 51
11.659293
  0
ARC
  8
APS_GEOMETRY
 10
0.047497
 20
-0.123594
 40
0.023441
 50
355.426079
 51
0.0
  0
ARC
  8
APS_GEOMETRY
 10
0.042784
 20
-0.123217
 40
0.028169
 50
351.253838
 51
355.426079
  0
LINE
  8
APS_GEOMETRY
 10
0.070625
 11
0.070625
 20
-0.1275
 21
-0.129063
  0
ARC
  8
APS_GEOMETRY
 10
-0.006808
 20
-0.097516
 40
0.083613
 50
337.833654
 51
340.953376
  0
ARC
  8
APS_GEOMETRY
 10
-0.260187
 20
-0.01004
 40
0.351667
 50
340.953376
 51
342.474432
  0
LINE
  8
APS_GEOMETRY
 10
0.075156
 11
0.075469
 20
-0.115937
 21
-0.115937
  0
LINE
  8
APS_GEOMETRY
 10
0.075469
 11
0.073906
 20
-0.115937
 21
-0.125156
  0
LINE
  8
APS_GEOMETRY
 10
0.073906
 11
0.074219
 20
-0.125156
 21
-0.130469
  0
LINE
  8
APS_GEOMETRY
 10
0.074219
 11
0.074531
 20
-0.130469
 21
-0.130469
  0
ARC
  8
APS_GEOMETRY
 10
0.063996
 20
-0.12204
 40
0.013492
 50
321.340192
 51
338.091295
  0
ARC
  8
APS_GEOMETRY
 10
-0.032882
 20
-0.083079
 40
0.117911
 50
338.091295
 51
343.739795
  0
LINE
  8
APS_GEOMETRY
 10
0.080313
 11
0.081094
 20
-0.116094
 21
-0.114688
  0
LINE
  8
APS_GEOMETRY
 10
0.081094
 11
0.081094
 20
-0.114688
 21
-0.114531
  0
LINE
  8
APS_GEOMETRY
 10
0.081094
 11
0.08125
 20
-0.114531
 21
-0.114531
  0
LINE
  8
APS_GEOMETRY
 10
0.08125
 11
0.08125
 20
-0.114531
 21
-0.114688
  0
LINE
  8
APS_GEOMETRY
 10
0.08125
 11
0.081406
 20
-0.114688
 21
-0.114688
  0
ARC
  8
APS_GEOMETRY
 10
0.06889
 20
-0.114688
 40
0.012517
 50
354.289407
 51
0.0
  0
ARC
  8
APS_GEOMETRY
 10
0.023776
 20
-0.110176
 40
0.057856
 50
351.634114
 51
354.289407
  0
ARC
  8
APS_GEOMETRY
 10
0.138256
 20
-0.127011
 40
0.057856
 50
171.634114
 51
174.289407
  0
ARC
  8
APS_GEOMETRY
 10
0.093142
 20
-0.1225
 40
0.012517
 50
174.289407
 51
180.0
  0
ARC
  8
APS_GEOMETRY
 10
0.088659
 20
-0.1225
 40
0.008034
 50
180.0
 51
198.434949
  0
ARC
  8
APS_GEOMETRY
 10
0.082203
 20
-0.124652
 40
0.001228
 50
198.434949
 51
246.801409
  0
ARC
  8
APS_GEOMETRY
 10
0.08237
 20
-0.124478
 40
0.001457
 50
243.434949
 51
292.954087
  0
ARC
  8
APS_GEOMETRY
 10
0.068621
 20
-0.092016
 40
0.036711
 50
292.954087
 51
302.52489
  0
LINE
  8
APS_GEOMETRY
 10
0.088359
 11
0.092402
 20
-0.122969
 21
-0.120391
  0
LINE
  8
APS_GEOMETRY
 10
0.092402
 11
0.09375
 20
-0.120391
 21
-0.119531
  0
LINE
  8
APS_GEOMETRY
 10
0.09375
 11
0.094219
 20
-0.119531
 21
-0.119531
  0
ARC
  8
APS_GEOMETRY
 10
0.100422
 20
-0.124494
 40
0.007945
 50
127.568592
 51
141.340192
  0
ARC
  8
APS_GEOMETRY
 10
0.09625
 20
-0.11907
 40
0.001101
 50
90.0
 51
127.568592
  0
ARC
  8
APS_GEOMETRY
 10
0.09625
 20
-0.118895
 40
0.000926
 50
71.565051
 51
90.0
  0
ARC
  8
APS_GEOMETRY
 10
0.0964
 20
-0.118443
 40
0.00045
 50
45.0
 51
71.565051
  0
ARC
  8
APS_GEOMETRY
 10
0.095796
 20
-0.120586
 40
0.002629
 50
69.443955
 51
97.495858
  0
ARC
  8
APS_GEOMETRY
 10
0.100244
 20
-0.15439
 40
0.036724
 50
97.495858
 51
104.931417
  0
LINE
  8
APS_GEOMETRY
 10
0.090781
 11
0.089063
 20
-0.118906
 21
-0.119687
  0
LINE
  8
APS_GEOMETRY
 10
0.089063
 11
0.08875
 20
-0.119687
 21
-0.119687
  0
LINE
  8
APS_GEOMETRY
 10
0.08875
 11
0.08875
 20
-0.119687
 21
-0.119531
  0
LINE
  8
APS_GEOMETRY
 10
0.08875
 11
0.088594
 20
-0.119531
 21
-0.119531
  0
ARC
  8
APS_GEOMETRY
 10
0.091668
 20
-0.12009
 40
0.003124
 50
138.900494
 51
169.695154
  0
ARC
  8
APS_GEOMETRY
 10
0.146232
 20
-0.167688
 40
0.075532
 50
132.70939
 51
138.900494
  0
ARC
  8
APS_GEOMETRY
 10
0.144345
 20
-0.165644
 40
0.07275
 50
126.304497
 51
132.70939
  0
ARC
  8
APS_GEOMETRY
 10
0.102656
 20
-0.108902
 40
0.002339
 50
90.0
 51
126.304497
  0
LINE
  8
APS_GEOMETRY
 10
0.102656
 11
0.102656
 20
-0.106562
 21
-0.106406
  0
ARC
  8
APS_GEOMETRY
 10
0.105462
 20
-0.118751
 40
0.01266
 50
102.804266
 51
118.55962
  0
ARC
  8
APS_GEOMETRY
 10
0.156166
 20
-0.211906
 40
0.118719
 50
118.55962
 51
123.690068
  0
ARC
  8
APS_GEOMETRY
 10
0.075073
 20
-0.094837
 40
0.023805
 50
306.869898
 51
309.805571
  0
ARC
  8
APS_GEOMETRY
 10
0.020011
 20
-0.021422
 40
0.115575
 50
305.537678
 51
306.869898
  0
LINE
  8
APS_GEOMETRY
 10
0.087188
 11
0.087188
 20
-0.115469
 21
-0.115313
  0
LINE
  8
APS_GEOMETRY
 10
0.087188
 11
0.087031
 20
-0.115313
 21
-0.115313
  0
ARC
  8
APS_GEOMETRY
 10
0.094037
 20
-0.116091
 40
0.007049
 50
162.255328
 51
173.659808
  0
ARC
  8
APS_GEOMETRY
 10
0.112476
 20
-0.121991
 40
0.026409
 50
156.370622
 51
162.255328
  0
ARC
  8
APS_GEOMETRY
 10
0.096892
 20
-0.115174
 40
0.009399
 50
140.906141
 51
156.370622
  0
ARC
  8
APS_GEOMETRY
 10
0.090313
 20
-0.109827
 40
0.000921
 50
90.0
 51
140.906141
  0
LINE
  8
APS_GEOMETRY
 10
0.090313
 11
0.090313
 20
-0.108906
 21
-0.10875
  0
LINE
  8
APS_GEOMETRY
 10
0.090313
 11
0.09
 20
-0.10875
 21
-0.10875
  0
LINE
  8
APS_GEOMETRY
 10
0.09
 11
0.086406
 20
-0.10875
 21
-0.111719
  0
LINE
  8
APS_GEOMETRY
 10
0.086406
 11
0.08625
 20
-0.111719
 21
-0.111719
  0
LINE
  8
APS_GEOMETRY
 10
0.08625
 11
0.08625
 20
-0.111719
 21
-0.111563
  0
ARC
  8
APS_GEOMETRY
 10
0.108456
 20
-0.111563
 40
0.022206
 50
169.215702
 51
180.0
  0
ARC
  8
APS_GEOMETRY
 10
0.129923
 20
-0.115651
 40
0.044059
 50
161.565051
 51
169.215702
  0
LINE
  8
APS_GEOMETRY
 10
0.088125
 11
0.089531
 20
-0.101719
 21
-0.099062
  0
LINE
  8
APS_GEOMETRY
 10
0.089531
 11
0.089688
 20
-0.099062
 21
-0.099062
  0
LINE
  8
APS_GEOMETRY
 10
0.089688
 11
0.089688
 20
-0.099062
 21
-0.099219
  0
LINE
  8
APS_GEOMETRY
 10
0.089688
 11
0.089844
 20
-0.099219
 21
-0.099219
  0
LINE
  8
APS_GEOMETRY
 10
0.089844
 11
0.088281
 20
-0.099219
 21
-0.107187
  0
LINE
  8
APS_GEOMETRY
 10
0.088281
 11
0.08875
 20
-0.107187
 21
-0.107187
  0
LINE
  8
APS_GEOMETRY
 10
0.08875
 11
0.08875
 20
-0.107187
 21
-0.107031
  0
ARC
  8
APS_GEOMETRY
 10
0.132173
 20
-0.129667
 40
0.048969
 50
133.885437
 51
152.468023
  0
ARC
  8
APS_GEOMETRY
 10
0.12134
 20
-0.118403
 40
0.033341
 50
111.317912
 51
133.885437
  0
ARC
  8
APS_GEOMETRY
 10
0.133866
 20
-0.152322
 40
0.069495
 50
106.782644
 51
110.772255
  0
ARC
  8
APS_GEOMETRY
 10
0.139254
 20
-0.170188
 40
0.088156
 50
103.24052
 51
106.782644
  0
ARC
  8
APS_GEOMETRY
 10
0.140222
 20
-0.253648
 40
0.17059
 50
95.856014
 51
97.125016
  0
ARC
  8
APS_GEOMETRY
 10
0.129539
 20
-0.149495
 40
0.06589
 50
93.814075
 51
95.856014
  0
ARC
  8
APS_GEOMETRY
 10
0.123081
 20
-0.089284
 40
0.00591
 50
69.443955
 51
82.234834
  0
ARC
  8
APS_GEOMETRY
 10
0.121719
 20
-0.099275
 40
0.015993
 50
82.234834
 51
90.0
  0
ARC
  8
APS_GEOMETRY
 10
0.121719
 20
-0.108364
 40
0.025082
 50
90.0
 51
101.003541
  0
ARC
  8
APS_GEOMETRY
 10
0.185031
 20
-0.433972
 40
0.356789
 50
101.003541
 51
103.916877
  0
ARC
  8
APS_GEOMETRY
 10
0.097809
 20
-0.084836
 40
0.003153
 50
290.224859
 51
296.565051
  0
ARC
  8
APS_GEOMETRY
 10
0.027835
 20
0.105092
 40
0.205561
 50
289.440035
 51
290.224859
  0
ARC
  8
APS_GEOMETRY
 10
0.092764
 20
-0.081082
 40
0.008423
 50
281.888658
 51
294.443955
  0
ARC
  8
APS_GEOMETRY
 10
0.093739
 20
-0.085712
 40
0.003692
 50
262.874984
 51
281.888658
  0
ARC
  8
APS_GEOMETRY
 10
0.093777
 20
-0.083426
 40
0.00597
 50
247.479434
 51
265.236358
  0
ARC
  8
APS_GEOMETRY
 10
0.109157
 20
-0.046332
 40
0.046126
 50
241.113418
 51
247.479434
  0
LINE
  8
APS_GEOMETRY
 10
0.086875
 11
0.069063
 20
-0.086719
 21
-0.083906
  0
ARC
  8
APS_GEOMETRY
 10
0.059279
 20
-0.093081
 40
0.011528
 50
7.765166
 51
25.463345
  0
ARC
  8
APS_GEOMETRY
 10
0.02716
 20
-0.097461
 40
0.043944
 50
358.72697
 51
7.765166
  0
ARC
  8
APS_GEOMETRY
 10
0.171141
 20
-0.103996
 40
0.100201
 50
176.82017
 51
178.430645
  0
ARC
  8
APS_GEOMETRY
 10
1.003743
 20
-0.126807
 40
0.933116
 50
178.430645
 51
178.958373
  0
ARC
  8
APS_GEOMETRY
 10
0.079884
 20
-0.111361
 40
0.009229
 50
170.537678
 51
176.423666
  0
ARC
  8
APS_GEOMETRY
 10
0.095609
 20
-0.112344
 40
0.024984
 50
176.423666
 51
180.0
  0
LINE
  8
APS_GEOMETRY
 10
0.070625
 11
0.070625
 20
-0.112344
 21
-0.1125
  0
LINE
  8
APS_GEOMETRY
 10
0.070625
 11
0.070313
 20
-0.1125
 21
-0.1125
  0
LINE
  8
APS_GEOMETRY
 10
0.070313
 11
0.070313
 20
-0.1125
 21
-0.112344
  0
LINE
  8
APS_GEOMETRY
 10
0.070313
 11
0.070156
 20
-0.112344
 21
-0.112344
  0
ARC
  8
APS_GEOMETRY
 10
0.179726
 20
-0.079473
 40
0.114395
 50
191.821488
 51
196.699244
  0
ARC
  8
APS_GEOMETRY
 10
0.086877
 20
-0.098906
 40
0.019534
 50
180.0
 51
191.821488
  0
ARC
  8
APS_GEOMETRY
 10
0.100131
 20
-0.098906
 40
0.032788
 50
167.735226
 51
180.0
  0
ARC
  8
APS_GEOMETRY
 10
0.079262
 20
-0.09437
 40
0.011431
 50
146.888658
 51
167.735226
  0
ARC
  8
APS_GEOMETRY
 10
0.084688
 20
-0.091398
 40
0.002336
 50
78.690068
 51
90.0
  0
ARC
  8
APS_GEOMETRY
 10
0.084893
 20
-0.09037
 40
0.001287
 50
63.434949
 51
78.690068
  0
LINE
  8
APS_GEOMETRY
 10
0.085469
 11
0.085625
 20
-0.089219
 21
-0.089219
  0
ARC
  8
APS_GEOMETRY
 10
0.065285
 20
-0.085405
 40
0.020695
 50
335.415131
 51
349.380345
  0
ARC
  8
APS_GEOMETRY
 10
-0.253255
 20
0.060332
 40
0.37099
 50
332.12449
 51
335.415131
  0
ARC
  8
APS_GEOMETRY
 10
0.074688
 20
-0.111873
 40
0.001252
 50
255.963757
 51
270.0
  0
ARC
  8
APS_GEOMETRY
 10
0.074765
 20
-0.111565
 40
0.00157
 50
243.434949
 51
255.963757
  0
LINE
  8
APS_GEOMETRY
 10
0.074063
 11
0.073906
 20
-0.112969
 21
-0.112969
  0
ARC
  8
APS_GEOMETRY
 10
0.100098
 20
-0.113677
 40
0.026201
 50
165.963757
 51
178.451842
  0
ARC
  8
APS_GEOMETRY
 10
0.123363
 20
-0.119493
 40
0.050182
 50
156.948699
 51
165.963757
  0
ARC
  8
APS_GEOMETRY
 10
0.112977
 20
-0.11458
 40
0.038704
 50
145.175511
 51
157.619865
  0
ARC
  8
APS_GEOMETRY
 10
0.091946
 20
-0.099951
 40
0.013086
 50
123.690068
 51
145.175511
  0
ARC
  8
APS_GEOMETRY
 10
0.044175
 20
-0.107133
 40
0.015554
 50
47.045408
 51
64.230672
  0
ARC
  8
APS_GEOMETRY
 10
0.053289
 20
-0.097344
 40
0.00218
 50
0.0
 51
47.045408
  0
LINE
  8
APS_GEOMETRY
 10
0.055469
 11
0.055313
 20
-0.097344
 21
-0.097344
  0
LINE
  8
APS_GEOMETRY
 10
0.055313
 11
0.055313
 20
-0.097344
 21
-0.0975
  0
LINE
  8
APS_GEOMETRY
 10
0.055313
 11
0.054844
 20
-0.0975
 21
-0.0975
  0
LINE
  8
APS_GEOMETRY
 10
0.054844
 11
0.050938
 20
-0.0975
 21
-0.093594
  0
ARC
  8
APS_GEOMETRY
 10
0.050619
 20
-0.093594
 40
0.000318
 50
0.0
 51
26.565051
  0
ARC
  8
APS_GEOMETRY
 10
0.050318
 20
-0.093744
 40
0.000655
 50
26.565051
 51
45.0
  0
ARC
  8
APS_GEOMETRY
 10
0.050938
 20
-0.093281
 40
0.000156
 50
135.0
 51
180.0
  0
ARC
  8
APS_GEOMETRY
 10
0.050938
 20
-0.093281
 40
0.000156
 50
90.0
 51
135.0
  0
ARC
  8
APS_GEOMETRY
 10
0.052815
 20
-0.093278
 40
0.001109
 50
225.0
 51
236.309932
  0
ARC
  8
APS_GEOMETRY
 10
0.053747
 20
-0.091881
 40
0.002789
 50
236.309932
 51
243.434949
  0
LINE
  8
APS_GEOMETRY
 10
0.0525
 11
0.0525
 20
-0.094375
 21
-0.094219
  0
ARC
  8
APS_GEOMETRY
 10
0.0525
 20
-0.093743
 40
0.000476
 50
251.565051
 51
270.0
  0
ARC
  8
APS_GEOMETRY
 10
0.053118
 20
-0.091889
 40
0.00243
 50
243.434949
 51
251.565051
  0
LINE
  8
APS_GEOMETRY
 10
0.045781
 11
0.049531
 20
-0.103125
 21
-0.105
  0
LINE
  8
APS_GEOMETRY
 10
0.049531
 11
0.049531
 20
-0.105
 21
-0.105156
  0
LINE
  8
APS_GEOMETRY
 10
0.049531
 11
0.045781
 20
-0.105156
 21
-0.10375
  0
LINE
  8
APS_GEOMETRY
 10
0.045781
 11
0.045625
 20
-0.10375
 21
-0.10375
  0
ARC
  8
APS_GEOMETRY
 10
0.046257
 20
-0.10375
 40
0.000632
 50
165.963757
 51
180.0
  0
ARC
  8
APS_GEOMETRY
 10
0.051855
 20
-0.10515
 40
0.006402
 50
161.565051
 51
165.963757
  0
ARC
  8
APS_GEOMETRY
 10
0.052385
 20
-0.11091
 40
0.010655
 50
24.775141
 51
33.690068
  0
ARC
  8
APS_GEOMETRY
 10
0.060789
 20
-0.107031
 40
0.001398
 50
0.0
 51
24.775141
  0
ARC
  8
APS_GEOMETRY
 10
0.061875
 20
-0.107031
 40
0.000313
 50
315.0
 51
0.0
  0
ARC
  8
APS_GEOMETRY
 10
0.061875
 20
-0.107031
 40
0.000313
 50
270.0
 51
315.0
  0
LINE
  8
APS_GEOMETRY
 10
0.061875
 11
0.061875
 20
-0.107344
 21
-0.1075
  0
LINE
  8
APS_GEOMETRY
 10
0.061875
 11
0.061719
 20
-0.1075
 21
-0.1075
  0
LINE
  8
APS_GEOMETRY
 10
0.061719
 11
0.061719
 20
-0.1075
 21
-0.107344
  0
LINE
  8
APS_GEOMETRY
 10
0.061719
 11
0.06125
 20
-0.107344
 21
-0.105
  0
ARC
  8
APS_GEOMETRY
 10
0.059214
 20
-0.106721
 40
0.002451
 50
18.434949
 51
26.565051
  0
ARC
  8
APS_GEOMETRY
 10
0.053604
 20
-0.108591
 40
0.008365
 50
14.036243
 51
18.434949
  0
ARC
  8
APS_GEOMETRY
 10
0.060306
 20
-0.106562
 40
0.001413
 50
0.0
 51
18.434949
  0
ARC
  8
APS_GEOMETRY
 10
0.059694
 20
-0.106766
 40
0.002058
 50
18.434949
 51
33.690068
  0
ARC
  8
APS_GEOMETRY
 10
0.10453
 20
-0.106717
 40
0.001545
 50
135.0
 51
143.130102
  0
ARC
  8
APS_GEOMETRY
 10
0.104064
 20
-0.106368
 40
0.000962
 50
143.130102
 51
153.434949
  0
ARC
  8
APS_GEOMETRY
 10
0.102342
 20
-0.105507
 40
0.000962
 50
323.130102
 51
333.434949
  0
ARC
  8
APS_GEOMETRY
 10
0.101876
 20
-0.105158
 40
0.001545
 50
315.0
 51
323.130102
  0
LINE
  8
APS_GEOMETRY
 10
0.102969
 11
0.103281
 20
-0.10625
 21
-0.10625
  0
LINE
  8
APS_GEOMETRY
 10
0.103281
 11
0.103281
 20
-0.10625
 21
-0.106094
  0
LINE
  8
APS_GEOMETRY
 10
0.103281
 11
0.104063
 20
-0.106094
 21
-0.105781
  0
LINE
  8
APS_GEOMETRY
 10
0.104063
 11
0.104063
 20
-0.105781
 21
-0.105625
  0
LINE
  8
APS_GEOMETRY
 10
0.104063
 11
0.103438
 20
-0.105625
 21
-0.105625
  0
LINE
  8
APS_GEOMETRY
 10
0.052344
 11
0.052344
 20
-0.106875
 21
-0.107187
  0
ARC
  8
APS_GEOMETRY
 10
0.05252
 20
-0.107187
 40
0.000176
 50
135.0
 51
180.0
  0
ARC
  8
APS_GEOMETRY
 10
0.053105
 20
-0.107773
 40
0.001004
 50
116.565051
 51
135.0
  0
LINE
  8
APS_GEOMETRY
 10
0.052656
 11
0.052344
 20
-0.106875
 21
-0.106875
  0
LINE
  8
APS_GEOMETRY
 10
0.092969
 11
0.093125
 20
-0.1075
 21
-0.1075
  0
ARC
  8
APS_GEOMETRY
 10
0.093443
 20
-0.1075
 40
0.000318
 50
180.0
 51
206.565051
  0
ARC
  8
APS_GEOMETRY
 10
0.093744
 20
-0.10735
 40
0.000655
 50
206.565051
 51
225.0
  0
ARC
  8
APS_GEOMETRY
 10
0.093281
 20
-0.107969
 40
0.000156
 50
90.0
 51
135.0
  0
ARC
  8
APS_GEOMETRY
 10
0.093281
 20
-0.107969
 40
0.000156
 50
135.0
 51
180.0
  0
LINE
  8
APS_GEOMETRY
 10
0.093125
 11
0.092969
 20
-0.107969
 21
-0.107812
  0
LINE
  8
APS_GEOMETRY
 10
0.092969
 11
0.092969
 20
-0.107812
 21
-0.1075
  0
ARC
  8
APS_GEOMETRY
 10
0.09275
 20
-0.107656
 40
0.00025
 50
180.0
 51
213.690068
  0
ARC
  8
APS_GEOMETRY
 10
0.094343
 20
-0.106594
 40
0.002165
 50
213.690068
 51
225.0
  0
LINE
  8
APS_GEOMETRY
 10
0.092813
 11
0.092656
 20
-0.108125
 21
-0.108125
  0
LINE
  8
APS_GEOMETRY
 10
0.092656
 11
0.092656
 20
-0.108125
 21
-0.108281
  0
LINE
  8
APS_GEOMETRY
 10
0.092656
 11
0.0925
 20
-0.108281
 21
-0.108125
  0
ARC
  8
APS_GEOMETRY
 10
0.092182
 20
-0.108125
 40
0.000318
 50
0.0
 51
26.565051
  0
ARC
  8
APS_GEOMETRY
 10
0.091881
 20
-0.108275
 40
0.000655
 50
26.565051
 51
45.0
  0
ARC
  8
APS_GEOMETRY
 10
0.0925
 20
-0.107812
 40
0.000156
 50
135.0
 51
180.0
  0
ARC
  8
APS_GEOMETRY
 10
0.0925
 20
-0.107812
 40
0.000156
 50
90.0
 51
135.0
  0
ARC
  8
APS_GEOMETRY
 10
0.082422
 20
-0.101446
 40
0.030004
 50
193.781597
 51
208.009177
  0
ARC
  8
APS_GEOMETRY
 10
0.056765
 20
-0.115093
 40
0.000944
 50
208.009177
 51
296.565051
  0
ARC
  8
APS_GEOMETRY
 10
0.056963
 20
-0.115265
 40
0.000709
 50
288.434949
 51
323.130102
  0
ARC
  8
APS_GEOMETRY
 10
0.057026
 20
-0.115313
 40
0.00063
 50
323.130102
 51
0.0
  0
ARC
  8
APS_GEOMETRY
 10
0.053107
 20
-0.115313
 40
0.004549
 50
0.0
 51
33.070678
  0
ARC
  8
APS_GEOMETRY
 10
0.039193
 20
-0.124373
 40
0.021153
 50
33.070678
 51
48.2397
  0
ARC
  8
APS_GEOMETRY
 10
0.428589
 20
-0.484637
 40
0.499467
 50
131.185925
 51
132.137595
  0
ARC
  8
APS_GEOMETRY
 10
0.095008
 20
-0.115943
 40
0.002264
 50
132.137595
 51
146.309932
  0
ARC
  8
APS_GEOMETRY
 10
0.099014
 20
-0.126046
 40
0.012794
 50
117.407575
 51
137.045408
  0
ARC
  8
APS_GEOMETRY
 10
0.091682
 20
-0.119219
 40
0.002776
 50
137.045408
 51
180.0
  0
LINE
  8
APS_GEOMETRY
 10
0.088906
 11
0.089063
 20
-0.119219
 21
-0.119219
  0
LINE
  8
APS_GEOMETRY
 10
0.089063
 11
0.089063
 20
-0.119219
 21
-0.119062
  0
LINE
  8
APS_GEOMETRY
 10
0.089063
 11
0.09125
 20
-0.119062
 21
-0.118594
  0
ARC
  8
APS_GEOMETRY
 10
0.085229
 20
-0.104546
 40
0.015284
 50
293.198591
 51
306.326826
  0
ARC
  8
APS_GEOMETRY
 10
0.086935
 20
-0.106865
 40
0.012405
 50
306.326826
 51
320.906141
  0
ARC
  8
APS_GEOMETRY
 10
0.087475
 20
-0.108629
 40
0.010922
 50
326.309932
 51
329.264512
  0
ARC
  8
APS_GEOMETRY
 10
-1.027516
 20
0.554338
 40
1.308123
 50
329.264512
 51
329.534455
  0
ARC
  8
APS_GEOMETRY
 10
0.1
 20
-0.108588
 40
0.000318
 50
243.434949
 51
270.0
  0
ARC
  8
APS_GEOMETRY
 10
0.10015
 20
-0.108287
 40
0.000655
 50
225.0
 51
243.434949
  0
ARC
  8
APS_GEOMETRY
 10
0.057195
 20
-0.110469
 40
0.000476
 50
180.0
 51
198.434949
  0
ARC
  8
APS_GEOMETRY
 10
0.059048
 20
-0.109851
 40
0.00243
 50
198.434949
 51
206.565051
  0
ARC
  8
APS_GEOMETRY
 10
0.059048
 20
-0.109851
 40
0.00243
 50
198.434949
 51
206.565051
  0
ARC
  8
APS_GEOMETRY
 10
0.057195
 20
-0.110469
 40
0.000476
 50
180.0
 51
198.434949
  0
LINE
  8
APS_GEOMETRY
 10
0.057031
 11
0.057969
 20
-0.111406
 21
-0.112188
  0
LINE
  8
APS_GEOMETRY
 10
0.057969
 11
0.057969
 20
-0.112188
 21
-0.112344
  0
LINE
  8
APS_GEOMETRY
 10
0.057969
 11
0.057813
 20
-0.112344
 21
-0.112344
  0
LINE
  8
APS_GEOMETRY
 10
0.057813
 11
0.057813
 20
-0.112344
 21
-0.1125
  0
LINE
  8
APS_GEOMETRY
 10
0.057813
 11
0.0575
 20
-0.1125
 21
-0.1125
  0
LINE
  8
APS_GEOMETRY
 10
0.0575
 11
0.0575
 20
-0.1125
 21
-0.112344
  0
LINE
  8
APS_GEOMETRY
 10
0.0575
 11
0.057031
 20
-0.112344
 21
-0.111406
  0
ARC
  8
APS_GEOMETRY
 10
0.050372
 20
-0.112236
 40
0.001639
 50
206.565051
 51
218.659808
  0
ARC
  8
APS_GEOMETRY
 10
0.053738
 20
-0.109543
 40
0.005949
 50
218.659808
 51
225.0
  0
LINE
  8
APS_GEOMETRY
 10
0.049531
 11
0.049531
 20
-0.11375
 21
-0.113437
  0
ARC
  8
APS_GEOMETRY
 10
0.050392
 20
-0.111716
 40
0.001925
 50
233.130102
 51
243.434949
  0
ARC
  8
APS_GEOMETRY
 10
0.051091
 20
-0.110784
 40
0.003089
 50
225.0
 51
233.130102
  0
LINE
  8
APS_GEOMETRY
 10
0.058438
 11
0.05875
 20
-0.113594
 21
-0.113594
  0
LINE
  8
APS_GEOMETRY
 10
0.05875
 11
0.05875
 20
-0.113594
 21
-0.114063
  0
LINE
  8
APS_GEOMETRY
 10
0.05875
 11
0.058438
 20
-0.114063
 21
-0.114063
  0
LINE
  8
APS_GEOMETRY
 10
0.058438
 11
0.058398
 20
-0.114063
 21
-0.114023
  0
LINE
  8
APS_GEOMETRY
 10
0.058398
 11
0.058281
 20
-0.114023
 21
-0.113906
  0
ARC
  8
APS_GEOMETRY
 10
0.0586
 20
-0.113906
 40
0.000318
 50
153.434949
 51
180.0
  0
ARC
  8
APS_GEOMETRY
 10
0.0589
 20
-0.114057
 40
0.000655
 50
135.0
 51
153.434949
  0
LINE
  8
APS_GEOMETRY
 10
0.075781
 11
0.075938
 20
-0.113594
 21
-0.113594
  0
ARC
  8
APS_GEOMETRY
 10
0.075475
 20
-0.114057
 40
0.000655
 50
26.565051
 51
45.0
  0
ARC
  8
APS_GEOMETRY
 10
0.075775
 20
-0.113906
 40
0.000318
 50
0.0
 51
26.565051
  0
LINE
  8
APS_GEOMETRY
 10
0.076094
 11
0.075938
 20
-0.113906
 21
-0.114063
  0
LINE
  8
APS_GEOMETRY
 10
0.075938
 11
0.075898
 20
-0.114063
 21
-0.114023
  0
LINE
  8
APS_GEOMETRY
 10
0.075898
 11
0.075781
 20
-0.114023
 21
-0.113906
  0
LINE
  8
APS_GEOMETRY
 10
0.075781
 11
0.075781
 20
-0.113906
 21
-0.113594
  0
LINE
  8
APS_GEOMETRY
 10
0.075469
 11
0.075469
 20
-0.114219
 21
-0.115781
  0
LINE
  8
APS_GEOMETRY
 10
0.075469
 11
0.075313
 20
-0.115781
 21
-0.115781
  0
LINE
  8
APS_GEOMETRY
 10
0.075313
 11
0.075313
 20
-0.115781
 21
-0.115625
  0
LINE
  8
APS_GEOMETRY
 10
0.075313
 11
0.075156
 20
-0.115625
 21
-0.115625
  0
ARC
  8
APS_GEOMETRY
 10
0.070619
 20
-0.114113
 40
0.004782
 50
341.565051
 51
347.471192
  0
ARC
  8
APS_GEOMETRY
 10
0.05798
 20
-0.111304
 40
0.01773
 50
347.471192
 51
350.537678
  0
ARC
  8
APS_GEOMETRY
 10
0.050938
 20
-0.137753
 40
0.014159
 50
52.016502
 51
90.0
  0
ARC
  8
APS_GEOMETRY
 10
0.055327
 20
-0.132131
 40
0.007026
 50
356.987212
 51
52.016502
  0
LINE
  8
APS_GEOMETRY
 10
0.062344
 11
0.061719
 20
-0.1325
 21
-0.135781
  0
LINE
  8
APS_GEOMETRY
 10
0.061719
 11
0.061406
 20
-0.135781
 21
-0.135781
  0
ARC
  8
APS_GEOMETRY
 10
0.059781
 20
-0.137203
 40
0.00216
 50
41.185925
 51
82.278174
  0
ARC
  8
APS_GEOMETRY
 10
0.052187
 20
-0.193205
 40
0.058673
 50
82.278174
 51
90.0
  0
LINE
  8
APS_GEOMETRY
 10
0.052187
 11
0.050938
 20
-0.134531
 21
-0.134375
  0
ARC
  8
APS_GEOMETRY
 10
0.077909
 20
-0.114146
 40
0.033715
 50
214.215702
 51
216.869898
  0
ARC
  8
APS_GEOMETRY
 10
0.164382
 20
-0.055345
 40
0.138286
 50
212.905243
 51
214.215702
  0
ARC
  8
APS_GEOMETRY
 10
0.048936
 20
-0.129814
 40
0.000926
 50
198.434949
 51
225.0
  0
ARC
  8
APS_GEOMETRY
 10
0.068637
 20
-0.123247
 40
0.021692
 50
192.994617
 51
198.434949
  0
ARC
  8
APS_GEOMETRY
 10
0.045602
 20
-0.1286
 40
0.001957
 50
14.036243
 51
47.726311
  0
ARC
  8
APS_GEOMETRY
 10
0.04524
 20
-0.128997
 40
0.002494
 50
47.726311
 51
77.471192
  0
ARC
  8
APS_GEOMETRY
 10
0.045641
 20
-0.126562
 40
0.00014
 50
0.0
 51
53.130102
  0
ARC
  8
APS_GEOMETRY
 10
0.045295
 20
-0.127024
 40
0.000717
 50
53.130102
 51
75.963757
  0
ARC
  8
APS_GEOMETRY
 10
0.045571
 20
-0.12592
 40
0.000421
 50
218.659808
 51
255.963757
  0
ARC
  8
APS_GEOMETRY
 10
0.045549
 20
-0.125937
 40
0.000393
 50
180.0
 51
218.659808
  0
LINE
  8
APS_GEOMETRY
 10
0.045156
 11
0.045156
 20
-0.125937
 21
-0.125625
  0
LINE
  8
APS_GEOMETRY
 10
0.045156
 11
0.050938
 20
-0.125625
 21
-0.123594
  0
LINE
  8
APS_GEOMETRY
 10
0.051875
 11
0.051875
 20
-0.125781
 21
-0.125937
  0
ARC
  8
APS_GEOMETRY
 10
0.054073
 20
-0.129706
 40
0.004363
 50
120.256437
 51
146.309932
  0
ARC
  8
APS_GEOMETRY
 10
0.052639
 20
-0.12875
 40
0.002639
 50
146.309932
 51
180.0
  0
ARC
  8
APS_GEOMETRY
 10
0.053744
 20
-0.12875
 40
0.003744
 50
180.0
 51
204.943905
  0
ARC
  8
APS_GEOMETRY
 10
0.056374
 20
-0.127527
 40
0.006645
 50
204.943905
 51
223.602819
  0
ARC
  8
APS_GEOMETRY
 10
0.056974
 20
-0.126955
 40
0.007474
 50
223.602819
 51
240.395549
  0
ARC
  8
APS_GEOMETRY
 10
0.055857
 20
-0.128922
 40
0.005211
 50
240.395549
 51
260.537678
  0
ARC
  8
APS_GEOMETRY
 10
0.055659
 20
-0.129844
 40
0.00427
 50
261.119341
 51
311.185925
  0
ARC
  8
APS_GEOMETRY
 10
0.055522
 20
-0.129688
 40
0.004478
 50
311.185925
 51
0.0
  0
ARC
  8
APS_GEOMETRY
 10
0.06
 20
-0.130006
 40
0.000318
 50
90.0
 51
116.565051
  0
ARC
  8
APS_GEOMETRY
 10
0.06015
 20
-0.130307
 40
0.000655
 50
116.565051
 51
135.0
  0
LINE
  8
APS_GEOMETRY
 10
0.059688
 11
0.055781
 20
-0.129844
 21
-0.133125
  0
ARC
  8
APS_GEOMETRY
 10
0.055402
 20
-0.132114
 40
0.00108
 50
235.304846
 51
290.556045
  0
ARC
  8
APS_GEOMETRY
 10
0.056457
 20
-0.130591
 40
0.002932
 50
202.619865
 51
235.304846
  0
ARC
  8
APS_GEOMETRY
 10
0.063066
 20
-0.127837
 40
0.010092
 50
191.309932
 51
202.619865
  0
ARC
  8
APS_GEOMETRY
 10
0.056915
 20
-0.129067
 40
0.003819
 50
172.874984
 51
191.309932
  0
ARC
  8
APS_GEOMETRY
 10
0.056212
 20
-0.128937
 40
0.003106
 50
150.945396
 51
173.659808
  0
ARC
  8
APS_GEOMETRY
 10
0.053906
 20
-0.127656
 40
0.000468
 50
90.0
 51
150.945396
  0
LINE
  8
APS_GEOMETRY
 10
0.053906
 11
0.053906
 20
-0.127188
 21
-0.127344
  0
LINE
  8
APS_GEOMETRY
 10
0.053906
 11
0.054063
 20
-0.127344
 21
-0.127344
  0
LINE
  8
APS_GEOMETRY
 10
0.054063
 11
0.054844
 20
-0.127344
 21
-0.13
  0
LINE
  8
APS_GEOMETRY
 10
0.054844
 11
0.054844
 20
-0.13
 21
-0.129844
  0
ARC
  8
APS_GEOMETRY
 10
0.051708
 20
-0.126708
 40
0.004434
 50
315.0
 51
331.38954
  0
ARC
  8
APS_GEOMETRY
 10
0.054306
 20
-0.128125
 40
0.001476
 50
331.38954
 51
0.0
  0
ARC
  8
APS_GEOMETRY
 10
0.054129
 20
-0.128125
 40
0.001652
 50
0.0
 51
59.036243
  0
ARC
  8
APS_GEOMETRY
 10
0.051614
 20
-0.132317
 40
0.006541
 50
59.036243
 51
87.70939
  0
ARC
  8
APS_GEOMETRY
 10
0.091297
 20
-0.139143
 40
0.012918
 50
112.249024
 51
128.233825
  0
ARC
  8
APS_GEOMETRY
 10
0.08906
 20
-0.136303
 40
0.009302
 50
128.233825
 51
147.094757
  0
ARC
  8
APS_GEOMETRY
 10
0.085773
 20
-0.134265
 40
0.005436
 50
146.309932
 51
152.241459
  0
ARC
  8
APS_GEOMETRY
 10
0.655633
 20
-0.434192
 40
0.649405
 50
152.241459
 51
152.783888
  0
ARC
  8
APS_GEOMETRY
 10
0.079321
 20
-0.138783
 40
0.001994
 50
105.255119
 51
126.869898
  0
ARC
  8
APS_GEOMETRY
 10
0.079844
 20
-0.140698
 40
0.003979
 50
90.0
 51
105.255119
  0
ARC
  8
APS_GEOMETRY
 10
0.079844
 20
-0.142311
 40
0.005592
 50
75.749967
 51
90.0
  0
ARC
  8
APS_GEOMETRY
 10
0.071399
 20
-0.175563
 40
0.0399
 50
70.426874
 51
75.749967
  0
ARC
  8
APS_GEOMETRY
 10
0.097147
 20
-0.103146
 40
0.036958
 50
250.426874
 51
256.171349
  0
ARC
  8
APS_GEOMETRY
 10
0.089844
 20
-0.132816
 40
0.006403
 50
256.171349
 51
270.0
  0
ARC
  8
APS_GEOMETRY
 10
0.088542
 20
-0.132709
 40
0.006639
 50
281.309932
 51
294.904769
  0
ARC
  8
APS_GEOMETRY
 10
0.079245
 20
-0.112685
 40
0.028716
 50
294.904769
 51
301.429566
  0
LINE
  8
APS_GEOMETRY
 10
0.094219
 11
0.096875
 20
-0.137187
 21
-0.13375
  0
LINE
  8
APS_GEOMETRY
 10
0.096875
 11
0.099531
 20
-0.13375
 21
-0.134219
  0
LINE
  8
APS_GEOMETRY
 10
0.099531
 11
0.099531
 20
-0.134219
 21
-0.134063
  0
LINE
  8
APS_GEOMETRY
 10
0.099531
 11
0.099688
 20
-0.134063
 21
-0.134063
  0
LINE
  8
APS_GEOMETRY
 10
0.099688
 11
0.099688
 20
-0.134063
 21
-0.133906
  0
ARC
  8
APS_GEOMETRY
 10
0.099844
 20
-0.133906
 40
0.000156
 50
135.0
 51
180.0
  0
ARC
  8
APS_GEOMETRY
 10
0.099844
 20
-0.133906
 40
0.000156
 50
90.0
 51
135.0
  0
ARC
  8
APS_GEOMETRY
 10
0.06076
 20
-0.188653
 40
0.067393
 50
54.55429
 51
63.970408
  0
ARC
  8
APS_GEOMETRY
 10
0.086406
 20
-0.13614
 40
0.008952
 50
63.970408
 51
90.0
  0
LINE
  8
APS_GEOMETRY
 10
0.058906
 11
0.05875
 20
-0.1275
 21
-0.13
  0
ARC
  8
APS_GEOMETRY
 10
0.051267
 20
-0.127506
 40
0.007888
 50
341.565051
 51
348.690068
  0
ARC
  8
APS_GEOMETRY
 10
0.055926
 20
-0.128437
 40
0.003136
 50
348.690068
 51
0.0
  0
ARC
  8
APS_GEOMETRY
 10
0.056249
 20
-0.128437
 40
0.002814
 50
0.0
 51
9.462322
  0
ARC
  8
APS_GEOMETRY
 10
0.055939
 20
-0.128489
 40
0.003128
 50
9.462322
 51
18.434949
  0
ARC
  8
APS_GEOMETRY
 10
0.084955
 20
-0.136822
 40
0.007465
 50
56.768289
 51
86.054814
  0
ARC
  8
APS_GEOMETRY
 10
0.087889
 20
-0.132344
 40
0.002111
 50
0.0
 51
56.768289
  0
ARC
  8
APS_GEOMETRY
 10
0.089136
 20
-0.132344
 40
0.000864
 50
296.565051
 51
0.0
  0
ARC
  8
APS_GEOMETRY
 10
0.0875
 20
-0.129071
 40
0.004523
 50
270.0
 51
296.565051
  0
LINE
  8
APS_GEOMETRY
 10
0.0875
 11
0.087031
 20
-0.133594
 21
-0.131563
  0
LINE
  8
APS_GEOMETRY
 10
0.087031
 11
0.086563
 20
-0.131563
 21
-0.131563
  0
ARC
  8
APS_GEOMETRY
 10
0.095803
 20
-0.131563
 40
0.009241
 50
180.0
 51
203.962489
  0
ARC
  8
APS_GEOMETRY
 10
0.091034
 20
-0.133682
 40
0.004022
 50
203.962489
 51
240.642246
  0
LINE
  8
APS_GEOMETRY
 10
0.089063
 11
0.089531
 20
-0.137187
 21
-0.137187
  0
ARC
  8
APS_GEOMETRY
 10
0.085089
 20
-0.133062
 40
0.006062
 50
317.121096
 51
343.886582
  0
ARC
  8
APS_GEOMETRY
 10
0.075029
 20
-0.130156
 40
0.016533
 50
343.886582
 51
0.0
  0
LINE
  8
APS_GEOMETRY
 10
0.091563
 11
0.091719
 20
-0.130156
 21
-0.130156
  0
LINE
  8
APS_GEOMETRY
 10
0.091719
 11
0.091719
 20
-0.130156
 21
-0.13
  0
ARC
  8
APS_GEOMETRY
 10
0.091028
 20
-0.134372
 40
0.004426
 50
48.17983
 51
81.027373
  0
ARC
  8
APS_GEOMETRY
 10
0.092564
 20
-0.132656
 40
0.002124
 50
0.0
 51
48.17983
  0
ARC
  8
APS_GEOMETRY
 10
0.090749
 20
-0.132656
 40
0.003939
 50
332.447188
 51
0.0
  0
ARC
  8
APS_GEOMETRY
 10
0.089102
 20
-0.131797
 40
0.005797
 50
309.805571
 51
332.447188
  0
ARC
  8
APS_GEOMETRY
 10
0.088031
 20
-0.130513
 40
0.007468
 50
291.801409
 51
309.805571
  0
ARC
  8
APS_GEOMETRY
 10
0.088906
 20
-0.1327
 40
0.005113
 50
270.0
 51
291.801409
  0
ARC
  8
APS_GEOMETRY
 10
0.089087
 20
-0.130587
 40
0.007228
 50
228.814075
 51
268.567904
  0
ARC
  8
APS_GEOMETRY
 10
0.08755
 20
-0.132344
 40
0.004893
 50
180.0
 51
228.814075
  0
ARC
  8
APS_GEOMETRY
 10
0.085469
 20
-0.132344
 40
0.002813
 50
135.0
 51
180.0
  0
ARC
  8
APS_GEOMETRY
 10
0.085469
 20
-0.132344
 40
0.002813
 50
90.0
 51
135.0
  0
LINE
  8
APS_GEOMETRY
 10
0.085469
 11
0.085469
 20
-0.129531
 21
-0.129375
  0
ARC
  8
APS_GEOMETRY
 10
0.033366
 20
-0.176322
 40
0.040981
 50
36.869898
 51
45.0
  0
ARC
  8
APS_GEOMETRY
 10
0.064503
 20
-0.152969
 40
0.002059
 50
0.0
 51
36.869898
  0
LINE
  8
APS_GEOMETRY
 10
0.066563
 11
0.066719
 20
-0.152969
 21
-0.152969
  0
LINE
  8
APS_GEOMETRY
 10
0.066719
 11
0.066719
 20
-0.152969
 21
-0.152812
  0
LINE
  8
APS_GEOMETRY
 10
0.066719
 11
0.066875
 20
-0.152812
 21
-0.152812
  0
LINE
  8
APS_GEOMETRY
 10
0.066875
 11
0.074531
 20
-0.152812
 21
-0.148906
  0
ARC
  8
APS_GEOMETRY
 10
0.072055
 20
-0.153446
 40
0.005171
 50
61.38954
 51
82.69424
  0
ARC
  8
APS_GEOMETRY
 10
0.053198
 20
-0.300527
 40
0.153456
 50
82.69424
 51
86.583412
  0
ARC
  8
APS_GEOMETRY
 10
0.061146
 20
-0.1495
 40
0.007287
 50
287.102729
 51
318.012788
  0
ARC
  8
APS_GEOMETRY
 10
0.056406
 20
-0.134096
 40
0.023404
 50
270.0
 51
287.102729
  0
LINE
  8
APS_GEOMETRY
 10
0.056406
 11
0.056406
 20
-0.1575
 21
-0.157656
  0
ARC
  8
APS_GEOMETRY
 10
0.06177
 20
-0.144979
 40
0.013765
 50
247.0679
 51
264.559668
  0
ARC
  8
APS_GEOMETRY
 10
0.060944
 20
-0.153652
 40
0.005053
 50
264.559668
 51
293.629378
  0
ARC
  8
APS_GEOMETRY
 10
0.099036
 20
-0.243942
 40
0.092944
 50
110.854458
 51
112.833654
  0
ARC
  8
APS_GEOMETRY
 10
0.06625
 20
-0.157878
 40
0.000846
 50
90.0
 51
110.854458
  0
ARC
  8
APS_GEOMETRY
 10
0.08041
 20
-0.136715
 40
0.024764
 50
235.124672
 51
249.227745
  0
ARC
  8
APS_GEOMETRY
 10
0.074939
 20
-0.151137
 40
0.009339
 50
249.227745
 51
272.29061
  0
LINE
  8
APS_GEOMETRY
 10
0.075313
 11
0.076719
 20
-0.160469
 21
-0.160156
  0
LINE
  8
APS_GEOMETRY
 10
0.076719
 11
0.070469
 20
-0.160156
 21
-0.157812
  0
ARC
  8
APS_GEOMETRY
 10
0.071371
 20
-0.155557
 40
0.002429
 50
228.652223
 51
248.198591
  0
ARC
  8
APS_GEOMETRY
 10
0.115302
 20
-0.105636
 40
0.068927
 50
225.0
 51
228.652223
  0
ARC
  8
APS_GEOMETRY
 10
0.069516
 20
-0.1498
 40
0.016043
 50
241.557071
 51
256.293039
  0
ARC
  8
APS_GEOMETRY
 10
0.067195
 20
-0.159315
 40
0.006249
 50
256.293039
 51
280.00798
  0
ARC
  8
APS_GEOMETRY
 10
0.071356
 20
-0.174692
 40
0.009722
 50
105.524111
 51
108.434949
  0
ARC
  8
APS_GEOMETRY
 10
0.131504
 20
-0.391226
 40
0.234455
 50
104.931417
 51
105.524111
  0
LINE
  8
APS_GEOMETRY
 10
0.071094
 11
0.071094
 20
-0.164687
 21
-0.164531
  0
LINE
  8
APS_GEOMETRY
 10
0.071094
 11
0.07125
 20
-0.164531
 21
-0.164531
  0
LINE
  8
APS_GEOMETRY
 10
0.07125
 11
0.07125
 20
-0.164531
 21
-0.164687
  0
LINE
  8
APS_GEOMETRY
 10
0.07125
 11
0.071406
 20
-0.164687
 21
-0.164687
  0
LINE
  8
APS_GEOMETRY
 10
0.071406
 11
0.071406
 20
-0.164687
 21
-0.165156
  0
LINE
  8
APS_GEOMETRY
 10
0.071406
 11
0.07125
 20
-0.165156
 21
-0.165156
  0
ARC
  8
APS_GEOMETRY
 10
0.06214
 20
-0.146176
 40
0.021053
 50
284.036243
 51
295.641006
  0
ARC
  8
APS_GEOMETRY
 10
0.06375
 20
-0.152618
 40
0.014414
 50
270.0
 51
284.036243
  0
LINE
  8
APS_GEOMETRY
 10
0.06375
 11
0.061875
 20
-0.167031
 21
-0.163906
  0
LINE
  8
APS_GEOMETRY
 10
0.069844
 11
0.069844
 20
-0.165156
 21
-0.165313
  0
LINE
  8
APS_GEOMETRY
 10
0.069844
 11
0.069531
 20
-0.165313
 21
-0.165313
  0
LINE
  8
APS_GEOMETRY
 10
0.069531
 11
0.069531
 20
-0.165313
 21
-0.165469
  0
LINE
  8
APS_GEOMETRY
 10
0.069531
 11
0.070156
 20
-0.165469
 21
-0.165469
  0
ARC
  8
APS_GEOMETRY
 10
0.070156
 20
-0.16515
 40
0.000318
 50
270.0
 51
296.565051
  0
ARC
  8
APS_GEOMETRY
 10
0.070006
 20
-0.16485
 40
0.000655
 50
296.565051
 51
315.0
  0
LINE
  8
APS_GEOMETRY
 10
0.070469
 11
0.070469
 20
-0.165313
 21
-0.165156
  0
LINE
  8
APS_GEOMETRY
 10
0.070469
 11
0.069844
 20
-0.165156
 21
-0.165156
  0
ENDSEC
  0
EOF
