  0
SECTION
  2
HEADER
  9
$ACADVER
  1
AC1009
  9
$LIMMIN
 10
-.164625
 20
-.465042
  9
$LIMMAX
 10
33.08962
 20
24.47565
  0
ENDSEC
  0
SECTION
  2
TABLES
  0
TABLE
  2
LTYPE
 70
     4
  0
LTYPE
  2
CONTINUOUS
 70
     0
  3
Solid line
 72
    65
 73
     0
 40
0.000000
  0
LTYPE
  2
HIDDEN
 70
     0
  3
 _ _ _ _ _ _ _ _ _ _ _
 72
    65
 73
     2
 40
0.375000
 49
0.250000
 49
-0.125000
  0
LTYPE
  2
DASHED
 70
     0
  3
 ___ ___ ___ ___ ___ ___ ___ 
 72
    65
 73
     2
 40
0.750000
 49
0.500000
 49
-0.250000
  0
LTYPE
  2
CENTER
 70
     0
  3
___ _ ___ _ ___ _ ___
 72
    65
 73
     4
 40
2.000000
 49
1.250000
 49
-0.250000
 49
0.250000
 49
-0.250000
  0
LTYPE
  2
BORDER
 70
     0
  3
___ ___ . ___ ___ . ___ ___
 72
    65
 73
     6
 40
1.750000
 49
0.500000
 49
-0.250000
 49
0.500000
 49
-0.250000
 49
0.000000
 49
-0.250000
  0
LTYPE
  2
DOT
 70
     0
  3
.................
 72
    65
 73
     2
 40
0.250000
 49
0.000000
 49
-0.250000
  0
LTYPE
  2
DASHDOT
 70
     0
  3
__ . __ . __ . __
 72
    65
 73
     4
 40
1.000000
 49
0.500000
 49
-0.250000
 49
0.000000
 49
-0.250000
  0
LTYPE
  2
DIVIDE
 70
     0
  3
___ .. ___ .. ___ .. ___
 72
    65
 73
     6
 40
1.250000
 49
0.500000
 49
-0.250000
 49
0.000000
 49
-0.250000
 49
0.000000
 49
-0.250000
  0
ENDTAB
  0
TABLE
  2
LAYER
 70
     8
  0
LAYER
  2
BLACK
 70
     0
 62
     0
  6
CONTINUOUS
  0
LAYER
  2
WHITE
 70
     0
 62
     7
  6
CONTINUOUS
  0
LAYER
  2
RED
 70
     0
 62
     1
  6
CONTINUOUS
  0
LAYER
  2
YELLOW
 70
     0
 62
     2
  6
CONTINUOUS
  0
LAYER
  2
GREEN
 70
     0
 62
     3
  6
CONTINUOUS
  0
LAYER
  2
CYAN
 70
     0
 62
     4
  6
CONTINUOUS
  0
LAYER
  2
BLUE
 70
     0
 62
     5
  6
CONTINUOUS
  0
LAYER
  2
MAGENTA
 70
     0
 62
     6
  6
CONTINUOUS
  0
ENDTAB
  0
ENDSEC
  0
SECTION
  2
BLOCKS
  0
ENDSEC
  0
SECTION
  2
ENTITIES
 0
LINE
 8
WHITE
 10
0
 20
0
 30
0.0000
 11
.281199
 21
1
 31
0.0000
 6
CONTINUOUS
 0
LINE
 8
WHITE
 10
.281199
 20
1
 30
0.0000
 11
.468699
 21
1
 31
0.0000
 6
CONTINUOUS
 0
LINE
 8
WHITE
 10
.468699
 20
1
 30
0.0000
 11
.75
 21
0
 31
0.0000
 6
CONTINUOUS
 0
LINE
 8
WHITE
 10
.75
 20
0
 30
0.0000
 11
.555199
 21
0
 31
0.0000
 6
CONTINUOUS
 0
LINE
 8
WHITE
 10
.555199
 20
0
 30
0.0000
 11
.4914
 21
.2266
 31
0.0000
 6
CONTINUOUS
 0
LINE
 8
WHITE
 10
.4914
 20
.2266
 30
0.0000
 11
.405
 21
.2266
 31
0.0000
 6
CONTINUOUS
 0
LINE
 8
WHITE
 10
.405
 20
.2266
 30
0.0000
 11
.405
 21
.414099
 31
0.0000
 6
CONTINUOUS
 0
LINE
 8
WHITE
 10
.405
 20
.414099
 30
0.0000
 11
.438699
 21
.414099
 31
0.0000
 6
CONTINUOUS
 0
LINE
 8
WHITE
 10
.438699
 20
.414099
 30
0.0000
 11
.375
 21
.640799
 31
0.0000
 6
CONTINUOUS
 0
LINE
 8
WHITE
 10
.375
 20
.640799
 30
0.0000
 11
.311199
 21
.414099
 31
0.0000
 6
CONTINUOUS
 0
LINE
 8
WHITE
 10
.311199
 20
.414099
 30
0.0000
 11
.344999
 21
.414099
 31
0.0000
 6
CONTINUOUS
 0
LINE
 8
WHITE
 10
.344999
 20
.414099
 30
0.0000
 11
.344999
 21
.2266
 31
0.0000
 6
CONTINUOUS
 0
LINE
 8
WHITE
 10
.344999
 20
.2266
 30
0.0000
 11
.2585
 21
.2266
 31
0.0000
 6
CONTINUOUS
 0
LINE
 8
WHITE
 10
.2585
 20
.2266
 30
0.0000
 11
.1947
 21
0
 31
0.0000
 6
CONTINUOUS
 0
LINE
 8
WHITE
 10
.1947
 20
0
 30
0.0000
 11
0
 21
0
 31
0.0000
 6
CONTINUOUS
 0
LINE
 8
WHITE
 10
.899999
 20
.469999
 30
0.0000
 11
.899999
 21
0
 31
0.0000
 6
CONTINUOUS
 0
LINE
 8
WHITE
 10
.899999
 20
0
 30
0.0000
 11
1.353099
 21
0
 31
0.0000
 6
CONTINUOUS
 0
ARC
 8
WHITE
 10
1.353299
 20
.296799
 30
 0
 40
.2968
 50
269.9614
 51
43.21137
 6
CONTINUOUS
 0
ARC
 8
WHITE
 10
1.353099
 20
.703099
 30
 0
 40
.296853
 50
316.8291
 51
90
 6
CONTINUOUS
 0
LINE
 8
WHITE
 10
1.353099
 20
1
 30
0.0000
 11
.899999
 21
1
 31
0.0000
 6
CONTINUOUS
 0
LINE
 8
WHITE
 10
.899999
 20
1
 30
0.0000
 11
.899999
 21
.529999
 31
0.0000
 6
CONTINUOUS
 0
LINE
 8
WHITE
 10
.899999
 20
.529999
 30
0.0000
 11
1.087499
 21
.529999
 31
0.0000
 6
CONTINUOUS
 0
LINE
 8
WHITE
 10
1.087499
 20
.529999
 30
0.0000
 11
1.087499
 21
.8125
 31
0.0000
 6
CONTINUOUS
 0
LINE
 8
WHITE
 10
1.087499
 20
.8125
 30
0.0000
 11
1.353099
 21
.8125
 31
0.0000
 6
CONTINUOUS
 0
ARC
 8
WHITE
 10
1.353099
 20
.7031
 30
 0
 40
.109399
 50
270
 51
90
 6
CONTINUOUS
 0
LINE
 8
WHITE
 10
1.353099
 20
.593699
 30
0.0000
 11
1.1475
 21
.593699
 31
0.0000
 6
CONTINUOUS
 0
LINE
 8
WHITE
 10
1.1475
 20
.593699
 30
0.0000
 11
1.1475
 21
.406199
 31
0.0000
 6
CONTINUOUS
 0
LINE
 8
WHITE
 10
1.1475
 20
.406199
 30
0.0000
 11
1.353099
 21
.406199
 31
0.0000
 6
CONTINUOUS
 0
ARC
 8
WHITE
 10
1.353099
 20
.296899
 30
 0
 40
.1093
 50
270
 51
90
 6
CONTINUOUS
 0
LINE
 8
WHITE
 10
1.353099
 20
.1875
 30
0.0000
 11
1.087499
 21
.1875
 31
0.0000
 6
CONTINUOUS
 0
LINE
 8
WHITE
 10
1.087499
 20
.1875
 30
0.0000
 11
1.087499
 21
.469999
 31
0.0000
 6
CONTINUOUS
 0
LINE
 8
WHITE
 10
1.087499
 20
.469999
 30
0.0000
 11
.899999
 21
.469999
 31
0.0000
 6
CONTINUOUS
 0
ARC
 8
WHITE
 10
2.237499
 20
.6875
 30
 0
 40
.3125
 50
0
 51
90
 6
CONTINUOUS
 0
LINE
 8
WHITE
 10
2.237499
 20
1
 30
0.0000
 11
2.112499
 21
1
 31
0.0000
 6
CONTINUOUS
 0
ARC
 8
WHITE
 10
2.112499
 20
.6875
 30
 0
 40
.3125
 50
90
 51
180
 6
CONTINUOUS
 0
LINE
 8
WHITE
 10
1.799999
 20
.6875
 30
0.0000
 11
1.799999
 21
.3125
 31
0.0000
 6
CONTINUOUS
 0
ARC
 8
WHITE
 10
2.112499
 20
.3125
 30
 0
 40
.3125
 50
180
 51
270
 6
CONTINUOUS
 0
LINE
 8
WHITE
 10
2.112499
 20
0
 30
0.0000
 11
2.237499
 21
0
 31
0.0000
 6
CONTINUOUS
 0
ARC
 8
WHITE
 10
2.237499
 20
.3125
 30
 0
 40
.3125
 50
270
 51
0
 6
CONTINUOUS
 0
LINE
 8
WHITE
 10
2.549999
 20
.3125
 30
0.0000
 11
2.362499
 21
.3125
 31
0.0000
 6
CONTINUOUS
 0
ARC
 8
WHITE
 10
2.237499
 20
.3125
 30
 0
 40
.125
 50
270
 51
0
 6
CONTINUOUS
 0
LINE
 8
WHITE
 10
2.237499
 20
.1875
 30
0.0000
 11
2.112499
 21
.1875
 31
0.0000
 6
CONTINUOUS
 0
ARC
 8
WHITE
 10
2.112499
 20
.3125
 30
 0
 40
.125
 50
180
 51
270
 6
CONTINUOUS
 0
LINE
 8
WHITE
 10
1.987499
 20
.3125
 30
0.0000
 11
1.987499
 21
.6875
 31
0.0000
 6
CONTINUOUS
 0
ARC
 8
WHITE
 10
2.112499
 20
.6875
 30
 0
 40
.125
 50
90
 51
180
 6
CONTINUOUS
 0
LINE
 8
WHITE
 10
2.112499
 20
.8125
 30
0.0000
 11
2.237499
 21
.8125
 31
0.0000
 6
CONTINUOUS
 0
ARC
 8
WHITE
 10
2.237499
 20
.6875
 30
 0
 40
.125
 50
0
 51
90
 6
CONTINUOUS
 0
LINE
 8
WHITE
 10
2.362499
 20
.6875
 30
0.0000
 11
2.549999
 21
.6875
 31
0.0000
 6
CONTINUOUS
 0
LINE
 8
WHITE
 10
2.7
 20
.469999
 30
0.0000
 11
2.7
 21
0
 31
0.0000
 6
CONTINUOUS
 0
LINE
 8
WHITE
 10
2.7
 20
0
 30
0.0000
 11
2.95
 21
0
 31
0.0000
 6
CONTINUOUS
 0
ARC
 8
WHITE
 10
2.95
 20
.5
 30
 0
 40
.5
 50
270
 51
0
 6
CONTINUOUS
 0
ARC
 8
WHITE
 10
2.95
 20
.5
 30
 0
 40
.5
 50
0
 51
90
 6
CONTINUOUS
 0
LINE
 8
WHITE
 10
2.95
 20
1
 30
0.0000
 11
2.7
 21
1
 31
0.0000
 6
CONTINUOUS
 0
LINE
 8
WHITE
 10
2.7
 20
1
 30
0.0000
 11
2.7
 21
.529999
 31
0.0000
 6
CONTINUOUS
 0
LINE
 8
WHITE
 10
2.7
 20
.529999
 30
0.0000
 11
2.8875
 21
.529999
 31
0.0000
 6
CONTINUOUS
 0
LINE
 8
WHITE
 10
2.8875
 20
.529999
 30
0.0000
 11
2.8875
 21
.8125
 31
0.0000
 6
CONTINUOUS
 0
LINE
 8
WHITE
 10
2.8875
 20
.8125
 30
0.0000
 11
2.95
 21
.8125
 31
0.0000
 6
CONTINUOUS
 0
ARC
 8
WHITE
 10
2.95
 20
.5
 30
 0
 40
.3125
 50
0
 51
90
 6
CONTINUOUS
 0
ARC
 8
WHITE
 10
2.95
 20
.5
 30
 0
 40
.3125
 50
270
 51
0
 6
CONTINUOUS
 0
LINE
 8
WHITE
 10
2.95
 20
.1875
 30
0.0000
 11
2.8875
 21
.1875
 31
0.0000
 6
CONTINUOUS
 0
LINE
 8
WHITE
 10
2.8875
 20
.1875
 30
0.0000
 11
2.8875
 21
.469999
 31
0.0000
 6
CONTINUOUS
 0
LINE
 8
WHITE
 10
2.8875
 20
.469999
 30
0.0000
 11
2.7
 21
.469999
 31
0.0000
 6
CONTINUOUS
 0
LINE
 8
WHITE
 10
3.599999
 20
0
 30
0.0000
 11
3.599999
 21
1
 31
0.0000
 6
CONTINUOUS
 0
LINE
 8
WHITE
 10
3.599999
 20
1
 30
0.0000
 11
4.349999
 21
1
 31
0.0000
 6
CONTINUOUS
 0
LINE
 8
WHITE
 10
4.349999
 20
1
 30
0.0000
 11
4.349999
 21
.8125
 31
0.0000
 6
CONTINUOUS
 0
LINE
 8
WHITE
 10
4.349999
 20
.8125
 30
0.0000
 11
3.787499
 21
.8125
 31
0.0000
 6
CONTINUOUS
 0
LINE
 8
WHITE
 10
3.787499
 20
.8125
 30
0.0000
 11
3.787499
 21
.593699
 31
0.0000
 6
CONTINUOUS
 0
LINE
 8
WHITE
 10
3.787499
 20
.593699
 30
0.0000
 11
4.256199
 21
.593699
 31
0.0000
 6
CONTINUOUS
 0
LINE
 8
WHITE
 10
4.256199
 20
.593699
 30
0.0000
 11
4.256199
 21
.406199
 31
0.0000
 6
CONTINUOUS
 0
LINE
 8
WHITE
 10
4.256199
 20
.406199
 30
0.0000
 11
3.787499
 21
.406199
 31
0.0000
 6
CONTINUOUS
 0
LINE
 8
WHITE
 10
3.787499
 20
.406199
 30
0.0000
 11
3.787499
 21
.1875
 31
0.0000
 6
CONTINUOUS
 0
LINE
 8
WHITE
 10
3.787499
 20
.1875
 30
0.0000
 11
4.349999
 21
.1875
 31
0.0000
 6
CONTINUOUS
 0
LINE
 8
WHITE
 10
4.349999
 20
.1875
 30
0.0000
 11
4.349999
 21
0
 31
0.0000
 6
CONTINUOUS
 0
LINE
 8
WHITE
 10
4.349999
 20
0
 30
0.0000
 11
3.599999
 21
0
 31
0.0000
 6
CONTINUOUS
 0
LINE
 8
WHITE
 10
4.5
 20
0
 30
0.0000
 11
4.5
 21
1
 31
0.0000
 6
CONTINUOUS
 0
LINE
 8
WHITE
 10
4.5
 20
1
 30
0.0000
 11
5.25
 21
1
 31
0.0000
 6
CONTINUOUS
 0
LINE
 8
WHITE
 10
5.25
 20
1
 30
0.0000
 11
5.25
 21
.8125
 31
0.0000
 6
CONTINUOUS
 0
LINE
 8
WHITE
 10
5.25
 20
.8125
 30
0.0000
 11
4.6875
 21
.8125
 31
0.0000
 6
CONTINUOUS
 0
LINE
 8
WHITE
 10
4.6875
 20
.8125
 30
0.0000
 11
4.6875
 21
.593699
 31
0.0000
 6
CONTINUOUS
 0
LINE
 8
WHITE
 10
4.6875
 20
.593699
 30
0.0000
 11
5.156199
 21
.593699
 31
0.0000
 6
CONTINUOUS
 0
LINE
 8
WHITE
 10
5.156199
 20
.593699
 30
0.0000
 11
5.156199
 21
.406199
 31
0.0000
 6
CONTINUOUS
 0
LINE
 8
WHITE
 10
5.156199
 20
.406199
 30
0.0000
 11
4.6875
 21
.406199
 31
0.0000
 6
CONTINUOUS
 0
LINE
 8
WHITE
 10
4.6875
 20
.406199
 30
0.0000
 11
4.6875
 21
0
 31
0.0000
 6
CONTINUOUS
 0
LINE
 8
WHITE
 10
4.6875
 20
0
 30
0.0000
 11
4.5
 21
0
 31
0.0000
 6
CONTINUOUS
 0
ARC
 8
WHITE
 10
5.9
 20
.75
 30
 0
 40
.25
 50
0
 51
90
 6
CONTINUOUS
 0
LINE
 8
WHITE
 10
5.9
 20
1
 30
0.0000
 11
5.65
 21
1
 31
0.0000
 6
CONTINUOUS
 0
ARC
 8
WHITE
 10
5.65
 20
.75
 30
 0
 40
.25
 50
90
 51
180
 6
CONTINUOUS
 0
LINE
 8
WHITE
 10
5.4
 20
.75
 30
0.0000
 11
5.4
 21
.25
 31
0.0000
 6
CONTINUOUS
 0
ARC
 8
WHITE
 10
5.65
 20
.25
 30
 0
 40
.25
 50
180
 51
270
 6
CONTINUOUS
 0
LINE
 8
WHITE
 10
5.65
 20
0
 30
0.0000
 11
5.9
 21
0
 31
0.0000
 6
CONTINUOUS
 0
ARC
 8
WHITE
 10
5.9
 20
.25
 30
 0
 40
.25
 50
270
 51
0
 6
CONTINUOUS
 0
LINE
 8
WHITE
 10
6.15
 20
.25
 30
0.0000
 11
6.15
 21
.593699
 31
0.0000
 6
CONTINUOUS
 0
LINE
 8
WHITE
 10
6.15
 20
.593699
 30
0.0000
 11
5.775
 21
.593699
 31
0.0000
 6
CONTINUOUS
 0
LINE
 8
WHITE
 10
5.775
 20
.593699
 30
0.0000
 11
5.775
 21
.406199
 31
0.0000
 6
CONTINUOUS
 0
LINE
 8
WHITE
 10
5.775
 20
.406199
 30
0.0000
 11
5.9625
 21
.406199
 31
0.0000
 6
CONTINUOUS
 0
LINE
 8
WHITE
 10
5.9625
 20
.406199
 30
0.0000
 11
5.9625
 21
.25
 31
0.0000
 6
CONTINUOUS
 0
ARC
 8
WHITE
 10
5.9
 20
.25
 30
 0
 40
.0625
 50
270
 51
0
 6
CONTINUOUS
 0
LINE
 8
WHITE
 10
5.9
 20
.1875
 30
0.0000
 11
5.65
 21
.1875
 31
0.0000
 6
CONTINUOUS
 0
ARC
 8
WHITE
 10
5.65
 20
.25
 30
 0
 40
.0625
 50
180
 51
270
 6
CONTINUOUS
 0
LINE
 8
WHITE
 10
5.5875
 20
.25
 30
0.0000
 11
5.5875
 21
.75
 31
0.0000
 6
CONTINUOUS
 0
ARC
 8
WHITE
 10
5.65
 20
.75
 30
 0
 40
.0625
 50
90
 51
180
 6
CONTINUOUS
 0
LINE
 8
WHITE
 10
5.65
 20
.8125
 30
0.0000
 11
5.9
 21
.8125
 31
0.0000
 6
CONTINUOUS
 0
ARC
 8
WHITE
 10
5.9
 20
.75
 30
 0
 40
.0625
 50
0
 51
90
 6
CONTINUOUS
 0
LINE
 8
WHITE
 10
5.9625
 20
.75
 30
0.0000
 11
6.15
 21
.75
 31
0.0000
 6
CONTINUOUS
 0
LINE
 8
WHITE
 10
6.3
 20
0
 30
0.0000
 11
6.3
 21
1
 31
0.0000
 6
CONTINUOUS
 0
LINE
 8
WHITE
 10
6.3
 20
1
 30
0.0000
 11
6.4875
 21
1
 31
0.0000
 6
CONTINUOUS
 0
LINE
 8
WHITE
 10
6.4875
 20
1
 30
0.0000
 11
6.4875
 21
.593699
 31
0.0000
 6
CONTINUOUS
 0
LINE
 8
WHITE
 10
6.4875
 20
.593699
 30
0.0000
 11
6.8625
 21
.593699
 31
0.0000
 6
CONTINUOUS
 0
LINE
 8
WHITE
 10
6.8625
 20
.593699
 30
0.0000
 11
6.8625
 21
1
 31
0.0000
 6
CONTINUOUS
 0
LINE
 8
WHITE
 10
6.8625
 20
1
 30
0.0000
 11
7.05
 21
1
 31
0.0000
 6
CONTINUOUS
 0
LINE
 8
WHITE
 10
7.05
 20
1
 30
0.0000
 11
7.05
 21
0
 31
0.0000
 6
CONTINUOUS
 0
LINE
 8
WHITE
 10
7.05
 20
0
 30
0.0000
 11
6.8625
 21
0
 31
0.0000
 6
CONTINUOUS
 0
LINE
 8
WHITE
 10
6.8625
 20
0
 30
0.0000
 11
6.8625
 21
.406199
 31
0.0000
 6
CONTINUOUS
 0
LINE
 8
WHITE
 10
6.8625
 20
.406199
 30
0.0000
 11
6.4875
 21
.406199
 31
0.0000
 6
CONTINUOUS
 0
LINE
 8
WHITE
 10
6.4875
 20
.406199
 30
0.0000
 11
6.4875
 21
0
 31
0.0000
 6
CONTINUOUS
 0
LINE
 8
WHITE
 10
6.4875
 20
0
 30
0.0000
 11
6.3
 21
0
 31
0.0000
 6
CONTINUOUS
 0
LINE
 8
WHITE
 10
7.199999
 20
0
 30
0.0000
 11
7.199999
 21
1
 31
0.0000
 6
CONTINUOUS
 0
LINE
 8
WHITE
 10
7.199999
 20
1
 30
0.0000
 11
7.387499
 21
1
 31
0.0000
 6
CONTINUOUS
 0
LINE
 8
WHITE
 10
7.387499
 20
1
 30
0.0000
 11
7.387499
 21
0
 31
0.0000
 6
CONTINUOUS
 0
LINE
 8
WHITE
 10
7.387499
 20
0
 30
0.0000
 11
7.199999
 21
0
 31
0.0000
 6
CONTINUOUS
 0
LINE
 8
WHITE
 10
8.2875
 20
1
 30
0.0000
 11
8.2875
 21
.25
 31
0.0000
 6
CONTINUOUS
 0
ARC
 8
WHITE
 10
8.0375
 20
.25
 30
 0
 40
.25
 50
270
 51
0
 6
CONTINUOUS
 0
LINE
 8
WHITE
 10
8.0375
 20
0
 30
0.0000
 11
7.787499
 21
0
 31
0.0000
 6
CONTINUOUS
 0
ARC
 8
WHITE
 10
7.787499
 20
.25
 30
 0
 40
.25
 50
180
 51
270
 6
CONTINUOUS
 0
LINE
 8
WHITE
 10
7.537499
 20
.25
 30
0.0000
 11
7.537499
 21
.406199
 31
0.0000
 6
CONTINUOUS
 0
LINE
 8
WHITE
 10
7.537499
 20
.406199
 30
0.0000
 11
7.724999
 21
.406199
 31
0.0000
 6
CONTINUOUS
 0
LINE
 8
WHITE
 10
7.724999
 20
.406199
 30
0.0000
 11
7.724999
 21
.25
 31
0.0000
 6
CONTINUOUS
 0
ARC
 8
WHITE
 10
7.787499
 20
.25
 30
 0
 40
.0625
 50
180
 51
270
 6
CONTINUOUS
 0
LINE
 8
WHITE
 10
7.787499
 20
.1875
 30
0.0000
 11
8.0375
 21
.1875
 31
0.0000
 6
CONTINUOUS
 0
ARC
 8
WHITE
 10
8.0375
 20
.25
 30
 0
 40
.0625
 50
270
 51
0
 6
CONTINUOUS
 0
LINE
 8
WHITE
 10
8.1
 20
.25
 30
0.0000
 11
8.1
 21
1
 31
0.0000
 6
CONTINUOUS
 0
LINE
 8
WHITE
 10
8.1
 20
1
 30
0.0000
 11
8.2875
 21
1
 31
0.0000
 6
CONTINUOUS
 0
LINE
 8
WHITE
 10
8.4375
 20
0
 30
0.0000
 11
8.4375
 21
1
 31
0.0000
 6
CONTINUOUS
 0
LINE
 8
WHITE
 10
8.4375
 20
1
 30
0.0000
 11
8.625
 21
1
 31
0.0000
 6
CONTINUOUS
 0
LINE
 8
WHITE
 10
8.625
 20
1
 30
0.0000
 11
8.625
 21
.593699
 31
0.0000
 6
CONTINUOUS
 0
LINE
 8
WHITE
 10
8.625
 20
.593699
 30
0.0000
 11
8.947899
 21
1
 31
0.0000
 6
CONTINUOUS
 0
LINE
 8
WHITE
 10
8.947899
 20
1
 30
0.0000
 11
9.1875
 21
1
 31
0.0000
 6
CONTINUOUS
 0
LINE
 8
WHITE
 10
9.1875
 20
1
 30
0.0000
 11
8.8125
 21
.528299
 31
0.0000
 6
CONTINUOUS
 0
LINE
 8
WHITE
 10
8.8125
 20
.528299
 30
0.0000
 11
9.1875
 21
0
 31
0.0000
 6
CONTINUOUS
 0
LINE
 8
WHITE
 10
9.1875
 20
0
 30
0.0000
 11
8.9575
 21
0
 31
0.0000
 6
CONTINUOUS
 0
LINE
 8
WHITE
 10
8.9575
 20
0
 30
0.0000
 11
8.690999
 21
.375499
 31
0.0000
 6
CONTINUOUS
 0
LINE
 8
WHITE
 10
8.690999
 20
.375499
 30
0.0000
 11
8.625
 21
.2924
 31
0.0000
 6
CONTINUOUS
 0
LINE
 8
WHITE
 10
8.625
 20
.2924
 30
0.0000
 11
8.625
 21
0
 31
0.0000
 6
CONTINUOUS
 0
LINE
 8
WHITE
 10
8.625
 20
0
 30
0.0000
 11
8.4375
 21
0
 31
0.0000
 6
CONTINUOUS
 0
LINE
 8
WHITE
 10
9.337499
 20
0
 30
0.0000
 11
9.337499
 21
1
 31
0.0000
 6
CONTINUOUS
 0
LINE
 8
WHITE
 10
9.337499
 20
1
 30
0.0000
 11
9.524999
 21
1
 31
0.0000
 6
CONTINUOUS
 0
LINE
 8
WHITE
 10
9.524999
 20
1
 30
0.0000
 11
9.524999
 21
.1875
 31
0.0000
 6
CONTINUOUS
 0
LINE
 8
WHITE
 10
9.524999
 20
.1875
 30
0.0000
 11
10.0875
 21
.1875
 31
0.0000
 6
CONTINUOUS
 0
LINE
 8
WHITE
 10
10.0875
 20
.1875
 30
0.0000
 11
10.0875
 21
0
 31
0.0000
 6
CONTINUOUS
 0
LINE
 8
WHITE
 10
10.0875
 20
0
 30
0.0000
 11
9.337499
 21
0
 31
0.0000
 6
CONTINUOUS
 0
LINE
 8
WHITE
 10
10.2375
 20
0
 30
0.0000
 11
10.2375
 21
1
 31
0.0000
 6
CONTINUOUS
 0
LINE
 8
WHITE
 10
10.2375
 20
1
 30
0.0000
 11
10.4322
 21
1
 31
0.0000
 6
CONTINUOUS
 0
LINE
 8
WHITE
 10
10.4322
 20
1
 30
0.0000
 11
10.6125
 21
.3591
 31
0.0000
 6
CONTINUOUS
 0
LINE
 8
WHITE
 10
10.6125
 20
.3591
 30
0.0000
 11
10.7927
 21
1
 31
0.0000
 6
CONTINUOUS
 0
LINE
 8
WHITE
 10
10.7927
 20
1
 30
0.0000
 11
10.9875
 21
1
 31
0.0000
 6
CONTINUOUS
 0
LINE
 8
WHITE
 10
10.9875
 20
1
 30
0.0000
 11
10.9875
 21
0
 31
0.0000
 6
CONTINUOUS
 0
LINE
 8
WHITE
 10
10.9875
 20
0
 30
0.0000
 11
10.8
 21
0
 31
0.0000
 6
CONTINUOUS
 0
LINE
 8
WHITE
 10
10.8
 20
0
 30
0.0000
 11
10.8
 21
.333299
 31
0.0000
 6
CONTINUOUS
 0
LINE
 8
WHITE
 10
10.8
 20
.333299
 30
0.0000
 11
10.7062
 21
0
 31
0.0000
 6
CONTINUOUS
 0
LINE
 8
WHITE
 10
10.7062
 20
0
 30
0.0000
 11
10.5187
 21
0
 31
0.0000
 6
CONTINUOUS
 0
LINE
 8
WHITE
 10
10.5187
 20
0
 30
0.0000
 11
10.425
 21
.333299
 31
0.0000
 6
CONTINUOUS
 0
LINE
 8
WHITE
 10
10.425
 20
.333299
 30
0.0000
 11
10.425
 21
0
 31
0.0000
 6
CONTINUOUS
 0
LINE
 8
WHITE
 10
10.425
 20
0
 30
0.0000
 11
10.2375
 21
0
 31
0.0000
 6
CONTINUOUS
 0
LINE
 8
WHITE
 10
11.1375
 20
0
 30
0.0000
 11
11.1375
 21
1
 31
0.0000
 6
CONTINUOUS
 0
LINE
 8
WHITE
 10
11.1375
 20
1
 30
0.0000
 11
11.325
 21
1
 31
0.0000
 6
CONTINUOUS
 0
LINE
 8
WHITE
 10
11.325
 20
1
 30
0.0000
 11
11.7
 21
.367599
 31
0.0000
 6
CONTINUOUS
 0
LINE
 8
WHITE
 10
11.7
 20
.367599
 30
0.0000
 11
11.7
 21
1
 31
0.0000
 6
CONTINUOUS
 0
LINE
 8
WHITE
 10
11.7
 20
1
 30
0.0000
 11
11.8875
 21
1
 31
0.0000
 6
CONTINUOUS
 0
LINE
 8
WHITE
 10
11.8875
 20
1
 30
0.0000
 11
11.8875
 21
0
 31
0.0000
 6
CONTINUOUS
 0
LINE
 8
WHITE
 10
11.8875
 20
0
 30
0.0000
 11
11.7
 21
0
 31
0.0000
 6
CONTINUOUS
 0
LINE
 8
WHITE
 10
11.7
 20
0
 30
0.0000
 11
11.325
 21
.6323
 31
0.0000
 6
CONTINUOUS
 0
LINE
 8
WHITE
 10
11.325
 20
.6323
 30
0.0000
 11
11.325
 21
0
 31
0.0000
 6
CONTINUOUS
 0
LINE
 8
WHITE
 10
11.325
 20
0
 30
0.0000
 11
11.1375
 21
0
 31
0.0000
 6
CONTINUOUS
 0
LINE
 8
WHITE
 10
12.0375
 20
.529999
 30
0.0000
 11
12.0375
 21
.75
 31
0.0000
 6
CONTINUOUS
 0
ARC
 8
WHITE
 10
12.2875
 20
.75
 30
 0
 40
.25
 50
90
 51
180
 6
CONTINUOUS
 0
LINE
 8
WHITE
 10
12.2875
 20
1
 30
0.0000
 11
12.5375
 21
1
 31
0.0000
 6
CONTINUOUS
 0
ARC
 8
WHITE
 10
12.5375
 20
.75
 30
 0
 40
.25
 50
0
 51
90
 6
CONTINUOUS
 0
LINE
 8
WHITE
 10
12.7875
 20
.75
 30
0.0000
 11
12.7875
 21
.529999
 31
0.0000
 6
CONTINUOUS
 0
LINE
 8
WHITE
 10
12.7875
 20
.529999
 30
0.0000
 11
12.6
 21
.529999
 31
0.0000
 6
CONTINUOUS
 0
LINE
 8
WHITE
 10
12.6
 20
.529999
 30
0.0000
 11
12.6
 21
.75
 31
0.0000
 6
CONTINUOUS
 0
ARC
 8
WHITE
 10
12.5375
 20
.75
 30
 0
 40
.0625
 50
0
 51
90
 6
CONTINUOUS
 0
LINE
 8
WHITE
 10
12.5375
 20
.8125
 30
0.0000
 11
12.2875
 21
.8125
 31
0.0000
 6
CONTINUOUS
 0
ARC
 8
WHITE
 10
12.2875
 20
.75
 30
 0
 40
.0625
 50
90
 51
180
 6
CONTINUOUS
 0
LINE
 8
WHITE
 10
12.225
 20
.75
 30
0.0000
 11
12.225
 21
.529999
 31
0.0000
 6
CONTINUOUS
 0
LINE
 8
WHITE
 10
12.225
 20
.529999
 30
0.0000
 11
12.0375
 21
.529999
 31
0.0000
 6
CONTINUOUS
 0
LINE
 8
WHITE
 10
12.0375
 20
.469999
 30
0.0000
 11
12.0375
 21
.25
 31
0.0000
 6
CONTINUOUS
 0
ARC
 8
WHITE
 10
12.2875
 20
.25
 30
 0
 40
.25
 50
180
 51
270
 6
CONTINUOUS
 0
LINE
 8
WHITE
 10
12.2875
 20
0
 30
0.0000
 11
12.5375
 21
0
 31
0.0000
 6
CONTINUOUS
 0
ARC
 8
WHITE
 10
12.5375
 20
.25
 30
 0
 40
.25
 50
270
 51
0
 6
CONTINUOUS
 0
LINE
 8
WHITE
 10
12.7875
 20
.25
 30
0.0000
 11
12.7875
 21
.469999
 31
0.0000
 6
CONTINUOUS
 0
LINE
 8
WHITE
 10
12.7875
 20
.469999
 30
0.0000
 11
12.6
 21
.469999
 31
0.0000
 6
CONTINUOUS
 0
LINE
 8
WHITE
 10
12.6
 20
.469999
 30
0.0000
 11
12.6
 21
.25
 31
0.0000
 6
CONTINUOUS
 0
ARC
 8
WHITE
 10
12.5375
 20
.25
 30
 0
 40
.0625
 50
270
 51
0
 6
CONTINUOUS
 0
LINE
 8
WHITE
 10
12.5375
 20
.1875
 30
0.0000
 11
12.2875
 21
.1875
 31
0.0000
 6
CONTINUOUS
 0
ARC
 8
WHITE
 10
12.2875
 20
.25
 30
 0
 40
.0625
 50
180
 51
270
 6
CONTINUOUS
 0
LINE
 8
WHITE
 10
12.225
 20
.25
 30
0.0000
 11
12.225
 21
.469999
 31
0.0000
 6
CONTINUOUS
 0
LINE
 8
WHITE
 10
12.225
 20
.469999
 30
0.0000
 11
12.0375
 21
.469999
 31
0.0000
 6
CONTINUOUS
 0
LINE
 8
WHITE
 10
12.9375
 20
0
 30
0.0000
 11
12.9375
 21
1
 31
0.0000
 6
CONTINUOUS
 0
LINE
 8
WHITE
 10
12.9375
 20
1
 30
0.0000
 11
13.3906
 21
1
 31
0.0000
 6
CONTINUOUS
 0
ARC
 8
WHITE
 10
13.3906
 20
.703099
 30
 0
 40
.2969
 50
270
 51
90
 6
CONTINUOUS
 0
LINE
 8
WHITE
 10
13.3906
 20
.406199
 30
0.0000
 11
13.185
 21
.406199
 31
0.0000
 6
CONTINUOUS
 0
LINE
 8
WHITE
 10
13.185
 20
.406199
 30
0.0000
 11
13.185
 21
.593699
 31
0.0000
 6
CONTINUOUS
 0
LINE
 8
WHITE
 10
13.185
 20
.593699
 30
0.0000
 11
13.3906
 21
.593699
 31
0.0000
 6
CONTINUOUS
 0
ARC
 8
WHITE
 10
13.3906
 20
.703099
 30
 0
 40
.109399
 50
270
 51
90
 6
CONTINUOUS
 0
LINE
 8
WHITE
 10
13.3906
 20
.8125
 30
0.0000
 11
13.125
 21
.8125
 31
0.0000
 6
CONTINUOUS
 0
LINE
 8
WHITE
 10
13.125
 20
.8125
 30
0.0000
 11
13.125
 21
0
 31
0.0000
 6
CONTINUOUS
 0
LINE
 8
WHITE
 10
13.125
 20
0
 30
0.0000
 11
12.9375
 21
0
 31
0.0000
 6
CONTINUOUS
 0
LINE
 8
WHITE
 10
13.8375
 20
.529999
 30
0.0000
 11
13.8375
 21
.75
 31
0.0000
 6
CONTINUOUS
 0
ARC
 8
WHITE
 10
14.0875
 20
.75
 30
 0
 40
.25
 50
90
 51
180
 6
CONTINUOUS
 0
LINE
 8
WHITE
 10
14.0875
 20
1
 30
0.0000
 11
14.3375
 21
1
 31
0.0000
 6
CONTINUOUS
 0
ARC
 8
WHITE
 10
14.3375
 20
.75
 30
 0
 40
.25
 50
0
 51
90
 6
CONTINUOUS
 0
LINE
 8
WHITE
 10
14.5875
 20
.75
 30
0.0000
 11
14.5875
 21
.529999
 31
0.0000
 6
CONTINUOUS
 0
LINE
 8
WHITE
 10
14.5875
 20
.529999
 30
0.0000
 11
14.4
 21
.529999
 31
0.0000
 6
CONTINUOUS
 0
LINE
 8
WHITE
 10
14.4
 20
.529999
 30
0.0000
 11
14.4
 21
.75
 31
0.0000
 6
CONTINUOUS
 0
ARC
 8
WHITE
 10
14.3375
 20
.75
 30
 0
 40
.0625
 50
0
 51
90
 6
CONTINUOUS
 0
LINE
 8
WHITE
 10
14.3375
 20
.8125
 30
0.0000
 11
14.0875
 21
.8125
 31
0.0000
 6
CONTINUOUS
 0
ARC
 8
WHITE
 10
14.0875
 20
.75
 30
 0
 40
.0625
 50
90
 51
180
 6
CONTINUOUS
 0
LINE
 8
WHITE
 10
14.025
 20
.75
 30
0.0000
 11
14.025
 21
.529999
 31
0.0000
 6
CONTINUOUS
 0
LINE
 8
WHITE
 10
14.025
 20
.529999
 30
0.0000
 11
13.8375
 21
.529999
 31
0.0000
 6
CONTINUOUS
 0
LINE
 8
WHITE
 10
13.8375
 20
.469999
 30
0.0000
 11
13.8375
 21
.25
 31
0.0000
 6
CONTINUOUS
 0
ARC
 8
WHITE
 10
14.0875
 20
.25
 30
 0
 40
.25
 50
180
 51
270
 6
CONTINUOUS
 0
LINE
 8
WHITE
 10
14.0875
 20
0
 30
0.0000
 11
14.4549
 21
0
 31
0.0000
 6
CONTINUOUS
 0
LINE
 8
WHITE
 10
14.4549
 20
0
 30
0.0000
 11
14.5875
 21
-.132499
 31
0.0000
 6
CONTINUOUS
 0
LINE
 8
WHITE
 10
14.5875
 20
-.132499
 30
0.0000
 11
14.72
 21
0
 31
0.0000
 6
CONTINUOUS
 0
LINE
 8
WHITE
 10
14.72
 20
0
 30
0.0000
 11
14.5875
 21
.132499
 31
0.0000
 6
CONTINUOUS
 0
LINE
 8
WHITE
 10
14.5875
 20
.132499
 30
0.0000
 11
14.5875
 21
.469999
 31
0.0000
 6
CONTINUOUS
 0
LINE
 8
WHITE
 10
14.5875
 20
.469999
 30
0.0000
 11
14.4
 21
.469999
 31
0.0000
 6
CONTINUOUS
 0
LINE
 8
WHITE
 10
14.4
 20
.469999
 30
0.0000
 11
14.4
 21
.319999
 31
0.0000
 6
CONTINUOUS
 0
LINE
 8
WHITE
 10
14.4
 20
.319999
 30
0.0000
 11
14.2674
 21
.4526
 31
0.0000
 6
CONTINUOUS
 0
LINE
 8
WHITE
 10
14.2674
 20
.4526
 30
0.0000
 11
14.1348
 21
.319999
 31
0.0000
 6
CONTINUOUS
 0
LINE
 8
WHITE
 10
14.1348
 20
.319999
 30
0.0000
 11
14.2674
 21
.1875
 31
0.0000
 6
CONTINUOUS
 0
LINE
 8
WHITE
 10
14.2674
 20
.1875
 30
0.0000
 11
14.0875
 21
.1875
 31
0.0000
 6
CONTINUOUS
 0
ARC
 8
WHITE
 10
14.0875
 20
.25
 30
 0
 40
.0625
 50
180
 51
270
 6
CONTINUOUS
 0
LINE
 8
WHITE
 10
14.025
 20
.25
 30
0.0000
 11
14.025
 21
.469999
 31
0.0000
 6
CONTINUOUS
 0
LINE
 8
WHITE
 10
14.025
 20
.469999
 30
0.0000
 11
13.8375
 21
.469999
 31
0.0000
 6
CONTINUOUS
 0
LINE
 8
WHITE
 10
14.925
 20
0
 30
0.0000
 11
14.925
 21
1
 31
0.0000
 6
CONTINUOUS
 0
LINE
 8
WHITE
 10
14.925
 20
1
 30
0.0000
 11
15.3781
 21
1
 31
0.0000
 6
CONTINUOUS
 0
ARC
 8
WHITE
 10
15.3852
 20
.703199
 30
 0
 40
.296884
 50
271.3707
 51
91.37036
 6
CONTINUOUS
 0
LINE
 8
WHITE
 10
15.3923
 20
.4065
 30
0.0000
 11
15.3923
 21
.406199
 31
0.0000
 6
CONTINUOUS
 0
LINE
 8
WHITE
 10
15.3923
 20
.406199
 30
0.0000
 11
15.675
 21
0
 31
0.0000
 6
CONTINUOUS
 0
LINE
 8
WHITE
 10
15.675
 20
0
 30
0.0000
 11
15.4551
 21
0
 31
0.0000
 6
CONTINUOUS
 0
LINE
 8
WHITE
 10
15.4551
 20
0
 30
0.0000
 11
15.1725
 21
.406199
 31
0.0000
 6
CONTINUOUS
 0
LINE
 8
WHITE
 10
15.1725
 20
.406199
 30
0.0000
 11
15.1725
 21
.593699
 31
0.0000
 6
CONTINUOUS
 0
LINE
 8
WHITE
 10
15.1725
 20
.593699
 30
0.0000
 11
15.3781
 21
.593699
 31
0.0000
 6
CONTINUOUS
 0
ARC
 8
WHITE
 10
15.3781
 20
.703099
 30
 0
 40
.109399
 50
270
 51
90
 6
CONTINUOUS
 0
LINE
 8
WHITE
 10
15.3781
 20
.8125
 30
0.0000
 11
15.1125
 21
.8125
 31
0.0000
 6
CONTINUOUS
 0
LINE
 8
WHITE
 10
15.1125
 20
.8125
 30
0.0000
 11
15.1125
 21
0
 31
0.0000
 6
CONTINUOUS
 0
LINE
 8
WHITE
 10
15.1125
 20
0
 30
0.0000
 11
14.925
 21
0
 31
0.0000
 6
CONTINUOUS
 0
ARC
 8
WHITE
 10
16.325
 20
.75
 30
 0
 40
.25
 50
0
 51
90
 6
CONTINUOUS
 0
LINE
 8
WHITE
 10
16.325
 20
1
 30
0.0000
 11
16.1218
 21
1
 31
0.0000
 6
CONTINUOUS
 0
ARC
 8
WHITE
 10
16.1218
 20
.703099
 30
 0
 40
.2969
 50
90
 51
270
 6
CONTINUOUS
 0
LINE
 8
WHITE
 10
16.1218
 20
.406199
 30
0.0000
 11
16.2781
 21
.406199
 31
0.0000
 6
CONTINUOUS
 0
ARC
 8
WHITE
 10
16.2781
 20
.296899
 30
 0
 40
.1093
 50
270
 51
90
 6
CONTINUOUS
 0
LINE
 8
WHITE
 10
16.2781
 20
.1875
 30
0.0000
 11
16.075
 21
.1875
 31
0.0000
 6
CONTINUOUS
 0
ARC
 8
WHITE
 10
16.075
 20
.25
 30
 0
 40
.0625
 50
180
 51
270
 6
CONTINUOUS
 0
LINE
 8
WHITE
 10
16.0125
 20
.25
 30
0.0000
 11
15.825
 21
.25
 31
0.0000
 6
CONTINUOUS
 0
ARC
 8
WHITE
 10
16.075
 20
.25
 30
 0
 40
.25
 50
180
 51
270
 6
CONTINUOUS
 0
LINE
 8
WHITE
 10
16.075
 20
0
 30
0.0000
 11
16.2781
 21
0
 31
0.0000
 6
CONTINUOUS
 0
ARC
 8
WHITE
 10
16.2781
 20
.296799
 30
 0
 40
.296799
 50
270
 51
90
 6
CONTINUOUS
 0
LINE
 8
WHITE
 10
16.2781
 20
.593699
 30
0.0000
 11
16.1218
 21
.593699
 31
0.0000
 6
CONTINUOUS
 0
ARC
 8
WHITE
 10
16.1218
 20
.703099
 30
 0
 40
.109399
 50
90
 51
270
 6
CONTINUOUS
 0
LINE
 8
WHITE
 10
16.1218
 20
.8125
 30
0.0000
 11
16.325
 21
.8125
 31
0.0000
 6
CONTINUOUS
 0
ARC
 8
WHITE
 10
16.325
 20
.75
 30
 0
 40
.0625
 50
0
 51
90
 6
CONTINUOUS
 0
LINE
 8
WHITE
 10
16.3875
 20
.75
 30
0.0000
 11
16.575
 21
.75
 31
0.0000
 6
CONTINUOUS
 0
LINE
 8
WHITE
 10
17.0062
 20
0
 30
0.0000
 11
17.0062
 21
.8125
 31
0.0000
 6
CONTINUOUS
 0
LINE
 8
WHITE
 10
17.0062
 20
.8125
 30
0.0000
 11
16.725
 21
.8125
 31
0.0000
 6
CONTINUOUS
 0
LINE
 8
WHITE
 10
16.725
 20
.8125
 30
0.0000
 11
16.725
 21
1
 31
0.0000
 6
CONTINUOUS
 0
LINE
 8
WHITE
 10
16.725
 20
1
 30
0.0000
 11
17.475
 21
1
 31
0.0000
 6
CONTINUOUS
 0
LINE
 8
WHITE
 10
17.475
 20
1
 30
0.0000
 11
17.475
 21
.8125
 31
0.0000
 6
CONTINUOUS
 0
LINE
 8
WHITE
 10
17.475
 20
.8125
 30
0.0000
 11
17.1937
 21
.8125
 31
0.0000
 6
CONTINUOUS
 0
LINE
 8
WHITE
 10
17.1937
 20
.8125
 30
0.0000
 11
17.1937
 21
0
 31
0.0000
 6
CONTINUOUS
 0
LINE
 8
WHITE
 10
17.1937
 20
0
 30
0.0000
 11
17.0062
 21
0
 31
0.0000
 6
CONTINUOUS
 0
LINE
 8
WHITE
 10
17.625
 20
1
 30
0.0000
 11
17.8125
 21
1
 31
0.0000
 6
CONTINUOUS
 0
LINE
 8
WHITE
 10
17.8125
 20
1
 30
0.0000
 11
17.8125
 21
.375
 31
0.0000
 6
CONTINUOUS
 0
ARC
 8
WHITE
 10
18
 20
.375
 30
 0
 40
.1875
 50
180
 51
0
 6
CONTINUOUS
 0
LINE
 8
WHITE
 10
18.1875
 20
.375
 30
0.0000
 11
18.1875
 21
1
 31
0.0000
 6
CONTINUOUS
 0
LINE
 8
WHITE
 10
18.1875
 20
1
 30
0.0000
 11
18.375
 21
1
 31
0.0000
 6
CONTINUOUS
 0
LINE
 8
WHITE
 10
18.375
 20
1
 30
0.0000
 11
18.375
 21
.375
 31
0.0000
 6
CONTINUOUS
 0
ARC
 8
WHITE
 10
18
 20
.375
 30
 0
 40
.375
 50
180
 51
0
 6
CONTINUOUS
 0
LINE
 8
WHITE
 10
17.625
 20
.375
 30
0.0000
 11
17.625
 21
1
 31
0.0000
 6
CONTINUOUS
 0
LINE
 8
WHITE
 10
18.525
 20
1
 30
0.0000
 11
18.8062
 21
0
 31
0.0000
 6
CONTINUOUS
 0
LINE
 8
WHITE
 10
18.8062
 20
0
 30
0.0000
 11
18.9937
 21
0
 31
0.0000
 6
CONTINUOUS
 0
LINE
 8
WHITE
 10
18.9937
 20
0
 30
0.0000
 11
19.275
 21
1
 31
0.0000
 6
CONTINUOUS
 0
LINE
 8
WHITE
 10
19.275
 20
1
 30
0.0000
 11
19.0802
 21
1
 31
0.0000
 6
CONTINUOUS
 0
LINE
 8
WHITE
 10
19.0802
 20
1
 30
0.0000
 11
18.9
 21
.3591
 31
0.0000
 6
CONTINUOUS
 0
LINE
 8
WHITE
 10
18.9
 20
.3591
 30
0.0000
 11
18.7197
 21
1
 31
0.0000
 6
CONTINUOUS
 0
LINE
 8
WHITE
 10
18.7197
 20
1
 30
0.0000
 11
18.525
 21
1
 31
0.0000
 6
CONTINUOUS
 0
LINE
 8
WHITE
 10
19.425
 20
1
 30
0.0000
 11
19.5187
 21
0
 31
0.0000
 6
CONTINUOUS
 0
LINE
 8
WHITE
 10
19.5187
 20
0
 30
0.0000
 11
19.7062
 21
0
 31
0.0000
 6
CONTINUOUS
 0
LINE
 8
WHITE
 10
19.7062
 20
0
 30
0.0000
 11
19.8
 21
.493299
 31
0.0000
 6
CONTINUOUS
 0
LINE
 8
WHITE
 10
19.8
 20
.493299
 30
0.0000
 11
19.8937
 21
0
 31
0.0000
 6
CONTINUOUS
 0
LINE
 8
WHITE
 10
19.8937
 20
0
 30
0.0000
 11
20.0812
 21
0
 31
0.0000
 6
CONTINUOUS
 0
LINE
 8
WHITE
 10
20.0812
 20
0
 30
0.0000
 11
20.175
 21
1
 31
0.0000
 6
CONTINUOUS
 0
LINE
 8
WHITE
 10
20.175
 20
1
 30
0.0000
 11
19.9866
 21
1
 31
0.0000
 6
CONTINUOUS
 0
LINE
 8
WHITE
 10
19.9866
 20
1
 30
0.0000
 11
19.9559
 21
.6725
 31
0.0000
 6
CONTINUOUS
 0
LINE
 8
WHITE
 10
19.9559
 20
.6725
 30
0.0000
 11
19.8937
 21
1
 31
0.0000
 6
CONTINUOUS
 0
LINE
 8
WHITE
 10
19.8937
 20
1
 30
0.0000
 11
19.7062
 21
1
 31
0.0000
 6
CONTINUOUS
 0
LINE
 8
WHITE
 10
19.7062
 20
1
 30
0.0000
 11
19.644
 21
.6725
 31
0.0000
 6
CONTINUOUS
 0
LINE
 8
WHITE
 10
19.644
 20
.6725
 30
0.0000
 11
19.6133
 21
1
 31
0.0000
 6
CONTINUOUS
 0
LINE
 8
WHITE
 10
19.6133
 20
1
 30
0.0000
 11
19.425
 21
1
 31
0.0000
 6
CONTINUOUS
 0
LINE
 8
WHITE
 10
20.325
 20
0
 30
0.0000
 11
20.5935
 21
.5
 31
0.0000
 6
CONTINUOUS
 0
LINE
 8
WHITE
 10
20.5935
 20
.5
 30
0.0000
 11
20.325
 21
1
 31
0.0000
 6
CONTINUOUS
 0
LINE
 8
WHITE
 10
20.325
 20
1
 30
0.0000
 11
20.5378
 21
1
 31
0.0000
 6
CONTINUOUS
 0
LINE
 8
WHITE
 10
20.5378
 20
1
 30
0.0000
 11
20.7
 21
.698099
 31
0.0000
 6
CONTINUOUS
 0
LINE
 8
WHITE
 10
20.7
 20
.698099
 30
0.0000
 11
20.8621
 21
1
 31
0.0000
 6
CONTINUOUS
 0
LINE
 8
WHITE
 10
20.8621
 20
1
 30
0.0000
 11
21.075
 21
1
 31
0.0000
 6
CONTINUOUS
 0
LINE
 8
WHITE
 10
21.075
 20
1
 30
0.0000
 11
20.8064
 21
.5
 31
0.0000
 6
CONTINUOUS
 0
LINE
 8
WHITE
 10
20.8064
 20
.5
 30
0.0000
 11
21.075
 21
0
 31
0.0000
 6
CONTINUOUS
 0
LINE
 8
WHITE
 10
21.075
 20
0
 30
0.0000
 11
20.8621
 21
0
 31
0.0000
 6
CONTINUOUS
 0
LINE
 8
WHITE
 10
20.8621
 20
0
 30
0.0000
 11
20.7
 21
.3018
 31
0.0000
 6
CONTINUOUS
 0
LINE
 8
WHITE
 10
20.7
 20
.3018
 30
0.0000
 11
20.5378
 21
0
 31
0.0000
 6
CONTINUOUS
 0
LINE
 8
WHITE
 10
20.5378
 20
0
 30
0.0000
 11
20.325
 21
0
 31
0.0000
 6
CONTINUOUS
 0
LINE
 8
WHITE
 10
21.225
 20
1
 30
0.0000
 11
21.5062
 21
.462099
 31
0.0000
 6
CONTINUOUS
 0
LINE
 8
WHITE
 10
21.5062
 20
.462099
 30
0.0000
 11
21.5062
 21
0
 31
0.0000
 6
CONTINUOUS
 0
LINE
 8
WHITE
 10
21.5062
 20
0
 30
0.0000
 11
21.6937
 21
0
 31
0.0000
 6
CONTINUOUS
 0
LINE
 8
WHITE
 10
21.6937
 20
0
 30
0.0000
 11
21.6937
 21
.462099
 31
0.0000
 6
CONTINUOUS
 0
LINE
 8
WHITE
 10
21.6937
 20
.462099
 30
0.0000
 11
21.975
 21
1
 31
0.0000
 6
CONTINUOUS
 0
LINE
 8
WHITE
 10
21.975
 20
1
 30
0.0000
 11
21.7634
 21
1
 31
0.0000
 6
CONTINUOUS
 0
LINE
 8
WHITE
 10
21.7634
 20
1
 30
0.0000
 11
21.6
 21
.6875
 31
0.0000
 6
CONTINUOUS
 0
LINE
 8
WHITE
 10
21.6
 20
.6875
 30
0.0000
 11
21.4365
 21
1
 31
0.0000
 6
CONTINUOUS
 0
LINE
 8
WHITE
 10
21.4365
 20
1
 30
0.0000
 11
21.225
 21
1
 31
0.0000
 6
CONTINUOUS
 0
LINE
 8
WHITE
 10
22.125
 20
1
 30
0.0000
 11
22.875
 21
1
 31
0.0000
 6
CONTINUOUS
 0
LINE
 8
WHITE
 10
22.875
 20
1
 30
0.0000
 11
22.875
 21
.8125
 31
0.0000
 6
CONTINUOUS
 0
LINE
 8
WHITE
 10
22.875
 20
.8125
 30
0.0000
 11
22.3666
 21
.1875
 31
0.0000
 6
CONTINUOUS
 0
LINE
 8
WHITE
 10
22.3666
 20
.1875
 30
0.0000
 11
22.875
 21
.1875
 31
0.0000
 6
CONTINUOUS
 0
LINE
 8
WHITE
 10
22.875
 20
.1875
 30
0.0000
 11
22.875
 21
0
 31
0.0000
 6
CONTINUOUS
 0
LINE
 8
WHITE
 10
22.875
 20
0
 30
0.0000
 11
22.125
 21
0
 31
0.0000
 6
CONTINUOUS
 0
LINE
 8
WHITE
 10
22.125
 20
0
 30
0.0000
 11
22.125
 21
.1875
 31
0.0000
 6
CONTINUOUS
 0
LINE
 8
WHITE
 10
22.125
 20
.1875
 30
0.0000
 11
22.6333
 21
.8125
 31
0.0000
 6
CONTINUOUS
 0
LINE
 8
WHITE
 10
22.6333
 20
.8125
 30
0.0000
 11
22.125
 21
.8125
 31
0.0000
 6
CONTINUOUS
 0
LINE
 8
WHITE
 10
22.125
 20
.8125
 30
0.0000
 11
22.125
 21
1
 31
0.0000
 6
CONTINUOUS
 0
LINE
 8
WHITE
 10
24.27
 20
0
 30
0.0000
 11
24.2062
 21
0
 31
0.0000
 6
CONTINUOUS
 0
ARC
 8
WHITE
 10
24.2062
 20
.281199
 30
 0
 40
.281199
 50
180
 51
270
 6
CONTINUOUS
 0
LINE
 8
WHITE
 10
23.925
 20
.281199
 30
0.0000
 11
23.925
 21
.718699
 31
0.0000
 6
CONTINUOUS
 0
ARC
 8
WHITE
 10
24.2062
 20
.7188
 30
 0
 40
.2812
 50
90
 51
180.0204
 6
CONTINUOUS
 0
LINE
 8
WHITE
 10
24.2062
 20
1
 30
0.0000
 11
24.27
 21
1
 31
0.0000
 6
CONTINUOUS
 0
LINE
 8
WHITE
 10
24.27
 20
1
 30
0.0000
 11
24.27
 21
.8125
 31
0.0000
 6
CONTINUOUS
 0
LINE
 8
WHITE
 10
24.27
 20
.8125
 30
0.0000
 11
24.2062
 21
.8125
 31
0.0000
 6
CONTINUOUS
 0
ARC
 8
WHITE
 10
24.2062
 20
.7188
 30
 0
 40
.093699
 50
90
 51
180.0612
 6
CONTINUOUS
 0
LINE
 8
WHITE
 10
24.1125
 20
.718699
 30
0.0000
 11
24.1125
 21
.281199
 31
0.0000
 6
CONTINUOUS
 0
ARC
 8
WHITE
 10
24.2062
 20
.281199
 30
 0
 40
.093699
 50
180
 51
270
 6
CONTINUOUS
 0
LINE
 8
WHITE
 10
24.2062
 20
.1875
 30
0.0000
 11
24.27
 21
.1875
 31
0.0000
 6
CONTINUOUS
 0
LINE
 8
WHITE
 10
24.27
 20
.1875
 30
0.0000
 11
24.27
 21
0
 31
0.0000
 6
CONTINUOUS
 0
LINE
 8
WHITE
 10
24.33
 20
0
 30
0.0000
 11
24.3937
 21
0
 31
0.0000
 6
CONTINUOUS
 0
ARC
 8
WHITE
 10
24.3937
 20
.281199
 30
 0
 40
.281199
 50
270
 51
0
 6
CONTINUOUS
 0
LINE
 8
WHITE
 10
24.675
 20
.281199
 30
0.0000
 11
24.675
 21
.718699
 31
0.0000
 6
CONTINUOUS
 0
ARC
 8
WHITE
 10
24.3938
 20
.7188
 30
 0
 40
.2812
 50
359.9796
 51
90.0202
 6
CONTINUOUS
 0
LINE
 8
WHITE
 10
24.3937
 20
1
 30
0.0000
 11
24.33
 21
1
 31
0.0000
 6
CONTINUOUS
 0
LINE
 8
WHITE
 10
24.33
 20
1
 30
0.0000
 11
24.33
 21
.8125
 31
0.0000
 6
CONTINUOUS
 0
LINE
 8
WHITE
 10
24.33
 20
.8125
 30
0.0000
 11
24.3937
 21
.8125
 31
0.0000
 6
CONTINUOUS
 0
ARC
 8
WHITE
 10
24.3937
 20
.7188
 30
 0
 40
.093699
 50
359.9389
 51
90
 6
CONTINUOUS
 0
LINE
 8
WHITE
 10
24.4875
 20
.718699
 30
0.0000
 11
24.4875
 21
.281199
 31
0.0000
 6
CONTINUOUS
 0
ARC
 8
WHITE
 10
24.3938
 20
.281199
 30
 0
 40
.093699
 50
269.9394
 51
0
 6
CONTINUOUS
 0
LINE
 8
WHITE
 10
24.3937
 20
.1875
 30
0.0000
 11
24.33
 21
.1875
 31
0.0000
 6
CONTINUOUS
 0
LINE
 8
WHITE
 10
24.33
 20
.1875
 30
0.0000
 11
24.33
 21
0
 31
0.0000
 6
CONTINUOUS
 0
LINE
 8
WHITE
 10
25.2
 20
1
 30
0.0000
 11
24.825
 21
.625
 31
0.0000
 6
CONTINUOUS
 0
LINE
 8
WHITE
 10
24.825
 20
.625
 30
0.0000
 11
24.825
 21
.4375
 31
0.0000
 6
CONTINUOUS
 0
LINE
 8
WHITE
 10
24.825
 20
.4375
 30
0.0000
 11
25.0125
 21
.625
 31
0.0000
 6
CONTINUOUS
 0
LINE
 8
WHITE
 10
25.0125
 20
.625
 30
0.0000
 11
25.0125
 21
0
 31
0.0000
 6
CONTINUOUS
 0
LINE
 8
WHITE
 10
25.0125
 20
0
 30
0.0000
 11
25.2
 21
0
 31
0.0000
 6
CONTINUOUS
 0
LINE
 8
WHITE
 10
25.2
 20
0
 30
0.0000
 11
25.2
 21
1
 31
0.0000
 6
CONTINUOUS
 0
ARC
 8
WHITE
 10
25.6
 20
.75
 30
 0
 40
.25
 50
90
 51
180
 6
CONTINUOUS
 0
LINE
 8
WHITE
 10
25.6
 20
1
 30
0.0000
 11
25.85
 21
1
 31
0.0000
 6
CONTINUOUS
 0
ARC
 8
WHITE
 10
25.85
 20
.75
 30
 0
 40
.25
 50
312.3089
 51
90
 6
CONTINUOUS
 0
LINE
 8
WHITE
 10
26.0183
 20
.5651
 30
0.0000
 11
25.6035
 21
.1875
 31
0.0000
 6
CONTINUOUS
 0
LINE
 8
WHITE
 10
25.6035
 20
.1875
 30
0.0000
 11
26.1
 21
.1875
 31
0.0000
 6
CONTINUOUS
 0
LINE
 8
WHITE
 10
26.1
 20
.1875
 30
0.0000
 11
26.1
 21
0
 31
0.0000
 6
CONTINUOUS
 0
LINE
 8
WHITE
 10
26.1
 20
0
 30
0.0000
 11
25.35
 21
0
 31
0.0000
 6
CONTINUOUS
 0
LINE
 8
WHITE
 10
25.35
 20
0
 30
0.0000
 11
25.35
 21
.1875
 31
0.0000
 6
CONTINUOUS
 0
LINE
 8
WHITE
 10
25.35
 20
.1875
 30
0.0000
 11
25.892
 21
.7037
 31
0.0000
 6
CONTINUOUS
 0
ARC
 8
WHITE
 10
25.8502
 20
.7501
 30
 0
 40
.062451
 50
312.0145
 51
90.18389
 6
CONTINUOUS
 0
LINE
 8
WHITE
 10
25.85
 20
.8125
 30
0.0000
 11
25.6
 21
.8125
 31
0.0000
 6
CONTINUOUS
 0
ARC
 8
WHITE
 10
25.6
 20
.75
 30
 0
 40
.0625
 50
90
 51
180
 6
CONTINUOUS
 0
LINE
 8
WHITE
 10
25.5375
 20
.75
 30
0.0000
 11
25.35
 21
.75
 31
0.0000
 6
CONTINUOUS
 0
ARC
 8
WHITE
 10
26.5
 20
.75
 30
 0
 40
.25
 50
90
 51
180
 6
CONTINUOUS
 0
LINE
 8
WHITE
 10
26.5
 20
1
 30
0.0000
 11
26.75
 21
1
 31
0.0000
 6
CONTINUOUS
 0
ARC
 8
WHITE
 10
26.75
 20
.75
 30
 0
 40
.25
 50
0
 51
90
 6
CONTINUOUS
 0
LINE
 8
WHITE
 10
27
 20
.75
 30
0.0000
 11
27
 21
.718699
 31
0.0000
 6
CONTINUOUS
 0
ARC
 8
WHITE
 10
26.6875
 20
.718699
 30
 0
 40
.3125
 50
315.5707
 51
0
 6
CONTINUOUS
 0
ARC
 8
WHITE
 10
26.6875
 20
.2813
 30
 0
 40
.312415
 50
359.9817
 51
44.4294
 6
CONTINUOUS
 0
LINE
 8
WHITE
 10
27
 20
.281199
 30
0.0000
 11
27
 21
.25
 31
0.0000
 6
CONTINUOUS
 0
ARC
 8
WHITE
 10
26.75
 20
.25
 30
 0
 40
.25
 50
270
 51
0
 6
CONTINUOUS
 0
LINE
 8
WHITE
 10
26.75
 20
0
 30
0.0000
 11
26.5
 21
0
 31
0.0000
 6
CONTINUOUS
 0
ARC
 8
WHITE
 10
26.5
 20
.25
 30
 0
 40
.25
 50
180
 51
270
 6
CONTINUOUS
 0
LINE
 8
WHITE
 10
26.25
 20
.25
 30
0.0000
 11
26.4375
 21
.25
 31
0.0000
 6
CONTINUOUS
 0
ARC
 8
WHITE
 10
26.5
 20
.25
 30
 0
 40
.0625
 50
180
 51
270
 6
CONTINUOUS
 0
LINE
 8
WHITE
 10
26.5
 20
.1875
 30
0.0000
 11
26.75
 21
.1875
 31
0.0000
 6
CONTINUOUS
 0
ARC
 8
WHITE
 10
26.75
 20
.25
 30
 0
 40
.0625
 50
270
 51
0
 6
CONTINUOUS
 0
LINE
 8
WHITE
 10
26.8125
 20
.25
 30
0.0000
 11
26.8125
 21
.281199
 31
0.0000
 6
CONTINUOUS
 0
ARC
 8
WHITE
 10
26.6875
 20
.281199
 30
 0
 40
.125
 50
0
 51
90
 6
CONTINUOUS
 0
LINE
 8
WHITE
 10
26.6875
 20
.406199
 30
0.0000
 11
26.625
 21
.406199
 31
0.0000
 6
CONTINUOUS
 0
LINE
 8
WHITE
 10
26.625
 20
.406199
 30
0.0000
 11
26.625
 21
.593699
 31
0.0000
 6
CONTINUOUS
 0
LINE
 8
WHITE
 10
26.625
 20
.593699
 30
0.0000
 11
26.6875
 21
.593699
 31
0.0000
 6
CONTINUOUS
 0
ARC
 8
WHITE
 10
26.6875
 20
.718699
 30
 0
 40
.125
 50
270
 51
0
 6
CONTINUOUS
 0
LINE
 8
WHITE
 10
26.8125
 20
.718699
 30
0.0000
 11
26.8125
 21
.75
 31
0.0000
 6
CONTINUOUS
 0
ARC
 8
WHITE
 10
26.75
 20
.75
 30
 0
 40
.0625
 50
0
 51
90
 6
CONTINUOUS
 0
LINE
 8
WHITE
 10
26.75
 20
.8125
 30
0.0000
 11
26.5
 21
.8125
 31
0.0000
 6
CONTINUOUS
 0
ARC
 8
WHITE
 10
26.5
 20
.75
 30
 0
 40
.0625
 50
90
 51
180
 6
CONTINUOUS
 0
LINE
 8
WHITE
 10
26.4375
 20
.75
 30
0.0000
 11
26.25
 21
.75
 31
0.0000
 6
CONTINUOUS
 0
LINE
 8
WHITE
 10
27.6187
 20
.406199
 30
0.0000
 11
27.3888
 21
.406199
 31
0.0000
 6
CONTINUOUS
 0
LINE
 8
WHITE
 10
27.3888
 20
.406199
 30
0.0000
 11
27.6187
 21
.697399
 31
0.0000
 6
CONTINUOUS
 0
LINE
 8
WHITE
 10
27.6187
 20
.697399
 30
0.0000
 11
27.8062
 21
.697399
 31
0.0000
 6
CONTINUOUS
 0
LINE
 8
WHITE
 10
27.8062
 20
.697399
 30
0.0000
 11
27.8062
 21
1
 31
0.0000
 6
CONTINUOUS
 0
LINE
 8
WHITE
 10
27.8062
 20
1
 30
0.0000
 11
27.6187
 21
1
 31
0.0000
 6
CONTINUOUS
 0
LINE
 8
WHITE
 10
27.6187
 20
1
 30
0.0000
 11
27.15
 21
.406199
 31
0.0000
 6
CONTINUOUS
 0
LINE
 8
WHITE
 10
27.15
 20
.406199
 30
0.0000
 11
27.15
 21
.2187
 31
0.0000
 6
CONTINUOUS
 0
LINE
 8
WHITE
 10
27.15
 20
.2187
 30
0.0000
 11
27.6187
 21
.2187
 31
0.0000
 6
CONTINUOUS
 0
LINE
 8
WHITE
 10
27.6187
 20
.2187
 30
0.0000
 11
27.6187
 21
0
 31
0.0000
 6
CONTINUOUS
 0
LINE
 8
WHITE
 10
27.6187
 20
0
 30
0.0000
 11
27.8062
 21
0
 31
0.0000
 6
CONTINUOUS
 0
LINE
 8
WHITE
 10
27.8062
 20
0
 30
0.0000
 11
27.8062
 21
.2187
 31
0.0000
 6
CONTINUOUS
 0
LINE
 8
WHITE
 10
27.8062
 20
.2187
 30
0.0000
 11
27.9
 21
.2187
 31
0.0000
 6
CONTINUOUS
 0
LINE
 8
WHITE
 10
27.9
 20
.2187
 30
0.0000
 11
27.9
 21
.406199
 31
0.0000
 6
CONTINUOUS
 0
LINE
 8
WHITE
 10
27.9
 20
.406199
 30
0.0000
 11
27.8062
 21
.406199
 31
0.0000
 6
CONTINUOUS
 0
LINE
 8
WHITE
 10
27.8062
 20
.406199
 30
0.0000
 11
27.8062
 21
.6187
 31
0.0000
 6
CONTINUOUS
 0
LINE
 8
WHITE
 10
27.8062
 20
.6187
 30
0.0000
 11
27.7125
 21
.6187
 31
0.0000
 6
CONTINUOUS
 0
LINE
 8
WHITE
 10
27.7125
 20
.6187
 30
0.0000
 11
27.6187
 21
.5
 31
0.0000
 6
CONTINUOUS
 0
LINE
 8
WHITE
 10
27.6187
 20
.5
 30
0.0000
 11
27.6187
 21
.406199
 31
0.0000
 6
CONTINUOUS
 0
LINE
 8
WHITE
 10
28.7062
 20
1
 30
0.0000
 11
28.05
 21
1
 31
0.0000
 6
CONTINUOUS
 0
LINE
 8
WHITE
 10
28.05
 20
1
 30
0.0000
 11
28.05
 21
.5
 31
0.0000
 6
CONTINUOUS
 0
LINE
 8
WHITE
 10
28.05
 20
.5
 30
0.0000
 11
28.4562
 21
.5
 31
0.0000
 6
CONTINUOUS
 0
ARC
 8
WHITE
 10
28.4562
 20
.3438
 30
 0
 40
.1562
 50
270
 51
90
 6
CONTINUOUS
 0
LINE
 8
WHITE
 10
28.4562
 20
.1875
 30
0.0000
 11
28.3
 21
.1875
 31
0.0000
 6
CONTINUOUS
 0
ARC
 8
WHITE
 10
28.3
 20
.25
 30
 0
 40
.0625
 50
180
 51
270
 6
CONTINUOUS
 0
LINE
 8
WHITE
 10
28.2375
 20
.25
 30
0.0000
 11
28.05
 21
.25
 31
0.0000
 6
CONTINUOUS
 0
ARC
 8
WHITE
 10
28.3
 20
.25
 30
 0
 40
.25
 50
180
 51
270
 6
CONTINUOUS
 0
LINE
 8
WHITE
 10
28.3
 20
0
 30
0.0000
 11
28.4562
 21
0
 31
0.0000
 6
CONTINUOUS
 0
ARC
 8
WHITE
 10
28.4562
 20
.3438
 30
 0
 40
.3438
 50
270
 51
90
 6
CONTINUOUS
 0
LINE
 8
WHITE
 10
28.4562
 20
.6875
 30
0.0000
 11
28.2375
 21
.6875
 31
0.0000
 6
CONTINUOUS
 0
LINE
 8
WHITE
 10
28.2375
 20
.6875
 30
0.0000
 11
28.2375
 21
.8125
 31
0.0000
 6
CONTINUOUS
 0
LINE
 8
WHITE
 10
28.2375
 20
.8125
 30
0.0000
 11
28.7062
 21
.8125
 31
0.0000
 6
CONTINUOUS
 0
LINE
 8
WHITE
 10
28.7062
 20
.8125
 30
0.0000
 11
28.7062
 21
1
 31
0.0000
 6
CONTINUOUS
 0
LINE
 8
WHITE
 10
29.5125
 20
1
 30
0.0000
 11
29.2625
 21
1
 31
0.0000
 6
CONTINUOUS
 0
ARC
 8
WHITE
 10
29.2625
 20
.6875
 30
 0
 40
.3125
 50
90
 51
180
 6
CONTINUOUS
 0
LINE
 8
WHITE
 10
28.95
 20
.6875
 30
0.0000
 11
28.95
 21
.25
 31
0.0000
 6
CONTINUOUS
 0
ARC
 8
WHITE
 10
29.2
 20
.25
 30
 0
 40
.25
 50
180
 51
270
 6
CONTINUOUS
 0
LINE
 8
WHITE
 10
29.2
 20
0
 30
0.0000
 11
29.3562
 21
0
 31
0.0000
 6
CONTINUOUS
 0
ARC
 8
WHITE
 10
29.3562
 20
.3438
 30
 0
 40
.3438
 50
270
 51
90
 6
CONTINUOUS
 0
LINE
 8
WHITE
 10
29.3562
 20
.6875
 30
0.0000
 11
29.2312
 21
.6875
 31
0.0000
 6
CONTINUOUS
 0
LINE
 8
WHITE
 10
29.2312
 20
.6875
 30
0.0000
 11
29.2312
 21
.5
 31
0.0000
 6
CONTINUOUS
 0
LINE
 8
WHITE
 10
29.2312
 20
.5
 30
0.0000
 11
29.3562
 21
.5
 31
0.0000
 6
CONTINUOUS
 0
ARC
 8
WHITE
 10
29.3562
 20
.3438
 30
 0
 40
.1562
 50
270
 51
90
 6
CONTINUOUS
 0
LINE
 8
WHITE
 10
29.3562
 20
.1875
 30
0.0000
 11
29.2
 21
.1875
 31
0.0000
 6
CONTINUOUS
 0
ARC
 8
WHITE
 10
29.2
 20
.25
 30
 0
 40
.0625
 50
180
 51
270
 6
CONTINUOUS
 0
LINE
 8
WHITE
 10
29.1375
 20
.25
 30
0.0000
 11
29.1375
 21
.6875
 31
0.0000
 6
CONTINUOUS
 0
ARC
 8
WHITE
 10
29.2625
 20
.6875
 30
 0
 40
.125
 50
90
 51
180
 6
CONTINUOUS
 0
LINE
 8
WHITE
 10
29.2625
 20
.8125
 30
0.0000
 11
29.5125
 21
.8125
 31
0.0000
 6
CONTINUOUS
 0
LINE
 8
WHITE
 10
29.5125
 20
.8125
 30
0.0000
 11
29.5125
 21
1
 31
0.0000
 6
CONTINUOUS
 0
LINE
 8
WHITE
 10
29.85
 20
1
 30
0.0000
 11
30.6
 21
1
 31
0.0000
 6
CONTINUOUS
 0
LINE
 8
WHITE
 10
30.6
 20
1
 30
0.0000
 11
30.4125
 21
0
 31
0.0000
 6
CONTINUOUS
 0
LINE
 8
WHITE
 10
30.4125
 20
0
 30
0.0000
 11
30.2217
 21
0
 31
0.0000
 6
CONTINUOUS
 0
LINE
 8
WHITE
 10
30.2217
 20
0
 30
0.0000
 11
30.374
 21
.8125
 31
0.0000
 6
CONTINUOUS
 0
LINE
 8
WHITE
 10
30.374
 20
.8125
 30
0.0000
 11
29.85
 21
.8125
 31
0.0000
 6
CONTINUOUS
 0
LINE
 8
WHITE
 10
29.85
 20
.8125
 30
0.0000
 11
29.85
 21
1
 31
0.0000
 6
CONTINUOUS
 0
LINE
 8
WHITE
 10
31.095
 20
1
 30
0.0000
 11
31.0468
 21
1
 31
0.0000
 6
CONTINUOUS
 0
ARC
 8
WHITE
 10
31.0468
 20
.703199
 30
 0
 40
.296799
 50
90
 51
180.0193
 6
CONTINUOUS
 0
ARC
 8
WHITE
 10
31.0468
 20
.7031
 30
 0
 40
.296799
 50
180
 51
223.1707
 6
CONTINUOUS
 0
ARC
 8
WHITE
 10
31.0468
 20
.2969
 30
 0
 40
.296853
 50
136.8291
 51
180.0193
 6
CONTINUOUS
 0
ARC
 8
WHITE
 10
31.0468
 20
.296799
 30
 0
 40
.296799
 50
180
 51
270
 6
CONTINUOUS
 0
LINE
 8
WHITE
 10
31.0468
 20
0
 30
0.0000
 11
31.095
 21
0
 31
0.0000
 6
CONTINUOUS
 0
LINE
 8
WHITE
 10
31.095
 20
0
 30
0.0000
 11
31.095
 21
.1875
 31
0.0000
 6
CONTINUOUS
 0
LINE
 8
WHITE
 10
31.095
 20
.1875
 30
0.0000
 11
31.0468
 21
.1875
 31
0.0000
 6
CONTINUOUS
 0
ARC
 8
WHITE
 10
31.0468
 20
.2968
 30
 0
 40
.1093
 50
180
 51
270
 6
CONTINUOUS
 0
ARC
 8
WHITE
 10
31.0468
 20
.296899
 30
 0
 40
.1093
 50
90
 51
180.0524
 6
CONTINUOUS
 0
LINE
 8
WHITE
 10
31.0468
 20
.406199
 30
0.0000
 11
31.2031
 21
.406199
 31
0.0000
 6
CONTINUOUS
 0
ARC
 8
WHITE
 10
31.2031
 20
.296899
 30
 0
 40
.1093
 50
359.9476
 51
90
 6
CONTINUOUS
 0
ARC
 8
WHITE
 10
31.2032
 20
.296799
 30
 0
 40
.1093
 50
269.948
 51
0
 6
CONTINUOUS
 0
LINE
 8
WHITE
 10
31.2031
 20
.1875
 30
0.0000
 11
31.155
 21
.1875
 31
0.0000
 6
CONTINUOUS
 0
LINE
 8
WHITE
 10
31.155
 20
.1875
 30
0.0000
 11
31.155
 21
0
 31
0.0000
 6
CONTINUOUS
 0
LINE
 8
WHITE
 10
31.155
 20
0
 30
0.0000
 11
31.2031
 21
0
 31
0.0000
 6
CONTINUOUS
 0
ARC
 8
WHITE
 10
31.2031
 20
.296799
 30
 0
 40
.296799
 50
270
 51
0
 6
CONTINUOUS
 0
ARC
 8
WHITE
 10
31.2032
 20
.296799
 30
 0
 40
.296799
 50
0
 51
43.19814
 6
CONTINUOUS
 0
ARC
 8
WHITE
 10
31.2031
 20
.703099
 30
 0
 40
.296853
 50
316.8291
 51
.000011
 6
CONTINUOUS
 0
ARC
 8
WHITE
 10
31.2032
 20
.7032
 30
 0
 40
.2968
 50
359.9807
 51
90.01914
 6
CONTINUOUS
 0
LINE
 8
WHITE
 10
31.2031
 20
1
 30
0.0000
 11
31.155
 21
1
 31
0.0000
 6
CONTINUOUS
 0
LINE
 8
WHITE
 10
31.155
 20
1
 30
0.0000
 11
31.155
 21
.8125
 31
0.0000
 6
CONTINUOUS
 0
LINE
 8
WHITE
 10
31.155
 20
.8125
 30
0.0000
 11
31.2031
 21
.8125
 31
0.0000
 6
CONTINUOUS
 0
ARC
 8
WHITE
 10
31.2031
 20
.703199
 30
 0
 40
.1093
 50
359.9477
 51
90
 6
CONTINUOUS
 0
ARC
 8
WHITE
 10
31.2032
 20
.703
 30
 0
 40
.1093
 50
269.948
 51
.05242
 6
CONTINUOUS
 0
LINE
 8
WHITE
 10
31.2031
 20
.593699
 30
0.0000
 11
31.0468
 21
.593699
 31
0.0000
 6
CONTINUOUS
 0
ARC
 8
WHITE
 10
31.0468
 20
.703
 30
 0
 40
.1093
 50
179.9476
 51
270
 6
CONTINUOUS
 0
ARC
 8
WHITE
 10
31.0468
 20
.7031
 30
 0
 40
.1093
 50
90
 51
180
 6
CONTINUOUS
 0
LINE
 8
WHITE
 10
31.0468
 20
.8125
 30
0.0000
 11
31.095
 21
.8125
 31
0.0000
 6
CONTINUOUS
 0
LINE
 8
WHITE
 10
31.095
 20
.8125
 30
0.0000
 11
31.095
 21
1
 31
0.0000
 6
CONTINUOUS
 0
LINE
 8
WHITE
 10
31.8375
 20
0
 30
0.0000
 11
32.0875
 21
0
 31
0.0000
 6
CONTINUOUS
 0
ARC
 8
WHITE
 10
32.0875
 20
.3125
 30
 0
 40
.3125
 50
270
 51
0
 6
CONTINUOUS
 0
LINE
 8
WHITE
 10
32.4
 20
.3125
 30
0.0000
 11
32.4
 21
.75
 31
0.0000
 6
CONTINUOUS
 0
ARC
 8
WHITE
 10
32.15
 20
.75
 30
 0
 40
.25
 50
0
 51
90
 6
CONTINUOUS
 0
LINE
 8
WHITE
 10
32.15
 20
1
 30
0.0000
 11
31.9937
 21
1
 31
0.0000
 6
CONTINUOUS
 0
ARC
 8
WHITE
 10
31.9937
 20
.656199
 30
 0
 40
.3438
 50
90
 51
270
 6
CONTINUOUS
 0
LINE
 8
WHITE
 10
31.9937
 20
.3125
 30
0.0000
 11
32.1187
 21
.3125
 31
0.0000
 6
CONTINUOUS
 0
LINE
 8
WHITE
 10
32.1187
 20
.3125
 30
0.0000
 11
32.1187
 21
.5
 31
0.0000
 6
CONTINUOUS
 0
LINE
 8
WHITE
 10
32.1187
 20
.5
 30
0.0000
 11
31.9937
 21
.5
 31
0.0000
 6
CONTINUOUS
 0
ARC
 8
WHITE
 10
31.9937
 20
.656199
 30
 0
 40
.1562
 50
90
 51
270
 6
CONTINUOUS
 0
LINE
 8
WHITE
 10
31.9937
 20
.8125
 30
0.0000
 11
32.15
 21
.8125
 31
0.0000
 6
CONTINUOUS
 0
ARC
 8
WHITE
 10
32.15
 20
.75
 30
 0
 40
.0625
 50
0
 51
90
 6
CONTINUOUS
 0
LINE
 8
WHITE
 10
32.2125
 20
.75
 30
0.0000
 11
32.2125
 21
.3125
 31
0.0000
 6
CONTINUOUS
 0
ARC
 8
WHITE
 10
32.0875
 20
.3125
 30
 0
 40
.125
 50
270
 51
0
 6
CONTINUOUS
 0
LINE
 8
WHITE
 10
32.0875
 20
.1875
 30
0.0000
 11
31.8375
 21
.1875
 31
0.0000
 6
CONTINUOUS
 0
LINE
 8
WHITE
 10
31.8375
 20
.1875
 30
0.0000
 11
31.8375
 21
0
 31
0.0000
 6
CONTINUOUS
 0
LINE
 8
WHITE
 10
32.55
 20
.406199
 30
0.0000
 11
32.55
 21
.593699
 31
0.0000
 6
CONTINUOUS
 0
LINE
 8
WHITE
 10
32.55
 20
.593699
 30
0.0000
 11
32.925
 21
.593699
 31
0.0000
 6
CONTINUOUS
 0
LINE
 8
WHITE
 10
32.925
 20
.593699
 30
0.0000
 11
32.925
 21
.406199
 31
0.0000
 6
CONTINUOUS
 0
LINE
 8
WHITE
 10
32.925
 20
.406199
 30
0.0000
 11
32.55
 21
.406199
 31
0.0000
 6
CONTINUOUS
 0
ENDSEC
 0
EOF
