  0
SECTION
  2
HEADER
  9
$ACADVER
  1
AC1014
  9
$HANDSEED
  5
FFFF
  9
$MEASUREMENT
 70
     1
  0
ENDSEC
  0
SECTION
  2
TABLES
  0
TABLE
  2
VPORT
  5
8
330
0
100
AcDbSymbolTable
 70
     4
  0
VPORT
  5
2E
330
8
100
AcDbSymbolTableRecord
100
AcDbViewportTableRecord
  2
*ACTIVE
 70
     0
 10
0.0
 20
0.0
 11
1.0
 21
1.0
 12
210.0
 22
148.5
 13
0.0
 23
0.0
 14
10.0
 24
10.0
 15
10.0
 25
10.0
 16
0.0
 26
0.0
 36
1.0
 17
0.0
 27
0.0
 37
0.0
 40
341.0
 41
1.24
 42
50.0
 43
0.0
 44
0.0
 50
0.0
 51
0.0
 71
     0
 72
   100
 73
     1
 74
     3
 75
     0
 76
     0
 77
     0
 78
     0
  0
ENDTAB
  0
TABLE
  2
LTYPE
  5
5
330
0
100
AcDbSymbolTable
 70
     1
  0
LTYPE
  5
14
330
5
100
AcDbSymbolTableRecord
100
AcDbLinetypeTableRecord
  2
BYBLOCK
 70
     0
  3

 72
    65
 73
     0
 40
0.0
  0
LTYPE
  5
15
330
5
100
AcDbSymbolTableRecord
100
AcDbLinetypeTableRecord
  2
BYLAYER
 70
     0
  3

 72
    65
 73
     0
 40
0.0
  0
LTYPE
  5
16
330
5
100
AcDbSymbolTableRecord
100
AcDbLinetypeTableRecord
  2
CONTINUOUS
 70
     0
  3
Solid line
 72
    65
 73
     0
 40
0.0
  0
ENDTAB
  0
TABLE
  2
LAYER
  5
2
100
AcDbSymbolTable
 70
1
  0
LAYER
  5
50
100
AcDbSymbolTableRecord
100
AcDbLayerTableRecord
  2
0
 70
0
  6
CONTINUOUS
  0
ENDTAB
  0
TABLE
  2
STYLE
  5
3
330
0
100
AcDbSymbolTable
 70
     1
  0
STYLE
  5
11
330
3
100
AcDbSymbolTableRecord
100
AcDbTextStyleTableRecord
  2
STANDARD
 70
     0
 40
0.0
 41
1.0
 50
0.0
 71
     0
 42
2.5
  3
txt
  4

  0
ENDTAB
  0
TABLE
  2
VIEW
  5
6
330
0
100
AcDbSymbolTable
 70
     0
  0
ENDTAB
  0
TABLE
  2
UCS
  5
7
330
0
100
AcDbSymbolTable
 70
     0
  0
ENDTAB
  0
TABLE
  2
APPID
  5
9
330
0
100
AcDbSymbolTable
 70
     2
  0
APPID
  5
12
330
9
100
AcDbSymbolTableRecord
100
AcDbRegAppTableRecord
  2
ACAD
 70
     0
  0
ENDTAB
  0
TABLE
  2
DIMSTYLE
  5
A
330
0
100
AcDbSymbolTable
 70
     1
  0
DIMSTYLE
105
27
330
A
100
AcDbSymbolTableRecord
100
AcDbDimStyleTableRecord
  2
ISO-25
 70
     0
  3

  4

  5

  6

  7

 40
1.0
 41
2.5
 42
0.625
 43
3.75
 44
1.25
 45
0.0
 46
0.0
 47
0.0
 48
0.0
140
2.5
141
2.5
142
0.0
143
0.03937007874016
144
1.0
145
0.0
146
1.0
147
0.625
 71
     0
 72
     0
 73
     0
 74
     0
 75
     0
 76
     0
 77
     1
 78
     8
170
     0
171
     3
172
     1
173
     0
174
     0
175
     0
176
     0
177
     0
178
     0
270
     2
271
     2
272
     2
273
     2
274
     3
340
11
275
     0
280
     0
281
     0
282
     0
283
     0
284
     8
285
     0
286
     0
287
     3
288
     0
  0
ENDTAB
  0
TABLE
  2
BLOCK_RECORD
  5
1
330
0
100
AcDbSymbolTable
 70
     1
  0
BLOCK_RECORD
  5
1F
330
1
100
AcDbSymbolTableRecord
100
AcDbBlockTableRecord
  2
*MODEL_SPACE
  0
BLOCK_RECORD
  5
1B
330
1
100
AcDbSymbolTableRecord
100
AcDbBlockTableRecord
  2
*PAPER_SPACE
  0
ENDTAB
  0
ENDSEC
  0
SECTION
  2
BLOCKS
  0
BLOCK
  5
20
330
1F
100
AcDbEntity
  8
0
100
AcDbBlockBegin
  2
*MODEL_SPACE
 70
     0
 10
0.0
 20
0.0
 30
0.0
  3
*MODEL_SPACE
  1

  0
ENDBLK
  5
21
330
1F
100
AcDbEntity
  8
0
100
AcDbBlockEnd
  0
BLOCK
  5
1C
330
1B
100
AcDbEntity
 67
     1
  8
0
100
AcDbBlockBegin
  2
*PAPER_SPACE
  1

  0
ENDBLK
  5
1D
330
1B
100
AcDbEntity
 67
     1
  8
0
100
AcDbBlockEnd
  0
ENDSEC
  0
SECTION
  2
ENTITIES
  0
SPLINE
  5
100
100
AcDbEntity
  8
0
 62
7
100
AcDbSpline
 70
8
 71
3
 72
8
 73
4
 74
0
 40
0
 40
0
 40
0
 40
0
 40
1
 40
1
 40
1
 40
1
 10
289.263561
 20
13.654193
 30
0.0
 10
294.518874
 20
13.967275
 30
0.0
 10
303.171199
 20
14.819471
 30
0.0
 10
303.398079
 20
15.046325
 30
0.0
  0
SPLINE
  5
101
100
AcDbEntity
  8
0
 62
7
100
AcDbSpline
 70
8
 71
3
 72
8
 73
4
 74
0
 40
0
 40
0
 40
0
 40
0
 40
1
 40
1
 40
1
 40
1
 10
303.398079
 20
15.046325
 30
0.0
 10
303.795933
 20
15.444205
 30
0.0
 10
300.961108
 20
26.598139
 30
0.0
 10
299.105876
 20
31.934441
 30
0.0
  0
SPLINE
  5
102
100
AcDbEntity
  8
0
 62
7
100
AcDbSpline
 70
8
 71
3
 72
8
 73
4
 74
0
 40
0
 40
0
 40
0
 40
0
 40
1
 40
1
 40
1
 40
1
 10
299.105876
 20
31.934441
 30
0.0
 10
298.104243
 20
34.815542
 30
0.0
 10
296.404665
 20
38.504998
 30
0.0
 10
295.622239
 20
39.496815
 30
0.0
  0
SPLINE
  5
103
100
AcDbEntity
  8
0
 62
7
100
AcDbSpline
 70
8
 71
3
 72
8
 73
4
 74
0
 40
0
 40
0
 40
0
 40
0
 40
1
 40
1
 40
1
 40
1
 10
295.622239
 20
39.496815
 30
0.0
 10
295.308999
 20
39.893901
 30
0.0
 10
293.094780
 20
40.850185
 30
0.0
 10
288.732225
 20
42.472504
 30
0.0
  0
LWPOLYLINE
  5
104
100
AcDbEntity
  8
0
 62
7
100
AcDbPolyline
 90
8
 70
1
 10
0.017938
 20
123.446064
 30
0.0
 10
0.017938
 20
247.535646
 30
0.0
 10
198.455439
 20
247.535646
 30
0.0
 10
396.892939
 20
247.535646
 30
0.0
 10
396.892939
 20
123.446064
 30
0.0
 10
396.892939
 20
-0.643520
 30
0.0
 10
198.455439
 20
-0.643520
 30
0.0
 10
0.017938
 20
-0.643520
 30
0.0
  0
SPLINE
  5
105
100
AcDbEntity
  8
0
 62
7
100
AcDbSpline
 70
8
 71
3
 72
8
 73
4
 74
0
 40
0
 40
0
 40
0
 40
0
 40
1
 40
1
 40
1
 40
1
 10
281.191600
 20
44.297521
 30
0.0
 10
280.579883
 20
43.986476
 30
0.0
 10
279.416933
 20
43.283108
 30
0.0
 10
278.607229
 20
42.734442
 30
0.0
  0
LWPOLYLINE
  5
106
100
AcDbEntity
  8
0
 62
7
100
AcDbPolyline
 90
3
 70
0
 10
288.732225
 20
42.472504
 30
0.0
 10
282.303802
 20
44.863041
 30
0.0
 10
281.191600
 20
44.297521
 30
0.0
  0
SPLINE
  5
107
100
AcDbEntity
  8
0
 62
7
100
AcDbSpline
 70
8
 71
3
 72
8
 73
4
 74
0
 40
0
 40
0
 40
0
 40
0
 40
1
 40
1
 40
1
 40
1
 10
276.549935
 20
39.001383
 30
0.0
 10
276.228096
 20
37.496856
 30
0.0
 10
275.272923
 20
33.442487
 30
0.0
 10
274.427341
 20
29.991711
 30
0.0
  0
LWPOLYLINE
  5
108
100
AcDbEntity
  8
0
 62
7
100
AcDbPolyline
 90
3
 70
0
 10
278.607229
 20
42.734442
 30
0.0
 10
277.135061
 20
41.736910
 30
0.0
 10
276.549935
 20
39.001383
 30
0.0
  0
SPLINE
  5
109
100
AcDbEntity
  8
0
 62
7
100
AcDbSpline
 70
8
 71
3
 72
8
 73
4
 74
0
 40
0
 40
0
 40
0
 40
0
 40
1
 40
1
 40
1
 40
1
 10
273.971120
 20
23.596203
 30
0.0
 10
274.565771
 20
23.529422
 30
0.0
 10
276.332712
 20
23.349876
 30
0.0
 10
277.897643
 20
23.197185
 30
0.0
  0
SPLINE
  5
10a
100
AcDbEntity
  8
0
 62
7
100
AcDbSpline
 70
8
 71
3
 72
8
 73
4
 74
0
 40
0
 40
0
 40
0
 40
0
 40
1
 40
1
 40
1
 40
1
 10
277.897643
 20
23.197185
 30
0.0
 10
280.807186
 20
22.913314
 30
0.0
 10
285.503779
 20
21.942769
 30
0.0
 10
285.502826
 20
21.625586
 30
0.0
  0
SPLINE
  5
10b
100
AcDbEntity
  8
0
 62
7
100
AcDbSpline
 70
8
 71
3
 72
8
 73
4
 74
0
 40
0
 40
0
 40
0
 40
0
 40
1
 40
1
 40
1
 40
1
 10
285.502826
 20
21.625586
 30
0.0
 10
285.502562
 20
21.528564
 30
0.0
 10
283.702231
 20
20.496689
 30
0.0
 10
281.502115
 20
19.332522
 30
0.0
  0
SPLINE
  5
10c
100
AcDbEntity
  8
0
 62
7
100
AcDbSpline
 70
8
 71
3
 72
8
 73
4
 74
0
 40
0
 40
0
 40
0
 40
0
 40
1
 40
1
 40
1
 40
1
 10
281.502115
 20
19.332522
 30
0.0
 10
279.302025
 20
18.168355
 30
0.0
 10
277.210599
 20
16.946192
 30
0.0
 10
276.854550
 20
16.616601
 30
0.0
  0
SPLINE
  5
10d
100
AcDbEntity
  8
0
 62
7
100
AcDbSpline
 70
8
 71
3
 72
8
 73
4
 74
0
 40
0
 40
0
 40
0
 40
0
 40
1
 40
1
 40
1
 40
1
 10
276.854550
 20
16.616601
 30
0.0
 10
275.345155
 20
15.219442
 30
0.0
 10
276.838145
 20
14.020244
 30
0.0
 10
280.531570
 20
13.663427
 30
0.0
  0
SPLINE
  5
10e
100
AcDbEntity
  8
0
 62
7
100
AcDbSpline
 70
8
 71
3
 72
8
 73
4
 74
0
 40
0
 40
0
 40
0
 40
0
 40
1
 40
1
 40
1
 40
1
 10
280.531570
 20
13.663427
 30
0.0
 10
283.740701
 20
13.353389
 30
0.0
 10
284.206236
 20
13.352912
 30
0.0
 10
289.263561
 20
13.654167
 30
0.0
  0
LWPOLYLINE
  5
10f
100
AcDbEntity
  8
0
 62
7
100
AcDbPolyline
 90
3
 70
0
 10
274.427341
 20
29.991711
 30
0.0
 10
272.889927
 20
23.717594
 30
0.0
 10
273.971120
 20
23.596203
 30
0.0
  0
SPLINE
  5
110
100
AcDbEntity
  8
0
 62
7
100
AcDbSpline
 70
8
 71
3
 72
8
 73
4
 74
0
 40
0
 40
0
 40
0
 40
0
 40
1
 40
1
 40
1
 40
1
 10
76.932750
 20
14.526075
 30
0.0
 10
78.562824
 20
14.705939
 30
0.0
 10
79.959099
 20
14.915700
 30
0.0
 10
80.035583
 20
14.992191
 30
0.0
  0
SPLINE
  5
111
100
AcDbEntity
  8
0
 62
7
100
AcDbSpline
 70
8
 71
3
 72
8
 73
4
 74
0
 40
0
 40
0
 40
0
 40
0
 40
1
 40
1
 40
1
 40
1
 10
80.035583
 20
14.992191
 30
0.0
 10
80.282971
 20
15.239577
 30
0.0
 10
80.705227
 20
18.752555
 30
0.0
 10
80.710614
 20
20.608184
 30
0.0
  0
SPLINE
  5
112
100
AcDbEntity
  8
0
 62
7
100
AcDbSpline
 70
8
 71
3
 72
8
 73
4
 74
0
 40
0
 40
0
 40
0
 40
0
 40
1
 40
1
 40
1
 40
1
 10
80.710614
 20
20.608184
 30
0.0
 10
80.715059
 20
22.141312
 30
0.0
 10
80.511370
 20
22.957896
 30
0.0
 10
79.357604
 20
26.032143
 30
0.0
  0
SPLINE
  5
113
100
AcDbEntity
  8
0
 62
7
100
AcDbSpline
 70
8
 71
3
 72
8
 73
4
 74
0
 40
0
 40
0
 40
0
 40
0
 40
1
 40
1
 40
1
 40
1
 10
79.357604
 20
26.032143
 30
0.0
 10
76.559886
 20
33.486804
 30
0.0
 10
72.268607
 20
41.115615
 30
0.0
 10
67.603005
 20
46.928881
 30
0.0
  0
SPLINE
  5
114
100
AcDbEntity
  8
0
 62
7
100
AcDbSpline
 70
8
 71
3
 72
8
 73
4
 74
0
 40
0
 40
0
 40
0
 40
0
 40
1
 40
1
 40
1
 40
1
 10
67.603005
 20
46.928881
 30
0.0
 10
65.702423
 20
49.296981
 30
0.0
 10
61.715610
 20
53.602440
 30
0.0
 10
61.438615
 20
53.585983
 30
0.0
  0
SPLINE
  5
115
100
AcDbEntity
  8
0
 62
7
100
AcDbSpline
 70
8
 71
3
 72
8
 73
4
 74
0
 40
0
 40
0
 40
0
 40
0
 40
1
 40
1
 40
1
 40
1
 10
61.438615
 20
53.585983
 30
0.0
 10
61.254532
 20
53.575135
 30
0.0
 10
60.961069
 20
53.154527
 30
0.0
 10
55.629268
 20
45.261689
 30
0.0
  0
SPLINE
  5
116
100
AcDbEntity
  8
0
 62
7
100
AcDbSpline
 70
8
 71
3
 72
8
 73
4
 74
0
 40
0
 40
0
 40
0
 40
0
 40
1
 40
1
 40
1
 40
1
 10
55.629268
 20
45.261689
 30
0.0
 10
53.663210
 20
42.351272
 30
0.0
 10
50.678276
 20
37.945960
 30
0.0
 10
48.996079
 20
35.472105
 30
0.0
  0
SPLINE
  5
117
100
AcDbEntity
  8
0
 62
7
100
AcDbSpline
 70
8
 71
3
 72
8
 73
4
 74
0
 40
0
 40
0
 40
0
 40
0
 40
1
 40
1
 40
1
 40
1
 10
48.996079
 20
35.472105
 30
0.0
 10
47.313884
 20
32.998251
 30
0.0
 10
45.501827
 20
30.319345
 30
0.0
 10
44.969284
 20
29.518980
 30
0.0
  0
SPLINE
  5
118
100
AcDbEntity
  8
0
 62
7
100
AcDbSpline
 70
8
 71
3
 72
8
 73
4
 74
0
 40
0
 40
0
 40
0
 40
0
 40
1
 40
1
 40
1
 40
1
 10
44.969284
 20
29.518980
 30
0.0
 10
44.243702
 20
28.428500
 30
0.0
 10
43.836164
 20
27.353525
 30
0.0
 10
43.343232
 20
25.229899
 30
0.0
  0
LWPOLYLINE
  5
119
100
AcDbEntity
  8
0
 62
7
100
AcDbPolyline
 90
1
 70
1
 10
289.263561
 20
13.654167
 30
0.0
  0
SPLINE
  5
11a
100
AcDbEntity
  8
0
 62
7
100
AcDbSpline
 70
8
 71
3
 72
8
 73
4
 74
0
 40
0
 40
0
 40
0
 40
0
 40
1
 40
1
 40
1
 40
1
 10
47.876169
 20
20.685998
 30
0.0
 10
52.968726
 20
19.008302
 30
0.0
 10
53.130939
 20
18.973826
 30
0.0
 10
56.453138
 20
18.863628
 30
0.0
  0
SPLINE
  5
11b
100
AcDbEntity
  8
0
 62
7
100
AcDbSpline
 70
8
 71
3
 72
8
 73
4
 74
0
 40
0
 40
0
 40
0
 40
0
 40
1
 40
1
 40
1
 40
1
 10
56.453138
 20
18.863628
 30
0.0
 10
61.529026
 20
18.695247
 30
0.0
 10
61.463129
 20
18.159889
 30
0.0
 10
56.249805
 20
17.211728
 30
0.0
  0
SPLINE
  5
11c
100
AcDbEntity
  8
0
 62
7
100
AcDbSpline
 70
8
 71
3
 72
8
 73
4
 74
0
 40
0
 40
0
 40
0
 40
0
 40
1
 40
1
 40
1
 40
1
 10
56.249805
 20
17.211728
 30
0.0
 10
53.151823
 20
16.648298
 30
0.0
 10
52.784579
 20
16.440494
 30
0.0
 10
53.992939
 20
15.934664
 30
0.0
  0
SPLINE
  5
11d
100
AcDbEntity
  8
0
 62
7
100
AcDbSpline
 70
8
 71
3
 72
8
 73
4
 74
0
 40
0
 40
0
 40
0
 40
0
 40
1
 40
1
 40
1
 40
1
 10
53.992939
 20
15.934664
 30
0.0
 10
57.276630
 20
14.560100
 30
0.0
 10
70.103526
 20
13.772462
 30
0.0
 10
76.932750
 20
14.526075
 30
0.0
  0
LWPOLYLINE
  5
11e
100
AcDbEntity
  8
0
 62
7
100
AcDbPolyline
 90
3
 70
0
 10
43.343232
 20
25.229899
 30
0.0
 10
42.685438
 20
22.396027
 30
0.0
 10
47.876169
 20
20.685998
 30
0.0
  0
SPLINE
  5
11f
100
AcDbEntity
  8
0
 62
7
100
AcDbSpline
 70
8
 71
3
 72
8
 73
4
 74
0
 40
0
 40
0
 40
0
 40
0
 40
1
 40
1
 40
1
 40
1
 10
220.812730
 20
15.620894
 30
0.0
 10
225.279744
 20
16.529367
 30
0.0
 10
232.512341
 20
18.243947
 30
0.0
 10
232.709614
 20
18.441220
 30
0.0
  0
SPLINE
  5
120
100
AcDbEntity
  8
0
 62
7
100
AcDbSpline
 70
8
 71
3
 72
8
 73
4
 74
0
 40
0
 40
0
 40
0
 40
0
 40
1
 40
1
 40
1
 40
1
 10
232.709614
 20
18.441220
 30
0.0
 10
232.766288
 20
18.497867
 30
0.0
 10
232.987083
 20
23.424568
 30
0.0
 10
233.200310
 20
29.389414
 30
0.0
  0
SPLINE
  5
121
100
AcDbEntity
  8
0
 62
7
100
AcDbSpline
 70
8
 71
3
 72
8
 73
4
 74
0
 40
0
 40
0
 40
0
 40
0
 40
1
 40
1
 40
1
 40
1
 10
233.200310
 20
29.389414
 30
0.0
 10
233.548026
 20
39.117191
 30
0.0
 10
233.546200
 20
40.267652
 30
0.0
 10
233.182583
 20
40.555413
 30
0.0
  0
SPLINE
  5
122
100
AcDbEntity
  8
0
 62
7
100
AcDbSpline
 70
8
 71
3
 72
8
 73
4
 74
0
 40
0
 40
0
 40
0
 40
0
 40
1
 40
1
 40
1
 40
1
 10
233.182583
 20
40.555413
 30
0.0
 10
232.863946
 20
40.807587
 30
0.0
 10
232.807034
 20
41.247986
 30
0.0
 10
232.916624
 20
42.613236
 30
0.0
  0
LWPOLYLINE
  5
123
100
AcDbEntity
  8
0
 62
7
100
AcDbPolyline
 90
1
 70
1
 10
76.932750
 20
14.526075
 30
0.0
  0
SPLINE
  5
124
100
AcDbEntity
  8
0
 62
7
100
AcDbSpline
 70
8
 71
3
 72
8
 73
4
 74
0
 40
0
 40
0
 40
0
 40
0
 40
1
 40
1
 40
1
 40
1
 10
231.696869
 20
45.634090
 30
0.0
 10
228.322558
 20
48.821366
 30
0.0
 10
223.863985
 20
52.087145
 30
0.0
 10
219.754371
 20
54.381665
 30
0.0
  0
LWPOLYLINE
  5
125
100
AcDbEntity
  8
0
 62
7
100
AcDbPolyline
 90
3
 70
0
 10
232.916624
 20
42.613236
 30
0.0
 10
233.056060
 20
44.350252
 30
0.0
 10
231.696869
 20
45.634090
 30
0.0
  0
SPLINE
  5
126
100
AcDbEntity
  8
0
 62
7
100
AcDbSpline
 70
8
 71
3
 72
8
 73
4
 74
0
 40
0
 40
0
 40
0
 40
0
 40
1
 40
1
 40
1
 40
1
 10
214.462704
 20
55.909157
 30
0.0
 10
210.913477
 20
55.763848
 30
0.0
 10
209.442976
 20
55.097733
 30
0.0
 10
206.781797
 20
52.429913
 30
0.0
  0
SPLINE
  5
127
100
AcDbEntity
  8
0
 62
7
100
AcDbSpline
 70
8
 71
3
 72
8
 73
4
 74
0
 40
0
 40
0
 40
0
 40
0
 40
1
 40
1
 40
1
 40
1
 10
206.781797
 20
52.429913
 30
0.0
 10
203.719060
 20
49.359476
 30
0.0
 10
202.737641
 20
47.219579
 30
0.0
 10
200.339325
 20
38.382522
 30
0.0
  0
SPLINE
  5
128
100
AcDbEntity
  8
0
 62
7
100
AcDbSpline
 70
8
 71
3
 72
8
 73
4
 74
0
 40
0
 40
0
 40
0
 40
0
 40
1
 40
1
 40
1
 40
1
 10
200.339325
 20
38.382522
 30
0.0
 10
199.312504
 20
34.598980
 30
0.0
 10
198.178632
 20
30.253199
 30
0.0
 10
197.819645
 20
28.725230
 30
0.0
  0
SPLINE
  5
129
100
AcDbEntity
  8
0
 62
7
100
AcDbSpline
 70
8
 71
3
 72
8
 73
4
 74
0
 40
0
 40
0
 40
0
 40
0
 40
1
 40
1
 40
1
 40
1
 10
197.819645
 20
28.725230
 30
0.0
 10
197.203325
 20
26.102125
 30
0.0
 10
196.446510
 20
21.092636
 30
0.0
 10
196.644525
 20
20.947010
 30
0.0
  0
SPLINE
  5
12a
100
AcDbEntity
  8
0
 62
7
100
AcDbSpline
 70
8
 71
3
 72
8
 73
4
 74
0
 40
0
 40
0
 40
0
 40
0
 40
1
 40
1
 40
1
 40
1
 10
196.644525
 20
20.947010
 30
0.0
 10
196.890719
 20
20.765982
 30
0.0
 10
210.139783
 20
22.724269
 30
0.0
 10
211.287704
 20
23.111381
 30
0.0
  0
SPLINE
  5
12b
100
AcDbEntity
  8
0
 62
7
100
AcDbSpline
 70
8
 71
3
 72
8
 73
4
 74
0
 40
0
 40
0
 40
0
 40
0
 40
1
 40
1
 40
1
 40
1
 10
211.287704
 20
23.111381
 30
0.0
 10
212.998897
 20
23.688437
 30
0.0
 10
215.775223
 20
23.672139
 30
0.0
 10
216.907613
 20
23.078361
 30
0.0
  0
SPLINE
  5
12c
100
AcDbEntity
  8
0
 62
7
100
AcDbSpline
 70
8
 71
3
 72
8
 73
4
 74
0
 40
0
 40
0
 40
0
 40
0
 40
1
 40
1
 40
1
 40
1
 10
216.907613
 20
23.078361
 30
0.0
 10
218.025821
 20
22.492044
 30
0.0
 10
218.667542
 20
21.501867
 30
0.0
 10
218.461458
 20
20.680733
 30
0.0
  0
SPLINE
  5
12d
100
AcDbEntity
  8
0
 62
7
100
AcDbSpline
 70
8
 71
3
 72
8
 73
4
 74
0
 40
0
 40
0
 40
0
 40
0
 40
1
 40
1
 40
1
 40
1
 10
218.461458
 20
20.680733
 30
0.0
 10
218.373087
 20
20.328731
 30
0.0
 10
217.228870
 20
19.061007
 30
0.0
 10
215.918733
 20
17.863608
 30
0.0
  0
SPLINE
  5
12e
100
AcDbEntity
  8
0
 62
7
100
AcDbSpline
 70
8
 71
3
 72
8
 73
4
 74
0
 40
0
 40
0
 40
0
 40
0
 40
1
 40
1
 40
1
 40
1
 10
215.918733
 20
17.863608
 30
0.0
 10
214.553297
 20
16.615648
 30
0.0
 10
213.536662
 20
15.476458
 30
0.0
 10
213.536662
 20
15.194386
 30
0.0
  0
SPLINE
  5
12f
100
AcDbEntity
  8
0
 62
7
100
AcDbSpline
 70
8
 71
3
 72
8
 73
4
 74
0
 40
0
 40
0
 40
0
 40
0
 40
1
 40
1
 40
1
 40
1
 10
213.536662
 20
15.194386
 30
0.0
 10
213.536662
 20
14.436751
 30
0.0
 10
215.578611
 20
14.556449
 30
0.0
 10
220.812704
 20
15.620894
 30
0.0
  0
LWPOLYLINE
  5
130
100
AcDbEntity
  8
0
 62
7
100
AcDbPolyline
 90
3
 70
0
 10
219.754371
 20
54.381665
 30
0.0
 10
216.843954
 20
56.006630
 30
0.0
 10
214.462704
 20
55.909157
 30
0.0
  0
SPLINE
  5
131
100
AcDbEntity
  8
0
 62
7
100
AcDbSpline
 70
8
 71
3
 72
8
 73
4
 74
0
 40
0
 40
0
 40
0
 40
0
 40
1
 40
1
 40
1
 40
1
 10
306.670022
 20
15.322629
 30
0.0
 10
306.670022
 20
15.372741
 30
0.0
 10
307.265335
 20
19.677512
 30
0.0
 10
307.992939
 20
24.888772
 30
0.0
  0
SPLINE
  5
132
100
AcDbEntity
  8
0
 62
7
100
AcDbSpline
 70
8
 71
3
 72
8
 73
4
 74
0
 40
0
 40
0
 40
0
 40
0
 40
1
 40
1
 40
1
 40
1
 10
307.992939
 20
24.888772
 30
0.0
 10
309.459260
 20
35.390772
 30
0.0
 10
309.426980
 20
35.075230
 30
0.0
 10
309.035000
 20
35.075230
 30
0.0
  0
SPLINE
  5
133
100
AcDbEntity
  8
0
 62
7
100
AcDbSpline
 70
8
 71
3
 72
8
 73
4
 74
0
 40
0
 40
0
 40
0
 40
0
 40
1
 40
1
 40
1
 40
1
 10
309.035000
 20
35.075230
 30
0.0
 10
308.880510
 20
35.075230
 30
0.0
 10
306.463594
 20
35.908668
 30
0.0
 10
303.664038
 20
36.927314
 30
0.0
  0
SPLINE
  5
134
100
AcDbEntity
  8
0
 62
7
100
AcDbSpline
 70
8
 71
3
 72
8
 73
4
 74
0
 40
0
 40
0
 40
0
 40
0
 40
1
 40
1
 40
1
 40
1
 10
303.664038
 20
36.927314
 30
0.0
 10
300.864508
 20
37.945960
 30
0.0
 10
298.504213
 20
38.779397
 30
0.0
 10
298.418991
 20
38.779397
 30
0.0
  0
SPLINE
  5
135
100
AcDbEntity
  8
0
 62
7
100
AcDbSpline
 70
8
 71
3
 72
8
 73
4
 74
0
 40
0
 40
0
 40
0
 40
0
 40
1
 40
1
 40
1
 40
1
 10
298.418991
 20
38.779397
 30
0.0
 10
298.333742
 20
38.779397
 30
0.0
 10
298.793614
 20
37.499475
 30
0.0
 10
299.440944
 20
35.935126
 30
0.0
  0
SPLINE
  5
136
100
AcDbEntity
  8
0
 62
7
100
AcDbSpline
 70
8
 71
3
 72
8
 73
4
 74
0
 40
0
 40
0
 40
0
 40
0
 40
1
 40
1
 40
1
 40
1
 10
299.440944
 20
35.935126
 30
0.0
 10
301.292207
 20
31.461287
 30
0.0
 10
304.114200
 20
22.070669
 30
0.0
 10
304.935943
 20
17.649640
 30
0.0
  0
SPLINE
  5
137
100
AcDbEntity
  8
0
 62
7
100
AcDbSpline
 70
8
 71
3
 72
8
 73
4
 74
0
 40
0
 40
0
 40
0
 40
0
 40
1
 40
1
 40
1
 40
1
 10
304.935943
 20
17.649640
 30
0.0
 10
305.162082
 20
16.433033
 30
0.0
 10
305.347105
 20
15.391236
 30
0.0
 10
305.347105
 20
15.334536
 30
0.0
  0
SPLINE
  5
138
100
AcDbEntity
  8
0
 62
7
100
AcDbSpline
 70
8
 71
3
 72
8
 73
4
 74
0
 40
0
 40
0
 40
0
 40
0
 40
1
 40
1
 40
1
 40
1
 10
305.347105
 20
15.334536
 30
0.0
 10
305.347105
 20
15.277862
 30
0.0
 10
305.644762
 20
15.231480
 30
0.0
 10
306.008564
 20
15.231480
 30
0.0
  0
SPLINE
  5
139
100
AcDbEntity
  8
0
 62
7
100
AcDbSpline
 70
8
 71
3
 72
8
 73
4
 74
0
 40
0
 40
0
 40
0
 40
0
 40
1
 40
1
 40
1
 40
1
 10
306.008564
 20
15.231480
 30
0.0
 10
306.372366
 20
15.231480
 30
0.0
 10
306.670022
 20
15.272491
 30
0.0
 10
306.670022
 20
15.322629
 30
0.0
  0
LWPOLYLINE
  5
13a
100
AcDbEntity
  8
0
 62
7
100
AcDbPolyline
 90
1
 70
1
 10
220.812704
 20
15.620894
 30
0.0
  0
LWPOLYLINE
  5
13b
100
AcDbEntity
  8
0
 62
7
100
AcDbPolyline
 90
1
 70
1
 10
306.670022
 20
15.322629
 30
0.0
  0
SPLINE
  5
13c
100
AcDbEntity
  8
0
 62
7
100
AcDbSpline
 70
8
 71
3
 72
8
 73
4
 74
0
 40
0
 40
0
 40
0
 40
0
 40
1
 40
1
 40
1
 40
1
 10
382.974427
 20
53.087323
 30
0.0
 10
382.304237
 20
54.895089
 30
0.0
 10
380.831408
 20
58.934033
 30
0.0
 10
379.701451
 20
62.062730
 30
0.0
  0
SPLINE
  5
13d
100
AcDbEntity
  8
0
 62
7
100
AcDbSpline
 70
8
 71
3
 72
8
 73
4
 74
0
 40
0
 40
0
 40
0
 40
0
 40
1
 40
1
 40
1
 40
1
 10
379.701451
 20
62.062730
 30
0.0
 10
377.618122
 20
67.831250
 30
0.0
 10
376.894804
 20
69.304022
 30
0.0
 10
374.048814
 20
73.572105
 30
0.0
  0
SPLINE
  5
13e
100
AcDbEntity
  8
0
 62
7
100
AcDbSpline
 70
8
 71
3
 72
8
 73
4
 74
0
 40
0
 40
0
 40
0
 40
0
 40
1
 40
1
 40
1
 40
1
 10
374.048814
 20
73.572105
 30
0.0
 10
370.863363
 20
78.349261
 30
0.0
 10
367.956412
 20
81.944803
 30
0.0
 10
363.781049
 20
86.272105
 30
0.0
  0
SPLINE
  5
13f
100
AcDbEntity
  8
0
 62
7
100
AcDbSpline
 70
8
 71
3
 72
8
 73
4
 74
0
 40
0
 40
0
 40
0
 40
0
 40
1
 40
1
 40
1
 40
1
 10
363.781049
 20
86.272105
 30
0.0
 10
362.657760
 20
87.436272
 30
0.0
 10
361.491874
 20
88.675752
 30
0.0
 10
361.190170
 20
89.026503
 30
0.0
  0
SPLINE
  5
140
100
AcDbEntity
  8
0
 62
7
100
AcDbSpline
 70
8
 71
3
 72
8
 73
4
 74
0
 40
0
 40
0
 40
0
 40
0
 40
1
 40
1
 40
1
 40
1
 10
361.190170
 20
89.026503
 30
0.0
 10
360.888492
 20
89.377255
 30
0.0
 10
360.595519
 20
89.615380
 30
0.0
 10
360.539136
 20
89.555669
 30
0.0
  0
SPLINE
  5
141
100
AcDbEntity
  8
0
 62
7
100
AcDbSpline
 70
8
 71
3
 72
8
 73
4
 74
0
 40
0
 40
0
 40
0
 40
0
 40
1
 40
1
 40
1
 40
1
 10
360.539136
 20
89.555669
 30
0.0
 10
360.396076
 20
89.404190
 30
0.0
 10
353.095930
 20
67.485173
 30
0.0
 10
352.713660
 20
66.059301
 30
0.0
  0
LWPOLYLINE
  5
142
100
AcDbEntity
  8
0
 62
7
100
AcDbPolyline
 90
3
 70
0
 10
384.192939
 20
32.515969
 30
0.0
 10
384.192939
 20
49.800431
 30
0.0
 10
382.974427
 20
53.087323
 30
0.0
  0
SPLINE
  5
143
100
AcDbEntity
  8
0
 62
7
100
AcDbSpline
 70
8
 71
3
 72
8
 73
4
 74
0
 40
0
 40
0
 40
0
 40
0
 40
1
 40
1
 40
1
 40
1
 10
353.999826
 20
63.281163
 30
0.0
 10
355.410955
 20
61.854662
 30
0.0
 10
355.942609
 20
60.970001
 30
0.0
 10
358.547988
 20
55.712730
 30
0.0
  0
SPLINE
  5
144
100
AcDbEntity
  8
0
 62
7
100
AcDbSpline
 70
8
 71
3
 72
8
 73
4
 74
0
 40
0
 40
0
 40
0
 40
0
 40
1
 40
1
 40
1
 40
1
 10
358.547988
 20
55.712730
 30
0.0
 10
360.170624
 20
52.438512
 30
0.0
 10
361.665758
 20
49.291610
 30
0.0
 10
361.870493
 20
48.719634
 30
0.0
  0
SPLINE
  5
145
100
AcDbEntity
  8
0
 62
7
100
AcDbSpline
 70
8
 71
3
 72
8
 73
4
 74
0
 40
0
 40
0
 40
0
 40
0
 40
1
 40
1
 40
1
 40
1
 10
361.870493
 20
48.719634
 30
0.0
 10
362.277872
 20
47.581555
 30
0.0
 10
362.063877
 20
47.095701
 30
0.0
 10
361.266978
 20
47.349357
 30
0.0
  0
SPLINE
  5
146
100
AcDbEntity
  8
0
 62
7
100
AcDbSpline
 70
8
 71
3
 72
8
 73
4
 74
0
 40
0
 40
0
 40
0
 40
0
 40
1
 40
1
 40
1
 40
1
 10
361.266978
 20
47.349357
 30
0.0
 10
360.997659
 20
47.435056
 30
0.0
 10
358.417310
 20
49.839457
 30
0.0
 10
355.532875
 20
52.692485
 30
0.0
  0
SPLINE
  5
147
100
AcDbEntity
  8
0
 62
7
100
AcDbSpline
 70
8
 71
3
 72
8
 73
4
 74
0
 40
0
 40
0
 40
0
 40
0
 40
1
 40
1
 40
1
 40
1
 10
355.532875
 20
52.692485
 30
0.0
 10
352.648441
 20
55.545487
 30
0.0
 10
350.243722
 20
57.835033
 30
0.0
 10
350.189059
 20
57.780370
 30
0.0
  0
SPLINE
  5
148
100
AcDbEntity
  8
0
 62
7
100
AcDbSpline
 70
8
 71
3
 72
8
 73
4
 74
0
 40
0
 40
0
 40
0
 40
0
 40
1
 40
1
 40
1
 40
1
 10
350.189059
 20
57.780370
 30
0.0
 10
349.918867
 20
57.510177
 30
0.0
 10
342.648434
 20
31.689622
 30
0.0
 10
342.658224
 20
31.034990
 30
0.0
  0
SPLINE
  5
149
100
AcDbEntity
  8
0
 62
7
100
AcDbSpline
 70
8
 71
3
 72
8
 73
4
 74
0
 40
0
 40
0
 40
0
 40
0
 40
1
 40
1
 40
1
 40
1
 10
342.658224
 20
31.034990
 30
0.0
 10
342.660870
 20
30.856026
 30
0.0
 10
345.215924
 20
29.678127
 30
0.0
 10
348.336050
 20
28.417441
 30
0.0
  0
LWPOLYLINE
  5
14a
100
AcDbEntity
  8
0
 62
7
100
AcDbPolyline
 90
3
 70
0
 10
352.713660
 20
66.059301
 30
0.0
 10
352.401902
 20
64.896497
 30
0.0
 10
353.999826
 20
63.281163
 30
0.0
  0
SPLINE
  5
14b
100
AcDbEntity
  8
0
 62
7
100
AcDbSpline
 70
8
 71
3
 72
8
 73
4
 74
0
 40
0
 40
0
 40
0
 40
0
 40
1
 40
1
 40
1
 40
1
 10
358.333357
 20
27.549131
 30
0.0
 10
360.711750
 20
28.332245
 30
0.0
 10
363.365706
 20
29.048287
 30
0.0
 10
364.231052
 20
29.140362
 30
0.0
  0
SPLINE
  5
14c
100
AcDbEntity
  8
0
 62
7
100
AcDbSpline
 70
8
 71
3
 72
8
 73
4
 74
0
 40
0
 40
0
 40
0
 40
0
 40
1
 40
1
 40
1
 40
1
 10
364.231052
 20
29.140362
 30
0.0
 10
365.096399
 20
29.232410
 30
0.0
 10
367.257833
 20
29.771975
 30
0.0
 10
369.034272
 20
30.339400
 30
0.0
  0
SPLINE
  5
14d
100
AcDbEntity
  8
0
 62
7
100
AcDbSpline
 70
8
 71
3
 72
8
 73
4
 74
0
 40
0
 40
0
 40
0
 40
0
 40
1
 40
1
 40
1
 40
1
 10
369.034272
 20
30.339400
 30
0.0
 10
374.876298
 20
32.205401
 30
0.0
 10
375.721748
 20
31.777834
 30
0.0
 10
375.731511
 20
26.952443
 30
0.0
  0
SPLINE
  5
14e
100
AcDbEntity
  8
0
 62
7
100
AcDbSpline
 70
8
 71
3
 72
8
 73
4
 74
0
 40
0
 40
0
 40
0
 40
0
 40
1
 40
1
 40
1
 40
1
 10
375.731511
 20
26.952443
 30
0.0
 10
375.741565
 20
21.935228
 30
0.0
 10
376.609954
 20
18.581132
 30
0.0
 10
378.348822
 20
16.842264
 30
0.0
  0
SPLINE
  5
14f
100
AcDbEntity
  8
0
 62
7
100
AcDbSpline
 70
8
 71
3
 72
8
 73
4
 74
0
 40
0
 40
0
 40
0
 40
0
 40
1
 40
1
 40
1
 40
1
 10
378.348822
 20
16.842264
 30
0.0
 10
379.495156
 20
15.695930
 30
0.0
 10
380.588150
 20
15.295483
 30
0.0
 10
382.671585
 20
15.258494
 30
0.0
  0
LWPOLYLINE
  5
150
100
AcDbEntity
  8
0
 62
7
100
AcDbPolyline
 90
3
 70
0
 10
348.336050
 20
28.417441
 30
0.0
 10
354.009007
 20
26.125276
 30
0.0
 10
358.333357
 20
27.549131
 30
0.0
  0
SPLINE
  5
151
100
AcDbEntity
  8
0
 62
7
100
AcDbSpline
 70
8
 71
3
 72
8
 73
4
 74
0
 40
0
 40
0
 40
0
 40
0
 40
1
 40
1
 40
1
 40
1
 10
97.913772
 20
16.669306
 30
0.0
 10
104.389449
 20
17.314386
 30
0.0
 10
110.640230
 20
17.914329
 30
0.0
 10
111.804397
 20
18.002515
 30
0.0
  0
SPLINE
  5
152
100
AcDbEntity
  8
0
 62
7
100
AcDbSpline
 70
8
 71
3
 72
8
 73
4
 74
0
 40
0
 40
0
 40
0
 40
0
 40
1
 40
1
 40
1
 40
1
 10
111.804397
 20
18.002515
 30
0.0
 10
112.968564
 20
18.090700
 30
0.0
 10
114.308017
 20
18.223045
 30
0.0
 10
114.780960
 20
18.296652
 30
0.0
  0
LWPOLYLINE
  5
153
100
AcDbEntity
  8
0
 62
7
100
AcDbPolyline
 90
3
 70
0
 10
382.671585
 20
15.258494
 30
0.0
 10
384.192939
 20
15.231480
 30
0.0
 10
384.192939
 20
32.515969
 30
0.0
  0
SPLINE
  5
154
100
AcDbEntity
  8
0
 62
7
100
AcDbSpline
 70
8
 71
3
 72
8
 73
4
 74
0
 40
0
 40
0
 40
0
 40
0
 40
1
 40
1
 40
1
 40
1
 10
112.418614
 20
49.627314
 30
0.0
 10
105.707693
 20
55.437035
 30
0.0
 10
99.291450
 20
60.304071
 30
0.0
 10
96.837320
 20
61.446489
 30
0.0
  0
LWPOLYLINE
  5
155
100
AcDbEntity
  8
0
 62
7
100
AcDbPolyline
 90
5
 70
0
 10
114.780960
 20
18.296652
 30
0.0
 10
115.640855
 20
18.430452
 30
0.0
 10
115.634267
 20
32.639820
 30
0.0
 10
115.627679
 20
46.849189
 30
0.0
 10
112.418614
 20
49.627314
 30
0.0
  0
SPLINE
  5
156
100
AcDbEntity
  8
0
 62
7
100
AcDbSpline
 70
8
 71
3
 72
8
 73
4
 74
0
 40
0
 40
0
 40
0
 40
0
 40
1
 40
1
 40
1
 40
1
 10
94.263102
 20
57.868767
 30
0.0
 10
89.942495
 20
44.767712
 30
0.0
 10
85.985832
 20
26.871401
 30
0.0
 10
85.553087
 20
18.472626
 30
0.0
  0
SPLINE
  5
157
100
AcDbEntity
  8
0
 62
7
100
AcDbSpline
 70
8
 71
3
 72
8
 73
4
 74
0
 40
0
 40
0
 40
0
 40
0
 40
1
 40
1
 40
1
 40
1
 10
85.553087
 20
18.472626
 30
0.0
 10
85.427021
 20
16.025945
 30
0.0
 10
85.465592
 20
15.496090
 30
0.0
 10
85.769768
 20
15.496249
 30
0.0
  0
SPLINE
  5
158
100
AcDbEntity
  8
0
 62
7
100
AcDbSpline
 70
8
 71
3
 72
8
 73
4
 74
0
 40
0
 40
0
 40
0
 40
0
 40
1
 40
1
 40
1
 40
1
 10
85.769768
 20
15.496249
 30
0.0
 10
85.973293
 20
15.496355
 30
0.0
 10
91.438095
 20
16.024251
 30
0.0
 10
97.913772
 20
16.669306
 30
0.0
  0
LWPOLYLINE
  5
159
100
AcDbEntity
  8
0
 62
7
100
AcDbPolyline
 90
3
 70
0
 10
96.837320
 20
61.446489
 30
0.0
 10
95.628574
 20
62.009179
 30
0.0
 10
94.263102
 20
57.868767
 30
0.0
  0
SPLINE
  5
15a
100
AcDbEntity
  8
0
 62
7
100
AcDbSpline
 70
8
 71
3
 72
8
 73
4
 74
0
 40
0
 40
0
 40
0
 40
0
 40
1
 40
1
 40
1
 40
1
 10
315.351769
 20
16.425333
 30
0.0
 10
323.047730
 20
17.583917
 30
0.0
 10
330.576502
 20
19.139482
 30
0.0
 10
335.918863
 20
20.674859
 30
0.0
  0
LWPOLYLINE
  5
15b
100
AcDbEntity
  8
0
 62
7
100
AcDbPolyline
 90
1
 70
1
 10
97.913772
 20
16.669306
 30
0.0
  0
SPLINE
  5
15c
100
AcDbEntity
  8
0
 62
7
100
AcDbSpline
 70
8
 71
3
 72
8
 73
4
 74
0
 40
0
 40
0
 40
0
 40
0
 40
1
 40
1
 40
1
 40
1
 10
338.286460
 20
25.280408
 30
0.0
 10
338.854203
 20
27.602392
 30
0.0
 10
339.265366
 20
29.548032
 30
0.0
 10
339.200120
 20
29.604070
 30
0.0
  0
SPLINE
  5
15d
100
AcDbEntity
  8
0
 62
7
100
AcDbSpline
 70
8
 71
3
 72
8
 73
4
 74
0
 40
0
 40
0
 40
0
 40
0
 40
1
 40
1
 40
1
 40
1
 10
339.200120
 20
29.604070
 30
0.0
 10
339.134873
 20
29.660083
 30
0.0
 10
336.630301
 20
30.652985
 30
0.0
 10
333.634397
 20
31.810510
 30
0.0
  0
LWPOLYLINE
  5
15e
100
AcDbEntity
  8
0
 62
7
100
AcDbPolyline
 90
3
 70
0
 10
335.918863
 20
20.674859
 30
0.0
 10
337.254162
 20
21.058611
 30
0.0
 10
338.286460
 20
25.280408
 30
0.0
  0
SPLINE
  5
15f
100
AcDbEntity
  8
0
 62
7
100
AcDbSpline
 70
8
 71
3
 72
8
 73
4
 74
0
 40
0
 40
0
 40
0
 40
0
 40
1
 40
1
 40
1
 40
1
 10
327.152106
 20
32.801031
 30
0.0
 10
325.611411
 20
31.142993
 30
0.0
 10
324.445974
 20
30.877536
 30
0.0
 10
321.391042
 20
31.488883
 30
0.0
  0
SPLINE
  5
160
100
AcDbEntity
  8
0
 62
7
100
AcDbSpline
 70
8
 71
3
 72
8
 73
4
 74
0
 40
0
 40
0
 40
0
 40
0
 40
1
 40
1
 40
1
 40
1
 10
321.391042
 20
31.488883
 30
0.0
 10
320.061193
 20
31.755001
 30
0.0
 10
317.425440
 20
32.422835
 30
0.0
 10
315.533775
 20
32.972984
 30
0.0
  0
SPLINE
  5
161
100
AcDbEntity
  8
0
 62
7
100
AcDbSpline
 70
8
 71
3
 72
8
 73
4
 74
0
 40
0
 40
0
 40
0
 40
0
 40
1
 40
1
 40
1
 40
1
 10
315.533775
 20
32.972984
 30
0.0
 10
313.642110
 20
33.523105
 30
0.0
 10
312.055087
 20
33.933924
 30
0.0
 10
312.007065
 20
33.885875
 30
0.0
  0
SPLINE
  5
162
100
AcDbEntity
  8
0
 62
7
100
AcDbSpline
 70
8
 71
3
 72
8
 73
4
 74
0
 40
0
 40
0
 40
0
 40
0
 40
1
 40
1
 40
1
 40
1
 10
312.007065
 20
33.885875
 30
0.0
 10
311.959016
 20
33.837827
 30
0.0
 10
311.456890
 20
30.246029
 30
0.0
 10
310.891264
 20
25.904058
 30
0.0
  0
SPLINE
  5
163
100
AcDbEntity
  8
0
 62
7
100
AcDbSpline
 70
8
 71
3
 72
8
 73
4
 74
0
 40
0
 40
0
 40
0
 40
0
 40
1
 40
1
 40
1
 40
1
 10
310.891264
 20
25.904058
 30
0.0
 10
310.325611
 20
21.562113
 30
0.0
 10
309.791973
 20
17.503590
 30
0.0
 10
309.705401
 20
16.885126
 30
0.0
  0
SPLINE
  5
164
100
AcDbEntity
  8
0
 62
7
100
AcDbSpline
 70
8
 71
3
 72
8
 73
4
 74
0
 40
0
 40
0
 40
0
 40
0
 40
1
 40
1
 40
1
 40
1
 10
309.705401
 20
16.885126
 30
0.0
 10
309.554615
 20
15.807902
 30
0.0
 10
309.577184
 20
15.760647
 30
0.0
 10
310.242347
 20
15.760647
 30
0.0
  0
SPLINE
  5
165
100
AcDbEntity
  8
0
 62
7
100
AcDbSpline
 70
8
 71
3
 72
8
 73
4
 74
0
 40
0
 40
0
 40
0
 40
0
 40
1
 40
1
 40
1
 40
1
 10
310.242347
 20
15.760647
 30
0.0
 10
310.624220
 20
15.760647
 30
0.0
 10
312.923449
 20
16.059759
 30
0.0
 10
315.351769
 20
16.425333
 30
0.0
  0
LWPOLYLINE
  5
166
100
AcDbEntity
  8
0
 62
7
100
AcDbPolyline
 90
3
 70
0
 10
333.634397
 20
31.810510
 30
0.0
 10
328.187341
 20
33.915085
 30
0.0
 10
327.152106
 20
32.801031
 30
0.0
  0
LWPOLYLINE
  5
167
100
AcDbEntity
  8
0
 62
7
100
AcDbPolyline
 90
1
 70
1
 10
315.351769
 20
16.425333
 30
0.0
  0
SPLINE
  5
168
100
AcDbEntity
  8
0
 62
7
100
AcDbSpline
 70
8
 71
3
 72
8
 73
4
 74
0
 40
0
 40
0
 40
0
 40
0
 40
1
 40
1
 40
1
 40
1
 10
185.033047
 20
19.729397
 30
0.0
 10
184.525867
 20
25.234133
 30
0.0
 10
181.974966
 20
48.217323
 30
0.0
 10
181.773433
 20
49.098147
 30
0.0
  0
SPLINE
  5
169
100
AcDbEntity
  8
0
 62
7
100
AcDbSpline
 70
8
 71
3
 72
8
 73
4
 74
0
 40
0
 40
0
 40
0
 40
0
 40
1
 40
1
 40
1
 40
1
 10
181.773433
 20
49.098147
 30
0.0
 10
180.896604
 20
52.930160
 30
0.0
 10
180.861732
 20
52.990512
 30
0.0
 10
178.716543
 20
54.390899
 30
0.0
  0
SPLINE
  5
16a
100
AcDbEntity
  8
0
 62
7
100
AcDbSpline
 70
8
 71
3
 72
8
 73
4
 74
0
 40
0
 40
0
 40
0
 40
0
 40
1
 40
1
 40
1
 40
1
 10
178.716543
 20
54.390899
 30
0.0
 10
175.293840
 20
56.625278
 30
0.0
 10
174.012066
 20
57.121160
 30
0.0
 10
172.063728
 20
56.964765
 30
0.0
  0
SPLINE
  5
16b
100
AcDbEntity
  8
0
 62
7
100
AcDbSpline
 70
8
 71
3
 72
8
 73
4
 74
0
 40
0
 40
0
 40
0
 40
0
 40
1
 40
1
 40
1
 40
1
 10
172.063728
 20
56.964765
 30
0.0
 10
167.481647
 20
56.596968
 30
0.0
 10
164.316489
 20
53.341138
 30
0.0
 10
162.101292
 20
46.716897
 30
0.0
  0
SPLINE
  5
16c
100
AcDbEntity
  8
0
 62
7
100
AcDbSpline
 70
8
 71
3
 72
8
 73
4
 74
0
 40
0
 40
0
 40
0
 40
0
 40
1
 40
1
 40
1
 40
1
 10
162.101292
 20
46.716897
 30
0.0
 10
161.011288
 20
43.457363
 30
0.0
 10
159.168809
 20
36.310041
 30
0.0
 10
158.929731
 20
34.413772
 30
0.0
  0
SPLINE
  5
16d
100
AcDbEntity
  8
0
 62
7
100
AcDbSpline
 70
8
 71
3
 72
8
 73
4
 74
0
 40
0
 40
0
 40
0
 40
0
 40
1
 40
1
 40
1
 40
1
 10
158.929731
 20
34.413772
 30
0.0
 10
158.692956
 20
32.535786
 30
0.0
 10
159.589153
 20
25.525889
 30
0.0
 10
160.098502
 20
25.271783
 30
0.0
  0
SPLINE
  5
16e
100
AcDbEntity
  8
0
 62
7
100
AcDbSpline
 70
8
 71
3
 72
8
 73
4
 74
0
 40
0
 40
0
 40
0
 40
0
 40
1
 40
1
 40
1
 40
1
 10
160.098502
 20
25.271783
 30
0.0
 10
160.312576
 20
25.164971
 30
0.0
 10
160.822111
 20
24.945181
 30
0.0
 10
161.230813
 20
24.783362
 30
0.0
  0
SPLINE
  5
16f
100
AcDbEntity
  8
0
 62
7
100
AcDbSpline
 70
8
 71
3
 72
8
 73
4
 74
0
 40
0
 40
0
 40
0
 40
0
 40
1
 40
1
 40
1
 40
1
 10
161.230813
 20
24.783362
 30
0.0
 10
162.151430
 20
24.418846
 30
0.0
 10
162.871071
 20
22.856534
 30
0.0
 10
163.132135
 20
20.655703
 30
0.0
  0
SPLINE
  5
170
100
AcDbEntity
  8
0
 62
7
100
AcDbSpline
 70
8
 71
3
 72
8
 73
4
 74
0
 40
0
 40
0
 40
0
 40
0
 40
1
 40
1
 40
1
 40
1
 10
163.132135
 20
20.655703
 30
0.0
 10
163.667837
 20
16.139345
 30
0.0
 10
165.612815
 20
15.797398
 30
0.0
 10
178.479397
 20
17.957456
 30
0.0
  0
LWPOLYLINE
  5
171
100
AcDbEntity
  8
0
 62
7
100
AcDbPolyline
 90
3
 70
0
 10
178.479397
 20
17.957456
 30
0.0
 10
185.093980
 20
19.067939
 30
0.0
 10
185.033047
 20
19.729397
 30
0.0
  0
SPLINE
  5
172
100
AcDbEntity
  8
0
 62
7
100
AcDbSpline
 70
8
 71
3
 72
8
 73
4
 74
0
 40
0
 40
0
 40
0
 40
0
 40
1
 40
1
 40
1
 40
1
 10
15.457815
 20
18.122556
 30
0.0
 10
15.833184
 20
18.494693
 30
0.0
 10
16.252829
 20
20.344686
 30
0.0
 10
17.240710
 20
25.982348
 30
0.0
  0
SPLINE
  5
173
100
AcDbEntity
  8
0
 62
7
100
AcDbSpline
 70
8
 71
3
 72
8
 73
4
 74
0
 40
0
 40
0
 40
0
 40
0
 40
1
 40
1
 40
1
 40
1
 10
17.240710
 20
25.982348
 30
0.0
 10
17.951296
 20
30.037537
 30
0.0
 10
19.134909
 20
36.435586
 30
0.0
 10
19.870964
 20
40.200236
 30
0.0
  0
SPLINE
  5
174
100
AcDbEntity
  8
0
 62
7
100
AcDbSpline
 70
8
 71
3
 72
8
 73
4
 74
0
 40
0
 40
0
 40
0
 40
0
 40
1
 40
1
 40
1
 40
1
 10
19.870964
 20
40.200236
 30
0.0
 10
20.607019
 20
43.964886
 30
0.0
 10
21.163364
 20
47.090912
 30
0.0
 10
21.107288
 20
47.147004
 30
0.0
  0
SPLINE
  5
175
100
AcDbEntity
  8
0
 62
7
100
AcDbSpline
 70
8
 71
3
 72
8
 73
4
 74
0
 40
0
 40
0
 40
0
 40
0
 40
1
 40
1
 40
1
 40
1
 10
21.107288
 20
47.147004
 30
0.0
 10
21.051212
 20
47.203069
 30
0.0
 10
20.003870
 20
46.578441
 30
0.0
 10
18.779865
 20
45.758947
 30
0.0
  0
SPLINE
  5
176
100
AcDbEntity
  8
0
 62
7
100
AcDbSpline
 70
8
 71
3
 72
8
 73
4
 74
0
 40
0
 40
0
 40
0
 40
0
 40
1
 40
1
 40
1
 40
1
 10
18.779865
 20
45.758947
 30
0.0
 10
17.555857
 20
44.939426
 30
0.0
 10
16.410566
 20
44.213595
 30
0.0
 10
16.234772
 20
44.145941
 30
0.0
  0
SPLINE
  5
177
100
AcDbEntity
  8
0
 62
7
100
AcDbSpline
 70
8
 71
3
 72
8
 73
4
 74
0
 40
0
 40
0
 40
0
 40
0
 40
1
 40
1
 40
1
 40
1
 10
16.234772
 20
44.145941
 30
0.0
 10
16.058980
 20
44.078313
 30
0.0
 10
16.370498
 20
45.194643
 30
0.0
 10
16.927035
 20
46.626701
 30
0.0
  0
SPLINE
  5
178
100
AcDbEntity
  8
0
 62
7
100
AcDbSpline
 70
8
 71
3
 72
8
 73
4
 74
0
 40
0
 40
0
 40
0
 40
0
 40
1
 40
1
 40
1
 40
1
 10
16.927035
 20
46.626701
 30
0.0
 10
18.009308
 20
49.411546
 30
0.0
 10
17.901893
 20
49.295473
 30
0.0
 10
21.662921
 20
51.743980
 30
0.0
  0
SPLINE
  5
179
100
AcDbEntity
  8
0
 62
7
100
AcDbSpline
 70
8
 71
3
 72
8
 73
4
 74
0
 40
0
 40
0
 40
0
 40
0
 40
1
 40
1
 40
1
 40
1
 10
21.662921
 20
51.743980
 30
0.0
 10
22.129778
 20
52.047907
 30
0.0
 10
22.391409
 20
52.667535
 30
0.0
 10
22.780114
 20
54.389814
 30
0.0
  0
SPLINE
  5
17a
100
AcDbEntity
  8
0
 62
7
100
AcDbSpline
 70
8
 71
3
 72
8
 73
4
 74
0
 40
0
 40
0
 40
0
 40
0
 40
1
 40
1
 40
1
 40
1
 10
22.780114
 20
54.389814
 30
0.0
 10
23.518986
 20
57.663636
 30
0.0
 10
23.515258
 20
57.681918
 30
0.0
 10
21.888460
 20
58.762053
 30
0.0
  0
SPLINE
  5
17b
100
AcDbEntity
  8
0
 62
7
100
AcDbSpline
 70
8
 71
3
 72
8
 73
4
 74
0
 40
0
 40
0
 40
0
 40
0
 40
1
 40
1
 40
1
 40
1
 10
21.888460
 20
58.762053
 30
0.0
 10
19.979020
 20
60.029831
 30
0.0
 10
18.026980
 20
60.733887
 30
0.0
 10
15.696800
 20
60.995216
 30
0.0
  0
SPLINE
  5
17c
100
AcDbEntity
  8
0
 62
7
100
AcDbSpline
 70
8
 71
3
 72
8
 73
4
 74
0
 40
0
 40
0
 40
0
 40
0
 40
1
 40
1
 40
1
 40
1
 10
15.696800
 20
60.995216
 30
0.0
 10
12.332541
 20
61.372485
 30
0.0
 10
12.717938
 20
64.203741
 30
0.0
 10
12.717938
 20
39.111608
 30
0.0
  0
LWPOLYLINE
  5
17d
100
AcDbEntity
  8
0
 62
7
100
AcDbPolyline
 90
1
 70
1
 10
178.479397
 20
17.957456
 30
0.0
  0
SPLINE
  5
17e
100
AcDbEntity
  8
0
 62
7
100
AcDbSpline
 70
8
 71
3
 72
8
 73
4
 74
0
 40
0
 40
0
 40
0
 40
0
 40
1
 40
1
 40
1
 40
1
 10
13.842417
 20
17.458161
 30
0.0
 10
14.460881
 20
17.555871
 30
0.0
 10
15.187810
 20
17.854851
 30
0.0
 10
15.457815
 20
18.122556
 30
0.0
  0
LWPOLYLINE
  5
17f
100
AcDbEntity
  8
0
 62
7
100
AcDbPolyline
 90
3
 70
0
 10
12.717938
 20
39.111608
 30
0.0
 10
12.717938
 20
17.280520
 30
0.0
 10
13.842417
 20
17.458161
 30
0.0
  0
SPLINE
  5
180
100
AcDbEntity
  8
0
 62
7
100
AcDbSpline
 70
8
 71
3
 72
8
 73
4
 74
0
 40
0
 40
0
 40
0
 40
0
 40
1
 40
1
 40
1
 40
1
 10
129.097215
 20
20.564210
 30
0.0
 10
133.992726
 20
21.605425
 30
0.0
 10
138.081290
 20
22.528160
 30
0.0
 10
138.182908
 20
22.614731
 30
0.0
  0
SPLINE
  5
181
100
AcDbEntity
  8
0
 62
7
100
AcDbSpline
 70
8
 71
3
 72
8
 73
4
 74
0
 40
0
 40
0
 40
0
 40
0
 40
1
 40
1
 40
1
 40
1
 10
138.182908
 20
22.614731
 30
0.0
 10
138.382489
 20
22.784726
 30
0.0
 10
136.940137
 20
36.618307
 30
0.0
 10
136.697532
 20
36.860903
 30
0.0
  0
SPLINE
  5
182
100
AcDbEntity
  8
0
 62
7
100
AcDbSpline
 70
8
 71
3
 72
8
 73
4
 74
0
 40
0
 40
0
 40
0
 40
0
 40
1
 40
1
 40
1
 40
1
 10
136.697532
 20
36.860903
 30
0.0
 10
136.616895
 20
36.941548
 30
0.0
 10
135.878999
 20
36.561395
 30
0.0
 10
135.057769
 20
36.016142
 30
0.0
  0
LWPOLYLINE
  5
183
100
AcDbEntity
  8
0
 62
7
100
AcDbPolyline
 90
1
 70
1
 10
15.457815
 20
18.122556
 30
0.0
  0
SPLINE
  5
184
100
AcDbEntity
  8
0
 62
7
100
AcDbSpline
 70
8
 71
3
 72
8
 73
4
 74
0
 40
0
 40
0
 40
0
 40
0
 40
1
 40
1
 40
1
 40
1
 10
133.727836
 20
33.396343
 30
0.0
 10
133.817606
 20
32.500729
 30
0.0
 10
133.963645
 20
30.696376
 30
0.0
 10
134.052371
 20
29.386689
 30
0.0
  0
LWPOLYLINE
  5
185
100
AcDbEntity
  8
0
 62
7
100
AcDbPolyline
 90
3
 70
0
 10
135.057769
 20
36.016142
 30
0.0
 10
133.564619
 20
35.024748
 30
0.0
 10
133.727836
 20
33.396343
 30
0.0
  0
SPLINE
  5
186
100
AcDbEntity
  8
0
 62
7
100
AcDbSpline
 70
8
 71
3
 72
8
 73
4
 74
0
 40
0
 40
0
 40
0
 40
0
 40
1
 40
1
 40
1
 40
1
 10
133.592377
 20
27.726111
 30
0.0
 10
133.250654
 20
28.122510
 30
0.0
 10
132.259612
 20
29.272098
 30
0.0
 10
131.390059
 20
30.280795
 30
0.0
  0
LWPOLYLINE
  5
187
100
AcDbEntity
  8
0
 62
7
100
AcDbPolyline
 90
3
 70
0
 10
134.052371
 20
29.386689
 30
0.0
 10
134.213687
 20
27.005439
 30
0.0
 10
133.592377
 20
27.726111
 30
0.0
  0
SPLINE
  5
188
100
AcDbEntity
  8
0
 62
7
100
AcDbSpline
 70
8
 71
3
 72
8
 73
4
 74
0
 40
0
 40
0
 40
0
 40
0
 40
1
 40
1
 40
1
 40
1
 10
128.744226
 20
31.290525
 30
0.0
 10
128.158571
 20
30.837187
 30
0.0
 10
125.744631
 20
28.564205
 30
0.0
 10
123.379918
 20
26.239444
 30
0.0
  0
LWPOLYLINE
  5
189
100
AcDbEntity
  8
0
 62
7
100
AcDbPolyline
 90
3
 70
0
 10
131.390059
 20
30.280795
 30
0.0
 10
129.809057
 20
32.114781
 30
0.0
 10
128.744226
 20
31.290525
 30
0.0
  0
SPLINE
  5
18a
100
AcDbEntity
  8
0
 62
7
100
AcDbSpline
 70
8
 71
3
 72
8
 73
4
 74
0
 40
0
 40
0
 40
0
 40
0
 40
1
 40
1
 40
1
 40
1
 10
119.080439
 20
20.341855
 30
0.0
 10
119.080439
 20
18.818754
 30
0.0
 10
119.129754
 20
18.671064
 30
0.0
 10
119.638360
 20
18.671064
 30
0.0
  0
SPLINE
  5
18b
100
AcDbEntity
  8
0
 62
7
100
AcDbSpline
 70
8
 71
3
 72
8
 73
4
 74
0
 40
0
 40
0
 40
0
 40
0
 40
1
 40
1
 40
1
 40
1
 10
119.638360
 20
18.671064
 30
0.0
 10
119.945216
 20
18.671064
 30
0.0
 10
124.201701
 20
19.522969
 30
0.0
 10
129.097215
 20
20.564210
 30
0.0
  0
LWPOLYLINE
  5
18c
100
AcDbEntity
  8
0
 62
7
100
AcDbPolyline
 90
3
 70
0
 10
123.379918
 20
26.239444
 30
0.0
 10
119.080439
 20
22.012645
 30
0.0
 10
119.080439
 20
20.341855
 30
0.0
  0
SPLINE
  5
18d
100
AcDbEntity
  8
0
 62
7
100
AcDbSpline
 70
8
 71
3
 72
8
 73
4
 74
0
 40
0
 40
0
 40
0
 40
0
 40
1
 40
1
 40
1
 40
1
 10
26.616562
 20
20.390935
 30
0.0
 10
30.250183
 20
21.191352
 30
0.0
 10
33.818460
 20
21.995924
 30
0.0
 10
34.546064
 20
22.178857
 30
0.0
  0
LWPOLYLINE
  5
18e
100
AcDbEntity
  8
0
 62
7
100
AcDbPolyline
 90
1
 70
1
 10
129.097215
 20
20.564210
 30
0.0
  0
SPLINE
  5
18f
100
AcDbEntity
  8
0
 62
7
100
AcDbSpline
 70
8
 71
3
 72
8
 73
4
 74
0
 40
0
 40
0
 40
0
 40
0
 40
1
 40
1
 40
1
 40
1
 10
35.923823
 20
25.949090
 30
0.0
 10
35.976983
 20
29.281067
 30
0.0
 10
35.944461
 20
29.504587
 30
0.0
 10
34.865490
 20
33.223147
 30
0.0
  0
SPLINE
  5
190
100
AcDbEntity
  8
0
 62
7
100
AcDbSpline
 70
8
 71
3
 72
8
 73
4
 74
0
 40
0
 40
0
 40
0
 40
0
 40
1
 40
1
 40
1
 40
1
 10
34.865490
 20
33.223147
 30
0.0
 10
34.253244
 20
35.333199
 30
0.0
 10
33.641157
 20
37.059605
 30
0.0
 10
33.505296
 20
37.059605
 30
0.0
  0
SPLINE
  5
191
100
AcDbEntity
  8
0
 62
7
100
AcDbSpline
 70
8
 71
3
 72
8
 73
4
 74
0
 40
0
 40
0
 40
0
 40
0
 40
1
 40
1
 40
1
 40
1
 10
33.505296
 20
37.059605
 30
0.0
 10
33.153173
 20
37.059605
 30
0.0
 10
29.005538
 20
32.107399
 30
0.0
 10
25.970981
 20
28.063772
 30
0.0
  0
SPLINE
  5
192
100
AcDbEntity
  8
0
 62
7
100
AcDbSpline
 70
8
 71
3
 72
8
 73
4
 74
0
 40
0
 40
0
 40
0
 40
0
 40
1
 40
1
 40
1
 40
1
 10
25.970981
 20
28.063772
 30
0.0
 10
22.923163
 20
24.002471
 30
0.0
 10
19.496468
 20
18.935647
 30
0.0
 10
19.797622
 20
18.935647
 30
0.0
  0
SPLINE
  5
193
100
AcDbEntity
  8
0
 62
7
100
AcDbSpline
 70
8
 71
3
 72
8
 73
4
 74
0
 40
0
 40
0
 40
0
 40
0
 40
1
 40
1
 40
1
 40
1
 10
19.797622
 20
18.935647
 30
0.0
 10
19.914417
 20
18.935647
 30
0.0
 10
22.982938
 20
19.590544
 30
0.0
 10
26.616562
 20
20.390935
 30
0.0
  0
LWPOLYLINE
  5
194
100
AcDbEntity
  8
0
 62
7
100
AcDbPolyline
 90
3
 70
0
 10
34.546064
 20
22.178857
 30
0.0
 10
35.868980
 20
22.511491
 30
0.0
 10
35.923823
 20
25.949090
 30
0.0
  0
SPLINE
  5
195
100
AcDbEntity
  8
0
 62
7
100
AcDbSpline
 70
8
 71
3
 72
8
 73
4
 74
0
 40
0
 40
0
 40
0
 40
0
 40
1
 40
1
 40
1
 40
1
 10
241.714814
 20
20.356565
 30
0.0
 10
249.192256
 20
21.890567
 30
0.0
 10
260.325632
 20
23.433564
 30
0.0
 10
263.916663
 20
23.433564
 30
0.0
  0
SPLINE
  5
196
100
AcDbEntity
  8
0
 62
7
100
AcDbSpline
 70
8
 71
3
 72
8
 73
4
 74
0
 40
0
 40
0
 40
0
 40
0
 40
1
 40
1
 40
1
 40
1
 10
263.916663
 20
23.433564
 30
0.0
 10
264.567061
 20
23.433564
 30
0.0
 10
265.142742
 20
23.522861
 30
0.0
 10
265.195950
 20
23.632001
 30
0.0
  0
SPLINE
  5
197
100
AcDbEntity
  8
0
 62
7
100
AcDbSpline
 70
8
 71
3
 72
8
 73
4
 74
0
 40
0
 40
0
 40
0
 40
0
 40
1
 40
1
 40
1
 40
1
 10
265.195950
 20
23.632001
 30
0.0
 10
265.249157
 20
23.741142
 30
0.0
 10
265.107367
 20
25.465035
 30
0.0
 10
264.880831
 20
27.462850
 30
0.0
  0
LWPOLYLINE
  5
198
100
AcDbEntity
  8
0
 62
7
100
AcDbPolyline
 90
1
 70
1
 10
26.616562
 20
20.390935
 30
0.0
  0
SPLINE
  5
199
100
AcDbEntity
  8
0
 62
7
100
AcDbSpline
 70
8
 71
3
 72
8
 73
4
 74
0
 40
0
 40
0
 40
0
 40
0
 40
1
 40
1
 40
1
 40
1
 10
262.749189
 20
29.195369
 30
0.0
 10
261.803303
 20
28.150450
 30
0.0
 10
260.285256
 20
26.419969
 30
0.0
 10
259.375751
 20
25.349861
 30
0.0
  0
SPLINE
  5
19a
100
AcDbEntity
  8
0
 62
7
100
AcDbSpline
 70
8
 71
3
 72
8
 73
4
 74
0
 40
0
 40
0
 40
0
 40
0
 40
1
 40
1
 40
1
 40
1
 10
259.375751
 20
25.349861
 30
0.0
 10
258.466246
 20
24.279754
 30
0.0
 10
257.722105
 20
23.462430
 30
0.0
 10
257.722105
 20
23.533603
 30
0.0
  0
SPLINE
  5
19b
100
AcDbEntity
  8
0
 62
7
100
AcDbSpline
 70
8
 71
3
 72
8
 73
4
 74
0
 40
0
 40
0
 40
0
 40
0
 40
1
 40
1
 40
1
 40
1
 10
257.722105
 20
23.533603
 30
0.0
 10
257.722105
 20
23.604776
 30
0.0
 10
258.274317
 20
25.962875
 30
0.0
 10
258.949216
 20
28.773808
 30
0.0
  0
SPLINE
  5
19c
100
AcDbEntity
  8
0
 62
7
100
AcDbSpline
 70
8
 71
3
 72
8
 73
4
 74
0
 40
0
 40
0
 40
0
 40
0
 40
1
 40
1
 40
1
 40
1
 10
258.949216
 20
28.773808
 30
0.0
 10
259.764821
 20
32.170740
 30
0.0
 10
260.363732
 20
34.117809
 30
0.0
 10
260.735154
 20
34.580010
 30
0.0
  0
SPLINE
  5
19d
100
AcDbEntity
  8
0
 62
7
100
AcDbSpline
 70
8
 71
3
 72
8
 73
4
 74
0
 40
0
 40
0
 40
0
 40
0
 40
1
 40
1
 40
1
 40
1
 10
260.735154
 20
34.580010
 30
0.0
 10
261.042520
 20
34.962465
 30
0.0
 10
261.842620
 20
35.914965
 30
0.0
 10
262.513154
 20
36.696676
 30
0.0
  0
LWPOLYLINE
  5
19e
100
AcDbEntity
  8
0
 62
7
100
AcDbPolyline
 90
3
 70
0
 10
264.880831
 20
27.462850
 30
0.0
 10
264.468980
 20
31.095262
 30
0.0
 10
262.749189
 20
29.195369
 30
0.0
  0
SPLINE
  5
19f
100
AcDbEntity
  8
0
 62
7
100
AcDbSpline
 70
8
 71
3
 72
8
 73
4
 74
0
 40
0
 40
0
 40
0
 40
0
 40
1
 40
1
 40
1
 40
1
 10
262.636582
 20
48.225075
 30
0.0
 10
262.033914
 20
53.783997
 30
0.0
 10
261.485274
 20
58.378513
 30
0.0
 10
261.417409
 20
58.435081
 30
0.0
  0
SPLINE
  5
1a0
100
AcDbEntity
  8
0
 62
7
100
AcDbSpline
 70
8
 71
3
 72
8
 73
4
 74
0
 40
0
 40
0
 40
0
 40
0
 40
1
 40
1
 40
1
 40
1
 10
261.417409
 20
58.435081
 30
0.0
 10
261.141369
 20
58.665189
 30
0.0
 10
238.508064
 20
66.306750
 30
0.0
 10
238.117803
 20
66.301617
 30
0.0
  0
SPLINE
  5
1a1
100
AcDbEntity
  8
0
 62
7
100
AcDbSpline
 70
8
 71
3
 72
8
 73
4
 74
0
 40
0
 40
0
 40
0
 40
0
 40
1
 40
1
 40
1
 40
1
 10
238.117803
 20
66.301617
 30
0.0
 10
237.885684
 20
66.298575
 30
0.0
 10
237.502488
 20
66.082463
 30
0.0
 10
237.266215
 20
65.821399
 30
0.0
  0
SPLINE
  5
1a2
100
AcDbEntity
  8
0
 62
7
100
AcDbSpline
 70
8
 71
3
 72
8
 73
4
 74
0
 40
0
 40
0
 40
0
 40
0
 40
1
 40
1
 40
1
 40
1
 10
237.266215
 20
65.821399
 30
0.0
 10
236.909451
 20
65.427164
 30
0.0
 10
236.812138
 20
64.407185
 30
0.0
 10
236.692043
 20
59.802130
 30
0.0
  0
SPLINE
  5
1a3
100
AcDbEntity
  8
0
 62
7
100
AcDbSpline
 70
8
 71
3
 72
8
 73
4
 74
0
 40
0
 40
0
 40
0
 40
0
 40
1
 40
1
 40
1
 40
1
 10
236.692043
 20
59.802130
 30
0.0
 10
236.612509
 20
56.752596
 30
0.0
 10
236.487414
 20
52.974928
 30
0.0
 10
236.414072
 20
51.407325
 30
0.0
  0
LWPOLYLINE
  5
1a4
100
AcDbEntity
  8
0
 62
7
100
AcDbPolyline
 90
3
 70
0
 10
262.513154
 20
36.696676
 30
0.0
 10
263.732327
 20
38.117939
 30
0.0
 10
262.636582
 20
48.225075
 30
0.0
  0
SPLINE
  5
1a5
100
AcDbEntity
  8
0
 62
7
100
AcDbSpline
 70
8
 71
3
 72
8
 73
4
 74
0
 40
0
 40
0
 40
0
 40
0
 40
1
 40
1
 40
1
 40
1
 10
237.457562
 20
47.299007
 30
0.0
 10
238.593127
 20
46.084993
 30
0.0
 10
238.677291
 20
45.875575
 30
0.0
 10
239.857624
 20
41.326885
 30
0.0
  0
SPLINE
  5
1a6
100
AcDbEntity
  8
0
 62
7
100
AcDbSpline
 70
8
 71
3
 72
8
 73
4
 74
0
 40
0
 40
0
 40
0
 40
0
 40
1
 40
1
 40
1
 40
1
 10
239.857624
 20
41.326885
 30
0.0
 10
240.530406
 20
38.734206
 30
0.0
 10
241.042137
 20
36.496757
 30
0.0
 10
240.994803
 20
36.354782
 30
0.0
  0
SPLINE
  5
1a7
100
AcDbEntity
  8
0
 62
7
100
AcDbSpline
 70
8
 71
3
 72
8
 73
4
 74
0
 40
0
 40
0
 40
0
 40
0
 40
1
 40
1
 40
1
 40
1
 10
240.994803
 20
36.354782
 30
0.0
 10
240.947469
 20
36.212806
 30
0.0
 10
239.903900
 20
37.235447
 30
0.0
 10
238.675730
 20
38.627315
 30
0.0
  0
SPLINE
  5
1a8
100
AcDbEntity
  8
0
 62
7
100
AcDbSpline
 70
8
 71
3
 72
8
 73
4
 74
0
 40
0
 40
0
 40
0
 40
0
 40
1
 40
1
 40
1
 40
1
 10
238.675730
 20
38.627315
 30
0.0
 10
237.229703
 20
40.266091
 30
0.0
 10
236.379914
 20
41.041902
 30
0.0
 10
236.264556
 20
40.828595
 30
0.0
  0
SPLINE
  5
1a9
100
AcDbEntity
  8
0
 62
7
100
AcDbSpline
 70
8
 71
3
 72
8
 73
4
 74
0
 40
0
 40
0
 40
0
 40
0
 40
1
 40
1
 40
1
 40
1
 10
236.264556
 20
40.828595
 30
0.0
 10
236.166581
 20
40.647408
 30
0.0
 10
236.007592
 20
36.034345
 30
0.0
 10
235.911231
 20
30.577314
 30
0.0
  0
SPLINE
  5
1aa
100
AcDbEntity
  8
0
 62
7
100
AcDbSpline
 70
8
 71
3
 72
8
 73
4
 74
0
 40
0
 40
0
 40
0
 40
0
 40
1
 40
1
 40
1
 40
1
 10
235.911231
 20
30.577314
 30
0.0
 10
235.814896
 20
25.120283
 30
0.0
 10
235.668926
 20
20.310263
 30
0.0
 10
235.586905
 20
19.888385
 30
0.0
  0
SPLINE
  5
1ab
100
AcDbEntity
  8
0
 62
7
100
AcDbSpline
 70
8
 71
3
 72
8
 73
4
 74
0
 40
0
 40
0
 40
0
 40
0
 40
1
 40
1
 40
1
 40
1
 10
235.586905
 20
19.888385
 30
0.0
 10
235.411645
 20
18.987188
 30
0.0
 10
234.819058
 20
18.941918
 30
0.0
 10
241.714814
 20
20.356565
 30
0.0
  0
LWPOLYLINE
  5
1ac
100
AcDbEntity
  8
0
 62
7
100
AcDbPolyline
 90
3
 70
0
 10
236.414072
 20
51.407325
 30
0.0
 10
236.280748
 20
48.557127
 30
0.0
 10
237.457562
 20
47.299007
 30
0.0
  0
SPLINE
  5
1ad
100
AcDbEntity
  8
0
 62
7
100
AcDbSpline
 70
8
 71
3
 72
8
 73
4
 74
0
 40
0
 40
0
 40
0
 40
0
 40
1
 40
1
 40
1
 40
1
 10
192.152429
 20
20.324710
 30
0.0
 10
192.388358
 20
20.513754
 30
0.0
 10
192.981686
 20
22.355545
 30
0.0
 10
193.537523
 20
24.624189
 30
0.0
  0
SPLINE
  5
1ae
100
AcDbEntity
  8
0
 62
7
100
AcDbSpline
 70
8
 71
3
 72
8
 73
4
 74
0
 40
0
 40
0
 40
0
 40
0
 40
1
 40
1
 40
1
 40
1
 10
193.537523
 20
24.624189
 30
0.0
 10
195.100601
 20
31.003849
 30
0.0
 10
196.650980
 20
36.681833
 30
0.0
 10
201.012875
 20
52.001446
 30
0.0
  0
SPLINE
  5
1af
100
AcDbEntity
  8
0
 62
7
100
AcDbSpline
 70
8
 71
3
 72
8
 73
4
 74
0
 40
0
 40
0
 40
0
 40
0
 40
1
 40
1
 40
1
 40
1
 10
201.012875
 20
52.001446
 30
0.0
 10
205.561539
 20
67.976996
 30
0.0
 10
207.588855
 20
75.524934
 30
0.0
 10
209.400458
 20
83.229397
 30
0.0
  0
SPLINE
  5
1b0
100
AcDbEntity
  8
0
 62
7
100
AcDbSpline
 70
8
 71
3
 72
8
 73
4
 74
0
 40
0
 40
0
 40
0
 40
0
 40
1
 40
1
 40
1
 40
1
 10
209.400458
 20
83.229397
 30
0.0
 10
210.416828
 20
87.551874
 30
0.0
 10
212.213772
 20
96.114481
 30
0.0
 10
212.213772
 20
96.635059
 30
0.0
  0
SPLINE
  5
1b1
100
AcDbEntity
  8
0
 62
7
100
AcDbSpline
 70
8
 71
3
 72
8
 73
4
 74
0
 40
0
 40
0
 40
0
 40
0
 40
1
 40
1
 40
1
 40
1
 10
212.213772
 20
96.635059
 30
0.0
 10
212.213772
 20
96.717414
 30
0.0
 10
211.410100
 20
96.700586
 30
0.0
 10
210.427835
 20
96.597663
 30
0.0
  0
SPLINE
  5
1b2
100
AcDbEntity
  8
0
 62
7
100
AcDbSpline
 70
8
 71
3
 72
8
 73
4
 74
0
 40
0
 40
0
 40
0
 40
0
 40
1
 40
1
 40
1
 40
1
 10
210.427835
 20
96.597663
 30
0.0
 10
204.514291
 20
95.978046
 30
0.0
 10
200.130542
 20
92.487075
 30
0.0
 10
196.835580
 20
85.773596
 30
0.0
  0
SPLINE
  5
1b3
100
AcDbEntity
  8
0
 62
7
100
AcDbSpline
 70
8
 71
3
 72
8
 73
4
 74
0
 40
0
 40
0
 40
0
 40
0
 40
1
 40
1
 40
1
 40
1
 10
196.835580
 20
85.773596
 30
0.0
 10
193.758529
 20
79.504082
 30
0.0
 10
189.327367
 20
62.778957
 30
0.0
 10
188.501893
 20
54.318588
 30
0.0
  0
LWPOLYLINE
  5
1b4
100
AcDbEntity
  8
0
 62
7
100
AcDbPolyline
 90
1
 70
1
 10
241.714814
 20
20.356565
 30
0.0
  0
SPLINE
  5
1b5
100
AcDbEntity
  8
0
 62
7
100
AcDbSpline
 70
8
 71
3
 72
8
 73
4
 74
0
 40
0
 40
0
 40
0
 40
0
 40
1
 40
1
 40
1
 40
1
 10
189.928976
 20
50.859452
 30
0.0
 10
190.993898
 20
49.750424
 30
0.0
 10
191.622230
 20
48.843142
 30
0.0
 10
191.803602
 20
48.152553
 30
0.0
  0
SPLINE
  5
1b6
100
AcDbEntity
  8
0
 62
7
100
AcDbSpline
 70
8
 71
3
 72
8
 73
4
 74
0
 40
0
 40
0
 40
0
 40
0
 40
1
 40
1
 40
1
 40
1
 10
191.803602
 20
48.152553
 30
0.0
 10
192.531127
 20
45.382206
 30
0.0
 10
193.427720
 20
41.703043
 30
0.0
 10
193.422429
 20
41.509580
 30
0.0
  0
SPLINE
  5
1b7
100
AcDbEntity
  8
0
 62
7
100
AcDbSpline
 70
8
 71
3
 72
8
 73
4
 74
0
 40
0
 40
0
 40
0
 40
0
 40
1
 40
1
 40
1
 40
1
 10
193.422429
 20
41.509580
 30
0.0
 10
193.419254
 20
41.390411
 30
0.0
 10
192.183200
 20
42.602626
 30
0.0
 10
190.675789
 20
44.203355
 30
0.0
  0
LWPOLYLINE
  5
1b8
100
AcDbEntity
  8
0
 62
7
100
AcDbPolyline
 90
3
 70
0
 10
188.501893
 20
54.318588
 30
0.0
 10
188.327162
 20
52.527570
 30
0.0
 10
189.928976
 20
50.859452
 30
0.0
  0
SPLINE
  5
1b9
100
AcDbEntity
  8
0
 62
7
100
AcDbSpline
 70
8
 71
3
 72
8
 73
4
 74
0
 40
0
 40
0
 40
0
 40
0
 40
1
 40
1
 40
1
 40
1
 10
187.734363
 20
44.467939
 30
0.0
 10
187.559289
 20
42.160031
 30
0.0
 10
187.698459
 20
40.428175
 30
0.0
 10
188.823997
 20
30.908043
 30
0.0
  0
LWPOLYLINE
  5
1ba
100
AcDbEntity
  8
0
 62
7
100
AcDbPolyline
 90
3
 70
0
 10
190.675789
 20
44.203355
 30
0.0
 10
187.935076
 20
47.113772
 30
0.0
 10
187.734363
 20
44.467939
 30
0.0
  0
SPLINE
  5
1bb
100
AcDbEntity
  8
0
 62
7
100
AcDbSpline
 70
8
 71
3
 72
8
 73
4
 74
0
 40
0
 40
0
 40
0
 40
0
 40
1
 40
1
 40
1
 40
1
 10
190.927011
 20
19.993980
 30
0.0
 10
191.373998
 20
19.993980
 30
0.0
 10
191.925443
 20
20.142809
 30
0.0
 10
192.152429
 20
20.324710
 30
0.0
  0
LWPOLYLINE
  5
1bc
100
AcDbEntity
  8
0
 62
7
100
AcDbPolyline
 90
3
 70
0
 10
188.823997
 20
30.908043
 30
0.0
 10
190.114317
 20
19.993980
 30
0.0
 10
190.927011
 20
19.993980
 30
0.0
  0
LWPOLYLINE
  5
1bd
100
AcDbEntity
  8
0
 62
7
100
AcDbPolyline
 90
1
 70
1
 10
192.152429
 20
20.324710
 30
0.0
  0
SPLINE
  5
1be
100
AcDbEntity
  8
0
 62
7
100
AcDbSpline
 70
8
 71
3
 72
8
 73
4
 74
0
 40
0
 40
0
 40
0
 40
0
 40
1
 40
1
 40
1
 40
1
 10
346.515558
 20
26.797291
 30
0.0
 10
344.082053
 20
27.742409
 30
0.0
 10
342.028383
 20
28.453027
 30
0.0
 10
341.951839
 20
28.376483
 30
0.0
  0
SPLINE
  5
1bf
100
AcDbEntity
  8
0
 62
7
100
AcDbSpline
 70
8
 71
3
 72
8
 73
4
 74
0
 40
0
 40
0
 40
0
 40
0
 40
1
 40
1
 40
1
 40
1
 10
341.951839
 20
28.376483
 30
0.0
 10
341.826480
 20
28.251124
 30
0.0
 10
340.291843
 20
22.476195
 30
0.0
 10
340.277900
 20
22.077336
 30
0.0
  0
SPLINE
  5
1c0
100
AcDbEntity
  8
0
 62
7
100
AcDbSpline
 70
8
 71
3
 72
8
 73
4
 74
0
 40
0
 40
0
 40
0
 40
0
 40
1
 40
1
 40
1
 40
1
 10
340.277900
 20
22.077336
 30
0.0
 10
340.272344
 20
21.917845
 30
0.0
 10
343.648189
 20
22.844284
 30
0.0
 10
348.582668
 20
24.356483
 30
0.0
  0
LWPOLYLINE
  5
1c1
100
AcDbEntity
  8
0
 62
7
100
AcDbPolyline
 90
3
 70
0
 10
348.582668
 20
24.356483
 30
0.0
 10
350.940105
 20
25.078902
 30
0.0
 10
346.515558
 20
26.797291
 30
0.0
  0
SPLINE
  5
1c2
100
AcDbEntity
  8
0
 62
7
100
AcDbSpline
 70
8
 71
3
 72
8
 73
4
 74
0
 40
0
 40
0
 40
0
 40
0
 40
1
 40
1
 40
1
 40
1
 10
147.258564
 20
24.201543
 30
0.0
 10
149.877939
 20
24.631253
 30
0.0
 10
153.076331
 20
25.068424
 30
0.0
 10
154.366100
 20
25.173067
 30
0.0
  0
LWPOLYLINE
  5
1c3
100
AcDbEntity
  8
0
 62
7
100
AcDbPolyline
 90
1
 70
1
 10
348.582668
 20
24.356483
 30
0.0
  0
SPLINE
  5
1c4
100
AcDbEntity
  8
0
 62
7
100
AcDbSpline
 70
8
 71
3
 72
8
 73
4
 74
0
 40
0
 40
0
 40
0
 40
0
 40
1
 40
1
 40
1
 40
1
 10
156.591759
 20
26.581232
 30
0.0
 10
156.333769
 20
29.213334
 30
0.0
 10
153.218748
 20
34.907167
 30
0.0
 10
150.978674
 20
36.841192
 30
0.0
  0
SPLINE
  5
1c5
100
AcDbEntity
  8
0
 62
7
100
AcDbSpline
 70
8
 71
3
 72
8
 73
4
 74
0
 40
0
 40
0
 40
0
 40
0
 40
1
 40
1
 40
1
 40
1
 10
150.978674
 20
36.841192
 30
0.0
 10
148.906151
 20
38.630542
 30
0.0
 10
145.752256
 20
39.837730
 30
0.0
 10
143.149854
 20
39.837730
 30
0.0
  0
SPLINE
  5
1c6
100
AcDbEntity
  8
0
 62
7
100
AcDbSpline
 70
8
 71
3
 72
8
 73
4
 74
0
 40
0
 40
0
 40
0
 40
0
 40
1
 40
1
 40
1
 40
1
 10
143.149854
 20
39.837730
 30
0.0
 10
141.854994
 20
39.837730
 30
0.0
 10
139.982522
 20
39.112772
 30
0.0
 10
139.982522
 20
38.611440
 30
0.0
  0
SPLINE
  5
1c7
100
AcDbEntity
  8
0
 62
7
100
AcDbSpline
 70
8
 71
3
 72
8
 73
4
 74
0
 40
0
 40
0
 40
0
 40
0
 40
1
 40
1
 40
1
 40
1
 10
139.982522
 20
38.611440
 30
0.0
 10
139.982522
 20
38.027795
 30
0.0
 10
141.299999
 20
24.996378
 30
0.0
 10
141.458159
 20
24.015647
 30
0.0
  0
SPLINE
  5
1c8
100
AcDbEntity
  8
0
 62
7
100
AcDbSpline
 70
8
 71
3
 72
8
 73
4
 74
0
 40
0
 40
0
 40
0
 40
0
 40
1
 40
1
 40
1
 40
1
 10
141.458159
 20
24.015647
 30
0.0
 10
141.565955
 20
23.347204
 30
0.0
 10
141.704129
 20
23.175066
 30
0.0
 10
142.047516
 20
23.281375
 30
0.0
  0
SPLINE
  5
1c9
100
AcDbEntity
  8
0
 62
7
100
AcDbSpline
 70
8
 71
3
 72
8
 73
4
 74
0
 40
0
 40
0
 40
0
 40
0
 40
1
 40
1
 40
1
 40
1
 10
142.047516
 20
23.281375
 30
0.0
 10
142.294216
 20
23.357761
 30
0.0
 10
144.639189
 20
23.771834
 30
0.0
 10
147.258564
 20
24.201543
 30
0.0
  0
LWPOLYLINE
  5
1ca
100
AcDbEntity
  8
0
 62
7
100
AcDbPolyline
 90
3
 70
0
 10
154.366100
 20
25.173067
 30
0.0
 10
156.711139
 20
25.363276
 30
0.0
 10
156.591759
 20
26.581232
 30
0.0
  0
SPLINE
  5
1cb
100
AcDbEntity
  8
0
 62
7
100
AcDbSpline
 70
8
 71
3
 72
8
 73
4
 74
0
 40
0
 40
0
 40
0
 40
0
 40
1
 40
1
 40
1
 40
1
 10
25.827021
 20
33.163695
 30
0.0
 10
26.938354
 20
34.578846
 30
0.0
 10
28.908190
 20
36.945835
 30
0.0
 10
30.204436
 20
38.423691
 30
0.0
  0
LWPOLYLINE
  5
1cc
100
AcDbEntity
  8
0
 62
7
100
AcDbPolyline
 90
1
 70
1
 10
147.258564
 20
24.201543
 30
0.0
  0
SPLINE
  5
1cd
100
AcDbEntity
  8
0
 62
7
100
AcDbSpline
 70
8
 71
3
 72
8
 73
4
 74
0
 40
0
 40
0
 40
0
 40
0
 40
1
 40
1
 40
1
 40
1
 10
31.614536
 20
43.830531
 30
0.0
 10
31.093844
 20
45.326432
 30
0.0
 10
30.147498
 20
47.663841
 30
0.0
 10
29.511543
 20
49.024752
 30
0.0
  0
LWPOLYLINE
  5
1ce
100
AcDbEntity
  8
0
 62
7
100
AcDbPolyline
 90
3
 70
0
 10
30.204436
 20
38.423691
 30
0.0
 10
32.561247
 20
41.110694
 30
0.0
 10
31.614536
 20
43.830531
 30
0.0
  0
SPLINE
  5
1cf
100
AcDbEntity
  8
0
 62
7
100
AcDbSpline
 70
8
 71
3
 72
8
 73
4
 74
0
 40
0
 40
0
 40
0
 40
0
 40
1
 40
1
 40
1
 40
1
 10
26.820455
 20
50.652521
 30
0.0
 10
24.799157
 20
49.537594
 30
0.0
 10
24.916280
 20
49.681818
 30
0.0
 10
24.466584
 20
47.754143
 30
0.0
  0
SPLINE
  5
1d0
100
AcDbEntity
  8
0
 62
7
100
AcDbSpline
 70
8
 71
3
 72
8
 73
4
 74
0
 40
0
 40
0
 40
0
 40
0
 40
1
 40
1
 40
1
 40
1
 10
24.466584
 20
47.754143
 30
0.0
 10
24.126861
 20
46.297876
 30
0.0
 10
20.488626
 20
28.346744
 30
0.0
 10
20.026899
 20
25.848628
 30
0.0
  0
SPLINE
  5
1d1
100
AcDbEntity
  8
0
 62
7
100
AcDbSpline
 70
8
 71
3
 72
8
 73
4
 74
0
 40
0
 40
0
 40
0
 40
0
 40
1
 40
1
 40
1
 40
1
 10
20.026899
 20
25.848628
 30
0.0
 10
19.890848
 20
25.112557
 30
0.0
 10
20.207123
 20
25.449424
 30
0.0
 10
21.834204
 20
27.773577
 30
0.0
  0
SPLINE
  5
1d2
100
AcDbEntity
  8
0
 62
7
100
AcDbSpline
 70
8
 71
3
 72
8
 73
4
 74
0
 40
0
 40
0
 40
0
 40
0
 40
1
 40
1
 40
1
 40
1
 10
21.834204
 20
27.773577
 30
0.0
 10
22.918922
 20
29.323004
 30
0.0
 10
24.715689
 20
31.748545
 30
0.0
 10
25.827021
 20
33.163695
 30
0.0
  0
LWPOLYLINE
  5
1d3
100
AcDbEntity
  8
0
 62
7
100
AcDbPolyline
 90
3
 70
0
 10
29.511543
 20
49.024752
 30
0.0
 10
28.355266
 20
51.499109
 30
0.0
 10
26.820455
 20
50.652521
 30
0.0
  0
SPLINE
  5
1d4
100
AcDbEntity
  8
0
 62
7
100
AcDbSpline
 70
8
 71
3
 72
8
 73
4
 74
0
 40
0
 40
0
 40
0
 40
0
 40
1
 40
1
 40
1
 40
1
 10
40.586948
 20
29.717418
 30
0.0
 10
42.030904
 20
32.010244
 30
0.0
 10
42.066565
 20
32.117162
 30
0.0
 10
44.293168
 20
40.829918
 30
0.0
  0
SPLINE
  5
1d5
100
AcDbEntity
  8
0
 62
7
100
AcDbSpline
 70
8
 71
3
 72
8
 73
4
 74
0
 40
0
 40
0
 40
0
 40
0
 40
1
 40
1
 40
1
 40
1
 10
44.293168
 20
40.829918
 30
0.0
 10
45.529698
 20
45.668486
 30
0.0
 10
46.490808
 20
49.627314
 30
0.0
 10
46.428967
 20
49.627314
 30
0.0
  0
SPLINE
  5
1d6
100
AcDbEntity
  8
0
 62
7
100
AcDbSpline
 70
8
 71
3
 72
8
 73
4
 74
0
 40
0
 40
0
 40
0
 40
0
 40
1
 40
1
 40
1
 40
1
 10
46.428967
 20
49.627314
 30
0.0
 10
46.367126
 20
49.627314
 30
0.0
 10
44.709969
 20
48.189171
 30
0.0
 10
42.746401
 20
46.431465
 30
0.0
  0
LWPOLYLINE
  5
1d7
100
AcDbEntity
  8
0
 62
7
100
AcDbPolyline
 90
1
 70
1
 10
25.827021
 20
33.163695
 30
0.0
  0
SPLINE
  5
1d8
100
AcDbEntity
  8
0
 62
7
100
AcDbSpline
 70
8
 71
3
 72
8
 73
4
 74
0
 40
0
 40
0
 40
0
 40
0
 40
1
 40
1
 40
1
 40
1
 10
39.176272
 20
40.917865
 30
0.0
 10
39.176272
 20
39.643129
 30
0.0
 10
39.097807
 20
36.080621
 30
0.0
 10
39.001906
 20
33.001215
 30
0.0
  0
SPLINE
  5
1d9
100
AcDbEntity
  8
0
 62
7
100
AcDbSpline
 70
8
 71
3
 72
8
 73
4
 74
0
 40
0
 40
0
 40
0
 40
0
 40
1
 40
1
 40
1
 40
1
 10
39.001906
 20
33.001215
 30
0.0
 10
38.906003
 20
29.921835
 30
0.0
 10
38.895359
 20
27.402314
 30
0.0
 10
38.978253
 20
27.402314
 30
0.0
  0
SPLINE
  5
1da
100
AcDbEntity
  8
0
 62
7
100
AcDbSpline
 70
8
 71
3
 72
8
 73
4
 74
0
 40
0
 40
0
 40
0
 40
0
 40
1
 40
1
 40
1
 40
1
 10
38.978253
 20
27.402314
 30
0.0
 10
39.061144
 20
27.402314
 30
0.0
 10
39.785057
 20
28.444111
 30
0.0
 10
40.586951
 20
29.717418
 30
0.0
  0
LWPOLYLINE
  5
1db
100
AcDbEntity
  8
0
 62
7
100
AcDbPolyline
 90
3
 70
0
 10
42.746401
 20
46.431465
 30
0.0
 10
39.176272
 20
43.235615
 30
0.0
 10
39.176272
 20
40.917865
 30
0.0
  0
SPLINE
  5
1dc
100
AcDbEntity
  8
0
 62
7
100
AcDbSpline
 70
8
 71
3
 72
8
 73
4
 74
0
 40
0
 40
0
 40
0
 40
0
 40
1
 40
1
 40
1
 40
1
 10
119.340971
 20
28.777644
 30
0.0
 10
119.346263
 20
29.364014
 30
0.0
 10
121.596912
 20
32.064325
 30
0.0
 10
124.096642
 20
34.483437
 30
0.0
  0
LWPOLYLINE
  5
1dd
100
AcDbEntity
  8
0
 62
7
100
AcDbPolyline
 90
1
 70
1
 10
40.586951
 20
29.717418
 30
0.0
  0
SPLINE
  5
1de
100
AcDbEntity
  8
0
 62
7
100
AcDbSpline
 70
8
 71
3
 72
8
 73
4
 74
0
 40
0
 40
0
 40
0
 40
0
 40
1
 40
1
 40
1
 40
1
 10
118.819904
 20
35.603180
 30
0.0
 10
118.822576
 20
30.296062
 30
0.0
 10
118.911735
 20
27.670443
 30
0.0
 10
119.080436
 20
27.931480
 30
0.0
  0
SPLINE
  5
1df
100
AcDbEntity
  8
0
 62
7
100
AcDbSpline
 70
8
 71
3
 72
8
 73
4
 74
0
 40
0
 40
0
 40
0
 40
0
 40
1
 40
1
 40
1
 40
1
 10
119.080436
 20
27.931480
 30
0.0
 10
119.221501
 20
28.149762
 30
0.0
 10
119.338741
 20
28.530524
 30
0.0
 10
119.340969
 20
28.777644
 30
0.0
  0
LWPOLYLINE
  5
1e0
100
AcDbEntity
  8
0
 62
7
100
AcDbPolyline
 90
5
 70
0
 10
124.096642
 20
34.483437
 30
0.0
 10
126.082444
 20
36.405185
 30
0.0
 10
122.449148
 20
40.038496
 30
0.0
 10
118.815855
 20
43.671781
 30
0.0
 10
118.819904
 20
35.603180
 30
0.0
  0
SPLINE
  5
1e1
100
AcDbEntity
  8
0
 62
7
100
AcDbSpline
 70
8
 71
3
 72
8
 73
4
 74
0
 40
0
 40
0
 40
0
 40
0
 40
1
 40
1
 40
1
 40
1
 10
82.551820
 20
36.398147
 30
0.0
 10
82.690438
 20
39.090283
 30
0.0
 10
82.878459
 20
46.782593
 30
0.0
 10
82.969645
 20
53.492188
 30
0.0
  0
LWPOLYLINE
  5
1e2
100
AcDbEntity
  8
0
 62
7
100
AcDbPolyline
 90
1
 70
1
 10
119.340969
 20
28.777644
 30
0.0
  0
SPLINE
  5
1e3
100
AcDbEntity
  8
0
 62
7
100
AcDbSpline
 70
8
 71
3
 72
8
 73
4
 74
0
 40
0
 40
0
 40
0
 40
0
 40
1
 40
1
 40
1
 40
1
 10
82.124084
 20
65.858549
 30
0.0
 10
81.567840
 20
65.950457
 30
0.0
 10
80.618044
 20
66.026967
 30
0.0
 10
80.013429
 20
66.028567
 30
0.0
  0
LWPOLYLINE
  5
1e4
100
AcDbEntity
  8
0
 62
7
100
AcDbPolyline
 90
3
 70
0
 10
82.969645
 20
53.492188
 30
0.0
 10
83.135438
 20
65.691438
 30
0.0
 10
82.124084
 20
65.858549
 30
0.0
  0
SPLINE
  5
1e5
100
AcDbEntity
  8
0
 62
7
100
AcDbSpline
 70
8
 71
3
 72
8
 73
4
 74
0
 40
0
 40
0
 40
0
 40
0
 40
1
 40
1
 40
1
 40
1
 10
79.030573
 20
65.039290
 30
0.0
 10
79.189043
 20
63.689069
 30
0.0
 10
81.768413
 20
31.662105
 30
0.0
 10
81.796930
 20
30.690582
 30
0.0
  0
LWPOLYLINE
  5
1e6
100
AcDbEntity
  8
0
 62
7
100
AcDbPolyline
 90
3
 70
0
 10
80.013429
 20
66.028567
 30
0.0
 10
78.914125
 20
66.031478
 30
0.0
 10
79.030573
 20
65.039290
 30
0.0
  0
SPLINE
  5
1e7
100
AcDbEntity
  8
0
 62
7
100
AcDbSpline
 70
8
 71
3
 72
8
 73
4
 74
0
 40
0
 40
0
 40
0
 40
0
 40
1
 40
1
 40
1
 40
1
 10
82.059740
 20
30.709605
 30
0.0
 10
82.191773
 20
31.146168
 30
0.0
 10
82.413213
 20
33.706012
 30
0.0
 10
82.551831
 20
36.398147
 30
0.0
  0
LWPOLYLINE
  5
1e8
100
AcDbEntity
  8
0
 62
7
100
AcDbPolyline
 90
3
 70
0
 10
81.796930
 20
30.690582
 30
0.0
 10
81.819684
 20
29.915855
 30
0.0
 10
82.059740
 20
30.709605
 30
0.0
  0
SPLINE
  5
1e9
100
AcDbEntity
  8
0
 62
7
100
AcDbSpline
 70
8
 71
3
 72
8
 73
4
 74
0
 40
0
 40
0
 40
0
 40
0
 40
1
 40
1
 40
1
 40
1
 10
78.489649
 20
48.525642
 30
0.0
 10
77.700182
 20
58.033417
 30
0.0
 10
76.995303
 20
65.871476
 30
0.0
 10
76.923249
 20
65.943530
 30
0.0
  0
SPLINE
  5
1ea
100
AcDbEntity
  8
0
 62
7
100
AcDbSpline
 70
8
 71
3
 72
8
 73
4
 74
0
 40
0
 40
0
 40
0
 40
0
 40
1
 40
1
 40
1
 40
1
 10
76.923249
 20
65.943530
 30
0.0
 10
76.684926
 20
66.181854
 30
0.0
 10
72.680923
 20
65.459851
 30
0.0
 10
70.594773
 20
64.802377
 30
0.0
  0
SPLINE
  5
1eb
100
AcDbEntity
  8
0
 62
7
100
AcDbSpline
 70
8
 71
3
 72
8
 73
4
 74
0
 40
0
 40
0
 40
0
 40
0
 40
1
 40
1
 40
1
 40
1
 10
70.594773
 20
64.802377
 30
0.0
 10
68.275970
 20
64.071579
 30
0.0
 10
68.662825
 20
64.473098
 30
0.0
 10
64.862554
 20
58.852885
 30
0.0
  0
LWPOLYLINE
  5
1ec
100
AcDbEntity
  8
0
 62
7
100
AcDbPolyline
 90
1
 70
1
 10
82.551831
 20
36.398147
 30
0.0
  0
SPLINE
  5
1ed
100
AcDbEntity
  8
0
 62
7
100
AcDbSpline
 70
8
 71
3
 72
8
 73
4
 74
0
 40
0
 40
0
 40
0
 40
0
 40
1
 40
1
 40
1
 40
1
 10
65.369924
 20
52.011210
 30
0.0
 10
70.641983
 20
46.788917
 30
0.0
 10
74.613450
 20
41.237535
 30
0.0
 10
77.897434
 20
34.500106
 30
0.0
  0
SPLINE
  5
1ee
100
AcDbEntity
  8
0
 62
7
100
AcDbSpline
 70
8
 71
3
 72
8
 73
4
 74
0
 40
0
 40
0
 40
0
 40
0
 40
1
 40
1
 40
1
 40
1
 10
77.897434
 20
34.500106
 30
0.0
 10
78.938242
 20
32.364786
 30
0.0
 10
79.820238
 20
30.757442
 30
0.0
 10
79.857425
 20
30.928231
 30
0.0
  0
SPLINE
  5
1ef
100
AcDbEntity
  8
0
 62
7
100
AcDbSpline
 70
8
 71
3
 72
8
 73
4
 74
0
 40
0
 40
0
 40
0
 40
0
 40
1
 40
1
 40
1
 40
1
 10
79.857425
 20
30.928231
 30
0.0
 10
79.894613
 20
31.099046
 30
0.0
 10
79.279112
 20
39.017866
 30
0.0
 10
78.489649
 20
48.525642
 30
0.0
  0
LWPOLYLINE
  5
1f0
100
AcDbEntity
  8
0
 62
7
100
AcDbPolyline
 90
3
 70
0
 10
64.862554
 20
58.852885
 30
0.0
 10
62.295553
 20
55.056564
 30
0.0
 10
65.369924
 20
52.011210
 30
0.0
  0
SPLINE
  5
1f1
100
AcDbEntity
  8
0
 62
7
100
AcDbSpline
 70
8
 71
3
 72
8
 73
4
 74
0
 40
0
 40
0
 40
0
 40
0
 40
1
 40
1
 40
1
 40
1
 10
268.294220
 20
34.406417
 30
0.0
 10
268.300306
 20
34.547889
 30
0.0
 10
268.054534
 20
34.412767
 30
0.0
 10
267.747882
 20
34.106088
 30
0.0
  0
SPLINE
  5
1f2
100
AcDbEntity
  8
0
 62
7
100
AcDbSpline
 70
8
 71
3
 72
8
 73
4
 74
0
 40
0
 40
0
 40
0
 40
0
 40
1
 40
1
 40
1
 40
1
 10
267.747882
 20
34.106088
 30
0.0
 10
267.273643
 20
33.631875
 30
0.0
 10
267.220356
 20
33.375918
 30
0.0
 10
267.391224
 20
32.393652
 30
0.0
  0
LWPOLYLINE
  5
1f3
100
AcDbEntity
  8
0
 62
7
100
AcDbPolyline
 90
1
 70
1
 10
78.489649
 20
48.525642
 30
0.0
  0
SPLINE
  5
1f4
100
AcDbEntity
  8
0
 62
7
100
AcDbSpline
 70
8
 71
3
 72
8
 73
4
 74
0
 40
0
 40
0
 40
0
 40
0
 40
1
 40
1
 40
1
 40
1
 10
267.937589
 20
32.693980
 30
0.0
 10
268.127559
 20
33.494345
 30
0.0
 10
268.288056
 20
34.264944
 30
0.0
 10
268.294220
 20
34.406417
 30
0.0
  0
LWPOLYLINE
  5
1f5
100
AcDbEntity
  8
0
 62
7
100
AcDbPolyline
 90
3
 70
0
 10
267.391224
 20
32.393652
 30
0.0
 10
267.592149
 20
31.238772
 30
0.0
 10
267.937589
 20
32.693980
 30
0.0
  0
SPLINE
  5
1f6
100
AcDbEntity
  8
0
 62
7
100
AcDbSpline
 70
8
 71
3
 72
8
 73
4
 74
0
 40
0
 40
0
 40
0
 40
0
 40
1
 40
1
 40
1
 40
1
 10
341.158777
 20
36.728876
 30
0.0
 10
342.230340
 20
40.943239
 30
0.0
 10
345.587294
 20
53.155109
 30
0.0
 10
347.125237
 20
58.433600
 30
0.0
  0
LWPOLYLINE
  5
1f7
100
AcDbEntity
  8
0
 62
7
100
AcDbPolyline
 90
1
 70
1
 10
268.294220
 20
34.406417
 30
0.0
  0
SPLINE
  5
1f8
100
AcDbEntity
  8
0
 62
7
100
AcDbSpline
 70
8
 71
3
 72
8
 73
4
 74
0
 40
0
 40
0
 40
0
 40
0
 40
1
 40
1
 40
1
 40
1
 10
344.852175
 20
62.534641
 30
0.0
 10
338.626582
 20
67.669690
 30
0.0
 10
333.863183
 20
70.390073
 30
0.0
 10
330.578804
 20
70.686187
 30
0.0
  0
LWPOLYLINE
  5
1f9
100
AcDbEntity
  8
0
 62
7
100
AcDbPolyline
 90
3
 70
0
 10
347.125237
 20
58.433600
 30
0.0
 10
347.648186
 20
60.228427
 30
0.0
 10
344.852175
 20
62.534641
 30
0.0
  0
SPLINE
  5
1fa
100
AcDbEntity
  8
0
 62
7
100
AcDbSpline
 70
8
 71
3
 72
8
 73
4
 74
0
 40
0
 40
0
 40
0
 40
0
 40
1
 40
1
 40
1
 40
1
 10
328.146331
 20
68.547062
 30
0.0
 10
327.846928
 20
67.276919
 30
0.0
 10
327.556865
 20
66.192628
 30
0.0
 10
327.501753
 20
66.137523
 30
0.0
  0
SPLINE
  5
1fb
100
AcDbEntity
  8
0
 62
7
100
AcDbSpline
 70
8
 71
3
 72
8
 73
4
 74
0
 40
0
 40
0
 40
0
 40
0
 40
1
 40
1
 40
1
 40
1
 10
327.501753
 20
66.137523
 30
0.0
 10
327.446666
 20
66.082418
 30
0.0
 10
327.120806
 20
67.226643
 30
0.0
 10
326.777667
 20
68.680240
 30
0.0
  0
LWPOLYLINE
  5
1fc
100
AcDbEntity
  8
0
 62
7
100
AcDbPolyline
 90
3
 70
0
 10
330.578804
 20
70.686187
 30
0.0
 10
328.690737
 20
70.856414
 30
0.0
 10
328.146331
 20
68.547062
 30
0.0
  0
SPLINE
  5
1fd
100
AcDbEntity
  8
0
 62
7
100
AcDbSpline
 70
8
 71
3
 72
8
 73
4
 74
0
 40
0
 40
0
 40
0
 40
0
 40
1
 40
1
 40
1
 40
1
 10
324.812422
 20
71.317326
 30
0.0
 10
323.240506
 20
71.310526
 30
0.0
 10
321.640041
 20
70.639210
 30
0.0
 10
320.647933
 20
69.570563
 30
0.0
  0
SPLINE
  5
1fe
100
AcDbEntity
  8
0
 62
7
100
AcDbSpline
 70
8
 71
3
 72
8
 73
4
 74
0
 40
0
 40
0
 40
0
 40
0
 40
1
 40
1
 40
1
 40
1
 10
320.647933
 20
69.570563
 30
0.0
 10
319.082949
 20
67.884826
 30
0.0
 10
317.236792
 20
63.157179
 30
0.0
 10
315.701336
 20
56.903355
 30
0.0
  0
SPLINE
  5
1ff
100
AcDbEntity
  8
0
 62
7
100
AcDbSpline
 70
8
 71
3
 72
8
 73
4
 74
0
 40
0
 40
0
 40
0
 40
0
 40
1
 40
1
 40
1
 40
1
 10
315.701336
 20
56.903355
 30
0.0
 10
314.514442
 20
52.069047
 30
0.0
 10
313.750537
 20
48.544004
 30
0.0
 10
313.865048
 20
48.429492
 30
0.0
  0
SPLINE
  5
200
100
AcDbEntity
  8
0
 62
7
100
AcDbSpline
 70
8
 71
3
 72
8
 73
4
 74
0
 40
0
 40
0
 40
0
 40
0
 40
1
 40
1
 40
1
 40
1
 10
313.865048
 20
48.429492
 30
0.0
 10
313.921696
 20
48.372845
 30
0.0
 10
315.213259
 20
47.790788
 30
0.0
 10
316.735195
 20
47.136076
 30
0.0
  0
SPLINE
  5
201
100
AcDbEntity
  8
0
 62
7
100
AcDbSpline
 70
8
 71
3
 72
8
 73
4
 74
0
 40
0
 40
0
 40
0
 40
0
 40
1
 40
1
 40
1
 40
1
 10
316.735195
 20
47.136076
 30
0.0
 10
320.759984
 20
45.404590
 30
0.0
 10
327.443333
 20
41.728681
 30
0.0
 10
328.847741
 20
40.474000
 30
0.0
  0
SPLINE
  5
202
100
AcDbEntity
  8
0
 62
7
100
AcDbSpline
 70
8
 71
3
 72
8
 73
4
 74
0
 40
0
 40
0
 40
0
 40
0
 40
1
 40
1
 40
1
 40
1
 10
328.847741
 20
40.474000
 30
0.0
 10
329.875145
 20
39.556134
 30
0.0
 10
330.056490
 20
39.247577
 30
0.0
 10
330.034053
 20
38.455547
 30
0.0
  0
SPLINE
  5
203
100
AcDbEntity
  8
0
 62
7
100
AcDbSpline
 70
8
 71
3
 72
8
 73
4
 74
0
 40
0
 40
0
 40
0
 40
0
 40
1
 40
1
 40
1
 40
1
 10
330.034053
 20
38.455547
 30
0.0
 10
330.019501
 20
37.941303
 30
0.0
 10
329.812994
 20
37.223647
 30
0.0
 10
329.575239
 20
36.860771
 30
0.0
  0
LWPOLYLINE
  5
204
100
AcDbEntity
  8
0
 62
7
100
AcDbPolyline
 90
3
 70
0
 10
326.777667
 20
68.680240
 30
0.0
 10
326.153754
 20
71.323147
 30
0.0
 10
324.812422
 20
71.317326
 30
0.0
  0
SPLINE
  5
205
100
AcDbEntity
  8
0
 62
7
100
AcDbSpline
 70
8
 71
3
 72
8
 73
4
 74
0
 40
0
 40
0
 40
0
 40
0
 40
1
 40
1
 40
1
 40
1
 10
333.796746
 20
34.300980
 30
0.0
 10
339.785272
 20
31.856124
 30
0.0
 10
339.583660
 20
31.936584
 30
0.0
 10
339.770826
 20
31.916979
 30
0.0
  0
SPLINE
  5
206
100
AcDbEntity
  8
0
 62
7
100
AcDbSpline
 70
8
 71
3
 72
8
 73
4
 74
0
 40
0
 40
0
 40
0
 40
0
 40
1
 40
1
 40
1
 40
1
 10
339.770826
 20
31.916979
 30
0.0
 10
339.858932
 20
31.907718
 30
0.0
 10
340.483508
 20
34.073121
 30
0.0
 10
341.158777
 20
36.728876
 30
0.0
  0
LWPOLYLINE
  5
207
100
AcDbEntity
  8
0
 62
7
100
AcDbPolyline
 90
3
 70
0
 10
329.575239
 20
36.860771
 30
0.0
 10
329.142910
 20
36.200953
 30
0.0
 10
333.796746
 20
34.300980
 30
0.0
  0
SPLINE
  5
208
100
AcDbEntity
  8
0
 62
7
100
AcDbSpline
 70
8
 71
3
 72
8
 73
4
 74
0
 40
0
 40
0
 40
0
 40
0
 40
1
 40
1
 40
1
 40
1
 10
154.654073
 20
45.005731
 30
0.0
 10
154.006944
 20
50.967349
 30
0.0
 10
153.477206
 20
56.053381
 30
0.0
 10
153.476875
 20
56.308043
 30
0.0
  0
SPLINE
  5
209
100
AcDbEntity
  8
0
 62
7
100
AcDbSpline
 70
8
 71
3
 72
8
 73
4
 74
0
 40
0
 40
0
 40
0
 40
0
 40
1
 40
1
 40
1
 40
1
 10
153.476875
 20
56.308043
 30
0.0
 10
153.476346
 20
56.664622
 30
0.0
 10
153.253514
 20
56.771064
 30
0.0
 10
152.507331
 20
56.771064
 30
0.0
  0
SPLINE
  5
20a
100
AcDbEntity
  8
0
 62
7
100
AcDbSpline
 70
8
 71
3
 72
8
 73
4
 74
0
 40
0
 40
0
 40
0
 40
0
 40
1
 40
1
 40
1
 40
1
 10
152.507331
 20
56.771064
 30
0.0
 10
151.062171
 20
56.771064
 30
0.0
 10
149.415984
 20
57.849823
 30
0.0
 10
148.772676
 20
59.218407
 30
0.0
  0
SPLINE
  5
20b
100
AcDbEntity
  8
0
 62
7
100
AcDbSpline
 70
8
 71
3
 72
8
 73
4
 74
0
 40
0
 40
0
 40
0
 40
0
 40
1
 40
1
 40
1
 40
1
 10
148.772676
 20
59.218407
 30
0.0
 10
147.744662
 20
61.405400
 30
0.0
 10
145.839974
 20
71.884082
 30
0.0
 10
144.889172
 20
80.583564
 30
0.0
  0
SPLINE
  5
20c
100
AcDbEntity
  8
0
 62
7
100
AcDbSpline
 70
8
 71
3
 72
8
 73
4
 74
0
 40
0
 40
0
 40
0
 40
0
 40
1
 40
1
 40
1
 40
1
 10
144.889172
 20
80.583564
 30
0.0
 10
144.658556
 20
82.693616
 30
0.0
 10
144.402387
 20
84.865713
 30
0.0
 10
144.319905
 20
85.410445
 30
0.0
  0
LWPOLYLINE
  5
20d
100
AcDbEntity
  8
0
 62
7
100
AcDbPolyline
 90
1
 70
1
 10
341.158777
 20
36.728876
 30
0.0
  0
SPLINE
  5
20e
100
AcDbEntity
  8
0
 62
7
100
AcDbSpline
 70
8
 71
3
 72
8
 73
4
 74
0
 40
0
 40
0
 40
0
 40
0
 40
1
 40
1
 40
1
 40
1
 10
142.223554
 20
84.810420
 30
0.0
 10
141.153041
 20
83.935673
 30
0.0
 10
139.388771
 20
82.358889
 30
0.0
 10
138.302955
 20
81.306456
 30
0.0
  0
LWPOLYLINE
  5
20f
100
AcDbEntity
  8
0
 62
7
100
AcDbPolyline
 90
3
 70
0
 10
144.319905
 20
85.410445
 30
0.0
 10
144.169940
 20
86.400868
 30
0.0
 10
142.223554
 20
84.810420
 30
0.0
  0
SPLINE
  5
210
100
AcDbEntity
  8
0
 62
7
100
AcDbSpline
 70
8
 71
3
 72
8
 73
4
 74
0
 40
0
 40
0
 40
0
 40
0
 40
1
 40
1
 40
1
 40
1
 10
136.942208
 20
72.249189
 30
0.0
 10
138.885245
 20
49.622763
 30
0.0
 10
139.250695
 20
45.495607
 30
0.0
 10
139.337296
 20
45.200570
 30
0.0
  0
SPLINE
  5
211
100
AcDbEntity
  8
0
 62
7
100
AcDbSpline
 70
8
 71
3
 72
8
 73
4
 74
0
 40
0
 40
0
 40
0
 40
0
 40
1
 40
1
 40
1
 40
1
 10
139.337296
 20
45.200570
 30
0.0
 10
139.407717
 20
44.960619
 30
0.0
 10
139.754938
 20
45.012901
 30
0.0
 10
140.655686
 20
45.399008
 30
0.0
  0
SPLINE
  5
212
100
AcDbEntity
  8
0
 62
7
100
AcDbSpline
 70
8
 71
3
 72
8
 73
4
 74
0
 40
0
 40
0
 40
0
 40
0
 40
1
 40
1
 40
1
 40
1
 10
140.655686
 20
45.399008
 30
0.0
 10
142.258833
 20
46.086183
 30
0.0
 10
142.586686
 20
46.065810
 30
0.0
 10
144.751909
 20
45.144425
 30
0.0
  0
SPLINE
  5
213
100
AcDbEntity
  8
0
 62
7
100
AcDbSpline
 70
8
 71
3
 72
8
 73
4
 74
0
 40
0
 40
0
 40
0
 40
0
 40
1
 40
1
 40
1
 40
1
 10
144.751909
 20
45.144425
 30
0.0
 10
147.216646
 20
44.095591
 30
0.0
 10
149.368349
 20
42.593525
 30
0.0
 10
151.126685
 20
40.694319
 30
0.0
  0
SPLINE
  5
214
100
AcDbEntity
  8
0
 62
7
100
AcDbSpline
 70
8
 71
3
 72
8
 73
4
 74
0
 40
0
 40
0
 40
0
 40
0
 40
1
 40
1
 40
1
 40
1
 10
151.126685
 20
40.694319
 30
0.0
 10
152.544706
 20
39.162673
 30
0.0
 10
154.766320
 20
36.017544
 30
0.0
 10
155.377118
 20
34.677006
 30
0.0
  0
SPLINE
  5
215
100
AcDbEntity
  8
0
 62
7
100
AcDbSpline
 70
8
 71
3
 72
8
 73
4
 74
0
 40
0
 40
0
 40
0
 40
0
 40
1
 40
1
 40
1
 40
1
 10
155.377118
 20
34.677006
 30
0.0
 10
155.543097
 20
34.312701
 30
0.0
 10
155.713044
 20
34.048806
 30
0.0
 10
155.754782
 20
34.090557
 30
0.0
  0
SPLINE
  5
216
100
AcDbEntity
  8
0
 62
7
100
AcDbSpline
 70
8
 71
3
 72
8
 73
4
 74
0
 40
0
 40
0
 40
0
 40
0
 40
1
 40
1
 40
1
 40
1
 10
155.754782
 20
34.090557
 30
0.0
 10
155.796517
 20
34.132282
 30
0.0
 10
155.301199
 20
39.044113
 30
0.0
 10
154.654073
 20
45.005731
 30
0.0
  0
LWPOLYLINE
  5
217
100
AcDbEntity
  8
0
 62
7
100
AcDbPolyline
 90
3
 70
0
 10
138.302955
 20
81.306456
 30
0.0
 10
136.328743
 20
79.392939
 30
0.0
 10
136.942208
 20
72.249189
 30
0.0
  0
SPLINE
  5
218
100
AcDbEntity
  8
0
 62
7
100
AcDbSpline
 70
8
 71
3
 72
8
 73
4
 74
0
 40
0
 40
0
 40
0
 40
0
 40
1
 40
1
 40
1
 40
1
 10
158.873746
 20
40.672147
 30
0.0
 10
159.800343
 20
44.269184
 30
0.0
 10
161.665603
 20
49.671446
 30
0.0
 10
162.828631
 20
52.126647
 30
0.0
  0
SPLINE
  5
219
100
AcDbEntity
  8
0
 62
7
100
AcDbSpline
 70
8
 71
3
 72
8
 73
4
 74
0
 40
0
 40
0
 40
0
 40
0
 40
1
 40
1
 40
1
 40
1
 10
162.828631
 20
52.126647
 30
0.0
 10
165.248855
 20
57.235751
 30
0.0
 10
168.227216
 20
60.149052
 30
0.0
 10
172.611732
 20
61.696018
 30
0.0
  0
SPLINE
  5
21a
100
AcDbEntity
  8
0
 62
7
100
AcDbSpline
 70
8
 71
3
 72
8
 73
4
 74
0
 40
0
 40
0
 40
0
 40
0
 40
1
 40
1
 40
1
 40
1
 10
172.611732
 20
61.696018
 30
0.0
 10
173.619980
 20
62.051724
 30
0.0
 10
173.744652
 20
62.029314
 30
0.0
 10
175.805571
 20
61.121555
 30
0.0
  0
SPLINE
  5
21b
100
AcDbEntity
  8
0
 62
7
100
AcDbSpline
 70
8
 71
3
 72
8
 73
4
 74
0
 40
0
 40
0
 40
0
 40
0
 40
1
 40
1
 40
1
 40
1
 10
175.805571
 20
61.121555
 30
0.0
 10
176.985136
 20
60.602019
 30
0.0
 10
178.103001
 20
60.110740
 30
0.0
 10
178.289717
 20
60.029831
 30
0.0
  0
SPLINE
  5
21c
100
AcDbEntity
  8
0
 62
7
100
AcDbSpline
 70
8
 71
3
 72
8
 73
4
 74
0
 40
0
 40
0
 40
0
 40
0
 40
1
 40
1
 40
1
 40
1
 10
178.289717
 20
60.029831
 30
0.0
 10
178.551866
 20
59.916245
 30
0.0
 10
178.568297
 20
60.025598
 30
0.0
 10
178.361922
 20
60.509706
 30
0.0
  0
SPLINE
  5
21d
100
AcDbEntity
  8
0
 62
7
100
AcDbSpline
 70
8
 71
3
 72
8
 73
4
 74
0
 40
0
 40
0
 40
0
 40
0
 40
1
 40
1
 40
1
 40
1
 10
178.361922
 20
60.509706
 30
0.0
 10
178.214920
 20
60.854537
 30
0.0
 10
177.326316
 20
63.101220
 30
0.0
 10
176.387231
 20
65.502314
 30
0.0
  0
SPLINE
  5
21e
100
AcDbEntity
  8
0
 62
7
100
AcDbSpline
 70
8
 71
3
 72
8
 73
4
 74
0
 40
0
 40
0
 40
0
 40
0
 40
1
 40
1
 40
1
 40
1
 10
176.387231
 20
65.502314
 30
0.0
 10
171.936807
 20
76.881511
 30
0.0
 10
169.261525
 20
81.749686
 30
0.0
 10
165.259226
 20
85.751874
 30
0.0
  0
SPLINE
  5
21f
100
AcDbEntity
  8
0
 62
7
100
AcDbSpline
 70
8
 71
3
 72
8
 73
4
 74
0
 40
0
 40
0
 40
0
 40
0
 40
1
 40
1
 40
1
 40
1
 10
165.259226
 20
85.751874
 30
0.0
 10
163.074932
 20
87.936112
 30
0.0
 10
161.665047
 20
88.910628
 30
0.0
 10
159.394472
 20
89.805600
 30
0.0
  0
LWPOLYLINE
  5
220
100
AcDbEntity
  8
0
 62
7
100
AcDbPolyline
 90
1
 70
1
 10
154.654073
 20
45.005731
 30
0.0
  0
SPLINE
  5
221
100
AcDbEntity
  8
0
 62
7
100
AcDbSpline
 70
8
 71
3
 72
8
 73
4
 74
0
 40
0
 40
0
 40
0
 40
0
 40
1
 40
1
 40
1
 40
1
 10
158.677557
 20
84.591200
 30
0.0
 10
159.954357
 20
72.082612
 30
0.0
 10
160.004707
 20
63.688907
 30
0.0
 10
158.816860
 20
61.363490
 30
0.0
  0
SPLINE
  5
222
100
AcDbEntity
  8
0
 62
7
100
AcDbSpline
 70
8
 71
3
 72
8
 73
4
 74
0
 40
0
 40
0
 40
0
 40
0
 40
1
 40
1
 40
1
 40
1
 10
158.816860
 20
61.363490
 30
0.0
 10
158.508912
 20
60.760610
 30
0.0
 10
157.702033
 20
59.793029
 30
0.0
 10
157.023805
 20
59.213300
 30
0.0
  0
LWPOLYLINE
  5
223
100
AcDbEntity
  8
0
 62
7
100
AcDbPolyline
 90
3
 70
0
 10
159.394472
 20
89.805600
 30
0.0
 10
158.092921
 20
90.318627
 30
0.0
 10
158.677557
 20
84.591200
 30
0.0
  0
SPLINE
  5
224
100
AcDbEntity
  8
0
 62
7
100
AcDbSpline
 70
8
 71
3
 72
8
 73
4
 74
0
 40
0
 40
0
 40
0
 40
0
 40
1
 40
1
 40
1
 40
1
 10
156.940859
 20
48.469312
 30
0.0
 10
157.573469
 20
43.139863
 30
0.0
 10
158.157455
 20
38.779397
 30
0.0
 10
158.238605
 20
38.779397
 30
0.0
  0
SPLINE
  5
225
100
AcDbEntity
  8
0
 62
7
100
AcDbSpline
 70
8
 71
3
 72
8
 73
4
 74
0
 40
0
 40
0
 40
0
 40
0
 40
1
 40
1
 40
1
 40
1
 10
158.238605
 20
38.779397
 30
0.0
 10
158.319756
 20
38.779397
 30
0.0
 10
158.605564
 20
39.631144
 30
0.0
 10
158.873746
 20
40.672147
 30
0.0
  0
LWPOLYLINE
  5
226
100
AcDbEntity
  8
0
 62
7
100
AcDbPolyline
 90
3
 70
0
 10
157.023805
 20
59.213300
 30
0.0
 10
155.790659
 20
58.159227
 30
0.0
 10
156.940859
 20
48.469312
 30
0.0
  0
LWPOLYLINE
  5
227
100
AcDbEntity
  8
0
 62
7
100
AcDbPolyline
 90
1
 70
1
 10
158.873746
 20
40.672147
 30
0.0
  0
SPLINE
  5
228
100
AcDbEntity
  8
0
 62
7
100
AcDbSpline
 70
8
 71
3
 72
8
 73
4
 74
0
 40
0
 40
0
 40
0
 40
0
 40
1
 40
1
 40
1
 40
1
 10
57.249843
 20
56.553206
 30
0.0
 10
56.705897
 20
56.797205
 30
0.0
 10
56.137524
 20
56.922300
 30
0.0
 10
55.986791
 20
56.831230
 30
0.0
  0
SPLINE
  5
229
100
AcDbEntity
  8
0
 62
7
100
AcDbSpline
 70
8
 71
3
 72
8
 73
4
 74
0
 40
0
 40
0
 40
0
 40
0
 40
1
 40
1
 40
1
 40
1
 10
55.986791
 20
56.831230
 30
0.0
 10
54.333735
 20
55.832401
 30
0.0
 10
50.192252
 20
52.610068
 30
0.0
 10
50.002178
 20
52.174801
 30
0.0
  0
SPLINE
  5
22a
100
AcDbEntity
  8
0
 62
7
100
AcDbSpline
 70
8
 71
3
 72
8
 73
4
 74
0
 40
0
 40
0
 40
0
 40
0
 40
1
 40
1
 40
1
 40
1
 10
50.002178
 20
52.174801
 30
0.0
 10
49.775359
 20
51.655398
 30
0.0
 10
46.849189
 20
39.797990
 30
0.0
 10
46.849189
 20
39.398284
 30
0.0
  0
SPLINE
  5
22b
100
AcDbEntity
  8
0
 62
7
100
AcDbSpline
 70
8
 71
3
 72
8
 73
4
 74
0
 40
0
 40
0
 40
0
 40
0
 40
1
 40
1
 40
1
 40
1
 10
46.849189
 20
39.398284
 30
0.0
 10
46.849189
 20
39.300917
 30
0.0
 10
49.122319
 20
42.604452
 30
0.0
 10
51.900587
 20
46.739413
 30
0.0
  0
SPLINE
  5
22c
100
AcDbEntity
  8
0
 62
7
100
AcDbSpline
 70
8
 71
3
 72
8
 73
4
 74
0
 40
0
 40
0
 40
0
 40
0
 40
1
 40
1
 40
1
 40
1
 10
51.900587
 20
46.739413
 30
0.0
 10
54.678858
 20
50.874374
 30
0.0
 10
57.241527
 20
54.674241
 30
0.0
 10
57.595410
 20
55.183564
 30
0.0
  0
LWPOLYLINE
  5
22d
100
AcDbEntity
  8
0
 62
7
100
AcDbPolyline
 90
3
 70
0
 10
57.595410
 20
55.183564
 30
0.0
 10
58.238834
 20
56.109605
 30
0.0
 10
57.249843
 20
56.553206
 30
0.0
  0
LWPOLYLINE
  5
22e
100
AcDbEntity
  8
0
 62
7
100
AcDbPolyline
 90
1
 70
1
 10
57.595410
 20
55.183564
 30
0.0
  0
SPLINE
  5
22f
100
AcDbEntity
  8
0
 62
7
100
AcDbSpline
 70
8
 71
3
 72
8
 73
4
 74
0
 40
0
 40
0
 40
0
 40
0
 40
1
 40
1
 40
1
 40
1
 10
135.309920
 20
52.448910
 30
0.0
 10
134.841962
 20
57.372700
 30
0.0
 10
134.196381
 20
64.556428
 30
0.0
 10
133.875296
 20
68.412730
 30
0.0
  0
SPLINE
  5
230
100
AcDbEntity
  8
0
 62
7
100
AcDbSpline
 70
8
 71
3
 72
8
 73
4
 74
0
 40
0
 40
0
 40
0
 40
0
 40
1
 40
1
 40
1
 40
1
 10
133.875296
 20
68.412730
 30
0.0
 10
133.554211
 20
72.269033
 30
0.0
 10
133.203651
 20
75.523288
 30
0.0
 10
133.096273
 20
75.644409
 30
0.0
  0
SPLINE
  5
231
100
AcDbEntity
  8
0
 62
7
100
AcDbSpline
 70
8
 71
3
 72
8
 73
4
 74
0
 40
0
 40
0
 40
0
 40
0
 40
1
 40
1
 40
1
 40
1
 10
133.096273
 20
75.644409
 30
0.0
 10
132.786691
 20
75.993614
 30
0.0
 10
126.372731
 20
68.158524
 30
0.0
 10
123.977127
 20
64.504747
 30
0.0
  0
SPLINE
  5
232
100
AcDbEntity
  8
0
 62
7
100
AcDbSpline
 70
8
 71
3
 72
8
 73
4
 74
0
 40
0
 40
0
 40
0
 40
0
 40
1
 40
1
 40
1
 40
1
 10
123.977127
 20
64.504747
 30
0.0
 10
123.569690
 20
63.883326
 30
0.0
 10
123.189643
 20
63.421577
 30
0.0
 10
123.132577
 20
63.478648
 30
0.0
  0
SPLINE
  5
233
100
AcDbEntity
  8
0
 62
7
100
AcDbSpline
 70
8
 71
3
 72
8
 73
4
 74
0
 40
0
 40
0
 40
0
 40
0
 40
1
 40
1
 40
1
 40
1
 10
123.132577
 20
63.478648
 30
0.0
 10
123.075512
 20
63.535713
 30
0.0
 10
123.351406
 20
66.365866
 30
0.0
 10
123.745678
 20
69.767879
 30
0.0
  0
SPLINE
  5
234
100
AcDbEntity
  8
0
 62
7
100
AcDbSpline
 70
8
 71
3
 72
8
 73
4
 74
0
 40
0
 40
0
 40
0
 40
0
 40
1
 40
1
 40
1
 40
1
 10
123.745678
 20
69.767879
 30
0.0
 10
124.424212
 20
75.622690
 30
0.0
 10
124.504934
 20
76.017004
 30
0.0
 10
125.255655
 20
77.143980
 30
0.0
  0
SPLINE
  5
235
100
AcDbEntity
  8
0
 62
7
100
AcDbSpline
 70
8
 71
3
 72
8
 73
4
 74
0
 40
0
 40
0
 40
0
 40
0
 40
1
 40
1
 40
1
 40
1
 10
125.255655
 20
77.143980
 30
0.0
 10
126.524351
 20
79.048531
 30
0.0
 10
129.381380
 20
82.702429
 30
0.0
 10
130.904962
 20
84.368958
 30
0.0
  0
SPLINE
  5
236
100
AcDbEntity
  8
0
 62
7
100
AcDbSpline
 70
8
 71
3
 72
8
 73
4
 74
0
 40
0
 40
0
 40
0
 40
0
 40
1
 40
1
 40
1
 40
1
 10
130.904962
 20
84.368958
 30
0.0
 10
132.565741
 20
86.185558
 30
0.0
 10
132.486897
 20
85.239013
 30
0.0
 10
131.783087
 20
94.911294
 30
0.0
  0
SPLINE
  5
237
100
AcDbEntity
  8
0
 62
7
100
AcDbSpline
 70
8
 71
3
 72
8
 73
4
 74
0
 40
0
 40
0
 40
0
 40
0
 40
1
 40
1
 40
1
 40
1
 10
131.783087
 20
94.911294
 30
0.0
 10
131.206674
 20
102.832797
 30
0.0
 10
130.192939
 20
119.329322
 30
0.0
 10
130.192939
 20
120.787811
 30
0.0
  0
LWPOLYLINE
  5
238
100
AcDbEntity
  8
0
 62
7
100
AcDbPolyline
 90
3
 70
0
 10
134.301328
 20
42.418926
 30
0.0
 10
136.160756
 20
43.496548
 30
0.0
 10
135.309920
 20
52.448910
 30
0.0
  0
SPLINE
  5
239
100
AcDbEntity
  8
0
 62
7
100
AcDbSpline
 70
8
 71
3
 72
8
 73
4
 74
0
 40
0
 40
0
 40
0
 40
0
 40
1
 40
1
 40
1
 40
1
 10
128.976461
 20
120.524590
 30
0.0
 10
126.510127
 20
118.133088
 30
0.0
 10
122.018806
 20
112.445229
 30
0.0
 10
119.212902
 20
108.159907
 30
0.0
  0
LWPOLYLINE
  5
23a
100
AcDbEntity
  8
0
 62
7
100
AcDbPolyline
 90
3
 70
0
 10
130.192939
 20
120.787811
 30
0.0
 10
130.192939
 20
121.704158
 30
0.0
 10
128.976461
 20
120.524590
 30
0.0
  0
SPLINE
  5
23b
100
AcDbEntity
  8
0
 62
7
100
AcDbSpline
 70
8
 71
3
 72
8
 73
4
 74
0
 40
0
 40
0
 40
0
 40
0
 40
1
 40
1
 40
1
 40
1
 10
124.527117
 20
46.023715
 30
0.0
 10
127.643318
 20
42.921581
 30
0.0
 10
130.192939
 20
40.254952
 30
0.0
 10
130.192939
 20
40.097895
 30
0.0
  0
SPLINE
  5
23c
100
AcDbEntity
  8
0
 62
7
100
AcDbSpline
 70
8
 71
3
 72
8
 73
4
 74
0
 40
0
 40
0
 40
0
 40
0
 40
1
 40
1
 40
1
 40
1
 10
130.192939
 20
40.097895
 30
0.0
 10
130.192939
 20
39.940812
 30
0.0
 10
130.698954
 20
40.156342
 30
0.0
 10
131.317418
 20
40.576818
 30
0.0
  0
SPLINE
  5
23d
100
AcDbEntity
  8
0
 62
7
100
AcDbSpline
 70
8
 71
3
 72
8
 73
4
 74
0
 40
0
 40
0
 40
0
 40
0
 40
1
 40
1
 40
1
 40
1
 10
131.317418
 20
40.576818
 30
0.0
 10
131.935881
 20
40.997293
 30
0.0
 10
133.278639
 20
41.826233
 30
0.0
 10
134.301328
 20
42.418926
 30
0.0
  0
LWPOLYLINE
  5
23e
100
AcDbEntity
  8
0
 62
7
100
AcDbPolyline
 90
5
 70
0
 10
119.212902
 20
108.159907
 30
0.0
 10
118.472392
 20
107.028959
 30
0.0
 10
118.666842
 20
79.346465
 30
0.0
 10
118.861295
 20
51.663970
 30
0.0
 10
124.527117
 20
46.023715
 30
0.0
  0
SPLINE
  5
23f
100
AcDbEntity
  8
0
 62
7
100
AcDbSpline
 70
8
 71
3
 72
8
 73
4
 74
0
 40
0
 40
0
 40
0
 40
0
 40
1
 40
1
 40
1
 40
1
 10
269.478310
 20
43.487975
 30
0.0
 10
270.141065
 20
44.003066
 30
0.0
 10
270.303096
 20
44.388775
 30
0.0
 10
270.588766
 20
46.131586
 30
0.0
  0
SPLINE
  5
240
100
AcDbEntity
  8
0
 62
7
100
AcDbSpline
 70
8
 71
3
 72
8
 73
4
 74
0
 40
0
 40
0
 40
0
 40
0
 40
1
 40
1
 40
1
 40
1
 10
270.588766
 20
46.131586
 30
0.0
 10
271.126082
 20
49.409615
 30
0.0
 10
271.113382
 20
49.474914
 30
0.0
 10
269.826793
 20
50.046678
 30
0.0
  0
SPLINE
  5
241
100
AcDbEntity
  8
0
 62
7
100
AcDbSpline
 70
8
 71
3
 72
8
 73
4
 74
0
 40
0
 40
0
 40
0
 40
0
 40
1
 40
1
 40
1
 40
1
 10
269.826793
 20
50.046678
 30
0.0
 10
268.432756
 20
50.666227
 30
0.0
 10
266.358026
 20
52.547652
 30
0.0
 10
265.329247
 20
54.125230
 30
0.0
  0
SPLINE
  5
242
100
AcDbEntity
  8
0
 62
7
100
AcDbSpline
 70
8
 71
3
 72
8
 73
4
 74
0
 40
0
 40
0
 40
0
 40
0
 40
1
 40
1
 40
1
 40
1
 10
265.329247
 20
54.125230
 30
0.0
 10
264.613258
 20
55.223172
 30
0.0
 10
264.564363
 20
55.254075
 30
0.0
 10
264.701126
 20
54.522105
 30
0.0
  0
SPLINE
  5
243
100
AcDbEntity
  8
0
 62
7
100
AcDbSpline
 70
8
 71
3
 72
8
 73
4
 74
0
 40
0
 40
0
 40
0
 40
0
 40
1
 40
1
 40
1
 40
1
 10
264.701126
 20
54.522105
 30
0.0
 10
264.782697
 20
54.085543
 30
0.0
 10
265.161792
 20
50.989918
 30
0.0
 10
265.543533
 20
47.642939
 30
0.0
  0
SPLINE
  5
244
100
AcDbEntity
  8
0
 62
7
100
AcDbSpline
 70
8
 71
3
 72
8
 73
4
 74
0
 40
0
 40
0
 40
0
 40
0
 40
1
 40
1
 40
1
 40
1
 10
265.543533
 20
47.642939
 30
0.0
 10
265.925247
 20
44.295960
 30
0.0
 10
266.287673
 20
41.394936
 30
0.0
 10
266.348898
 20
41.196234
 30
0.0
  0
SPLINE
  5
245
100
AcDbEntity
  8
0
 62
7
100
AcDbSpline
 70
8
 71
3
 72
8
 73
4
 74
0
 40
0
 40
0
 40
0
 40
0
 40
1
 40
1
 40
1
 40
1
 10
266.348898
 20
41.196234
 30
0.0
 10
266.425574
 20
40.947314
 30
0.0
 10
266.808797
 20
41.153689
 30
0.0
 10
267.581248
 20
41.859941
 30
0.0
  0
SPLINE
  5
246
100
AcDbEntity
  8
0
 62
7
100
AcDbSpline
 70
8
 71
3
 72
8
 73
4
 74
0
 40
0
 40
0
 40
0
 40
0
 40
1
 40
1
 40
1
 40
1
 10
267.581248
 20
41.859941
 30
0.0
 10
268.197833
 20
42.423689
 30
0.0
 10
269.051511
 20
43.156293
 30
0.0
 10
269.478310
 20
43.487975
 30
0.0
  0
LWPOLYLINE
  5
247
100
AcDbEntity
  8
0
 62
7
100
AcDbPolyline
 90
1
 70
1
 10
134.301328
 20
42.418926
 30
0.0
  0
SPLINE
  5
248
100
AcDbEntity
  8
0
 62
7
100
AcDbSpline
 70
8
 71
3
 72
8
 73
4
 74
0
 40
0
 40
0
 40
0
 40
0
 40
1
 40
1
 40
1
 40
1
 10
34.624777
 20
43.345047
 30
0.0
 10
34.818365
 20
43.578304
 30
0.0
 10
34.711283
 20
45.175408
 30
0.0
 10
34.265555
 20
48.702860
 30
0.0
  0
SPLINE
  5
249
100
AcDbEntity
  8
0
 62
7
100
AcDbSpline
 70
8
 71
3
 72
8
 73
4
 74
0
 40
0
 40
0
 40
0
 40
0
 40
1
 40
1
 40
1
 40
1
 10
34.265555
 20
48.702860
 30
0.0
 10
33.916295
 20
51.466882
 30
0.0
 10
33.628169
 20
53.819372
 30
0.0
 10
33.625279
 20
53.930603
 30
0.0
  0
SPLINE
  5
24a
100
AcDbEntity
  8
0
 62
7
100
AcDbSpline
 70
8
 71
3
 72
8
 73
4
 74
0
 40
0
 40
0
 40
0
 40
0
 40
1
 40
1
 40
1
 40
1
 10
33.625279
 20
53.930603
 30
0.0
 10
33.622395
 20
54.041834
 30
0.0
 10
32.897643
 20
53.768202
 30
0.0
 10
32.014737
 20
53.322511
 30
0.0
  0
SPLINE
  5
24b
100
AcDbEntity
  8
0
 62
7
100
AcDbSpline
 70
8
 71
3
 72
8
 73
4
 74
0
 40
0
 40
0
 40
0
 40
0
 40
1
 40
1
 40
1
 40
1
 10
32.014737
 20
53.322511
 30
0.0
 10
31.131827
 20
52.876820
 30
0.0
 10
30.447218
 20
52.428616
 30
0.0
 10
30.493383
 20
52.326514
 30
0.0
  0
SPLINE
  5
24c
100
AcDbEntity
  8
0
 62
7
100
AcDbSpline
 70
8
 71
3
 72
8
 73
4
 74
0
 40
0
 40
0
 40
0
 40
0
 40
1
 40
1
 40
1
 40
1
 10
30.493383
 20
52.326514
 30
0.0
 10
30.977221
 20
51.256300
 30
0.0
 10
33.376166
 20
44.999249
 30
0.0
 10
33.633148
 20
44.137210
 30
0.0
  0
SPLINE
  5
24d
100
AcDbEntity
  8
0
 62
7
100
AcDbSpline
 70
8
 71
3
 72
8
 73
4
 74
0
 40
0
 40
0
 40
0
 40
0
 40
1
 40
1
 40
1
 40
1
 10
33.633148
 20
44.137210
 30
0.0
 10
33.986406
 20
42.952220
 30
0.0
 10
34.174232
 20
42.802175
 30
0.0
 10
34.624777
 20
43.345047
 30
0.0
  0
LWPOLYLINE
  5
24e
100
AcDbEntity
  8
0
 62
7
100
AcDbPolyline
 90
1
 70
1
 10
269.478310
 20
43.487975
 30
0.0
  0
SPLINE
  5
24f
100
AcDbEntity
  8
0
 62
7
100
AcDbSpline
 70
8
 71
3
 72
8
 73
4
 74
0
 40
0
 40
0
 40
0
 40
0
 40
1
 40
1
 40
1
 40
1
 10
46.359247
 20
53.683667
 30
0.0
 10
47.742226
 20
54.704430
 30
0.0
 10
47.886123
 20
54.912472
 30
0.0
 10
48.288691
 20
56.473222
 30
0.0
  0
SPLINE
  5
250
100
AcDbEntity
  8
0
 62
7
100
AcDbSpline
 70
8
 71
3
 72
8
 73
4
 74
0
 40
0
 40
0
 40
0
 40
0
 40
1
 40
1
 40
1
 40
1
 10
48.288691
 20
56.473222
 30
0.0
 10
48.527949
 20
57.400799
 30
0.0
 10
48.662288
 20
58.221166
 30
0.0
 10
48.587226
 20
58.296228
 30
0.0
  0
SPLINE
  5
251
100
AcDbEntity
  8
0
 62
7
100
AcDbSpline
 70
8
 71
3
 72
8
 73
4
 74
0
 40
0
 40
0
 40
0
 40
0
 40
1
 40
1
 40
1
 40
1
 10
48.587226
 20
58.296228
 30
0.0
 10
48.319473
 20
58.563960
 30
0.0
 10
42.901965
 20
57.801960
 30
0.0
 10
41.352033
 20
57.278535
 30
0.0
  0
SPLINE
  5
252
100
AcDbEntity
  8
0
 62
7
100
AcDbSpline
 70
8
 71
3
 72
8
 73
4
 74
0
 40
0
 40
0
 40
0
 40
0
 40
1
 40
1
 40
1
 40
1
 10
41.352033
 20
57.278535
 30
0.0
 10
39.779527
 20
56.747489
 30
0.0
 10
39.773278
 20
56.741245
 30
0.0
 10
39.607366
 20
55.530776
 30
0.0
  0
SPLINE
  5
253
100
AcDbEntity
  8
0
 62
7
100
AcDbSpline
 70
8
 71
3
 72
8
 73
4
 74
0
 40
0
 40
0
 40
0
 40
0
 40
1
 40
1
 40
1
 40
1
 10
39.607366
 20
55.530776
 30
0.0
 10
39.515785
 20
54.862624
 30
0.0
 10
39.440855
 20
52.905395
 30
0.0
 10
39.440855
 20
51.181397
 30
0.0
  0
LWPOLYLINE
  5
254
100
AcDbEntity
  8
0
 62
7
100
AcDbPolyline
 90
1
 70
1
 10
34.624777
 20
43.345047
 30
0.0
  0
SPLINE
  5
255
100
AcDbEntity
  8
0
 62
7
100
AcDbSpline
 70
8
 71
3
 72
8
 73
4
 74
0
 40
0
 40
0
 40
0
 40
0
 40
1
 40
1
 40
1
 40
1
 10
42.152835
 20
50.313749
 30
0.0
 10
43.644423
 20
51.560545
 30
0.0
 10
45.537308
 20
53.077004
 30
0.0
 10
46.359247
 20
53.683667
 30
0.0
  0
LWPOLYLINE
  5
256
100
AcDbEntity
  8
0
 62
7
100
AcDbPolyline
 90
3
 70
0
 10
39.440855
 20
51.181397
 30
0.0
 10
39.440855
 20
48.046825
 30
0.0
 10
42.152835
 20
50.313749
 30
0.0
  0
SPLINE
  5
257
100
AcDbEntity
  8
0
 62
7
100
AcDbSpline
 70
8
 71
3
 72
8
 73
4
 74
0
 40
0
 40
0
 40
0
 40
0
 40
1
 40
1
 40
1
 40
1
 10
311.935680
 20
53.597413
 30
0.0
 10
312.820897
 20
60.261791
 30
0.0
 10
316.459605
 20
88.549231
 30
0.0
 10
316.459605
 20
88.766573
 30
0.0
  0
SPLINE
  5
258
100
AcDbEntity
  8
0
 62
7
100
AcDbSpline
 70
8
 71
3
 72
8
 73
4
 74
0
 40
0
 40
0
 40
0
 40
0
 40
1
 40
1
 40
1
 40
1
 10
316.459605
 20
88.766573
 30
0.0
 10
316.459605
 20
88.876516
 30
0.0
 10
316.013121
 20
89.101353
 30
0.0
 10
315.467418
 20
89.266207
 30
0.0
  0
SPLINE
  5
259
100
AcDbEntity
  8
0
 62
7
100
AcDbSpline
 70
8
 71
3
 72
8
 73
4
 74
0
 40
0
 40
0
 40
0
 40
0
 40
1
 40
1
 40
1
 40
1
 10
315.467418
 20
89.266207
 30
0.0
 10
313.352603
 20
89.905089
 30
0.0
 10
312.196506
 20
91.740895
 30
0.0
 10
311.717452
 20
95.220938
 30
0.0
  0
SPLINE
  5
25a
100
AcDbEntity
  8
0
 62
7
100
AcDbSpline
 70
8
 71
3
 72
8
 73
4
 74
0
 40
0
 40
0
 40
0
 40
0
 40
1
 40
1
 40
1
 40
1
 10
311.717452
 20
95.220938
 30
0.0
 10
311.336081
 20
97.991224
 30
0.0
 10
311.357830
 20
99.819370
 30
0.0
 10
311.831699
 20
104.816590
 30
0.0
  0
SPLINE
  5
25b
100
AcDbEntity
  8
0
 62
7
100
AcDbSpline
 70
8
 71
3
 72
8
 73
4
 74
0
 40
0
 40
0
 40
0
 40
0
 40
1
 40
1
 40
1
 40
1
 10
311.831699
 20
104.816590
 30
0.0
 10
312.609680
 20
113.020681
 30
0.0
 10
314.400274
 20
124.678482
 30
0.0
 10
316.989248
 20
138.395022
 30
0.0
  0
SPLINE
  5
25c
100
AcDbEntity
  8
0
 62
7
100
AcDbSpline
 70
8
 71
3
 72
8
 73
4
 74
0
 40
0
 40
0
 40
0
 40
0
 40
1
 40
1
 40
1
 40
1
 10
316.989248
 20
138.395022
 30
0.0
 10
318.662500
 20
147.260011
 30
0.0
 10
318.758385
 20
147.675314
 30
0.0
 10
320.441743
 20
153.349090
 30
0.0
  0
SPLINE
  5
25d
100
AcDbEntity
  8
0
 62
7
100
AcDbSpline
 70
8
 71
3
 72
8
 73
4
 74
0
 40
0
 40
0
 40
0
 40
0
 40
1
 40
1
 40
1
 40
1
 10
320.441743
 20
153.349090
 30
0.0
 10
321.963838
 20
158.479313
 30
0.0
 10
322.183866
 20
159.006643
 30
0.0
 10
323.197432
 20
159.953661
 30
0.0
  0
SPLINE
  5
25e
100
AcDbEntity
  8
0
 62
7
100
AcDbSpline
 70
8
 71
3
 72
8
 73
4
 74
0
 40
0
 40
0
 40
0
 40
0
 40
1
 40
1
 40
1
 40
1
 10
323.197432
 20
159.953661
 30
0.0
 10
323.975915
 20
160.681024
 30
0.0
 10
325.657210
 20
160.824235
 30
0.0
 10
326.379602
 20
160.224716
 30
0.0
  0
SPLINE
  5
25f
100
AcDbEntity
  8
0
 62
7
100
AcDbSpline
 70
8
 71
3
 72
8
 73
4
 74
0
 40
0
 40
0
 40
0
 40
0
 40
1
 40
1
 40
1
 40
1
 10
326.379602
 20
160.224716
 30
0.0
 10
326.634369
 20
160.013272
 30
0.0
 10
326.778355
 20
159.996299
 30
0.0
 10
326.778355
 20
160.177715
 30
0.0
  0
SPLINE
  5
260
100
AcDbEntity
  8
0
 62
7
100
AcDbSpline
 70
8
 71
3
 72
8
 73
4
 74
0
 40
0
 40
0
 40
0
 40
0
 40
1
 40
1
 40
1
 40
1
 10
326.778355
 20
160.177715
 30
0.0
 10
326.778355
 20
160.333886
 30
0.0
 10
327.544139
 20
164.814218
 30
0.0
 10
328.480129
 20
170.134007
 30
0.0
  0
LWPOLYLINE
  5
261
100
AcDbEntity
  8
0
 62
7
100
AcDbPolyline
 90
1
 70
1
 10
46.359247
 20
53.683667
 30
0.0
  0
SPLINE
  5
262
100
AcDbEntity
  8
0
 62
7
100
AcDbSpline
 70
8
 71
3
 72
8
 73
4
 74
0
 40
0
 40
0
 40
0
 40
0
 40
1
 40
1
 40
1
 40
1
 10
329.636067
 20
181.457978
 30
0.0
 10
329.335871
 20
182.366372
 30
0.0
 10
328.979107
 20
183.228668
 30
0.0
 10
328.843243
 20
183.374189
 30
0.0
  0
SPLINE
  5
263
100
AcDbEntity
  8
0
 62
7
100
AcDbSpline
 70
8
 71
3
 72
8
 73
4
 74
0
 40
0
 40
0
 40
0
 40
0
 40
1
 40
1
 40
1
 40
1
 10
328.843243
 20
183.374189
 30
0.0
 10
328.554398
 20
183.683622
 30
0.0
 10
317.854251
 20
172.936715
 30
0.0
 10
313.557576
 20
168.021685
 30
0.0
  0
SPLINE
  5
264
100
AcDbEntity
  8
0
 62
7
100
AcDbSpline
 70
8
 71
3
 72
8
 73
4
 74
0
 40
0
 40
0
 40
0
 40
0
 40
1
 40
1
 40
1
 40
1
 10
313.557576
 20
168.021685
 30
0.0
 10
312.034238
 20
166.279105
 30
0.0
 10
310.720237
 20
164.793824
 30
0.0
 10
310.637634
 20
164.721064
 30
0.0
  0
SPLINE
  5
265
100
AcDbEntity
  8
0
 62
7
100
AcDbSpline
 70
8
 71
3
 72
8
 73
4
 74
0
 40
0
 40
0
 40
0
 40
0
 40
1
 40
1
 40
1
 40
1
 10
310.637634
 20
164.721064
 30
0.0
 10
310.349847
 20
164.467643
 30
0.0
 10
307.261075
 20
160.603689
 30
0.0
 10
305.475428
 20
158.263291
 30
0.0
  0
SPLINE
  5
266
100
AcDbEntity
  8
0
 62
7
100
AcDbSpline
 70
8
 71
3
 72
8
 73
4
 74
0
 40
0
 40
0
 40
0
 40
0
 40
1
 40
1
 40
1
 40
1
 10
305.475428
 20
158.263291
 30
0.0
 10
302.840813
 20
154.810214
 30
0.0
 10
300.556692
 20
151.097350
 30
0.0
 10
298.217061
 20
146.464814
 30
0.0
  0
SPLINE
  5
267
100
AcDbEntity
  8
0
 62
7
100
AcDbSpline
 70
8
 71
3
 72
8
 73
4
 74
0
 40
0
 40
0
 40
0
 40
0
 40
1
 40
1
 40
1
 40
1
 10
298.217061
 20
146.464814
 30
0.0
 10
293.079752
 20
136.292828
 30
0.0
 10
290.344543
 20
127.454729
 30
0.0
 10
286.455670
 20
108.460871
 30
0.0
  0
SPLINE
  5
268
100
AcDbEntity
  8
0
 62
7
100
AcDbSpline
 70
8
 71
3
 72
8
 73
4
 74
0
 40
0
 40
0
 40
0
 40
0
 40
1
 40
1
 40
1
 40
1
 10
286.455670
 20
108.460871
 30
0.0
 10
285.428902
 20
103.445987
 30
0.0
 10
285.216044
 20
101.848129
 30
0.0
 10
284.975300
 20
97.348371
 30
0.0
  0
SPLINE
  5
269
100
AcDbEntity
  8
0
 62
7
100
AcDbSpline
 70
8
 71
3
 72
8
 73
4
 74
0
 40
0
 40
0
 40
0
 40
0
 40
1
 40
1
 40
1
 40
1
 10
284.975300
 20
97.348371
 30
0.0
 10
284.820678
 20
94.457882
 30
0.0
 10
284.584431
 20
90.826979
 30
0.0
 10
284.450367
 20
89.279696
 30
0.0
  0
LWPOLYLINE
  5
26a
100
AcDbEntity
  8
0
 62
7
100
AcDbPolyline
 90
3
 70
0
 10
328.480129
 20
170.134007
 30
0.0
 10
330.181876
 20
179.806351
 30
0.0
 10
329.636067
 20
181.457978
 30
0.0
  0
SPLINE
  5
26b
100
AcDbEntity
  8
0
 62
7
100
AcDbSpline
 70
8
 71
3
 72
8
 73
4
 74
0
 40
0
 40
0
 40
0
 40
0
 40
1
 40
1
 40
1
 40
1
 10
290.712155
 20
76.813251
 30
0.0
 10
290.739327
 20
75.103381
 30
0.0
 10
290.679796
 20
73.704680
 30
0.0
 10
290.579863
 20
73.705027
 30
0.0
  0
SPLINE
  5
26c
100
AcDbEntity
  8
0
 62
7
100
AcDbSpline
 70
8
 71
3
 72
8
 73
4
 74
0
 40
0
 40
0
 40
0
 40
0
 40
1
 40
1
 40
1
 40
1
 10
290.579863
 20
73.705027
 30
0.0
 10
290.479903
 20
73.705291
 30
0.0
 10
290.069640
 20
74.334394
 30
0.0
 10
289.668135
 20
75.102855
 30
0.0
  0
SPLINE
  5
26d
100
AcDbEntity
  8
0
 62
7
100
AcDbSpline
 70
8
 71
3
 72
8
 73
4
 74
0
 40
0
 40
0
 40
0
 40
0
 40
1
 40
1
 40
1
 40
1
 10
289.668135
 20
75.102855
 30
0.0
 10
289.266656
 20
75.871316
 30
0.0
 10
288.580063
 20
76.934486
 30
0.0
 10
288.142389
 20
77.465454
 30
0.0
  0
SPLINE
  5
26e
100
AcDbEntity
  8
0
 62
7
100
AcDbSpline
 70
8
 71
3
 72
8
 73
4
 74
0
 40
0
 40
0
 40
0
 40
0
 40
1
 40
1
 40
1
 40
1
 10
288.142389
 20
77.465454
 30
0.0
 10
287.069186
 20
78.767432
 30
0.0
 10
283.651272
 20
81.245824
 30
0.0
 10
283.651272
 20
80.722041
 30
0.0
  0
SPLINE
  5
26f
100
AcDbEntity
  8
0
 62
7
100
AcDbSpline
 70
8
 71
3
 72
8
 73
4
 74
0
 40
0
 40
0
 40
0
 40
0
 40
1
 40
1
 40
1
 40
1
 10
283.651272
 20
80.722041
 30
0.0
 10
283.651272
 20
79.923553
 30
0.0
 10
282.290150
 20
69.753665
 30
0.0
 10
281.657002
 20
65.821483
 30
0.0
  0
SPLINE
  5
270
100
AcDbEntity
  8
0
 62
7
100
AcDbSpline
 70
8
 71
3
 72
8
 73
4
 74
0
 40
0
 40
0
 40
0
 40
0
 40
1
 40
1
 40
1
 40
1
 10
281.657002
 20
65.821483
 30
0.0
 10
281.298624
 20
63.595935
 30
0.0
 10
281.005439
 20
61.617992
 30
0.0
 10
281.005439
 20
61.426064
 30
0.0
  0
SPLINE
  5
271
100
AcDbEntity
  8
0
 62
7
100
AcDbSpline
 70
8
 71
3
 72
8
 73
4
 74
0
 40
0
 40
0
 40
0
 40
0
 40
1
 40
1
 40
1
 40
1
 10
281.005439
 20
61.426064
 30
0.0
 10
281.005439
 20
61.215270
 30
0.0
 10
282.445910
 20
60.577439
 30
0.0
 10
284.643460
 20
59.815174
 30
0.0
  0
SPLINE
  5
272
100
AcDbEntity
  8
0
 62
7
100
AcDbSpline
 70
8
 71
3
 72
8
 73
4
 74
0
 40
0
 40
0
 40
0
 40
0
 40
1
 40
1
 40
1
 40
1
 10
284.643460
 20
59.815174
 30
0.0
 10
292.221999
 20
57.186380
 30
0.0
 10
302.289475
 20
53.297799
 30
0.0
 10
309.183564
 20
50.336476
 30
0.0
  0
SPLINE
  5
273
100
AcDbEntity
  8
0
 62
7
100
AcDbSpline
 70
8
 71
3
 72
8
 73
4
 74
0
 40
0
 40
0
 40
0
 40
0
 40
1
 40
1
 40
1
 40
1
 10
309.183564
 20
50.336476
 30
0.0
 10
310.347730
 20
49.836414
 30
0.0
 10
311.320683
 20
49.443137
 30
0.0
 10
311.345686
 20
49.462505
 30
0.0
  0
SPLINE
  5
274
100
AcDbEntity
  8
0
 62
7
100
AcDbSpline
 70
8
 71
3
 72
8
 73
4
 74
0
 40
0
 40
0
 40
0
 40
0
 40
1
 40
1
 40
1
 40
1
 10
311.345686
 20
49.462505
 30
0.0
 10
311.370557
 20
49.481819
 30
0.0
 10
311.636172
 20
51.342581
 30
0.0
 10
311.935680
 20
53.597413
 30
0.0
  0
LWPOLYLINE
  5
275
100
AcDbEntity
  8
0
 62
7
100
AcDbPolyline
 90
5
 70
0
 10
284.450367
 20
89.279696
 30
0.0
 10
284.206580
 20
86.466450
 30
0.0
 10
287.434655
 20
83.194279
 30
0.0
 10
290.662730
 20
79.922105
 30
0.0
 10
290.712155
 20
76.813251
 30
0.0
  0
SPLINE
  5
276
100
AcDbEntity
  8
0
 62
7
100
AcDbSpline
 70
8
 71
3
 72
8
 73
4
 74
0
 40
0
 40
0
 40
0
 40
0
 40
1
 40
1
 40
1
 40
1
 10
233.603721
 20
61.070543
 30
0.0
 10
233.780753
 20
66.054631
 30
0.0
 10
233.999670
 20
72.871756
 30
0.0
 10
234.090210
 20
76.219711
 30
0.0
  0
LWPOLYLINE
  5
277
100
AcDbEntity
  8
0
 62
7
100
AcDbPolyline
 90
1
 70
1
 10
311.935680
 20
53.597413
 30
0.0
  0
SPLINE
  5
278
100
AcDbEntity
  8
0
 62
7
100
AcDbSpline
 70
8
 71
3
 72
8
 73
4
 74
0
 40
0
 40
0
 40
0
 40
0
 40
1
 40
1
 40
1
 40
1
 10
232.163990
 20
84.163416
 30
0.0
 10
227.170483
 20
88.597306
 30
0.0
 10
222.295905
 20
92.092489
 30
0.0
 10
217.448448
 20
94.714817
 30
0.0
  0
SPLINE
  5
279
100
AcDbEntity
  8
0
 62
7
100
AcDbSpline
 70
8
 71
3
 72
8
 73
4
 74
0
 40
0
 40
0
 40
0
 40
0
 40
1
 40
1
 40
1
 40
1
 10
217.448448
 20
94.714817
 30
0.0
 10
215.169089
 20
95.947891
 30
0.0
 10
215.141043
 20
95.955212
 30
0.0
 10
215.014810
 20
95.350515
 30
0.0
  0
SPLINE
  5
27a
100
AcDbEntity
  8
0
 62
7
100
AcDbSpline
 70
8
 71
3
 72
8
 73
4
 74
0
 40
0
 40
0
 40
0
 40
0
 40
1
 40
1
 40
1
 40
1
 10
215.014810
 20
95.350515
 30
0.0
 10
214.944590
 20
95.014058
 30
0.0
 10
214.335704
 20
92.059866
 30
0.0
 10
213.661731
 20
88.785647
 30
0.0
  0
SPLINE
  5
27b
100
AcDbEntity
  8
0
 62
7
100
AcDbSpline
 70
8
 71
3
 72
8
 73
4
 74
0
 40
0
 40
0
 40
0
 40
0
 40
1
 40
1
 40
1
 40
1
 10
213.661731
 20
88.785647
 30
0.0
 10
212.189034
 20
81.631136
 30
0.0
 10
210.345787
 20
74.216736
 30
0.0
 10
207.347159
 20
63.385647
 30
0.0
  0
SPLINE
  5
27c
100
AcDbEntity
  8
0
 62
7
100
AcDbSpline
 70
8
 71
3
 72
8
 73
4
 74
0
 40
0
 40
0
 40
0
 40
0
 40
1
 40
1
 40
1
 40
1
 10
207.347159
 20
63.385647
 30
0.0
 10
206.118381
 20
58.947262
 30
0.0
 10
205.035811
 20
55.077730
 30
0.0
 10
204.941488
 20
54.786689
 30
0.0
  0
SPLINE
  5
27d
100
AcDbEntity
  8
0
 62
7
100
AcDbSpline
 70
8
 71
3
 72
8
 73
4
 74
0
 40
0
 40
0
 40
0
 40
0
 40
1
 40
1
 40
1
 40
1
 10
204.941488
 20
54.786689
 30
0.0
 10
204.839914
 20
54.473369
 30
0.0
 10
205.067561
 20
54.635241
 30
0.0
 10
205.499600
 20
55.183564
 30
0.0
  0
SPLINE
  5
27e
100
AcDbEntity
  8
0
 62
7
100
AcDbSpline
 70
8
 71
3
 72
8
 73
4
 74
0
 40
0
 40
0
 40
0
 40
0
 40
1
 40
1
 40
1
 40
1
 10
205.499600
 20
55.183564
 30
0.0
 10
207.915933
 20
58.250402
 30
0.0
 10
211.307442
 20
60.748148
 30
0.0
 10
214.496227
 20
61.809286
 30
0.0
  0
LWPOLYLINE
  5
27f
100
AcDbEntity
  8
0
 62
7
100
AcDbPolyline
 90
3
 70
0
 10
234.090210
 20
76.219711
 30
0.0
 10
234.254807
 20
82.306901
 30
0.0
 10
232.163990
 20
84.163416
 30
0.0
  0
SPLINE
  5
280
100
AcDbEntity
  8
0
 62
7
100
AcDbSpline
 70
8
 71
3
 72
8
 73
4
 74
0
 40
0
 40
0
 40
0
 40
0
 40
1
 40
1
 40
1
 40
1
 10
218.477042
 20
61.397674
 30
0.0
 10
222.887566
 20
59.586627
 30
0.0
 10
228.350207
 20
56.153711
 30
0.0
 10
231.583177
 20
53.161327
 30
0.0
  0
SPLINE
  5
281
100
AcDbEntity
  8
0
 62
7
100
AcDbSpline
 70
8
 71
3
 72
8
 73
4
 74
0
 40
0
 40
0
 40
0
 40
0
 40
1
 40
1
 40
1
 40
1
 10
231.583177
 20
53.161327
 30
0.0
 10
232.268157
 20
52.527306
 30
0.0
 10
232.930594
 20
52.008564
 30
0.0
 10
233.055213
 20
52.008564
 30
0.0
  0
SPLINE
  5
282
100
AcDbEntity
  8
0
 62
7
100
AcDbSpline
 70
8
 71
3
 72
8
 73
4
 74
0
 40
0
 40
0
 40
0
 40
0
 40
1
 40
1
 40
1
 40
1
 10
233.055213
 20
52.008564
 30
0.0
 10
233.179858
 20
52.008564
 30
0.0
 10
233.426688
 20
56.086454
 30
0.0
 10
233.603721
 20
61.070543
 30
0.0
  0
LWPOLYLINE
  5
283
100
AcDbEntity
  8
0
 62
7
100
AcDbPolyline
 90
3
 70
0
 10
214.496227
 20
61.809286
 30
0.0
 10
216.141353
 20
62.356762
 30
0.0
 10
218.477042
 20
61.397674
 30
0.0
  0
SPLINE
  5
284
100
AcDbEntity
  8
0
 62
7
100
AcDbSpline
 70
8
 71
3
 72
8
 73
4
 74
0
 40
0
 40
0
 40
0
 40
0
 40
1
 40
1
 40
1
 40
1
 10
36.795022
 20
54.786689
 30
0.0
 10
36.795022
 20
55.150491
 30
0.0
 10
36.675960
 20
55.448147
 30
0.0
 10
36.530439
 20
55.448147
 30
0.0
  0
SPLINE
  5
285
100
AcDbEntity
  8
0
 62
7
100
AcDbSpline
 70
8
 71
3
 72
8
 73
4
 74
0
 40
0
 40
0
 40
0
 40
0
 40
1
 40
1
 40
1
 40
1
 10
36.530439
 20
55.448147
 30
0.0
 10
36.384918
 20
55.448147
 30
0.0
 10
36.265855
 20
55.150491
 30
0.0
 10
36.265855
 20
54.786689
 30
0.0
  0
SPLINE
  5
286
100
AcDbEntity
  8
0
 62
7
100
AcDbSpline
 70
8
 71
3
 72
8
 73
4
 74
0
 40
0
 40
0
 40
0
 40
0
 40
1
 40
1
 40
1
 40
1
 10
36.265855
 20
54.786689
 30
0.0
 10
36.265855
 20
54.422887
 30
0.0
 10
36.384918
 20
54.125230
 30
0.0
 10
36.530439
 20
54.125230
 30
0.0
  0
SPLINE
  5
287
100
AcDbEntity
  8
0
 62
7
100
AcDbSpline
 70
8
 71
3
 72
8
 73
4
 74
0
 40
0
 40
0
 40
0
 40
0
 40
1
 40
1
 40
1
 40
1
 10
36.530439
 20
54.125230
 30
0.0
 10
36.675960
 20
54.125230
 30
0.0
 10
36.795022
 20
54.422887
 30
0.0
 10
36.795022
 20
54.786689
 30
0.0
  0
LWPOLYLINE
  5
288
100
AcDbEntity
  8
0
 62
7
100
AcDbPolyline
 90
1
 70
1
 10
233.603721
 20
61.070543
 30
0.0
  0
SPLINE
  5
289
100
AcDbEntity
  8
0
 62
7
100
AcDbSpline
 70
8
 71
3
 72
8
 73
4
 74
0
 40
0
 40
0
 40
0
 40
0
 40
1
 40
1
 40
1
 40
1
 10
26.476272
 20
54.506495
 30
0.0
 10
26.476272
 20
54.570656
 30
0.0
 10
26.357209
 20
54.696757
 30
0.0
 10
26.211688
 20
54.786689
 30
0.0
  0
SPLINE
  5
28a
100
AcDbEntity
  8
0
 62
7
100
AcDbSpline
 70
8
 71
3
 72
8
 73
4
 74
0
 40
0
 40
0
 40
0
 40
0
 40
1
 40
1
 40
1
 40
1
 10
26.211688
 20
54.786689
 30
0.0
 10
26.066167
 20
54.876621
 30
0.0
 10
25.947105
 20
54.824127
 30
0.0
 10
25.947105
 20
54.670007
 30
0.0
  0
SPLINE
  5
28b
100
AcDbEntity
  8
0
 62
7
100
AcDbSpline
 70
8
 71
3
 72
8
 73
4
 74
0
 40
0
 40
0
 40
0
 40
0
 40
1
 40
1
 40
1
 40
1
 10
25.947105
 20
54.670007
 30
0.0
 10
25.947105
 20
54.515914
 30
0.0
 10
26.066167
 20
54.389814
 30
0.0
 10
26.211688
 20
54.389814
 30
0.0
  0
SPLINE
  5
28c
100
AcDbEntity
  8
0
 62
7
100
AcDbSpline
 70
8
 71
3
 72
8
 73
4
 74
0
 40
0
 40
0
 40
0
 40
0
 40
1
 40
1
 40
1
 40
1
 10
26.211688
 20
54.389814
 30
0.0
 10
26.357209
 20
54.389814
 30
0.0
 10
26.476272
 20
54.442307
 30
0.0
 10
26.476272
 20
54.506495
 30
0.0
  0
LWPOLYLINE
  5
28d
100
AcDbEntity
  8
0
 62
7
100
AcDbPolyline
 90
1
 70
1
 10
36.795022
 20
54.786689
 30
0.0
  0
LWPOLYLINE
  5
28e
100
AcDbEntity
  8
0
 62
7
100
AcDbPolyline
 90
1
 70
1
 10
26.476272
 20
54.506495
 30
0.0
  0
SPLINE
  5
28f
100
AcDbEntity
  8
0
 62
7
100
AcDbSpline
 70
8
 71
3
 72
8
 73
4
 74
0
 40
0
 40
0
 40
0
 40
0
 40
1
 40
1
 40
1
 40
1
 10
113.344957
 20
99.197284
 30
0.0
 10
109.377073
 20
92.817093
 30
0.0
 10
105.152923
 20
84.879762
 30
0.0
 10
101.882636
 20
77.659167
 30
0.0
  0
SPLINE
  5
290
100
AcDbEntity
  8
0
 62
7
100
AcDbSpline
 70
8
 71
3
 72
8
 73
4
 74
0
 40
0
 40
0
 40
0
 40
0
 40
1
 40
1
 40
1
 40
1
 10
101.882636
 20
77.659167
 30
0.0
 10
99.642562
 20
72.713220
 30
0.0
 10
97.330175
 20
66.772150
 30
0.0
 10
97.563805
 20
66.563079
 30
0.0
  0
SPLINE
  5
291
100
AcDbEntity
  8
0
 62
7
100
AcDbSpline
 70
8
 71
3
 72
8
 73
4
 74
0
 40
0
 40
0
 40
0
 40
0
 40
1
 40
1
 40
1
 40
1
 10
97.563805
 20
66.563079
 30
0.0
 10
97.683526
 20
66.455941
 30
0.0
 10
98.198199
 20
66.229127
 30
0.0
 10
98.707522
 20
66.059045
 30
0.0
  0
SPLINE
  5
292
100
AcDbEntity
  8
0
 62
7
100
AcDbSpline
 70
8
 71
3
 72
8
 73
4
 74
0
 40
0
 40
0
 40
0
 40
0
 40
1
 40
1
 40
1
 40
1
 10
98.707522
 20
66.059045
 30
0.0
 10
100.381612
 20
65.500001
 30
0.0
 10
109.600804
 20
59.167951
 30
0.0
 10
113.921064
 20
55.609887
 30
0.0
  0
LWPOLYLINE
  5
293
100
AcDbEntity
  8
0
 62
7
100
AcDbPolyline
 90
3
 70
0
 10
115.577379
 20
90.571585
 30
0.0
 10
115.508564
 20
102.676272
 30
0.0
 10
113.344957
 20
99.197284
 30
0.0
  0
SPLINE
  5
294
100
AcDbEntity
  8
0
 62
7
100
AcDbSpline
 70
8
 71
3
 72
8
 73
4
 74
0
 40
0
 40
0
 40
0
 40
0
 40
1
 40
1
 40
1
 40
1
 10
115.577379
 20
66.384670
 30
0.0
 10
115.615228
 20
73.029895
 30
0.0
 10
115.615228
 20
83.914006
 30
0.0
 10
115.577379
 20
90.571585
 30
0.0
  0
LWPOLYLINE
  5
295
100
AcDbEntity
  8
0
 62
7
100
AcDbPolyline
 90
3
 70
0
 10
113.921064
 20
55.609887
 30
0.0
 10
115.508564
 20
54.302448
 30
0.0
 10
115.577379
 20
66.384670
 30
0.0
  0
SPLINE
  5
296
100
AcDbEntity
  8
0
 62
7
100
AcDbSpline
 70
8
 71
3
 72
8
 73
4
 74
0
 40
0
 40
0
 40
0
 40
0
 40
1
 40
1
 40
1
 40
1
 10
187.724574
 20
63.248752
 30
0.0
 10
188.433578
 20
66.908236
 30
0.0
 10
190.896293
 20
75.748806
 30
0.0
 10
192.629393
 20
80.855788
 30
0.0
  0
SPLINE
  5
297
100
AcDbEntity
  8
0
 62
7
100
AcDbSpline
 70
8
 71
3
 72
8
 73
4
 74
0
 40
0
 40
0
 40
0
 40
0
 40
1
 40
1
 40
1
 40
1
 10
192.629393
 20
80.855788
 30
0.0
 10
195.560738
 20
89.493669
 30
0.0
 10
198.546217
 20
94.752110
 30
0.0
 10
202.914964
 20
98.972105
 30
0.0
  0
SPLINE
  5
298
100
AcDbEntity
  8
0
 62
7
100
AcDbSpline
 70
8
 71
3
 72
8
 73
4
 74
0
 40
0
 40
0
 40
0
 40
0
 40
1
 40
1
 40
1
 40
1
 10
202.914964
 20
98.972105
 30
0.0
 10
204.912648
 20
100.901786
 30
0.0
 10
208.626525
 20
103.141129
 30
0.0
 10
211.237962
 20
103.990624
 30
0.0
  0
LWPOLYLINE
  5
299
100
AcDbEntity
  8
0
 62
7
100
AcDbPolyline
 90
1
 70
1
 10
115.577379
 20
90.571585
 30
0.0
  0
SPLINE
  5
29a
100
AcDbEntity
  8
0
 62
7
100
AcDbSpline
 70
8
 71
3
 72
8
 73
4
 74
0
 40
0
 40
0
 40
0
 40
0
 40
1
 40
1
 40
1
 40
1
 10
213.772089
 20
107.137491
 30
0.0
 10
214.155576
 20
110.298690
 30
0.0
 10
214.546947
 20
114.876003
 30
0.0
 10
214.645319
 20
117.350569
 30
0.0
  0
LWPOLYLINE
  5
29b
100
AcDbEntity
  8
0
 62
7
100
AcDbPolyline
 90
3
 70
0
 10
211.237962
 20
103.990624
 30
0.0
 10
213.478771
 20
104.719546
 30
0.0
 10
213.772089
 20
107.137491
 30
0.0
  0
SPLINE
  5
29c
100
AcDbEntity
  8
0
 62
7
100
AcDbSpline
 70
8
 71
3
 72
8
 73
4
 74
0
 40
0
 40
0
 40
0
 40
0
 40
1
 40
1
 40
1
 40
1
 10
210.624526
 20
121.140024
 30
0.0
 10
202.410298
 20
124.777259
 30
0.0
 10
185.675614
 20
131.127352
 30
0.0
 10
185.298450
 20
130.750180
 30
0.0
  0
SPLINE
  5
29d
100
AcDbEntity
  8
0
 62
7
100
AcDbSpline
 70
8
 71
3
 72
8
 73
4
 74
0
 40
0
 40
0
 40
0
 40
0
 40
1
 40
1
 40
1
 40
1
 10
185.298450
 20
130.750180
 30
0.0
 10
185.223653
 20
130.675399
 30
0.0
 10
185.064347
 20
128.750142
 30
0.0
 10
184.944411
 20
126.471836
 30
0.0
  0
SPLINE
  5
29e
100
AcDbEntity
  8
0
 62
7
100
AcDbSpline
 70
8
 71
3
 72
8
 73
4
 74
0
 40
0
 40
0
 40
0
 40
0
 40
1
 40
1
 40
1
 40
1
 10
184.944411
 20
126.471836
 30
0.0
 10
184.698243
 20
121.795521
 30
0.0
 10
184.601617
 20
121.206260
 30
0.0
 10
183.772995
 20
119.327570
 30
0.0
  0
SPLINE
  5
29f
100
AcDbEntity
  8
0
 62
7
100
AcDbSpline
 70
8
 71
3
 72
8
 73
4
 74
0
 40
0
 40
0
 40
0
 40
0
 40
1
 40
1
 40
1
 40
1
 10
183.772995
 20
119.327570
 30
0.0
 10
183.143128
 20
117.899516
 30
0.0
 10
180.951240
 20
115.509646
 30
0.0
 10
179.658010
 20
114.840890
 30
0.0
  0
SPLINE
  5
2a0
100
AcDbEntity
  8
0
 62
7
100
AcDbSpline
 70
8
 71
3
 72
8
 73
4
 74
0
 40
0
 40
0
 40
0
 40
0
 40
1
 40
1
 40
1
 40
1
 10
179.658010
 20
114.840890
 30
0.0
 10
179.228062
 20
114.618553
 30
0.0
 10
178.878071
 20
114.231341
 30
0.0
 10
178.880267
 20
113.980415
 30
0.0
  0
SPLINE
  5
2a1
100
AcDbEntity
  8
0
 62
7
100
AcDbSpline
 70
8
 71
3
 72
8
 73
4
 74
0
 40
0
 40
0
 40
0
 40
0
 40
1
 40
1
 40
1
 40
1
 10
178.880267
 20
113.980415
 30
0.0
 10
178.892438
 20
112.601132
 30
0.0
 10
185.971471
 20
54.947529
 30
0.0
 10
186.167316
 20
54.633310
 30
0.0
  0
SPLINE
  5
2a2
100
AcDbEntity
  8
0
 62
7
100
AcDbSpline
 70
8
 71
3
 72
8
 73
4
 74
0
 40
0
 40
0
 40
0
 40
0
 40
1
 40
1
 40
1
 40
1
 10
186.167316
 20
54.633310
 30
0.0
 10
186.321409
 20
54.386110
 30
0.0
 10
186.513179
 20
55.203672
 30
0.0
 10
186.727783
 20
57.022577
 30
0.0
  0
SPLINE
  5
2a3
100
AcDbEntity
  8
0
 62
7
100
AcDbSpline
 70
8
 71
3
 72
8
 73
4
 74
0
 40
0
 40
0
 40
0
 40
0
 40
1
 40
1
 40
1
 40
1
 10
186.727783
 20
57.022577
 30
0.0
 10
186.907196
 20
58.543349
 30
0.0
 10
187.355745
 20
61.345128
 30
0.0
 10
187.724574
 20
63.248752
 30
0.0
  0
LWPOLYLINE
  5
2a4
100
AcDbEntity
  8
0
 62
7
100
AcDbPolyline
 90
3
 70
0
 10
214.645319
 20
117.350569
 30
0.0
 10
214.723821
 20
119.324863
 30
0.0
 10
210.624526
 20
121.140024
 30
0.0
  0
SPLINE
  5
2a5
100
AcDbEntity
  8
0
 62
7
100
AcDbSpline
 70
8
 71
3
 72
8
 73
4
 74
0
 40
0
 40
0
 40
0
 40
0
 40
1
 40
1
 40
1
 40
1
 10
30.773423
 20
56.552068
 30
0.0
 10
31.829730
 20
57.013713
 30
0.0
 10
32.792130
 20
57.474988
 30
0.0
 10
32.912095
 20
57.577170
 30
0.0
  0
SPLINE
  5
2a6
100
AcDbEntity
  8
0
 62
7
100
AcDbSpline
 70
8
 71
3
 72
8
 73
4
 74
0
 40
0
 40
0
 40
0
 40
0
 40
1
 40
1
 40
1
 40
1
 10
32.912095
 20
57.577170
 30
0.0
 10
33.032057
 20
57.679325
 30
0.0
 10
32.691308
 20
60.784211
 30
0.0
 10
32.154876
 20
64.476887
 30
0.0
  0
SPLINE
  5
2a7
100
AcDbEntity
  8
0
 62
7
100
AcDbSpline
 70
8
 71
3
 72
8
 73
4
 74
0
 40
0
 40
0
 40
0
 40
0
 40
1
 40
1
 40
1
 40
1
 10
32.154876
 20
64.476887
 30
0.0
 10
31.618447
 20
68.169568
 30
0.0
 10
31.117548
 20
71.699604
 30
0.0
 10
31.041774
 20
72.321409
 30
0.0
  0
SPLINE
  5
2a8
100
AcDbEntity
  8
0
 62
7
100
AcDbSpline
 70
8
 71
3
 72
8
 73
4
 74
0
 40
0
 40
0
 40
0
 40
0
 40
1
 40
1
 40
1
 40
1
 10
31.041774
 20
72.321409
 30
0.0
 10
30.965997
 20
72.943215
 30
0.0
 10
30.821916
 20
73.502695
 30
0.0
 10
30.721591
 20
73.564697
 30
0.0
  0
SPLINE
  5
2a9
100
AcDbEntity
  8
0
 62
7
100
AcDbSpline
 70
8
 71
3
 72
8
 73
4
 74
0
 40
0
 40
0
 40
0
 40
0
 40
1
 40
1
 40
1
 40
1
 10
30.721591
 20
73.564697
 30
0.0
 10
30.553483
 20
73.668594
 30
0.0
 10
26.980957
 20
59.413828
 30
0.0
 10
26.997922
 20
58.706888
 30
0.0
  0
SPLINE
  5
2aa
100
AcDbEntity
  8
0
 62
7
100
AcDbSpline
 70
8
 71
3
 72
8
 73
4
 74
0
 40
0
 40
0
 40
0
 40
0
 40
1
 40
1
 40
1
 40
1
 10
26.997922
 20
58.706888
 30
0.0
 10
27.005357
 20
58.397484
 30
0.0
 10
28.587547
 20
55.712730
 30
0.0
 10
28.762449
 20
55.712730
 30
0.0
  0
SPLINE
  5
2ab
100
AcDbEntity
  8
0
 62
7
100
AcDbSpline
 70
8
 71
3
 72
8
 73
4
 74
0
 40
0
 40
0
 40
0
 40
0
 40
1
 40
1
 40
1
 40
1
 10
28.762449
 20
55.712730
 30
0.0
 10
28.812178
 20
55.712730
 30
0.0
 10
29.717116
 20
56.090423
 30
0.0
 10
30.773423
 20
56.552068
 30
0.0
  0
LWPOLYLINE
  5
2ac
100
AcDbEntity
  8
0
 62
7
100
AcDbPolyline
 90
1
 70
1
 10
187.724574
 20
63.248752
 30
0.0
  0
SPLINE
  5
2ad
100
AcDbEntity
  8
0
 62
7
100
AcDbSpline
 70
8
 71
3
 72
8
 73
4
 74
0
 40
0
 40
0
 40
0
 40
0
 40
1
 40
1
 40
1
 40
1
 10
89.590928
 20
60.210647
 30
0.0
 10
90.131495
 20
61.884137
 30
0.0
 10
90.625226
 20
63.388002
 30
0.0
 10
90.688107
 20
63.552552
 30
0.0
  0
SPLINE
  5
2ae
100
AcDbEntity
  8
0
 62
7
100
AcDbSpline
 70
8
 71
3
 72
8
 73
4
 74
0
 40
0
 40
0
 40
0
 40
0
 40
1
 40
1
 40
1
 40
1
 10
90.688107
 20
63.552552
 30
0.0
 10
90.750988
 20
63.717109
 30
0.0
 10
90.454345
 20
63.973094
 30
0.0
 10
90.028900
 20
64.121403
 30
0.0
  0
LWPOLYLINE
  5
2af
100
AcDbEntity
  8
0
 62
7
100
AcDbPolyline
 90
1
 70
1
 10
30.773423
 20
56.552068
 30
0.0
  0
SPLINE
  5
2b0
100
AcDbEntity
  8
0
 62
7
100
AcDbSpline
 70
8
 71
3
 72
8
 73
4
 74
0
 40
0
 40
0
 40
0
 40
0
 40
1
 40
1
 40
1
 40
1
 10
88.934454
 20
61.176376
 30
0.0
 10
88.757951
 20
59.408298
 30
0.0
 10
88.548176
 20
57.723564
 30
0.0
 10
88.468287
 20
57.432522
 30
0.0
  0
SPLINE
  5
2b1
100
AcDbEntity
  8
0
 62
7
100
AcDbSpline
 70
8
 71
3
 72
8
 73
4
 74
0
 40
0
 40
0
 40
0
 40
0
 40
1
 40
1
 40
1
 40
1
 10
88.468287
 20
57.432522
 30
0.0
 10
88.388399
 20
57.141480
 30
0.0
 10
88.387169
 20
56.962887
 30
0.0
 10
88.465562
 20
57.035647
 30
0.0
  0
SPLINE
  5
2b2
100
AcDbEntity
  8
0
 62
7
100
AcDbSpline
 70
8
 71
3
 72
8
 73
4
 74
0
 40
0
 40
0
 40
0
 40
0
 40
1
 40
1
 40
1
 40
1
 10
88.465562
 20
57.035647
 30
0.0
 10
88.543948
 20
57.108407
 30
0.0
 10
89.050365
 20
58.537158
 30
0.0
 10
89.590933
 20
60.210647
 30
0.0
  0
LWPOLYLINE
  5
2b3
100
AcDbEntity
  8
0
 62
7
100
AcDbPolyline
 90
3
 70
0
 10
90.028900
 20
64.121403
 30
0.0
 10
89.255367
 20
64.391061
 30
0.0
 10
88.934454
 20
61.176376
 30
0.0
  0
SPLINE
  5
2b4
100
AcDbEntity
  8
0
 62
7
100
AcDbSpline
 70
8
 71
3
 72
8
 73
4
 74
0
 40
0
 40
0
 40
0
 40
0
 40
1
 40
1
 40
1
 40
1
 10
51.992988
 20
57.705519
 30
0.0
 10
52.497487
 20
58.087101
 30
0.0
 10
52.496818
 20
58.093980
 30
0.0
 10
51.955150
 20
58.093980
 30
0.0
  0
SPLINE
  5
2b5
100
AcDbEntity
  8
0
 62
7
100
AcDbSpline
 70
8
 71
3
 72
8
 73
4
 74
0
 40
0
 40
0
 40
0
 40
0
 40
1
 40
1
 40
1
 40
1
 10
51.955150
 20
58.093980
 30
0.0
 10
51.651863
 20
58.093980
 30
0.0
 10
51.335189
 20
57.915387
 30
0.0
 10
51.251424
 20
57.697105
 30
0.0
  0
SPLINE
  5
2b6
100
AcDbEntity
  8
0
 62
7
100
AcDbSpline
 70
8
 71
3
 72
8
 73
4
 74
0
 40
0
 40
0
 40
0
 40
0
 40
1
 40
1
 40
1
 40
1
 10
51.251424
 20
57.697105
 30
0.0
 10
51.060617
 20
57.199874
 30
0.0
 10
51.328476
 20
57.202917
 30
0.0
 10
51.992988
 20
57.705572
 30
0.0
  0
LWPOLYLINE
  5
2b7
100
AcDbEntity
  8
0
 62
7
100
AcDbPolyline
 90
1
 70
1
 10
89.590933
 20
60.210647
 30
0.0
  0
SPLINE
  5
2b8
100
AcDbEntity
  8
0
 62
7
100
AcDbSpline
 70
8
 71
3
 72
8
 73
4
 74
0
 40
0
 40
0
 40
0
 40
0
 40
1
 40
1
 40
1
 40
1
 10
59.752373
 20
58.292418
 30
0.0
 10
60.713940
 20
59.681136
 30
0.0
 10
60.736850
 20
59.768555
 30
0.0
 10
60.044139
 20
59.405785
 30
0.0
  0
SPLINE
  5
2b9
100
AcDbEntity
  8
0
 62
7
100
AcDbSpline
 70
8
 71
3
 72
8
 73
4
 74
0
 40
0
 40
0
 40
0
 40
0
 40
1
 40
1
 40
1
 40
1
 10
60.044139
 20
59.405785
 30
0.0
 10
58.572524
 20
58.635080
 30
0.0
 10
57.903200
 20
58.029210
 30
0.0
 10
58.267973
 20
57.798018
 30
0.0
  0
SPLINE
  5
2ba
100
AcDbEntity
  8
0
 62
7
100
AcDbSpline
 70
8
 71
3
 72
8
 73
4
 74
0
 40
0
 40
0
 40
0
 40
0
 40
1
 40
1
 40
1
 40
1
 10
58.267973
 20
57.798018
 30
0.0
 10
58.870062
 20
57.416435
 30
0.0
 10
59.228482
 20
57.535789
 30
0.0
 10
59.752373
 20
58.292418
 30
0.0
  0
LWPOLYLINE
  5
2bb
100
AcDbEntity
  8
0
 62
7
100
AcDbPolyline
 90
1
 70
1
 10
51.992988
 20
57.705572
 30
0.0
  0
SPLINE
  5
2bc
100
AcDbEntity
  8
0
 62
7
100
AcDbSpline
 70
8
 71
3
 72
8
 73
4
 74
0
 40
0
 40
0
 40
0
 40
0
 40
1
 40
1
 40
1
 40
1
 10
36.903239
 20
61.859821
 30
0.0
 10
36.991102
 20
63.353871
 30
0.0
 10
37.298204
 20
71.958147
 30
0.0
 10
37.585690
 20
80.980439
 30
0.0
  0
SPLINE
  5
2bd
100
AcDbEntity
  8
0
 62
7
100
AcDbSpline
 70
8
 71
3
 72
8
 73
4
 74
0
 40
0
 40
0
 40
0
 40
0
 40
1
 40
1
 40
1
 40
1
 10
37.585690
 20
80.980439
 30
0.0
 10
37.873173
 20
90.002730
 30
0.0
 10
38.159441
 20
98.316558
 30
0.0
 10
38.221841
 20
99.455608
 30
0.0
  0
SPLINE
  5
2be
100
AcDbEntity
  8
0
 62
7
100
AcDbSpline
 70
8
 71
3
 72
8
 73
4
 74
0
 40
0
 40
0
 40
0
 40
0
 40
1
 40
1
 40
1
 40
1
 10
38.221841
 20
99.455608
 30
0.0
 10
38.284237
 20
100.594660
 30
0.0
 10
38.291402
 20
101.482721
 30
0.0
 10
38.237769
 20
101.429077
 30
0.0
  0
SPLINE
  5
2bf
100
AcDbEntity
  8
0
 62
7
100
AcDbSpline
 70
8
 71
3
 72
8
 73
4
 74
0
 40
0
 40
0
 40
0
 40
0
 40
1
 40
1
 40
1
 40
1
 10
38.237769
 20
101.429077
 30
0.0
 10
38.111102
 20
101.302410
 30
0.0
 10
36.113231
 20
94.371430
 30
0.0
 10
34.173800
 20
87.330439
 30
0.0
  0
LWPOLYLINE
  5
2c0
100
AcDbEntity
  8
0
 62
7
100
AcDbPolyline
 90
1
 70
1
 10
59.752373
 20
58.292418
 30
0.0
  0
SPLINE
  5
2c1
100
AcDbEntity
  8
0
 62
7
100
AcDbSpline
 70
8
 71
3
 72
8
 73
4
 74
0
 40
0
 40
0
 40
0
 40
0
 40
1
 40
1
 40
1
 40
1
 10
33.628010
 20
75.027314
 30
0.0
 10
34.169578
 20
71.316533
 30
0.0
 10
34.886641
 20
66.114628
 30
0.0
 10
35.221484
 20
63.467536
 30
0.0
  0
SPLINE
  5
2c2
100
AcDbEntity
  8
0
 62
7
100
AcDbSpline
 70
8
 71
3
 72
8
 73
4
 74
0
 40
0
 40
0
 40
0
 40
0
 40
1
 40
1
 40
1
 40
1
 10
35.221484
 20
63.467536
 30
0.0
 10
35.775376
 20
59.088734
 30
0.0
 10
35.871475
 20
58.676672
 30
0.0
 10
36.286895
 20
58.898975
 30
0.0
  0
SPLINE
  5
2c3
100
AcDbEntity
  8
0
 62
7
100
AcDbSpline
 70
8
 71
3
 72
8
 73
4
 74
0
 40
0
 40
0
 40
0
 40
0
 40
1
 40
1
 40
1
 40
1
 10
36.286895
 20
58.898975
 30
0.0
 10
36.655875
 20
59.096460
 30
0.0
 10
36.774157
 20
59.664653
 30
0.0
 10
36.903250
 20
61.859821
 30
0.0
  0
LWPOLYLINE
  5
2c4
100
AcDbEntity
  8
0
 62
7
100
AcDbPolyline
 90
3
 70
0
 10
34.173800
 20
87.330439
 30
0.0
 10
32.643342
 20
81.774189
 30
0.0
 10
33.628010
 20
75.027314
 30
0.0
  0
SPLINE
  5
2c5
100
AcDbEntity
  8
0
 62
7
100
AcDbSpline
 70
8
 71
3
 72
8
 73
4
 74
0
 40
0
 40
0
 40
0
 40
0
 40
1
 40
1
 40
1
 40
1
 10
383.232925
 20
137.492161
 30
0.0
 10
382.320853
 20
140.954440
 30
0.0
 10
381.847408
 20
141.854367
 30
0.0
 10
381.256963
 20
141.247966
 30
0.0
  0
SPLINE
  5
2c6
100
AcDbEntity
  8
0
 62
7
100
AcDbSpline
 70
8
 71
3
 72
8
 73
4
 74
0
 40
0
 40
0
 40
0
 40
0
 40
1
 40
1
 40
1
 40
1
 10
381.256963
 20
141.247966
 30
0.0
 10
380.700333
 20
140.676294
 30
0.0
 10
373.917713
 20
124.670664
 30
0.0
 10
369.638739
 20
113.831328
 30
0.0
  0
LWPOLYLINE
  5
2c7
100
AcDbEntity
  8
0
 62
7
100
AcDbPolyline
 90
1
 70
1
 10
36.903250
 20
61.859821
 30
0.0
  0
SPLINE
  5
2c8
100
AcDbEntity
  8
0
 62
7
100
AcDbSpline
 70
8
 71
3
 72
8
 73
4
 74
0
 40
0
 40
0
 40
0
 40
0
 40
1
 40
1
 40
1
 40
1
 10
367.120038
 20
104.438619
 30
0.0
 10
367.448888
 20
103.614850
 30
0.0
 10
371.395069
 20
92.940796
 30
0.0
 10
375.889308
 20
80.718504
 30
0.0
  0
LWPOLYLINE
  5
2c9
100
AcDbEntity
  8
0
 62
7
100
AcDbPolyline
 90
3
 70
0
 10
369.638739
 20
113.831328
 30
0.0
 10
366.522106
 20
105.936381
 30
0.0
 10
367.120038
 20
104.438619
 30
0.0
  0
SPLINE
  5
2ca
100
AcDbEntity
  8
0
 62
7
100
AcDbSpline
 70
8
 71
3
 72
8
 73
4
 74
0
 40
0
 40
0
 40
0
 40
0
 40
1
 40
1
 40
1
 40
1
 10
56.745066
 20
60.658772
 30
0.0
 10
57.923531
 20
61.341820
 30
0.0
 10
60.040195
 20
62.506648
 30
0.0
 10
61.448762
 20
63.247296
 30
0.0
  0
LWPOLYLINE
  5
2cb
100
AcDbEntity
  8
0
 62
7
100
AcDbPolyline
 90
5
 70
0
 10
375.889308
 20
80.718504
 30
0.0
 10
384.060647
 20
58.496147
 30
0.0
 10
384.127693
 20
96.168588
 30
0.0
 10
384.194764
 20
133.841024
 30
0.0
 10
383.232925
 20
137.492161
 30
0.0
  0
SPLINE
  5
2cc
100
AcDbEntity
  8
0
 62
7
100
AcDbSpline
 70
8
 71
3
 72
8
 73
4
 74
0
 40
0
 40
0
 40
0
 40
0
 40
1
 40
1
 40
1
 40
1
 10
69.483078
 20
72.522604
 30
0.0
 10
72.493383
 20
76.883371
 30
0.0
 10
75.140463
 20
80.660576
 30
0.0
 10
75.365472
 20
80.916391
 30
0.0
  0
SPLINE
  5
2cd
100
AcDbEntity
  8
0
 62
7
100
AcDbSpline
 70
8
 71
3
 72
8
 73
4
 74
0
 40
0
 40
0
 40
0
 40
0
 40
1
 40
1
 40
1
 40
1
 10
75.365472
 20
80.916391
 30
0.0
 10
75.735929
 20
81.337563
 30
0.0
 10
75.618036
 20
83.287394
 30
0.0
 10
74.117663
 20
101.553891
 30
0.0
  0
SPLINE
  5
2ce
100
AcDbEntity
  8
0
 62
7
100
AcDbSpline
 70
8
 71
3
 72
8
 73
4
 74
0
 40
0
 40
0
 40
0
 40
0
 40
1
 40
1
 40
1
 40
1
 10
74.117663
 20
101.553891
 30
0.0
 10
73.206359
 20
112.648701
 30
0.0
 10
72.369450
 20
122.619241
 30
0.0
 10
72.257870
 20
123.710647
 30
0.0
  0
LWPOLYLINE
  5
2cf
100
AcDbEntity
  8
0
 62
7
100
AcDbPolyline
 90
3
 70
0
 10
61.448762
 20
63.247296
 30
0.0
 10
64.009794
 20
64.593933
 30
0.0
 10
69.483078
 20
72.522604
 30
0.0
  0
SPLINE
  5
2d0
100
AcDbEntity
  8
0
 62
7
100
AcDbSpline
 70
8
 71
3
 72
8
 73
4
 74
0
 40
0
 40
0
 40
0
 40
0
 40
1
 40
1
 40
1
 40
1
 10
72.019800
 20
123.124431
 30
0.0
 10
71.952728
 20
118.225536
 30
0.0
 10
70.869040
 20
112.200682
 30
0.0
 10
68.508359
 20
103.602314
 30
0.0
  0
SPLINE
  5
2d1
100
AcDbEntity
  8
0
 62
7
100
AcDbSpline
 70
8
 71
3
 72
8
 73
4
 74
0
 40
0
 40
0
 40
0
 40
0
 40
1
 40
1
 40
1
 40
1
 10
68.508359
 20
103.602314
 30
0.0
 10
67.769235
 20
100.910178
 30
0.0
 10
66.168498
 20
94.718928
 30
0.0
 10
64.951168
 20
89.843980
 30
0.0
  0
SPLINE
  5
2d2
100
AcDbEntity
  8
0
 62
7
100
AcDbSpline
 70
8
 71
3
 72
8
 73
4
 74
0
 40
0
 40
0
 40
0
 40
0
 40
1
 40
1
 40
1
 40
1
 10
64.951168
 20
89.843980
 30
0.0
 10
62.326229
 20
79.332090
 30
0.0
 10
59.646463
 20
70.621152
 30
0.0
 10
58.143500
 20
67.714741
 30
0.0
  0
SPLINE
  5
2d3
100
AcDbEntity
  8
0
 62
7
100
AcDbSpline
 70
8
 71
3
 72
8
 73
4
 74
0
 40
0
 40
0
 40
0
 40
0
 40
1
 40
1
 40
1
 40
1
 10
58.143500
 20
67.714741
 30
0.0
 10
57.269150
 20
66.023932
 30
0.0
 10
54.573374
 20
64.400906
 30
0.0
 10
53.392205
 20
64.854164
 30
0.0
  0
SPLINE
  5
2d4
100
AcDbEntity
  8
0
 62
7
100
AcDbSpline
 70
8
 71
3
 72
8
 73
4
 74
0
 40
0
 40
0
 40
0
 40
0
 40
1
 40
1
 40
1
 40
1
 10
53.392205
 20
64.854164
 30
0.0
 10
53.088482
 20
64.970713
 30
0.0
 10
52.896511
 20
64.566236
 30
0.0
 10
52.545795
 20
63.070793
 30
0.0
  0
SPLINE
  5
2d5
100
AcDbEntity
  8
0
 62
7
100
AcDbSpline
 70
8
 71
3
 72
8
 73
4
 74
0
 40
0
 40
0
 40
0
 40
0
 40
1
 40
1
 40
1
 40
1
 10
52.545795
 20
63.070793
 30
0.0
 10
52.296317
 20
62.007036
 30
0.0
 10
52.038269
 20
60.936770
 30
0.0
 10
51.972353
 20
60.692400
 30
0.0
  0
SPLINE
  5
2d6
100
AcDbEntity
  8
0
 62
7
100
AcDbSpline
 70
8
 71
3
 72
8
 73
4
 74
0
 40
0
 40
0
 40
0
 40
0
 40
1
 40
1
 40
1
 40
1
 10
51.972353
 20
60.692400
 30
0.0
 10
51.864951
 20
60.294255
 30
0.0
 10
52.578466
 20
59.941434
 30
0.0
 10
54.496107
 20
59.444440
 30
0.0
  0
SPLINE
  5
2d7
100
AcDbEntity
  8
0
 62
7
100
AcDbSpline
 70
8
 71
3
 72
8
 73
4
 74
0
 40
0
 40
0
 40
0
 40
0
 40
1
 40
1
 40
1
 40
1
 10
54.496107
 20
59.444440
 30
0.0
 10
54.554567
 20
59.429359
 30
0.0
 10
55.566598
 20
59.975750
 30
0.0
 10
56.745066
 20
60.658772
 30
0.0
  0
LWPOLYLINE
  5
2d8
100
AcDbEntity
  8
0
 62
7
100
AcDbPolyline
 90
3
 70
0
 10
72.257870
 20
123.710647
 30
0.0
 10
72.054993
 20
125.695022
 30
0.0
 10
72.019800
 20
123.124431
 30
0.0
  0
LWPOLYLINE
  5
2d9
100
AcDbEntity
  8
0
 62
7
100
AcDbPolyline
 90
1
 70
1
 10
56.745066
 20
60.658772
 30
0.0
  0
SPLINE
  5
2da
100
AcDbEntity
  8
0
 62
7
100
AcDbSpline
 70
8
 71
3
 72
8
 73
4
 74
0
 40
0
 40
0
 40
0
 40
0
 40
1
 40
1
 40
1
 40
1
 10
49.690467
 20
67.314860
 30
0.0
 10
48.285207
 20
68.582873
 30
0.0
 10
47.907522
 20
69.567406
 30
0.0
 10
47.907522
 20
71.962555
 30
0.0
  0
SPLINE
  5
2db
100
AcDbEntity
  8
0
 62
7
100
AcDbSpline
 70
8
 71
3
 72
8
 73
4
 74
0
 40
0
 40
0
 40
0
 40
0
 40
1
 40
1
 40
1
 40
1
 10
47.907522
 20
71.962555
 30
0.0
 10
47.907522
 20
76.661515
 30
0.0
 10
49.178602
 20
83.519457
 30
0.0
 10
52.668384
 20
97.649189
 30
0.0
  0
SPLINE
  5
2dc
100
AcDbEntity
  8
0
 62
7
100
AcDbSpline
 70
8
 71
3
 72
8
 73
4
 74
0
 40
0
 40
0
 40
0
 40
0
 40
1
 40
1
 40
1
 40
1
 10
52.668384
 20
97.649189
 30
0.0
 10
55.311879
 20
108.352394
 30
0.0
 10
57.217590
 20
115.002249
 30
0.0
 10
59.399210
 20
121.135968
 30
0.0
  0
SPLINE
  5
2dd
100
AcDbEntity
  8
0
 62
7
100
AcDbSpline
 70
8
 71
3
 72
8
 73
4
 74
0
 40
0
 40
0
 40
0
 40
0
 40
1
 40
1
 40
1
 40
1
 10
59.399210
 20
121.135968
 30
0.0
 10
61.697100
 20
127.596593
 30
0.0
 10
62.885627
 20
129.134605
 30
0.0
 10
65.580297
 20
129.134605
 30
0.0
  0
LWPOLYLINE
  5
2de
100
AcDbEntity
  8
0
 62
7
100
AcDbPolyline
 90
5
 70
0
 10
46.061791
 20
60.879778
 30
0.0
 10
49.375433
 20
60.711556
 30
0.0
 10
50.067993
 20
63.530419
 30
0.0
 10
50.760556
 20
66.349285
 30
0.0
 10
49.690467
 20
67.314860
 30
0.0
  0
SPLINE
  5
2df
100
AcDbEntity
  8
0
 62
7
100
AcDbSpline
 70
8
 71
3
 72
8
 73
4
 74
0
 40
0
 40
0
 40
0
 40
0
 40
1
 40
1
 40
1
 40
1
 10
67.350875
 20
130.457522
 30
0.0
 10
67.554200
 20
131.185126
 30
0.0
 10
68.383092
 20
134.366421
 30
0.0
 10
69.192860
 20
137.527067
 30
0.0
  0
LWPOLYLINE
  5
2e0
100
AcDbEntity
  8
0
 62
7
100
AcDbPolyline
 90
3
 70
0
 10
65.580297
 20
129.134605
 30
0.0
 10
66.981197
 20
129.134605
 30
0.0
 10
67.350875
 20
130.457522
 30
0.0
  0
SPLINE
  5
2e1
100
AcDbEntity
  8
0
 62
7
100
AcDbSpline
 70
8
 71
3
 72
8
 73
4
 74
0
 40
0
 40
0
 40
0
 40
0
 40
1
 40
1
 40
1
 40
1
 10
67.265423
 20
175.342661
 30
0.0
 10
66.818047
 20
175.760769
 30
0.0
 10
66.336558
 20
176.309166
 30
0.0
 10
66.195445
 20
176.561319
 30
0.0
  0
SPLINE
  5
2e2
100
AcDbEntity
  8
0
 62
7
100
AcDbSpline
 70
8
 71
3
 72
8
 73
4
 74
0
 40
0
 40
0
 40
0
 40
0
 40
1
 40
1
 40
1
 40
1
 10
66.195445
 20
176.561319
 30
0.0
 10
66.054332
 20
176.813472
 30
0.0
 10
65.886351
 20
176.961242
 30
0.0
 10
65.822150
 20
176.889693
 30
0.0
  0
SPLINE
  5
2e3
100
AcDbEntity
  8
0
 62
7
100
AcDbSpline
 70
8
 71
3
 72
8
 73
4
 74
0
 40
0
 40
0
 40
0
 40
0
 40
1
 40
1
 40
1
 40
1
 10
65.822150
 20
176.889693
 30
0.0
 10
65.566806
 20
176.605123
 30
0.0
 10
61.259320
 20
166.520305
 30
0.0
 10
58.908868
 20
160.704104
 30
0.0
  0
SPLINE
  5
2e4
100
AcDbEntity
  8
0
 62
7
100
AcDbSpline
 70
8
 71
3
 72
8
 73
4
 74
0
 40
0
 40
0
 40
0
 40
0
 40
1
 40
1
 40
1
 40
1
 10
58.908868
 20
160.704104
 30
0.0
 10
53.412099
 20
147.102322
 30
0.0
 10
48.105041
 20
132.566939
 30
0.0
 10
43.525297
 20
118.570359
 30
0.0
  0
LWPOLYLINE
  5
2e5
100
AcDbEntity
  8
0
 62
7
100
AcDbPolyline
 90
5
 70
0
 10
69.192860
 20
137.527067
 30
0.0
 10
70.665165
 20
143.273695
 30
0.0
 10
69.371998
 20
158.928080
 30
0.0
 10
68.078832
 20
174.582463
 30
0.0
 10
67.265423
 20
175.342661
 30
0.0
  0
SPLINE
  5
2e6
100
AcDbEntity
  8
0
 62
7
100
AcDbSpline
 70
8
 71
3
 72
8
 73
4
 74
0
 40
0
 40
0
 40
0
 40
0
 40
1
 40
1
 40
1
 40
1
 10
40.360089
 20
86.139814
 30
0.0
 10
40.003497
 20
72.533616
 30
0.0
 10
39.710323
 20
61.080253
 30
0.0
 10
39.708590
 20
60.687929
 30
0.0
  0
LWPOLYLINE
  5
2e7
100
AcDbEntity
  8
0
 62
7
100
AcDbPolyline
 90
3
 70
0
 10
43.525297
 20
118.570359
 30
0.0
 10
41.008438
 20
110.878355
 30
0.0
 10
40.360089
 20
86.139814
 30
0.0
  0
SPLINE
  5
2e8
100
AcDbEntity
  8
0
 62
7
100
AcDbSpline
 70
8
 71
3
 72
8
 73
4
 74
0
 40
0
 40
0
 40
0
 40
0
 40
1
 40
1
 40
1
 40
1
 10
41.226796
 20
60.511267
 30
0.0
 10
42.568889
 20
60.984739
 30
0.0
 10
43.138598
 20
61.028157
 30
0.0
 10
46.061794
 20
60.879778
 30
0.0
  0
LWPOLYLINE
  5
2e9
100
AcDbEntity
  8
0
 62
7
100
AcDbPolyline
 90
3
 70
0
 10
39.708590
 20
60.687929
 30
0.0
 10
39.705441
 20
59.974559
 30
0.0
 10
41.226796
 20
60.511267
 30
0.0
  0
SPLINE
  5
2ea
100
AcDbEntity
  8
0
 62
7
100
AcDbSpline
 70
8
 71
3
 72
8
 73
4
 74
0
 40
0
 40
0
 40
0
 40
0
 40
1
 40
1
 40
1
 40
1
 10
265.116204
 20
60.976510
 30
0.0
 10
265.944562
 20
62.600231
 30
0.0
 10
267.554710
 20
63.262034
 30
0.0
 10
270.573765
 20
63.219674
 30
0.0
  0
LWPOLYLINE
  5
2eb
100
AcDbEntity
  8
0
 62
7
100
AcDbPolyline
 90
1
 70
1
 10
46.061794
 20
60.879778
 30
0.0
  0
SPLINE
  5
2ec
100
AcDbEntity
  8
0
 62
7
100
AcDbSpline
 70
8
 71
3
 72
8
 73
4
 74
0
 40
0
 40
0
 40
0
 40
0
 40
1
 40
1
 40
1
 40
1
 10
273.446028
 20
66.659257
 30
0.0
 10
273.705426
 20
68.569554
 30
0.0
 10
274.440862
 20
73.521427
 30
0.0
 10
275.080307
 20
77.663418
 30
0.0
  0
SPLINE
  5
2ed
100
AcDbEntity
  8
0
 62
7
100
AcDbSpline
 70
8
 71
3
 72
8
 73
4
 74
0
 40
0
 40
0
 40
0
 40
0
 40
1
 40
1
 40
1
 40
1
 10
275.080307
 20
77.663418
 30
0.0
 10
275.719752
 20
81.805412
 30
0.0
 10
276.242939
 20
85.378155
 30
0.0
 10
276.242939
 20
85.602847
 30
0.0
  0
SPLINE
  5
2ee
100
AcDbEntity
  8
0
 62
7
100
AcDbSpline
 70
8
 71
3
 72
8
 73
4
 74
0
 40
0
 40
0
 40
0
 40
0
 40
1
 40
1
 40
1
 40
1
 10
276.242939
 20
85.602847
 30
0.0
 10
276.242939
 20
85.827537
 30
0.0
 10
275.677392
 20
86.360635
 30
0.0
 10
274.986168
 20
86.787506
 30
0.0
  0
SPLINE
  5
2ef
100
AcDbEntity
  8
0
 62
7
100
AcDbSpline
 70
8
 71
3
 72
8
 73
4
 74
0
 40
0
 40
0
 40
0
 40
0
 40
1
 40
1
 40
1
 40
1
 10
274.986168
 20
86.787506
 30
0.0
 10
272.024105
 20
88.616753
 30
0.0
 10
267.741665
 20
91.171199
 30
0.0
 10
266.955535
 20
91.577729
 30
0.0
  0
LWPOLYLINE
  5
2f0
100
AcDbEntity
  8
0
 62
7
100
AcDbPolyline
 90
3
 70
0
 10
270.573765
 20
63.219674
 30
0.0
 10
272.974382
 20
63.185992
 30
0.0
 10
273.446028
 20
66.659257
 30
0.0
  0
SPLINE
  5
2f1
100
AcDbEntity
  8
0
 62
7
100
AcDbSpline
 70
8
 71
3
 72
8
 73
4
 74
0
 40
0
 40
0
 40
0
 40
0
 40
1
 40
1
 40
1
 40
1
 10
266.271719
 20
88.086539
 30
0.0
 10
266.363503
 20
85.924435
 30
0.0
 10
266.339823
 20
82.784931
 30
0.0
 10
266.219067
 20
81.109865
 30
0.0
  0
SPLINE
  5
2f2
100
AcDbEntity
  8
0
 62
7
100
AcDbSpline
 70
8
 71
3
 72
8
 73
4
 74
0
 40
0
 40
0
 40
0
 40
0
 40
1
 40
1
 40
1
 40
1
 10
266.219067
 20
81.109865
 30
0.0
 10
265.960463
 20
77.522649
 30
0.0
 10
265.505089
 20
76.408629
 30
0.0
 10
263.648666
 20
74.821815
 30
0.0
  0
LWPOLYLINE
  5
2f3
100
AcDbEntity
  8
0
 62
7
100
AcDbPolyline
 90
3
 70
0
 10
266.955535
 20
91.577729
 30
0.0
 10
266.104846
 20
92.017641
 30
0.0
 10
266.271719
 20
88.086539
 30
0.0
  0
SPLINE
  5
2f4
100
AcDbEntity
  8
0
 62
7
100
AcDbSpline
 70
8
 71
3
 72
8
 73
4
 74
0
 40
0
 40
0
 40
0
 40
0
 40
1
 40
1
 40
1
 40
1
 10
263.156832
 20
67.451272
 30
0.0
 10
263.851734
 20
61.549677
 30
0.0
 10
264.129546
 20
59.946064
 30
0.0
 10
264.457048
 20
59.946064
 30
0.0
  0
SPLINE
  5
2f5
100
AcDbEntity
  8
0
 62
7
100
AcDbSpline
 70
8
 71
3
 72
8
 73
4
 74
0
 40
0
 40
0
 40
0
 40
0
 40
1
 40
1
 40
1
 40
1
 10
264.457048
 20
59.946064
 30
0.0
 10
264.530470
 20
59.946064
 30
0.0
 10
264.827068
 20
60.409773
 30
0.0
 10
265.116204
 20
60.976510
 30
0.0
  0
LWPOLYLINE
  5
2f6
100
AcDbEntity
  8
0
 62
7
100
AcDbPolyline
 90
3
 70
0
 10
263.648666
 20
74.821815
 30
0.0
 10
262.413300
 20
73.765854
 30
0.0
 10
263.156832
 20
67.451272
 30
0.0
  0
SPLINE
  5
2f7
100
AcDbEntity
  8
0
 62
7
100
AcDbSpline
 70
8
 71
3
 72
8
 73
4
 74
0
 40
0
 40
0
 40
0
 40
0
 40
1
 40
1
 40
1
 40
1
 10
261.076996
 20
62.525751
 30
0.0
 10
260.992911
 20
63.216975
 30
0.0
 10
260.719411
 20
65.717288
 30
0.0
 10
260.469221
 20
68.082001
 30
0.0
  0
LWPOLYLINE
  5
2f8
100
AcDbEntity
  8
0
 62
7
100
AcDbPolyline
 90
1
 70
1
 10
265.116204
 20
60.976510
 30
0.0
  0
SPLINE
  5
2f9
100
AcDbEntity
  8
0
 62
7
100
AcDbSpline
 70
8
 71
3
 72
8
 73
4
 74
0
 40
0
 40
0
 40
0
 40
0
 40
1
 40
1
 40
1
 40
1
 10
259.053462
 20
72.381480
 30
0.0
 10
257.713401
 20
72.381480
 30
0.0
 10
256.001150
 20
73.549396
 30
0.0
 10
255.368716
 20
74.894847
 30
0.0
  0
SPLINE
  5
2fa
100
AcDbEntity
  8
0
 62
7
100
AcDbSpline
 70
8
 71
3
 72
8
 73
4
 74
0
 40
0
 40
0
 40
0
 40
0
 40
1
 40
1
 40
1
 40
1
 10
255.368716
 20
74.894847
 30
0.0
 10
254.359225
 20
77.042441
 30
0.0
 10
252.253432
 20
88.915616
 30
0.0
 10
251.355331
 20
97.523631
 30
0.0
  0
LWPOLYLINE
  5
2fb
100
AcDbEntity
  8
0
 62
7
100
AcDbPolyline
 90
3
 70
0
 10
260.469221
 20
68.082001
 30
0.0
 10
260.014323
 20
72.381480
 30
0.0
 10
259.053462
 20
72.381480
 30
0.0
  0
SPLINE
  5
2fc
100
AcDbEntity
  8
0
 62
7
100
AcDbSpline
 70
8
 71
3
 72
8
 73
4
 74
0
 40
0
 40
0
 40
0
 40
0
 40
1
 40
1
 40
1
 40
1
 10
244.305905
 20
104.228897
 30
0.0
 10
240.603723
 20
106.239601
 30
0.0
 10
237.498599
 20
107.808681
 30
0.0
 10
237.405677
 20
107.715741
 30
0.0
  0
SPLINE
  5
2fd
100
AcDbEntity
  8
0
 62
7
100
AcDbSpline
 70
8
 71
3
 72
8
 73
4
 74
0
 40
0
 40
0
 40
0
 40
0
 40
1
 40
1
 40
1
 40
1
 10
237.405677
 20
107.715741
 30
0.0
 10
237.312729
 20
107.622800
 30
0.0
 10
237.124187
 20
103.454174
 30
0.0
 10
236.986683
 20
98.452125
 30
0.0
  0
LWPOLYLINE
  5
2fe
100
AcDbEntity
  8
0
 62
7
100
AcDbPolyline
 90
3
 70
0
 10
251.355331
 20
97.523631
 30
0.0
 10
251.037169
 20
100.573070
 30
0.0
 10
244.305905
 20
104.228897
 30
0.0
  0
SPLINE
  5
2ff
100
AcDbEntity
  8
0
 62
7
100
AcDbSpline
 70
8
 71
3
 72
8
 73
4
 74
0
 40
0
 40
0
 40
0
 40
0
 40
1
 40
1
 40
1
 40
1
 10
243.543720
 20
77.628996
 30
0.0
 10
244.379856
 20
74.280805
 30
0.0
 10
245.015570
 20
71.492991
 30
0.0
 10
244.956436
 20
71.433854
 30
0.0
  0
SPLINE
  5
300
100
AcDbEntity
  8
0
 62
7
100
AcDbSpline
 70
8
 71
3
 72
8
 73
4
 74
0
 40
0
 40
0
 40
0
 40
0
 40
1
 40
1
 40
1
 40
1
 10
244.956436
 20
71.433854
 30
0.0
 10
244.897301
 20
71.374717
 30
0.0
 10
243.028338
 20
73.290147
 30
0.0
 10
240.803218
 20
75.690365
 30
0.0
  0
SPLINE
  5
301
100
AcDbEntity
  8
0
 62
7
100
AcDbSpline
 70
8
 71
3
 72
8
 73
4
 74
0
 40
0
 40
0
 40
0
 40
0
 40
1
 40
1
 40
1
 40
1
 10
240.803218
 20
75.690365
 30
0.0
 10
238.578099
 20
78.090583
 30
0.0
 10
236.662013
 20
80.054397
 30
0.0
 10
236.545226
 20
80.054397
 30
0.0
  0
SPLINE
  5
302
100
AcDbEntity
  8
0
 62
7
100
AcDbSpline
 70
8
 71
3
 72
8
 73
4
 74
0
 40
0
 40
0
 40
0
 40
0
 40
1
 40
1
 40
1
 40
1
 10
236.545226
 20
80.054397
 30
0.0
 10
236.379173
 20
80.054397
 30
0.0
 10
236.037252
 20
70.377325
 30
0.0
 10
236.191848
 20
70.052790
 30
0.0
  0
SPLINE
  5
303
100
AcDbEntity
  8
0
 62
7
100
AcDbSpline
 70
8
 71
3
 72
8
 73
4
 74
0
 40
0
 40
0
 40
0
 40
0
 40
1
 40
1
 40
1
 40
1
 10
236.191848
 20
70.052790
 30
0.0
 10
236.243283
 20
69.944821
 30
0.0
 10
260.703563
 20
61.294275
 30
0.0
 10
260.997330
 20
61.280146
 30
0.0
  0
SPLINE
  5
304
100
AcDbEntity
  8
0
 62
7
100
AcDbSpline
 70
8
 71
3
 72
8
 73
4
 74
0
 40
0
 40
0
 40
0
 40
0
 40
1
 40
1
 40
1
 40
1
 10
260.997330
 20
61.280146
 30
0.0
 10
261.125229
 20
61.274060
 30
0.0
 10
261.161080
 20
61.834527
 30
0.0
 10
261.076996
 20
62.525751
 30
0.0
  0
LWPOLYLINE
  5
305
100
AcDbEntity
  8
0
 62
7
100
AcDbPolyline
 90
5
 70
0
 10
236.986683
 20
98.452125
 30
0.0
 10
236.736678
 20
89.357491
 30
0.0
 10
239.380077
 20
86.537054
 30
0.0
 10
242.023503
 20
83.716614
 30
0.0
 10
243.543720
 20
77.628996
 30
0.0
  0
SPLINE
  5
306
100
AcDbEntity
  8
0
 62
7
100
AcDbSpline
 70
8
 71
3
 72
8
 73
4
 74
0
 40
0
 40
0
 40
0
 40
0
 40
1
 40
1
 40
1
 40
1
 10
178.758850
 20
78.070022
 30
0.0
 10
177.813944
 20
86.801272
 30
0.0
 10
176.620726
 20
97.814553
 30
0.0
 10
176.107249
 20
102.543980
 30
0.0
  0
SPLINE
  5
307
100
AcDbEntity
  8
0
 62
7
100
AcDbSpline
 70
8
 71
3
 72
8
 73
4
 74
0
 40
0
 40
0
 40
0
 40
0
 40
1
 40
1
 40
1
 40
1
 10
176.107249
 20
102.543980
 30
0.0
 10
175.593772
 20
107.273407
 30
0.0
 10
175.173323
 20
111.324678
 30
0.0
 10
175.172899
 20
111.546807
 30
0.0
  0
SPLINE
  5
308
100
AcDbEntity
  8
0
 62
7
100
AcDbSpline
 70
8
 71
3
 72
8
 73
4
 74
0
 40
0
 40
0
 40
0
 40
0
 40
1
 40
1
 40
1
 40
1
 10
175.172899
 20
111.546807
 30
0.0
 10
175.172899
 20
111.857340
 30
0.0
 10
174.931044
 20
111.927685
 30
0.0
 10
174.129039
 20
111.851199
 30
0.0
  0
SPLINE
  5
309
100
AcDbEntity
  8
0
 62
7
100
AcDbSpline
 70
8
 71
3
 72
8
 73
4
 74
0
 40
0
 40
0
 40
0
 40
0
 40
1
 40
1
 40
1
 40
1
 10
174.129039
 20
111.851199
 30
0.0
 10
172.701797
 20
111.715090
 30
0.0
 10
170.700991
 20
112.430261
 30
0.0
 10
169.404639
 20
113.539900
 30
0.0
  0
SPLINE
  5
30a
100
AcDbEntity
  8
0
 62
7
100
AcDbSpline
 70
8
 71
3
 72
8
 73
4
 74
0
 40
0
 40
0
 40
0
 40
0
 40
1
 40
1
 40
1
 40
1
 10
169.404639
 20
113.539900
 30
0.0
 10
168.019148
 20
114.725812
 30
0.0
 10
167.105065
 20
116.622682
 30
0.0
 10
166.479643
 20
119.609605
 30
0.0
  0
SPLINE
  5
30b
100
AcDbEntity
  8
0
 62
7
100
AcDbSpline
 70
8
 71
3
 72
8
 73
4
 74
0
 40
0
 40
0
 40
0
 40
0
 40
1
 40
1
 40
1
 40
1
 10
166.479643
 20
119.609605
 30
0.0
 10
166.088669
 20
121.476820
 30
0.0
 10
164.247565
 20
130.621699
 30
0.0
 10
163.654475
 20
133.642288
 30
0.0
  0
SPLINE
  5
30c
100
AcDbEntity
  8
0
 62
7
100
AcDbSpline
 70
8
 71
3
 72
8
 73
4
 74
0
 40
0
 40
0
 40
0
 40
0
 40
1
 40
1
 40
1
 40
1
 10
163.654475
 20
133.642288
 30
0.0
 10
163.553325
 20
134.157453
 30
0.0
 10
163.434474
 20
134.172299
 30
0.0
 10
160.959853
 20
133.978901
 30
0.0
  0
SPLINE
  5
30d
100
AcDbEntity
  8
0
 62
7
100
AcDbSpline
 70
8
 71
3
 72
8
 73
4
 74
0
 40
0
 40
0
 40
0
 40
0
 40
1
 40
1
 40
1
 40
1
 10
160.959853
 20
133.978901
 30
0.0
 10
159.536024
 20
133.867628
 30
0.0
 10
157.171604
 20
133.591279
 30
0.0
 10
155.705598
 20
133.364798
 30
0.0
  0
SPLINE
  5
30e
100
AcDbEntity
  8
0
 62
7
100
AcDbSpline
 70
8
 71
3
 72
8
 73
4
 74
0
 40
0
 40
0
 40
0
 40
0
 40
1
 40
1
 40
1
 40
1
 10
155.705598
 20
133.364798
 30
0.0
 10
153.018551
 20
132.949677
 30
0.0
 10
147.229348
 20
131.574836
 30
0.0
 10
146.936883
 20
131.282371
 30
0.0
  0
SPLINE
  5
30f
100
AcDbEntity
  8
0
 62
7
100
AcDbSpline
 70
8
 71
3
 72
8
 73
4
 74
0
 40
0
 40
0
 40
0
 40
0
 40
1
 40
1
 40
1
 40
1
 10
146.936883
 20
131.282371
 30
0.0
 10
146.790955
 20
131.136443
 30
0.0
 10
146.964146
 20
129.349516
 30
0.0
 10
147.702794
 20
123.379918
 30
0.0
  0
LWPOLYLINE
  5
310
100
AcDbEntity
  8
0
 62
7
100
AcDbPolyline
 90
1
 70
1
 10
261.076996
 20
62.525751
 30
0.0
  0
SPLINE
  5
311
100
AcDbEntity
  8
0
 62
7
100
AcDbSpline
 70
8
 71
3
 72
8
 73
4
 74
0
 40
0
 40
0
 40
0
 40
0
 40
1
 40
1
 40
1
 40
1
 10
149.374164
 20
121.064814
 30
0.0
 10
151.921819
 20
121.064814
 30
0.0
 10
153.060122
 20
119.461611
 30
0.0
 10
154.291961
 20
114.138522
 30
0.0
  0
SPLINE
  5
312
100
AcDbEntity
  8
0
 62
7
100
AcDbSpline
 70
8
 71
3
 72
8
 73
4
 74
0
 40
0
 40
0
 40
0
 40
0
 40
1
 40
1
 40
1
 40
1
 10
154.291961
 20
114.138522
 30
0.0
 10
155.112588
 20
110.592386
 30
0.0
 10
156.726821
 20
101.424523
 30
0.0
 10
157.061509
 20
98.409186
 30
0.0
  0
SPLINE
  5
313
100
AcDbEntity
  8
0
 62
7
100
AcDbSpline
 70
8
 71
3
 72
8
 73
4
 74
0
 40
0
 40
0
 40
0
 40
0
 40
1
 40
1
 40
1
 40
1
 10
157.061509
 20
98.409186
 30
0.0
 10
157.160481
 20
97.517498
 30
0.0
 10
157.317027
 20
96.675474
 30
0.0
 10
157.409385
 20
96.538021
 30
0.0
  0
SPLINE
  5
314
100
AcDbEntity
  8
0
 62
7
100
AcDbSpline
 70
8
 71
3
 72
8
 73
4
 74
0
 40
0
 40
0
 40
0
 40
0
 40
1
 40
1
 40
1
 40
1
 10
157.409385
 20
96.538021
 30
0.0
 10
157.501746
 20
96.400567
 30
0.0
 10
158.470282
 20
95.717873
 30
0.0
 10
159.561689
 20
95.020921
 30
0.0
  0
SPLINE
  5
315
100
AcDbEntity
  8
0
 62
7
100
AcDbSpline
 70
8
 71
3
 72
8
 73
4
 74
0
 40
0
 40
0
 40
0
 40
0
 40
1
 40
1
 40
1
 40
1
 10
159.561689
 20
95.020921
 30
0.0
 10
162.390217
 20
93.214677
 30
0.0
 10
166.686442
 20
88.776551
 30
0.0
 10
169.032581
 20
85.237217
 30
0.0
  0
SPLINE
  5
316
100
AcDbEntity
  8
0
 62
7
100
AcDbSpline
 70
8
 71
3
 72
8
 73
4
 74
0
 40
0
 40
0
 40
0
 40
0
 40
1
 40
1
 40
1
 40
1
 10
169.032581
 20
85.237217
 30
0.0
 10
171.743767
 20
81.147182
 30
0.0
 10
177.081894
 20
70.011861
 30
0.0
 10
179.825015
 20
62.724189
 30
0.0
  0
SPLINE
  5
317
100
AcDbEntity
  8
0
 62
7
100
AcDbSpline
 70
8
 71
3
 72
8
 73
4
 74
0
 40
0
 40
0
 40
0
 40
0
 40
1
 40
1
 40
1
 40
1
 10
179.825015
 20
62.724189
 30
0.0
 10
180.098912
 20
61.996585
 30
0.0
 10
180.357595
 20
61.579866
 30
0.0
 10
180.399928
 20
61.798147
 30
0.0
  0
SPLINE
  5
318
100
AcDbEntity
  8
0
 62
7
100
AcDbSpline
 70
8
 71
3
 72
8
 73
4
 74
0
 40
0
 40
0
 40
0
 40
0
 40
1
 40
1
 40
1
 40
1
 10
180.399928
 20
61.798147
 30
0.0
 10
180.442235
 20
62.016428
 30
0.0
 10
179.703756
 20
69.338772
 30
0.0
 10
178.758850
 20
78.070022
 30
0.0
  0
LWPOLYLINE
  5
319
100
AcDbEntity
  8
0
 62
7
100
AcDbPolyline
 90
3
 70
0
 10
147.702794
 20
123.379918
 30
0.0
 10
147.989253
 20
121.064814
 30
0.0
 10
149.374164
 20
121.064814
 30
0.0
  0
SPLINE
  5
31a
100
AcDbEntity
  8
0
 62
7
100
AcDbSpline
 70
8
 71
3
 72
8
 73
4
 74
0
 40
0
 40
0
 40
0
 40
0
 40
1
 40
1
 40
1
 40
1
 10
24.624188
 20
62.470797
 30
0.0
 10
24.624188
 20
62.886696
 30
0.0
 10
26.355060
 20
70.143219
 30
0.0
 10
28.224128
 20
77.563239
 30
0.0
  0
LWPOLYLINE
  5
31b
100
AcDbEntity
  8
0
 62
7
100
AcDbPolyline
 90
1
 70
1
 10
178.758850
 20
78.070022
 30
0.0
  0
SPLINE
  5
31c
100
AcDbEntity
  8
0
 62
7
100
AcDbSpline
 70
8
 71
3
 72
8
 73
4
 74
0
 40
0
 40
0
 40
0
 40
0
 40
1
 40
1
 40
1
 40
1
 10
28.203118
 20
89.337198
 30
0.0
 10
24.523861
 20
110.306421
 30
0.0
 10
18.223145
 20
138.466743
 30
0.0
 10
13.674761
 20
154.270022
 30
0.0
  0
LWPOLYLINE
  5
31d
100
AcDbEntity
  8
0
 62
7
100
AcDbPolyline
 90
3
 70
0
 10
28.224128
 20
77.563239
 30
0.0
 10
29.429419
 20
82.348126
 30
0.0
 10
28.203118
 20
89.337198
 30
0.0
  0
SPLINE
  5
31e
100
AcDbEntity
  8
0
 62
7
100
AcDbSpline
 70
8
 71
3
 72
8
 73
4
 74
0
 40
0
 40
0
 40
0
 40
0
 40
1
 40
1
 40
1
 40
1
 10
12.739443
 20
113.061168
 30
0.0
 10
12.719891
 20
72.737017
 30
0.0
 10
12.756244
 20
68.677314
 30
0.0
 10
13.136882
 20
68.677314
 30
0.0
  0
SPLINE
  5
31f
100
AcDbEntity
  8
0
 62
7
100
AcDbSpline
 70
8
 71
3
 72
8
 73
4
 74
0
 40
0
 40
0
 40
0
 40
0
 40
1
 40
1
 40
1
 40
1
 10
13.136882
 20
68.677314
 30
0.0
 10
13.940284
 20
68.677314
 30
0.0
 10
17.532564
 20
67.081731
 30
0.0
 10
19.292805
 20
65.943036
 30
0.0
  0
SPLINE
  5
320
100
AcDbEntity
  8
0
 62
7
100
AcDbSpline
 70
8
 71
3
 72
8
 73
4
 74
0
 40
0
 40
0
 40
0
 40
0
 40
1
 40
1
 40
1
 40
1
 10
19.292805
 20
65.943036
 30
0.0
 10
20.268122
 20
65.312105
 30
0.0
 10
21.777382
 20
64.133225
 30
0.0
 10
22.646711
 20
63.323311
 30
0.0
  0
SPLINE
  5
321
100
AcDbEntity
  8
0
 62
7
100
AcDbSpline
 70
8
 71
3
 72
8
 73
4
 74
0
 40
0
 40
0
 40
0
 40
0
 40
1
 40
1
 40
1
 40
1
 10
22.646711
 20
63.323311
 30
0.0
 10
24.186879
 20
61.888370
 30
0.0
 10
24.624185
 20
61.699854
 30
0.0
 10
24.624185
 20
62.470797
 30
0.0
  0
LWPOLYLINE
  5
322
100
AcDbEntity
  8
0
 62
7
100
AcDbPolyline
 90
3
 70
0
 10
13.674761
 20
154.270022
 30
0.0
 10
12.760954
 20
157.445022
 30
0.0
 10
12.739443
 20
113.061168
 30
0.0
  0
SPLINE
  5
323
100
AcDbEntity
  8
0
 62
7
100
AcDbSpline
 70
8
 71
3
 72
8
 73
4
 74
0
 40
0
 40
0
 40
0
 40
0
 40
1
 40
1
 40
1
 40
1
 10
318.885358
 20
71.058564
 30
0.0
 10
319.929140
 20
72.819329
 30
0.0
 10
321.468141
 20
74.177626
 30
0.0
 10
323.230240
 20
74.893273
 30
0.0
  0
LWPOLYLINE
  5
324
100
AcDbEntity
  8
0
 62
7
100
AcDbPolyline
 90
1
 70
1
 10
24.624185
 20
62.470797
 30
0.0
  0
SPLINE
  5
325
100
AcDbEntity
  8
0
 62
7
100
AcDbSpline
 70
8
 71
3
 72
8
 73
4
 74
0
 40
0
 40
0
 40
0
 40
0
 40
1
 40
1
 40
1
 40
1
 10
325.602521
 20
78.674050
 30
0.0
 10
327.760039
 20
87.068120
 30
0.0
 10
330.601108
 20
92.996949
 30
0.0
 10
335.290636
 20
98.891537
 30
0.0
  0
SPLINE
  5
326
100
AcDbEntity
  8
0
 62
7
100
AcDbSpline
 70
8
 71
3
 72
8
 73
4
 74
0
 40
0
 40
0
 40
0
 40
0
 40
1
 40
1
 40
1
 40
1
 10
335.290636
 20
98.891537
 30
0.0
 10
337.001882
 20
101.042523
 30
0.0
 10
337.201960
 20
101.206070
 30
0.0
 10
338.365809
 20
101.405079
 30
0.0
  0
SPLINE
  5
327
100
AcDbEntity
  8
0
 62
7
100
AcDbSpline
 70
8
 71
3
 72
8
 73
4
 74
0
 40
0
 40
0
 40
0
 40
0
 40
1
 40
1
 40
1
 40
1
 10
338.365809
 20
101.405079
 30
0.0
 10
339.050471
 20
101.522152
 30
0.0
 10
340.682210
 20
101.607027
 30
0.0
 10
341.991897
 20
101.593692
 30
0.0
  0
SPLINE
  5
328
100
AcDbEntity
  8
0
 62
7
100
AcDbSpline
 70
8
 71
3
 72
8
 73
4
 74
0
 40
0
 40
0
 40
0
 40
0
 40
1
 40
1
 40
1
 40
1
 10
341.991897
 20
101.593692
 30
0.0
 10
346.867136
 20
101.544051
 30
0.0
 10
351.372779
 20
99.617165
 30
0.0
 10
356.609809
 20
95.342191
 30
0.0
  0
LWPOLYLINE
  5
329
100
AcDbEntity
  8
0
 62
7
100
AcDbPolyline
 90
3
 70
0
 10
323.230240
 20
74.893273
 30
0.0
 10
324.793980
 20
75.528358
 30
0.0
 10
325.602521
 20
78.674050
 30
0.0
  0
SPLINE
  5
32a
100
AcDbEntity
  8
0
 62
7
100
AcDbSpline
 70
8
 71
3
 72
8
 73
4
 74
0
 40
0
 40
0
 40
0
 40
0
 40
1
 40
1
 40
1
 40
1
 10
358.811618
 20
94.522271
 30
0.0
 10
358.967775
 20
94.932389
 30
0.0
 10
359.993221
 20
97.708720
 30
0.0
 10
361.090395
 20
100.691897
 30
0.0
  0
SPLINE
  5
32b
100
AcDbEntity
  8
0
 62
7
100
AcDbSpline
 70
8
 71
3
 72
8
 73
4
 74
0
 40
0
 40
0
 40
0
 40
0
 40
1
 40
1
 40
1
 40
1
 10
361.090395
 20
100.691897
 30
0.0
 10
362.187569
 20
103.675074
 30
0.0
 10
363.189679
 20
106.313817
 30
0.0
 10
363.317287
 20
106.555770
 30
0.0
  0
SPLINE
  5
32c
100
AcDbEntity
  8
0
 62
7
100
AcDbSpline
 70
8
 71
3
 72
8
 73
4
 74
0
 40
0
 40
0
 40
0
 40
0
 40
1
 40
1
 40
1
 40
1
 10
363.317287
 20
106.555770
 30
0.0
 10
363.560095
 20
107.016087
 30
0.0
 10
362.892366
 20
109.046380
 30
0.0
 10
359.502789
 20
118.154397
 30
0.0
  0
SPLINE
  5
32d
100
AcDbEntity
  8
0
 62
7
100
AcDbSpline
 70
8
 71
3
 72
8
 73
4
 74
0
 40
0
 40
0
 40
0
 40
0
 40
1
 40
1
 40
1
 40
1
 10
359.502789
 20
118.154397
 30
0.0
 10
358.555052
 20
120.701012
 30
0.0
 10
355.977746
 20
127.666168
 30
0.0
 10
353.775407
 20
133.632522
 30
0.0
  0
SPLINE
  5
32e
100
AcDbEntity
  8
0
 62
7
100
AcDbSpline
 70
8
 71
3
 72
8
 73
4
 74
0
 40
0
 40
0
 40
0
 40
0
 40
1
 40
1
 40
1
 40
1
 10
353.775407
 20
133.632522
 30
0.0
 10
348.794493
 20
147.126423
 30
0.0
 10
348.943057
 20
146.729397
 30
0.0
 10
348.874609
 20
146.729397
 30
0.0
  0
SPLINE
  5
32f
100
AcDbEntity
  8
0
 62
7
100
AcDbSpline
 70
8
 71
3
 72
8
 73
4
 74
0
 40
0
 40
0
 40
0
 40
0
 40
1
 40
1
 40
1
 40
1
 10
348.874609
 20
146.729397
 30
0.0
 10
348.843335
 20
146.729397
 30
0.0
 10
348.454213
 20
146.602670
 30
0.0
 10
348.009898
 20
146.447780
 30
0.0
  0
SPLINE
  5
330
100
AcDbEntity
  8
0
 62
7
100
AcDbSpline
 70
8
 71
3
 72
8
 73
4
 74
0
 40
0
 40
0
 40
0
 40
0
 40
1
 40
1
 40
1
 40
1
 10
348.009898
 20
146.447780
 30
0.0
 10
345.678310
 20
145.634990
 30
0.0
 10
342.751040
 20
148.089789
 30
0.0
 10
340.223475
 20
152.977419
 30
0.0
  0
SPLINE
  5
331
100
AcDbEntity
  8
0
 62
7
100
AcDbSpline
 70
8
 71
3
 72
8
 73
4
 74
0
 40
0
 40
0
 40
0
 40
0
 40
1
 40
1
 40
1
 40
1
 10
340.223475
 20
152.977419
 30
0.0
 10
338.545488
 20
156.222189
 30
0.0
 10
336.177784
 20
162.120228
 30
0.0
 10
333.492766
 20
169.743990
 30
0.0
  0
LWPOLYLINE
  5
332
100
AcDbEntity
  8
0
 62
7
100
AcDbPolyline
 90
3
 70
0
 10
356.609809
 20
95.342191
 30
0.0
 10
358.527720
 20
93.776604
 30
0.0
 10
358.811618
 20
94.522271
 30
0.0
  0
SPLINE
  5
333
100
AcDbEntity
  8
0
 62
7
100
AcDbSpline
 70
8
 71
3
 72
8
 73
4
 74
0
 40
0
 40
0
 40
0
 40
0
 40
1
 40
1
 40
1
 40
1
 10
331.089900
 20
171.199199
 30
0.0
 10
330.766923
 20
169.164193
 30
0.0
 10
330.217965
 20
165.733420
 30
0.0
 10
329.869985
 20
163.575262
 30
0.0
  0
LWPOLYLINE
  5
334
100
AcDbEntity
  8
0
 62
7
100
AcDbPolyline
 90
3
 70
0
 10
333.492766
 20
169.743990
 30
0.0
 10
331.677142
 20
174.899209
 30
0.0
 10
331.089900
 20
171.199199
 30
0.0
  0
SPLINE
  5
335
100
AcDbEntity
  8
0
 62
7
100
AcDbSpline
 70
8
 71
3
 72
8
 73
4
 74
0
 40
0
 40
0
 40
0
 40
0
 40
1
 40
1
 40
1
 40
1
 10
329.894486
 20
159.401484
 30
0.0
 10
331.126544
 20
158.933049
 30
0.0
 10
332.130982
 20
158.028066
 30
0.0
 10
332.624218
 20
156.942031
 30
0.0
  0
SPLINE
  5
336
100
AcDbEntity
  8
0
 62
7
100
AcDbSpline
 70
8
 71
3
 72
8
 73
4
 74
0
 40
0
 40
0
 40
0
 40
0
 40
1
 40
1
 40
1
 40
1
 10
332.624218
 20
156.942031
 30
0.0
 10
333.028766
 20
156.051237
 30
0.0
 10
333.117772
 20
155.191658
 30
0.0
 10
333.122535
 20
152.129704
 30
0.0
  0
SPLINE
  5
337
100
AcDbEntity
  8
0
 62
7
100
AcDbSpline
 70
8
 71
3
 72
8
 73
4
 74
0
 40
0
 40
0
 40
0
 40
0
 40
1
 40
1
 40
1
 40
1
 10
333.122535
 20
152.129704
 30
0.0
 10
333.130208
 20
147.221596
 30
0.0
 10
332.606676
 20
141.961447
 30
0.0
 10
330.991924
 20
130.722105
 30
0.0
  0
SPLINE
  5
338
100
AcDbEntity
  8
0
 62
7
100
AcDbSpline
 70
8
 71
3
 72
8
 73
4
 74
0
 40
0
 40
0
 40
0
 40
0
 40
1
 40
1
 40
1
 40
1
 10
330.991924
 20
130.722105
 30
0.0
 10
327.262702
 20
104.765150
 30
0.0
 10
325.706290
 20
96.167302
 30
0.0
 10
324.318551
 20
93.857167
 30
0.0
  0
SPLINE
  5
339
100
AcDbEntity
  8
0
 62
7
100
AcDbSpline
 70
8
 71
3
 72
8
 73
4
 74
0
 40
0
 40
0
 40
0
 40
0
 40
1
 40
1
 40
1
 40
1
 10
324.318551
 20
93.857167
 30
0.0
 10
323.292629
 20
92.149369
 30
0.0
 10
321.742620
 20
90.558546
 30
0.0
 10
320.238094
 20
89.669310
 30
0.0
  0
SPLINE
  5
33a
100
AcDbEntity
  8
0
 62
7
100
AcDbSpline
 70
8
 71
3
 72
8
 73
4
 74
0
 40
0
 40
0
 40
0
 40
0
 40
1
 40
1
 40
1
 40
1
 10
320.238094
 20
89.669310
 30
0.0
 10
319.391665
 20
89.169044
 30
0.0
 10
319.088029
 20
88.806544
 30
0.0
 10
318.982143
 20
88.169983
 30
0.0
  0
SPLINE
  5
33b
100
AcDbEntity
  8
0
 62
7
100
AcDbSpline
 70
8
 71
3
 72
8
 73
4
 74
0
 40
0
 40
0
 40
0
 40
0
 40
1
 40
1
 40
1
 40
1
 10
318.982143
 20
88.169983
 30
0.0
 10
318.773784
 20
86.917321
 30
0.0
 10
315.928851
 20
64.824734
 30
0.0
 10
315.940387
 20
64.549134
 30
0.0
  0
SPLINE
  5
33c
100
AcDbEntity
  8
0
 62
7
100
AcDbSpline
 70
8
 71
3
 72
8
 73
4
 74
0
 40
0
 40
0
 40
0
 40
0
 40
1
 40
1
 40
1
 40
1
 10
315.940387
 20
64.549134
 30
0.0
 10
315.945943
 20
64.418538
 30
0.0
 10
316.451906
 20
65.561845
 30
0.0
 10
317.064946
 20
67.089814
 30
0.0
  0
SPLINE
  5
33d
100
AcDbEntity
  8
0
 62
7
100
AcDbSpline
 70
8
 71
3
 72
8
 73
4
 74
0
 40
0
 40
0
 40
0
 40
0
 40
1
 40
1
 40
1
 40
1
 10
317.064946
 20
67.089814
 30
0.0
 10
317.677959
 20
68.617782
 30
0.0
 10
318.497162
 20
70.403720
 30
0.0
 10
318.885358
 20
71.058564
 30
0.0
  0
LWPOLYLINE
  5
33e
100
AcDbEntity
  8
0
 62
7
100
AcDbPolyline
 90
3
 70
0
 10
329.869985
 20
163.575262
 30
0.0
 10
329.237314
 20
159.651335
 30
0.0
 10
329.894486
 20
159.401484
 30
0.0
  0
LWPOLYLINE
  5
33f
100
AcDbEntity
  8
0
 62
7
100
AcDbPolyline
 90
1
 70
1
 10
318.885358
 20
71.058564
 30
0.0
  0
SPLINE
  5
340
100
AcDbEntity
  8
0
 62
7
100
AcDbSpline
 70
8
 71
3
 72
8
 73
4
 74
0
 40
0
 40
0
 40
0
 40
0
 40
1
 40
1
 40
1
 40
1
 10
76.592221
 20
71.570678
 30
0.0
 10
76.491187
 20
73.108026
 30
0.0
 10
76.335877
 20
74.557578
 30
0.0
 10
76.247085
 20
74.791909
 30
0.0
  0
SPLINE
  5
341
100
AcDbEntity
  8
0
 62
7
100
AcDbSpline
 70
8
 71
3
 72
8
 73
4
 74
0
 40
0
 40
0
 40
0
 40
0
 40
1
 40
1
 40
1
 40
1
 10
76.247085
 20
74.791909
 30
0.0
 10
76.133476
 20
75.091734
 30
0.0
 10
75.281105
 20
74.044310
 30
0.0
 10
73.370033
 20
71.256475
 30
0.0
  0
SPLINE
  5
342
100
AcDbEntity
  8
0
 62
7
100
AcDbSpline
 70
8
 71
3
 72
8
 73
4
 74
0
 40
0
 40
0
 40
0
 40
0
 40
1
 40
1
 40
1
 40
1
 10
73.370033
 20
71.256475
 30
0.0
 10
71.876444
 20
69.077660
 30
0.0
 10
70.864413
 20
67.379072
 30
0.0
 10
71.121074
 20
67.481839
 30
0.0
  0
SPLINE
  5
343
100
AcDbEntity
  8
0
 62
7
100
AcDbSpline
 70
8
 71
3
 72
8
 73
4
 74
0
 40
0
 40
0
 40
0
 40
0
 40
1
 40
1
 40
1
 40
1
 10
71.121074
 20
67.481839
 30
0.0
 10
71.377736
 20
67.584606
 30
0.0
 10
72.755072
 20
67.917721
 30
0.0
 10
74.181824
 20
68.222095
 30
0.0
  0
LWPOLYLINE
  5
344
100
AcDbEntity
  8
0
 62
7
100
AcDbPolyline
 90
3
 70
0
 10
74.181824
 20
68.222095
 30
0.0
 10
76.775921
 20
68.775501
 30
0.0
 10
76.592221
 20
71.570678
 30
0.0
  0
SPLINE
  5
345
100
AcDbEntity
  8
0
 62
7
100
AcDbSpline
 70
8
 71
3
 72
8
 73
4
 74
0
 40
0
 40
0
 40
0
 40
0
 40
1
 40
1
 40
1
 40
1
 10
350.061689
 20
68.041914
 30
0.0
 10
350.061689
 20
68.349955
 30
0.0
 10
357.399008
 20
90.652124
 30
0.0
 10
357.899176
 20
91.864426
 30
0.0
  0
SPLINE
  5
346
100
AcDbEntity
  8
0
 62
7
100
AcDbSpline
 70
8
 71
3
 72
8
 73
4
 74
0
 40
0
 40
0
 40
0
 40
0
 40
1
 40
1
 40
1
 40
1
 10
357.899176
 20
91.864426
 30
0.0
 10
358.058191
 20
92.249818
 30
0.0
 10
354.938727
 20
94.598167
 30
0.0
 10
352.707522
 20
95.772729
 30
0.0
  0
SPLINE
  5
347
100
AcDbEntity
  8
0
 62
7
100
AcDbSpline
 70
8
 71
3
 72
8
 73
4
 74
0
 40
0
 40
0
 40
0
 40
0
 40
1
 40
1
 40
1
 40
1
 10
352.707522
 20
95.772729
 30
0.0
 10
349.019601
 20
97.714141
 30
0.0
 10
345.535091
 20
97.980108
 30
0.0
 10
342.052778
 20
96.585995
 30
0.0
  0
SPLINE
  5
348
100
AcDbEntity
  8
0
 62
7
100
AcDbSpline
 70
8
 71
3
 72
8
 73
4
 74
0
 40
0
 40
0
 40
0
 40
0
 40
1
 40
1
 40
1
 40
1
 10
342.052778
 20
96.585995
 30
0.0
 10
340.780714
 20
96.076744
 30
0.0
 10
339.989054
 20
95.551752
 30
0.0
 10
339.321378
 20
94.774671
 30
0.0
  0
SPLINE
  5
349
100
AcDbEntity
  8
0
 62
7
100
AcDbSpline
 70
8
 71
3
 72
8
 73
4
 74
0
 40
0
 40
0
 40
0
 40
0
 40
1
 40
1
 40
1
 40
1
 10
339.321378
 20
94.774671
 30
0.0
 10
337.608466
 20
92.781046
 30
0.0
 10
334.563535
 20
87.330283
 30
0.0
 10
332.724125
 20
82.964814
 30
0.0
  0
SPLINE
  5
34a
100
AcDbEntity
  8
0
 62
7
100
AcDbSpline
 70
8
 71
3
 72
8
 73
4
 74
0
 40
0
 40
0
 40
0
 40
0
 40
1
 40
1
 40
1
 40
1
 10
332.724125
 20
82.964814
 30
0.0
 10
332.118732
 20
81.528089
 30
0.0
 10
330.482522
 20
76.958153
 30
0.0
 10
330.482522
 20
76.704087
 30
0.0
  0
SPLINE
  5
34b
100
AcDbEntity
  8
0
 62
7
100
AcDbSpline
 70
8
 71
3
 72
8
 73
4
 74
0
 40
0
 40
0
 40
0
 40
0
 40
1
 40
1
 40
1
 40
1
 10
330.482522
 20
76.704087
 30
0.0
 10
330.482522
 20
76.662264
 30
0.0
 10
330.829999
 20
76.697552
 30
0.0
 10
331.254682
 20
76.782475
 30
0.0
  0
SPLINE
  5
34c
100
AcDbEntity
  8
0
 62
7
100
AcDbSpline
 70
8
 71
3
 72
8
 73
4
 74
0
 40
0
 40
0
 40
0
 40
0
 40
1
 40
1
 40
1
 40
1
 10
331.254682
 20
76.782475
 30
0.0
 10
333.482606
 20
77.228060
 30
0.0
 10
342.207109
 20
73.098425
 30
0.0
 10
347.415855
 20
69.132778
 30
0.0
  0
SPLINE
  5
34d
100
AcDbEntity
  8
0
 62
7
100
AcDbSpline
 70
8
 71
3
 72
8
 73
4
 74
0
 40
0
 40
0
 40
0
 40
0
 40
1
 40
1
 40
1
 40
1
 10
347.415855
 20
69.132778
 30
0.0
 10
349.631423
 20
67.445964
 30
0.0
 10
350.061689
 20
67.268572
 30
0.0
 10
350.061689
 20
68.041914
 30
0.0
  0
LWPOLYLINE
  5
34e
100
AcDbEntity
  8
0
 62
7
100
AcDbPolyline
 90
1
 70
1
 10
74.181824
 20
68.222095
 30
0.0
  0
SPLINE
  5
34f
100
AcDbEntity
  8
0
 62
7
100
AcDbSpline
 70
8
 71
3
 72
8
 73
4
 74
0
 40
0
 40
0
 40
0
 40
0
 40
1
 40
1
 40
1
 40
1
 10
93.831413
 20
71.779863
 30
0.0
 10
94.694261
 20
73.922826
 30
0.0
 10
95.444628
 20
75.798061
 30
0.0
 10
95.498891
 20
75.947050
 30
0.0
  0
SPLINE
  5
350
100
AcDbEntity
  8
0
 62
7
100
AcDbSpline
 70
8
 71
3
 72
8
 73
4
 74
0
 40
0
 40
0
 40
0
 40
0
 40
1
 40
1
 40
1
 40
1
 10
95.498891
 20
75.947050
 30
0.0
 10
95.553154
 20
76.096040
 30
0.0
 10
95.076904
 20
75.717559
 30
0.0
 10
94.440558
 20
75.105985
 30
0.0
  0
SPLINE
  5
351
100
AcDbEntity
  8
0
 62
7
100
AcDbSpline
 70
8
 71
3
 72
8
 73
4
 74
0
 40
0
 40
0
 40
0
 40
0
 40
1
 40
1
 40
1
 40
1
 10
94.440558
 20
75.105985
 30
0.0
 10
93.276359
 20
73.987104
 30
0.0
 10
91.749306
 20
73.175230
 30
0.0
 10
90.809006
 20
73.175230
 30
0.0
  0
SPLINE
  5
352
100
AcDbEntity
  8
0
 62
7
100
AcDbSpline
 70
8
 71
3
 72
8
 73
4
 74
0
 40
0
 40
0
 40
0
 40
0
 40
1
 40
1
 40
1
 40
1
 10
90.809006
 20
73.175230
 30
0.0
 10
90.387731
 20
73.175230
 30
0.0
 10
90.272947
 20
72.917555
 30
0.0
 10
90.131315
 20
71.653876
 30
0.0
  0
SPLINE
  5
353
100
AcDbEntity
  8
0
 62
7
100
AcDbSpline
 70
8
 71
3
 72
8
 73
4
 74
0
 40
0
 40
0
 40
0
 40
0
 40
1
 40
1
 40
1
 40
1
 10
90.131315
 20
71.653876
 30
0.0
 10
90.037531
 20
70.817131
 30
0.0
 10
89.895767
 20
69.694814
 30
0.0
 10
89.816284
 20
69.159834
 30
0.0
  0
SPLINE
  5
354
100
AcDbEntity
  8
0
 62
7
100
AcDbSpline
 70
8
 71
3
 72
8
 73
4
 74
0
 40
0
 40
0
 40
0
 40
0
 40
1
 40
1
 40
1
 40
1
 10
89.816284
 20
69.159834
 30
0.0
 10
89.681473
 20
68.252493
 30
0.0
 10
89.721986
 20
68.179614
 30
0.0
 10
90.419330
 20
68.074998
 30
0.0
  0
SPLINE
  5
355
100
AcDbEntity
  8
0
 62
7
100
AcDbSpline
 70
8
 71
3
 72
8
 73
4
 74
0
 40
0
 40
0
 40
0
 40
0
 40
1
 40
1
 40
1
 40
1
 10
90.419330
 20
68.074998
 30
0.0
 10
92.324783
 20
67.789145
 30
0.0
 10
92.146736
 20
67.595821
 30
0.0
 10
93.831413
 20
71.779863
 30
0.0
  0
LWPOLYLINE
  5
356
100
AcDbEntity
  8
0
 62
7
100
AcDbPolyline
 90
1
 70
1
 10
350.061689
 20
68.041914
 30
0.0
  0
SPLINE
  5
357
100
AcDbEntity
  8
0
 62
7
100
AcDbSpline
 70
8
 71
3
 72
8
 73
4
 74
0
 40
0
 40
0
 40
0
 40
0
 40
1
 40
1
 40
1
 40
1
 10
83.195194
 20
71.866794
 30
0.0
 10
83.330637
 20
74.096827
 30
0.0
 10
83.282380
 20
75.058135
 30
0.0
 10
82.992063
 20
75.913242
 30
0.0
  0
SPLINE
  5
358
100
AcDbEntity
  8
0
 62
7
100
AcDbSpline
 70
8
 71
3
 72
8
 73
4
 74
0
 40
0
 40
0
 40
0
 40
0
 40
1
 40
1
 40
1
 40
1
 10
82.992063
 20
75.913242
 30
0.0
 10
82.545507
 20
77.228541
 30
0.0
 10
82.038772
 20
80.643775
 30
0.0
 10
82.038772
 20
82.338116
 30
0.0
  0
SPLINE
  5
359
100
AcDbEntity
  8
0
 62
7
100
AcDbSpline
 70
8
 71
3
 72
8
 73
4
 74
0
 40
0
 40
0
 40
0
 40
0
 40
1
 40
1
 40
1
 40
1
 10
82.038772
 20
82.338116
 30
0.0
 10
82.038772
 20
82.991018
 30
0.0
 10
81.940252
 20
83.464321
 30
0.0
 10
81.819835
 20
83.389901
 30
0.0
  0
SPLINE
  5
35a
100
AcDbEntity
  8
0
 62
7
100
AcDbSpline
 70
8
 71
3
 72
8
 73
4
 74
0
 40
0
 40
0
 40
0
 40
0
 40
1
 40
1
 40
1
 40
1
 10
81.819835
 20
83.389901
 30
0.0
 10
81.699420
 20
83.315479
 30
0.0
 10
80.792069
 20
82.070273
 30
0.0
 10
79.803495
 20
80.622772
 30
0.0
  0
LWPOLYLINE
  5
35b
100
AcDbEntity
  8
0
 62
7
100
AcDbPolyline
 90
1
 70
1
 10
93.831413
 20
71.779863
 30
0.0
  0
SPLINE
  5
35c
100
AcDbEntity
  8
0
 62
7
100
AcDbSpline
 70
8
 71
3
 72
8
 73
4
 74
0
 40
0
 40
0
 40
0
 40
0
 40
1
 40
1
 40
1
 40
1
 10
86.719074
 20
72.315335
 30
0.0
 10
86.652523
 20
72.569996
 30
0.0
 10
86.598072
 20
72.361637
 30
0.0
 10
86.598072
 20
71.852314
 30
0.0
  0
SPLINE
  5
35d
100
AcDbEntity
  8
0
 62
7
100
AcDbSpline
 70
8
 71
3
 72
8
 73
4
 74
0
 40
0
 40
0
 40
0
 40
0
 40
1
 40
1
 40
1
 40
1
 10
86.598072
 20
71.852314
 30
0.0
 10
86.598072
 20
71.342991
 30
0.0
 10
86.652523
 20
71.134631
 30
0.0
 10
86.719074
 20
71.389293
 30
0.0
  0
SPLINE
  5
35e
100
AcDbEntity
  8
0
 62
7
100
AcDbSpline
 70
8
 71
3
 72
8
 73
4
 74
0
 40
0
 40
0
 40
0
 40
0
 40
1
 40
1
 40
1
 40
1
 10
86.719074
 20
71.389293
 30
0.0
 10
86.785622
 20
71.643954
 30
0.0
 10
86.785622
 20
72.060673
 30
0.0
 10
86.719074
 20
72.315335
 30
0.0
  0
LWPOLYLINE
  5
35f
100
AcDbEntity
  8
0
 62
7
100
AcDbPolyline
 90
7
 70
0
 10
79.803495
 20
80.622772
 30
0.0
 10
78.006091
 20
77.990957
 30
0.0
 10
78.347977
 20
73.466426
 30
0.0
 10
78.689864
 20
68.941897
 30
0.0
 10
80.853706
 20
68.941897
 30
0.0
 10
83.017551
 20
68.941897
 30
0.0
 10
83.195194
 20
71.866794
 30
0.0
  0
SPLINE
  5
360
100
AcDbEntity
  8
0
 62
7
100
AcDbSpline
 70
8
 71
3
 72
8
 73
4
 74
0
 40
0
 40
0
 40
0
 40
0
 40
1
 40
1
 40
1
 40
1
 10
370.091414
 20
88.839331
 30
0.0
 10
367.449470
 20
96.214078
 30
0.0
 10
365.251683
 20
102.211762
 30
0.0
 10
365.207444
 20
102.167513
 30
0.0
  0
SPLINE
  5
361
100
AcDbEntity
  8
0
 62
7
100
AcDbSpline
 70
8
 71
3
 72
8
 73
4
 74
0
 40
0
 40
0
 40
0
 40
0
 40
1
 40
1
 40
1
 40
1
 10
365.207444
 20
102.167513
 30
0.0
 10
365.163206
 20
102.123264
 30
0.0
 10
364.237482
 20
99.671084
 30
0.0
 10
363.150282
 20
96.718221
 30
0.0
  0
LWPOLYLINE
  5
362
100
AcDbEntity
  8
0
 62
7
100
AcDbPolyline
 90
1
 70
1
 10
86.719074
 20
72.315335
 30
0.0
  0
SPLINE
  5
363
100
AcDbEntity
  8
0
 62
7
100
AcDbSpline
 70
8
 71
3
 72
8
 73
4
 74
0
 40
0
 40
0
 40
0
 40
0
 40
1
 40
1
 40
1
 40
1
 10
364.826021
 20
87.620118
 30
0.0
 10
368.524790
 20
83.843551
 30
0.0
 10
371.872272
 20
79.834240
 30
0.0
 10
373.756952
 20
76.923466
 30
0.0
  0
SPLINE
  5
364
100
AcDbEntity
  8
0
 62
7
100
AcDbSpline
 70
8
 71
3
 72
8
 73
4
 74
0
 40
0
 40
0
 40
0
 40
0
 40
1
 40
1
 40
1
 40
1
 10
373.756952
 20
76.923466
 30
0.0
 10
374.325621
 20
76.045211
 30
0.0
 10
374.814280
 20
75.350053
 30
0.0
 10
374.842908
 20
75.378670
 30
0.0
  0
SPLINE
  5
365
100
AcDbEntity
  8
0
 62
7
100
AcDbSpline
 70
8
 71
3
 72
8
 73
4
 74
0
 40
0
 40
0
 40
0
 40
0
 40
1
 40
1
 40
1
 40
1
 10
374.842908
 20
75.378670
 30
0.0
 10
374.871509
 20
75.407285
 30
0.0
 10
372.733358
 20
81.464581
 30
0.0
 10
370.091414
 20
88.839331
 30
0.0
  0
LWPOLYLINE
  5
366
100
AcDbEntity
  8
0
 62
7
100
AcDbPolyline
 90
3
 70
0
 10
363.150282
 20
96.718221
 30
0.0
 10
361.173580
 20
91.349380
 30
0.0
 10
364.826021
 20
87.620118
 30
0.0
  0
SPLINE
  5
367
100
AcDbEntity
  8
0
 62
7
100
AcDbSpline
 70
8
 71
3
 72
8
 73
4
 74
0
 40
0
 40
0
 40
0
 40
0
 40
1
 40
1
 40
1
 40
1
 10
104.787594
 20
94.209605
 30
0.0
 10
107.426347
 20
98.640662
 30
0.0
 10
111.659395
 20
105.015564
 30
0.0
 10
113.973946
 20
108.044102
 30
0.0
  0
LWPOLYLINE
  5
368
100
AcDbEntity
  8
0
 62
7
100
AcDbPolyline
 90
1
 70
1
 10
370.091414
 20
88.839331
 30
0.0
  0
SPLINE
  5
369
100
AcDbEntity
  8
0
 62
7
100
AcDbSpline
 70
8
 71
3
 72
8
 73
4
 74
0
 40
0
 40
0
 40
0
 40
0
 40
1
 40
1
 40
1
 40
1
 10
114.624511
 20
120.535647
 30
0.0
 10
113.532364
 20
120.535647
 30
0.0
 10
111.675788
 20
121.593478
 30
0.0
 10
110.908195
 20
122.653110
 30
0.0
  0
LWPOLYLINE
  5
36a
100
AcDbEntity
  8
0
 62
7
100
AcDbPolyline
 90
5
 70
0
 10
113.973946
 20
108.044102
 30
0.0
 10
115.649812
 20
110.236934
 30
0.0
 10
115.471496
 20
115.386289
 30
0.0
 10
115.293177
 20
120.535647
 30
0.0
 10
114.624511
 20
120.535647
 30
0.0
  0
SPLINE
  5
36b
100
AcDbEntity
  8
0
 62
7
100
AcDbSpline
 70
8
 71
3
 72
8
 73
4
 74
0
 40
0
 40
0
 40
0
 40
0
 40
1
 40
1
 40
1
 40
1
 10
105.971033
 20
117.730101
 30
0.0
 10
101.111627
 20
110.923721
 30
0.0
 10
101.717549
 20
112.743274
 30
0.0
 10
100.825861
 20
102.279397
 30
0.0
  0
SPLINE
  5
36c
100
AcDbEntity
  8
0
 62
7
100
AcDbSpline
 70
8
 71
3
 72
8
 73
4
 74
0
 40
0
 40
0
 40
0
 40
0
 40
1
 40
1
 40
1
 40
1
 10
100.825861
 20
102.279397
 30
0.0
 10
99.833441
 20
90.633426
 30
0.0
 10
98.799388
 20
84.535407
 30
0.0
 10
96.989829
 20
79.657522
 30
0.0
  0
SPLINE
  5
36d
100
AcDbEntity
  8
0
 62
7
100
AcDbSpline
 70
8
 71
3
 72
8
 73
4
 74
0
 40
0
 40
0
 40
0
 40
0
 40
1
 40
1
 40
1
 40
1
 10
96.989829
 20
79.657522
 30
0.0
 10
96.881860
 20
79.366480
 30
0.0
 10
98.095866
 20
81.688199
 30
0.0
 10
99.687618
 20
84.816897
 30
0.0
  0
SPLINE
  5
36e
100
AcDbEntity
  8
0
 62
7
100
AcDbSpline
 70
8
 71
3
 72
8
 73
4
 74
0
 40
0
 40
0
 40
0
 40
0
 40
1
 40
1
 40
1
 40
1
 10
99.687618
 20
84.816897
 30
0.0
 10
101.279373
 20
87.945595
 30
0.0
 10
103.574361
 20
92.172314
 30
0.0
 10
104.787594
 20
94.209605
 30
0.0
  0
LWPOLYLINE
  5
36f
100
AcDbEntity
  8
0
 62
7
100
AcDbPolyline
 90
3
 70
0
 10
110.908195
 20
122.653110
 30
0.0
 10
110.191836
 20
123.642014
 30
0.0
 10
105.971033
 20
117.730101
 30
0.0
  0
LWPOLYLINE
  5
370
100
AcDbEntity
  8
0
 62
7
100
AcDbPolyline
 90
1
 70
1
 10
104.787594
 20
94.209605
 30
0.0
  0
SPLINE
  5
371
100
AcDbEntity
  8
0
 62
7
100
AcDbSpline
 70
8
 71
3
 72
8
 73
4
 74
0
 40
0
 40
0
 40
0
 40
0
 40
1
 40
1
 40
1
 40
1
 10
82.686700
 20
93.777131
 30
0.0
 10
82.789429
 20
95.179158
 30
0.0
 10
83.042493
 20
97.755022
 30
0.0
 10
83.249064
 20
99.501272
 30
0.0
  0
SPLINE
  5
372
100
AcDbEntity
  8
0
 62
7
100
AcDbSpline
 70
8
 71
3
 72
8
 73
4
 74
0
 40
0
 40
0
 40
0
 40
0
 40
1
 40
1
 40
1
 40
1
 10
83.249064
 20
99.501272
 30
0.0
 10
83.496737
 20
101.594978
 30
0.0
 10
83.714627
 20
108.172853
 30
0.0
 10
83.888850
 20
118.815855
 30
0.0
  0
SPLINE
  5
373
100
AcDbEntity
  8
0
 62
7
100
AcDbSpline
 70
8
 71
3
 72
8
 73
4
 74
0
 40
0
 40
0
 40
0
 40
0
 40
1
 40
1
 40
1
 40
1
 10
83.888850
 20
118.815855
 30
0.0
 10
84.429928
 20
151.869135
 30
0.0
 10
84.686129
 20
165.797376
 30
0.0
 10
84.852923
 20
171.226980
 30
0.0
  0
LWPOLYLINE
  5
374
100
AcDbEntity
  8
0
 62
7
100
AcDbPolyline
 90
3
 70
0
 10
80.199418
 20
87.892789
 30
0.0
 10
82.499922
 20
91.227989
 30
0.0
 10
82.686700
 20
93.777131
 30
0.0
  0
SPLINE
  5
375
100
AcDbEntity
  8
0
 62
7
100
AcDbSpline
 70
8
 71
3
 72
8
 73
4
 74
0
 40
0
 40
0
 40
0
 40
0
 40
1
 40
1
 40
1
 40
1
 10
83.288902
 20
177.618962
 30
0.0
 10
80.624910
 20
178.865594
 30
0.0
 10
80.606778
 20
178.917600
 30
0.0
 10
80.793040
 20
184.777877
 30
0.0
  0
SPLINE
  5
376
100
AcDbEntity
  8
0
 62
7
100
AcDbSpline
 70
8
 71
3
 72
8
 73
4
 74
0
 40
0
 40
0
 40
0
 40
0
 40
1
 40
1
 40
1
 40
1
 10
80.793040
 20
184.777877
 30
0.0
 10
80.969371
 20
190.325785
 30
0.0
 10
81.589758
 20
195.558611
 30
0.0
 10
82.941951
 20
202.903516
 30
0.0
  0
SPLINE
  5
377
100
AcDbEntity
  8
0
 62
7
100
AcDbSpline
 70
8
 71
3
 72
8
 73
4
 74
0
 40
0
 40
0
 40
0
 40
0
 40
1
 40
1
 40
1
 40
1
 10
82.941951
 20
202.903516
 30
0.0
 10
83.975586
 20
208.518051
 30
0.0
 10
84.734704
 20
211.005330
 30
0.0
 10
86.347705
 20
214.062601
 30
0.0
  0
SPLINE
  5
378
100
AcDbEntity
  8
0
 62
7
100
AcDbSpline
 70
8
 71
3
 72
8
 73
4
 74
0
 40
0
 40
0
 40
0
 40
0
 40
1
 40
1
 40
1
 40
1
 10
86.347705
 20
214.062601
 30
0.0
 10
87.584031
 20
216.405926
 30
0.0
 10
88.694249
 20
217.373147
 30
0.0
 10
90.147690
 20
217.373147
 30
0.0
  0
SPLINE
  5
379
100
AcDbEntity
  8
0
 62
7
100
AcDbSpline
 70
8
 71
3
 72
8
 73
4
 74
0
 40
0
 40
0
 40
0
 40
0
 40
1
 40
1
 40
1
 40
1
 10
90.147690
 20
217.373147
 30
0.0
 10
90.635495
 20
217.373147
 30
0.0
 10
91.034605
 20
217.408101
 30
0.0
 10
91.034605
 20
217.450823
 30
0.0
  0
SPLINE
  5
37a
100
AcDbEntity
  8
0
 62
7
100
AcDbSpline
 70
8
 71
3
 72
8
 73
4
 74
0
 40
0
 40
0
 40
0
 40
0
 40
1
 40
1
 40
1
 40
1
 10
91.034605
 20
217.450823
 30
0.0
 10
91.034605
 20
217.493546
 30
0.0
 10
91.808512
 20
221.387654
 30
0.0
 10
92.754397
 20
226.104396
 30
0.0
  0
SPLINE
  5
37b
100
AcDbEntity
  8
0
 62
7
100
AcDbSpline
 70
8
 71
3
 72
8
 73
4
 74
0
 40
0
 40
0
 40
0
 40
0
 40
1
 40
1
 40
1
 40
1
 10
92.754397
 20
226.104396
 30
0.0
 10
93.700283
 20
230.821139
 30
0.0
 10
94.474189
 20
234.715248
 30
0.0
 10
94.474189
 20
234.757970
 30
0.0
  0
SPLINE
  5
37c
100
AcDbEntity
  8
0
 62
7
100
AcDbSpline
 70
8
 71
3
 72
8
 73
4
 74
0
 40
0
 40
0
 40
0
 40
0
 40
1
 40
1
 40
1
 40
1
 10
94.474189
 20
234.757970
 30
0.0
 10
94.474189
 20
234.800692
 30
0.0
 10
87.806689
 20
234.835646
 30
0.0
 10
79.657522
 20
234.835646
 30
0.0
  0
SPLINE
  5
37d
100
AcDbEntity
  8
0
 62
7
100
AcDbSpline
 70
8
 71
3
 72
8
 73
4
 74
0
 40
0
 40
0
 40
0
 40
0
 40
1
 40
1
 40
1
 40
1
 10
79.657522
 20
234.835646
 30
0.0
 10
66.196737
 20
234.835646
 30
0.0
 10
64.840855
 20
234.796557
 30
0.0
 10
64.840855
 20
234.408492
 30
0.0
  0
SPLINE
  5
37e
100
AcDbEntity
  8
0
 62
7
100
AcDbSpline
 70
8
 71
3
 72
8
 73
4
 74
0
 40
0
 40
0
 40
0
 40
0
 40
1
 40
1
 40
1
 40
1
 10
64.840855
 20
234.408492
 30
0.0
 10
64.840855
 20
233.920405
 30
0.0
 10
66.603314
 20
217.282033
 30
0.0
 10
66.831834
 20
215.612787
 30
0.0
  0
SPLINE
  5
37f
100
AcDbEntity
  8
0
 62
7
100
AcDbSpline
 70
8
 71
3
 72
8
 73
4
 74
0
 40
0
 40
0
 40
0
 40
0
 40
1
 40
1
 40
1
 40
1
 10
66.831834
 20
215.612787
 30
0.0
 10
66.954392
 20
214.717561
 30
0.0
 10
67.106146
 20
214.482794
 30
0.0
 10
67.650601
 20
214.346144
 30
0.0
  0
SPLINE
  5
380
100
AcDbEntity
  8
0
 62
7
100
AcDbSpline
 70
8
 71
3
 72
8
 73
4
 74
0
 40
0
 40
0
 40
0
 40
0
 40
1
 40
1
 40
1
 40
1
 10
67.650601
 20
214.346144
 30
0.0
 10
68.452833
 20
214.144797
 30
0.0
 10
69.062137
 20
212.885554
 30
0.0
 10
69.834585
 20
209.832522
 30
0.0
  0
SPLINE
  5
381
100
AcDbEntity
  8
0
 62
7
100
AcDbSpline
 70
8
 71
3
 72
8
 73
4
 74
0
 40
0
 40
0
 40
0
 40
0
 40
1
 40
1
 40
1
 40
1
 10
69.834585
 20
209.832522
 30
0.0
 10
70.570950
 20
206.922108
 30
0.0
 10
70.826368
 20
205.151694
 30
0.0
 10
71.437791
 20
198.720022
 30
0.0
  0
SPLINE
  5
382
100
AcDbEntity
  8
0
 62
7
100
AcDbSpline
 70
8
 71
3
 72
8
 73
4
 74
0
 40
0
 40
0
 40
0
 40
0
 40
1
 40
1
 40
1
 40
1
 10
71.437791
 20
198.720022
 30
0.0
 10
72.187723
 20
190.831324
 30
0.0
 10
72.513923
 20
185.333113
 30
0.0
 10
72.512783
 20
180.600580
 30
0.0
  0
SPLINE
  5
383
100
AcDbEntity
  8
0
 62
7
100
AcDbSpline
 70
8
 71
3
 72
8
 73
4
 74
0
 40
0
 40
0
 40
0
 40
0
 40
1
 40
1
 40
1
 40
1
 10
72.512783
 20
180.600580
 30
0.0
 10
72.511724
 20
176.109982
 30
0.0
 10
72.299290
 20
175.340343
 30
0.0
 10
70.787675
 20
174.349894
 30
0.0
  0
SPLINE
  5
384
100
AcDbEntity
  8
0
 62
7
100
AcDbSpline
 70
8
 71
3
 72
8
 73
4
 74
0
 40
0
 40
0
 40
0
 40
0
 40
1
 40
1
 40
1
 40
1
 10
70.787675
 20
174.349894
 30
0.0
 10
70.159962
 20
173.938599
 30
0.0
 10
70.109083
 20
173.781403
 30
0.0
 10
70.247801
 20
172.681874
 30
0.0
  0
SPLINE
  5
385
100
AcDbEntity
  8
0
 62
7
100
AcDbSpline
 70
8
 71
3
 72
8
 73
4
 74
0
 40
0
 40
0
 40
0
 40
0
 40
1
 40
1
 40
1
 40
1
 10
70.247801
 20
172.681874
 30
0.0
 10
70.332034
 20
172.014208
 30
0.0
 10
70.757590
 20
167.003095
 30
0.0
 10
71.193480
 20
161.546064
 30
0.0
  0
SPLINE
  5
386
100
AcDbEntity
  8
0
 62
7
100
AcDbSpline
 70
8
 71
3
 72
8
 73
4
 74
0
 40
0
 40
0
 40
0
 40
0
 40
1
 40
1
 40
1
 40
1
 10
71.193480
 20
161.546064
 30
0.0
 10
71.629371
 20
156.089033
 30
0.0
 10
72.162252
 20
149.600126
 30
0.0
 10
72.377660
 20
147.126272
 30
0.0
  0
SPLINE
  5
387
100
AcDbEntity
  8
0
 62
7
100
AcDbSpline
 70
8
 71
3
 72
8
 73
4
 74
0
 40
0
 40
0
 40
0
 40
0
 40
1
 40
1
 40
1
 40
1
 10
72.377660
 20
147.126272
 30
0.0
 10
72.593068
 20
144.652418
 30
0.0
 10
73.786410
 20
129.888668
 30
0.0
 10
75.029534
 20
114.317939
 30
0.0
  0
SPLINE
  5
388
100
AcDbEntity
  8
0
 62
7
100
AcDbSpline
 70
8
 71
3
 72
8
 73
4
 74
0
 40
0
 40
0
 40
0
 40
0
 40
1
 40
1
 40
1
 40
1
 10
75.029534
 20
114.317939
 30
0.0
 10
77.336187
 20
85.425965
 30
0.0
 10
77.454932
 20
84.113611
 30
0.0
 10
77.736946
 20
84.395625
 30
0.0
  0
SPLINE
  5
389
100
AcDbEntity
  8
0
 62
7
100
AcDbSpline
 70
8
 71
3
 72
8
 73
4
 74
0
 40
0
 40
0
 40
0
 40
0
 40
1
 40
1
 40
1
 40
1
 10
77.736946
 20
84.395625
 30
0.0
 10
77.826026
 20
84.484707
 30
0.0
 10
78.934141
 20
86.058433
 30
0.0
 10
80.199418
 20
87.892789
 30
0.0
  0
LWPOLYLINE
  5
38a
100
AcDbEntity
  8
0
 62
7
100
AcDbPolyline
 90
3
 70
0
 10
84.852923
 20
171.226980
 30
0.0
 10
85.024333
 20
176.806855
 30
0.0
 10
83.288902
 20
177.618962
 30
0.0
  0
SPLINE
  5
38b
100
AcDbEntity
  8
0
 62
7
100
AcDbSpline
 70
8
 71
3
 72
8
 73
4
 74
0
 40
0
 40
0
 40
0
 40
0
 40
1
 40
1
 40
1
 40
1
 10
141.333625
 20
93.699521
 30
0.0
 10
142.978156
 20
94.812924
 30
0.0
 10
143.166314
 20
95.026792
 30
0.0
 10
143.039600
 20
95.638609
 30
0.0
  0
SPLINE
  5
38c
100
AcDbEntity
  8
0
 62
7
100
AcDbSpline
 70
8
 71
3
 72
8
 73
4
 74
0
 40
0
 40
0
 40
0
 40
0
 40
1
 40
1
 40
1
 40
1
 10
143.039600
 20
95.638609
 30
0.0
 10
142.676187
 20
97.393315
 30
0.0
 10
142.080790
 20
103.586007
 30
0.0
 10
141.930514
 20
107.174189
 30
0.0
  0
SPLINE
  5
38d
100
AcDbEntity
  8
0
 62
7
100
AcDbSpline
 70
8
 71
3
 72
8
 73
4
 74
0
 40
0
 40
0
 40
0
 40
0
 40
1
 40
1
 40
1
 40
1
 10
141.930514
 20
107.174189
 30
0.0
 10
141.764202
 20
111.145206
 30
0.0
 10
142.061091
 20
115.374812
 30
0.0
 10
142.654819
 20
117.492939
 30
0.0
  0
SPLINE
  5
38e
100
AcDbEntity
  8
0
 62
7
100
AcDbSpline
 70
8
 71
3
 72
8
 73
4
 74
0
 40
0
 40
0
 40
0
 40
0
 40
1
 40
1
 40
1
 40
1
 10
142.654819
 20
117.492939
 30
0.0
 10
142.968136
 20
118.610711
 30
0.0
 10
144.726250
 20
120.535647
 30
0.0
 10
145.433833
 20
120.535647
 30
0.0
  0
SPLINE
  5
38f
100
AcDbEntity
  8
0
 62
7
100
AcDbSpline
 70
8
 71
3
 72
8
 73
4
 74
0
 40
0
 40
0
 40
0
 40
0
 40
1
 40
1
 40
1
 40
1
 10
145.433833
 20
120.535647
 30
0.0
 10
145.754818
 20
120.535647
 30
0.0
 10
145.804324
 20
120.762141
 30
0.0
 10
145.679612
 20
121.660126
 30
0.0
  0
SPLINE
  5
390
100
AcDbEntity
  8
0
 62
7
100
AcDbSpline
 70
8
 71
3
 72
8
 73
4
 74
0
 40
0
 40
0
 40
0
 40
0
 40
1
 40
1
 40
1
 40
1
 10
145.679612
 20
121.660126
 30
0.0
 10
145.480701
 20
123.092395
 30
0.0
 10
144.750943
 20
129.822051
 30
0.0
 10
144.747570
 20
130.255224
 30
0.0
  0
SPLINE
  5
391
100
AcDbEntity
  8
0
 62
7
100
AcDbSpline
 70
8
 71
3
 72
8
 73
4
 74
0
 40
0
 40
0
 40
0
 40
0
 40
1
 40
1
 40
1
 40
1
 10
144.747570
 20
130.255224
 30
0.0
 10
144.744395
 20
130.661257
 30
0.0
 10
142.917926
 20
129.972803
 30
0.0
 10
139.674028
 20
128.342858
 30
0.0
  0
SPLINE
  5
392
100
AcDbEntity
  8
0
 62
7
100
AcDbSpline
 70
8
 71
3
 72
8
 73
4
 74
0
 40
0
 40
0
 40
0
 40
0
 40
1
 40
1
 40
1
 40
1
 10
139.674028
 20
128.342858
 30
0.0
 10
137.535031
 20
127.268089
 30
0.0
 10
133.771018
 20
124.943896
 30
0.0
 10
133.527575
 20
124.547564
 30
0.0
  0
SPLINE
  5
393
100
AcDbEntity
  8
0
 62
7
100
AcDbSpline
 70
8
 71
3
 72
8
 73
4
 74
0
 40
0
 40
0
 40
0
 40
0
 40
1
 40
1
 40
1
 40
1
 10
133.527575
 20
124.547564
 30
0.0
 10
133.347505
 20
124.254406
 30
0.0
 10
135.387239
 20
90.422989
 30
0.0
 10
135.632256
 20
89.638897
 30
0.0
  0
SPLINE
  5
394
100
AcDbEntity
  8
0
 62
7
100
AcDbSpline
 70
8
 71
3
 72
8
 73
4
 74
0
 40
0
 40
0
 40
0
 40
0
 40
1
 40
1
 40
1
 40
1
 10
135.632256
 20
89.638897
 30
0.0
 10
135.697905
 20
89.428815
 30
0.0
 10
136.444665
 20
89.895130
 30
0.0
 10
137.611453
 20
90.874808
 30
0.0
  0
SPLINE
  5
395
100
AcDbEntity
  8
0
 62
7
100
AcDbSpline
 70
8
 71
3
 72
8
 73
4
 74
0
 40
0
 40
0
 40
0
 40
0
 40
1
 40
1
 40
1
 40
1
 10
137.611453
 20
90.874808
 30
0.0
 10
138.642029
 20
91.740117
 30
0.0
 10
140.317006
 20
93.011236
 30
0.0
 10
141.333625
 20
93.699521
 30
0.0
  0
LWPOLYLINE
  5
396
100
AcDbEntity
  8
0
 62
7
100
AcDbPolyline
 90
1
 70
1
 10
80.199418
 20
87.892789
 30
0.0
  0
SPLINE
  5
397
100
AcDbEntity
  8
0
 62
7
100
AcDbSpline
 70
8
 71
3
 72
8
 73
4
 74
0
 40
0
 40
0
 40
0
 40
0
 40
1
 40
1
 40
1
 40
1
 10
33.355388
 20
96.590855
 30
0.0
 10
34.398569
 20
100.228876
 30
0.0
 10
36.008276
 20
105.646220
 30
0.0
 10
36.932515
 20
108.629397
 30
0.0
  0
LWPOLYLINE
  5
398
100
AcDbEntity
  8
0
 62
7
100
AcDbPolyline
 90
1
 70
1
 10
141.333625
 20
93.699521
 30
0.0
  0
SPLINE
  5
399
100
AcDbEntity
  8
0
 62
7
100
AcDbSpline
 70
8
 71
3
 72
8
 73
4
 74
0
 40
0
 40
0
 40
0
 40
0
 40
1
 40
1
 40
1
 40
1
 10
38.889966
 20
125.430439
 30
0.0
 10
39.042324
 20
131.687835
 30
0.0
 10
39.229665
 20
138.250650
 30
0.0
 10
39.306280
 20
140.014473
 30
0.0
  0
LWPOLYLINE
  5
39a
100
AcDbEntity
  8
0
 62
7
100
AcDbPolyline
 90
3
 70
0
 10
36.932515
 20
108.629397
 30
0.0
 10
38.612956
 20
114.053355
 30
0.0
 10
38.889966
 20
125.430439
 30
0.0
  0
SPLINE
  5
39b
100
AcDbEntity
  8
0
 62
7
100
AcDbSpline
 70
8
 71
3
 72
8
 73
4
 74
0
 40
0
 40
0
 40
0
 40
0
 40
1
 40
1
 40
1
 40
1
 10
38.327788
 20
143.400169
 30
0.0
 10
35.923201
 20
143.784677
 30
0.0
 10
34.270214
 20
146.659682
 30
0.0
 10
33.626404
 20
151.577188
 30
0.0
  0
SPLINE
  5
39c
100
AcDbEntity
  8
0
 62
7
100
AcDbSpline
 70
8
 71
3
 72
8
 73
4
 74
0
 40
0
 40
0
 40
0
 40
0
 40
1
 40
1
 40
1
 40
1
 10
33.626404
 20
151.577188
 30
0.0
 10
32.943456
 20
156.793629
 30
0.0
 10
33.470257
 20
173.579256
 30
0.0
 10
34.819458
 20
189.591897
 30
0.0
  0
SPLINE
  5
39d
100
AcDbEntity
  8
0
 62
7
100
AcDbSpline
 70
8
 71
3
 72
8
 73
4
 74
0
 40
0
 40
0
 40
0
 40
0
 40
1
 40
1
 40
1
 40
1
 10
34.819458
 20
189.591897
 30
0.0
 10
35.634054
 20
199.259727
 30
0.0
 10
35.760520
 20
200.257270
 30
0.0
 10
36.898900
 20
205.994349
 30
0.0
  0
SPLINE
  5
39e
100
AcDbEntity
  8
0
 62
7
100
AcDbSpline
 70
8
 71
3
 72
8
 73
4
 74
0
 40
0
 40
0
 40
0
 40
0
 40
1
 40
1
 40
1
 40
1
 10
36.898900
 20
205.994349
 30
0.0
 10
37.798044
 20
210.525746
 30
0.0
 10
37.837761
 20
210.641586
 30
0.0
 10
38.792131
 20
211.516201
 30
0.0
  0
SPLINE
  5
39f
100
AcDbEntity
  8
0
 62
7
100
AcDbSpline
 70
8
 71
3
 72
8
 73
4
 74
0
 40
0
 40
0
 40
0
 40
0
 40
1
 40
1
 40
1
 40
1
 10
38.792131
 20
211.516201
 30
0.0
 10
39.677732
 20
212.327794
 30
0.0
 10
39.873110
 20
212.395009
 30
0.0
 10
40.926822
 20
212.250581
 30
0.0
  0
SPLINE
  5
3a0
100
AcDbEntity
  8
0
 62
7
100
AcDbSpline
 70
8
 71
3
 72
8
 73
4
 74
0
 40
0
 40
0
 40
0
 40
0
 40
1
 40
1
 40
1
 40
1
 10
40.926822
 20
212.250581
 30
0.0
 10
41.758849
 20
212.136540
 30
0.0
 10
42.086689
 20
212.184345
 30
0.0
 10
42.086689
 20
212.419711
 30
0.0
  0
SPLINE
  5
3a1
100
AcDbEntity
  8
0
 62
7
100
AcDbSpline
 70
8
 71
3
 72
8
 73
4
 74
0
 40
0
 40
0
 40
0
 40
0
 40
1
 40
1
 40
1
 40
1
 10
42.086689
 20
212.419711
 30
0.0
 10
42.086689
 20
212.961170
 30
0.0
 10
43.375575
 20
231.396608
 30
0.0
 10
43.538251
 20
233.182000
 30
0.0
  0
LWPOLYLINE
  5
3a2
100
AcDbEntity
  8
0
 62
7
100
AcDbPolyline
 90
3
 70
0
 10
39.306280
 20
140.014473
 30
0.0
 10
39.445584
 20
143.221427
 30
0.0
 10
38.327788
 20
143.400169
 30
0.0
  0
SPLINE
  5
3a3
100
AcDbEntity
  8
0
 62
7
100
AcDbSpline
 70
8
 71
3
 72
8
 73
4
 74
0
 40
0
 40
0
 40
0
 40
0
 40
1
 40
1
 40
1
 40
1
 10
12.717938
 20
201.912246
 30
0.0
 10
12.717938
 20
179.521146
 30
0.0
 10
12.806970
 20
168.754674
 30
0.0
 10
12.996248
 20
168.256836
 30
0.0
  0
SPLINE
  5
3a4
100
AcDbEntity
  8
0
 62
7
100
AcDbSpline
 70
8
 71
3
 72
8
 73
4
 74
0
 40
0
 40
0
 40
0
 40
0
 40
1
 40
1
 40
1
 40
1
 10
12.996248
 20
168.256836
 30
0.0
 10
13.149317
 20
167.854233
 30
0.0
 10
14.050522
 20
164.840153
 30
0.0
 10
14.998924
 20
161.558883
 30
0.0
  0
SPLINE
  5
3a5
100
AcDbEntity
  8
0
 62
7
100
AcDbSpline
 70
8
 71
3
 72
8
 73
4
 74
0
 40
0
 40
0
 40
0
 40
0
 40
1
 40
1
 40
1
 40
1
 10
14.998924
 20
161.558883
 30
0.0
 10
20.040872
 20
144.114824
 30
0.0
 10
24.162228
 20
127.162671
 30
0.0
 10
27.792249
 20
108.936766
 30
0.0
  0
SPLINE
  5
3a6
100
AcDbEntity
  8
0
 62
7
100
AcDbSpline
 70
8
 71
3
 72
8
 73
4
 74
0
 40
0
 40
0
 40
0
 40
0
 40
1
 40
1
 40
1
 40
1
 10
27.792249
 20
108.936766
 30
0.0
 10
29.272712
 20
101.503536
 30
0.0
 10
31.238772
 20
90.738740
 30
0.0
 10
31.238772
 20
90.065971
 30
0.0
  0
SPLINE
  5
3a7
100
AcDbEntity
  8
0
 62
7
100
AcDbSpline
 70
8
 71
3
 72
8
 73
4
 74
0
 40
0
 40
0
 40
0
 40
0
 40
1
 40
1
 40
1
 40
1
 10
31.238772
 20
90.065971
 30
0.0
 10
31.238772
 20
89.338719
 30
0.0
 10
31.558579
 20
90.324585
 30
0.0
 10
33.355388
 20
96.590855
 30
0.0
  0
LWPOLYLINE
  5
3a8
100
AcDbEntity
  8
0
 62
7
100
AcDbPolyline
 90
5
 70
0
 10
43.538251
 20
233.182000
 30
0.0
 10
43.688926
 20
234.835646
 30
0.0
 10
28.203432
 20
234.835646
 30
0.0
 10
12.717938
 20
234.835646
 30
0.0
 10
12.717938
 20
201.912246
 30
0.0
  0
LWPOLYLINE
  5
3a9
100
AcDbEntity
  8
0
 62
7
100
AcDbPolyline
 90
1
 70
1
 10
33.355388
 20
96.590855
 30
0.0
  0
SPLINE
  5
3aa
100
AcDbEntity
  8
0
 62
7
100
AcDbSpline
 70
8
 71
3
 72
8
 73
4
 74
0
 40
0
 40
0
 40
0
 40
0
 40
1
 40
1
 40
1
 40
1
 10
226.511406
 20
113.601939
 30
0.0
 10
219.025999
 20
117.359173
 30
0.0
 10
217.900700
 20
117.852047
 30
0.0
 10
217.752216
 20
117.438398
 30
0.0
  0
SPLINE
  5
3ab
100
AcDbEntity
  8
0
 62
7
100
AcDbSpline
 70
8
 71
3
 72
8
 73
4
 74
0
 40
0
 40
0
 40
0
 40
0
 40
1
 40
1
 40
1
 40
1
 10
217.752216
 20
117.438398
 30
0.0
 10
217.658500
 20
117.177354
 30
0.0
 10
217.498639
 20
115.537962
 30
0.0
 10
217.396986
 20
113.795305
 30
0.0
  0
SPLINE
  5
3ac
100
AcDbEntity
  8
0
 62
7
100
AcDbSpline
 70
8
 71
3
 72
8
 73
4
 74
0
 40
0
 40
0
 40
0
 40
0
 40
1
 40
1
 40
1
 40
1
 10
217.396986
 20
113.795305
 30
0.0
 10
217.295333
 20
112.052648
 30
0.0
 10
217.040963
 20
109.254679
 30
0.0
 10
216.831730
 20
107.577596
 30
0.0
  0
SPLINE
  5
3ad
100
AcDbEntity
  8
0
 62
7
100
AcDbSpline
 70
8
 71
3
 72
8
 73
4
 74
0
 40
0
 40
0
 40
0
 40
0
 40
1
 40
1
 40
1
 40
1
 10
216.831730
 20
107.577596
 30
0.0
 10
216.264252
 20
103.028827
 30
0.0
 10
216.049331
 20
103.537689
 30
0.0
 10
219.159085
 20
102.067093
 30
0.0
  0
SPLINE
  5
3ae
100
AcDbEntity
  8
0
 62
7
100
AcDbSpline
 70
8
 71
3
 72
8
 73
4
 74
0
 40
0
 40
0
 40
0
 40
0
 40
1
 40
1
 40
1
 40
1
 10
219.159085
 20
102.067093
 30
0.0
 10
223.677110
 20
99.930521
 30
0.0
 10
229.533529
 20
96.022089
 30
0.0
 10
233.248147
 20
92.664407
 30
0.0
  0
LWPOLYLINE
  5
3af
100
AcDbEntity
  8
0
 62
7
100
AcDbPolyline
 90
3
 70
0
 10
235.000562
 20
104.396064
 30
0.0
 10
235.100230
 20
109.290855
 30
0.0
 10
226.511406
 20
113.601939
 30
0.0
  0
SPLINE
  5
3b0
100
AcDbEntity
  8
0
 62
7
100
AcDbSpline
 70
8
 71
3
 72
8
 73
4
 74
0
 40
0
 40
0
 40
0
 40
0
 40
1
 40
1
 40
1
 40
1
 10
234.735979
 20
95.484939
 30
0.0
 10
234.826678
 20
97.693922
 30
0.0
 10
234.945740
 20
101.703928
 30
0.0
 10
235.000562
 20
104.396064
 30
0.0
  0
LWPOLYLINE
  5
3b1
100
AcDbEntity
  8
0
 62
7
100
AcDbPolyline
 90
3
 70
0
 10
233.248147
 20
92.664407
 30
0.0
 10
234.571064
 20
91.468607
 30
0.0
 10
234.735979
 20
95.484939
 30
0.0
  0
SPLINE
  5
3b2
100
AcDbEntity
  8
0
 62
7
100
AcDbSpline
 70
8
 71
3
 72
8
 73
4
 74
0
 40
0
 40
0
 40
0
 40
0
 40
1
 40
1
 40
1
 40
1
 10
278.280707
 20
96.905302
 30
0.0
 10
279.134305
 20
101.504263
 30
0.0
 10
279.214818
 20
102.387514
 30
0.0
 10
279.339913
 20
108.527323
 30
0.0
  0
SPLINE
  5
3b3
100
AcDbEntity
  8
0
 62
7
100
AcDbSpline
 70
8
 71
3
 72
8
 73
4
 74
0
 40
0
 40
0
 40
0
 40
0
 40
1
 40
1
 40
1
 40
1
 10
279.339913
 20
108.527323
 30
0.0
 10
279.682178
 20
125.323896
 30
0.0
 10
277.550563
 20
142.307847
 30
0.0
 10
272.521548
 20
162.853603
 30
0.0
  0
SPLINE
  5
3b4
100
AcDbEntity
  8
0
 62
7
100
AcDbSpline
 70
8
 71
3
 72
8
 73
4
 74
0
 40
0
 40
0
 40
0
 40
0
 40
1
 40
1
 40
1
 40
1
 10
272.521548
 20
162.853603
 30
0.0
 10
269.438279
 20
175.450058
 30
0.0
 10
267.326851
 20
181.771928
 30
0.0
 10
263.863720
 20
188.776094
 30
0.0
  0
SPLINE
  5
3b5
100
AcDbEntity
  8
0
 62
7
100
AcDbSpline
 70
8
 71
3
 72
8
 73
4
 74
0
 40
0
 40
0
 40
0
 40
0
 40
1
 40
1
 40
1
 40
1
 10
263.863720
 20
188.776094
 30
0.0
 10
260.926315
 20
194.717032
 30
0.0
 10
252.918595
 20
206.603261
 30
0.0
 10
246.380503
 20
214.727314
 30
0.0
  0
SPLINE
  5
3b6
100
AcDbEntity
  8
0
 62
7
100
AcDbSpline
 70
8
 71
3
 72
8
 73
4
 74
0
 40
0
 40
0
 40
0
 40
0
 40
1
 40
1
 40
1
 40
1
 10
246.380503
 20
214.727314
 30
0.0
 10
243.589942
 20
218.194766
 30
0.0
 10
241.326696
 20
220.714485
 30
0.0
 10
241.289893
 20
220.394797
 30
0.0
  0
SPLINE
  5
3b7
100
AcDbEntity
  8
0
 62
7
100
AcDbSpline
 70
8
 71
3
 72
8
 73
4
 74
0
 40
0
 40
0
 40
0
 40
0
 40
1
 40
1
 40
1
 40
1
 10
241.289893
 20
220.394797
 30
0.0
 10
241.274547
 20
220.260860
 30
0.0
 10
241.185197
 20
218.930157
 30
0.0
 10
241.091455
 20
217.437684
 30
0.0
  0
LWPOLYLINE
  5
3b8
100
AcDbEntity
  8
0
 62
7
100
AcDbPolyline
 90
1
 70
1
 10
235.000562
 20
104.396064
 30
0.0
  0
SPLINE
  5
3b9
100
AcDbEntity
  8
0
 62
7
100
AcDbSpline
 70
8
 71
3
 72
8
 73
4
 74
0
 40
0
 40
0
 40
0
 40
0
 40
1
 40
1
 40
1
 40
1
 10
241.737330
 20
214.455005
 30
0.0
 10
242.710203
 20
214.134277
 30
0.0
 10
243.821479
 20
213.030459
 30
0.0
 10
244.211978
 20
211.996922
 30
0.0
  0
SPLINE
  5
3ba
100
AcDbEntity
  8
0
 62
7
100
AcDbSpline
 70
8
 71
3
 72
8
 73
4
 74
0
 40
0
 40
0
 40
0
 40
0
 40
1
 40
1
 40
1
 40
1
 10
244.211978
 20
211.996922
 30
0.0
 10
244.618801
 20
210.920171
 30
0.0
 10
245.017211
 20
205.896448
 30
0.0
 10
245.019856
 20
201.810305
 30
0.0
  0
SPLINE
  5
3bb
100
AcDbEntity
  8
0
 62
7
100
AcDbSpline
 70
8
 71
3
 72
8
 73
4
 74
0
 40
0
 40
0
 40
0
 40
0
 40
1
 40
1
 40
1
 40
1
 10
245.019856
 20
201.810305
 30
0.0
 10
245.019856
 20
199.871941
 30
0.0
 10
244.844940
 20
193.918816
 30
0.0
 10
244.628432
 20
188.581138
 30
0.0
  0
SPLINE
  5
3bc
100
AcDbEntity
  8
0
 62
7
100
AcDbSpline
 70
8
 71
3
 72
8
 73
4
 74
0
 40
0
 40
0
 40
0
 40
0
 40
1
 40
1
 40
1
 40
1
 10
244.628432
 20
188.581138
 30
0.0
 10
243.873126
 20
169.961803
 30
0.0
 10
243.339170
 20
163.521366
 30
0.0
 10
242.381987
 20
161.485024
 30
0.0
  0
SPLINE
  5
3bd
100
AcDbEntity
  8
0
 62
7
100
AcDbSpline
 70
8
 71
3
 72
8
 73
4
 74
0
 40
0
 40
0
 40
0
 40
0
 40
1
 40
1
 40
1
 40
1
 10
242.381987
 20
161.485024
 30
0.0
 10
241.803185
 20
160.253699
 30
0.0
 10
240.340621
 20
158.534812
 30
0.0
 10
239.274165
 20
157.832581
 30
0.0
  0
LWPOLYLINE
  5
3be
100
AcDbEntity
  8
0
 62
7
100
AcDbPolyline
 90
3
 70
0
 10
241.091455
 20
217.437684
 30
0.0
 10
240.921064
 20
214.724096
 30
0.0
 10
241.737330
 20
214.455005
 30
0.0
  0
SPLINE
  5
3bf
100
AcDbEntity
  8
0
 62
7
100
AcDbSpline
 70
8
 71
3
 72
8
 73
4
 74
0
 40
0
 40
0
 40
0
 40
0
 40
1
 40
1
 40
1
 40
1
 10
238.149686
 20
138.762486
 30
0.0
 10
237.854940
 20
128.487091
 30
0.0
 10
237.613772
 20
118.959694
 30
0.0
 10
237.613772
 20
117.590493
 30
0.0
  0
LWPOLYLINE
  5
3c0
100
AcDbEntity
  8
0
 62
7
100
AcDbPolyline
 90
3
 70
0
 10
239.274165
 20
157.832581
 30
0.0
 10
238.685599
 20
157.445022
 30
0.0
 10
238.149686
 20
138.762486
 30
0.0
  0
SPLINE
  5
3c1
100
AcDbEntity
  8
0
 62
7
100
AcDbSpline
 70
8
 71
3
 72
8
 73
4
 74
0
 40
0
 40
0
 40
0
 40
0
 40
1
 40
1
 40
1
 40
1
 10
240.590335
 20
113.596028
 30
0.0
 10
242.227444
 20
112.768272
 30
0.0
 10
245.037901
 20
111.298392
 30
0.0
 10
246.835771
 20
110.329631
 30
0.0
  0
LWPOLYLINE
  5
3c2
100
AcDbEntity
  8
0
 62
7
100
AcDbPolyline
 90
3
 70
0
 10
237.613772
 20
117.590493
 30
0.0
 10
237.613772
 20
115.101042
 30
0.0
 10
240.590335
 20
113.596028
 30
0.0
  0
SPLINE
  5
3c3
100
AcDbEntity
  8
0
 62
7
100
AcDbSpline
 70
8
 71
3
 72
8
 73
4
 74
0
 40
0
 40
0
 40
0
 40
0
 40
1
 40
1
 40
1
 40
1
 10
249.947668
 20
109.326426
 30
0.0
 10
249.556640
 20
111.214924
 30
0.0
 10
248.965217
 20
116.572451
 30
0.0
 10
248.673990
 20
120.864408
 30
0.0
  0
SPLINE
  5
3c4
100
AcDbEntity
  8
0
 62
7
100
AcDbSpline
 70
8
 71
3
 72
8
 73
4
 74
0
 40
0
 40
0
 40
0
 40
0
 40
1
 40
1
 40
1
 40
1
 10
248.673990
 20
120.864408
 30
0.0
 10
248.343341
 20
125.737146
 30
0.0
 10
248.587657
 20
130.727233
 30
0.0
 10
249.273219
 20
133.103355
 30
0.0
  0
SPLINE
  5
3c5
100
AcDbEntity
  8
0
 62
7
100
AcDbSpline
 70
8
 71
3
 72
8
 73
4
 74
0
 40
0
 40
0
 40
0
 40
0
 40
1
 40
1
 40
1
 40
1
 10
249.273219
 20
133.103355
 30
0.0
 10
249.595614
 20
134.220749
 30
0.0
 10
251.359564
 20
136.146064
 30
0.0
 10
252.060922
 20
136.146064
 30
0.0
  0
SPLINE
  5
3c6
100
AcDbEntity
  8
0
 62
7
100
AcDbSpline
 70
8
 71
3
 72
8
 73
4
 74
0
 40
0
 40
0
 40
0
 40
0
 40
1
 40
1
 40
1
 40
1
 10
252.060922
 20
136.146064
 30
0.0
 10
252.381782
 20
136.146064
 30
0.0
 10
252.431497
 20
136.372862
 30
0.0
 10
252.307381
 20
137.270543
 30
0.0
  0
SPLINE
  5
3c7
100
AcDbEntity
  8
0
 62
7
100
AcDbSpline
 70
8
 71
3
 72
8
 73
4
 74
0
 40
0
 40
0
 40
0
 40
0
 40
1
 40
1
 40
1
 40
1
 10
252.307381
 20
137.270543
 30
0.0
 10
252.059414
 20
139.064116
 30
0.0
 10
250.842939
 20
150.666095
 30
0.0
 10
250.842939
 20
151.237696
 30
0.0
  0
SPLINE
  5
3c8
100
AcDbEntity
  8
0
 62
7
100
AcDbSpline
 70
8
 71
3
 72
8
 73
4
 74
0
 40
0
 40
0
 40
0
 40
0
 40
1
 40
1
 40
1
 40
1
 10
250.842939
 20
151.237696
 30
0.0
 10
250.842939
 20
151.653663
 30
0.0
 10
251.025475
 20
151.756480
 30
0.0
 10
251.763953
 20
151.756480
 30
0.0
  0
SPLINE
  5
3c9
100
AcDbEntity
  8
0
 62
7
100
AcDbSpline
 70
8
 71
3
 72
8
 73
4
 74
0
 40
0
 40
0
 40
0
 40
0
 40
1
 40
1
 40
1
 40
1
 10
251.763953
 20
151.756480
 30
0.0
 10
252.503623
 20
151.756480
 30
0.0
 10
252.710897
 20
151.639275
 30
0.0
 10
252.816730
 20
151.161168
 30
0.0
  0
SPLINE
  5
3ca
100
AcDbEntity
  8
0
 62
7
100
AcDbSpline
 70
8
 71
3
 72
8
 73
4
 74
0
 40
0
 40
0
 40
0
 40
0
 40
1
 40
1
 40
1
 40
1
 10
252.816730
 20
151.161168
 30
0.0
 10
252.955293
 20
150.535309
 30
0.0
 10
254.547105
 20
137.481384
 30
0.0
 10
254.547105
 20
136.971035
 30
0.0
  0
SPLINE
  5
3cb
100
AcDbEntity
  8
0
 62
7
100
AcDbSpline
 70
8
 71
3
 72
8
 73
4
 74
0
 40
0
 40
0
 40
0
 40
0
 40
1
 40
1
 40
1
 40
1
 10
254.547105
 20
136.971035
 30
0.0
 10
254.547105
 20
136.789774
 30
0.0
 10
255.096777
 20
136.675230
 30
0.0
 10
255.966621
 20
136.675230
 30
0.0
  0
SPLINE
  5
3cc
100
AcDbEntity
  8
0
 62
7
100
AcDbSpline
 70
8
 71
3
 72
8
 73
4
 74
0
 40
0
 40
0
 40
0
 40
0
 40
1
 40
1
 40
1
 40
1
 10
255.966621
 20
136.675230
 30
0.0
 10
257.634158
 20
136.675230
 30
0.0
 10
258.438703
 20
136.161970
 30
0.0
 10
259.434383
 20
134.462957
 30
0.0
  0
SPLINE
  5
3cd
100
AcDbEntity
  8
0
 62
7
100
AcDbSpline
 70
8
 71
3
 72
8
 73
4
 74
0
 40
0
 40
0
 40
0
 40
0
 40
1
 40
1
 40
1
 40
1
 10
259.434383
 20
134.462957
 30
0.0
 10
260.839903
 20
132.064630
 30
0.0
 10
263.206071
 20
119.350843
 30
0.0
 10
264.586958
 20
106.777314
 30
0.0
  0
SPLINE
  5
3ce
100
AcDbEntity
  8
0
 62
7
100
AcDbSpline
 70
8
 71
3
 72
8
 73
4
 74
0
 40
0
 40
0
 40
0
 40
0
 40
1
 40
1
 40
1
 40
1
 10
264.586958
 20
106.777314
 30
0.0
 10
264.882630
 20
104.085178
 30
0.0
 10
265.191002
 20
101.387815
 30
0.0
 10
265.272229
 20
100.783170
 30
0.0
  0
SPLINE
  5
3cf
100
AcDbEntity
  8
0
 62
7
100
AcDbSpline
 70
8
 71
3
 72
8
 73
4
 74
0
 40
0
 40
0
 40
0
 40
0
 40
1
 40
1
 40
1
 40
1
 10
265.272229
 20
100.783170
 30
0.0
 10
265.417115
 20
99.704663
 30
0.0
 10
265.483631
 20
99.643237
 30
0.0
 10
268.780895
 20
97.543480
 30
0.0
  0
SPLINE
  5
3d0
100
AcDbEntity
  8
0
 62
7
100
AcDbSpline
 70
8
 71
3
 72
8
 73
4
 74
0
 40
0
 40
0
 40
0
 40
0
 40
1
 40
1
 40
1
 40
1
 10
268.780895
 20
97.543480
 30
0.0
 10
270.629459
 20
96.366293
 30
0.0
 10
273.272991
 20
94.588274
 30
0.0
 10
274.655439
 20
93.592327
 30
0.0
  0
SPLINE
  5
3d1
100
AcDbEntity
  8
0
 62
7
100
AcDbSpline
 70
8
 71
3
 72
8
 73
4
 74
0
 40
0
 40
0
 40
0
 40
0
 40
1
 40
1
 40
1
 40
1
 10
274.655439
 20
93.592327
 30
0.0
 10
276.037887
 20
92.596380
 30
0.0
 10
277.211261
 20
91.814491
 30
0.0
 10
277.262934
 20
91.854798
 30
0.0
  0
SPLINE
  5
3d2
100
AcDbEntity
  8
0
 62
7
100
AcDbSpline
 70
8
 71
3
 72
8
 73
4
 74
0
 40
0
 40
0
 40
0
 40
0
 40
1
 40
1
 40
1
 40
1
 10
277.262934
 20
91.854798
 30
0.0
 10
277.314607
 20
91.895104
 30
0.0
 10
277.772627
 20
94.167830
 30
0.0
 10
278.280707
 20
96.905302
 30
0.0
  0
LWPOLYLINE
  5
3d3
100
AcDbEntity
  8
0
 62
7
100
AcDbPolyline
 90
3
 70
0
 10
246.835771
 20
110.329631
 30
0.0
 10
250.104672
 20
108.568249
 30
0.0
 10
249.947668
 20
109.326426
 30
0.0
  0
SPLINE
  5
3d4
100
AcDbEntity
  8
0
 62
7
100
AcDbSpline
 70
8
 71
3
 72
8
 73
4
 74
0
 40
0
 40
0
 40
0
 40
0
 40
1
 40
1
 40
1
 40
1
 10
366.966183
 20
115.974987
 30
0.0
 10
369.043215
 20
121.240497
 30
0.0
 10
374.960277
 20
135.235990
 30
0.0
 10
376.763465
 20
139.148352
 30
0.0
  0
SPLINE
  5
3d5
100
AcDbEntity
  8
0
 62
7
100
AcDbSpline
 70
8
 71
3
 72
8
 73
4
 74
0
 40
0
 40
0
 40
0
 40
0
 40
1
 40
1
 40
1
 40
1
 10
376.763465
 20
139.148352
 30
0.0
 10
377.356873
 20
140.435809
 30
0.0
 10
377.775946
 20
141.596668
 30
0.0
 10
377.694746
 20
141.728039
 30
0.0
  0
SPLINE
  5
3d6
100
AcDbEntity
  8
0
 62
7
100
AcDbSpline
 70
8
 71
3
 72
8
 73
4
 74
0
 40
0
 40
0
 40
0
 40
0
 40
1
 40
1
 40
1
 40
1
 10
377.694746
 20
141.728039
 30
0.0
 10
377.613545
 20
141.859410
 30
0.0
 10
375.513362
 20
141.966897
 30
0.0
 10
373.027654
 20
141.966897
 30
0.0
  0
SPLINE
  5
3d7
100
AcDbEntity
  8
0
 62
7
100
AcDbSpline
 70
8
 71
3
 72
8
 73
4
 74
0
 40
0
 40
0
 40
0
 40
0
 40
1
 40
1
 40
1
 40
1
 10
373.027654
 20
141.966897
 30
0.0
 10
367.705428
 20
141.966897
 30
0.0
 10
367.072042
 20
141.765449
 30
0.0
 10
364.538498
 20
139.266959
 30
0.0
  0
SPLINE
  5
3d8
100
AcDbEntity
  8
0
 62
7
100
AcDbSpline
 70
8
 71
3
 72
8
 73
4
 74
0
 40
0
 40
0
 40
0
 40
0
 40
1
 40
1
 40
1
 40
1
 10
364.538498
 20
139.266959
 30
0.0
 10
360.685265
 20
135.467021
 30
0.0
 10
360.011186
 20
129.971271
 30
0.0
 10
362.224796
 20
120.403355
 30
0.0
  0
SPLINE
  5
3d9
100
AcDbEntity
  8
0
 62
7
100
AcDbSpline
 70
8
 71
3
 72
8
 73
4
 74
0
 40
0
 40
0
 40
0
 40
0
 40
1
 40
1
 40
1
 40
1
 10
362.224796
 20
120.403355
 30
0.0
 10
363.067521
 20
116.760763
 30
0.0
 10
364.677616
 20
111.010232
 30
0.0
 10
364.853696
 20
111.014050
 30
0.0
  0
SPLINE
  5
3da
100
AcDbEntity
  8
0
 62
7
100
AcDbSpline
 70
8
 71
3
 72
8
 73
4
 74
0
 40
0
 40
0
 40
0
 40
0
 40
1
 40
1
 40
1
 40
1
 10
364.853696
 20
111.014050
 30
0.0
 10
364.940030
 20
111.015902
 30
0.0
 10
365.890651
 20
113.248342
 30
0.0
 10
366.966183
 20
115.974987
 30
0.0
  0
LWPOLYLINE
  5
3db
100
AcDbEntity
  8
0
 62
7
100
AcDbPolyline
 90
1
 70
1
 10
278.280707
 20
96.905302
 30
0.0
  0
SPLINE
  5
3dc
100
AcDbEntity
  8
0
 62
7
100
AcDbSpline
 70
8
 71
3
 72
8
 73
4
 74
0
 40
0
 40
0
 40
0
 40
0
 40
1
 40
1
 40
1
 40
1
 10
122.310882
 20
118.709223
 30
0.0
 10
123.869347
 20
120.552247
 30
0.0
 10
126.215471
 20
123.056608
 30
0.0
 10
127.524489
 20
124.274474
 30
0.0
  0
LWPOLYLINE
  5
3dd
100
AcDbEntity
  8
0
 62
7
100
AcDbPolyline
 90
1
 70
1
 10
366.966183
 20
115.974987
 30
0.0
  0
SPLINE
  5
3de
100
AcDbEntity
  8
0
 62
7
100
AcDbSpline
 70
8
 71
3
 72
8
 73
4
 74
0
 40
0
 40
0
 40
0
 40
0
 40
1
 40
1
 40
1
 40
1
 10
129.638981
 20
134.293980
 30
0.0
 10
129.492931
 20
138.586845
 30
0.0
 10
129.289934
 20
143.620728
 30
0.0
 10
129.187874
 20
145.480389
 30
0.0
  0
LWPOLYLINE
  5
3df
100
AcDbEntity
  8
0
 62
7
100
AcDbPolyline
 90
3
 70
0
 10
127.524489
 20
124.274474
 30
0.0
 10
129.904527
 20
126.488772
 30
0.0
 10
129.638981
 20
134.293980
 30
0.0
  0
SPLINE
  5
3e0
100
AcDbEntity
  8
0
 62
7
100
AcDbSpline
 70
8
 71
3
 72
8
 73
4
 74
0
 40
0
 40
0
 40
0
 40
0
 40
1
 40
1
 40
1
 40
1
 10
125.181892
 20
138.247874
 30
0.0
 10
124.731492
 20
129.467941
 30
0.0
 10
124.582891
 20
128.329005
 30
0.0
 10
123.626221
 20
126.324482
 30
0.0
  0
SPLINE
  5
3e1
100
AcDbEntity
  8
0
 62
7
100
AcDbSpline
 70
8
 71
3
 72
8
 73
4
 74
0
 40
0
 40
0
 40
0
 40
0
 40
1
 40
1
 40
1
 40
1
 10
123.626221
 20
126.324482
 30
0.0
 10
122.681302
 20
124.344583
 30
0.0
 10
121.034479
 20
122.361172
 30
0.0
 10
119.565573
 20
121.433894
 30
0.0
  0
LWPOLYLINE
  5
3e2
100
AcDbEntity
  8
0
 62
7
100
AcDbPolyline
 90
5
 70
0
 10
129.187874
 20
145.480389
 30
0.0
 10
129.002314
 20
148.861587
 30
0.0
 10
127.245179
 20
146.538722
 30
0.0
 10
125.488044
 20
144.215855
 30
0.0
 10
125.181892
 20
138.247874
 30
0.0
  0
SPLINE
  5
3e3
100
AcDbEntity
  8
0
 62
7
100
AcDbSpline
 70
8
 71
3
 72
8
 73
4
 74
0
 40
0
 40
0
 40
0
 40
0
 40
1
 40
1
 40
1
 40
1
 10
118.565163
 20
117.423475
 30
0.0
 10
118.578551
 20
114.171682
 30
0.0
 10
118.594812
 20
114.076263
 30
0.0
 10
119.028184
 20
114.705813
 30
0.0
  0
SPLINE
  5
3e4
100
AcDbEntity
  8
0
 62
7
100
AcDbSpline
 70
8
 71
3
 72
8
 73
4
 74
0
 40
0
 40
0
 40
0
 40
0
 40
1
 40
1
 40
1
 40
1
 10
119.028184
 20
114.705813
 30
0.0
 10
119.275212
 20
115.064667
 30
0.0
 10
120.752433
 20
116.866199
 30
0.0
 10
122.310895
 20
118.709223
 30
0.0
  0
LWPOLYLINE
  5
3e5
100
AcDbEntity
  8
0
 62
7
100
AcDbPolyline
 90
3
 70
0
 10
119.565573
 20
121.433894
 30
0.0
 10
118.551272
 20
120.793592
 30
0.0
 10
118.565163
 20
117.423475
 30
0.0
  0
SPLINE
  5
3e6
100
AcDbEntity
  8
0
 62
7
100
AcDbSpline
 70
8
 71
3
 72
8
 73
4
 74
0
 40
0
 40
0
 40
0
 40
0
 40
1
 40
1
 40
1
 40
1
 10
235.608627
 20
120.866376
 30
0.0
 10
235.774256
 20
125.165514
 30
0.0
 10
236.548930
 20
154.212451
 30
0.0
 10
236.553375
 20
156.291097
 30
0.0
  0
SPLINE
  5
3e7
100
AcDbEntity
  8
0
 62
7
100
AcDbSpline
 70
8
 71
3
 72
8
 73
4
 74
0
 40
0
 40
0
 40
0
 40
0
 40
1
 40
1
 40
1
 40
1
 10
236.553375
 20
156.291097
 30
0.0
 10
236.556021
 20
157.183209
 30
0.0
 10
236.487229
 20
157.266637
 30
0.0
 10
235.625508
 20
157.428295
 30
0.0
  0
SPLINE
  5
3e8
100
AcDbEntity
  8
0
 62
7
100
AcDbSpline
 70
8
 71
3
 72
8
 73
4
 74
0
 40
0
 40
0
 40
0
 40
0
 40
1
 40
1
 40
1
 40
1
 10
235.625508
 20
157.428295
 30
0.0
 10
233.626316
 20
157.803342
 30
0.0
 10
232.340097
 20
160.117277
 30
0.0
 10
231.769708
 20
164.364863
 30
0.0
  0
SPLINE
  5
3e9
100
AcDbEntity
  8
0
 62
7
100
AcDbSpline
 70
8
 71
3
 72
8
 73
4
 74
0
 40
0
 40
0
 40
0
 40
0
 40
1
 40
1
 40
1
 40
1
 10
231.769708
 20
164.364863
 30
0.0
 10
231.162357
 20
168.887701
 30
0.0
 10
231.700414
 20
184.121666
 30
0.0
 10
232.992454
 20
198.984605
 30
0.0
  0
SPLINE
  5
3ea
100
AcDbEntity
  8
0
 62
7
100
AcDbSpline
 70
8
 71
3
 72
8
 73
4
 74
0
 40
0
 40
0
 40
0
 40
0
 40
1
 40
1
 40
1
 40
1
 10
232.992454
 20
198.984605
 30
0.0
 10
233.421714
 20
203.922596
 30
0.0
 10
234.754446
 20
212.116675
 30
0.0
 10
235.366639
 20
213.581845
 30
0.0
  0
SPLINE
  5
3eb
100
AcDbEntity
  8
0
 62
7
100
AcDbSpline
 70
8
 71
3
 72
8
 73
4
 74
0
 40
0
 40
0
 40
0
 40
0
 40
1
 40
1
 40
1
 40
1
 10
235.366639
 20
213.581845
 30
0.0
 10
235.856595
 20
214.754468
 30
0.0
 10
236.859260
 20
215.357649
 30
0.0
 10
237.971647
 20
215.148964
 30
0.0
  0
LWPOLYLINE
  5
3ec
100
AcDbEntity
  8
0
 62
7
100
AcDbPolyline
 90
1
 70
1
 10
122.310895
 20
118.709223
 30
0.0
  0
SPLINE
  5
3ed
100
AcDbEntity
  8
0
 62
7
100
AcDbSpline
 70
8
 71
3
 72
8
 73
4
 74
0
 40
0
 40
0
 40
0
 40
0
 40
1
 40
1
 40
1
 40
1
 10
237.796731
 20
224.068219
 30
0.0
 10
234.595035
 20
227.193154
 30
0.0
 10
228.576531
 20
231.690102
 30
0.0
 10
224.337483
 20
234.124758
 30
0.0
  0
SPLINE
  5
3ee
100
AcDbEntity
  8
0
 62
7
100
AcDbSpline
 70
8
 71
3
 72
8
 73
4
 74
0
 40
0
 40
0
 40
0
 40
0
 40
1
 40
1
 40
1
 40
1
 10
224.337483
 20
234.124758
 30
0.0
 10
223.101852
 20
234.834442
 30
0.0
 10
223.090317
 20
234.835646
 30
0.0
 10
217.535972
 20
234.835646
 30
0.0
  0
LWPOLYLINE
  5
3ef
100
AcDbEntity
  8
0
 62
7
100
AcDbPolyline
 90
5
 70
0
 10
237.971647
 20
215.148964
 30
0.0
 10
238.861018
 20
214.982118
 30
0.0
 10
239.115574
 20
218.757320
 30
0.0
 10
239.370156
 20
222.532521
 30
0.0
 10
237.796731
 20
224.068219
 30
0.0
  0
SPLINE
  5
3f0
100
AcDbEntity
  8
0
 62
7
100
AcDbSpline
 70
8
 71
3
 72
8
 73
4
 74
0
 40
0
 40
0
 40
0
 40
0
 40
1
 40
1
 40
1
 40
1
 10
211.281910
 20
232.652834
 30
0.0
 10
209.489384
 20
226.984599
 30
0.0
 10
208.457430
 20
221.095655
 30
0.0
 10
208.872746
 20
218.904868
 30
0.0
  0
SPLINE
  5
3f1
100
AcDbEntity
  8
0
 62
7
100
AcDbSpline
 70
8
 71
3
 72
8
 73
4
 74
0
 40
0
 40
0
 40
0
 40
0
 40
1
 40
1
 40
1
 40
1
 10
208.872746
 20
218.904868
 30
0.0
 10
209.047080
 20
217.985144
 30
0.0
 10
209.101161
 20
217.939128
 30
0.0
 10
209.727509
 20
218.177263
 30
0.0
  0
SPLINE
  5
3f2
100
AcDbEntity
  8
0
 62
7
100
AcDbSpline
 70
8
 71
3
 72
8
 73
4
 74
0
 40
0
 40
0
 40
0
 40
0
 40
1
 40
1
 40
1
 40
1
 10
209.727509
 20
218.177263
 30
0.0
 10
210.734566
 20
218.560147
 30
0.0
 10
212.286982
 20
218.483053
 30
0.0
 10
212.952198
 20
218.017122
 30
0.0
  0
SPLINE
  5
3f3
100
AcDbEntity
  8
0
 62
7
100
AcDbSpline
 70
8
 71
3
 72
8
 73
4
 74
0
 40
0
 40
0
 40
0
 40
0
 40
1
 40
1
 40
1
 40
1
 10
212.952198
 20
218.017122
 30
0.0
 10
213.959308
 20
217.311713
 30
0.0
 10
214.610209
 20
215.613634
 30
0.0
 10
216.085288
 20
209.843478
 30
0.0
  0
SPLINE
  5
3f4
100
AcDbEntity
  8
0
 62
7
100
AcDbSpline
 70
8
 71
3
 72
8
 73
4
 74
0
 40
0
 40
0
 40
0
 40
0
 40
1
 40
1
 40
1
 40
1
 10
216.085288
 20
209.843478
 30
0.0
 10
218.618779
 20
199.933012
 30
0.0
 10
222.158666
 20
174.596920
 30
0.0
 10
223.480154
 20
156.915855
 30
0.0
  0
SPLINE
  5
3f5
100
AcDbEntity
  8
0
 62
7
100
AcDbSpline
 70
8
 71
3
 72
8
 73
4
 74
0
 40
0
 40
0
 40
0
 40
0
 40
1
 40
1
 40
1
 40
1
 10
223.480154
 20
156.915855
 30
0.0
 10
224.211436
 20
147.131680
 30
0.0
 10
223.750320
 20
140.326819
 30
0.0
 10
222.145781
 20
137.224011
 30
0.0
  0
SPLINE
  5
3f6
100
AcDbEntity
  8
0
 62
7
100
AcDbSpline
 70
8
 71
3
 72
8
 73
4
 74
0
 40
0
 40
0
 40
0
 40
0
 40
1
 40
1
 40
1
 40
1
 10
222.145781
 20
137.224011
 30
0.0
 10
221.438893
 20
135.857033
 30
0.0
 10
220.041840
 20
134.670774
 30
0.0
 10
218.694609
 20
134.293573
 30
0.0
  0
LWPOLYLINE
  5
3f7
100
AcDbEntity
  8
0
 62
7
100
AcDbPolyline
 90
3
 70
0
 10
217.535972
 20
234.835646
 30
0.0
 10
211.972207
 20
234.835646
 30
0.0
 10
211.281910
 20
232.652834
 30
0.0
  0
SPLINE
  5
3f8
100
AcDbEntity
  8
0
 62
7
100
AcDbSpline
 70
8
 71
3
 72
8
 73
4
 74
0
 40
0
 40
0
 40
0
 40
0
 40
1
 40
1
 40
1
 40
1
 10
217.599392
 20
131.404974
 30
0.0
 10
217.691732
 20
130.010749
 30
0.0
 10
217.770736
 20
127.917522
 30
0.0
 10
217.774970
 20
126.753355
 30
0.0
  0
LWPOLYLINE
  5
3f9
100
AcDbEntity
  8
0
 62
7
100
AcDbPolyline
 90
3
 70
0
 10
218.694609
 20
134.293573
 30
0.0
 10
217.431514
 20
133.939926
 30
0.0
 10
217.599392
 20
131.404974
 30
0.0
  0
SPLINE
  5
3fa
100
AcDbEntity
  8
0
 62
7
100
AcDbSpline
 70
8
 71
3
 72
8
 73
4
 74
0
 40
0
 40
0
 40
0
 40
0
 40
1
 40
1
 40
1
 40
1
 10
222.340382
 20
122.539173
 30
0.0
 10
224.847150
 20
121.385539
 30
0.0
 10
228.743616
 20
119.516588
 30
0.0
 10
230.999189
 20
118.385950
 30
0.0
  0
SPLINE
  5
3fb
100
AcDbEntity
  8
0
 62
7
100
AcDbSpline
 70
8
 71
3
 72
8
 73
4
 74
0
 40
0
 40
0
 40
0
 40
0
 40
1
 40
1
 40
1
 40
1
 10
230.999189
 20
118.385950
 30
0.0
 10
233.254762
 20
117.255311
 30
0.0
 10
235.175055
 20
116.323959
 30
0.0
 10
235.266495
 20
116.316278
 30
0.0
  0
SPLINE
  5
3fc
100
AcDbEntity
  8
0
 62
7
100
AcDbSpline
 70
8
 71
3
 72
8
 73
4
 74
0
 40
0
 40
0
 40
0
 40
0
 40
1
 40
1
 40
1
 40
1
 10
235.266495
 20
116.316278
 30
0.0
 10
235.357961
 20
116.308606
 30
0.0
 10
235.511896
 20
118.356142
 30
0.0
 10
235.608627
 20
120.866376
 30
0.0
  0
LWPOLYLINE
  5
3fd
100
AcDbEntity
  8
0
 62
7
100
AcDbPolyline
 90
3
 70
0
 10
217.774970
 20
126.753355
 30
0.0
 10
217.782643
 20
124.636689
 30
0.0
 10
222.340382
 20
122.539173
 30
0.0
  0
LWPOLYLINE
  5
3fe
100
AcDbEntity
  8
0
 62
7
100
AcDbPolyline
 90
1
 70
1
 10
235.608627
 20
120.866376
 30
0.0
  0
SPLINE
  5
3ff
100
AcDbEntity
  8
0
 62
7
100
AcDbSpline
 70
8
 71
3
 72
8
 73
4
 74
0
 40
0
 40
0
 40
0
 40
0
 40
1
 40
1
 40
1
 40
1
 10
108.188908
 20
130.369225
 30
0.0
 10
106.914976
 20
137.776752
 30
0.0
 10
106.986591
 20
157.154205
 30
0.0
 10
108.379427
 20
181.918980
 30
0.0
  0
SPLINE
  5
400
100
AcDbEntity
  8
0
 62
7
100
AcDbSpline
 70
8
 71
3
 72
8
 73
4
 74
0
 40
0
 40
0
 40
0
 40
0
 40
1
 40
1
 40
1
 40
1
 10
108.379427
 20
181.918980
 30
0.0
 10
108.870440
 20
190.649275
 30
0.0
 10
110.344932
 20
201.267766
 30
0.0
 10
111.333555
 20
203.193049
 30
0.0
  0
SPLINE
  5
401
100
AcDbEntity
  8
0
 62
7
100
AcDbSpline
 70
8
 71
3
 72
8
 73
4
 74
0
 40
0
 40
0
 40
0
 40
0
 40
1
 40
1
 40
1
 40
1
 10
111.333555
 20
203.193049
 30
0.0
 10
112.219817
 20
204.918985
 30
0.0
 10
113.670863
 20
205.571886
 30
0.0
 10
115.332814
 20
204.992526
 30
0.0
  0
LWPOLYLINE
  5
402
100
AcDbEntity
  8
0
 62
7
100
AcDbPolyline
 90
3
 70
0
 10
106.035226
 20
124.019225
 30
0.0
 10
108.659118
 20
127.635093
 30
0.0
 10
108.188908
 20
130.369225
 30
0.0
  0
SPLINE
  5
403
100
AcDbEntity
  8
0
 62
7
100
AcDbSpline
 70
8
 71
3
 72
8
 73
4
 74
0
 40
0
 40
0
 40
0
 40
0
 40
1
 40
1
 40
1
 40
1
 10
116.286542
 20
208.466412
 30
0.0
 10
116.692826
 20
217.462603
 30
0.0
 10
117.226728
 20
231.411134
 30
0.0
 10
117.227506
 20
233.049709
 30
0.0
  0
LWPOLYLINE
  5
404
100
AcDbEntity
  8
0
 62
7
100
AcDbPolyline
 90
3
 70
0
 10
115.332814
 20
204.992526
 30
0.0
 10
116.117304
 20
204.719052
 30
0.0
 10
116.286542
 20
208.466412
 30
0.0
  0
SPLINE
  5
405
100
AcDbEntity
  8
0
 62
7
100
AcDbSpline
 70
8
 71
3
 72
8
 73
4
 74
0
 40
0
 40
0
 40
0
 40
0
 40
1
 40
1
 40
1
 40
1
 10
96.994427
 20
234.240334
 30
0.0
 10
96.691103
 20
232.909435
 30
0.0
 10
93.953232
 20
217.543160
 30
0.0
 10
94.012901
 20
217.506553
 30
0.0
  0
SPLINE
  5
406
100
AcDbEntity
  8
0
 62
7
100
AcDbSpline
 70
8
 71
3
 72
8
 73
4
 74
0
 40
0
 40
0
 40
0
 40
0
 40
1
 40
1
 40
1
 40
1
 10
94.012901
 20
217.506553
 30
0.0
 10
94.048329
 20
217.484830
 30
0.0
 10
94.613095
 20
217.263911
 30
0.0
 10
95.267939
 20
217.015650
 30
0.0
  0
SPLINE
  5
407
100
AcDbEntity
  8
0
 62
7
100
AcDbSpline
 70
8
 71
3
 72
8
 73
4
 74
0
 40
0
 40
0
 40
0
 40
0
 40
1
 40
1
 40
1
 40
1
 10
95.267939
 20
217.015650
 30
0.0
 10
97.924289
 20
216.008590
 30
0.0
 10
98.590605
 20
214.801685
 30
0.0
 10
98.503296
 20
211.155439
 30
0.0
  0
SPLINE
  5
408
100
AcDbEntity
  8
0
 62
7
100
AcDbSpline
 70
8
 71
3
 72
8
 73
4
 74
0
 40
0
 40
0
 40
0
 40
0
 40
1
 40
1
 40
1
 40
1
 10
98.503296
 20
211.155439
 30
0.0
 10
98.357560
 20
205.069257
 30
0.0
 10
97.005600
 20
194.794783
 30
0.0
 10
95.542632
 20
188.655333
 30
0.0
  0
SPLINE
  5
409
100
AcDbEntity
  8
0
 62
7
100
AcDbSpline
 70
8
 71
3
 72
8
 73
4
 74
0
 40
0
 40
0
 40
0
 40
0
 40
1
 40
1
 40
1
 40
1
 10
95.542632
 20
188.655333
 30
0.0
 10
94.052234
 20
182.400771
 30
0.0
 10
93.519572
 20
180.950439
 30
0.0
 10
92.244624
 20
179.675491
 30
0.0
  0
SPLINE
  5
40a
100
AcDbEntity
  8
0
 62
7
100
AcDbSpline
 70
8
 71
3
 72
8
 73
4
 74
0
 40
0
 40
0
 40
0
 40
0
 40
1
 40
1
 40
1
 40
1
 10
92.244624
 20
179.675491
 30
0.0
 10
91.617271
 20
179.048137
 30
0.0
 10
90.570378
 20
178.298808
 30
0.0
 10
89.918196
 20
178.010317
 30
0.0
  0
LWPOLYLINE
  5
40b
100
AcDbEntity
  8
0
 62
7
100
AcDbPolyline
 90
5
 70
0
 10
117.227506
 20
233.049709
 30
0.0
 10
117.228300
 20
234.835646
 30
0.0
 10
107.179229
 20
234.835646
 30
0.0
 10
97.130103
 20
234.835646
 30
0.0
 10
96.994427
 20
234.240334
 30
0.0
  0
SPLINE
  5
40c
100
AcDbEntity
  8
0
 62
7
100
AcDbSpline
 70
8
 71
3
 72
8
 73
4
 74
0
 40
0
 40
0
 40
0
 40
0
 40
1
 40
1
 40
1
 40
1
 10
88.558717
 20
172.227904
 30
0.0
 10
88.463186
 20
169.336069
 30
0.0
 10
88.269842
 20
161.016897
 30
0.0
 10
88.129062
 20
153.740855
 30
0.0
  0
SPLINE
  5
40d
100
AcDbEntity
  8
0
 62
7
100
AcDbSpline
 70
8
 71
3
 72
8
 73
4
 74
0
 40
0
 40
0
 40
0
 40
0
 40
1
 40
1
 40
1
 40
1
 10
88.129062
 20
153.740855
 30
0.0
 10
87.988280
 20
146.464814
 30
0.0
 10
87.816706
 20
137.951845
 30
0.0
 10
87.747782
 20
134.823147
 30
0.0
  0
LWPOLYLINE
  5
40e
100
AcDbEntity
  8
0
 62
7
100
AcDbPolyline
 90
3
 70
0
 10
89.918196
 20
178.010317
 30
0.0
 10
88.732410
 20
177.485789
 30
0.0
 10
88.558717
 20
172.227904
 30
0.0
  0
SPLINE
  5
40f
100
AcDbEntity
  8
0
 62
7
100
AcDbSpline
 70
8
 71
3
 72
8
 73
4
 74
0
 40
0
 40
0
 40
0
 40
0
 40
1
 40
1
 40
1
 40
1
 10
88.224934
 20
131.383564
 30
0.0
 10
89.013120
 20
134.325797
 30
0.0
 10
90.159308
 20
137.769230
 30
0.0
 10
90.954204
 20
139.582977
 30
0.0
  0
SPLINE
  5
410
100
AcDbEntity
  8
0
 62
7
100
AcDbSpline
 70
8
 71
3
 72
8
 73
4
 74
0
 40
0
 40
0
 40
0
 40
0
 40
1
 40
1
 40
1
 40
1
 10
90.954204
 20
139.582977
 30
0.0
 10
91.966904
 20
141.893692
 30
0.0
 10
93.029371
 20
142.788584
 30
0.0
 10
95.185264
 20
143.146701
 30
0.0
  0
SPLINE
  5
411
100
AcDbEntity
  8
0
 62
7
100
AcDbSpline
 70
8
 71
3
 72
8
 73
4
 74
0
 40
0
 40
0
 40
0
 40
0
 40
1
 40
1
 40
1
 40
1
 10
95.185264
 20
143.146701
 30
0.0
 10
96.109343
 20
143.300199
 30
0.0
 10
96.317067
 20
143.448095
 30
0.0
 10
96.436939
 20
144.037881
 30
0.0
  0
SPLINE
  5
412
100
AcDbEntity
  8
0
 62
7
100
AcDbSpline
 70
8
 71
3
 72
8
 73
4
 74
0
 40
0
 40
0
 40
0
 40
0
 40
1
 40
1
 40
1
 40
1
 10
96.436939
 20
144.037881
 30
0.0
 10
96.515986
 20
144.426808
 30
0.0
 10
97.250573
 20
149.924241
 30
0.0
 10
98.069350
 20
156.254397
 30
0.0
  0
SPLINE
  5
413
100
AcDbEntity
  8
0
 62
7
100
AcDbSpline
 70
8
 71
3
 72
8
 73
4
 74
0
 40
0
 40
0
 40
0
 40
0
 40
1
 40
1
 40
1
 40
1
 10
98.069350
 20
156.254397
 30
0.0
 10
98.888129
 20
162.584553
 30
0.0
 10
99.599253
 20
167.807836
 30
0.0
 10
99.649627
 20
167.861694
 30
0.0
  0
SPLINE
  5
414
100
AcDbEntity
  8
0
 62
7
100
AcDbSpline
 70
8
 71
3
 72
8
 73
4
 74
0
 40
0
 40
0
 40
0
 40
0
 40
1
 40
1
 40
1
 40
1
 10
99.649627
 20
167.861694
 30
0.0
 10
99.699998
 20
167.915550
 30
0.0
 10
100.044414
 20
167.883522
 30
0.0
 10
100.414992
 20
167.790506
 30
0.0
  0
SPLINE
  5
415
100
AcDbEntity
  8
0
 62
7
100
AcDbSpline
 70
8
 71
3
 72
8
 73
4
 74
0
 40
0
 40
0
 40
0
 40
0
 40
1
 40
1
 40
1
 40
1
 10
100.414992
 20
167.790506
 30
0.0
 10
101.273734
 20
167.574976
 30
0.0
 10
101.288009
 20
168.292851
 30
0.0
 10
100.161926
 20
155.063772
 30
0.0
  0
SPLINE
  5
416
100
AcDbEntity
  8
0
 62
7
100
AcDbSpline
 70
8
 71
3
 72
8
 73
4
 74
0
 40
0
 40
0
 40
0
 40
0
 40
1
 40
1
 40
1
 40
1
 10
100.161926
 20
155.063772
 30
0.0
 10
99.654061
 20
149.097418
 30
0.0
 10
99.238118
 20
143.947965
 30
0.0
 10
99.237612
 20
143.620543
 30
0.0
  0
SPLINE
  5
417
100
AcDbEntity
  8
0
 62
7
100
AcDbSpline
 70
8
 71
3
 72
8
 73
4
 74
0
 40
0
 40
0
 40
0
 40
0
 40
1
 40
1
 40
1
 40
1
 10
99.237612
 20
143.620543
 30
0.0
 10
99.237083
 20
143.209216
 30
0.0
 10
99.393957
 20
143.025230
 30
0.0
 10
99.745554
 20
143.025230
 30
0.0
  0
SPLINE
  5
418
100
AcDbEntity
  8
0
 62
7
100
AcDbSpline
 70
8
 71
3
 72
8
 73
4
 74
0
 40
0
 40
0
 40
0
 40
0
 40
1
 40
1
 40
1
 40
1
 10
99.745554
 20
143.025230
 30
0.0
 10
100.549718
 20
143.025230
 30
0.0
 10
101.807423
 20
141.790420
 30
0.0
 10
102.245996
 20
140.570310
 30
0.0
  0
SPLINE
  5
419
100
AcDbEntity
  8
0
 62
7
100
AcDbSpline
 70
8
 71
3
 72
8
 73
4
 74
0
 40
0
 40
0
 40
0
 40
0
 40
1
 40
1
 40
1
 40
1
 10
102.245996
 20
140.570310
 30
0.0
 10
103.009218
 20
138.447021
 30
0.0
 10
103.337730
 20
134.806880
 30
0.0
 10
103.337730
 20
128.473147
 30
0.0
  0
SPLINE
  5
41a
100
AcDbEntity
  8
0
 62
7
100
AcDbSpline
 70
8
 71
3
 72
8
 73
4
 74
0
 40
0
 40
0
 40
0
 40
0
 40
1
 40
1
 40
1
 40
1
 10
103.337730
 20
128.473147
 30
0.0
 10
103.337730
 20
125.053407
 30
0.0
 10
103.242340
 20
121.719657
 30
0.0
 10
103.125749
 20
121.064814
 30
0.0
  0
SPLINE
  5
41b
100
AcDbEntity
  8
0
 62
7
100
AcDbSpline
 70
8
 71
3
 72
8
 73
4
 74
0
 40
0
 40
0
 40
0
 40
0
 40
1
 40
1
 40
1
 40
1
 10
103.125749
 20
121.064814
 30
0.0
 10
102.867566
 20
119.614672
 30
0.0
 10
102.759087
 20
119.504518
 30
0.0
 10
106.035226
 20
124.019225
 30
0.0
  0
LWPOLYLINE
  5
41c
100
AcDbEntity
  8
0
 62
7
100
AcDbPolyline
 90
3
 70
0
 10
87.747782
 20
134.823147
 30
0.0
 10
87.622467
 20
129.134605
 30
0.0
 10
88.224934
 20
131.383564
 30
0.0
  0
SPLINE
  5
41d
100
AcDbEntity
  8
0
 62
7
100
AcDbSpline
 70
8
 71
3
 72
8
 73
4
 74
0
 40
0
 40
0
 40
0
 40
0
 40
1
 40
1
 40
1
 40
1
 10
43.230173
 20
127.811689
 30
0.0
 10
45.830154
 20
135.401172
 30
0.0
 10
47.149732
 20
139.032538
 30
0.0
 10
50.152628
 20
146.861689
 30
0.0
  0
SPLINE
  5
41e
100
AcDbEntity
  8
0
 62
7
100
AcDbSpline
 70
8
 71
3
 72
8
 73
4
 74
0
 40
0
 40
0
 40
0
 40
0
 40
1
 40
1
 40
1
 40
1
 10
50.152628
 20
146.861689
 30
0.0
 10
51.659631
 20
150.790751
 30
0.0
 10
53.613182
 20
156.109329
 30
0.0
 10
54.493848
 20
158.680748
 30
0.0
  0
SPLINE
  5
41f
100
AcDbEntity
  8
0
 62
7
100
AcDbSpline
 70
8
 71
3
 72
8
 73
4
 74
0
 40
0
 40
0
 40
0
 40
0
 40
1
 40
1
 40
1
 40
1
 10
54.493848
 20
158.680748
 30
0.0
 10
58.678598
 20
170.899601
 30
0.0
 10
62.092427
 20
177.856409
 30
0.0
 10
64.519614
 20
179.111555
 30
0.0
  0
LWPOLYLINE
  5
420
100
AcDbEntity
  8
0
 62
7
100
AcDbPolyline
 90
1
 70
1
 10
106.035226
 20
124.019225
 30
0.0
  0
SPLINE
  5
421
100
AcDbEntity
  8
0
 62
7
100
AcDbSpline
 70
8
 71
3
 72
8
 73
4
 74
0
 40
0
 40
0
 40
0
 40
0
 40
1
 40
1
 40
1
 40
1
 10
64.672969
 20
183.798514
 30
0.0
 10
63.906818
 20
189.269722
 30
0.0
 10
63.352717
 20
195.733162
 30
0.0
 10
62.971736
 20
203.642971
 30
0.0
  0
SPLINE
  5
422
100
AcDbEntity
  8
0
 62
7
100
AcDbSpline
 70
8
 71
3
 72
8
 73
4
 74
0
 40
0
 40
0
 40
0
 40
0
 40
1
 40
1
 40
1
 40
1
 10
62.971736
 20
203.642971
 30
0.0
 10
62.581652
 20
211.741763
 30
0.0
 10
62.744853
 20
212.650065
 30
0.0
 10
64.880268
 20
214.265063
 30
0.0
  0
SPLINE
  5
423
100
AcDbEntity
  8
0
 62
7
100
AcDbSpline
 70
8
 71
3
 72
8
 73
4
 74
0
 40
0
 40
0
 40
0
 40
0
 40
1
 40
1
 40
1
 40
1
 10
64.880268
 20
214.265063
 30
0.0
 10
65.283271
 20
214.569850
 30
0.0
 10
65.238635
 20
215.362028
 30
0.0
 10
64.295171
 20
224.649188
 30
0.0
  0
SPLINE
  5
424
100
AcDbEntity
  8
0
 62
7
100
AcDbSpline
 70
8
 71
3
 72
8
 73
4
 74
0
 40
0
 40
0
 40
0
 40
0
 40
1
 40
1
 40
1
 40
1
 10
64.295171
 20
224.649188
 30
0.0
 10
63.733410
 20
230.178980
 30
0.0
 10
63.269191
 20
234.733120
 30
0.0
 10
63.263571
 20
234.769500
 30
0.0
  0
SPLINE
  5
425
100
AcDbEntity
  8
0
 62
7
100
AcDbSpline
 70
8
 71
3
 72
8
 73
4
 74
0
 40
0
 40
0
 40
0
 40
0
 40
1
 40
1
 40
1
 40
1
 10
63.263571
 20
234.769500
 30
0.0
 10
63.236057
 20
234.947644
 30
0.0
 10
45.790855
 20
234.807468
 30
0.0
 10
45.790855
 20
234.629102
 30
0.0
  0
SPLINE
  5
426
100
AcDbEntity
  8
0
 62
7
100
AcDbSpline
 70
8
 71
3
 72
8
 73
4
 74
0
 40
0
 40
0
 40
0
 40
0
 40
1
 40
1
 40
1
 40
1
 10
45.790855
 20
234.629102
 30
0.0
 10
45.790855
 20
233.981476
 30
0.0
 10
44.729842
 20
215.340356
 30
0.0
 10
44.603601
 20
213.770025
 30
0.0
  0
LWPOLYLINE
  5
427
100
AcDbEntity
  8
0
 62
7
100
AcDbPolyline
 90
3
 70
0
 10
64.519614
 20
179.111555
 30
0.0
 10
65.274627
 20
179.501988
 30
0.0
 10
64.672969
 20
183.798514
 30
0.0
  0
SPLINE
  5
428
100
AcDbEntity
  8
0
 62
7
100
AcDbSpline
 70
8
 71
3
 72
8
 73
4
 74
0
 40
0
 40
0
 40
0
 40
0
 40
1
 40
1
 40
1
 40
1
 10
45.915628
 20
211.170708
 30
0.0
 10
47.936248
 20
210.182111
 30
0.0
 10
48.575296
 20
209.029956
 30
0.0
 10
48.932529
 20
205.731480
 30
0.0
  0
SPLINE
  5
429
100
AcDbEntity
  8
0
 62
7
100
AcDbSpline
 70
8
 71
3
 72
8
 73
4
 74
0
 40
0
 40
0
 40
0
 40
0
 40
1
 40
1
 40
1
 40
1
 10
48.932529
 20
205.731480
 30
0.0
 10
49.515482
 20
200.348781
 30
0.0
 10
49.526373
 20
195.393768
 30
0.0
 10
48.984858
 20
181.918980
 30
0.0
  0
SPLINE
  5
42a
100
AcDbEntity
  8
0
 62
7
100
AcDbSpline
 70
8
 71
3
 72
8
 73
4
 74
0
 40
0
 40
0
 40
0
 40
0
 40
1
 40
1
 40
1
 40
1
 10
48.984858
 20
181.918980
 30
0.0
 10
48.083422
 20
159.488029
 30
0.0
 10
47.473658
 20
151.294007
 30
0.0
 10
46.526326
 20
148.881140
 30
0.0
  0
SPLINE
  5
42b
100
AcDbEntity
  8
0
 62
7
100
AcDbSpline
 70
8
 71
3
 72
8
 73
4
 74
0
 40
0
 40
0
 40
0
 40
0
 40
1
 40
1
 40
1
 40
1
 10
46.526326
 20
148.881140
 30
0.0
 10
45.841674
 20
147.137324
 30
0.0
 10
44.267115
 20
145.102109
 30
0.0
 10
42.905548
 20
144.201068
 30
0.0
  0
LWPOLYLINE
  5
42c
100
AcDbEntity
  8
0
 62
7
100
AcDbPolyline
 90
3
 70
0
 10
44.603601
 20
213.770025
 30
0.0
 10
44.452196
 20
211.886697
 30
0.0
 10
45.915628
 20
211.170708
 30
0.0
  0
SPLINE
  5
42d
100
AcDbEntity
  8
0
 62
7
100
AcDbSpline
 70
8
 71
3
 72
8
 73
4
 74
0
 40
0
 40
0
 40
0
 40
0
 40
1
 40
1
 40
1
 40
1
 10
41.719884
 20
138.050169
 30
0.0
 10
41.628692
 20
135.038380
 30
0.0
 10
41.482081
 20
130.312001
 30
0.0
 10
41.394081
 20
127.547105
 30
0.0
  0
SPLINE
  5
42e
100
AcDbEntity
  8
0
 62
7
100
AcDbSpline
 70
8
 71
3
 72
8
 73
4
 74
0
 40
0
 40
0
 40
0
 40
0
 40
1
 40
1
 40
1
 40
1
 10
41.394081
 20
127.547105
 30
0.0
 10
41.306078
 20
124.782210
 30
0.0
 10
41.295712
 20
122.579553
 30
0.0
 10
41.371036
 20
122.652314
 30
0.0
  0
SPLINE
  5
42f
100
AcDbEntity
  8
0
 62
7
100
AcDbSpline
 70
8
 71
3
 72
8
 73
4
 74
0
 40
0
 40
0
 40
0
 40
0
 40
1
 40
1
 40
1
 40
1
 10
41.371036
 20
122.652314
 30
0.0
 10
41.446365
 20
122.725074
 30
0.0
 10
42.282975
 20
125.046793
 30
0.0
 10
43.230165
 20
127.811689
 30
0.0
  0
LWPOLYLINE
  5
430
100
AcDbEntity
  8
0
 62
7
100
AcDbPolyline
 90
3
 70
0
 10
42.905548
 20
144.201068
 30
0.0
 10
41.885682
 20
143.526150
 30
0.0
 10
41.719884
 20
138.050169
 30
0.0
  0
SPLINE
  5
431
100
AcDbEntity
  8
0
 62
7
100
AcDbSpline
 70
8
 71
3
 72
8
 73
4
 74
0
 40
0
 40
0
 40
0
 40
0
 40
1
 40
1
 40
1
 40
1
 10
359.281254
 20
127.423185
 30
0.0
 10
358.906868
 20
130.083690
 30
0.0
 10
359.149200
 20
136.385334
 30
0.0
 10
359.703185
 20
138.395022
 30
0.0
  0
SPLINE
  5
432
100
AcDbEntity
  8
0
 62
7
100
AcDbSpline
 70
8
 71
3
 72
8
 73
4
 74
0
 40
0
 40
0
 40
0
 40
0
 40
1
 40
1
 40
1
 40
1
 10
359.703185
 20
138.395022
 30
0.0
 10
360.546385
 20
141.453870
 30
0.0
 10
362.346584
 20
144.697794
 30
0.0
 10
364.127177
 20
146.366950
 30
0.0
  0
SPLINE
  5
433
100
AcDbEntity
  8
0
 62
7
100
AcDbSpline
 70
8
 71
3
 72
8
 73
4
 74
0
 40
0
 40
0
 40
0
 40
0
 40
1
 40
1
 40
1
 40
1
 10
364.127177
 20
146.366950
 30
0.0
 10
364.866396
 20
147.059912
 30
0.0
 10
365.347197
 20
147.243504
 30
0.0
 10
367.071963
 20
147.491429
 30
0.0
  0
SPLINE
  5
434
100
AcDbEntity
  8
0
 62
7
100
AcDbSpline
 70
8
 71
3
 72
8
 73
4
 74
0
 40
0
 40
0
 40
0
 40
0
 40
1
 40
1
 40
1
 40
1
 10
367.071963
 20
147.491429
 30
0.0
 10
369.412150
 20
147.827812
 30
0.0
 10
376.712401
 20
147.855988
 30
0.0
 10
378.901272
 20
147.537085
 30
0.0
  0
SPLINE
  5
435
100
AcDbEntity
  8
0
 62
7
100
AcDbSpline
 70
8
 71
3
 72
8
 73
4
 74
0
 40
0
 40
0
 40
0
 40
0
 40
1
 40
1
 40
1
 40
1
 10
378.901272
 20
147.537085
 30
0.0
 10
379.701637
 20
147.420478
 30
0.0
 10
380.406592
 20
147.370133
 30
0.0
 10
380.467817
 20
147.425206
 30
0.0
  0
SPLINE
  5
436
100
AcDbEntity
  8
0
 62
7
100
AcDbSpline
 70
8
 71
3
 72
8
 73
4
 74
0
 40
0
 40
0
 40
0
 40
0
 40
1
 40
1
 40
1
 40
1
 10
380.467817
 20
147.425206
 30
0.0
 10
380.529068
 20
147.480279
 30
0.0
 10
379.745954
 20
150.709770
 30
0.0
 10
378.727573
 20
154.601849
 30
0.0
  0
LWPOLYLINE
  5
437
100
AcDbEntity
  8
0
 62
7
100
AcDbPolyline
 90
1
 70
1
 10
43.230165
 20
127.811689
 30
0.0
  0
SPLINE
  5
438
100
AcDbEntity
  8
0
 62
7
100
AcDbSpline
 70
8
 71
3
 72
8
 73
4
 74
0
 40
0
 40
0
 40
0
 40
0
 40
1
 40
1
 40
1
 40
1
 10
375.838111
 20
161.825702
 30
0.0
 10
374.354566
 20
162.036318
 30
0.0
 10
372.886023
 20
162.812280
 30
0.0
 10
372.153577
 20
163.772585
 30
0.0
  0
SPLINE
  5
439
100
AcDbEntity
  8
0
 62
7
100
AcDbSpline
 70
8
 71
3
 72
8
 73
4
 74
0
 40
0
 40
0
 40
0
 40
0
 40
1
 40
1
 40
1
 40
1
 10
372.153577
 20
163.772585
 30
0.0
 10
370.794598
 20
165.554303
 30
0.0
 10
367.498392
 20
175.189229
 30
0.0
 10
364.723574
 20
185.490855
 30
0.0
  0
SPLINE
  5
43a
100
AcDbEntity
  8
0
 62
7
100
AcDbSpline
 70
8
 71
3
 72
8
 73
4
 74
0
 40
0
 40
0
 40
0
 40
0
 40
1
 40
1
 40
1
 40
1
 10
364.723574
 20
185.490855
 30
0.0
 10
363.626056
 20
189.565439
 30
0.0
 10
361.902190
 20
195.741499
 30
0.0
 10
360.892804
 20
199.215436
 30
0.0
  0
SPLINE
  5
43b
100
AcDbEntity
  8
0
 62
7
100
AcDbSpline
 70
8
 71
3
 72
8
 73
4
 74
0
 40
0
 40
0
 40
0
 40
0
 40
1
 40
1
 40
1
 40
1
 10
360.892804
 20
199.215436
 30
0.0
 10
359.883393
 20
202.689370
 30
0.0
 10
359.057522
 20
205.707012
 30
0.0
 10
359.057522
 20
205.921306
 30
0.0
  0
SPLINE
  5
43c
100
AcDbEntity
  8
0
 62
7
100
AcDbSpline
 70
8
 71
3
 72
8
 73
4
 74
0
 40
0
 40
0
 40
0
 40
0
 40
1
 40
1
 40
1
 40
1
 10
359.057522
 20
205.921306
 30
0.0
 10
359.057522
 20
206.222560
 30
0.0
 10
358.802490
 20
206.162042
 30
0.0
 10
357.933043
 20
205.654479
 30
0.0
  0
SPLINE
  5
43d
100
AcDbEntity
  8
0
 62
7
100
AcDbSpline
 70
8
 71
3
 72
8
 73
4
 74
0
 40
0
 40
0
 40
0
 40
0
 40
1
 40
1
 40
1
 40
1
 10
357.933043
 20
205.654479
 30
0.0
 10
357.314579
 20
205.293428
 30
0.0
 10
356.372345
 20
204.754141
 30
0.0
 10
355.839210
 20
204.456059
 30
0.0
  0
SPLINE
  5
43e
100
AcDbEntity
  8
0
 62
7
100
AcDbSpline
 70
8
 71
3
 72
8
 73
4
 74
0
 40
0
 40
0
 40
0
 40
0
 40
1
 40
1
 40
1
 40
1
 10
355.839210
 20
204.456059
 30
0.0
 10
353.459521
 20
203.125562
 30
0.0
 10
348.541393
 20
199.829695
 30
0.0
 10
344.813493
 20
197.067215
 30
0.0
  0
SPLINE
  5
43f
100
AcDbEntity
  8
0
 62
7
100
AcDbSpline
 70
8
 71
3
 72
8
 73
4
 74
0
 40
0
 40
0
 40
0
 40
0
 40
1
 40
1
 40
1
 40
1
 10
344.813493
 20
197.067215
 30
0.0
 10
341.650638
 20
194.723451
 30
0.0
 10
340.793970
 20
193.961575
 30
0.0
 10
340.928404
 20
193.612103
 30
0.0
  0
SPLINE
  5
440
100
AcDbEntity
  8
0
 62
7
100
AcDbSpline
 70
8
 71
3
 72
8
 73
4
 74
0
 40
0
 40
0
 40
0
 40
0
 40
1
 40
1
 40
1
 40
1
 10
340.928404
 20
193.612103
 30
0.0
 10
341.023258
 20
193.365522
 30
0.0
 10
343.044992
 20
187.627366
 30
0.0
 10
345.421109
 20
180.860647
 30
0.0
  0
SPLINE
  5
441
100
AcDbEntity
  8
0
 62
7
100
AcDbSpline
 70
8
 71
3
 72
8
 73
4
 74
0
 40
0
 40
0
 40
0
 40
0
 40
1
 40
1
 40
1
 40
1
 10
345.421109
 20
180.860647
 30
0.0
 10
351.534280
 20
163.451490
 30
0.0
 10
353.501272
 20
157.022879
 30
0.0
 10
353.501272
 20
154.452550
 30
0.0
  0
SPLINE
  5
442
100
AcDbEntity
  8
0
 62
7
100
AcDbSpline
 70
8
 71
3
 72
8
 73
4
 74
0
 40
0
 40
0
 40
0
 40
0
 40
1
 40
1
 40
1
 40
1
 10
353.501272
 20
154.452550
 30
0.0
 10
353.501272
 20
152.529191
 30
0.0
 10
352.739193
 20
149.945865
 30
0.0
 10
351.813918
 20
148.732785
 30
0.0
  0
LWPOLYLINE
  5
443
100
AcDbEntity
  8
0
 62
7
100
AcDbPolyline
 90
3
 70
0
 10
378.727573
 20
154.601849
 30
0.0
 10
376.875966
 20
161.678355
 30
0.0
 10
375.838111
 20
161.825702
 30
0.0
  0
SPLINE
  5
444
100
AcDbEntity
  8
0
 62
7
100
AcDbSpline
 70
8
 71
3
 72
8
 73
4
 74
0
 40
0
 40
0
 40
0
 40
0
 40
1
 40
1
 40
1
 40
1
 10
355.282976
 20
136.580658
 30
0.0
 10
357.564664
 20
130.386942
 30
0.0
 10
359.460271
 20
125.348116
 30
0.0
 10
359.495434
 20
125.383269
 30
0.0
  0
SPLINE
  5
445
100
AcDbEntity
  8
0
 62
7
100
AcDbSpline
 70
8
 71
3
 72
8
 73
4
 74
0
 40
0
 40
0
 40
0
 40
0
 40
1
 40
1
 40
1
 40
1
 10
359.495434
 20
125.383269
 30
0.0
 10
359.530571
 20
125.418421
 30
0.0
 10
359.434209
 20
126.336385
 30
0.0
 10
359.281254
 20
127.423185
 30
0.0
  0
LWPOLYLINE
  5
446
100
AcDbEntity
  8
0
 62
7
100
AcDbPolyline
 90
3
 70
0
 10
351.813918
 20
148.732785
 30
0.0
 10
351.134468
 20
147.841962
 30
0.0
 10
355.282976
 20
136.580658
 30
0.0
  0
SPLINE
  5
447
100
AcDbEntity
  8
0
 62
7
100
AcDbSpline
 70
8
 71
3
 72
8
 73
4
 74
0
 40
0
 40
0
 40
0
 40
0
 40
1
 40
1
 40
1
 40
1
 10
71.716736
 20
130.650557
 30
0.0
 10
71.526845
 20
133.163762
 30
0.0
 10
71.296840
 20
135.501478
 30
0.0
 10
71.205614
 20
135.845479
 30
0.0
  0
SPLINE
  5
448
100
AcDbEntity
  8
0
 62
7
100
AcDbSpline
 70
8
 71
3
 72
8
 73
4
 74
0
 40
0
 40
0
 40
0
 40
0
 40
1
 40
1
 40
1
 40
1
 10
71.205614
 20
135.845479
 30
0.0
 10
71.087401
 20
136.291243
 30
0.0
 10
70.795404
 20
135.449239
 30
0.0
 10
70.189259
 20
132.914731
 30
0.0
  0
SPLINE
  5
449
100
AcDbEntity
  8
0
 62
7
100
AcDbSpline
 70
8
 71
3
 72
8
 73
4
 74
0
 40
0
 40
0
 40
0
 40
0
 40
1
 40
1
 40
1
 40
1
 10
70.189259
 20
132.914731
 30
0.0
 10
69.721492
 20
130.958820
 30
0.0
 10
69.338772
 20
129.230607
 30
0.0
 10
69.338772
 20
129.074262
 30
0.0
  0
SPLINE
  5
44a
100
AcDbEntity
  8
0
 62
7
100
AcDbSpline
 70
8
 71
3
 72
8
 73
4
 74
0
 40
0
 40
0
 40
0
 40
0
 40
1
 40
1
 40
1
 40
1
 10
69.338772
 20
129.074262
 30
0.0
 10
69.338772
 20
128.917917
 30
0.0
 10
69.743849
 20
128.550998
 30
0.0
 10
70.238940
 20
128.258888
 30
0.0
  0
SPLINE
  5
44b
100
AcDbEntity
  8
0
 62
7
100
AcDbSpline
 70
8
 71
3
 72
8
 73
4
 74
0
 40
0
 40
0
 40
0
 40
0
 40
1
 40
1
 40
1
 40
1
 10
70.238940
 20
128.258888
 30
0.0
 10
70.793732
 20
127.931553
 30
0.0
 10
71.270024
 20
127.365739
 30
0.0
 10
71.480312
 20
126.784193
 30
0.0
  0
SPLINE
  5
44c
100
AcDbEntity
  8
0
 62
7
100
AcDbSpline
 70
8
 71
3
 72
8
 73
4
 74
0
 40
0
 40
0
 40
0
 40
0
 40
1
 40
1
 40
1
 40
1
 10
71.480312
 20
126.784193
 30
0.0
 10
71.667976
 20
126.265226
 30
0.0
 10
71.875624
 20
125.894722
 30
0.0
 10
71.941754
 20
125.960852
 30
0.0
  0
SPLINE
  5
44d
100
AcDbEntity
  8
0
 62
7
100
AcDbSpline
 70
8
 71
3
 72
8
 73
4
 74
0
 40
0
 40
0
 40
0
 40
0
 40
1
 40
1
 40
1
 40
1
 10
71.941754
 20
125.960852
 30
0.0
 10
72.007886
 20
126.026982
 30
0.0
 10
71.906627
 20
128.137349
 30
0.0
 10
71.716736
 20
130.650557
 30
0.0
  0
LWPOLYLINE
  5
44e
100
AcDbEntity
  8
0
 62
7
100
AcDbPolyline
 90
1
 70
1
 10
359.281254
 20
127.423185
 30
0.0
  0
SPLINE
  5
44f
100
AcDbEntity
  8
0
 62
7
100
AcDbSpline
 70
8
 71
3
 72
8
 73
4
 74
0
 40
0
 40
0
 40
0
 40
0
 40
1
 40
1
 40
1
 40
1
 10
214.738929
 20
129.465335
 30
0.0
 10
214.500328
 20
134.092209
 30
0.0
 10
214.507022
 20
134.069426
 30
0.0
 10
213.202282
 20
134.690855
 30
0.0
  0
SPLINE
  5
450
100
AcDbEntity
  8
0
 62
7
100
AcDbSpline
 70
8
 71
3
 72
8
 73
4
 74
0
 40
0
 40
0
 40
0
 40
0
 40
1
 40
1
 40
1
 40
1
 10
213.202282
 20
134.690855
 30
0.0
 10
211.645500
 20
135.432332
 30
0.0
 10
209.313489
 20
137.869205
 30
0.0
 10
208.401946
 20
139.707019
 30
0.0
  0
SPLINE
  5
451
100
AcDbEntity
  8
0
 62
7
100
AcDbSpline
 70
8
 71
3
 72
8
 73
4
 74
0
 40
0
 40
0
 40
0
 40
0
 40
1
 40
1
 40
1
 40
1
 10
208.401946
 20
139.707019
 30
0.0
 10
207.670506
 20
141.181759
 30
0.0
 10
207.417538
 20
142.404346
 30
0.0
 10
205.989237
 20
151.368189
 30
0.0
  0
SPLINE
  5
452
100
AcDbEntity
  8
0
 62
7
100
AcDbSpline
 70
8
 71
3
 72
8
 73
4
 74
0
 40
0
 40
0
 40
0
 40
0
 40
1
 40
1
 40
1
 40
1
 10
205.989237
 20
151.368189
 30
0.0
 10
205.900920
 20
151.922438
 30
0.0
 10
205.121351
 20
152.945060
 30
0.0
 10
203.467996
 20
154.675480
 30
0.0
  0
SPLINE
  5
453
100
AcDbEntity
  8
0
 62
7
100
AcDbSpline
 70
8
 71
3
 72
8
 73
4
 74
0
 40
0
 40
0
 40
0
 40
0
 40
1
 40
1
 40
1
 40
1
 10
203.467996
 20
154.675480
 30
0.0
 10
202.151641
 20
156.053208
 30
0.0
 10
196.591502
 20
162.048685
 30
0.0
 10
191.112114
 20
167.998762
 30
0.0
  0
SPLINE
  5
454
100
AcDbEntity
  8
0
 62
7
100
AcDbSpline
 70
8
 71
3
 72
8
 73
4
 74
0
 40
0
 40
0
 40
0
 40
0
 40
1
 40
1
 40
1
 40
1
 10
191.112114
 20
167.998762
 30
0.0
 10
185.632725
 20
173.948839
 30
0.0
 10
181.106604
 20
178.688071
 30
0.0
 10
181.054031
 20
178.530388
 30
0.0
  0
SPLINE
  5
455
100
AcDbEntity
  8
0
 62
7
100
AcDbSpline
 70
8
 71
3
 72
8
 73
4
 74
0
 40
0
 40
0
 40
0
 40
0
 40
1
 40
1
 40
1
 40
1
 10
181.054031
 20
178.530388
 30
0.0
 10
181.001485
 20
178.372704
 30
0.0
 10
181.322239
 20
175.290395
 30
0.0
 10
181.766845
 20
171.680815
 30
0.0
  0
SPLINE
  5
456
100
AcDbEntity
  8
0
 62
7
100
AcDbSpline
 70
8
 71
3
 72
8
 73
4
 74
0
 40
0
 40
0
 40
0
 40
0
 40
1
 40
1
 40
1
 40
1
 10
181.766845
 20
171.680815
 30
0.0
 10
182.695771
 20
164.139226
 30
0.0
 10
184.273851
 20
148.514573
 30
0.0
 10
184.714462
 20
142.496064
 30
0.0
  0
SPLINE
  5
457
100
AcDbEntity
  8
0
 62
7
100
AcDbSpline
 70
8
 71
3
 72
8
 73
4
 74
0
 40
0
 40
0
 40
0
 40
0
 40
1
 40
1
 40
1
 40
1
 10
184.714462
 20
142.496064
 30
0.0
 10
184.879589
 20
140.240491
 30
0.0
 10
185.092075
 20
138.313612
 30
0.0
 10
185.186637
 20
138.214116
 30
0.0
  0
SPLINE
  5
458
100
AcDbEntity
  8
0
 62
7
100
AcDbSpline
 70
8
 71
3
 72
8
 73
4
 74
0
 40
0
 40
0
 40
0
 40
0
 40
1
 40
1
 40
1
 40
1
 10
185.186637
 20
138.214116
 30
0.0
 10
185.281200
 20
138.114617
 30
0.0
 10
186.807422
 20
137.495214
 30
0.0
 10
188.578252
 20
136.837669
 30
0.0
  0
SPLINE
  5
459
100
AcDbEntity
  8
0
 62
7
100
AcDbSpline
 70
8
 71
3
 72
8
 73
4
 74
0
 40
0
 40
0
 40
0
 40
0
 40
1
 40
1
 40
1
 40
1
 10
188.578252
 20
136.837669
 30
0.0
 10
193.671957
 20
134.946268
 30
0.0
 10
203.130944
 20
131.098443
 30
0.0
 10
209.038772
 20
128.514536
 30
0.0
  0
SPLINE
  5
45a
100
AcDbEntity
  8
0
 62
7
100
AcDbSpline
 70
8
 71
3
 72
8
 73
4
 74
0
 40
0
 40
0
 40
0
 40
0
 40
1
 40
1
 40
1
 40
1
 10
209.038772
 20
128.514536
 30
0.0
 10
212.021949
 20
127.209778
 30
0.0
 10
214.564013
 20
126.130920
 30
0.0
 10
214.687811
 20
126.117075
 30
0.0
  0
SPLINE
  5
45b
100
AcDbEntity
  8
0
 62
7
100
AcDbSpline
 70
8
 71
3
 72
8
 73
4
 74
0
 40
0
 40
0
 40
0
 40
0
 40
1
 40
1
 40
1
 40
1
 10
214.687811
 20
126.117075
 30
0.0
 10
214.811610
 20
126.103237
 30
0.0
 10
214.834602
 20
127.609944
 30
0.0
 10
214.738929
 20
129.465335
 30
0.0
  0
LWPOLYLINE
  5
45c
100
AcDbEntity
  8
0
 62
7
100
AcDbPolyline
 90
1
 70
1
 10
71.716736
 20
130.650557
 30
0.0
  0
SPLINE
  5
45d
100
AcDbEntity
  8
0
 62
7
100
AcDbSpline
 70
8
 71
3
 72
8
 73
4
 74
0
 40
0
 40
0
 40
0
 40
0
 40
1
 40
1
 40
1
 40
1
 10
141.239293
 20
133.879452
 30
0.0
 10
142.991451
 20
134.758695
 30
0.0
 10
144.215855
 20
135.532082
 30
0.0
 10
144.215855
 20
135.759584
 30
0.0
  0
SPLINE
  5
45e
100
AcDbEntity
  8
0
 62
7
100
AcDbSpline
 70
8
 71
3
 72
8
 73
4
 74
0
 40
0
 40
0
 40
0
 40
0
 40
1
 40
1
 40
1
 40
1
 10
144.215855
 20
135.759584
 30
0.0
 10
144.215855
 20
136.023096
 30
0.0
 10
144.503502
 20
136.146064
 30
0.0
 10
145.119908
 20
136.146064
 30
0.0
  0
SPLINE
  5
45f
100
AcDbEntity
  8
0
 62
7
100
AcDbSpline
 70
8
 71
3
 72
8
 73
4
 74
0
 40
0
 40
0
 40
0
 40
0
 40
1
 40
1
 40
1
 40
1
 10
145.119908
 20
136.146064
 30
0.0
 10
145.617136
 20
136.146064
 30
0.0
 10
147.373308
 20
136.632029
 30
0.0
 10
149.022512
 20
137.225990
 30
0.0
  0
SPLINE
  5
460
100
AcDbEntity
  8
0
 62
7
100
AcDbSpline
 70
8
 71
3
 72
8
 73
4
 74
0
 40
0
 40
0
 40
0
 40
0
 40
1
 40
1
 40
1
 40
1
 10
149.022512
 20
137.225990
 30
0.0
 10
152.111083
 20
138.338335
 30
0.0
 10
158.970213
 20
140.188945
 30
0.0
 10
161.245232
 20
140.523703
 30
0.0
  0
LWPOLYLINE
  5
461
100
AcDbEntity
  8
0
 62
7
100
AcDbPolyline
 90
1
 70
1
 10
214.738929
 20
129.465335
 30
0.0
  0
SPLINE
  5
462
100
AcDbEntity
  8
0
 62
7
100
AcDbSpline
 70
8
 71
3
 72
8
 73
4
 74
0
 40
0
 40
0
 40
0
 40
0
 40
1
 40
1
 40
1
 40
1
 10
162.399901
 20
142.067568
 30
0.0
 10
161.771198
 20
148.518705
 30
0.0
 10
159.600265
 20
166.798696
 30
0.0
 10
158.766907
 20
172.658564
 30
0.0
  0
SPLINE
  5
463
100
AcDbEntity
  8
0
 62
7
100
AcDbSpline
 70
8
 71
3
 72
8
 73
4
 74
0
 40
0
 40
0
 40
0
 40
0
 40
1
 40
1
 40
1
 40
1
 10
158.766907
 20
172.658564
 30
0.0
 10
158.197793
 20
176.660387
 30
0.0
 10
157.652162
 20
180.827574
 30
0.0
 10
157.554398
 20
181.918980
 30
0.0
  0
SPLINE
  5
464
100
AcDbEntity
  8
0
 62
7
100
AcDbSpline
 70
8
 71
3
 72
8
 73
4
 74
0
 40
0
 40
0
 40
0
 40
0
 40
1
 40
1
 40
1
 40
1
 10
157.554398
 20
181.918980
 30
0.0
 10
157.456637
 20
183.010387
 30
0.0
 10
157.328203
 20
183.988236
 30
0.0
 10
157.268992
 20
184.091982
 30
0.0
  0
SPLINE
  5
465
100
AcDbEntity
  8
0
 62
7
100
AcDbSpline
 70
8
 71
3
 72
8
 73
4
 74
0
 40
0
 40
0
 40
0
 40
0
 40
1
 40
1
 40
1
 40
1
 10
157.268992
 20
184.091982
 30
0.0
 10
157.145032
 20
184.309173
 30
0.0
 10
156.138488
 20
183.200384
 30
0.0
 10
153.735159
 20
180.199189
 30
0.0
  0
SPLINE
  5
466
100
AcDbEntity
  8
0
 62
7
100
AcDbSpline
 70
8
 71
3
 72
8
 73
4
 74
0
 40
0
 40
0
 40
0
 40
0
 40
1
 40
1
 40
1
 40
1
 10
153.735159
 20
180.199189
 30
0.0
 10
152.802905
 20
179.035022
 30
0.0
 10
151.968647
 20
178.022991
 30
0.0
 10
151.881250
 20
177.950230
 30
0.0
  0
SPLINE
  5
467
100
AcDbEntity
  8
0
 62
7
100
AcDbSpline
 70
8
 71
3
 72
8
 73
4
 74
0
 40
0
 40
0
 40
0
 40
0
 40
1
 40
1
 40
1
 40
1
 10
151.881250
 20
177.950230
 30
0.0
 10
151.589846
 20
177.707626
 30
0.0
 10
138.038583
 20
160.658355
 30
0.0
 10
135.251709
 20
157.028081
 30
0.0
  0
LWPOLYLINE
  5
468
100
AcDbEntity
  8
0
 62
7
100
AcDbPolyline
 90
3
 70
0
 10
161.245232
 20
140.523703
 30
0.0
 10
162.531901
 20
140.713031
 30
0.0
 10
162.399901
 20
142.067568
 30
0.0
  0
SPLINE
  5
469
100
AcDbEntity
  8
0
 62
7
100
AcDbSpline
 70
8
 71
3
 72
8
 73
4
 74
0
 40
0
 40
0
 40
0
 40
0
 40
1
 40
1
 40
1
 40
1
 10
132.552205
 20
148.700876
 30
0.0
 10
132.578028
 20
146.088595
 30
0.0
 10
132.710552
 20
141.331897
 30
0.0
 10
132.846728
 20
138.130439
 30
0.0
  0
SPLINE
  5
46a
100
AcDbEntity
  8
0
 62
7
100
AcDbSpline
 70
8
 71
3
 72
8
 73
4
 74
0
 40
0
 40
0
 40
0
 40
0
 40
1
 40
1
 40
1
 40
1
 10
132.846728
 20
138.130439
 30
0.0
 10
132.982901
 20
134.928980
 30
0.0
 10
133.096352
 20
131.568161
 30
0.0
 10
133.098836
 20
130.661950
 30
0.0
  0
LWPOLYLINE
  5
46b
100
AcDbEntity
  8
0
 62
7
100
AcDbPolyline
 90
3
 70
0
 10
135.251709
 20
157.028081
 30
0.0
 10
132.505273
 20
153.450481
 30
0.0
 10
132.552205
 20
148.700876
 30
0.0
  0
SPLINE
  5
46c
100
AcDbEntity
  8
0
 62
7
100
AcDbSpline
 70
8
 71
3
 72
8
 73
4
 74
0
 40
0
 40
0
 40
0
 40
0
 40
1
 40
1
 40
1
 40
1
 10
135.683048
 20
130.700047
 30
0.0
 10
137.101876
 20
131.627211
 30
0.0
 10
139.602189
 20
133.057942
 30
0.0
 10
141.239298
 20
133.879452
 30
0.0
  0
LWPOLYLINE
  5
46d
100
AcDbEntity
  8
0
 62
7
100
AcDbPolyline
 90
3
 70
0
 10
133.098836
 20
130.661950
 30
0.0
 10
133.103361
 20
129.014294
 30
0.0
 10
135.683048
 20
130.700047
 30
0.0
  0
SPLINE
  5
46e
100
AcDbEntity
  8
0
 62
7
100
AcDbSpline
 70
8
 71
3
 72
8
 73
4
 74
0
 40
0
 40
0
 40
0
 40
0
 40
1
 40
1
 40
1
 40
1
 10
288.810303
 20
138.395022
 30
0.0
 10
292.262375
 20
146.683624
 30
0.0
 10
298.632774
 20
157.671984
 30
0.0
 10
303.572624
 20
163.858734
 30
0.0
  0
SPLINE
  5
46f
100
AcDbEntity
  8
0
 62
7
100
AcDbSpline
 70
8
 71
3
 72
8
 73
4
 74
0
 40
0
 40
0
 40
0
 40
0
 40
1
 40
1
 40
1
 40
1
 10
303.572624
 20
163.858734
 30
0.0
 10
307.857075
 20
169.224629
 30
0.0
 10
315.795951
 20
177.064085
 30
0.0
 10
323.801793
 20
183.834529
 30
0.0
  0
SPLINE
  5
470
100
AcDbEntity
  8
0
 62
7
100
AcDbSpline
 70
8
 71
3
 72
8
 73
4
 74
0
 40
0
 40
0
 40
0
 40
0
 40
1
 40
1
 40
1
 40
1
 10
323.801793
 20
183.834529
 30
0.0
 10
326.020986
 20
185.711275
 30
0.0
 10
327.835154
 20
187.268427
 30
0.0
 10
327.833276
 20
187.294867
 30
0.0
  0
SPLINE
  5
471
100
AcDbEntity
  8
0
 62
7
100
AcDbSpline
 70
8
 71
3
 72
8
 73
4
 74
0
 40
0
 40
0
 40
0
 40
0
 40
1
 40
1
 40
1
 40
1
 10
327.833276
 20
187.294867
 30
0.0
 10
327.830630
 20
187.321298
 30
0.0
 10
327.585440
 20
188.116845
 30
0.0
 10
327.286699
 20
189.062730
 30
0.0
  0
SPLINE
  5
472
100
AcDbEntity
  8
0
 62
7
100
AcDbSpline
 70
8
 71
3
 72
8
 73
4
 74
0
 40
0
 40
0
 40
0
 40
0
 40
1
 40
1
 40
1
 40
1
 10
327.286699
 20
189.062730
 30
0.0
 10
324.889177
 20
196.653896
 30
0.0
 10
322.817067
 20
205.619022
 30
0.0
 10
322.811881
 20
208.423158
 30
0.0
  0
SPLINE
  5
473
100
AcDbEntity
  8
0
 62
7
100
AcDbSpline
 70
8
 71
3
 72
8
 73
4
 74
0
 40
0
 40
0
 40
0
 40
0
 40
1
 40
1
 40
1
 40
1
 10
322.811881
 20
208.423158
 30
0.0
 10
322.808970
 20
209.969796
 30
0.0
 10
323.721518
 20
211.186649
 30
0.0
 10
325.074518
 20
211.440472
 30
0.0
  0
SPLINE
  5
474
100
AcDbEntity
  8
0
 62
7
100
AcDbSpline
 70
8
 71
3
 72
8
 73
4
 74
0
 40
0
 40
0
 40
0
 40
0
 40
1
 40
1
 40
1
 40
1
 10
325.074518
 20
211.440472
 30
0.0
 10
325.575057
 20
211.534375
 30
0.0
 10
325.984182
 20
211.627720
 30
0.0
 10
325.983626
 20
211.647905
 30
0.0
  0
SPLINE
  5
475
100
AcDbEntity
  8
0
 62
7
100
AcDbSpline
 70
8
 71
3
 72
8
 73
4
 74
0
 40
0
 40
0
 40
0
 40
0
 40
1
 40
1
 40
1
 40
1
 10
325.983626
 20
211.647905
 30
0.0
 10
325.983626
 20
211.668093
 30
0.0
 10
324.326779
 20
216.863824
 30
0.0
 10
322.302902
 20
223.193980
 30
0.0
  0
LWPOLYLINE
  5
476
100
AcDbEntity
  8
0
 62
7
100
AcDbPolyline
 90
1
 70
1
 10
141.239298
 20
133.879452
 30
0.0
  0
SPLINE
  5
477
100
AcDbEntity
  8
0
 62
7
100
AcDbSpline
 70
8
 71
3
 72
8
 73
4
 74
0
 40
0
 40
0
 40
0
 40
0
 40
1
 40
1
 40
1
 40
1
 10
306.021528
 20
231.863804
 30
0.0
 10
305.673363
 20
226.025860
 30
0.0
 10
305.044475
 20
220.049368
 30
0.0
 10
304.023421
 20
212.875230
 30
0.0
  0
SPLINE
  5
478
100
AcDbEntity
  8
0
 62
7
100
AcDbSpline
 70
8
 71
3
 72
8
 73
4
 74
0
 40
0
 40
0
 40
0
 40
0
 40
1
 40
1
 40
1
 40
1
 10
304.023421
 20
212.875230
 30
0.0
 10
303.453853
 20
208.873407
 30
0.0
 10
302.446664
 20
200.717626
 30
0.0
 10
301.785258
 20
194.751272
 30
0.0
  0
SPLINE
  5
479
100
AcDbEntity
  8
0
 62
7
100
AcDbSpline
 70
8
 71
3
 72
8
 73
4
 74
0
 40
0
 40
0
 40
0
 40
0
 40
1
 40
1
 40
1
 40
1
 10
301.785258
 20
194.751272
 30
0.0
 10
299.958046
 20
178.268892
 30
0.0
 10
299.128656
 20
172.983771
 30
0.0
 10
296.346139
 20
160.090855
 30
0.0
  0
SPLINE
  5
47a
100
AcDbEntity
  8
0
 62
7
100
AcDbSpline
 70
8
 71
3
 72
8
 73
4
 74
0
 40
0
 40
0
 40
0
 40
0
 40
1
 40
1
 40
1
 40
1
 10
296.346139
 20
160.090855
 30
0.0
 10
296.032079
 20
158.635647
 30
0.0
 10
295.564772
 20
156.962724
 30
0.0
 10
295.307650
 20
156.373245
 30
0.0
  0
SPLINE
  5
47b
100
AcDbEntity
  8
0
 62
7
100
AcDbSpline
 70
8
 71
3
 72
8
 73
4
 74
0
 40
0
 40
0
 40
0
 40
0
 40
1
 40
1
 40
1
 40
1
 10
295.307650
 20
156.373245
 30
0.0
 10
294.178223
 20
153.783887
 30
0.0
 10
291.400495
 20
151.889526
 30
0.0
 10
288.984584
 20
152.061005
 30
0.0
  0
LWPOLYLINE
  5
47c
100
AcDbEntity
  8
0
 62
7
100
AcDbPolyline
 90
5
 70
0
 10
322.302902
 20
223.193980
 30
0.0
 10
318.623130
 20
234.703355
 30
0.0
 10
312.411216
 20
234.774221
 30
0.0
 10
306.199302
 20
234.845087
 30
0.0
 10
306.021528
 20
231.863804
 30
0.0
  0
SPLINE
  5
47d
100
AcDbEntity
  8
0
 62
7
100
AcDbSpline
 70
8
 71
3
 72
8
 73
4
 74
0
 40
0
 40
0
 40
0
 40
0
 40
1
 40
1
 40
1
 40
1
 10
287.389067
 20
149.242939
 30
0.0
 10
286.927396
 20
144.679313
 30
0.0
 10
286.076152
 20
135.184211
 30
0.0
 10
285.906554
 20
132.706480
 30
0.0
  0
LWPOLYLINE
  5
47e
100
AcDbEntity
  8
0
 62
7
100
AcDbPolyline
 90
3
 70
0
 10
288.984584
 20
152.061005
 30
0.0
 10
287.683496
 20
152.153355
 30
0.0
 10
287.389067
 20
149.242939
 30
0.0
  0
SPLINE
  5
47f
100
AcDbEntity
  8
0
 62
7
100
AcDbSpline
 70
8
 71
3
 72
8
 73
4
 74
0
 40
0
 40
0
 40
0
 40
0
 40
1
 40
1
 40
1
 40
1
 10
286.785579
 20
133.235647
 30
0.0
 10
287.353692
 20
134.763616
 30
0.0
 10
288.264812
 20
137.085335
 30
0.0
 10
288.810303
 20
138.395022
 30
0.0
  0
LWPOLYLINE
  5
480
100
AcDbEntity
  8
0
 62
7
100
AcDbPolyline
 90
3
 70
0
 10
285.906554
 20
132.706480
 30
0.0
 10
285.752619
 20
130.457522
 30
0.0
 10
286.785579
 20
133.235647
 30
0.0
  0
SPLINE
  5
481
100
AcDbEntity
  8
0
 62
7
100
AcDbSpline
 70
8
 71
3
 72
8
 73
4
 74
0
 40
0
 40
0
 40
0
 40
0
 40
1
 40
1
 40
1
 40
1
 10
283.375550
 20
149.049803
 30
0.0
 10
283.672703
 20
151.708477
 30
0.0
 10
283.915855
 20
154.040171
 30
0.0
 10
283.915855
 20
154.231345
 30
0.0
  0
SPLINE
  5
482
100
AcDbEntity
  8
0
 62
7
100
AcDbSpline
 70
8
 71
3
 72
8
 73
4
 74
0
 40
0
 40
0
 40
0
 40
0
 40
1
 40
1
 40
1
 40
1
 10
283.915855
 20
154.231345
 30
0.0
 10
283.915855
 20
154.422523
 30
0.0
 10
283.268658
 20
155.024685
 30
0.0
 10
282.477633
 20
155.569486
 30
0.0
  0
SPLINE
  5
483
100
AcDbEntity
  8
0
 62
7
100
AcDbSpline
 70
8
 71
3
 72
8
 73
4
 74
0
 40
0
 40
0
 40
0
 40
0
 40
1
 40
1
 40
1
 40
1
 10
282.477633
 20
155.569486
 30
0.0
 10
281.686609
 20
156.114284
 30
0.0
 10
280.843646
 20
156.858780
 30
0.0
 10
280.604410
 20
157.223920
 30
0.0
  0
SPLINE
  5
484
100
AcDbEntity
  8
0
 62
7
100
AcDbSpline
 70
8
 71
3
 72
8
 73
4
 74
0
 40
0
 40
0
 40
0
 40
0
 40
1
 40
1
 40
1
 40
1
 10
280.604410
 20
157.223920
 30
0.0
 10
280.365147
 20
157.589059
 30
0.0
 10
280.115619
 20
157.834020
 30
0.0
 10
280.049870
 20
157.768279
 30
0.0
  0
SPLINE
  5
485
100
AcDbEntity
  8
0
 62
7
100
AcDbSpline
 70
8
 71
3
 72
8
 73
4
 74
0
 40
0
 40
0
 40
0
 40
0
 40
1
 40
1
 40
1
 40
1
 10
280.049870
 20
157.768279
 30
0.0
 10
279.984147
 20
157.702538
 30
0.0
 10
280.280375
 20
156.055100
 30
0.0
 10
280.708206
 20
154.107303
 30
0.0
  0
SPLINE
  5
486
100
AcDbEntity
  8
0
 62
7
100
AcDbSpline
 70
8
 71
3
 72
8
 73
4
 74
0
 40
0
 40
0
 40
0
 40
0
 40
1
 40
1
 40
1
 40
1
 10
280.708206
 20
154.107303
 30
0.0
 10
281.136037
 20
152.159507
 30
0.0
 10
281.761142
 20
149.036609
 30
0.0
 10
282.097348
 20
147.167529
 30
0.0
  0
SPLINE
  5
487
100
AcDbEntity
  8
0
 62
7
100
AcDbSpline
 70
8
 71
3
 72
8
 73
4
 74
0
 40
0
 40
0
 40
0
 40
0
 40
1
 40
1
 40
1
 40
1
 10
282.097348
 20
147.167529
 30
0.0
 10
282.433554
 20
145.298448
 30
0.0
 10
282.737110
 20
143.869698
 30
0.0
 10
282.771929
 20
143.992529
 30
0.0
  0
SPLINE
  5
488
100
AcDbEntity
  8
0
 62
7
100
AcDbSpline
 70
8
 71
3
 72
8
 73
4
 74
0
 40
0
 40
0
 40
0
 40
0
 40
1
 40
1
 40
1
 40
1
 10
282.771929
 20
143.992529
 30
0.0
 10
282.806749
 20
144.115359
 30
0.0
 10
283.078370
 20
146.391133
 30
0.0
 10
283.375550
 20
149.049803
 30
0.0
  0
LWPOLYLINE
  5
489
100
AcDbEntity
  8
0
 62
7
100
AcDbPolyline
 90
1
 70
1
 10
288.810303
 20
138.395022
 30
0.0
  0
SPLINE
  5
48a
100
AcDbEntity
  8
0
 62
7
100
AcDbSpline
 70
8
 71
3
 72
8
 73
4
 74
0
 40
0
 40
0
 40
0
 40
0
 40
1
 40
1
 40
1
 40
1
 10
384.192939
 20
147.126272
 30
0.0
 10
384.192939
 20
147.344553
 30
0.0
 10
384.146134
 20
147.523147
 30
0.0
 10
384.088957
 20
147.523147
 30
0.0
  0
SPLINE
  5
48b
100
AcDbEntity
  8
0
 62
7
100
AcDbSpline
 70
8
 71
3
 72
8
 73
4
 74
0
 40
0
 40
0
 40
0
 40
0
 40
1
 40
1
 40
1
 40
1
 10
384.088957
 20
147.523147
 30
0.0
 10
384.031755
 20
147.523147
 30
0.0
 10
383.916449
 20
147.344553
 30
0.0
 10
383.832682
 20
147.126272
 30
0.0
  0
SPLINE
  5
48c
100
AcDbEntity
  8
0
 62
7
100
AcDbSpline
 70
8
 71
3
 72
8
 73
4
 74
0
 40
0
 40
0
 40
0
 40
0
 40
1
 40
1
 40
1
 40
1
 10
383.832682
 20
147.126272
 30
0.0
 10
383.748915
 20
146.907991
 30
0.0
 10
383.795693
 20
146.729397
 30
0.0
 10
383.936663
 20
146.729397
 30
0.0
  0
SPLINE
  5
48d
100
AcDbEntity
  8
0
 62
7
100
AcDbSpline
 70
8
 71
3
 72
8
 73
4
 74
0
 40
0
 40
0
 40
0
 40
0
 40
1
 40
1
 40
1
 40
1
 10
383.936663
 20
146.729397
 30
0.0
 10
384.077607
 20
146.729397
 30
0.0
 10
384.192939
 20
146.907991
 30
0.0
 10
384.192939
 20
147.126272
 30
0.0
  0
LWPOLYLINE
  5
48e
100
AcDbEntity
  8
0
 62
7
100
AcDbPolyline
 90
1
 70
1
 10
283.375550
 20
149.049803
 30
0.0
  0
SPLINE
  5
48f
100
AcDbEntity
  8
0
 62
7
100
AcDbSpline
 70
8
 71
3
 72
8
 73
4
 74
0
 40
0
 40
0
 40
0
 40
0
 40
1
 40
1
 40
1
 40
1
 10
129.135005
 20
159.750850
 30
0.0
 10
129.135799
 20
168.793038
 30
0.0
 10
129.930438
 20
180.324514
 30
0.0
 10
130.881424
 20
185.093980
 30
0.0
  0
SPLINE
  5
490
100
AcDbEntity
  8
0
 62
7
100
AcDbSpline
 70
8
 71
3
 72
8
 73
4
 74
0
 40
0
 40
0
 40
0
 40
0
 40
1
 40
1
 40
1
 40
1
 10
130.881424
 20
185.093980
 30
0.0
 10
132.549982
 20
193.462270
 30
0.0
 10
137.902553
 20
201.747731
 30
0.0
 10
144.429901
 20
206.066223
 30
0.0
  0
SPLINE
  5
491
100
AcDbEntity
  8
0
 62
7
100
AcDbSpline
 70
8
 71
3
 72
8
 73
4
 74
0
 40
0
 40
0
 40
0
 40
0
 40
1
 40
1
 40
1
 40
1
 10
144.429901
 20
206.066223
 30
0.0
 10
147.141832
 20
207.860434
 30
0.0
 10
152.124140
 20
209.964814
 30
0.0
 10
153.660163
 20
209.964814
 30
0.0
  0
SPLINE
  5
492
100
AcDbEntity
  8
0
 62
7
100
AcDbSpline
 70
8
 71
3
 72
8
 73
4
 74
0
 40
0
 40
0
 40
0
 40
0
 40
1
 40
1
 40
1
 40
1
 10
153.660163
 20
209.964814
 30
0.0
 10
154.001369
 20
209.964814
 30
0.0
 10
155.013073
 20
209.667158
 30
0.0
 10
155.908396
 20
209.303355
 30
0.0
  0
SPLINE
  5
493
100
AcDbEntity
  8
0
 62
7
100
AcDbSpline
 70
8
 71
3
 72
8
 73
4
 74
0
 40
0
 40
0
 40
0
 40
0
 40
1
 40
1
 40
1
 40
1
 10
155.908396
 20
209.303355
 30
0.0
 10
156.803717
 20
208.939553
 30
0.0
 10
157.615943
 20
208.641897
 30
0.0
 10
157.713341
 20
208.641897
 30
0.0
  0
SPLINE
  5
494
100
AcDbEntity
  8
0
 62
7
100
AcDbSpline
 70
8
 71
3
 72
8
 73
4
 74
0
 40
0
 40
0
 40
0
 40
0
 40
1
 40
1
 40
1
 40
1
 10
157.713341
 20
208.641897
 30
0.0
 10
157.810740
 20
208.641897
 30
0.0
 10
158.030323
 20
209.108821
 30
0.0
 10
158.201304
 20
209.679506
 30
0.0
  0
SPLINE
  5
495
100
AcDbEntity
  8
0
 62
7
100
AcDbSpline
 70
8
 71
3
 72
8
 73
4
 74
0
 40
0
 40
0
 40
0
 40
0
 40
1
 40
1
 40
1
 40
1
 10
158.201304
 20
209.679506
 30
0.0
 10
158.621704
 20
211.082694
 30
0.0
 10
160.492308
 20
213.079079
 30
0.0
 10
161.810647
 20
213.531574
 30
0.0
  0
SPLINE
  5
496
100
AcDbEntity
  8
0
 62
7
100
AcDbSpline
 70
8
 71
3
 72
8
 73
4
 74
0
 40
0
 40
0
 40
0
 40
0
 40
1
 40
1
 40
1
 40
1
 10
161.810647
 20
213.531574
 30
0.0
 10
162.668109
 20
213.825881
 30
0.0
 10
162.859217
 20
214.011491
 30
0.0
 10
162.817519
 20
214.509506
 30
0.0
  0
SPLINE
  5
497
100
AcDbEntity
  8
0
 62
7
100
AcDbSpline
 70
8
 71
3
 72
8
 73
4
 74
0
 40
0
 40
0
 40
0
 40
0
 40
1
 40
1
 40
1
 40
1
 10
162.817519
 20
214.509506
 30
0.0
 10
162.617838
 20
216.894532
 30
0.0
 10
160.839388
 20
233.764129
 30
0.0
 10
160.737418
 20
234.240334
 30
0.0
  0
LWPOLYLINE
  5
498
100
AcDbEntity
  8
0
 62
7
100
AcDbPolyline
 90
1
 70
1
 10
384.192939
 20
147.126272
 30
0.0
  0
SPLINE
  5
499
100
AcDbEntity
  8
0
 62
7
100
AcDbSpline
 70
8
 71
3
 72
8
 73
4
 74
0
 40
0
 40
0
 40
0
 40
0
 40
1
 40
1
 40
1
 40
1
 10
119.874220
 20
233.446584
 30
0.0
 10
119.874268
 20
231.342530
 30
0.0
 10
119.377785
 20
211.902815
 30
0.0
 10
119.222655
 20
207.934568
 30
0.0
  0
LWPOLYLINE
  5
49a
100
AcDbEntity
  8
0
 62
7
100
AcDbPolyline
 90
5
 70
0
 10
160.737418
 20
234.240334
 30
0.0
 10
160.609941
 20
234.835646
 30
0.0
 10
140.242065
 20
234.835646
 30
0.0
 10
119.874189
 20
234.835646
 30
0.0
 10
119.874220
 20
233.446584
 30
0.0
  0
SPLINE
  5
49b
100
AcDbEntity
  8
0
 62
7
100
AcDbSpline
 70
8
 71
3
 72
8
 73
4
 74
0
 40
0
 40
0
 40
0
 40
0
 40
1
 40
1
 40
1
 40
1
 10
120.360078
 20
204.026064
 30
0.0
 10
122.020068
 20
203.474704
 30
0.0
 10
123.699810
 20
201.812583
 30
0.0
 10
124.215258
 20
200.211325
 30
0.0
  0
SPLINE
  5
49c
100
AcDbEntity
  8
0
 62
7
100
AcDbSpline
 70
8
 71
3
 72
8
 73
4
 74
0
 40
0
 40
0
 40
0
 40
0
 40
1
 40
1
 40
1
 40
1
 10
124.215258
 20
200.211325
 30
0.0
 10
125.468766
 20
196.317267
 30
0.0
 10
125.936864
 20
185.861828
 30
0.0
 10
125.762726
 20
165.647105
 30
0.0
  0
LWPOLYLINE
  5
49d
100
AcDbEntity
  8
0
 62
7
100
AcDbPolyline
 90
3
 70
0
 10
119.222655
 20
207.934568
 30
0.0
 10
119.086397
 20
204.449111
 30
0.0
 10
120.360078
 20
204.026064
 30
0.0
  0
LWPOLYLINE
  5
49e
100
AcDbEntity
  8
0
 62
7
100
AcDbPolyline
 90
6
 70
0
 10
125.762726
 20
165.647105
 30
0.0
 10
125.632808
 20
150.565855
 30
0.0
 10
127.383707
 20
152.871683
 30
0.0
 10
129.134605
 20
155.177509
 30
0.0
 10
129.135135
 20
159.750850
 30
0.0
 10
129.135005
 20
159.750850
 30
0.0
  0
SPLINE
  5
49f
100
AcDbEntity
  8
0
 62
7
100
AcDbSpline
 70
8
 71
3
 72
8
 73
4
 74
0
 40
0
 40
0
 40
0
 40
0
 40
1
 40
1
 40
1
 40
1
 10
371.596920
 20
234.835646
 30
0.0
 10
361.328361
 20
234.835646
 30
0.0
 10
359.025455
 20
234.771675
 30
0.0
 10
359.133775
 20
234.489431
 30
0.0
  0
SPLINE
  5
4a0
100
AcDbEntity
  8
0
 62
7
100
AcDbSpline
 70
8
 71
3
 72
8
 73
4
 74
0
 40
0
 40
0
 40
0
 40
0
 40
1
 40
1
 40
1
 40
1
 10
359.133775
 20
234.489431
 30
0.0
 10
359.206826
 20
234.299016
 30
0.0
 10
359.769304
 20
232.334484
 30
0.0
 10
360.383693
 20
230.123806
 30
0.0
  0
LWPOLYLINE
  5
4a1
100
AcDbEntity
  8
0
 62
7
100
AcDbPolyline
 90
5
 70
0
 10
383.356247
 20
153.330169
 30
0.0
 10
384.192939
 20
155.168439
 30
0.0
 10
384.192939
 20
195.002044
 30
0.0
 10
384.192939
 20
234.835646
 30
0.0
 10
371.596920
 20
234.835646
 30
0.0
  0
SPLINE
  5
4a2
100
AcDbEntity
  8
0
 62
7
100
AcDbSpline
 70
8
 71
3
 72
8
 73
4
 74
0
 40
0
 40
0
 40
0
 40
0
 40
1
 40
1
 40
1
 40
1
 10
362.805821
 20
226.104396
 30
0.0
 10
364.506960
 20
226.104396
 30
0.0
 10
365.406331
 20
225.611316
 30
0.0
 10
366.552083
 20
224.050497
 30
0.0
  0
SPLINE
  5
4a3
100
AcDbEntity
  8
0
 62
7
100
AcDbSpline
 70
8
 71
3
 72
8
 73
4
 74
0
 40
0
 40
0
 40
0
 40
0
 40
1
 40
1
 40
1
 40
1
 10
366.552083
 20
224.050497
 30
0.0
 10
367.576074
 20
222.655526
 30
0.0
 10
367.935960
 20
221.826383
 30
0.0
 10
370.081995
 20
215.917939
 30
0.0
  0
SPLINE
  5
4a4
100
AcDbEntity
  8
0
 62
7
100
AcDbSpline
 70
8
 71
3
 72
8
 73
4
 74
0
 40
0
 40
0
 40
0
 40
0
 40
1
 40
1
 40
1
 40
1
 10
370.081995
 20
215.917939
 30
0.0
 10
374.045586
 20
205.005334
 30
0.0
 10
379.964527
 20
182.683351
 30
0.0
 10
381.298238
 20
173.618316
 30
0.0
  0
SPLINE
  5
4a5
100
AcDbEntity
  8
0
 62
7
100
AcDbSpline
 70
8
 71
3
 72
8
 73
4
 74
0
 40
0
 40
0
 40
0
 40
0
 40
1
 40
1
 40
1
 40
1
 10
381.298238
 20
173.618316
 30
0.0
 10
382.174327
 20
167.663627
 30
0.0
 10
381.949510
 20
166.040694
 30
0.0
 10
379.995192
 20
164.212169
 30
0.0
  0
LWPOLYLINE
  5
4a6
100
AcDbEntity
  8
0
 62
7
100
AcDbPolyline
 90
3
 70
0
 10
360.383693
 20
230.123806
 30
0.0
 10
361.500790
 20
226.104396
 30
0.0
 10
362.805821
 20
226.104396
 30
0.0
  0
SPLINE
  5
4a7
100
AcDbEntity
  8
0
 62
7
100
AcDbSpline
 70
8
 71
3
 72
8
 73
4
 74
0
 40
0
 40
0
 40
0
 40
0
 40
1
 40
1
 40
1
 40
1
 10
380.596166
 20
157.381183
 30
0.0
 10
381.482997
 20
154.144615
 30
0.0
 10
382.278520
 20
151.495474
 30
0.0
 10
382.364059
 20
151.494204
 30
0.0
  0
SPLINE
  5
4a8
100
AcDbEntity
  8
0
 62
7
100
AcDbSpline
 70
8
 71
3
 72
8
 73
4
 74
0
 40
0
 40
0
 40
0
 40
0
 40
1
 40
1
 40
1
 40
1
 10
382.364059
 20
151.494204
 30
0.0
 10
382.449573
 20
151.492881
 30
0.0
 10
382.896057
 20
152.319120
 30
0.0
 10
383.356247
 20
153.330169
 30
0.0
  0
LWPOLYLINE
  5
4a9
100
AcDbEntity
  8
0
 62
7
100
AcDbPolyline
 90
3
 70
0
 10
379.995192
 20
164.212169
 30
0.0
 10
378.983769
 20
163.265855
 30
0.0
 10
380.596166
 20
157.381183
 30
0.0
  0
SPLINE
  5
4aa
100
AcDbEntity
  8
0
 62
7
100
AcDbSpline
 70
8
 71
3
 72
8
 73
4
 74
0
 40
0
 40
0
 40
0
 40
0
 40
1
 40
1
 40
1
 40
1
 10
204.928655
 20
159.958564
 30
0.0
 10
204.289634
 20
165.467191
 30
0.0
 10
201.657373
 20
191.761562
 30
0.0
 10
201.352917
 20
195.677314
 30
0.0
  0
SPLINE
  5
4ab
100
AcDbEntity
  8
0
 62
7
100
AcDbSpline
 70
8
 71
3
 72
8
 73
4
 74
0
 40
0
 40
0
 40
0
 40
0
 40
1
 40
1
 40
1
 40
1
 10
201.352917
 20
195.677314
 30
0.0
 10
201.188876
 20
197.787366
 30
0.0
 10
201.055579
 20
202.227267
 30
0.0
 10
201.056716
 20
205.543761
 30
0.0
  0
SPLINE
  5
4ac
100
AcDbEntity
  8
0
 62
7
100
AcDbSpline
 70
8
 71
3
 72
8
 73
4
 74
0
 40
0
 40
0
 40
0
 40
0
 40
1
 40
1
 40
1
 40
1
 10
201.056716
 20
205.543761
 30
0.0
 10
201.059362
 20
210.503527
 30
0.0
 10
201.139478
 20
211.830349
 30
0.0
 10
201.513519
 20
213.019524
 30
0.0
  0
SPLINE
  5
4ad
100
AcDbEntity
  8
0
 62
7
100
AcDbSpline
 70
8
 71
3
 72
8
 73
4
 74
0
 40
0
 40
0
 40
0
 40
0
 40
1
 40
1
 40
1
 40
1
 10
201.513519
 20
213.019524
 30
0.0
 10
202.024350
 20
214.643602
 30
0.0
 10
203.332874
 20
216.101758
 30
0.0
 10
204.909208
 20
216.803547
 30
0.0
  0
LWPOLYLINE
  5
4ae
100
AcDbEntity
  8
0
 62
7
100
AcDbPolyline
 90
1
 70
1
 10
383.356247
 20
153.330169
 30
0.0
  0
SPLINE
  5
4af
100
AcDbEntity
  8
0
 62
7
100
AcDbSpline
 70
8
 71
3
 72
8
 73
4
 74
0
 40
0
 40
0
 40
0
 40
0
 40
1
 40
1
 40
1
 40
1
 10
205.985480
 20
220.151272
 30
0.0
 10
206.094065
 20
223.513787
 30
0.0
 10
206.693744
 20
226.467542
 30
0.0
 10
208.219331
 20
231.154657
 30
0.0
  0
SPLINE
  5
4b0
100
AcDbEntity
  8
0
 62
7
100
AcDbSpline
 70
8
 71
3
 72
8
 73
4
 74
0
 40
0
 40
0
 40
0
 40
0
 40
1
 40
1
 40
1
 40
1
 10
208.219331
 20
231.154657
 30
0.0
 10
208.815543
 20
232.986415
 30
0.0
 10
209.303355
 20
234.563993
 30
0.0
 10
209.303355
 20
234.660386
 30
0.0
  0
SPLINE
  5
4b1
100
AcDbEntity
  8
0
 62
7
100
AcDbSpline
 70
8
 71
3
 72
8
 73
4
 74
0
 40
0
 40
0
 40
0
 40
0
 40
1
 40
1
 40
1
 40
1
 10
209.303355
 20
234.660386
 30
0.0
 10
209.303355
 20
234.756779
 30
0.0
 10
207.725777
 20
234.827852
 30
0.0
 10
205.797626
 20
234.818324
 30
0.0
  0
LWPOLYLINE
  5
4b2
100
AcDbEntity
  8
0
 62
7
100
AcDbPolyline
 90
3
 70
0
 10
204.909208
 20
216.803547
 30
0.0
 10
205.891474
 20
217.240855
 30
0.0
 10
205.985480
 20
220.151272
 30
0.0
  0
SPLINE
  5
4b3
100
AcDbEntity
  8
0
 62
7
100
AcDbSpline
 70
8
 71
3
 72
8
 73
4
 74
0
 40
0
 40
0
 40
0
 40
0
 40
1
 40
1
 40
1
 40
1
 10
198.984605
 20
231.309618
 30
0.0
 10
191.764788
 20
223.687957
 30
0.0
 10
187.890679
 20
219.549631
 30
0.0
 10
186.557153
 20
218.034597
 30
0.0
  0
SPLINE
  5
4b4
100
AcDbEntity
  8
0
 62
7
100
AcDbSpline
 70
8
 71
3
 72
8
 73
4
 74
0
 40
0
 40
0
 40
0
 40
0
 40
1
 40
1
 40
1
 40
1
 10
186.557153
 20
218.034597
 30
0.0
 10
185.788617
 20
217.161472
 30
0.0
 10
185.025533
 20
216.328035
 30
0.0
 10
184.861412
 20
216.182514
 30
0.0
  0
SPLINE
  5
4b5
100
AcDbEntity
  8
0
 62
7
100
AcDbSpline
 70
8
 71
3
 72
8
 73
4
 74
0
 40
0
 40
0
 40
0
 40
0
 40
1
 40
1
 40
1
 40
1
 10
184.861412
 20
216.182514
 30
0.0
 10
184.697291
 20
216.036993
 30
0.0
 10
183.118072
 20
214.310587
 30
0.0
 10
181.352031
 20
212.346056
 30
0.0
  0
SPLINE
  5
4b6
100
AcDbEntity
  8
0
 62
7
100
AcDbSpline
 70
8
 71
3
 72
8
 73
4
 74
0
 40
0
 40
0
 40
0
 40
0
 40
1
 40
1
 40
1
 40
1
 10
181.352031
 20
212.346056
 30
0.0
 10
179.586017
 20
210.381525
 30
0.0
 10
177.654823
 20
208.238400
 30
0.0
 10
177.060542
 20
207.583556
 30
0.0
  0
SPLINE
  5
4b7
100
AcDbEntity
  8
0
 62
7
100
AcDbSpline
 70
8
 71
3
 72
8
 73
4
 74
0
 40
0
 40
0
 40
0
 40
0
 40
1
 40
1
 40
1
 40
1
 10
177.060542
 20
207.583556
 30
0.0
 10
176.466235
 20
206.928712
 30
0.0
 10
175.976809
 20
206.272765
 30
0.0
 10
175.972920
 20
206.125895
 30
0.0
  0
SPLINE
  5
4b8
100
AcDbEntity
  8
0
 62
7
100
AcDbSpline
 70
8
 71
3
 72
8
 73
4
 74
0
 40
0
 40
0
 40
0
 40
0
 40
1
 40
1
 40
1
 40
1
 10
175.972920
 20
206.125895
 30
0.0
 10
175.968951
 20
205.979025
 30
0.0
 10
176.331827
 20
204.193087
 30
0.0
 10
176.779132
 20
202.157145
 30
0.0
  0
SPLINE
  5
4b9
100
AcDbEntity
  8
0
 62
7
100
AcDbSpline
 70
8
 71
3
 72
8
 73
4
 74
0
 40
0
 40
0
 40
0
 40
0
 40
1
 40
1
 40
1
 40
1
 10
176.779132
 20
202.157145
 30
0.0
 10
177.226436
 20
200.121203
 30
0.0
 10
177.867892
 20
196.990454
 30
0.0
 10
178.204601
 20
195.199926
 30
0.0
  0
SPLINE
  5
4ba
100
AcDbEntity
  8
0
 62
7
100
AcDbSpline
 70
8
 71
3
 72
8
 73
4
 74
0
 40
0
 40
0
 40
0
 40
0
 40
1
 40
1
 40
1
 40
1
 10
178.204601
 20
195.199926
 30
0.0
 10
178.541310
 20
193.409398
 30
0.0
 10
178.903021
 20
191.861586
 30
0.0
 10
179.008405
 20
191.760343
 30
0.0
  0
SPLINE
  5
4bb
100
AcDbEntity
  8
0
 62
7
100
AcDbSpline
 70
8
 71
3
 72
8
 73
4
 74
0
 40
0
 40
0
 40
0
 40
0
 40
1
 40
1
 40
1
 40
1
 10
179.008405
 20
191.760343
 30
0.0
 10
179.113762
 20
191.659100
 30
0.0
 10
180.712983
 20
189.968920
 30
0.0
 10
182.562209
 20
188.004389
 30
0.0
  0
SPLINE
  5
4bc
100
AcDbEntity
  8
0
 62
7
100
AcDbSpline
 70
8
 71
3
 72
8
 73
4
 74
0
 40
0
 40
0
 40
0
 40
0
 40
1
 40
1
 40
1
 40
1
 10
182.562209
 20
188.004389
 30
0.0
 10
190.156227
 20
179.936878
 30
0.0
 10
194.058170
 20
175.806928
 30
0.0
 10
196.810842
 20
172.923139
 30
0.0
  0
LWPOLYLINE
  5
4bd
100
AcDbEntity
  8
0
 62
7
100
AcDbPolyline
 90
3
 70
0
 10
205.797626
 20
234.818324
 30
0.0
 10
202.291897
 20
234.800994
 30
0.0
 10
198.984605
 20
231.309618
 30
0.0
  0
SPLINE
  5
4be
100
AcDbEntity
  8
0
 62
7
100
AcDbSpline
 70
8
 71
3
 72
8
 73
4
 74
0
 40
0
 40
0
 40
0
 40
0
 40
1
 40
1
 40
1
 40
1
 10
202.427390
 20
163.322667
 30
0.0
 10
203.919085
 20
159.715898
 30
0.0
 10
205.171543
 20
156.798867
 30
0.0
 10
205.210595
 20
156.840375
 30
0.0
  0
SPLINE
  5
4bf
100
AcDbEntity
  8
0
 62
7
100
AcDbSpline
 70
8
 71
3
 72
8
 73
4
 74
0
 40
0
 40
0
 40
0
 40
0
 40
1
 40
1
 40
1
 40
1
 10
205.210595
 20
156.840375
 30
0.0
 10
205.249674
 20
156.881886
 30
0.0
 10
205.122780
 20
158.285066
 30
0.0
 10
204.928655
 20
159.958556
 30
0.0
  0
LWPOLYLINE
  5
4c0
100
AcDbEntity
  8
0
 62
7
100
AcDbPolyline
 90
3
 70
0
 10
196.810842
 20
172.923139
 30
0.0
 10
199.715199
 20
169.880431
 30
0.0
 10
202.427390
 20
163.322667
 30
0.0
  0
SPLINE
  5
4c1
100
AcDbEntity
  8
0
 62
7
100
AcDbSpline
 70
8
 71
3
 72
8
 73
4
 74
0
 40
0
 40
0
 40
0
 40
0
 40
1
 40
1
 40
1
 40
1
 10
136.445736
 20
164.787210
 30
0.0
 10
141.284627
 20
171.092016
 30
0.0
 10
147.432350
 20
179.008934
 30
0.0
 10
148.721786
 20
180.596064
 30
0.0
  0
SPLINE
  5
4c2
100
AcDbEntity
  8
0
 62
7
100
AcDbSpline
 70
8
 71
3
 72
8
 73
4
 74
0
 40
0
 40
0
 40
0
 40
0
 40
1
 40
1
 40
1
 40
1
 10
148.721786
 20
180.596064
 30
0.0
 10
149.253803
 20
181.250908
 30
0.0
 10
151.289380
 20
183.810751
 30
0.0
 10
153.245291
 20
186.284605
 30
0.0
  0
LWPOLYLINE
  5
4c3
100
AcDbEntity
  8
0
 62
7
100
AcDbPolyline
 90
1
 70
1
 10
204.928655
 20
159.958556
 30
0.0
  0
SPLINE
  5
4c4
100
AcDbEntity
  8
0
 62
7
100
AcDbSpline
 70
8
 71
3
 72
8
 73
4
 74
0
 40
0
 40
0
 40
0
 40
0
 40
1
 40
1
 40
1
 40
1
 10
155.656179
 20
197.956683
 30
0.0
 10
154.285643
 20
198.213797
 30
0.0
 10
149.631254
 20
197.883214
 30
0.0
 10
147.787730
 20
197.397817
 30
0.0
  0
SPLINE
  5
4c5
100
AcDbEntity
  8
0
 62
7
100
AcDbSpline
 70
8
 71
3
 72
8
 73
4
 74
0
 40
0
 40
0
 40
0
 40
0
 40
1
 40
1
 40
1
 40
1
 10
147.787730
 20
197.397817
 30
0.0
 10
142.873246
 20
196.103841
 30
0.0
 10
138.867190
 20
192.877136
 30
0.0
 10
135.988533
 20
187.894071
 30
0.0
  0
SPLINE
  5
4c6
100
AcDbEntity
  8
0
 62
7
100
AcDbSpline
 70
8
 71
3
 72
8
 73
4
 74
0
 40
0
 40
0
 40
0
 40
0
 40
1
 40
1
 40
1
 40
1
 10
135.988533
 20
187.894071
 30
0.0
 10
134.087052
 20
184.602535
 30
0.0
 10
133.366965
 20
181.487096
 30
0.0
 10
132.864580
 20
174.378355
 30
0.0
  0
SPLINE
  5
4c7
100
AcDbEntity
  8
0
 62
7
100
AcDbSpline
 70
8
 71
3
 72
8
 73
4
 74
0
 40
0
 40
0
 40
0
 40
0
 40
1
 40
1
 40
1
 40
1
 10
132.864580
 20
174.378355
 30
0.0
 10
132.531713
 20
169.668317
 30
0.0
 10
132.214583
 20
159.693980
 30
0.0
 10
132.397693
 20
159.693980
 30
0.0
  0
SPLINE
  5
4c8
100
AcDbEntity
  8
0
 62
7
100
AcDbSpline
 70
8
 71
3
 72
8
 73
4
 74
0
 40
0
 40
0
 40
0
 40
0
 40
1
 40
1
 40
1
 40
1
 10
132.397693
 20
159.693980
 30
0.0
 10
132.474160
 20
159.693980
 30
0.0
 10
134.295780
 20
161.985934
 30
0.0
 10
136.445736
 20
164.787210
 30
0.0
  0
LWPOLYLINE
  5
4c9
100
AcDbEntity
  8
0
 62
7
100
AcDbPolyline
 90
5
 70
0
 10
153.245291
 20
186.284605
 30
0.0
 10
156.801495
 20
190.782522
 30
0.0
 10
156.699995
 20
194.281213
 30
0.0
 10
156.598493
 20
197.779905
 30
0.0
 10
155.656179
 20
197.956683
 30
0.0
  0
SPLINE
  5
4ca
100
AcDbEntity
  8
0
 62
7
100
AcDbSpline
 70
8
 71
3
 72
8
 73
4
 74
0
 40
0
 40
0
 40
0
 40
0
 40
1
 40
1
 40
1
 40
1
 10
277.686320
 20
169.417418
 30
0.0
 10
277.200307
 20
178.002737
 30
0.0
 10
280.140172
 20
208.774170
 30
0.0
 10
283.279083
 20
227.956480
 30
0.0
  0
SPLINE
  5
4cb
100
AcDbEntity
  8
0
 62
7
100
AcDbSpline
 70
8
 71
3
 72
8
 73
4
 74
0
 40
0
 40
0
 40
0
 40
0
 40
1
 40
1
 40
1
 40
1
 10
283.279083
 20
227.956480
 30
0.0
 10
283.791051
 20
231.085178
 30
0.0
 10
284.275715
 20
233.912912
 30
0.0
 10
284.356149
 20
234.240334
 30
0.0
  0
LWPOLYLINE
  5
4cc
100
AcDbEntity
  8
0
 62
7
100
AcDbPolyline
 90
1
 70
1
 10
136.445736
 20
164.787210
 30
0.0
  0
SPLINE
  5
4cd
100
AcDbEntity
  8
0
 62
7
100
AcDbSpline
 70
8
 71
3
 72
8
 73
4
 74
0
 40
0
 40
0
 40
0
 40
0
 40
1
 40
1
 40
1
 40
1
 10
242.011068
 20
233.843459
 30
0.0
 10
241.930158
 20
233.297756
 30
0.0
 10
241.790934
 20
231.065334
 30
0.0
 10
241.701664
 20
228.882521
 30
0.0
  0
LWPOLYLINE
  5
4ce
100
AcDbEntity
  8
0
 62
7
100
AcDbPolyline
 90
5
 70
0
 10
284.356149
 20
234.240334
 30
0.0
 10
284.502384
 20
234.835646
 30
0.0
 10
263.330293
 20
234.835646
 30
0.0
 10
242.158202
 20
234.835646
 30
0.0
 10
242.011068
 20
233.843459
 30
0.0
  0
SPLINE
  5
4cf
100
AcDbEntity
  8
0
 62
7
100
AcDbSpline
 70
8
 71
3
 72
8
 73
4
 74
0
 40
0
 40
0
 40
0
 40
0
 40
1
 40
1
 40
1
 40
1
 10
245.976801
 20
220.680439
 30
0.0
 10
258.260453
 20
208.961696
 30
0.0
 10
266.528232
 20
196.809484
 30
0.0
 10
272.470324
 20
181.739511
 30
0.0
  0
SPLINE
  5
4d0
100
AcDbEntity
  8
0
 62
7
100
AcDbSpline
 70
8
 71
3
 72
8
 73
4
 74
0
 40
0
 40
0
 40
0
 40
0
 40
1
 40
1
 40
1
 40
1
 10
272.470324
 20
181.739511
 30
0.0
 10
274.242556
 20
177.244817
 30
0.0
 10
276.193515
 20
171.537085
 30
0.0
 10
277.179484
 20
167.962210
 30
0.0
  0
SPLINE
  5
4d1
100
AcDbEntity
  8
0
 62
7
100
AcDbSpline
 70
8
 71
3
 72
8
 73
4
 74
0
 40
0
 40
0
 40
0
 40
0
 40
1
 40
1
 40
1
 40
1
 10
277.179484
 20
167.962210
 30
0.0
 10
277.430336
 20
167.052704
 30
0.0
 10
277.686611
 20
166.308564
 30
0.0
 10
277.748947
 20
166.308564
 30
0.0
  0
SPLINE
  5
4d2
100
AcDbEntity
  8
0
 62
7
100
AcDbSpline
 70
8
 71
3
 72
8
 73
4
 74
0
 40
0
 40
0
 40
0
 40
0
 40
1
 40
1
 40
1
 40
1
 10
277.748947
 20
166.308564
 30
0.0
 10
277.811309
 20
166.308564
 30
0.0
 10
277.783131
 20
167.707548
 30
0.0
 10
277.686320
 20
169.417418
 30
0.0
  0
LWPOLYLINE
  5
4d3
100
AcDbEntity
  8
0
 62
7
100
AcDbPolyline
 90
3
 70
0
 10
241.701664
 20
228.882521
 30
0.0
 10
241.539395
 20
224.913771
 30
0.0
 10
245.976801
 20
220.680439
 30
0.0
  0
SPLINE
  5
4d4
100
AcDbEntity
  8
0
 62
7
100
AcDbSpline
 70
8
 71
3
 72
8
 73
4
 74
0
 40
0
 40
0
 40
0
 40
0
 40
1
 40
1
 40
1
 40
1
 10
342.085427
 20
198.312826
 30
0.0
 10
346.935690
 20
201.777880
 30
0.0
 10
349.550646
 20
203.575370
 30
0.0
 10
353.651741
 20
206.263304
 30
0.0
  0
LWPOLYLINE
  5
4d5
100
AcDbEntity
  8
0
 62
7
100
AcDbPolyline
 90
1
 70
1
 10
277.686320
 20
169.417418
 30
0.0
  0
SPLINE
  5
4d6
100
AcDbEntity
  8
0
 62
7
100
AcDbSpline
 70
8
 71
3
 72
8
 73
4
 74
0
 40
0
 40
0
 40
0
 40
0
 40
1
 40
1
 40
1
 40
1
 10
357.544555
 20
212.306008
 30
0.0
 10
357.147363
 20
214.270603
 30
0.0
 10
356.869153
 20
216.780319
 30
0.0
 10
356.777528
 20
219.225230
 30
0.0
  0
SPLINE
  5
4d7
100
AcDbEntity
  8
0
 62
7
100
AcDbSpline
 70
8
 71
3
 72
8
 73
4
 74
0
 40
0
 40
0
 40
0
 40
0
 40
1
 40
1
 40
1
 40
1
 10
356.777528
 20
219.225230
 30
0.0
 10
356.647776
 20
222.686646
 30
0.0
 10
356.683839
 20
223.152215
 30
0.0
 10
357.146278
 20
223.987730
 30
0.0
  0
SPLINE
  5
4d8
100
AcDbEntity
  8
0
 62
7
100
AcDbSpline
 70
8
 71
3
 72
8
 73
4
 74
0
 40
0
 40
0
 40
0
 40
0
 40
1
 40
1
 40
1
 40
1
 10
357.146278
 20
223.987730
 30
0.0
 10
357.543312
 20
224.705063
 30
0.0
 10
358.587807
 20
225.566699
 30
0.0
 10
359.247387
 20
225.720986
 30
0.0
  0
SPLINE
  5
4d9
100
AcDbEntity
  8
0
 62
7
100
AcDbSpline
 70
8
 71
3
 72
8
 73
4
 74
0
 40
0
 40
0
 40
0
 40
0
 40
1
 40
1
 40
1
 40
1
 10
359.247387
 20
225.720986
 30
0.0
 10
359.297843
 20
225.732786
 30
0.0
 10
358.085866
 20
230.518829
 30
0.0
 10
357.224039
 20
233.711167
 30
0.0
  0
LWPOLYLINE
  5
4da
100
AcDbEntity
  8
0
 62
7
100
AcDbPolyline
 90
3
 70
0
 10
353.651741
 20
206.263304
 30
0.0
 10
358.167808
 20
209.223242
 30
0.0
 10
357.544555
 20
212.306008
 30
0.0
  0
SPLINE
  5
4db
100
AcDbEntity
  8
0
 62
7
100
AcDbSpline
 70
8
 71
3
 72
8
 73
4
 74
0
 40
0
 40
0
 40
0
 40
0
 40
1
 40
1
 40
1
 40
1
 10
338.939002
 20
234.835646
 30
0.0
 10
329.049195
 20
234.835646
 30
0.0
 10
320.957522
 20
234.746365
 30
0.0
 10
320.957522
 20
234.637246
 30
0.0
  0
SPLINE
  5
4dc
100
AcDbEntity
  8
0
 62
7
100
AcDbSpline
 70
8
 71
3
 72
8
 73
4
 74
0
 40
0
 40
0
 40
0
 40
0
 40
1
 40
1
 40
1
 40
1
 10
320.957522
 20
234.637246
 30
0.0
 10
320.957522
 20
234.528124
 30
0.0
 10
322.632758
 20
229.413088
 30
0.0
 10
324.680289
 20
223.270494
 30
0.0
  0
LWPOLYLINE
  5
4dd
100
AcDbEntity
  8
0
 62
7
100
AcDbPolyline
 90
3
 70
0
 10
357.224039
 20
233.711167
 30
0.0
 10
356.920456
 20
234.835646
 30
0.0
 10
338.939002
 20
234.835646
 30
0.0
  0
SPLINE
  5
4de
100
AcDbEntity
  8
0
 62
7
100
AcDbSpline
 70
8
 71
3
 72
8
 73
4
 74
0
 40
0
 40
0
 40
0
 40
0
 40
1
 40
1
 40
1
 40
1
 10
329.129443
 20
212.247430
 30
0.0
 10
330.264214
 20
212.474381
 30
0.0
 10
331.905636
 20
211.902130
 30
0.0
 10
332.952857
 20
210.914459
 30
0.0
  0
SPLINE
  5
4df
100
AcDbEntity
  8
0
 62
7
100
AcDbSpline
 70
8
 71
3
 72
8
 73
4
 74
0
 40
0
 40
0
 40
0
 40
0
 40
1
 40
1
 40
1
 40
1
 10
332.952857
 20
210.914459
 30
0.0
 10
333.978832
 20
209.946843
 30
0.0
 10
336.623686
 20
204.733827
 30
0.0
 10
338.696538
 20
199.593674
 30
0.0
  0
SPLINE
  5
4e0
100
AcDbEntity
  8
0
 62
7
100
AcDbSpline
 70
8
 71
3
 72
8
 73
4
 74
0
 40
0
 40
0
 40
0
 40
0
 40
1
 40
1
 40
1
 40
1
 10
338.696538
 20
199.593674
 30
0.0
 10
339.397366
 20
197.855782
 30
0.0
 10
339.947303
 20
196.830466
 30
0.0
 10
340.121187
 20
196.937519
 30
0.0
  0
SPLINE
  5
4e1
100
AcDbEntity
  8
0
 62
7
100
AcDbSpline
 70
8
 71
3
 72
8
 73
4
 74
0
 40
0
 40
0
 40
0
 40
0
 40
1
 40
1
 40
1
 40
1
 10
340.121187
 20
196.937519
 30
0.0
 10
340.276947
 20
197.033417
 30
0.0
 10
341.160867
 20
197.652304
 30
0.0
 10
342.085427
 20
198.312826
 30
0.0
  0
LWPOLYLINE
  5
4e2
100
AcDbEntity
  8
0
 62
7
100
AcDbPolyline
 90
3
 70
0
 10
324.680289
 20
223.270494
 30
0.0
 10
328.403029
 20
212.102147
 30
0.0
 10
329.129443
 20
212.247430
 30
0.0
  0
SPLINE
  5
4e3
100
AcDbEntity
  8
0
 62
7
100
AcDbSpline
 70
8
 71
3
 72
8
 73
4
 74
0
 40
0
 40
0
 40
0
 40
0
 40
1
 40
1
 40
1
 40
1
 10
177.568093
 20
215.256480
 30
0.0
 10
185.052996
 20
223.717733
 30
0.0
 10
192.691755
 20
231.036552
 30
0.0
 10
197.260078
 20
234.123658
 30
0.0
  0
LWPOLYLINE
  5
4e4
100
AcDbEntity
  8
0
 62
7
100
AcDbPolyline
 90
1
 70
1
 10
342.085427
 20
198.312826
 30
0.0
  0
SPLINE
  5
4e5
100
AcDbEntity
  8
0
 62
7
100
AcDbSpline
 70
8
 71
3
 72
8
 73
4
 74
0
 40
0
 40
0
 40
0
 40
0
 40
1
 40
1
 40
1
 40
1
 10
163.965705
 20
234.240334
 30
0.0
 10
164.019230
 20
233.912912
 30
0.0
 10
164.536146
 20
229.715959
 30
0.0
 10
165.114446
 20
224.913771
 30
0.0
  0
SPLINE
  5
4e6
100
AcDbEntity
  8
0
 62
7
100
AcDbSpline
 70
8
 71
3
 72
8
 73
4
 74
0
 40
0
 40
0
 40
0
 40
0
 40
1
 40
1
 40
1
 40
1
 10
165.114446
 20
224.913771
 30
0.0
 10
165.692746
 20
220.111585
 30
0.0
 10
166.233210
 20
215.795244
 30
0.0
 10
166.315496
 20
215.321907
 30
0.0
  0
LWPOLYLINE
  5
4e7
100
AcDbEntity
  8
0
 62
7
100
AcDbPolyline
 90
5
 70
0
 10
197.260078
 20
234.123658
 30
0.0
 10
198.313701
 20
234.835646
 30
0.0
 10
181.091046
 20
234.835646
 30
0.0
 10
163.868391
 20
234.835646
 30
0.0
 10
163.965705
 20
234.240334
 30
0.0
  0
SPLINE
  5
4e8
100
AcDbEntity
  8
0
 62
7
100
AcDbSpline
 70
8
 71
3
 72
8
 73
4
 74
0
 40
0
 40
0
 40
0
 40
0
 40
1
 40
1
 40
1
 40
1
 10
168.238911
 20
214.617829
 30
0.0
 10
169.786141
 20
214.754370
 30
0.0
 10
170.164839
 20
214.692849
 30
0.0
 10
171.203355
 20
214.136240
 30
0.0
  0
SPLINE
  5
4e9
100
AcDbEntity
  8
0
 62
7
100
AcDbSpline
 70
8
 71
3
 72
8
 73
4
 74
0
 40
0
 40
0
 40
0
 40
0
 40
1
 40
1
 40
1
 40
1
 10
171.203355
 20
214.136240
 30
0.0
 10
171.858199
 20
213.785270
 30
0.0
 10
172.751168
 20
213.013827
 30
0.0
 10
173.187730
 20
212.421922
 30
0.0
  0
LWPOLYLINE
  5
4ea
100
AcDbEntity
  8
0
 62
7
100
AcDbPolyline
 90
3
 70
0
 10
166.315496
 20
215.321907
 30
0.0
 10
166.465118
 20
214.461288
 30
0.0
 10
168.238911
 20
214.617829
 30
0.0
  0
SPLINE
  5
4eb
100
AcDbEntity
  8
0
 62
7
100
AcDbSpline
 70
8
 71
3
 72
8
 73
4
 74
0
 40
0
 40
0
 40
0
 40
0
 40
1
 40
1
 40
1
 40
1
 10
174.546022
 20
211.912044
 30
0.0
 10
174.856510
 20
212.223517
 30
0.0
 10
176.216442
 20
213.728512
 30
0.0
 10
177.568093
 20
215.256480
 30
0.0
  0
LWPOLYLINE
  5
4ec
100
AcDbEntity
  8
0
 62
7
100
AcDbPolyline
 90
3
 70
0
 10
173.187730
 20
212.421922
 30
0.0
 10
173.981480
 20
211.345735
 30
0.0
 10
174.546022
 20
211.912044
 30
0.0
  0
SPLINE
  5
4ed
100
AcDbEntity
  8
0
 62
7
100
AcDbSpline
 70
8
 71
3
 72
8
 73
4
 74
0
 40
0
 40
0
 40
0
 40
0
 40
1
 40
1
 40
1
 40
1
 10
240.145491
 20
234.773363
 30
0.0
 10
240.105221
 20
234.813654
 30
0.0
 10
237.600516
 20
234.814382
 30
0.0
 10
234.579530
 20
234.774951
 30
0.0
  0
LWPOLYLINE
  5
4ee
100
AcDbEntity
  8
0
 62
7
100
AcDbPolyline
 90
1
 70
1
 10
177.568093
 20
215.256480
 30
0.0
  0
SPLINE
  5
4ef
100
AcDbEntity
  8
0
 62
7
100
AcDbSpline
 70
8
 71
3
 72
8
 73
4
 74
0
 40
0
 40
0
 40
0
 40
0
 40
1
 40
1
 40
1
 40
1
 10
230.373740
 20
233.783274
 30
0.0
 10
232.448206
 20
232.300173
 30
0.0
 10
237.666609
 20
228.190025
 30
0.0
 10
238.672105
 20
227.247259
 30
0.0
  0
LWPOLYLINE
  5
4f0
100
AcDbEntity
  8
0
 62
7
100
AcDbPolyline
 90
3
 70
0
 10
234.579530
 20
234.774951
 30
0.0
 10
229.086833
 20
234.703328
 30
0.0
 10
230.373740
 20
233.783274
 30
0.0
  0
SPLINE
  5
4f1
100
AcDbEntity
  8
0
 62
7
100
AcDbSpline
 70
8
 71
3
 72
8
 73
4
 74
0
 40
0
 40
0
 40
0
 40
0
 40
1
 40
1
 40
1
 40
1
 10
239.908450
 20
230.539543
 30
0.0
 10
240.079107
 20
232.827840
 30
0.0
 10
240.185787
 20
234.733049
 30
0.0
 10
240.145491
 20
234.773337
 30
0.0
  0
LWPOLYLINE
  5
4f2
100
AcDbEntity
  8
0
 62
7
100
AcDbPolyline
 90
3
 70
0
 10
238.672105
 20
227.247259
 30
0.0
 10
239.598147
 20
226.379002
 30
0.0
 10
239.908450
 20
230.539543
 30
0.0
  0
LWPOLYLINE
  5
4f3
100
AcDbEntity
  8
0
 62
7
100
AcDbPolyline
 90
1
 70
1
 10
240.145491
 20
234.773337
 30
0.0
  0
ENDSEC
  0
SECTION
  2
OBJECTS
  0
DICTIONARY
  5
C
330
0
100
AcDbDictionary
  3
ACAD_GROUP
350
D
  3
ACAD_MLINESTYLE
350
17
  0
DICTIONARY
  5
D
330
C
100
AcDbDictionary
  0
DICTIONARY
  5
1A
330
C
100
AcDbDictionary
  0
DICTIONARY
  5
17
330
C
100
AcDbDictionary
  3
STANDARD
350
18
  0
DICTIONARY
  5
19
330
C
100
AcDbDictionary
  0
ENDSEC
  0
EOF
