  0
SECTION
  2
HEADER
  9
$ACADVER
  1
AC1015
  9
$ACADMAINTVER
 70
     6
  9
$DWGCODEPAGE
  3
DOS850
  9
$INSBASE
 10
0.0
 20
0.0
 30
0.0
  9
$EXTMIN
 10
-5.83819
 20
-1.77756
 30
1.000000E+20
  9
$EXTMAX
 10
8.91558
 20
10.47747
 30
-1.000000E+20
  9
$LIMMIN
 10
0.0
 20
0.0
  9
$LIMMAX
 10
0.0
 20
0.0
  9
$ORTHOMODE
 70
     0
  9
$REGENMODE
 70
     1
  9
$FILLMODE
 70
     1
  9
$QTEXTMODE
 70
     0
  9
$MIRRTEXT
 70
     1
  9
$LTSCALE
 40
1.0
  9
$ATTMODE
 70
     1
  9
$TEXTSIZE
 40
0.2
  9
$TRACEWID
 40
0.05
  9
$TEXTSTYLE
  7
Standard
  9
$CLAYER
  8
0
  9
$CELTYPE
  6
Continuous
  9
$CECOLOR
 62
   256
  9
$CELTSCALE
 40
1.0
  9
$DISPSILH
 70
     0
  9
$DIMSCALE
 40
1.0
  9
$DIMASZ
 40
0.18
  9
$DIMEXO
 40
0.0625
  9
$DIMDLI
 40
0.38
  9
$DIMRND
 40
0.0
  9
$DIMDLE
 40
0.0
  9
$DIMEXE
 40
0.18
  9
$DIMTP
 40
0.0
  9
$DIMTM
 40
0.0
  9
$DIMTXT
 40
0.18
  9
$DIMCEN
 40
0.09
  9
$DIMTSZ
 40
0.0
  9
$DIMTOL
 70
     0
  9
$DIMLIM
 70
     0
  9
$DIMTIH
 70
     1
  9
$DIMTOH
 70
     1
  9
$DIMSE1
 70
     0
  9
$DIMSE2
 70
     0
  9
$DIMTAD
 70
     0
  9
$DIMZIN
 70
     0
  9
$DIMBLK
  1

  9
$DIMASO
 70
     1
  9
$DIMSHO
 70
     1
  9
$DIMPOST
  1

  9
$DIMAPOST
  1

  9
$DIMALT
 70
     0
  9
$DIMALTD
 70
     2
  9
$DIMALTF
 40
25.4
  9
$DIMLFAC
 40
1.0
  9
$DIMTOFL
 70
     0
  9
$DIMTVP
 40
0.0
  9
$DIMTIX
 70
     0
  9
$DIMSOXD
 70
     0
  9
$DIMSAH
 70
     0
  9
$DIMBLK1
  1

  9
$DIMBLK2
  1

  9
$DIMSTYLE
  2
Standard
  9
$DIMCLRD
 70
     0
  9
$DIMCLRE
 70
     0
  9
$DIMCLRT
 70
     0
  9
$DIMTFAC
 40
1.0
  9
$DIMGAP
 40
0.09
  9
$DIMJUST
 70
     0
  9
$DIMSD1
 70
     0
  9
$DIMSD2
 70
     0
  9
$DIMTOLJ
 70
     1
  9
$DIMTZIN
 70
     0
  9
$DIMALTZ
 70
     0
  9
$DIMALTTZ
 70
     0
  9
$DIMUPT
 70
     0
  9
$DIMDEC
 70
     4
  9
$DIMTDEC
 70
     4
  9
$DIMALTU
 70
     2
  9
$DIMALTTD
 70
     2
  9
$DIMTXSTY
  7
Standard
  9
$DIMAUNIT
 70
     0
  9
$DIMADEC
 70
     0
  9
$DIMALTRND
 40
0.0
  9
$DIMAZIN
 70
     0
  9
$DIMDSEP
 70
     0
  9
$DIMATFIT
 70
     3
  9
$DIMFRAC
 70
     0
  9
$DIMLDRBLK
  1

  9
$DIMLUNIT
 70
     2
  9
$DIMLWD
 70
     0
  9
$DIMLWE
 70
     0
  9
$DIMTMOVE
 70
     0
  9
$LUNITS
 70
     2
  9
$LUPREC
 70
     4
  9
$SKETCHINC
 40
0.1
  9
$FILLETRAD
 40
0.0
  9
$AUNITS
 70
     0
  9
$AUPREC
 70
     0
  9
$MENU
  1
acad
  9
$ELEVATION
 40
0.0
  9
$PELEVATION
 40
0.0
  9
$THICKNESS
 40
0.0
  9
$LIMCHECK
 70
     0
  9
$CHAMFERA
 40
0.0
  9
$CHAMFERB
 40
0.0
  9
$CHAMFERC
 40
0.0
  9
$CHAMFERD
 40
0.0
  9
$SKPOLY
 70
     0
  9
$TDCREATE
 40
0.000000000
  9
$TDUCREATE
 40
0.000000000
  9
$TDUPDATE
 40
0.000000000
  9
$TDUUPDATE
 40
0.000000000
  9
$TDINDWG
 40
0.0000000000
  9
$TDUSRTIMER
 40
0.0000000000
  9
$USRTIMER
 70
     1
  9
$ANGBASE
 50
0.0
  9
$ANGDIR
 70
     0
  9
$PDMODE
 70
     0
  9
$PDSIZE
 40
0.0
  9
$PLINEWID
 40
0.0
  9
$SPLFRAME
 70
     0
  9
$SPLINETYPE
 70
     6
  9
$SPLINESEGS
 70
     8
  9
$HANDSEED
  5
31
  9
$SURFTAB1
 70
     6
  9
$SURFTAB2
 70
     6
  9
$SURFTYPE
 70
     6
  9
$SURFU
 70
     6
  9
$SURFV
 70
     6
  9
$UCSBASE
  2

  9
$UCSNAME
  2

  9
$UCSORG
 10
0.0
 20
0.0
 30
0.0
  9
$UCSXDIR
 10
1.0
 20
0.0
 30
0.0
  9
$UCSYDIR
 10
0.0
 20
1.0
 30
0.0
  9
$UCSORTHOREF
  2

  9
$UCSORTHOVIEW
 70
     0
  9
$UCSORGTOP
 10
0.0
 20
0.0
 30
0.0
  9
$UCSORGBOTTOM
 10
0.0
 20
0.0
 30
0.0
  9
$UCSORGLEFT
 10
0.0
 20
0.0
 30
0.0
  9
$UCSORGRIGHT
 10
0.0
 20
0.0
 30
0.0
  9
$UCSORGFRONT
 10
0.0
 20
0.0
 30
0.0
  9
$UCSORGBACK
 10
0.0
 20
0.0
 30
0.0
  9
$PUCSBASE
  2

  9
$PUCSNAME
  2

  9
$PUCSORG
 10
0.0
 20
0.0
 30
0.0
  9
$PUCSXDIR
 10
1.0
 20
0.0
 30
0.0
  9
$PUCSYDIR
 10
0.0
 20
1.0
 30
0.0
  9
$PUCSORTHOREF
  2

  9
$PUCSORTHOVIEW
 70
     0
  9
$PUCSORGTOP
 10
0.0
 20
0.0
 30
0.0
  9
$PUCSORGBOTTOM
 10
0.0
 20
0.0
 30
0.0
  9
$PUCSORGLEFT
 10
0.0
 20
0.0
 30
0.0
  9
$PUCSORGRIGHT
 10
0.0
 20
0.0
 30
0.0
  9
$PUCSORGFRONT
 10
0.0
 20
0.0
 30
0.0
  9
$PUCSORGBACK
 10
0.0
 20
0.0
 30
0.0
  9
$USERI1
 70
     0
  9
$USERI2
 70
     0
  9
$USERI3
 70
     0
  9
$USERI4
 70
     0
  9
$USERI5
 70
     0
  9
$USERR1
 40
0.0
  9
$USERR2
 40
0.0
  9
$USERR3
 40
0.0
  9
$USERR4
 40
0.0
  9
$USERR5
 40
0.0
  9
$WORLDVIEW
 70
     1
  9
$SHADEDGE
 70
     3
  9
$SHADEDIF
 70
    70
  9
$TILEMODE
 70
     1
  9
$MAXACTVP
 70
    16
  9
$PINSBASE
 10
0.0
 20
0.0
 30
0.0
  9
$PLIMCHECK
 70
     0
  9
$PEXTMIN
 10
1.000000E+20
 20
1.000000E+20
 30
1.000000E+20
  9
$PEXTMAX
 10
-1.000000E+20
 20
-1.000000E+20
 30
-1.000000E+20
  9
$PLIMMIN
 10
0.0
 20
0.0
  9
$PLIMMAX
 10
12.0
 20
9.0
  9
$UNITMODE
 70
     0
  9
$VISRETAIN
 70
     0
  9
$PLINEGEN
 70
     1
  9
$PSLTSCALE
 70
     0
  9
$TREEDEPTH
 70
  3020
  9
$CMLSTYLE
  2
Standard
  9
$CMLJUST
 70
     0
  9
$CMLSCALE
 40
1.0
  9
$PROXYGRAPHICS
 70
     0
  9
$MEASUREMENT
 70
     0
  9
$CELWEIGHT
370
     0
  9
$ENDCAPS
280
     0
  9
$JOINSTYLE
280
     0
  9
$LWDISPLAY
290
     0
  9
$INSUNITS
 70
     5
  9
$HYPERLINKBASE
  1

  9
$XEDIT
290
     1
  9
$CEPSNTYPE
380
     0
  9
$PSTYLEMODE
290
     1
  9
$FINGERPRINTGUID
  2

  9
$VERSIONGUID
  2

  9
$EXTNAMES
290
     1
  9
$PSVPSCALE
 40
0.0
  0
ENDSEC
  0
SECTION
  2
CLASSES
  0
CLASS
  1
LWPOLYLINE
  2
AcDbPolyline
  3
AutoCAD 2000
 90
    32768
280
     0
281
     1
  0
CLASS
  1
IMAGE
  2
AcDbRasterImage
  3
ISM
 90
    32895
280
     0
281
     1
  0
CLASS
  1
OLE2FRAME
  2
AcDbOle2Frame
  3
AutoCAD 2000
 90
    32768
280
     0
281
     1
  0
CLASS
  1
HATCH
  2
AcDbHatch
  3
AutoCAD 2000
 90
    32768
280
     0
281
     1
  0
CLASS
  1
DICTIONARYVAR
  2
AcDbDictionaryVar
  3
AutoCAD 2000
 90
    32768
280
     0
281
     0
  0
CLASS
  1
RASTERVARIABLES
  2
AcDbRasterVariables
  3
ISM
 90
    32768
280
     0
281
     0
  0
CLASS
  1
IMAGEDEF
  2
AcDbRasterImageDef
  3
ISM
 90
    32768
280
     0
281
     0
  0
CLASS
  1
IMAGEDEF_REACTOR
  2
AcDbRasterImageDefReactor
  3
ISM
 90
    32769
280
     0
281
     0
  0
CLASS
  1
IDBUFFER
  2
AcDbIdBuffer
  3
AutoCAD 2000
 90
    32768
280
     0
281
     0
  0
CLASS
  1
SPATIAL_FILTER
  2
AcDbSpatialFilter
  3
AutoCAD 2000
 90
    32768
280
     0
281
     0
  0
CLASS
  1
XRECORD
  2
AcDbXrecord
  3
AutoCAD 2000
 90
    32768
280
     0
281
     0
  0
CLASS
  1
SORTENTSTABLE
  2
AcDbSortentsTable
  3
AutoCAD 2000
 90
    32768
280
     0
281
     0
  0
CLASS
  1
LAYER_INDEX
  2
AcDbLayerIndex
  3
AutoCAD 2000
 90
    32768
280
     0
281
     0
  0
CLASS
  1
SPATIAL_INDEX
  2
AcDbSpatialIndex
  3
AutoCAD 2000
 90
    32768
280
     0
281
     0
  0
CLASS
  1
OBJECT_PTR
  2
CAseDLPNTableRecord
  3
"ASE-LPNTableRecord"
 90
    32769
280
     0
281
     0
  0
CLASS
  1
LAYOUT
  2
AcDbLayout
  3
AutoCAD 2000
 90
        0
280
     0
281
     0
  0
CLASS
  1
PLOTSETTINGS
  2
AcDbPlotSettings
  3
AutoCAD 2000
 90
    32768
280
     0
281
     0
  0
CLASS
  1
ACDBDICTIONARYWDFLT
  2
AcDbDictionaryWithDefault
  3
AutoCAD 2000
 90
        0
280
     0
281
     0
  0
CLASS
  1
ACDBPLACEHOLDER
  2
AcDbPlaceHolder
  3
AutoCAD 2000
 90
        0
280
     0
281
     0
  0
CLASS
  1
VBA_PROJECT
  2
AcDbVbaProject
  3
acadvba
 90
    32768
280
     0
281
     0
  0
CLASS
  1
WIPEOUT
  2
AcDbWipeout
  3
WipeOut|AutoCAD Express Tool|expresstools@autodesk.com
 90
    32895
280
     0
281
     1
  0
CLASS
  1
WIPEOUTVARIABLES
  2
AcDbWipeoutVariables
  3
WipeOut|AutoCAD Express Tool|expresstools@autodesk.com
 90
        0
280
     0
281
     0
  0
CLASS
  1
RTEXT
  2
RText
  3
RText|AutoCAD Express Tool|expresstools@autodesk.com
 90
    32768
280
     0
281
     1
  0
CLASS
  1
ARCALIGNEDTEXT
  2
AcDbArcAlignedText
  3
ATEXT|AutoCAD Express Tool|expresstools@autodesk.com
 90
    32768
280
     0
281
     1
  0
ENDSEC
  0
SECTION
  2
TABLES
  0
TABLE
  2
VPORT
  5
7
100
AcDbSymbolTable
 70
     1
  0
VPORT
  5
15
100
AcDbSymbolTableRecord
100
AcDbViewportTableRecord
  2
*ACTIVE
 70
     0
 10
0.0
 20
0.0
 11
1.0
 21
1.0
 12
6.591288
 22
4.579184
 13
0.0
 23
0.0
 14
1.0
 24
1.0
 15
0.0
 25
0.0
 16
0.0
 26
0.0
 36
1.0
 17
0.0
 27
0.0
 37
0.0
 40
9.158369
 41
0.688564
 42
50.0
 43
0.0
 44
0.0
 50
0.0
 51
0.0
 71
     0
 72
   100
 73
     1
 74
     1
 75
     0
 76
     0
 77
     0
 78
     0
281
     0
 65
     0
110
0.0
120
0.0
130
0.0
111
1.0
121
0.0
131
0.0
112
0.0
122
1.0
132
0.0
345
0
346
0
 79
     0
146
0.0
  0
ENDTAB
  0
TABLE
  2
LTYPE
  5
4
100
AcDbSymbolTable
 70
     3
  0
LTYPE
  5
11
100
AcDbSymbolTableRecord
100
AcDbLinetypeTableRecord
  2
ByBlock
 70
    64
  3

 72
    65
 73
     0
 40
0.0
  0
LTYPE
  5
12
100
AcDbSymbolTableRecord
100
AcDbLinetypeTableRecord
  2
ByLayer
 70
    64
  3

 72
    65
 73
     0
 40
0.0
  0
LTYPE
  5
13
100
AcDbSymbolTableRecord
100
AcDbLinetypeTableRecord
  2
Continuous
 70
    64
  3
Solid line
 72
    65
 73
     0
 40
0.0
  0
ENDTAB
  0
TABLE
  2
LAYER
  5
2
100
AcDbSymbolTable
 70
     2
  0
LAYER
  5
14
100
AcDbSymbolTableRecord
100
AcDbLayerTableRecord
  2
0
 70
     0
 62
     7
  6
Continuous
290
     1
370
    -3
390
1D
  0
LAYER
  5
24
100
AcDbSymbolTableRecord
100
AcDbLayerTableRecord
  2
Ebene 1
 70
     0
 62
     7
  6
Continuous
290
     1
370
    -3
390
1F
  0
ENDTAB
  0
TABLE
  2
STYLE
  5
3
100
AcDbSymbolTable
 70
     1
  0
STYLE
  5
17
100
AcDbSymbolTableRecord
100
AcDbTextStyleTableRecord
  2
Standard
 70
     0
 40
0.0
 41
1.0
 50
0.0
 71
     0
 42
0.0
  3
txt
  4

  0
ENDTAB
  0
TABLE
  2
VIEW
  5
5
100
AcDbSymbolTable
 70
     0
  0
ENDTAB
  0
TABLE
  2
UCS
  5
6
100
AcDbSymbolTable
 70
     0
  0
ENDTAB
  0
TABLE
  2
APPID
  5
8
100
AcDbSymbolTable
 70
     1
  0
APPID
  5
16
100
AcDbSymbolTableRecord
100
AcDbRegAppTableRecord
  2
ACAD
 70
     0
  0
ENDTAB
  0
TABLE
  2
DIMSTYLE
  5
9
100
AcDbSymbolTable
 70
     1
100
AcDbDimStyleTable
 71
     0
  0
DIMSTYLE
105
18
100
AcDbSymbolTableRecord
100
AcDbDimStyleTableRecord
  2
Standard
 70
     0
  3

  4

 40
1.0
 41
0.18
 42
0.0625
 43
0.38
 44
0.18
 45
0.0
 46
0.0
 47
0.0
 48
0.0
 71
     0
 72
     0
 73
     1
 74
     1
 75
     0
 76
     0
 77
     0
 78
     0
 79
     0
140
0.18
141
0.09
142
0.0
143
25.4
144
1.0
145
0.0
146
1.0
147
0.09
148
0.0
170
     0
171
     2
172
     0
173
     0
174
     0
175
     0
176
     0
177
     0
178
     0
179
     0
271
     4
272
     4
273
     2
274
     2
275
     0
276
     0
277
     2
278
    46
279
     0
280
     0
281
     0
282
     0
283
     1
284
     0
285
     0
286
     0
288
     0
340
17
341
0
342
0
343
0
344
0
371
    -2
372
    -2
  0
ENDTAB
  0
TABLE
  2
BLOCK_RECORD
  5
1
100
AcDbSymbolTable
 70
     0
  0
BLOCK_RECORD
  5
A
100
AcDbSymbolTableRecord
100
AcDbBlockTableRecord
  2
*MODEL_SPACE
340
20
  0
BLOCK_RECORD
  5
B
100
AcDbSymbolTableRecord
100
AcDbBlockTableRecord
  2
*PAPER_SPACE
340
21
  0
ENDTAB
  0
ENDSEC
  0
SECTION
  2
BLOCKS
  0
BLOCK
  5
D
100
AcDbEntity
  8
0
100
AcDbBlockBegin
  2
*MODEL_SPACE
 70
     0
 10
0.0
 20
0.0
 30
0.0
  3
*MODEL_SPACE
  1

  0
ENDBLK
  5
E
100
AcDbEntity
  8
0
100
AcDbBlockEnd
  0
BLOCK
  5
F
100
AcDbEntity
 67
     1
  8
0
100
AcDbBlockBegin
  2
*PAPER_SPACE
 70
     0
 10
0.0
 20
0.0
 30
0.0
  3
*PAPER_SPACE
  1

  0
ENDBLK
  5
10
100
AcDbEntity
 67
     1
  8
0
100
AcDbBlockEnd
  0
ENDSEC
  0
SECTION
  2
ENTITIES
  0
SPLINE
  5
25
100
AcDbEntity
  8
Ebene 1
 62
     1
100
AcDbSpline
210
0.0
220
0.0
230
1.0
 70
     1
 71
     3
 72
    72
 73
    68
 74
     0
 42
0.0000000001
 43
0.0000000001
 40
0.0
 40
0.0
 40
0.0
 40
0.0
 40
0.0588235294117647
 40
0.0588235294117647
 40
0.0588235294117647
 40
0.0588235294117647
 40
0.1176470588235294
 40
0.1176470588235294
 40
0.1176470588235294
 40
0.1176470588235294
 40
0.1764705882352941
 40
0.1764705882352941
 40
0.1764705882352941
 40
0.1764705882352941
 40
0.2352941176470588
 40
0.2352941176470588
 40
0.2352941176470588
 40
0.2352941176470588
 40
0.2941176470588235
 40
0.2941176470588235
 40
0.2941176470588235
 40
0.2941176470588235
 40
0.3529411764705883
 40
0.3529411764705883
 40
0.3529411764705883
 40
0.3529411764705883
 40
0.411764705882353
 40
0.411764705882353
 40
0.411764705882353
 40
0.411764705882353
 40
0.4705882352941177
 40
0.4705882352941177
 40
0.4705882352941177
 40
0.4705882352941177
 40
0.5294117647058824
 40
0.5294117647058824
 40
0.5294117647058824
 40
0.5294117647058824
 40
0.5882352941176471
 40
0.5882352941176471
 40
0.5882352941176471
 40
0.5882352941176471
 40
0.6470588235294118
 40
0.6470588235294118
 40
0.6470588235294118
 40
0.6470588235294118
 40
0.7058823529411765
 40
0.7058823529411765
 40
0.7058823529411765
 40
0.7058823529411765
 40
0.7647058823529412
 40
0.7647058823529412
 40
0.7647058823529412
 40
0.7647058823529412
 40
0.823529411764706
 40
0.823529411764706
 40
0.823529411764706
 40
0.823529411764706
 40
0.8823529411764707
 40
0.8823529411764707
 40
0.8823529411764707
 40
0.8823529411764707
 40
0.9411764705882354
 40
0.9411764705882354
 40
0.9411764705882354
 40
0.9411764705882354
 40
1.0
 40
1.0
 40
1.0
 40
1.0
 10
1.0656800000000002
 20
3.3165900000000001
 30
0.0
 10
1.0656800000000002
 20
3.3165900000000001
 30
0.0
 10
-0.23724
 20
3.8474100000000004
 30
0.0
 10
-0.39811
 20
5.3112100000000009
 30
0.0
 10
-0.39811
 20
5.3112100000000009
 30
0.0
 10
-0.55896
 20
6.7750000000000004
 30
0.0
 10
-1.2989000000000002
 20
7.5953600000000003
 30
0.0
 10
-2.2640400000000001
 20
8.1262000000000008
 30
0.0
 10
-2.2640400000000001
 20
8.1262000000000008
 30
0.0
 10
-3.2291900000000004
 20
8.657020000000001
 30
0.0
 10
-3.6341900000000003
 20
8.8041300000000007
 30
0.0
 10
-3.6341900000000003
 20
8.8041300000000007
 30
0.0
 10
-3.6341900000000003
 20
8.8041300000000007
 30
0.0
 10
-3.7337700000000003
 20
8.8519300000000012
 30
0.0
 10
-2.3131200000000001
 20
8.0224900000000012
 30
0.0
 10
-2.2100400000000002
 20
7.9481600000000006
 30
0.0
 10
-2.2100400000000002
 20
7.9481600000000006
 30
0.0
 10
-2.06826
 20
7.8459400000000006
 30
0.0
 10
-2.0030800000000002
 20
7.730150000000001
 30
0.0
 10
-1.9584100000000002
 20
7.6275400000000007
 30
0.0
 10
-1.9584100000000002
 20
7.6275400000000007
 30
0.0
 10
-1.7359800000000001
 20
7.1166200000000002
 30
0.0
 10
-2.2629200000000003
 20
6.6880600000000001
 30
0.0
 10
-3.1165800000000004
 20
7.7401400000000002
 30
0.0
 10
-3.1165800000000004
 20
7.7401400000000002
 30
0.0
 10
-3.9702400000000004
 20
8.7922200000000004
 30
0.0
 10
-3.8113600000000005
 20
8.5955400000000015
 30
0.0
 10
-4.0423300000000006
 20
8.8507600000000011
 30
0.0
 10
-4.0423300000000006
 20
8.8507600000000011
 30
0.0
 10
-4.0347200000000001
 20
8.8210100000000011
 30
0.0
 10
-3.9876900000000002
 20
8.5948900000000013
 30
0.0
 10
-3.8833100000000003
 20
8.4321200000000012
 30
0.0
 10
-3.8833100000000003
 20
8.4321200000000012
 30
0.0
 10
-3.5235500000000002
 20
7.8711800000000007
 30
0.0
 10
-2.6757300000000002
 20
6.6598800000000002
 30
0.0
 10
-2.1178300000000001
 20
6.1600800000000007
 30
0.0
 10
-2.1178300000000001
 20
6.1600800000000007
 30
0.0
 10
-1.55993
 20
5.6602900000000007
 30
0.0
 10
-1.05762
 20
4.98949
 30
0.0
 10
-0.9611100000000001
 20
4.6516800000000007
 30
0.0
 10
-0.9611100000000001
 20
4.6516800000000007
 30
0.0
 10
-0.8645900000000001
 20
4.3138700000000005
 30
0.0
 10
-0.9128400000000001
 20
5.0216700000000003
 30
0.0
 10
-1.3149900000000001
 20
5.7294300000000007
 30
0.0
 10
-1.3149900000000001
 20
5.7294300000000007
 30
0.0
 10
-1.71713
 20
6.4372100000000003
 30
0.0
 10
-1.6923500000000002
 20
6.8232600000000003
 30
0.0
 10
-1.4919300000000002
 20
6.8715100000000007
 30
0.0
 10
-1.4919300000000002
 20
6.8715100000000007
 30
0.0
 10
-1.2915100000000002
 20
6.9197600000000001
 30
0.0
 10
-0.8708100000000001
 20
6.4693700000000005
 30
0.0
 10
-0.6554800000000001
 20
5.4881500000000001
 30
0.0
 10
-0.6554800000000001
 20
5.4881500000000001
 30
0.0
 10
-0.44014
 20
4.5069400000000002
 30
0.0
 10
-0.6554800000000001
 20
3.7669700000000002
 30
0.0
 10
-1.13805
 20
4.2495600000000007
 30
0.0
 10
-1.13805
 20
4.2495600000000007
 30
0.0
 10
-1.6206200000000002
 20
4.7321300000000006
 30
0.0
 10
-1.4053500000000001
 20
4.0478800000000001
 30
0.0
 10
-0.8470700000000001
 20
3.6716700000000002
 30
0.0
 10
-0.8470700000000001
 20
3.6716700000000002
 30
0.0
 10
-0.2888
 20
3.2954400000000001
 30
0.0
 10
0.0146
 20
3.2468900000000001
 30
0.0
 10
0.47578
 20
3.2104800000000004
 30
0.0
 10
0.47578
 20
3.2104800000000004
 30
0.0
 10
0.8916500000000001
 20
3.1559400000000002
 30
0.0
 10
1.0505800000000001
 20
3.3105300000000004
 30
0.0
 10
1.0656800000000002
 20
3.3165900000000001
 30
0.0
  0
SPLINE
  5
26
100
AcDbEntity
  8
Ebene 1
 62
     1
100
AcDbSpline
210
0.0
220
0.0
230
1.0
 70
     1
 71
     3
 72
    68
 73
    64
 74
     0
 42
0.0000000001
 43
0.0000000001
 40
0.0
 40
0.0
 40
0.0
 40
0.0
 40
0.0625
 40
0.0625
 40
0.0625
 40
0.0625
 40
0.125
 40
0.125
 40
0.125
 40
0.125
 40
0.1875
 40
0.1875
 40
0.1875
 40
0.1875
 40
0.25
 40
0.25
 40
0.25
 40
0.25
 40
0.3125
 40
0.3125
 40
0.3125
 40
0.3125
 40
0.375
 40
0.375
 40
0.375
 40
0.375
 40
0.4375
 40
0.4375
 40
0.4375
 40
0.4375
 40
0.5
 40
0.5
 40
0.5
 40
0.5
 40
0.5625
 40
0.5625
 40
0.5625
 40
0.5625
 40
0.625
 40
0.625
 40
0.625
 40
0.625
 40
0.6875
 40
0.6875
 40
0.6875
 40
0.6875
 40
0.75
 40
0.75
 40
0.75
 40
0.75
 40
0.8125
 40
0.8125
 40
0.8125
 40
0.8125
 40
0.875
 40
0.875
 40
0.875
 40
0.875
 40
0.9375
 40
0.9375
 40
0.9375
 40
0.9375
 40
1.0
 40
1.0
 40
1.0
 40
1.0
 10
1.5425000000000002
 20
3.2750100000000004
 30
0.0
 10
1.6031000000000002
 20
3.2750100000000004
 30
0.0
 10
1.6555400000000002
 20
3.2290500000000004
 30
0.0
 10
1.6862700000000002
 20
3.1585300000000003
 30
0.0
 10
1.6862700000000002
 20
3.1585300000000003
 30
0.0
 10
1.7151000000000001
 20
3.0924200000000002
 30
0.0
 10
1.7226500000000002
 20
3.0018400000000001
 30
0.0
 10
1.7074500000000001
 20
2.8981800000000004
 30
0.0
 10
1.7074500000000001
 20
2.8981800000000004
 30
0.0
 10
1.6922600000000001
 20
2.7944100000000001
 30
0.0
 10
1.6593900000000001
 20
2.6880700000000002
 30
0.0
 10
1.6299400000000002
 20
2.5981200000000002
 30
0.0
 10
1.6299400000000002
 20
2.5981200000000002
 30
0.0
 10
1.6158100000000002
 20
2.55491
 30
0.0
 10
1.6028900000000001
 20
2.5157800000000003
 30
0.0
 10
1.5907300000000002
 20
2.4834900000000002
 30
0.0
 10
1.5907300000000002
 20
2.4834900000000002
 30
0.0
 10
1.6320000000000001
 20
2.4369500000000004
 30
0.0
 10
1.6668700000000001
 20
2.3317700000000001
 30
0.0
 10
1.68988
 20
2.1908000000000003
 30
0.0
 10
1.68988
 20
2.1908000000000003
 30
0.0
 10
1.7194400000000001
 20
2.0096600000000002
 30
0.0
 10
1.7271600000000003
 20
1.7615100000000001
 30
0.0
 10
1.7115900000000002
 20
1.4774600000000002
 30
0.0
 10
1.7115900000000002
 20
1.4774600000000002
 30
0.0
 10
1.6960200000000001
 20
1.1931700000000001
 30
0.0
 10
1.66229
 20
0.9017100000000001
 30
0.0
 10
1.6320800000000002
 20
0.65532
 30
0.0
 10
1.6320800000000002
 20
0.65532
 30
0.0
 10
1.6010000000000002
 20
0.40163
 30
0.0
 10
1.5758500000000002
 20
0.19905
 30
0.0
 10
1.55115
 20
0.12292
 30
0.0
 10
1.55115
 20
0.12292
 30
0.0
 10
1.5259500000000001
 20
0.19351
 30
0.0
 10
1.4993000000000001
 20
0.39832
 30
0.0
 10
1.46635
 20
0.65332
 30
0.0
 10
1.46635
 20
0.65332
 30
0.0
 10
1.4343100000000002
 20
0.9014700000000001
 30
0.0
 10
1.3984800000000002
 20
1.1931700000000001
 30
0.0
 10
1.3808400000000001
 20
1.4774600000000002
 30
0.0
 10
1.3808400000000001
 20
1.4774600000000002
 30
0.0
 10
1.3631700000000002
 20
1.7615100000000001
 30
0.0
 10
1.36904
 20
2.0095200000000002
 30
0.0
 10
1.3972200000000001
 20
2.19049
 30
0.0
 10
1.3972200000000001
 20
2.19049
 30
0.0
 10
1.4210600000000002
 20
2.3439000000000001
 30
0.0
 10
1.4593
 20
2.4548300000000003
 30
0.0
 10
1.50509
 20
2.49424
 30
0.0
 10
1.50509
 20
2.49424
 30
0.0
 10
1.4936500000000001
 20
2.5241100000000003
 30
0.0
 10
1.4814900000000002
 20
2.55918
 30
0.0
 10
1.4683100000000002
 20
2.5973600000000001
 30
0.0
 10
1.4683100000000002
 20
2.5973600000000001
 30
0.0
 10
1.4370500000000002
 20
2.6879600000000003
 30
0.0
 10
1.4021300000000001
 20
2.7944100000000001
 30
0.0
 10
1.3849100000000001
 20
2.8981800000000004
 30
0.0
 10
1.3849100000000001
 20
2.8981800000000004
 30
0.0
 10
1.3677100000000002
 20
3.0018400000000001
 30
0.0
 10
1.3734000000000002
 20
3.0923500000000002
 30
0.0
 10
1.4009100000000001
 20
3.1584300000000001
 30
0.0
 10
1.4009100000000001
 20
3.1584300000000001
 30
0.0
 10
1.4302400000000002
 20
3.2290500000000004
 30
0.0
 10
1.4818500000000001
 20
3.2750100000000004
 30
0.0
 10
1.5425000000000002
 20
3.2750100000000004
 30
0.0
  0
SPLINE
  5
27
100
AcDbEntity
  8
Ebene 1
 62
     1
100
AcDbSpline
210
0.0
220
0.0
230
1.0
 70
     1
 71
     3
 72
    44
 73
    40
 74
     0
 42
0.0000000001
 43
0.0000000001
 40
0.0
 40
0.0
 40
0.0
 40
0.0
 40
0.1
 40
0.1
 40
0.1
 40
0.1
 40
0.2
 40
0.2
 40
0.2
 40
0.2
 40
0.3
 40
0.3
 40
0.3
 40
0.3
 40
0.4
 40
0.4
 40
0.4
 40
0.4
 40
0.5
 40
0.5
 40
0.5
 40
0.5
 40
0.6
 40
0.6
 40
0.6
 40
0.6
 40
0.7
 40
0.7
 40
0.7
 40
0.7
 40
0.7999999999999999
 40
0.7999999999999999
 40
0.7999999999999999
 40
0.7999999999999999
 40
0.8999999999999999
 40
0.8999999999999999
 40
0.8999999999999999
 40
0.8999999999999999
 40
1.0
 40
1.0
 40
1.0
 40
1.0
 10
1.41588
 20
3.6155500000000003
 30
0.0
 10
1.38243
 20
3.6335700000000002
 30
0.0
 10
-0.15385
 20
7.197070000000001
 30
0.0
 10
-0.6006800000000001
 20
7.4387500000000006
 30
0.0
 10
-0.6006800000000001
 20
7.4387500000000006
 30
0.0
 10
-0.8911000000000001
 20
7.5958300000000003
 30
0.0
 10
-0.6448700000000001
 20
7.195780000000001
 30
0.0
 10
-0.5701200000000001
 20
7.1239000000000008
 30
0.0
 10
-0.5701200000000001
 20
7.1239000000000008
 30
0.0
 10
-0.4953500000000001
 20
7.0520200000000006
 30
0.0
 10
-0.32568
 20
6.824040000000001
 30
0.0
 10
-0.32568
 20
6.824040000000001
 30
0.0
 10
-0.32568
 20
6.824040000000001
 30
0.0
 10
-0.34092
 20
6.8138800000000002
 30
0.0
 10
-0.8424600000000001
 20
7.2354000000000003
 30
0.0
 10
-0.9673400000000001
 20
7.5137100000000006
 30
0.0
 10
-0.9673400000000001
 20
7.5137100000000006
 30
0.0
 10
-1.0922000000000001
 20
7.7920100000000003
 30
0.0
 10
-0.6923400000000001
 20
7.6786500000000002
 30
0.0
 10
-0.6923400000000001
 20
7.6786500000000002
 30
0.0
 10
-0.6923400000000001
 20
7.6786500000000002
 30
0.0
 10
-0.6923400000000001
 20
7.6786500000000002
 30
0.0
 10
-0.8517800000000001
 20
8.0021599999999999
 30
0.0
 10
-1.0206700000000002
 20
7.9857900000000006
 30
0.0
 10
-1.0206700000000002
 20
7.9857900000000006
 30
0.0
 10
-1.1895
 20
7.9694100000000008
 30
0.0
 10
-1.0713200000000001
 20
7.6877100000000009
 30
0.0
 10
-1.0713200000000001
 20
7.6877100000000009
 30
0.0
 10
-1.0713200000000001
 20
7.6877100000000009
 30
0.0
 10
-1.0713200000000001
 20
7.6877100000000009
 30
0.0
 10
-1.2575900000000002
 20
7.9185300000000005
 30
0.0
 10
-1.1659400000000002
 20
8.0234800000000011
 30
0.0
 10
-1.1659400000000002
 20
8.0234800000000011
 30
0.0
 10
-1.0742800000000001
 20
8.128400000000001
 30
0.0
 10
-0.84511
 20
8.2633700000000001
 30
0.0
 10
-0.29515
 20
7.2588500000000007
 30
0.0
 10
-0.29515
 20
7.2588500000000007
 30
0.0
 10
0.25483
 20
6.2543100000000003
 30
0.0
 10
1.41588
 20
3.6155500000000003
 30
0.0
 10
1.41588
 20
3.6155500000000003
 30
0.0
  0
SPLINE
  5
28
100
AcDbEntity
  8
Ebene 1
 62
     1
100
AcDbSpline
210
0.0
220
0.0
230
1.0
 70
     1
 71
     3
 72
    44
 73
    40
 74
     0
 42
0.0000000001
 43
0.0000000001
 40
0.0
 40
0.0
 40
0.0
 40
0.0
 40
0.1
 40
0.1
 40
0.1
 40
0.1
 40
0.2
 40
0.2
 40
0.2
 40
0.2
 40
0.3
 40
0.3
 40
0.3
 40
0.3
 40
0.4
 40
0.4
 40
0.4
 40
0.4
 40
0.5
 40
0.5
 40
0.5
 40
0.5
 40
0.6
 40
0.6
 40
0.6
 40
0.6
 40
0.7
 40
0.7
 40
0.7
 40
0.7
 40
0.7999999999999999
 40
0.7999999999999999
 40
0.7999999999999999
 40
0.7999999999999999
 40
0.8999999999999999
 40
0.8999999999999999
 40
0.8999999999999999
 40
0.8999999999999999
 40
1.0
 40
1.0
 40
1.0
 40
1.0
 10
1.6422000000000001
 20
3.6155500000000003
 30
0.0
 10
1.6756500000000001
 20
3.6335700000000002
 30
0.0
 10
3.2119600000000004
 20
7.197070000000001
 30
0.0
 10
3.6587600000000005
 20
7.4387500000000006
 30
0.0
 10
3.6587600000000005
 20
7.4387500000000006
 30
0.0
 10
3.9492100000000003
 20
7.5958300000000003
 30
0.0
 10
3.7029600000000005
 20
7.195780000000001
 30
0.0
 10
3.6282000000000001
 20
7.1239000000000008
 30
0.0
 10
3.6282000000000001
 20
7.1239000000000008
 30
0.0
 10
3.5534400000000002
 20
7.0520200000000006
 30
0.0
 10
3.3837700000000002
 20
6.824040000000001
 30
0.0
 10
3.3837700000000002
 20
6.824040000000001
 30
0.0
 10
3.3837700000000002
 20
6.824040000000001
 30
0.0
 10
3.3990300000000002
 20
6.8138800000000002
 30
0.0
 10
3.9005700000000005
 20
7.2354000000000003
 30
0.0
 10
4.0254200000000004
 20
7.5137100000000006
 30
0.0
 10
4.0254200000000004
 20
7.5137100000000006
 30
0.0
 10
4.1502699999999999
 20
7.7920100000000003
 30
0.0
 10
3.7504300000000002
 20
7.6786500000000002
 30
0.0
 10
3.7504300000000002
 20
7.6786500000000002
 30
0.0
 10
3.7504300000000002
 20
7.6786500000000002
 30
0.0
 10
3.7504300000000002
 20
7.6786500000000002
 30
0.0
 10
3.9098700000000002
 20
8.0021599999999999
 30
0.0
 10
4.0787500000000003
 20
7.9857900000000006
 30
0.0
 10
4.0787500000000003
 20
7.9857900000000006
 30
0.0
 10
4.2475900000000006
 20
7.9694100000000008
 30
0.0
 10
4.1293899999999999
 20
7.6877100000000009
 30
0.0
 10
4.1293899999999999
 20
7.6877100000000009
 30
0.0
 10
4.1293899999999999
 20
7.6877100000000009
 30
0.0
 10
4.1293899999999999
 20
7.6877100000000009
 30
0.0
 10
4.3156700000000008
 20
7.9185300000000005
 30
0.0
 10
4.22403
 20
8.0234800000000011
 30
0.0
 10
4.22403
 20
8.0234800000000011
 30
0.0
 10
4.1323500000000006
 20
8.128400000000001
 30
0.0
 10
3.9032200000000001
 20
8.2633700000000001
 30
0.0
 10
3.3532100000000002
 20
7.2588500000000007
 30
0.0
 10
3.3532100000000002
 20
7.2588500000000007
 30
0.0
 10
2.8032700000000004
 20
6.2543100000000003
 30
0.0
 10
1.6422000000000001
 20
3.6155500000000003
 30
0.0
 10
1.6422000000000001
 20
3.6155500000000003
 30
0.0
  0
SPLINE
  5
29
100
AcDbEntity
  8
Ebene 1
 62
     1
100
AcDbSpline
210
0.0
220
0.0
230
1.0
 70
     1
 71
     3
 72
    36
 73
    32
 74
     0
 42
0.0000000001
 43
0.0000000001
 40
0.0
 40
0.0
 40
0.0
 40
0.0
 40
0.125
 40
0.125
 40
0.125
 40
0.125
 40
0.25
 40
0.25
 40
0.25
 40
0.25
 40
0.375
 40
0.375
 40
0.375
 40
0.375
 40
0.5
 40
0.5
 40
0.5
 40
0.5
 40
0.625
 40
0.625
 40
0.625
 40
0.625
 40
0.75
 40
0.75
 40
0.75
 40
0.75
 40
0.875
 40
0.875
 40
0.875
 40
0.875
 40
1.0
 40
1.0
 40
1.0
 40
1.0
 10
1.5348200000000001
 20
3.5867200000000001
 30
0.0
 10
1.5678700000000001
 20
3.5867200000000001
 30
0.0
 10
1.5975600000000001
 20
3.5711800000000005
 30
0.0
 10
1.6213600000000001
 20
3.5476500000000004
 30
0.0
 10
1.6213600000000001
 20
3.5476500000000004
 30
0.0
 10
1.6462700000000001
 20
3.5229900000000005
 30
0.0
 10
1.66883
 20
3.4902500000000001
 30
0.0
 10
1.6813400000000001
 20
3.4536300000000004
 30
0.0
 10
1.6813400000000001
 20
3.4536300000000004
 30
0.0
 10
1.69798
 20
3.4169800000000001
 30
0.0
 10
1.6976700000000002
 20
3.3826600000000004
 30
0.0
 10
1.6756500000000001
 20
3.3596200000000005
 30
0.0
 10
1.6756500000000001
 20
3.3596200000000005
 30
0.0
 10
1.6516400000000002
 20
3.3344700000000005
 30
0.0
 10
1.6025200000000002
 20
3.3205900000000002
 30
0.0
 10
1.5424200000000001
 20
3.3205900000000002
 30
0.0
 10
1.5424200000000001
 20
3.3205900000000002
 30
0.0
 10
1.4823700000000002
 20
3.3205900000000002
 30
0.0
 10
1.4315500000000001
 20
3.3343700000000003
 30
0.0
 10
1.4051100000000001
 20
3.3596200000000005
 30
0.0
 10
1.4051100000000001
 20
3.3596200000000005
 30
0.0
 10
1.3809600000000002
 20
3.3826300000000002
 30
0.0
 10
1.3780500000000002
 20
3.4169800000000001
 30
0.0
 10
1.3922300000000001
 20
3.4536300000000004
 30
0.0
 10
1.3922300000000001
 20
3.4536300000000004
 30
0.0
 10
1.4030100000000001
 20
3.4902500000000001
 30
0.0
 10
1.4243400000000002
 20
3.5230900000000003
 30
0.0
 10
1.4487300000000001
 20
3.5476500000000004
 30
0.0
 10
1.4487300000000001
 20
3.5476500000000004
 30
0.0
 10
1.4721700000000002
 20
3.5712500000000005
 30
0.0
 10
1.5018
 20
3.5867200000000001
 30
0.0
 10
1.5348200000000001
 20
3.5867200000000001
 30
0.0
  0
SPLINE
  5
2A
100
AcDbEntity
  8
Ebene 1
 62
     1
100
AcDbSpline
210
0.0
220
0.0
230
1.0
 70
     1
 71
     3
 72
    72
 73
    68
 74
     0
 42
0.0000000001
 43
0.0000000001
 40
0.0
 40
0.0
 40
0.0
 40
0.0
 40
0.0588235294117647
 40
0.0588235294117647
 40
0.0588235294117647
 40
0.0588235294117647
 40
0.1176470588235294
 40
0.1176470588235294
 40
0.1176470588235294
 40
0.1176470588235294
 40
0.1764705882352941
 40
0.1764705882352941
 40
0.1764705882352941
 40
0.1764705882352941
 40
0.2352941176470588
 40
0.2352941176470588
 40
0.2352941176470588
 40
0.2352941176470588
 40
0.2941176470588235
 40
0.2941176470588235
 40
0.2941176470588235
 40
0.2941176470588235
 40
0.3529411764705883
 40
0.3529411764705883
 40
0.3529411764705883
 40
0.3529411764705883
 40
0.411764705882353
 40
0.411764705882353
 40
0.411764705882353
 40
0.411764705882353
 40
0.4705882352941177
 40
0.4705882352941177
 40
0.4705882352941177
 40
0.4705882352941177
 40
0.5294117647058824
 40
0.5294117647058824
 40
0.5294117647058824
 40
0.5294117647058824
 40
0.5882352941176471
 40
0.5882352941176471
 40
0.5882352941176471
 40
0.5882352941176471
 40
0.6470588235294118
 40
0.6470588235294118
 40
0.6470588235294118
 40
0.6470588235294118
 40
0.7058823529411765
 40
0.7058823529411765
 40
0.7058823529411765
 40
0.7058823529411765
 40
0.7647058823529412
 40
0.7647058823529412
 40
0.7647058823529412
 40
0.7647058823529412
 40
0.823529411764706
 40
0.823529411764706
 40
0.823529411764706
 40
0.823529411764706
 40
0.8823529411764707
 40
0.8823529411764707
 40
0.8823529411764707
 40
0.8823529411764707
 40
0.9411764705882354
 40
0.9411764705882354
 40
0.9411764705882354
 40
0.9411764705882354
 40
1.0
 40
1.0
 40
1.0
 40
1.0
 10
2.0116900000000002
 20
3.3165900000000001
 30
0.0
 10
2.0116900000000002
 20
3.3165900000000001
 30
0.0
 10
3.3146200000000001
 20
3.8474100000000004
 30
0.0
 10
3.4754800000000001
 20
5.3112100000000009
 30
0.0
 10
3.4754800000000001
 20
5.3112100000000009
 30
0.0
 10
3.6363300000000005
 20
6.7750000000000004
 30
0.0
 10
4.3763000000000005
 20
7.5953600000000003
 30
0.0
 10
5.3414100000000007
 20
8.1262000000000008
 30
0.0
 10
5.3414100000000007
 20
8.1262000000000008
 30
0.0
 10
6.3065500000000005
 20
8.657020000000001
 30
0.0
 10
6.7115600000000004
 20
8.8041300000000007
 30
0.0
 10
6.7115600000000004
 20
8.8041300000000007
 30
0.0
 10
6.7115600000000004
 20
8.8041300000000007
 30
0.0
 10
6.811160000000001
 20
8.8519300000000012
 30
0.0
 10
5.3905000000000003
 20
8.0224900000000012
 30
0.0
 10
5.28742
 20
7.9481600000000006
 30
0.0
 10
5.28742
 20
7.9481600000000006
 30
0.0
 10
5.1456600000000003
 20
7.8459400000000006
 30
0.0
 10
5.0804800000000006
 20
7.730150000000001
 30
0.0
 10
5.0358000000000001
 20
7.6275400000000007
 30
0.0
 10
5.0358000000000001
 20
7.6275400000000007
 30
0.0
 10
4.8133800000000004
 20
7.1166200000000002
 30
0.0
 10
5.3403100000000006
 20
6.6880600000000001
 30
0.0
 10
6.1939600000000006
 20
7.7401400000000002
 30
0.0
 10
6.1939600000000006
 20
7.7401400000000002
 30
0.0
 10
7.0476300000000007
 20
8.7922200000000004
 30
0.0
 10
6.8887400000000003
 20
8.5955400000000015
 30
0.0
 10
7.1197000000000008
 20
8.8507600000000011
 30
0.0
 10
7.1197000000000008
 20
8.8507600000000011
 30
0.0
 10
7.1121200000000009
 20
8.8210100000000011
 30
0.0
 10
7.0650600000000008
 20
8.5948900000000013
 30
0.0
 10
6.9606700000000004
 20
8.4321200000000012
 30
0.0
 10
6.9606700000000004
 20
8.4321200000000012
 30
0.0
 10
6.6009400000000005
 20
7.8711800000000007
 30
0.0
 10
5.7531000000000008
 20
6.6598800000000002
 30
0.0
 10
5.1952000000000007
 20
6.1600800000000007
 30
0.0
 10
5.1952000000000007
 20
6.1600800000000007
 30
0.0
 10
4.6373000000000006
 20
5.6602900000000007
 30
0.0
 10
4.1350100000000003
 20
4.98949
 30
0.0
 10
4.0384800000000007
 20
4.6516800000000007
 30
0.0
 10
4.0384800000000007
 20
4.6516800000000007
 30
0.0
 10
3.9419800000000005
 20
4.3138700000000005
 30
0.0
 10
3.9902100000000003
 20
5.0216700000000003
 30
0.0
 10
4.3923500000000004
 20
5.7294300000000007
 30
0.0
 10
4.3923500000000004
 20
5.7294300000000007
 30
0.0
 10
4.7945000000000002
 20
6.4372100000000003
 30
0.0
 10
4.76973
 20
6.8232600000000003
 30
0.0
 10
4.5693300000000008
 20
6.8715100000000007
 30
0.0
 10
4.5693300000000008
 20
6.8715100000000007
 30
0.0
 10
4.3688900000000004
 20
6.9197600000000001
 30
0.0
 10
3.9481800000000002
 20
6.4693700000000005
 30
0.0
 10
3.7328600000000005
 20
5.4881500000000001
 30
0.0
 10
3.7328600000000005
 20
5.4881500000000001
 30
0.0
 10
3.5175400000000003
 20
4.5069400000000002
 30
0.0
 10
3.7328600000000005
 20
3.7669700000000002
 30
0.0
 10
4.2154100000000003
 20
4.2495600000000007
 30
0.0
 10
4.2154100000000003
 20
4.2495600000000007
 30
0.0
 10
4.6980000000000004
 20
4.7321300000000006
 30
0.0
 10
4.4827200000000005
 20
4.0478800000000001
 30
0.0
 10
3.9244700000000003
 20
3.6716700000000002
 30
0.0
 10
3.9244700000000003
 20
3.6716700000000002
 30
0.0
 10
3.3662000000000001
 20
3.2954400000000001
 30
0.0
 10
3.0627900000000001
 20
3.2468900000000001
 30
0.0
 10
2.6015900000000003
 20
3.2104800000000004
 30
0.0
 10
2.6015900000000003
 20
3.2104800000000004
 30
0.0
 10
2.1857000000000002
 20
3.1559400000000002
 30
0.0
 10
2.02678
 20
3.3105300000000004
 30
0.0
 10
2.0116900000000002
 20
3.3165900000000001
 30
0.0
  0
SPLINE
  5
2B
100
AcDbEntity
  8
Ebene 1
 62
     1
100
AcDbSpline
210
0.0
220
0.0
230
1.0
 70
     1
 71
     3
 72
   180
 73
   176
 74
     0
 42
0.0000000001
 43
0.0000000001
 40
0.0
 40
0.0
 40
0.0
 40
0.0
 40
0.0227272727272727
 40
0.0227272727272727
 40
0.0227272727272727
 40
0.0227272727272727
 40
0.0454545454545455
 40
0.0454545454545455
 40
0.0454545454545455
 40
0.0454545454545455
 40
0.0681818181818182
 40
0.0681818181818182
 40
0.0681818181818182
 40
0.0681818181818182
 40
0.0909090909090909
 40
0.0909090909090909
 40
0.0909090909090909
 40
0.0909090909090909
 40
0.1136363636363637
 40
0.1136363636363637
 40
0.1136363636363637
 40
0.1136363636363637
 40
0.1363636363636364
 40
0.1363636363636364
 40
0.1363636363636364
 40
0.1363636363636364
 40
0.1590909090909091
 40
0.1590909090909091
 40
0.1590909090909091
 40
0.1590909090909091
 40
0.1818181818181819
 40
0.1818181818181819
 40
0.1818181818181819
 40
0.1818181818181819
 40
0.2045454545454546
 40
0.2045454545454546
 40
0.2045454545454546
 40
0.2045454545454546
 40
0.2272727272727273
 40
0.2272727272727273
 40
0.2272727272727273
 40
0.2272727272727273
 40
0.2500000000000001
 40
0.2500000000000001
 40
0.2500000000000001
 40
0.2500000000000001
 40
0.2727272727272728
 40
0.2727272727272728
 40
0.2727272727272728
 40
0.2727272727272728
 40
0.2954545454545455
 40
0.2954545454545455
 40
0.2954545454545455
 40
0.2954545454545455
 40
0.3181818181818182
 40
0.3181818181818182
 40
0.3181818181818182
 40
0.3181818181818182
 40
0.3409090909090909
 40
0.3409090909090909
 40
0.3409090909090909
 40
0.3409090909090909
 40
0.3636363636363636
 40
0.3636363636363636
 40
0.3636363636363636
 40
0.3636363636363636
 40
0.3863636363636363
 40
0.3863636363636363
 40
0.3863636363636363
 40
0.3863636363636363
 40
0.409090909090909
 40
0.409090909090909
 40
0.409090909090909
 40
0.409090909090909
 40
0.4318181818181817
 40
0.4318181818181817
 40
0.4318181818181817
 40
0.4318181818181817
 40
0.4545454545454544
 40
0.4545454545454544
 40
0.4545454545454544
 40
0.4545454545454544
 40
0.4772727272727271
 40
0.4772727272727271
 40
0.4772727272727271
 40
0.4772727272727271
 40
0.4999999999999998
 40
0.4999999999999998
 40
0.4999999999999998
 40
0.4999999999999998
 40
0.5227272727272726
 40
0.5227272727272726
 40
0.5227272727272726
 40
0.5227272727272726
 40
0.5454545454545453
 40
0.5454545454545453
 40
0.5454545454545453
 40
0.5454545454545453
 40
0.568181818181818
 40
0.568181818181818
 40
0.568181818181818
 40
0.568181818181818
 40
0.5909090909090907
 40
0.5909090909090907
 40
0.5909090909090907
 40
0.5909090909090907
 40
0.6136363636363634
 40
0.6136363636363634
 40
0.6136363636363634
 40
0.6136363636363634
 40
0.6363636363636361
 40
0.6363636363636361
 40
0.6363636363636361
 40
0.6363636363636361
 40
0.6590909090909088
 40
0.6590909090909088
 40
0.6590909090909088
 40
0.6590909090909088
 40
0.6818181818181816
 40
0.6818181818181816
 40
0.6818181818181816
 40
0.6818181818181816
 40
0.7045454545454543
 40
0.7045454545454543
 40
0.7045454545454543
 40
0.7045454545454543
 40
0.727272727272727
 40
0.727272727272727
 40
0.727272727272727
 40
0.727272727272727
 40
0.7499999999999997
 40
0.7499999999999997
 40
0.7499999999999997
 40
0.7499999999999997
 40
0.7727272727272724
 40
0.7727272727272724
 40
0.7727272727272724
 40
0.7727272727272724
 40
0.7954545454545451
 40
0.7954545454545451
 40
0.7954545454545451
 40
0.7954545454545451
 40
0.8181818181818178
 40
0.8181818181818178
 40
0.8181818181818178
 40
0.8181818181818178
 40
0.8409090909090905
 40
0.8409090909090905
 40
0.8409090909090905
 40
0.8409090909090905
 40
0.8636363636363632
 40
0.8636363636363632
 40
0.8636363636363632
 40
0.8636363636363632
 40
0.8863636363636359
 40
0.8863636363636359
 40
0.8863636363636359
 40
0.8863636363636359
 40
0.9090909090909086
 40
0.9090909090909086
 40
0.9090909090909086
 40
0.9090909090909086
 40
0.9318181818181813
 40
0.9318181818181813
 40
0.9318181818181813
 40
0.9318181818181813
 40
0.954545454545454
 40
0.954545454545454
 40
0.954545454545454
 40
0.954545454545454
 40
0.9772727272727267
 40
0.9772727272727267
 40
0.9772727272727267
 40
0.9772727272727267
 40
1.0
 40
1.0
 40
1.0
 40
1.0
 10
3.5846500000000003
 20
2.8221100000000003
 30
0.0
 10
4.3128400000000005
 20
2.8828200000000002
 30
0.0
 10
4.6647600000000002
 20
2.9920300000000002
 30
0.0
 10
4.6647600000000002
 20
2.9920300000000002
 30
0.0
 10
4.6647600000000002
 20
2.9920300000000002
 30
0.0
 10
4.6647600000000002
 20
2.9920300000000002
 30
0.0
 10
4.4463400000000002
 20
2.8342800000000001
 30
0.0
 10
4.0579700000000001
 20
2.7371600000000003
 30
0.0
 10
4.0579700000000001
 20
2.7371600000000003
 30
0.0
 10
3.6696100000000005
 20
2.6400700000000001
 30
0.0
 10
3.9851400000000003
 20
2.3730800000000003
 30
0.0
 10
4.5312600000000005
 20
2.56725
 30
0.0
 10
4.5312600000000005
 20
2.56725
 30
0.0
 10
5.0774100000000004
 20
2.7614400000000003
 30
0.0
 10
5.7929900000000005
 20
2.7683400000000002
 30
0.0
 10
6.0964000000000009
 20
2.6955400000000003
 30
0.0
 10
6.0964000000000009
 20
2.6955400000000003
 30
0.0
 10
6.3998100000000004
 20
2.6227100000000001
 30
0.0
 10
6.4730900000000009
 20
2.5793700000000004
 30
0.0
 10
6.4730900000000009
 20
2.5793700000000004
 30
0.0
 10
6.4730900000000009
 20
2.5793700000000004
 30
0.0
 10
6.4730900000000009
 20
2.5793700000000004
 30
0.0
 10
5.3565300000000002
 20
2.7492800000000002
 30
0.0
 10
5.1380800000000004
 20
2.4095
 30
0.0
 10
5.1380800000000004
 20
2.4095
 30
0.0
 10
4.9196600000000004
 20
2.0696700000000003
 30
0.0
 10
5.4051100000000005
 20
2.1910400000000001
 30
0.0
 10
5.8056000000000001
 20
2.2517100000000001
 30
0.0
 10
5.8056000000000001
 20
2.2517100000000001
 30
0.0
 10
6.2060900000000006
 20
2.3124100000000003
 30
0.0
 10
6.4428400000000003
 20
2.3102400000000003
 30
0.0
 10
6.7643700000000004
 20
2.2031700000000001
 30
0.0
 10
6.7643700000000004
 20
2.2031700000000001
 30
0.0
 10
7.0859000000000005
 20
2.0960900000000002
 30
0.0
 10
7.3590300000000006
 20
1.8148000000000002
 30
0.0
 10
7.3590300000000006
 20
1.8148000000000002
 30
0.0
 10
7.3590300000000006
 20
1.8148000000000002
 30
0.0
 10
7.3590300000000006
 20
1.8148000000000002
 30
0.0
 10
6.1858000000000004
 20
2.5288700000000004
 30
0.0
 10
5.8235500000000009
 20
1.9599800000000001
 30
0.0
 10
5.8235500000000009
 20
1.9599800000000001
 30
0.0
 10
5.4613000000000005
 20
1.3910900000000002
 30
0.0
 10
6.7643700000000004
 20
1.7177200000000001
 30
0.0
 10
6.7643700000000004
 20
1.7177200000000001
 30
0.0
 10
6.7643700000000004
 20
1.7177200000000001
 30
0.0
 10
6.7643700000000004
 20
1.7177200000000001
 30
0.0
 10
6.3031800000000002
 20
1.39002
 30
0.0
 10
5.7813100000000004
 20
1.5235200000000002
 30
0.0
 10
5.7813100000000004
 20
1.5235200000000002
 30
0.0
 10
5.2594500000000002
 20
1.6570200000000002
 30
0.0
 10
4.6890499999999999
 20
2.1788800000000004
 30
0.0
 10
4.4341800000000005
 20
1.9725500000000002
 30
0.0
 10
4.4341800000000005
 20
1.9725500000000002
 30
0.0
 10
4.1793100000000001
 20
1.7662600000000002
 30
0.0
 10
5.1502400000000002
 20
1.5721000000000001
 30
0.0
 10
5.1502400000000002
 20
1.5721000000000001
 30
0.0
 10
5.1502400000000002
 20
1.5721000000000001
 30
0.0
 10
5.1502400000000002
 20
1.5721000000000001
 30
0.0
 10
4.4220500000000005
 20
1.3779000000000001
 30
0.0
 10
3.9608600000000003
 20
1.8148000000000002
 30
0.0
 10
3.9608600000000003
 20
1.8148000000000002
 30
0.0
 10
3.4997000000000003
 20
2.2517100000000001
 30
0.0
 10
3.0627900000000001
 20
2.3609500000000003
 30
0.0
 10
2.8200500000000002
 20
2.1788800000000004
 30
0.0
 10
2.8200500000000002
 20
2.1788800000000004
 30
0.0
 10
2.5773400000000004
 20
1.9968400000000002
 30
0.0
 10
2.4711600000000002
 20
1.4806600000000001
 30
0.0
 10
3.0051500000000004
 20
1.3228800000000001
 30
0.0
 10
3.0051500000000004
 20
1.3228800000000001
 30
0.0
 10
3.5391700000000004
 20
1.1651200000000002
 30
0.0
 10
3.8152300000000001
 20
1.2444000000000002
 30
0.0
 10
3.8152300000000001
 20
1.2444000000000002
 30
0.0
 10
3.8152300000000001
 20
1.2444000000000002
 30
0.0
 10
3.8152300000000001
 20
1.2444000000000002
 30
0.0
 10
3.6453200000000003
 20
1.0866100000000001
 30
0.0
 10
3.2690800000000002
 20
1.1230300000000002
 30
0.0
 10
3.2690800000000002
 20
1.1230300000000002
 30
0.0
 10
2.8928800000000003
 20
1.15944
 30
0.0
 10
2.2253600000000002
 20
1.2444000000000002
 30
0.0
 10
2.6015900000000003
 20
0.81962
 30
0.0
 10
2.6015900000000003
 20
0.81962
 30
0.0
 10
2.9778300000000004
 20
0.39484
 30
0.0
 10
3.4268600000000005
 20
0.5040800000000001
 30
0.0
 10
3.2690800000000002
 20
0.4555400000000001
 30
0.0
 10
3.2690800000000002
 20
0.4555400000000001
 30
0.0
 10
3.1113300000000002
 20
0.40696
 30
0.0
 10
2.8928800000000003
 20
0.40696
 30
0.0
 10
2.6501400000000004
 20
0.58904
 30
0.0
 10
2.6501400000000004
 20
0.58904
 30
0.0
 10
2.4074300000000002
 20
0.7710800000000001
 30
0.0
 10
2.2496400000000003
 20
0.8802800000000001
 30
0.0
 10
2.28606
 20
0.69825
 30
0.0
 10
2.28606
 20
0.69825
 30
0.0
 10
2.32247
 20
0.5162100000000001
 30
0.0
 10
2.5409300000000004
 20
0.3584600000000001
 30
0.0
 10
2.4559700000000002
 20
0.12784
 30
0.0
 10
2.4559700000000002
 20
0.12784
 30
0.0
 10
2.3710100000000001
 20
-0.10273
 30
0.0
 10
2.3103100000000003
 20
-0.28477
 30
0.0
 10
2.3588900000000002
 20
-0.45468
 30
0.0
 10
2.3588900000000002
 20
-0.45468
 30
0.0
 10
2.4074300000000002
 20
-0.6245900000000001
 30
0.0
 10
2.6015900000000003
 20
-0.7338400000000001
 30
0.0
 10
2.6015900000000003
 20
-0.7338400000000001
 30
0.0
 10
2.6015900000000003
 20
-0.7338400000000001
 30
0.0
 10
2.6015900000000003
 20
-0.7338400000000001
 30
0.0
 10
2.1404000000000001
 20
-0.6245900000000001
 30
0.0
 10
2.2375200000000004
 20
-0.26051
 30
0.0
 10
2.2375200000000004
 20
-0.26051
 30
0.0
 10
2.3346
 20
0.10359
 30
0.0
 10
2.3710100000000001
 20
0.33417
 30
0.0
 10
2.2011000000000003
 20
0.2734700000000001
 30
0.0
 10
2.2011000000000003
 20
0.2734700000000001
 30
0.0
 10
1.9689700000000001
 20
0.19058
 30
0.0
 10
2.1075700000000004
 20
-0.6752300000000001
 30
0.0
 10
2.1525600000000003
 20
-0.85521
 30
0.0
 10
2.1525600000000003
 20
-0.85521
 30
0.0
 10
2.2253600000000002
 20
-1.1464500000000002
 30
0.0
 10
2.1282700000000001
 20
-1.4134500000000001
 30
0.0
 10
1.9583600000000001
 20
-1.54695
 30
0.0
 10
1.9583600000000001
 20
-1.54695
 30
0.0
 10
1.7884500000000001
 20
-1.6804800000000002
 30
0.0
 10
1.6428200000000002
 20
-1.7775600000000003
 30
0.0
 10
1.6428200000000002
 20
-1.7775600000000003
 30
0.0
 10
1.6428200000000002
 20
-1.7775600000000003
 30
0.0
 10
2.4370500000000002
 20
-1.1918300000000002
 30
0.0
 10
1.8491500000000001
 20
-0.6993100000000001
 30
0.0
 10
1.8491500000000001
 20
-1.0979100000000002
 30
0.0
 10
1.8491500000000001
 20
-1.0979100000000002
 30
0.0
 10
1.8491500000000001
 20
-1.2435400000000001
 30
0.0
 10
1.8491500000000001
 20
-1.3042400000000001
 30
0.0
 10
1.8491500000000001
 20
-1.3042400000000001
 30
0.0
 10
1.8491500000000001
 20
-1.3042400000000001
 30
0.0
 10
1.8491500000000001
 20
-1.3042400000000001
 30
0.0
 10
1.6792400000000001
 20
-1.08579
 30
0.0
 10
1.8491500000000001
 20
-0.7338400000000001
 30
0.0
 10
1.8491500000000001
 20
-0.7338400000000001
 30
0.0
 10
2.0190600000000001
 20
-0.3818800000000001
 30
0.0
 10
2.0190600000000001
 20
0.01863
 30
0.0
 10
1.86128
 20
0.05501
 30
0.0
 10
1.86128
 20
0.05501
 30
0.0
 10
1.7034900000000002
 20
0.09143
 30
0.0
 10
1.7399100000000001
 20
-0.39401
 30
0.0
 10
1.7399100000000001
 20
-0.39401
 30
0.0
 10
1.7399100000000001
 20
-0.39401
 30
0.0
 10
1.7399100000000001
 20
-0.39401
 30
0.0
 10
1.48506
 20
-0.10273
 30
0.0
 10
1.8127400000000002
 20
0.4797900000000001
 30
0.0
 10
1.8127400000000002
 20
0.4797900000000001
 30
0.0
 10
2.1404000000000001
 20
1.0623600000000002
 30
0.0
 10
2.4195500000000001
 20
1.5356500000000002
 30
0.0
 10
2.2253600000000002
 20
1.8269300000000002
 30
0.0
 10
2.2253600000000002
 20
1.8269300000000002
 30
0.0
 10
2.0311900000000001
 20
2.1182100000000004
 30
0.0
 10
1.8855600000000001
 20
1.8997600000000001
 30
0.0
 10
1.9219800000000002
 20
1.6691800000000001
 30
0.0
 10
1.9219800000000002
 20
1.6691800000000001
 30
0.0
 10
1.9583600000000001
 20
1.4385600000000001
 30
0.0
 10
2.04332
 20
1.3536100000000002
 30
0.0
 10
2.04332
 20
1.3536100000000002
 30
0.0
 10
2.04332
 20
1.3536100000000002
 30
0.0
 10
2.04332
 20
1.3536100000000002
 30
0.0
 10
1.6913600000000002
 20
1.4871100000000002
 30
0.0
 10
1.8369900000000001
 20
2.10609
 30
0.0
 10
1.8369900000000001
 20
2.10609
 30
0.0
 10
1.9826500000000002
 20
2.7250300000000003
 30
0.0
 10
1.8976900000000001
 20
3.0163200000000003
 30
0.0
 10
1.8976900000000001
 20
3.0163200000000003
 30
0.0
 10
1.8976900000000001
 20
3.0163200000000003
 30
0.0
 10
1.8976900000000001
 20
3.0163200000000003
 30
0.0
 10
1.8491500000000001
 20
3.2226100000000004
 30
0.0
 10
1.9826500000000002
 20
3.1740600000000003
 30
0.0
 10
1.9826500000000002
 20
3.1740600000000003
 30
0.0
 10
2.40002
 20
2.90456
 30
0.0
 10
2.8446100000000003
 20
2.7604500000000001
 30
0.0
 10
3.5846500000000003
 20
2.8221100000000003
 30
0.0
  0
SPLINE
  5
2C
100
AcDbEntity
  8
Ebene 1
 62
     1
100
AcDbSpline
210
0.0
220
0.0
230
1.0
 70
     1
 71
     3
 72
   128
 73
   124
 74
     0
 42
0.0000000001
 43
0.0000000001
 40
0.0
 40
0.0
 40
0.0
 40
0.0
 40
0.032258064516129
 40
0.032258064516129
 40
0.032258064516129
 40
0.032258064516129
 40
0.0645161290322581
 40
0.0645161290322581
 40
0.0645161290322581
 40
0.0645161290322581
 40
0.0967741935483871
 40
0.0967741935483871
 40
0.0967741935483871
 40
0.0967741935483871
 40
0.1290322580645161
 40
0.1290322580645161
 40
0.1290322580645161
 40
0.1290322580645161
 40
0.1612903225806452
 40
0.1612903225806452
 40
0.1612903225806452
 40
0.1612903225806452
 40
0.1935483870967742
 40
0.1935483870967742
 40
0.1935483870967742
 40
0.1935483870967742
 40
0.2258064516129032
 40
0.2258064516129032
 40
0.2258064516129032
 40
0.2258064516129032
 40
0.2580645161290323
 40
0.2580645161290323
 40
0.2580645161290323
 40
0.2580645161290323
 40
0.2903225806451613
 40
0.2903225806451613
 40
0.2903225806451613
 40
0.2903225806451613
 40
0.3225806451612903
 40
0.3225806451612903
 40
0.3225806451612903
 40
0.3225806451612903
 40
0.3548387096774193
 40
0.3548387096774193
 40
0.3548387096774193
 40
0.3548387096774193
 40
0.3870967741935483
 40
0.3870967741935483
 40
0.3870967741935483
 40
0.3870967741935483
 40
0.4193548387096773
 40
0.4193548387096773
 40
0.4193548387096773
 40
0.4193548387096773
 40
0.4516129032258063
 40
0.4516129032258063
 40
0.4516129032258063
 40
0.4516129032258063
 40
0.4838709677419353
 40
0.4838709677419353
 40
0.4838709677419353
 40
0.4838709677419353
 40
0.5161290322580643
 40
0.5161290322580643
 40
0.5161290322580643
 40
0.5161290322580643
 40
0.5483870967741933
 40
0.5483870967741933
 40
0.5483870967741933
 40
0.5483870967741933
 40
0.5806451612903223
 40
0.5806451612903223
 40
0.5806451612903223
 40
0.5806451612903223
 40
0.6129032258064513
 40
0.6129032258064513
 40
0.6129032258064513
 40
0.6129032258064513
 40
0.6451612903225803
 40
0.6451612903225803
 40
0.6451612903225803
 40
0.6451612903225803
 40
0.6774193548387093
 40
0.6774193548387093
 40
0.6774193548387093
 40
0.6774193548387093
 40
0.7096774193548383
 40
0.7096774193548383
 40
0.7096774193548383
 40
0.7096774193548383
 40
0.7419354838709673
 40
0.7419354838709673
 40
0.7419354838709673
 40
0.7419354838709673
 40
0.7741935483870963
 40
0.7741935483870963
 40
0.7741935483870963
 40
0.7741935483870963
 40
0.8064516129032253
 40
0.8064516129032253
 40
0.8064516129032253
 40
0.8064516129032253
 40
0.8387096774193543
 40
0.8387096774193543
 40
0.8387096774193543
 40
0.8387096774193543
 40
0.8709677419354833
 40
0.8709677419354833
 40
0.8709677419354833
 40
0.8709677419354833
 40
0.9032258064516123
 40
0.9032258064516123
 40
0.9032258064516123
 40
0.9032258064516123
 40
0.9354838709677413
 40
0.9354838709677413
 40
0.9354838709677413
 40
0.9354838709677413
 40
0.9677419354838703
 40
0.9677419354838703
 40
0.9677419354838703
 40
0.9677419354838703
 40
1.0
 40
1.0
 40
1.0
 40
1.0
 10
3.9487300000000003
 20
3.4168100000000003
 30
0.0
 10
3.9487300000000003
 20
3.4168100000000003
 30
0.0
 10
4.5191300000000005
 20
3.8658400000000004
 30
0.0
 10
4.774
 20
4.3755800000000002
 30
0.0
 10
4.774
 20
4.3755800000000002
 30
0.0
 10
5.0288700000000004
 20
4.8853
 30
0.0
 10
4.9803300000000004
 20
5.1401600000000007
 30
0.0
 10
4.82254
 20
5.0794800000000002
 30
0.0
 10
4.82254
 20
5.0794800000000002
 30
0.0
 10
4.6647600000000002
 20
5.0187900000000001
 30
0.0
 10
4.4584600000000005
 20
4.7275300000000007
 30
0.0
 10
4.4584600000000005
 20
4.7275300000000007
 30
0.0
 10
4.4584600000000005
 20
4.7275300000000007
 30
0.0
 10
4.4584600000000005
 20
4.7275300000000007
 30
0.0
 10
4.4341800000000005
 20
5.2129900000000005
 30
0.0
 10
5.0288700000000004
 20
5.6013400000000004
 30
0.0
 10
5.0288700000000004
 20
5.6013400000000004
 30
0.0
 10
5.6235600000000003
 20
5.9897100000000005
 30
0.0
 10
6.1696800000000005
 20
6.4144900000000007
 30
0.0
 10
6.3395900000000003
 20
6.7179000000000002
 30
0.0
 10
6.3395900000000003
 20
6.7179000000000002
 30
0.0
 10
6.509500000000001
 20
7.0213100000000006
 30
0.0
 10
6.6430000000000007
 20
7.5553000000000008
 30
0.0
 10
6.6430000000000007
 20
7.5553000000000008
 30
0.0
 10
6.6430000000000007
 20
7.5553000000000008
 30
0.0
 10
6.6430000000000007
 20
7.5553000000000008
 30
0.0
 10
6.6672900000000004
 20
6.8028500000000003
 30
0.0
 10
6.3638800000000009
 20
6.3902200000000002
 30
0.0
 10
6.3638800000000009
 20
6.3902200000000002
 30
0.0
 10
6.0604700000000005
 20
5.9775600000000004
 30
0.0
 10
5.7813100000000004
 20
5.7955200000000007
 30
0.0
 10
5.7934400000000004
 20
5.4071800000000003
 30
0.0
 10
5.7934400000000004
 20
5.4071800000000003
 30
0.0
 10
5.8056000000000001
 20
5.0187900000000001
 30
0.0
 10
6.5580500000000006
 20
5.7469800000000006
 30
0.0
 10
6.8493300000000001
 20
6.4873000000000003
 30
0.0
 10
6.8493300000000001
 20
6.4873000000000003
 30
0.0
 10
7.1406100000000006
 20
7.2276100000000003
 30
0.0
 10
6.9949500000000002
 20
8.1135700000000011
 30
0.0
 10
7.2862400000000003
 20
9.0966100000000001
 30
0.0
 10
7.2862400000000003
 20
9.0966100000000001
 30
0.0
 10
7.5775200000000007
 20
10.07967
 30
0.0
 10
7.9194100000000009
 20
10.25511
 30
0.0
 10
8.2545500000000001
 20
10.388300000000001
 30
0.0
 10
8.2545500000000001
 20
10.388300000000001
 30
0.0
 10
8.58962
 20
10.521470000000001
 30
0.0
 10
8.7801000000000009
 20
10.465260000000001
 30
0.0
 10
8.79115
 20
10.46804
 30
0.0
 10
8.79115
 20
10.46804
 30
0.0
 10
8.8021799999999999
 20
10.470800000000001
 30
0.0
 10
8.0872200000000003
 20
10.38306
 30
0.0
 10
7.7959700000000005
 20
9.94618
 30
0.0
 10
7.7959700000000005
 20
9.94618
 30
0.0
 10
7.504690000000001
 20
9.5092500000000015
 30
0.0
 10
6.9707000000000008
 20
8.077160000000001
 30
0.0
 10
7.6381800000000002
 20
8.1014499999999998
 30
0.0
 10
7.6381800000000002
 20
8.1014499999999998
 30
0.0
 10
8.305670000000001
 20
8.1257000000000001
 30
0.0
 10
8.3663699999999999
 20
8.96312
 30
0.0
 10
8.3663699999999999
 20
8.96312
 30
0.0
 10
8.3663699999999999
 20
8.96312
 30
0.0
 10
8.3663699999999999
 20
8.96312
 30
0.0
 10
8.49953
 20
8.5142500000000005
 30
0.0
 10
8.0629600000000003
 20
8.0407600000000006
 30
0.0
 10
8.0629600000000003
 20
8.0407600000000006
 30
0.0
 10
7.6263700000000005
 20
7.5672500000000005
 30
0.0
 10
7.3757400000000004
 20
7.5287500000000005
 30
0.0
 10
7.1648600000000009
 20
6.6814800000000005
 30
0.0
 10
7.1648600000000009
 20
6.6814800000000005
 30
0.0
 10
6.953990000000001
 20
5.8342100000000006
 30
0.0
 10
7.6381800000000002
 20
6.3212500000000009
 30
0.0
 10
7.8566400000000005
 20
6.657210000000001
 30
0.0
 10
7.8566400000000005
 20
6.657210000000001
 30
0.0
 10
8.0750900000000012
 20
6.9931800000000006
 30
0.0
 10
7.9566800000000004
 20
7.4100200000000003
 30
0.0
 10
7.9780100000000003
 20
7.4460900000000008
 30
0.0
 10
7.9780100000000003
 20
7.4460900000000008
 30
0.0
 10
8.5875500000000002
 20
6.4008800000000008
 30
0.0
 10
6.7039400000000002
 20
5.48414
 30
0.0
 10
6.5168800000000005
 20
5.3486400000000005
 30
0.0
 10
6.5168800000000005
 20
5.3486400000000005
 30
0.0
 10
5.8036000000000003
 20
4.83195
 30
0.0
 10
6.2105400000000008
 20
4.4467000000000008
 30
0.0
 10
6.4973700000000001
 20
4.5333400000000008
 30
0.0
 10
6.4973700000000001
 20
4.5333400000000008
 30
0.0
 10
6.784180000000001
 20
4.6199900000000005
 30
0.0
 10
6.9533300000000002
 20
4.7422700000000004
 30
0.0
 10
7.2203300000000006
 20
5.0699500000000004
 30
0.0
 10
7.2203300000000006
 20
5.0699500000000004
 30
0.0
 10
7.4873300000000009
 20
5.3976300000000004
 30
0.0
 10
7.5696600000000007
 20
5.7691000000000008
 30
0.0
 10
7.613900000000001
 20
5.8805000000000005
 30
0.0
 10
7.613900000000001
 20
5.8805000000000005
 30
0.0
 10
7.639120000000001
 20
5.8442200000000009
 30
0.0
 10
7.541100000000001
 20
5.2736800000000006
 30
0.0
 10
7.0799100000000008
 20
4.6547100000000006
 30
0.0
 10
7.0799100000000008
 20
4.6547100000000006
 30
0.0
 10
6.6187500000000004
 20
4.0357500000000002
 30
0.0
 10
6.0361800000000008
 20
3.6473900000000001
 30
0.0
 10
5.5507300000000006
 20
3.3439800000000002
 30
0.0
 10
5.5507300000000006
 20
3.3439800000000002
 30
0.0
 10
5.0652800000000004
 20
3.0405700000000002
 30
0.0
 10
4.8710800000000001
 20
3.0284400000000002
 30
0.0
 10
4.8710800000000001
 20
3.0284400000000002
 30
0.0
 10
4.8710800000000001
 20
3.0284400000000002
 30
0.0
 10
4.8710800000000001
 20
3.0284400000000002
 30
0.0
 10
5.9148100000000001
 20
3.6716700000000002
 30
0.0
 10
5.9755100000000008
 20
4.0721700000000007
 30
0.0
 10
5.9755100000000008
 20
4.0721700000000007
 30
0.0
 10
6.0361800000000008
 20
4.4726800000000004
 30
0.0
 10
5.6842300000000003
 20
4.5818900000000005
 30
0.0
 10
5.3686900000000009
 20
4.0964499999999999
 30
0.0
 10
5.3686900000000009
 20
4.0964499999999999
 30
0.0
 10
5.0531600000000001
 20
3.6109700000000005
 30
0.0
 10
4.3006800000000007
 20
3.1255200000000003
 30
0.0
 10
3.6574500000000003
 20
3.0405700000000002
 30
0.0
 10
3.6574500000000003
 20
3.0405700000000002
 30
0.0
 10
3.0142500000000001
 20
2.9556100000000001
 30
0.0
 10
2.8564600000000002
 20
3.0405700000000002
 30
0.0
 10
2.8564600000000002
 20
3.0405700000000002
 30
0.0
 10
2.8564600000000002
 20
3.0405700000000002
 30
0.0
 10
3.2583000000000002
 20
3.0405700000000002
 30
0.0
 10
3.6423600000000005
 20
3.1487400000000001
 30
0.0
 10
3.9487300000000003
 20
3.4168100000000003
 30
0.0
  0
SPLINE
  5
2D
100
AcDbEntity
  8
Ebene 1
 62
     1
100
AcDbSpline
210
0.0
220
0.0
230
1.0
 70
     1
 71
     3
 72
    16
 73
    12
 74
     0
 42
0.0000000001
 43
0.0000000001
 40
0.0
 40
0.0
 40
0.0
 40
0.0
 40
0.3333333333333333
 40
0.3333333333333333
 40
0.3333333333333333
 40
0.3333333333333333
 40
0.6666666666666666
 40
0.6666666666666666
 40
0.6666666666666666
 40
0.6666666666666666
 40
1.0
 40
1.0
 40
1.0
 40
1.0
 10
7.5757600000000007
 20
9.26844
 30
0.0
 10
8.4225300000000001
 20
9.7933700000000012
 30
0.0
 10
8.9642400000000002
 20
9.8175500000000007
 30
0.0
 10
8.9124600000000012
 20
9.7830200000000005
 30
0.0
 10
8.9124600000000012
 20
9.7830200000000005
 30
0.0
 10
8.8606400000000001
 20
9.7484900000000003
 30
0.0
 10
8.162700000000001
 20
9.6525300000000005
 30
0.0
 10
7.4916700000000009
 20
9.0454000000000008
 30
0.0
 10
7.4916700000000009
 20
9.0454000000000008
 30
0.0
 10
7.5165400000000009
 20
9.1371600000000015
 30
0.0
 10
7.5474100000000002
 20
9.1993800000000014
 30
0.0
 10
7.5757600000000007
 20
9.26844
 30
0.0
  0
SPLINE
  5
2E
100
AcDbEntity
  8
Ebene 1
 62
     1
100
AcDbSpline
210
0.0
220
0.0
230
1.0
 70
     1
 71
     3
 72
   180
 73
   176
 74
     0
 42
0.0000000001
 43
0.0000000001
 40
0.0
 40
0.0
 40
0.0
 40
0.0
 40
0.0227272727272727
 40
0.0227272727272727
 40
0.0227272727272727
 40
0.0227272727272727
 40
0.0454545454545455
 40
0.0454545454545455
 40
0.0454545454545455
 40
0.0454545454545455
 40
0.0681818181818182
 40
0.0681818181818182
 40
0.0681818181818182
 40
0.0681818181818182
 40
0.0909090909090909
 40
0.0909090909090909
 40
0.0909090909090909
 40
0.0909090909090909
 40
0.1136363636363637
 40
0.1136363636363637
 40
0.1136363636363637
 40
0.1136363636363637
 40
0.1363636363636364
 40
0.1363636363636364
 40
0.1363636363636364
 40
0.1363636363636364
 40
0.1590909090909091
 40
0.1590909090909091
 40
0.1590909090909091
 40
0.1590909090909091
 40
0.1818181818181819
 40
0.1818181818181819
 40
0.1818181818181819
 40
0.1818181818181819
 40
0.2045454545454546
 40
0.2045454545454546
 40
0.2045454545454546
 40
0.2045454545454546
 40
0.2272727272727273
 40
0.2272727272727273
 40
0.2272727272727273
 40
0.2272727272727273
 40
0.2500000000000001
 40
0.2500000000000001
 40
0.2500000000000001
 40
0.2500000000000001
 40
0.2727272727272728
 40
0.2727272727272728
 40
0.2727272727272728
 40
0.2727272727272728
 40
0.2954545454545455
 40
0.2954545454545455
 40
0.2954545454545455
 40
0.2954545454545455
 40
0.3181818181818182
 40
0.3181818181818182
 40
0.3181818181818182
 40
0.3181818181818182
 40
0.3409090909090909
 40
0.3409090909090909
 40
0.3409090909090909
 40
0.3409090909090909
 40
0.3636363636363636
 40
0.3636363636363636
 40
0.3636363636363636
 40
0.3636363636363636
 40
0.3863636363636363
 40
0.3863636363636363
 40
0.3863636363636363
 40
0.3863636363636363
 40
0.409090909090909
 40
0.409090909090909
 40
0.409090909090909
 40
0.409090909090909
 40
0.4318181818181817
 40
0.4318181818181817
 40
0.4318181818181817
 40
0.4318181818181817
 40
0.4545454545454544
 40
0.4545454545454544
 40
0.4545454545454544
 40
0.4545454545454544
 40
0.4772727272727271
 40
0.4772727272727271
 40
0.4772727272727271
 40
0.4772727272727271
 40
0.4999999999999998
 40
0.4999999999999998
 40
0.4999999999999998
 40
0.4999999999999998
 40
0.5227272727272726
 40
0.5227272727272726
 40
0.5227272727272726
 40
0.5227272727272726
 40
0.5454545454545453
 40
0.5454545454545453
 40
0.5454545454545453
 40
0.5454545454545453
 40
0.568181818181818
 40
0.568181818181818
 40
0.568181818181818
 40
0.568181818181818
 40
0.5909090909090907
 40
0.5909090909090907
 40
0.5909090909090907
 40
0.5909090909090907
 40
0.6136363636363634
 40
0.6136363636363634
 40
0.6136363636363634
 40
0.6136363636363634
 40
0.6363636363636361
 40
0.6363636363636361
 40
0.6363636363636361
 40
0.6363636363636361
 40
0.6590909090909088
 40
0.6590909090909088
 40
0.6590909090909088
 40
0.6590909090909088
 40
0.6818181818181816
 40
0.6818181818181816
 40
0.6818181818181816
 40
0.6818181818181816
 40
0.7045454545454543
 40
0.7045454545454543
 40
0.7045454545454543
 40
0.7045454545454543
 40
0.727272727272727
 40
0.727272727272727
 40
0.727272727272727
 40
0.727272727272727
 40
0.7499999999999997
 40
0.7499999999999997
 40
0.7499999999999997
 40
0.7499999999999997
 40
0.7727272727272724
 40
0.7727272727272724
 40
0.7727272727272724
 40
0.7727272727272724
 40
0.7954545454545451
 40
0.7954545454545451
 40
0.7954545454545451
 40
0.7954545454545451
 40
0.8181818181818178
 40
0.8181818181818178
 40
0.8181818181818178
 40
0.8181818181818178
 40
0.8409090909090905
 40
0.8409090909090905
 40
0.8409090909090905
 40
0.8409090909090905
 40
0.8636363636363632
 40
0.8636363636363632
 40
0.8636363636363632
 40
0.8636363636363632
 40
0.8863636363636359
 40
0.8863636363636359
 40
0.8863636363636359
 40
0.8863636363636359
 40
0.9090909090909086
 40
0.9090909090909086
 40
0.9090909090909086
 40
0.9090909090909086
 40
0.9318181818181813
 40
0.9318181818181813
 40
0.9318181818181813
 40
0.9318181818181813
 40
0.954545454545454
 40
0.954545454545454
 40
0.954545454545454
 40
0.954545454545454
 40
0.9772727272727267
 40
0.9772727272727267
 40
0.9772727272727267
 40
0.9772727272727267
 40
1.0
 40
1.0
 40
1.0
 40
1.0
 10
-0.50727
 20
2.8221100000000003
 30
0.0
 10
-1.2354400000000001
 20
2.8828200000000002
 30
0.0
 10
-1.5873900000000001
 20
2.9920300000000002
 30
0.0
 10
-1.5873900000000001
 20
2.9920300000000002
 30
0.0
 10
-1.5873900000000001
 20
2.9920300000000002
 30
0.0
 10
-1.5873900000000001
 20
2.9920300000000002
 30
0.0
 10
-1.36894
 20
2.8342800000000001
 30
0.0
 10
-0.9805700000000001
 20
2.7371600000000003
 30
0.0
 10
-0.9805700000000001
 20
2.7371600000000003
 30
0.0
 10
-0.59221
 20
2.6400700000000001
 30
0.0
 10
-0.9077600000000001
 20
2.3730800000000003
 30
0.0
 10
-1.4538900000000001
 20
2.56725
 30
0.0
 10
-1.4538900000000001
 20
2.56725
 30
0.0
 10
-2.0000300000000002
 20
2.7614400000000003
 30
0.0
 10
-2.7156300000000004
 20
2.7683400000000002
 30
0.0
 10
-3.0190400000000004
 20
2.6955400000000003
 30
0.0
 10
-3.0190400000000004
 20
2.6955400000000003
 30
0.0
 10
-3.3224500000000003
 20
2.6227100000000001
 30
0.0
 10
-3.3957200000000003
 20
2.5793700000000004
 30
0.0
 10
-3.3957200000000003
 20
2.5793700000000004
 30
0.0
 10
-3.3957200000000003
 20
2.5793700000000004
 30
0.0
 10
-3.3957200000000003
 20
2.5793700000000004
 30
0.0
 10
-2.2791700000000001
 20
2.7492800000000002
 30
0.0
 10
-2.0607100000000003
 20
2.4095
 30
0.0
 10
-2.0607100000000003
 20
2.4095
 30
0.0
 10
-1.8422600000000002
 20
2.0696700000000003
 30
0.0
 10
-2.3277100000000002
 20
2.1910400000000001
 30
0.0
 10
-2.7282200000000003
 20
2.2517100000000001
 30
0.0
 10
-2.7282200000000003
 20
2.2517100000000001
 30
0.0
 10
-3.1287100000000003
 20
2.3124100000000003
 30
0.0
 10
-3.3654400000000004
 20
2.3102400000000003
 30
0.0
 10
-3.6869900000000002
 20
2.2031700000000001
 30
0.0
 10
-3.6869900000000002
 20
2.2031700000000001
 30
0.0
 10
-4.0085200000000007
 20
2.0960900000000002
 30
0.0
 10
-4.2816600000000005
 20
1.8148000000000002
 30
0.0
 10
-4.2816600000000005
 20
1.8148000000000002
 30
0.0
 10
-4.2816600000000005
 20
1.8148000000000002
 30
0.0
 10
-4.2816600000000005
 20
1.8148000000000002
 30
0.0
 10
-3.1084200000000002
 20
2.5288700000000004
 30
0.0
 10
-2.7461800000000003
 20
1.9599800000000001
 30
0.0
 10
-2.7461800000000003
 20
1.9599800000000001
 30
0.0
 10
-2.3839300000000003
 20
1.3910900000000002
 30
0.0
 10
-3.6869900000000002
 20
1.7177200000000001
 30
0.0
 10
-3.6869900000000002
 20
1.7177200000000001
 30
0.0
 10
-3.6869900000000002
 20
1.7177200000000001
 30
0.0
 10
-3.6869900000000002
 20
1.7177200000000001
 30
0.0
 10
-3.2258100000000001
 20
1.39002
 30
0.0
 10
-2.7039500000000003
 20
1.5235200000000002
 30
0.0
 10
-2.7039500000000003
 20
1.5235200000000002
 30
0.0
 10
-2.18208
 20
1.6570200000000002
 30
0.0
 10
-1.6116600000000001
 20
2.1788800000000004
 30
0.0
 10
-1.3568100000000001
 20
1.9725500000000002
 30
0.0
 10
-1.3568100000000001
 20
1.9725500000000002
 30
0.0
 10
-1.1019400000000001
 20
1.7662600000000002
 30
0.0
 10
-2.0728600000000004
 20
1.5721000000000001
 30
0.0
 10
-2.0728600000000004
 20
1.5721000000000001
 30
0.0
 10
-2.0728600000000004
 20
1.5721000000000001
 30
0.0
 10
-2.0728600000000004
 20
1.5721000000000001
 30
0.0
 10
-1.3446900000000002
 20
1.3779000000000001
 30
0.0
 10
-0.8834900000000001
 20
1.8148000000000002
 30
0.0
 10
-0.8834900000000001
 20
1.8148000000000002
 30
0.0
 10
-0.42231
 20
2.2517100000000001
 30
0.0
 10
0.0146
 20
2.3609500000000003
 30
0.0
 10
0.25733
 20
2.1788800000000004
 30
0.0
 10
0.25733
 20
2.1788800000000004
 30
0.0
 10
0.50005
 20
1.9968400000000002
 30
0.0
 10
0.60621
 20
1.4806600000000001
 30
0.0
 10
0.07221
 20
1.3228800000000001
 30
0.0
 10
0.07221
 20
1.3228800000000001
 30
0.0
 10
-0.46179
 20
1.1651200000000002
 30
0.0
 10
-0.73785
 20
1.2444000000000002
 30
0.0
 10
-0.73785
 20
1.2444000000000002
 30
0.0
 10
-0.73785
 20
1.2444000000000002
 30
0.0
 10
-0.73785
 20
1.2444000000000002
 30
0.0
 10
-0.5679500000000001
 20
1.0866100000000001
 30
0.0
 10
-0.19172
 20
1.1230300000000002
 30
0.0
 10
-0.19172
 20
1.1230300000000002
 30
0.0
 10
0.1845
 20
1.15944
 30
0.0
 10
0.8520000000000001
 20
1.2444000000000002
 30
0.0
 10
0.47578
 20
0.81962
 30
0.0
 10
0.47578
 20
0.81962
 30
0.0
 10
0.09954
 20
0.39484
 30
0.0
 10
-0.34948
 20
0.5040800000000001
 30
0.0
 10
-0.19172
 20
0.4555400000000001
 30
0.0
 10
-0.19172
 20
0.4555400000000001
 30
0.0
 10
-0.03395
 20
0.40696
 30
0.0
 10
0.1845
 20
0.40696
 30
0.0
 10
0.42722
 20
0.58904
 30
0.0
 10
0.42722
 20
0.58904
 30
0.0
 10
0.66996
 20
0.7710800000000001
 30
0.0
 10
0.8277300000000001
 20
0.8802800000000001
 30
0.0
 10
0.7913300000000001
 20
0.69825
 30
0.0
 10
0.7913300000000001
 20
0.69825
 30
0.0
 10
0.7549
 20
0.5162100000000001
 30
0.0
 10
0.5364500000000001
 20
0.3584600000000001
 30
0.0
 10
0.6214200000000001
 20
0.12784
 30
0.0
 10
0.6214200000000001
 20
0.12784
 30
0.0
 10
0.7063600000000001
 20
-0.10273
 30
0.0
 10
0.76705
 20
-0.28477
 30
0.0
 10
0.7185
 20
-0.45468
 30
0.0
 10
0.7185
 20
-0.45468
 30
0.0
 10
0.66996
 20
-0.6245900000000001
 30
0.0
 10
0.47578
 20
-0.7338400000000001
 30
0.0
 10
0.47578
 20
-0.7338400000000001
 30
0.0
 10
0.47578
 20
-0.7338400000000001
 30
0.0
 10
0.47578
 20
-0.7338400000000001
 30
0.0
 10
0.9369600000000001
 20
-0.6245900000000001
 30
0.0
 10
0.8398600000000001
 20
-0.26051
 30
0.0
 10
0.8398600000000001
 20
-0.26051
 30
0.0
 10
0.7427800000000001
 20
0.10359
 30
0.0
 10
0.7063600000000001
 20
0.33417
 30
0.0
 10
0.8762700000000001
 20
0.2734700000000001
 30
0.0
 10
0.8762700000000001
 20
0.2734700000000001
 30
0.0
 10
1.1084200000000002
 20
0.19058
 30
0.0
 10
0.9698100000000001
 20
-0.6752300000000001
 30
0.0
 10
0.92483
 20
-0.85521
 30
0.0
 10
0.92483
 20
-0.85521
 30
0.0
 10
0.8520000000000001
 20
-1.1464500000000002
 30
0.0
 10
0.9491000000000001
 20
-1.4134500000000001
 30
0.0
 10
1.119
 20
-1.54695
 30
0.0
 10
1.119
 20
-1.54695
 30
0.0
 10
1.28891
 20
-1.6804800000000002
 30
0.0
 10
1.4345500000000002
 20
-1.7775600000000003
 30
0.0
 10
1.4345500000000002
 20
-1.7775600000000003
 30
0.0
 10
1.4345500000000002
 20
-1.7775600000000003
 30
0.0
 10
0.64032
 20
-1.1918300000000002
 30
0.0
 10
1.22824
 20
-0.6993100000000001
 30
0.0
 10
1.22824
 20
-1.0979100000000002
 30
0.0
 10
1.22824
 20
-1.0979100000000002
 30
0.0
 10
1.22824
 20
-1.2435400000000001
 30
0.0
 10
1.22824
 20
-1.3042400000000001
 30
0.0
 10
1.22824
 20
-1.3042400000000001
 30
0.0
 10
1.22824
 20
-1.3042400000000001
 30
0.0
 10
1.22824
 20
-1.3042400000000001
 30
0.0
 10
1.3981300000000001
 20
-1.08579
 30
0.0
 10
1.22824
 20
-0.7338400000000001
 30
0.0
 10
1.22824
 20
-0.7338400000000001
 30
0.0
 10
1.0583100000000001
 20
-0.3818800000000001
 30
0.0
 10
1.0583100000000001
 20
0.01863
 30
0.0
 10
1.2161000000000002
 20
0.05501
 30
0.0
 10
1.2161000000000002
 20
0.05501
 30
0.0
 10
1.3738600000000001
 20
0.09143
 30
0.0
 10
1.33745
 20
-0.39401
 30
0.0
 10
1.33745
 20
-0.39401
 30
0.0
 10
1.33745
 20
-0.39401
 30
0.0
 10
1.33745
 20
-0.39401
 30
0.0
 10
1.5923200000000002
 20
-0.10273
 30
0.0
 10
1.2646400000000002
 20
0.4797900000000001
 30
0.0
 10
1.2646400000000002
 20
0.4797900000000001
 30
0.0
 10
0.9369600000000001
 20
1.0623600000000002
 30
0.0
 10
0.6578200000000001
 20
1.5356500000000002
 30
0.0
 10
0.8520000000000001
 20
1.8269300000000002
 30
0.0
 10
0.8520000000000001
 20
1.8269300000000002
 30
0.0
 10
1.0461900000000002
 20
2.1182100000000004
 30
0.0
 10
1.19181
 20
1.8997600000000001
 30
0.0
 10
1.15541
 20
1.6691800000000001
 30
0.0
 10
1.15541
 20
1.6691800000000001
 30
0.0
 10
1.119
 20
1.4385600000000001
 30
0.0
 10
1.0340400000000001
 20
1.3536100000000002
 30
0.0
 10
1.0340400000000001
 20
1.3536100000000002
 30
0.0
 10
1.0340400000000001
 20
1.3536100000000002
 30
0.0
 10
1.0340400000000001
 20
1.3536100000000002
 30
0.0
 10
1.3860100000000002
 20
1.4871100000000002
 30
0.0
 10
1.2403700000000002
 20
2.10609
 30
0.0
 10
1.2403700000000002
 20
2.10609
 30
0.0
 10
1.0947200000000001
 20
2.7250300000000003
 30
0.0
 10
1.1796800000000001
 20
3.0163200000000003
 30
0.0
 10
1.1796800000000001
 20
3.0163200000000003
 30
0.0
 10
1.1796800000000001
 20
3.0163200000000003
 30
0.0
 10
1.1796800000000001
 20
3.0163200000000003
 30
0.0
 10
1.22824
 20
3.2226100000000004
 30
0.0
 10
1.0947200000000001
 20
3.1740600000000003
 30
0.0
 10
1.0947200000000001
 20
3.1740600000000003
 30
0.0
 10
0.67735
 20
2.90456
 30
0.0
 10
0.23275
 20
2.7604500000000001
 30
0.0
 10
-0.50727
 20
2.8221100000000003
 30
0.0
  0
SPLINE
  5
2F
100
AcDbEntity
  8
Ebene 1
 62
     1
100
AcDbSpline
210
0.0
220
0.0
230
1.0
 70
     1
 71
     3
 72
   128
 73
   124
 74
     0
 42
0.0000000001
 43
0.0000000001
 40
0.0
 40
0.0
 40
0.0
 40
0.0
 40
0.032258064516129
 40
0.032258064516129
 40
0.032258064516129
 40
0.032258064516129
 40
0.0645161290322581
 40
0.0645161290322581
 40
0.0645161290322581
 40
0.0645161290322581
 40
0.0967741935483871
 40
0.0967741935483871
 40
0.0967741935483871
 40
0.0967741935483871
 40
0.1290322580645161
 40
0.1290322580645161
 40
0.1290322580645161
 40
0.1290322580645161
 40
0.1612903225806452
 40
0.1612903225806452
 40
0.1612903225806452
 40
0.1612903225806452
 40
0.1935483870967742
 40
0.1935483870967742
 40
0.1935483870967742
 40
0.1935483870967742
 40
0.2258064516129032
 40
0.2258064516129032
 40
0.2258064516129032
 40
0.2258064516129032
 40
0.2580645161290323
 40
0.2580645161290323
 40
0.2580645161290323
 40
0.2580645161290323
 40
0.2903225806451613
 40
0.2903225806451613
 40
0.2903225806451613
 40
0.2903225806451613
 40
0.3225806451612903
 40
0.3225806451612903
 40
0.3225806451612903
 40
0.3225806451612903
 40
0.3548387096774193
 40
0.3548387096774193
 40
0.3548387096774193
 40
0.3548387096774193
 40
0.3870967741935483
 40
0.3870967741935483
 40
0.3870967741935483
 40
0.3870967741935483
 40
0.4193548387096773
 40
0.4193548387096773
 40
0.4193548387096773
 40
0.4193548387096773
 40
0.4516129032258063
 40
0.4516129032258063
 40
0.4516129032258063
 40
0.4516129032258063
 40
0.4838709677419353
 40
0.4838709677419353
 40
0.4838709677419353
 40
0.4838709677419353
 40
0.5161290322580643
 40
0.5161290322580643
 40
0.5161290322580643
 40
0.5161290322580643
 40
0.5483870967741933
 40
0.5483870967741933
 40
0.5483870967741933
 40
0.5483870967741933
 40
0.5806451612903223
 40
0.5806451612903223
 40
0.5806451612903223
 40
0.5806451612903223
 40
0.6129032258064513
 40
0.6129032258064513
 40
0.6129032258064513
 40
0.6129032258064513
 40
0.6451612903225803
 40
0.6451612903225803
 40
0.6451612903225803
 40
0.6451612903225803
 40
0.6774193548387093
 40
0.6774193548387093
 40
0.6774193548387093
 40
0.6774193548387093
 40
0.7096774193548383
 40
0.7096774193548383
 40
0.7096774193548383
 40
0.7096774193548383
 40
0.7419354838709673
 40
0.7419354838709673
 40
0.7419354838709673
 40
0.7419354838709673
 40
0.7741935483870963
 40
0.7741935483870963
 40
0.7741935483870963
 40
0.7741935483870963
 40
0.8064516129032253
 40
0.8064516129032253
 40
0.8064516129032253
 40
0.8064516129032253
 40
0.8387096774193543
 40
0.8387096774193543
 40
0.8387096774193543
 40
0.8387096774193543
 40
0.8709677419354833
 40
0.8709677419354833
 40
0.8709677419354833
 40
0.8709677419354833
 40
0.9032258064516123
 40
0.9032258064516123
 40
0.9032258064516123
 40
0.9032258064516123
 40
0.9354838709677413
 40
0.9354838709677413
 40
0.9354838709677413
 40
0.9354838709677413
 40
0.9677419354838703
 40
0.9677419354838703
 40
0.9677419354838703
 40
0.9677419354838703
 40
1.0
 40
1.0
 40
1.0
 40
1.0
 10
-0.87136
 20
3.4168100000000003
 30
0.0
 10
-0.87136
 20
3.4168100000000003
 30
0.0
 10
-1.4417500000000001
 20
3.8658400000000004
 30
0.0
 10
-1.6966200000000002
 20
4.3755800000000002
 30
0.0
 10
-1.6966200000000002
 20
4.3755800000000002
 30
0.0
 10
-1.9514900000000002
 20
4.8853
 30
0.0
 10
-1.9029500000000001
 20
5.1401600000000007
 30
0.0
 10
-1.74516
 20
5.0794800000000002
 30
0.0
 10
-1.74516
 20
5.0794800000000002
 30
0.0
 10
-1.5873900000000001
 20
5.0187900000000001
 30
0.0
 10
-1.3810800000000001
 20
4.7275300000000007
 30
0.0
 10
-1.3810800000000001
 20
4.7275300000000007
 30
0.0
 10
-1.3810800000000001
 20
4.7275300000000007
 30
0.0
 10
-1.3810800000000001
 20
4.7275300000000007
 30
0.0
 10
-1.3568100000000001
 20
5.2129900000000005
 30
0.0
 10
-1.9514900000000002
 20
5.6013400000000004
 30
0.0
 10
-1.9514900000000002
 20
5.6013400000000004
 30
0.0
 10
-2.5461600000000004
 20
5.9897100000000005
 30
0.0
 10
-3.0923100000000003
 20
6.4144900000000007
 30
0.0
 10
-3.2622100000000001
 20
6.7179000000000002
 30
0.0
 10
-3.2622100000000001
 20
6.7179000000000002
 30
0.0
 10
-3.4321200000000003
 20
7.0213100000000006
 30
0.0
 10
-3.5656300000000001
 20
7.5553000000000008
 30
0.0
 10
-3.5656300000000001
 20
7.5553000000000008
 30
0.0
 10
-3.5656300000000001
 20
7.5553000000000008
 30
0.0
 10
-3.5656300000000001
 20
7.5553000000000008
 30
0.0
 10
-3.5898900000000005
 20
6.8028500000000003
 30
0.0
 10
-3.2864800000000001
 20
6.3902200000000002
 30
0.0
 10
-3.2864800000000001
 20
6.3902200000000002
 30
0.0
 10
-2.9830900000000002
 20
5.9775600000000004
 30
0.0
 10
-2.7039500000000003
 20
5.7955200000000007
 30
0.0
 10
-2.7160700000000002
 20
5.4071800000000003
 30
0.0
 10
-2.7160700000000002
 20
5.4071800000000003
 30
0.0
 10
-2.7282200000000003
 20
5.0187900000000001
 30
0.0
 10
-3.4806800000000004
 20
5.7469800000000006
 30
0.0
 10
-3.7719400000000003
 20
6.4873000000000003
 30
0.0
 10
-3.7719400000000003
 20
6.4873000000000003
 30
0.0
 10
-4.0632100000000007
 20
7.2276100000000003
 30
0.0
 10
-3.9175900000000001
 20
8.1135700000000011
 30
0.0
 10
-4.20885
 20
9.0966100000000001
 30
0.0
 10
-4.20885
 20
9.0966100000000001
 30
0.0
 10
-4.5001300000000004
 20
10.07967
 30
0.0
 10
-4.8420400000000008
 20
10.25511
 30
0.0
 10
-5.1771600000000007
 20
10.388300000000001
 30
0.0
 10
-5.1771600000000007
 20
10.388300000000001
 30
0.0
 10
-5.5122500000000008
 20
10.521470000000001
 30
0.0
 10
-5.7027300000000007
 20
10.465260000000001
 30
0.0
 10
-5.7137700000000002
 20
10.46804
 30
0.0
 10
-5.7137700000000002
 20
10.46804
 30
0.0
 10
-5.7248000000000001
 20
10.470800000000001
 30
0.0
 10
-5.0098500000000001
 20
10.38306
 30
0.0
 10
-4.7185700000000006
 20
9.94618
 30
0.0
 10
-4.7185700000000006
 20
9.94618
 30
0.0
 10
-4.4273000000000007
 20
9.5092500000000015
 30
0.0
 10
-3.8933000000000004
 20
8.077160000000001
 30
0.0
 10
-4.5608000000000004
 20
8.1014499999999998
 30
0.0
 10
-4.5608000000000004
 20
8.1014499999999998
 30
0.0
 10
-5.2283100000000005
 20
8.1257000000000001
 30
0.0
 10
-5.2889900000000001
 20
8.96312
 30
0.0
 10
-5.2889900000000001
 20
8.96312
 30
0.0
 10
-5.2889900000000001
 20
8.96312
 30
0.0
 10
-5.2889900000000001
 20
8.96312
 30
0.0
 10
-5.4221600000000008
 20
8.5142500000000005
 30
0.0
 10
-4.9855800000000006
 20
8.0407600000000006
 30
0.0
 10
-4.9855800000000006
 20
8.0407600000000006
 30
0.0
 10
-4.5490000000000004
 20
7.5672500000000005
 30
0.0
 10
-4.2983600000000006
 20
7.5287500000000005
 30
0.0
 10
-4.0875000000000004
 20
6.6814800000000005
 30
0.0
 10
-4.0875000000000004
 20
6.6814800000000005
 30
0.0
 10
-3.8766200000000004
 20
5.8342100000000006
 30
0.0
 10
-4.5608000000000004
 20
6.3212500000000009
 30
0.0
 10
-4.7792700000000004
 20
6.657210000000001
 30
0.0
 10
-4.7792700000000004
 20
6.657210000000001
 30
0.0
 10
-4.9977100000000005
 20
6.9931800000000006
 30
0.0
 10
-4.8793200000000008
 20
7.4100200000000003
 30
0.0
 10
-4.9006300000000005
 20
7.4460900000000008
 30
0.0
 10
-4.9006300000000005
 20
7.4460900000000008
 30
0.0
 10
-5.5101700000000005
 20
6.4008800000000008
 30
0.0
 10
-3.6265600000000004
 20
5.48414
 30
0.0
 10
-3.4394900000000002
 20
5.3486400000000005
 30
0.0
 10
-3.4394900000000002
 20
5.3486400000000005
 30
0.0
 10
-2.7262200000000001
 20
4.83195
 30
0.0
 10
-3.1331700000000002
 20
4.4467000000000008
 30
0.0
 10
-3.4199900000000003
 20
4.5333400000000008
 30
0.0
 10
-3.4199900000000003
 20
4.5333400000000008
 30
0.0
 10
-3.7068100000000004
 20
4.6199900000000005
 30
0.0
 10
-3.8759500000000005
 20
4.7422700000000004
 30
0.0
 10
-4.1429499999999999
 20
5.0699500000000004
 30
0.0
 10
-4.1429499999999999
 20
5.0699500000000004
 30
0.0
 10
-4.4099600000000008
 20
5.3976300000000004
 30
0.0
 10
-4.4922800000000001
 20
5.7691000000000008
 30
0.0
 10
-4.53653
 20
5.8805000000000005
 30
0.0
 10
-4.53653
 20
5.8805000000000005
 30
0.0
 10
-4.5617300000000007
 20
5.8442200000000009
 30
0.0
 10
-4.4637200000000004
 20
5.2736800000000006
 30
0.0
 10
-4.0025400000000007
 20
4.6547100000000006
 30
0.0
 10
-4.0025400000000007
 20
4.6547100000000006
 30
0.0
 10
-3.5413700000000001
 20
4.0357500000000002
 30
0.0
 10
-2.9588000000000001
 20
3.6473900000000001
 30
0.0
 10
-2.4733500000000004
 20
3.3439800000000002
 30
0.0
 10
-2.4733500000000004
 20
3.3439800000000002
 30
0.0
 10
-1.9879000000000002
 20
3.0405700000000002
 30
0.0
 10
-1.7937200000000002
 20
3.0284400000000002
 30
0.0
 10
-1.7937200000000002
 20
3.0284400000000002
 30
0.0
 10
-1.7937200000000002
 20
3.0284400000000002
 30
0.0
 10
-1.7937200000000002
 20
3.0284400000000002
 30
0.0
 10
-2.8374400000000004
 20
3.6716700000000002
 30
0.0
 10
-2.8981300000000001
 20
4.0721700000000007
 30
0.0
 10
-2.8981300000000001
 20
4.0721700000000007
 30
0.0
 10
-2.9588000000000001
 20
4.4726800000000004
 30
0.0
 10
-2.6068600000000002
 20
4.5818900000000005
 30
0.0
 10
-2.2913100000000002
 20
4.0964499999999999
 30
0.0
 10
-2.2913100000000002
 20
4.0964499999999999
 30
0.0
 10
-1.9757600000000002
 20
3.6109700000000005
 30
0.0
 10
-1.2233200000000002
 20
3.1255200000000003
 30
0.0
 10
-0.58008
 20
3.0405700000000002
 30
0.0
 10
-0.58008
 20
3.0405700000000002
 30
0.0
 10
0.06313
 20
2.9556100000000001
 30
0.0
 10
0.22089
 20
3.0405700000000002
 30
0.0
 10
0.22089
 20
3.0405700000000002
 30
0.0
 10
0.22089
 20
3.0405700000000002
 30
0.0
 10
-0.18091
 20
3.0405700000000002
 30
0.0
 10
-0.56499
 20
3.1487400000000001
 30
0.0
 10
-0.87136
 20
3.4168100000000003
 30
0.0
  0
SPLINE
  5
30
100
AcDbEntity
  8
Ebene 1
 62
     1
100
AcDbSpline
210
0.0
220
0.0
230
1.0
 70
     1
 71
     3
 72
    16
 73
    12
 74
     0
 42
0.0000000001
 43
0.0000000001
 40
0.0
 40
0.0
 40
0.0
 40
0.0
 40
0.3333333333333333
 40
0.3333333333333333
 40
0.3333333333333333
 40
0.3333333333333333
 40
0.6666666666666666
 40
0.6666666666666666
 40
0.6666666666666666
 40
0.6666666666666666
 40
1.0
 40
1.0
 40
1.0
 40
1.0
 10
-4.4983600000000008
 20
9.26844
 30
0.0
 10
-5.3451600000000008
 20
9.7933700000000012
 30
0.0
 10
-5.8868500000000008
 20
9.8175500000000007
 30
0.0
 10
-5.8350600000000004
 20
9.7830200000000005
 30
0.0
 10
-5.8350600000000004
 20
9.7830200000000005
 30
0.0
 10
-5.7832600000000003
 20
9.7484900000000003
 30
0.0
 10
-5.0853400000000004
 20
9.6525300000000005
 30
0.0
 10
-4.4142800000000006
 20
9.0454000000000008
 30
0.0
 10
-4.4142800000000006
 20
9.0454000000000008
 30
0.0
 10
-4.4391700000000007
 20
9.1371600000000015
 30
0.0
 10
-4.4700200000000008
 20
9.1993800000000014
 30
0.0
 10
-4.4983600000000008
 20
9.26844
 30
0.0
  0
ENDSEC
  0
SECTION
  2
OBJECTS
  0
DICTIONARY
  5
19
100
AcDbDictionary
280
     0
281
     1
  3
ACAD_GROUP
350
1A
  3
ACAD_MLINESTYLE
350
1B
  3
ACAD_LAYOUT
350
1E
  3
ACAD_PLOTSETTINGS
350
22
  3
ACAD_PLOTSTYLENAME
350
1F
  3
ACAD_WIPEOUT_VARS
350
23
  0
DICTIONARY
  5
1A
102
{ACAD_REACTORS
330
19
102
}
100
AcDbDictionary
280
     0
281
     1
  0
DICTIONARY
  5
1B
102
{ACAD_REACTORS
330
19
102
}
100
AcDbDictionary
280
     0
281
     1
  3
Standard
350
1C
  0
MLINESTYLE
  5
1C
102
{ACAD_REACTORS
330
1B
102
}
100
AcDbMlineStyle
  2
Standard
 70
     0
  3

 62
     0
 51
90.0
 52
90.0
 71
     2
 49
0.5
 62
   256
  6
BYLAYER
 49
-0.5
 62
   256
  6
BYLAYER
  0
ACDBDICTIONARYWDFLT
  5
1F
102
{ACAD_REACTORS
330
19
102
}
100
AcDbDictionary
281
     1
  3
Normal
350
1D
100
AcDbDictionaryWithDefault
340
1D
  0
ACDBPLACEHOLDER
  5
1D
102
{ACAD_REACTORS
330
1F
102
}
  0
LAYOUT
  5
20
102
{ACAD_REACTORS
330
1E
102
}
100
AcDbPlotSettings
  1

  2

  4

  6

 40
0.0
 41
0.0
 42
0.0
 43
0.0
 44
0.0
 45
0.0
 46
0.0
 47
0.0
 48
0.0
 49
0.0
140
0.0
141
0.0
142
1.0
143
1.0
 70
  1024
 72
     0
 73
     0
 74
     0
  7

 75
     0
147
1.0
148
0.0
149
0.0
100
AcDbLayout
  1
Model
 70
     0
 71
     0
 10
0.0
 20
0.0
 11
0.0
 21
0.0
 12
0.0
 22
0.0
 32
0.0
 14
0.0
 24
0.0
 34
0.0
 15
0.0
 25
0.0
 35
0.0
146
0.0
 13
0.0
 23
0.0
 33
0.0
 16
0.0
 26
0.0
 36
0.0
 17
0.0
 27
0.0
 37
0.0
 76
     0
330
A
331
0
345
0
346
0
  0
LAYOUT
  5
21
102
{ACAD_REACTORS
330
1E
102
}
100
AcDbPlotSettings
  1

  2

  4

  6

 40
0.0
 41
0.0
 42
0.0
 43
0.0
 44
0.0
 45
0.0
 46
0.0
 47
0.0
 48
0.0
 49
0.0
140
0.0
141
0.0
142
1.0
143
1.0
 70
     0
 72
     0
 73
     0
 74
     0
  7

 75
     0
147
1.0
148
0.0
149
0.0
100
AcDbLayout
  1
Layout1
 70
     0
 71
     0
 10
0.0
 20
0.0
 11
0.0
 21
0.0
 12
0.0
 22
0.0
 32
0.0
 14
0.0
 24
0.0
 34
0.0
 15
0.0
 25
0.0
 35
0.0
146
0.0
 13
0.0
 23
0.0
 33
0.0
 16
0.0
 26
0.0
 36
0.0
 17
0.0
 27
0.0
 37
0.0
 76
     0
330
B
331
0
345
0
346
0
  0
DICTIONARY
  5
1E
102
{ACAD_REACTORS
330
19
102
}
100
AcDbDictionary
280
     0
281
     1
  3
Layout1
350
21
  3
Model
350
20
  0
DICTIONARY
  5
22
102
{ACAD_REACTORS
330
19
102
}
100
AcDbDictionary
280
     0
281
     1
  0
WIPEOUTVARIABLES
  5
23
100
AcDbWipeoutVariables
 70
     1
  0
ENDSEC
  0
EOF
