  0
SECTION
  2
HEADER
  9
$ACADVER
  1
AC1021
  9
$ACADMAINTVER
 70
    25
  9
$DWGCODEPAGE
  3
ANSI_1251
  9
$INSBASE
 10
0.0
 20
0.0
 30
0.0
  9
$EXTMIN
 10
-560.6362
 20
-230.0549
 30
0.0
  9
$EXTMAX
 10
560.6465
 20
230.057
 30
0.0
  9
$LIMMIN
 10
0.0
 20
0.0
  9
$LIMMAX
 10
12.0
 20
9.0
  9
$ORTHOMODE
 70
     0
  9
$REGENMODE
 70
     1
  9
$FILLMODE
 70
     1
  9
$QTEXTMODE
 70
     0
  9
$MIRRTEXT
 70
     1
  9
$LTSCALE
 40
1.0
  9
$ATTMODE
 70
     1
  9
$TEXTSIZE
 40
0.2
  9
$TRACEWID
 40
0.05
  9
$TEXTSTYLE
  7
Standard
  9
$CLAYER
  8
0
  9
$CELTYPE
  6
ByLayer
  9
$CECOLOR
 62
   256
  9
$CELTSCALE
 40
1.0
  9
$DISPSILH
 70
     0
  9
$DIMSCALE
 40
1.0
  9
$DIMASZ
 40
0.18
  9
$DIMEXO
 40
0.0625
  9
$DIMDLI
 40
0.38
  9
$DIMRND
 40
0.0
  9
$DIMDLE
 40
0.0
  9
$DIMEXE
 40
0.18
  9
$DIMTP
 40
0.0
  9
$DIMTM
 40
0.0
  9
$DIMTXT
 40
0.18
  9
$DIMCEN
 40
0.09
  9
$DIMTSZ
 40
0.0
  9
$DIMTOL
 70
     0
  9
$DIMLIM
 70
     0
  9
$DIMTIH
 70
     1
  9
$DIMTOH
 70
     1
  9
$DIMSE1
 70
     0
  9
$DIMSE2
 70
     0
  9
$DIMTAD
 70
     0
  9
$DIMZIN
 70
     0
  9
$DIMBLK
  1

  9
$DIMASO
 70
     1
  9
$DIMSHO
 70
     1
  9
$DIMPOST
  1

  9
$DIMAPOST
  1

  9
$DIMALT
 70
     0
  9
$DIMALTD
 70
     2
  9
$DIMALTF
 40
25.4
  9
$DIMLFAC
 40
1.0
  9
$DIMTOFL
 70
     0
  9
$DIMTVP
 40
0.0
  9
$DIMTIX
 70
     0
  9
$DIMSOXD
 70
     0
  9
$DIMSAH
 70
     0
  9
$DIMBLK1
  1

  9
$DIMBLK2
  1

  9
$DIMSTYLE
  2
Standard
  9
$DIMCLRD
 70
     0
  9
$DIMCLRE
 70
     0
  9
$DIMCLRT
 70
     0
  9
$DIMTFAC
 40
1.0
  9
$DIMGAP
 40
0.09
  9
$DIMJUST
 70
     0
  9
$DIMSD1
 70
     0
  9
$DIMSD2
 70
     0
  9
$DIMTOLJ
 70
     1
  9
$DIMTZIN
 70
     0
  9
$DIMALTZ
 70
     0
  9
$DIMALTTZ
 70
     0
  9
$DIMUPT
 70
     0
  9
$DIMDEC
 70
     4
  9
$DIMTDEC
 70
     4
  9
$DIMALTU
 70
     2
  9
$DIMALTTD
 70
     2
  9
$DIMTXSTY
  7
Standard
  9
$DIMAUNIT
 70
     0
  9
$DIMADEC
 70
     0
  9
$DIMALTRND
 40
0.0
  9
$DIMAZIN
 70
     0
  9
$DIMDSEP
 70
    46
  9
$DIMATFIT
 70
     3
  9
$DIMFRAC
 70
     0
  9
$DIMLDRBLK
  1

  9
$DIMLUNIT
 70
     2
  9
$DIMLWD
 70
    -2
  9
$DIMLWE
 70
    -2
  9
$DIMTMOVE
 70
     0
  9
$DIMFXL
 40
1.0
  9
$DIMFXLON
 70
     0
  9
$DIMJOGANG
 40
0.7853981633974483
  9
$DIMTFILL
 70
     0
  9
$DIMTFILLCLR
 70
     0
  9
$DIMARCSYM
 70
     0
  9
$DIMLTYPE
  6

  9
$DIMLTEX1
  6

  9
$DIMLTEX2
  6

  9
$LUNITS
 70
     2
  9
$LUPREC
 70
     4
  9
$SKETCHINC
 40
0.1
  9
$FILLETRAD
 40
0.5
  9
$AUNITS
 70
     0
  9
$AUPREC
 70
     0
  9
$MENU
  1
.
  9
$ELEVATION
 40
0.0
  9
$PELEVATION
 40
0.0
  9
$THICKNESS
 40
0.0
  9
$LIMCHECK
 70
     0
  9
$CHAMFERA
 40
0.0
  9
$CHAMFERB
 40
0.0
  9
$CHAMFERC
 40
0.0
  9
$CHAMFERD
 40
0.0
  9
$SKPOLY
 70
     0
  9
$TDCREATE
 40
2458394.88195081
  9
$TDUCREATE
 40
2458394.50695081
  9
$TDUPDATE
 40
2458394.881951169
  9
$TDUUPDATE
 40
2458394.506951169
  9
$TDINDWG
 40
0.0000000116
  9
$TDUSRTIMER
 40
0.0000000116
  9
$USRTIMER
 70
     1
  9
$ANGBASE
 50
0.0
  9
$ANGDIR
 70
     0
  9
$PDMODE
 70
     0
  9
$PDSIZE
 40
0.0
  9
$PLINEWID
 40
0.0
  9
$SPLFRAME
 70
     0
  9
$SPLINETYPE
 70
     6
  9
$SPLINESEGS
 70
     8
  9
$HANDSEED
  5
C4
  9
$SURFTAB1
 70
     6
  9
$SURFTAB2
 70
     6
  9
$SURFTYPE
 70
     6
  9
$SURFU
 70
     6
  9
$SURFV
 70
     6
  9
$UCSBASE
  2

  9
$UCSNAME
  2

  9
$UCSORG
 10
0.0
 20
0.0
 30
0.0
  9
$UCSXDIR
 10
1.0
 20
0.0
 30
0.0
  9
$UCSYDIR
 10
0.0
 20
1.0
 30
0.0
  9
$UCSORTHOREF
  2

  9
$UCSORTHOVIEW
 70
     0
  9
$UCSORGTOP
 10
0.0
 20
0.0
 30
0.0
  9
$UCSORGBOTTOM
 10
0.0
 20
0.0
 30
0.0
  9
$UCSORGLEFT
 10
0.0
 20
0.0
 30
0.0
  9
$UCSORGRIGHT
 10
0.0
 20
0.0
 30
0.0
  9
$UCSORGFRONT
 10
0.0
 20
0.0
 30
0.0
  9
$UCSORGBACK
 10
0.0
 20
0.0
 30
0.0
  9
$PUCSBASE
  2

  9
$PUCSNAME
  2

  9
$PUCSORG
 10
0.0
 20
0.0
 30
0.0
  9
$PUCSXDIR
 10
1.0
 20
0.0
 30
0.0
  9
$PUCSYDIR
 10
0.0
 20
1.0
 30
0.0
  9
$PUCSORTHOREF
  2

  9
$PUCSORTHOVIEW
 70
     0
  9
$PUCSORGTOP
 10
0.0
 20
0.0
 30
0.0
  9
$PUCSORGBOTTOM
 10
0.0
 20
0.0
 30
0.0
  9
$PUCSORGLEFT
 10
0.0
 20
0.0
 30
0.0
  9
$PUCSORGRIGHT
 10
0.0
 20
0.0
 30
0.0
  9
$PUCSORGFRONT
 10
0.0
 20
0.0
 30
0.0
  9
$PUCSORGBACK
 10
0.0
 20
0.0
 30
0.0
  9
$USERI1
 70
     0
  9
$USERI2
 70
     0
  9
$USERI3
 70
     0
  9
$USERI4
 70
     0
  9
$USERI5
 70
     0
  9
$USERR1
 40
0.0
  9
$USERR2
 40
0.0
  9
$USERR3
 40
0.0
  9
$USERR4
 40
0.0
  9
$USERR5
 40
0.0
  9
$WORLDVIEW
 70
     1
  9
$SHADEDGE
 70
     3
  9
$SHADEDIF
 70
    70
  9
$TILEMODE
 70
     1
  9
$MAXACTVP
 70
    64
  9
$PINSBASE
 10
0.0
 20
0.0
 30
0.0
  9
$PLIMCHECK
 70
     0
  9
$PEXTMIN
 10
1.000000000000000E+20
 20
1.000000000000000E+20
 30
1.000000000000000E+20
  9
$PEXTMAX
 10
-1.000000000000000E+20
 20
-1.000000000000000E+20
 30
-1.000000000000000E+20
  9
$PLIMMIN
 10
0.0
 20
0.0
  9
$PLIMMAX
 10
12.0
 20
9.0
  9
$UNITMODE
 70
     0
  9
$VISRETAIN
 70
     1
  9
$PLINEGEN
 70
     0
  9
$PSLTSCALE
 70
     1
  9
$TREEDEPTH
 70
  3020
  9
$CMLSTYLE
  2
Standard
  9
$CMLJUST
 70
     0
  9
$CMLSCALE
 40
1.0
  9
$PROXYGRAPHICS
 70
     1
  9
$MEASUREMENT
 70
     0
  9
$CELWEIGHT
370
    -1
  9
$ENDCAPS
280
     0
  9
$JOINSTYLE
280
     0
  9
$LWDISPLAY
290
     0
  9
$INSUNITS
 70
     4
  9
$HYPERLINKBASE
  1

  9
$STYLESHEET
  1

  9
$XEDIT
290
     1
  9
$CEPSNTYPE
380
     0
  9
$PSTYLEMODE
290
     1
  9
$FINGERPRINTGUID
  2
{685DC2FB-B012-4F03-9BC6-385FB73AA76B}
  9
$VERSIONGUID
  2
{FAEB1C32-E019-11D5-929B-00C0DF256EC4}
  9
$EXTNAMES
290
     1
  9
$PSVPSCALE
 40
0.0
  9
$OLESTARTUP
290
     0
  9
$SORTENTS
280
   127
  9
$INDEXCTL
280
     0
  9
$HIDETEXT
280
     1
  9
$XCLIPFRAME
290
     0
  9
$HALOGAP
280
     0
  9
$OBSCOLOR
 70
   257
  9
$OBSLTYPE
280
     0
  9
$INTERSECTIONDISPLAY
280
     0
  9
$INTERSECTIONCOLOR
 70
   257
  9
$DIMASSOC
280
     2
  9
$PROJECTNAME
  1

  9
$CAMERADISPLAY
290
     0
  9
$LENSLENGTH
 40
50.0
  9
$CAMERAHEIGHT
 40
0.0
  9
$STEPSPERSEC
 40
2.0
  9
$STEPSIZE
 40
6.0
  9
$3DDWFPREC
 40
2.0
  9
$PSOLWIDTH
 40
0.25
  9
$PSOLHEIGHT
 40
4.0
  9
$LOFTANG1
 40
1.570796326794897
  9
$LOFTANG2
 40
1.570796326794897
  9
$LOFTMAG1
 40
0.0
  9
$LOFTMAG2
 40
0.0
  9
$LOFTPARAM
 70
     7
  9
$LOFTNORMALS
280
     1
  9
$LATITUDE
 40
37.795
  9
$LONGITUDE
 40
-122.394
  9
$NORTHDIRECTION
 40
0.0
  9
$TIMEZONE
 70
 -8000
  9
$LIGHTGLYPHDISPLAY
280
     1
  9
$TILEMODELIGHTSYNCH
280
     1
  9
$CMATERIAL
347
44
  9
$SOLIDHIST
280
     0
  9
$SHOWHIST
280
     1
  9
$DWFFRAME
280
     2
  9
$DGNFRAME
280
     2
  9
$REALWORLDSCALE
290
     1
  9
$INTERFERECOLOR
 62
   256
  9
$CSHADOW
280
     0
  9
$SHADOWPLANELOCATION
 40
0.0
  0
ENDSEC
  0
SECTION
  2
CLASSES
  0
CLASS
  1
ACDBDICTIONARYWDFLT
  2
AcDbDictionaryWithDefault
  3
ObjectDBX Classes
 90
        0
 91
        4
280
     0
281
     0
  0
CLASS
  1
VISUALSTYLE
  2
AcDbVisualStyle
  3
ObjectDBX Classes
 90
     4095
 91
        4
280
     0
281
     0
  0
CLASS
  1
MATERIAL
  2
AcDbMaterial
  3
ObjectDBX Classes
 90
     1153
 91
        4
280
     0
281
     0
  0
CLASS
  1
SCALE
  2
AcDbScale
  3
ObjectDBX Classes
 90
     1153
 91
        4
280
     0
281
     0
  0
CLASS
  1
TABLESTYLE
  2
AcDbTableStyle
  3
ObjectDBX Classes
 90
     4095
 91
        4
280
     0
281
     0
  0
CLASS
  1
MLEADERSTYLE
  2
AcDbMLeaderStyle
  3
ACDB_MLEADERSTYLE_CLASS
 90
     4095
 91
        4
280
     0
281
     0
  0
CLASS
  1
SUN
  2
AcDbSun
  3
SCENEOE
 90
     1153
 91
        4
280
     0
281
     0
  0
CLASS
  1
DICTIONARYVAR
  2
AcDbDictionaryVar
  3
ObjectDBX Classes
 90
        0
 91
        4
280
     0
281
     0
  0
CLASS
  1
CELLSTYLEMAP
  2
AcDbCellStyleMap
  3
ObjectDBX Classes
 90
     1152
 91
        4
280
     0
281
     0
  0
ENDSEC
  0
SECTION
  2
TABLES
  0
TABLE
  2
VPORT
  5
8
330
0
100
AcDbSymbolTable
 70
     1
  0
VPORT
  5
29
330
8
100
AcDbSymbolTableRecord
100
AcDbViewportTableRecord
  2
*Active
 70
     0
 10
0.0
 20
0.0
 11
1.0
 21
1.0
 12
10.42990654205607
 22
4.5
 13
0.0
 23
0.0
 14
0.5
 24
0.5
 15
0.5
 25
0.5
 16
0.0
 26
0.0
 36
1.0
 17
0.0
 27
0.0
 37
0.0
 40
9.0
 41
1.972972972850329
 42
50.0
 43
0.0
 44
0.0
 50
0.0
 51
0.0
 71
     0
 72
   100
 73
     1
 74
     3
 75
     0
 76
     0
 77
     0
 78
     0
281
     0
 65
     1
110
0.0
120
0.0
130
0.0
111
1.0
121
0.0
131
0.0
112
0.0
122
1.0
132
0.0
 79
     0
146
0.0
348
2F
 60
     3
 61
     5
292
     1
282
     1
141
0.0
142
0.0
 63
   250
361
6D
  0
ENDTAB
  0
TABLE
  2
LTYPE
  5
5
330
0
100
AcDbSymbolTable
 70
     1
  0
LTYPE
  5
14
330
5
100
AcDbSymbolTableRecord
100
AcDbLinetypeTableRecord
  2
ByBlock
 70
     0
  3

 72
    65
 73
     0
 40
0.0
  0
LTYPE
  5
15
330
5
100
AcDbSymbolTableRecord
100
AcDbLinetypeTableRecord
  2
ByLayer
 70
     0
  3

 72
    65
 73
     0
 40
0.0
  0
LTYPE
  5
16
330
5
100
AcDbSymbolTableRecord
100
AcDbLinetypeTableRecord
  2
Continuous
 70
     0
  3
Solid line
 72
    65
 73
     0
 40
0.0
  0
ENDTAB
  0
TABLE
  2
LAYER
  5
2
330
0
100
AcDbSymbolTable
 70
     2
  0
LAYER
  5
10
330
2
100
AcDbSymbolTableRecord
100
AcDbLayerTableRecord
  2
0
 70
     0
 62
     7
  6
Continuous
370
    -3
390
F
347
46
  0
LAYER
  5
6F
330
2
100
AcDbSymbolTableRecord
100
AcDbLayerTableRecord
  2
layer 1
 70
     0
 62
     7
  6
Continuous
370
    -3
390
F
347
46
  0
ENDTAB
  0
TABLE
  2
STYLE
  5
3
330
0
100
AcDbSymbolTable
 70
     1
  0
STYLE
  5
11
330
3
100
AcDbSymbolTableRecord
100
AcDbTextStyleTableRecord
  2
Standard
 70
     0
 40
0.0
 41
1.0
 50
0.0
 71
     0
 42
0.2
  3
txt
  4

  0
ENDTAB
  0
TABLE
  2
VIEW
  5
6
330
0
100
AcDbSymbolTable
 70
     0
  0
ENDTAB
  0
TABLE
  2
UCS
  5
7
330
0
100
AcDbSymbolTable
 70
     0
  0
ENDTAB
  0
TABLE
  2
APPID
  5
9
330
0
100
AcDbSymbolTable
 70
     3
  0
APPID
  5
12
330
9
100
AcDbSymbolTableRecord
100
AcDbRegAppTableRecord
  2
ACAD
 70
     0
  0
APPID
  5
6E
330
9
100
AcDbSymbolTableRecord
100
AcDbRegAppTableRecord
  2
ODA
 70
     0
  0
APPID
  5
BC
330
9
100
AcDbSymbolTableRecord
100
AcDbRegAppTableRecord
  2
ACAD_MLEADERVER
 70
     0
  0
ENDTAB
  0
TABLE
  2
DIMSTYLE
  5
A
330
0
100
AcDbSymbolTable
 70
     1
100
AcDbDimStyleTable
  0
DIMSTYLE
105
27
330
A
100
AcDbSymbolTableRecord
100
AcDbDimStyleTableRecord
  2
Standard
 70
     0
178
     0
340
11
  0
ENDTAB
  0
TABLE
  2
BLOCK_RECORD
  5
1
330
0
100
AcDbSymbolTable
 70
     1
  0
BLOCK_RECORD
  5
1F
330
1
100
AcDbSymbolTableRecord
100
AcDbBlockTableRecord
  2
*Model_Space
340
22
 70
     0
280
     1
281
     0
  0
BLOCK_RECORD
  5
1B
330
1
100
AcDbSymbolTableRecord
100
AcDbBlockTableRecord
  2
*Paper_Space
340
1E
 70
     0
280
     1
281
     0
  0
BLOCK_RECORD
  5
23
330
1
100
AcDbSymbolTableRecord
100
AcDbBlockTableRecord
  2
*Paper_Space0
340
26
 70
     0
280
     1
281
     0
  0
ENDTAB
  0
ENDSEC
  0
SECTION
  2
BLOCKS
  0
BLOCK
  5
20
330
1F
100
AcDbEntity
  8
0
100
AcDbBlockBegin
  2
*Model_Space
 70
     0
 10
0.0
 20
0.0
 30
0.0
  3
*Model_Space
  1

  0
ENDBLK
  5
21
330
1F
100
AcDbEntity
  8
0
100
AcDbBlockEnd
  0
BLOCK
  5
1C
330
1B
100
AcDbEntity
 67
     1
  8
0
100
AcDbBlockBegin
  2
*Paper_Space
 70
     0
 10
0.0
 20
0.0
 30
0.0
  3
*Paper_Space
  1

  0
ENDBLK
  5
1D
330
1B
100
AcDbEntity
 67
     1
  8
0
100
AcDbBlockEnd
  0
BLOCK
  5
24
330
23
100
AcDbEntity
  8
0
100
AcDbBlockBegin
  2
*Paper_Space0
 70
     0
 10
0.0
 20
0.0
 30
0.0
  3
*Paper_Space0
  1

  0
ENDBLK
  5
25
330
23
100
AcDbEntity
  8
0
100
AcDbBlockEnd
  0
ENDSEC
  0
SECTION
  2
ENTITIES
  0
SPLINE
  5
70
330
1F
100
AcDbEntity
  8
layer 1
 62
   250
370
     9
100
AcDbSpline
210
0.0
220
0.0
230
1.0
 70
    11
 71
     3
 72
    24
 73
    20
 74
     0
 42
0.000000001
 43
0.0000000001
 40
0.0
 40
0.0
 40
0.0
 40
0.0
 40
0.1666666666666667
 40
0.1666666666666667
 40
0.1666666666666667
 40
0.1666666666666667
 40
0.3333333333333333
 40
0.3333333333333333
 40
0.3333333333333333
 40
0.3333333333333333
 40
0.5
 40
0.5
 40
0.5
 40
0.5
 40
0.6666666666666666
 40
0.6666666666666666
 40
0.6666666666666666
 40
0.6666666666666666
 40
1.0
 40
1.0
 40
1.0
 40
1.0
 10
104.7179
 20
-203.7228
 30
0.0
 10
102.6027
 20
-200.5238
 30
0.0
 10
101.665
 20
-200.092
 30
0.0
 10
99.6588
 20
-196.7142
 30
0.0
 10
99.6588
 20
-196.7142
 30
0.0
 10
96.2557
 20
-190.9856
 30
0.0
 10
98.0494
 20
-196.1437
 30
0.0
 10
97.7217
 20
-190.7776
 30
0.0
 10
97.7217
 20
-190.7776
 30
0.0
 10
106.1379
 20
-188.9873
 30
0.0
 10
123.5373
 20
-188.1323
 30
0.0
 10
130.7708
 20
-191.7563
 30
0.0
 10
130.7708
 20
-191.7563
 30
0.0
 10
130.7708
 20
-191.7563
 30
0.0
 10
133.0608
 20
-193.8075
 30
0.0
 10
133.0608
 20
-193.8075
 30
0.0
 10
133.0608
 20
-193.8075
 30
0.0
 10
127.8044
 20
-197.7705
 30
0.0
 10
111.9879
 20
-202.9229
 30
0.0
 10
104.7179
 20
-203.7228
 30
0.0
  0
SPLINE
  5
71
330
1F
100
AcDbEntity
  8
layer 1
 62
   250
370
     9
100
AcDbSpline
210
0.0
220
0.0
230
1.0
 70
    11
 71
     3
 72
    16
 73
    12
 74
     0
 42
0.000000001
 43
0.0000000001
 40
0.0
 40
0.0
 40
0.0
 40
0.0
 40
0.25
 40
0.25
 40
0.25
 40
0.25
 40
0.5
 40
0.5
 40
0.5
 40
0.5
 40
1.0
 40
1.0
 40
1.0
 40
1.0
 10
163.4431
 20
-115.0346
 30
0.0
 10
157.4014
 20
-128.0433
 30
0.0
 10
101.8466
 20
-182.366
 30
0.0
 10
121.4502
 20
-145.218
 30
0.0
 10
121.4502
 20
-145.218
 30
0.0
 10
127.0304
 20
-134.6438
 30
0.0
 10
137.9676
 20
-112.4809
 30
0.0
 10
146.3619
 20
-106.6809
 30
0.0
 10
146.3619
 20
-106.6809
 30
0.0
 10
153.5171
 20
-108.0902
 30
0.0
 10
158.7713
 20
-111.1037
 30
0.0
 10
163.4431
 20
-115.0346
 30
0.0
  0
SPLINE
  5
72
330
1F
100
AcDbEntity
  8
layer 1
 62
   250
370
     9
100
AcDbSpline
210
0.0
220
0.0
230
1.0
 70
    11
 71
     3
 72
    32
 73
    28
 74
     0
 42
0.000000001
 43
0.0000000001
 40
0.0
 40
0.0
 40
0.0
 40
0.0
 40
0.125
 40
0.125
 40
0.125
 40
0.125
 40
0.25
 40
0.25
 40
0.25
 40
0.25
 40
0.375
 40
0.375
 40
0.375
 40
0.375
 40
0.5
 40
0.5
 40
0.5
 40
0.5
 40
0.625
 40
0.625
 40
0.625
 40
0.625
 40
0.75
 40
0.75
 40
0.75
 40
0.75
 40
1.0
 40
1.0
 40
1.0
 40
1.0
 10
27.3785
 20
-173.9768
 30
0.0
 10
-1.4681
 20
-173.9768
 30
0.0
 10
51.4605
 20
-114.1161
 30
0.0
 10
52.2126
 20
-113.545
 30
0.0
 10
52.2126
 20
-113.545
 30
0.0
 10
59.1487
 20
-108.2751
 30
0.0
 10
80.9777
 20
-97.792
 30
0.0
 10
90.6895
 20
-98.4728
 30
0.0
 10
90.6895
 20
-98.4728
 30
0.0
 10
102.1884
 20
-99.2788
 30
0.0
 10
128.077
 20
-101.8326
 30
0.0
 10
136.4465
 20
-104.5701
 30
0.0
 10
136.4465
 20
-104.5701
 30
0.0
 10
135.546
 20
-111.6883
 30
0.0
 10
124.5683
 20
-124.9202
 30
0.0
 10
120.0049
 20
-131.8478
 30
0.0
 10
120.0049
 20
-131.8478
 30
0.0
 10
116.6772
 20
-136.9008
 30
0.0
 10
114.6518
 20
-139.9829
 30
0.0
 10
111.9412
 20
-145.5013
 30
0.0
 10
111.9412
 20
-145.5013
 30
0.0
 10
103.4768
 20
-162.7349
 30
0.0
 10
108.5376
 20
-162.2453
 30
0.0
 10
90.961
 20
-166.2695
 30
0.0
 10
90.961
 20
-166.2695
 30
0.0
 10
66.2517
 20
-171.9268
 30
0.0
 10
54.7433
 20
-173.9768
 30
0.0
 10
27.3785
 20
-173.9768
 30
0.0
  0
SPLINE
  5
73
330
1F
100
AcDbEntity
  8
layer 1
 62
   250
370
     9
100
AcDbSpline
210
0.0
220
0.0
230
1.0
 70
    11
 71
     3
 72
    20
 73
    16
 74
     0
 42
0.000000001
 43
0.0000000001
 40
0.0
 40
0.0
 40
0.0
 40
0.0
 40
0.2
 40
0.2
 40
0.2
 40
0.2
 40
0.4
 40
0.4
 40
0.4
 40
0.4
 40
0.6
 40
0.6
 40
0.6
 40
0.6
 40
1.0
 40
1.0
 40
1.0
 40
1.0
 10
-2.6896
 20
-73.1411
 30
0.0
 10
-1.2348
 20
-80.786
 30
0.0
 10
0.3454
 20
-121.372
 30
0.0
 10
-2.3669
 20
-126.3761
 30
0.0
 10
-2.3669
 20
-126.3761
 30
0.0
 10
-11.4261
 20
-125.4385
 30
0.0
 10
-12.3418
 20
-117.169
 30
0.0
 10
-15.3318
 20
-109.5927
 30
0.0
 10
-15.3318
 20
-109.5927
 30
0.0
 10
-15.3318
 20
-109.5927
 30
0.0
 10
-39.9242
 20
-51.1491
 30
0.0
 10
-39.9242
 20
-51.1491
 30
0.0
 10
-39.9242
 20
-51.1491
 30
0.0
 10
-21.4775
 20
-50.3127
 30
0.0
 10
-4.5271
 20
-63.481
 30
0.0
 10
-2.6896
 20
-73.1411
 30
0.0
  0
SPLINE
  5
74
330
1F
100
AcDbEntity
  8
layer 1
 62
   250
370
     9
100
AcDbSpline
210
0.0
220
0.0
230
1.0
 70
    11
 71
     3
 72
    24
 73
    20
 74
     0
 42
0.000000001
 43
0.0000000001
 40
0.0
 40
0.0
 40
0.0
 40
0.0
 40
0.1666666666666667
 40
0.1666666666666667
 40
0.1666666666666667
 40
0.1666666666666667
 40
0.3333333333333333
 40
0.3333333333333333
 40
0.3333333333333333
 40
0.3333333333333333
 40
0.5
 40
0.5
 40
0.5
 40
0.5
 40
0.6666666666666666
 40
0.6666666666666666
 40
0.6666666666666666
 40
0.6666666666666666
 40
1.0
 40
1.0
 40
1.0
 40
1.0
 10
-86.5063
 20
-69.6835
 30
0.0
 10
-107.5624
 20
-56.7108
 30
0.0
 10
-120.0933
 20
-43.5486
 30
0.0
 10
-130.4578
 20
-22.3807
 30
0.0
 10
-130.4578
 20
-22.3807
 30
0.0
 10
-143.1792
 20
3.6007
 30
0.0
 10
-142.4108
 20
2.9734
 30
0.0
 10
-132.7484
 20
5.024
 30
0.0
 10
-132.7484
 20
5.024
 30
0.0
 10
-115.5733
 20
8.6683
 30
0.0
 10
-110.2859
 20
3.481
 30
0.0
 10
-99.9552
 20
-3.8384
 30
0.0
 10
-99.9552
 20
-3.8384
 30
0.0
 10
-88.8324
 20
-11.7189
 30
0.0
 10
-80.495
 20
-13.6143
 30
0.0
 10
-73.6421
 20
-23.1598
 30
0.0
 10
-73.6421
 20
-23.1598
 30
0.0
 10
-52.59
 20
-52.4808
 30
0.0
 10
-26.717
 20
-106.519
 30
0.0
 10
-86.5063
 20
-69.6835
 30
0.0
  0
SPLINE
  5
75
330
1F
100
AcDbEntity
  8
layer 1
 62
   250
370
     9
100
AcDbSpline
210
0.0
220
0.0
230
1.0
 70
    11
 71
     3
 72
    24
 73
    20
 74
     0
 42
0.000000001
 43
0.0000000001
 40
0.0
 40
0.0
 40
0.0
 40
0.0
 40
0.1666666666666667
 40
0.1666666666666667
 40
0.1666666666666667
 40
0.1666666666666667
 40
0.3333333333333333
 40
0.3333333333333333
 40
0.3333333333333333
 40
0.3333333333333333
 40
0.5
 40
0.5
 40
0.5
 40
0.5
 40
0.6666666666666666
 40
0.6666666666666666
 40
0.6666666666666666
 40
0.6666666666666666
 40
1.0
 40
1.0
 40
1.0
 40
1.0
 10
-75.74
 20
22.3156
 30
0.0
 10
-68.5245
 20
18.5173
 30
0.0
 10
-48.1267
 20
-7.4102
 30
0.0
 10
-42.9906
 20
-22.2536
 30
0.0
 10
-42.9906
 20
-22.2536
 30
0.0
 10
-40.19
 20
-30.346
 30
0.0
 10
-36.8949
 20
-33.3584
 30
0.0
 10
-36.0792
 20
-41.1124
 30
0.0
 10
-36.0792
 20
-41.1124
 30
0.0
 10
-51.6197
 20
-40.1596
 30
0.0
 10
-55.3011
 20
-24.8394
 30
0.0
 10
-62.9364
 20
-12.507
 30
0.0
 10
-62.9364
 20
-12.507
 30
0.0
 10
-67.2744
 20
-5.5012
 30
0.0
 10
-71.3475
 20
-4.418
 30
0.0
 10
-75.6607
 20
2.6496
 30
0.0
 10
-75.6607
 20
2.6496
 30
0.0
 10
-79.93
 20
9.6453
 30
0.0
 10
-79.4326
 20
16.3576
 30
0.0
 10
-75.74
 20
22.3156
 30
0.0
  0
SPLINE
  5
76
330
1F
100
AcDbEntity
  8
layer 1
 62
   250
370
     9
100
AcDbSpline
210
0.0
220
0.0
230
1.0
 70
    11
 71
     3
 72
    12
 73
     8
 74
     0
 42
0.000000001
 43
0.0000000001
 40
0.0
 40
0.0
 40
0.0
 40
0.0
 40
0.3333333333333333
 40
0.3333333333333333
 40
0.3333333333333333
 40
0.3333333333333333
 40
1.0
 40
1.0
 40
1.0
 40
1.0
 10
-135.5653
 20
19.6792
 30
0.0
 10
-135.5653
 20
19.6792
 30
0.0
 10
-143.1641
 20
15.7179
 30
0.0
 10
-143.1641
 20
15.7179
 30
0.0
 10
-143.1641
 20
15.7179
 30
0.0
 10
-152.5313
 20
25.6293
 30
0.0
 10
-146.8645
 20
29.4276
 30
0.0
 10
-135.5653
 20
19.6792
 30
0.0
  0
SPLINE
  5
77
330
1F
100
AcDbEntity
  8
layer 1
 62
   250
370
     9
100
AcDbSpline
210
0.0
220
0.0
230
1.0
 70
    11
 71
     3
 72
    24
 73
    20
 74
     0
 42
0.000000001
 43
0.0000000001
 40
0.0
 40
0.0
 40
0.0
 40
0.0
 40
0.1666666666666667
 40
0.1666666666666667
 40
0.1666666666666667
 40
0.1666666666666667
 40
0.3333333333333333
 40
0.3333333333333333
 40
0.3333333333333333
 40
0.3333333333333333
 40
0.5
 40
0.5
 40
0.5
 40
0.5
 40
0.6666666666666666
 40
0.6666666666666666
 40
0.6666666666666666
 40
0.6666666666666666
 40
1.0
 40
1.0
 40
1.0
 40
1.0
 10
-146.1939
 20
37.163
 30
0.0
 10
-145.1675
 20
46.4892
 30
0.0
 10
-140.5266
 20
50.69
 30
0.0
 10
-140.3473
 20
63.9898
 30
0.0
 10
-140.3473
 20
63.9898
 30
0.0
 10
-140.1623
 20
77.6843
 30
0.0
 10
-144.2338
 20
84.671
 30
0.0
 10
-129.7214
 20
77.6186
 30
0.0
 10
-129.7214
 20
77.6186
 30
0.0
 10
-87.9302
 20
57.3095
 30
0.0
 10
-86.7868
 20
57.2123
 30
0.0
 10
-86.8043
 20
20.0721
 30
0.0
 10
-86.8043
 20
20.0721
 30
0.0
 10
-86.8127
 20
3.2854
 30
0.0
 10
-92.4795
 20
10.3732
 30
0.0
 10
-103.7287
 20
14.1288
 30
0.0
 10
-103.7287
 20
14.1288
 30
0.0
 10
-115.0218
 20
17.8995
 30
0.0
 10
-139.1291
 20
29.2674
 30
0.0
 10
-146.1939
 20
37.163
 30
0.0
  0
SPLINE
  5
78
330
1F
100
AcDbEntity
  8
layer 1
 62
   250
370
     9
100
AcDbSpline
210
0.0
220
0.0
230
1.0
 70
    11
 71
     3
 72
    16
 73
    12
 74
     0
 42
0.000000001
 43
0.0000000001
 40
0.0
 40
0.0
 40
0.0
 40
0.0
 40
0.25
 40
0.25
 40
0.25
 40
0.25
 40
0.5
 40
0.5
 40
0.5
 40
0.5
 40
1.0
 40
1.0
 40
1.0
 40
1.0
 10
-123.5914
 20
86.0606
 30
0.0
 10
-131.2712
 20
86.8037
 30
0.0
 10
-133.7333
 20
88.3596
 30
0.0
 10
-136.753
 20
93.6678
 30
0.0
 10
-136.753
 20
93.6678
 30
0.0
 10
-134.8553
 20
97.3216
 30
0.0
 10
-134.6793
 20
95.9725
 30
0.0
 10
-131.2656
 20
97.701
 30
0.0
 10
-131.2656
 20
97.701
 30
0.0
 10
-126.411
 20
94.2979
 30
0.0
 10
-125.1822
 20
92.5694
 30
0.0
 10
-123.5914
 20
86.0606
 30
0.0
  0
SPLINE
  5
79
330
1F
100
AcDbEntity
  8
layer 1
 62
   250
370
     9
100
AcDbSpline
210
0.0
220
0.0
230
1.0
 70
    11
 71
     3
 72
   108
 73
   104
 74
     0
 42
0.000000001
 43
0.0000000001
 40
0.0
 40
0.0
 40
0.0
 40
0.0
 40
0.037037037037037
 40
0.037037037037037
 40
0.037037037037037
 40
0.037037037037037
 40
0.0740740740740741
 40
0.0740740740740741
 40
0.0740740740740741
 40
0.0740740740740741
 40
0.1111111111111111
 40
0.1111111111111111
 40
0.1111111111111111
 40
0.1111111111111111
 40
0.1481481481481481
 40
0.1481481481481481
 40
0.1481481481481481
 40
0.1481481481481481
 40
0.1851851851851852
 40
0.1851851851851852
 40
0.1851851851851852
 40
0.1851851851851852
 40
0.2222222222222222
 40
0.2222222222222222
 40
0.2222222222222222
 40
0.2222222222222222
 40
0.2592592592592592
 40
0.2592592592592592
 40
0.2592592592592592
 40
0.2592592592592592
 40
0.2962962962962963
 40
0.2962962962962963
 40
0.2962962962962963
 40
0.2962962962962963
 40
0.3333333333333333
 40
0.3333333333333333
 40
0.3333333333333333
 40
0.3333333333333333
 40
0.3703703703703703
 40
0.3703703703703703
 40
0.3703703703703703
 40
0.3703703703703703
 40
0.4074074074074074
 40
0.4074074074074074
 40
0.4074074074074074
 40
0.4074074074074074
 40
0.4444444444444444
 40
0.4444444444444444
 40
0.4444444444444444
 40
0.4444444444444444
 40
0.4814814814814815
 40
0.4814814814814815
 40
0.4814814814814815
 40
0.4814814814814815
 40
0.5185185185185185
 40
0.5185185185185185
 40
0.5185185185185185
 40
0.5185185185185185
 40
0.5555555555555556
 40
0.5555555555555556
 40
0.5555555555555556
 40
0.5555555555555556
 40
0.5925925925925926
 40
0.5925925925925926
 40
0.5925925925925926
 40
0.5925925925925926
 40
0.6296296296296297
 40
0.6296296296296297
 40
0.6296296296296297
 40
0.6296296296296297
 40
0.6666666666666666
 40
0.6666666666666666
 40
0.6666666666666666
 40
0.6666666666666666
 40
0.7037037037037037
 40
0.7037037037037037
 40
0.7037037037037037
 40
0.7037037037037037
 40
0.7407407407407407
 40
0.7407407407407407
 40
0.7407407407407407
 40
0.7407407407407407
 40
0.7777777777777778
 40
0.7777777777777778
 40
0.7777777777777778
 40
0.7777777777777778
 40
0.8148148148148148
 40
0.8148148148148148
 40
0.8148148148148148
 40
0.8148148148148148
 40
0.8518518518518519
 40
0.8518518518518519
 40
0.8518518518518519
 40
0.8518518518518519
 40
0.8888888888888888
 40
0.8888888888888888
 40
0.8888888888888888
 40
0.8888888888888888
 40
0.9259259259259259
 40
0.9259259259259259
 40
0.9259259259259259
 40
0.9259259259259259
 40
1.0
 40
1.0
 40
1.0
 40
1.0
 10
17.7881
 20
-114.1605
 30
0.0
 10
10.4462
 20
-100.5093
 30
0.0
 10
17.9146
 20
-85.6557
 30
0.0
 10
18.4188
 20
-70.95
 30
0.0
 10
18.4188
 20
-70.95
 30
0.0
 10
18.9731
 20
-54.7906
 30
0.0
 10
18.6481
 20
-44.8426
 30
0.0
 10
20.7123
 20
-28.4589
 30
0.0
 10
20.7123
 20
-28.4589
 30
0.0
 10
24.9799
 20
5.4175
 30
0.0
 10
36.2067
 20
52.0452
 30
0.0
 10
66.5525
 20
66.5351
 30
0.0
 10
66.5525
 20
66.5351
 30
0.0
 10
109.5612
 20
87.0701
 30
0.0
 10
134.293
 20
122.8044
 30
0.0
 10
144.3787
 20
127.3824
 30
0.0
 10
144.3787
 20
127.3824
 30
0.0
 10
146.3163
 20
124.3885
 30
0.0
 10
146.1505
 20
125.8815
 30
0.0
 10
147.4912
 20
120.4536
 30
0.0
 10
147.4912
 20
120.4536
 30
0.0
 10
149.2709
 20
113.2506
 30
0.0
 10
146.9184
 20
102.2919
 30
0.0
 10
144.3787
 20
95.7179
 30
0.0
 10
144.3787
 20
95.7179
 30
0.0
 10
133.3155
 20
99.4914
 30
0.0
 10
141.2021
 20
97.7466
 30
0.0
 10
134.4634
 20
109.9436
 30
0.0
 10
134.4634
 20
109.9436
 30
0.0
 10
133.5252
 20
108.5203
 30
0.0
 10
133.3768
 20
109.3966
 30
0.0
 10
132.6904
 20
105.2774
 30
0.0
 10
132.6904
 20
105.2774
 30
0.0
 10
130.6471
 20
93.0084
 30
0.0
 10
141.7193
 20
92.2496
 30
0.0
 10
144.8183
 20
78.3527
 30
0.0
 10
144.8183
 20
78.3527
 30
0.0
 10
145.7216
 20
74.3009
 30
0.0
 10
148.4175
 20
40.7685
 30
0.0
 10
148.345
 20
36.2265
 30
0.0
 10
148.345
 20
36.2265
 30
0.0
 10
143.911
 20
37.9202
 30
0.0
 10
145.6182
 20
37.3743
 30
0.0
 10
142.8373
 20
40.606
 30
0.0
 10
142.8373
 20
40.606
 30
0.0
 10
119.6879
 20
67.5076
 30
0.0
 10
136.5342
 20
70.8348
 30
0.0
 10
128.5734
 20
87.7857
 30
0.0
 10
128.5734
 20
87.7857
 30
0.0
 10
123.7863
 20
85.7497
 30
0.0
 10
124.0179
 20
85.6575
 30
0.0
 10
122.2225
 20
76.1953
 30
0.0
 10
122.2225
 20
76.1953
 30
0.0
 10
118.9785
 20
59.0999
 30
0.0
 10
121.0578
 20
55.5748
 30
0.0
 10
131.2907
 20
38.9753
 30
0.0
 10
131.2907
 20
38.9753
 30
0.0
 10
141.9756
 20
21.6421
 30
0.0
 10
143.2769
 20
11.5587
 30
0.0
 10
132.8113
 20
-9.6272
 30
0.0
 10
132.8113
 20
-9.6272
 30
0.0
 10
128.4109
 20
-18.5341
 30
0.0
 10
110.4859
 20
-34.1937
 30
0.0
 10
102.6358
 20
-45.081
 30
0.0
 10
102.6358
 20
-45.081
 30
0.0
 10
94.9336
 20
-55.7625
 30
0.0
 10
82.1807
 20
-73.2598
 30
0.0
 10
67.4316
 20
-74.6488
 30
0.0
 10
67.4316
 20
-74.6488
 30
0.0
 10
68.3406
 20
-53.5814
 30
0.0
 10
81.1115
 20
-41.2855
 30
0.0
 10
74.4756
 20
-19.5774
 30
0.0
 10
74.4756
 20
-19.5774
 30
0.0
 10
66.4164
 20
6.7897
 30
0.0
 10
99.679
 20
-5.8323
 30
0.0
 10
97.082
 20
22.7141
 30
0.0
 10
97.082
 20
22.7141
 30
0.0
 10
83.8311
 20
20.9906
 30
0.0
 10
83.1588
 20
5.0263
 30
0.0
 10
67.6098
 20
5.2438
 30
0.0
 10
67.6098
 20
5.2438
 30
0.0
 10
64.8087
 20
40.5593
 30
0.0
 10
77.6016
 20
48.4291
 30
0.0
 10
71.0056
 20
58.6901
 30
0.0
 10
71.0056
 20
58.6901
 30
0.0
 10
63.3135
 20
55.4129
 30
0.0
 10
62.5557
 20
51.6338
 30
0.0
 10
60.6625
 20
42.5774
 30
0.0
 10
60.6625
 20
42.5774
 30
0.0
 10
56.1172
 20
20.8327
 30
0.0
 10
55.6242
 20
-0.4393
 30
0.0
 10
62.3483
 20
-22.0102
 30
0.0
 10
62.3483
 20
-22.0102
 30
0.0
 10
72.2783
 20
-53.8636
 30
0.0
 10
55.4449
 20
-58.1616
 30
0.0
 10
48.4222
 20
-74.4413
 30
0.0
 10
48.4222
 20
-74.4413
 30
0.0
 10
45.4975
 20
-81.2211
 30
0.0
 10
46.7797
 20
-85.21
 30
0.0
 10
42.6121
 20
-92.0353
 30
0.0
 10
42.6121
 20
-92.0353
 30
0.0
 10
38.6986
 20
-98.4441
 30
0.0
 10
25.3498
 20
-112.9227
 30
0.0
 10
17.7881
 20
-114.1605
 30
0.0
  0
SPLINE
  5
7A
330
1F
100
AcDbEntity
  8
layer 1
 62
   250
370
     9
100
AcDbSpline
210
0.0
220
0.0
230
1.0
 70
    11
 71
     3
 72
   120
 73
   116
 74
     0
 42
0.000000001
 43
0.0000000001
 40
0.0
 40
0.0
 40
0.0
 40
0.0
 40
0.0333333333333333
 40
0.0333333333333333
 40
0.0333333333333333
 40
0.0333333333333333
 40
0.0666666666666667
 40
0.0666666666666667
 40
0.0666666666666667
 40
0.0666666666666667
 40
0.1
 40
0.1
 40
0.1
 40
0.1
 40
0.1333333333333333
 40
0.1333333333333333
 40
0.1333333333333333
 40
0.1333333333333333
 40
0.1666666666666667
 40
0.1666666666666667
 40
0.1666666666666667
 40
0.1666666666666667
 40
0.2
 40
0.2
 40
0.2
 40
0.2
 40
0.2333333333333333
 40
0.2333333333333333
 40
0.2333333333333333
 40
0.2333333333333333
 40
0.2666666666666667
 40
0.2666666666666667
 40
0.2666666666666667
 40
0.2666666666666667
 40
0.3
 40
0.3
 40
0.3
 40
0.3
 40
0.3333333333333333
 40
0.3333333333333333
 40
0.3333333333333333
 40
0.3333333333333333
 40
0.3666666666666666
 40
0.3666666666666666
 40
0.3666666666666666
 40
0.3666666666666666
 40
0.4
 40
0.4
 40
0.4
 40
0.4
 40
0.4333333333333333
 40
0.4333333333333333
 40
0.4333333333333333
 40
0.4333333333333333
 40
0.4666666666666667
 40
0.4666666666666667
 40
0.4666666666666667
 40
0.4666666666666667
 40
0.5
 40
0.5
 40
0.5
 40
0.5
 40
0.5333333333333333
 40
0.5333333333333333
 40
0.5333333333333333
 40
0.5333333333333333
 40
0.5666666666666667
 40
0.5666666666666667
 40
0.5666666666666667
 40
0.5666666666666667
 40
0.6
 40
0.6
 40
0.6
 40
0.6
 40
0.6333333333333333
 40
0.6333333333333333
 40
0.6333333333333333
 40
0.6333333333333333
 40
0.6666666666666666
 40
0.6666666666666666
 40
0.6666666666666666
 40
0.6666666666666666
 40
0.7
 40
0.7
 40
0.7
 40
0.7
 40
0.7333333333333333
 40
0.7333333333333333
 40
0.7333333333333333
 40
0.7333333333333333
 40
0.7666666666666667
 40
0.7666666666666667
 40
0.7666666666666667
 40
0.7666666666666667
 40
0.8
 40
0.8
 40
0.8
 40
0.8
 40
0.8333333333333334
 40
0.8333333333333334
 40
0.8333333333333334
 40
0.8333333333333334
 40
0.8666666666666667
 40
0.8666666666666667
 40
0.8666666666666667
 40
0.8666666666666667
 40
0.9
 40
0.9
 40
0.9
 40
0.9
 40
0.9333333333333333
 40
0.9333333333333333
 40
0.9333333333333333
 40
0.9333333333333333
 40
1.0
 40
1.0
 40
1.0
 40
1.0
 10
-103.5028
 20
135.699
 30
0.0
 10
-101.4139
 20
127.6528
 30
0.0
 10
-99.0406
 20
130.4268
 30
0.0
 10
-93.0315
 20
121.9882
 30
0.0
 10
-93.0315
 20
121.9882
 30
0.0
 10
-84.7283
 20
110.3275
 30
0.0
 10
-77.8811
 20
80.432
 30
0.0
 10
-83.6721
 20
65.9725
 30
0.0
 10
-83.6721
 20
65.9725
 30
0.0
 10
-93.2968
 20
66.837
 30
0.0
 10
-93.3041
 20
72.2126
 30
0.0
 10
-98.4442
 20
78.989
 30
0.0
 10
-98.4442
 20
78.989
 30
0.0
 10
-116.349
 20
102.5938
 30
0.0
 10
-116.7903
 20
93.0405
 30
0.0
 10
-119.4941
 20
109.4236
 30
0.0
 10
-119.4941
 20
109.4236
 30
0.0
 10
-121.1186
 20
119.2675
 30
0.0
 10
-121.3002
 20
122.3783
 30
0.0
 10
-129.2824
 20
125.4638
 30
0.0
 10
-129.2824
 20
125.4638
 30
0.0
 10
-129.2824
 20
125.4638
 30
0.0
 10
-132.5185
 20
115.6699
 30
0.0
 10
-132.5185
 20
115.6699
 30
0.0
 10
-132.5185
 20
115.6699
 30
0.0
 10
-154.935
 20
127.2514
 30
0.0
 10
-133.6568
 20
140.0426
 30
0.0
 10
-141.1809
 20
153.09
 30
0.0
 10
-141.1809
 20
153.09
 30
0.0
 10
-150.7797
 20
148.8404
 30
0.0
 10
-143.2141
 20
145.8538
 30
0.0
 10
-151.429
 20
137.8885
 30
0.0
 10
-151.429
 20
137.8885
 30
0.0
 10
-159.3083
 20
148.5638
 30
0.0
 10
-150.9354
 20
151.4655
 30
0.0
 10
-161.1161
 20
175.2513
 30
0.0
 10
-161.1161
 20
175.2513
 30
0.0
 10
-163.8491
 20
181.6359
 30
0.0
 10
-158.645
 20
190.183
 30
0.0
 10
-158.4943
 20
214.1672
 30
0.0
 10
-158.4943
 20
214.1672
 30
0.0
 10
-150.2508
 20
212.0221
 30
0.0
 10
-139.5895
 20
200.0196
 30
0.0
 10
-131.8743
 20
194.2994
 30
0.0
 10
-131.8743
 20
194.2994
 30
0.0
 10
-121.624
 20
186.6995
 30
0.0
 10
-111.2781
 20
185.2475
 30
0.0
 10
-101.641
 20
177.7533
 30
0.0
 10
-101.641
 20
177.7533
 30
0.0
 10
-107.7721
 20
170.476
 30
0.0
 10
-111.802
 20
177.2333
 30
0.0
 10
-115.2
 20
167.1078
 30
0.0
 10
-115.2
 20
167.1078
 30
0.0
 10
-108.2061
 20
162.0711
 30
0.0
 10
-99.1547
 20
167.1718
 30
0.0
 10
-88.0595
 20
162.676
 30
0.0
 10
-88.0595
 20
162.676
 30
0.0
 10
-73.0097
 20
156.578
 30
0.0
 10
-35.9134
 20
135.744
 30
0.0
 10
-29.2725
 20
126.3233
 30
0.0
 10
-29.2725
 20
126.3233
 30
0.0
 10
-24.975
 20
120.2271
 30
0.0
 10
-7.6093
 20
31.562
 30
0.0
 10
-9.3429
 20
23.3718
 30
0.0
 10
-9.3429
 20
23.3718
 30
0.0
 10
-19.9288
 20
25.6911
 30
0.0
 10
-8.6998
 20
28.3303
 30
0.0
 10
-18.8726
 20
29.6423
 30
0.0
 10
-18.8726
 20
29.6423
 30
0.0
 10
-35.9842
 20
31.8498
 30
0.0
 10
-5.0151
 20
4.3405
 30
0.0
 10
-4.3304
 20
-29.1605
 30
0.0
 10
-4.3304
 20
-29.1605
 30
0.0
 10
-4.1488
 20
-38.028
 30
0.0
 10
-0.9925
 20
-50.4527
 30
0.0
 10
-6.3333
 20
-55.9901
 30
0.0
 10
-6.3333
 20
-55.9901
 30
0.0
 10
-31.2135
 20
-43.4446
 30
0.0
 10
-35.9033
 20
12.0725
 30
0.0
 10
-37.5284
 20
16.5819
 30
0.0
 10
-37.5284
 20
16.5819
 30
0.0
 10
-47.7641
 20
14.3098
 30
0.0
 10
-42.0108
 20
14.1957
 30
0.0
 10
-45.9946
 20
4.4979
 30
0.0
 10
-45.9946
 20
4.4979
 30
0.0
 10
-52.2853
 20
6.5019
 30
0.0
 10
-50.1548
 20
5.7441
 30
0.0
 10
-54.703
 20
11.6717
 30
0.0
 10
-54.703
 20
11.6717
 30
0.0
 10
-62.607
 20
21.9732
 30
0.0
 10
-70.6117
 20
28.4011
 30
0.0
 10
-75.2009
 20
36.2265
 30
0.0
 10
-75.2009
 20
36.2265
 30
0.0
 10
-61.4895
 20
62.8021
 30
0.0
 10
-31.096
 20
54.9846
 30
0.0
 10
-25.7018
 20
72.316
 30
0.0
 10
-25.7018
 20
72.316
 30
0.0
 10
-37.5734
 20
69.4262
 30
0.0
 10
-44.9985
 20
63.7644
 30
0.0
 10
-56.1443
 20
61.2557
 30
0.0
 10
-56.1443
 20
61.2557
 30
0.0
 10
-52.1077
 20
76.2279
 30
0.0
 10
-33.5407
 20
81.097
 30
0.0
 10
-33.1573
 20
92.6903
 30
0.0
 10
-33.1573
 20
92.6903
 30
0.0
 10
-40.9388
 20
93.8904
 30
0.0
 10
-44.3959
 20
86.0898
 30
0.0
 10
-53.6321
 20
75.6697
 30
0.0
 10
-53.6321
 20
75.6697
 30
0.0
 10
-58.508
 20
70.1698
 30
0.0
 10
-68.5234
 20
57.59
 30
0.0
 10
-73.7804
 20
55.6546
 30
0.0
 10
-73.7804
 20
55.6546
 30
0.0
 10
-75.1509
 20
65.1799
 30
0.0
 10
-59.5957
 20
131.8794
 30
0.0
 10
-103.5028
 20
135.699
 30
0.0
  0
SPLINE
  5
7B
330
1F
100
AcDbEntity
  8
layer 1
 62
   250
370
     9
100
AcDbSpline
210
0.0
220
0.0
230
1.0
 70
    11
 71
     3
 72
   604
 73
   600
 74
     0
 42
0.000000001
 43
0.0000000001
 40
0.0
 40
0.0
 40
0.0
 40
0.0
 40
0.0066225165562914
 40
0.0066225165562914
 40
0.0066225165562914
 40
0.0066225165562914
 40
0.0132450331125828
 40
0.0132450331125828
 40
0.0132450331125828
 40
0.0132450331125828
 40
0.0198675496688742
 40
0.0198675496688742
 40
0.0198675496688742
 40
0.0198675496688742
 40
0.0264900662251656
 40
0.0264900662251656
 40
0.0264900662251656
 40
0.0264900662251656
 40
0.033112582781457
 40
0.033112582781457
 40
0.033112582781457
 40
0.033112582781457
 40
0.0397350993377483
 40
0.0397350993377483
 40
0.0397350993377483
 40
0.0397350993377483
 40
0.0463576158940397
 40
0.0463576158940397
 40
0.0463576158940397
 40
0.0463576158940397
 40
0.0529801324503311
 40
0.0529801324503311
 40
0.0529801324503311
 40
0.0529801324503311
 40
0.0596026490066225
 40
0.0596026490066225
 40
0.0596026490066225
 40
0.0596026490066225
 40
0.0662251655629139
 40
0.0662251655629139
 40
0.0662251655629139
 40
0.0662251655629139
 40
0.0728476821192053
 40
0.0728476821192053
 40
0.0728476821192053
 40
0.0728476821192053
 40
0.0794701986754967
 40
0.0794701986754967
 40
0.0794701986754967
 40
0.0794701986754967
 40
0.0860927152317881
 40
0.0860927152317881
 40
0.0860927152317881
 40
0.0860927152317881
 40
0.0927152317880795
 40
0.0927152317880795
 40
0.0927152317880795
 40
0.0927152317880795
 40
0.0993377483443709
 40
0.0993377483443709
 40
0.0993377483443709
 40
0.0993377483443709
 40
0.1059602649006623
 40
0.1059602649006623
 40
0.1059602649006623
 40
0.1059602649006623
 40
0.1125827814569536
 40
0.1125827814569536
 40
0.1125827814569536
 40
0.1125827814569536
 40
0.119205298013245
 40
0.119205298013245
 40
0.119205298013245
 40
0.119205298013245
 40
0.1258278145695364
 40
0.1258278145695364
 40
0.1258278145695364
 40
0.1258278145695364
 40
0.1324503311258278
 40
0.1324503311258278
 40
0.1324503311258278
 40
0.1324503311258278
 40
0.1390728476821192
 40
0.1390728476821192
 40
0.1390728476821192
 40
0.1390728476821192
 40
0.1456953642384106
 40
0.1456953642384106
 40
0.1456953642384106
 40
0.1456953642384106
 40
0.152317880794702
 40
0.152317880794702
 40
0.152317880794702
 40
0.152317880794702
 40
0.1589403973509934
 40
0.1589403973509934
 40
0.1589403973509934
 40
0.1589403973509934
 40
0.1655629139072848
 40
0.1655629139072848
 40
0.1655629139072848
 40
0.1655629139072848
 40
0.1721854304635762
 40
0.1721854304635762
 40
0.1721854304635762
 40
0.1721854304635762
 40
0.1788079470198675
 40
0.1788079470198675
 40
0.1788079470198675
 40
0.1788079470198675
 40
0.1854304635761589
 40
0.1854304635761589
 40
0.1854304635761589
 40
0.1854304635761589
 40
0.1920529801324503
 40
0.1920529801324503
 40
0.1920529801324503
 40
0.1920529801324503
 40
0.1986754966887417
 40
0.1986754966887417
 40
0.1986754966887417
 40
0.1986754966887417
 40
0.2052980132450331
 40
0.2052980132450331
 40
0.2052980132450331
 40
0.2052980132450331
 40
0.2119205298013245
 40
0.2119205298013245
 40
0.2119205298013245
 40
0.2119205298013245
 40
0.2185430463576159
 40
0.2185430463576159
 40
0.2185430463576159
 40
0.2185430463576159
 40
0.2251655629139073
 40
0.2251655629139073
 40
0.2251655629139073
 40
0.2251655629139073
 40
0.2317880794701987
 40
0.2317880794701987
 40
0.2317880794701987
 40
0.2317880794701987
 40
0.2384105960264901
 40
0.2384105960264901
 40
0.2384105960264901
 40
0.2384105960264901
 40
0.2450331125827815
 40
0.2450331125827815
 40
0.2450331125827815
 40
0.2450331125827815
 40
0.2516556291390729
 40
0.2516556291390729
 40
0.2516556291390729
 40
0.2516556291390729
 40
0.2582781456953642
 40
0.2582781456953642
 40
0.2582781456953642
 40
0.2582781456953642
 40
0.2649006622516556
 40
0.2649006622516556
 40
0.2649006622516556
 40
0.2649006622516556
 40
0.271523178807947
 40
0.271523178807947
 40
0.271523178807947
 40
0.271523178807947
 40
0.2781456953642384
 40
0.2781456953642384
 40
0.2781456953642384
 40
0.2781456953642384
 40
0.2847682119205298
 40
0.2847682119205298
 40
0.2847682119205298
 40
0.2847682119205298
 40
0.2913907284768212
 40
0.2913907284768212
 40
0.2913907284768212
 40
0.2913907284768212
 40
0.2980132450331126
 40
0.2980132450331126
 40
0.2980132450331126
 40
0.2980132450331126
 40
0.304635761589404
 40
0.304635761589404
 40
0.304635761589404
 40
0.304635761589404
 40
0.3112582781456953
 40
0.3112582781456953
 40
0.3112582781456953
 40
0.3112582781456953
 40
0.3178807947019868
 40
0.3178807947019868
 40
0.3178807947019868
 40
0.3178807947019868
 40
0.3245033112582781
 40
0.3245033112582781
 40
0.3245033112582781
 40
0.3245033112582781
 40
0.3311258278145696
 40
0.3311258278145696
 40
0.3311258278145696
 40
0.3311258278145696
 40
0.3377483443708609
 40
0.3377483443708609
 40
0.3377483443708609
 40
0.3377483443708609
 40
0.3443708609271523
 40
0.3443708609271523
 40
0.3443708609271523
 40
0.3443708609271523
 40
0.3509933774834437
 40
0.3509933774834437
 40
0.3509933774834437
 40
0.3509933774834437
 40
0.3576158940397351
 40
0.3576158940397351
 40
0.3576158940397351
 40
0.3576158940397351
 40
0.3642384105960265
 40
0.3642384105960265
 40
0.3642384105960265
 40
0.3642384105960265
 40
0.3708609271523179
 40
0.3708609271523179
 40
0.3708609271523179
 40
0.3708609271523179
 40
0.3774834437086093
 40
0.3774834437086093
 40
0.3774834437086093
 40
0.3774834437086093
 40
0.3841059602649007
 40
0.3841059602649007
 40
0.3841059602649007
 40
0.3841059602649007
 40
0.3907284768211921
 40
0.3907284768211921
 40
0.3907284768211921
 40
0.3907284768211921
 40
0.3973509933774834
 40
0.3973509933774834
 40
0.3973509933774834
 40
0.3973509933774834
 40
0.4039735099337748
 40
0.4039735099337748
 40
0.4039735099337748
 40
0.4039735099337748
 40
0.4105960264900662
 40
0.4105960264900662
 40
0.4105960264900662
 40
0.4105960264900662
 40
0.4172185430463576
 40
0.4172185430463576
 40
0.4172185430463576
 40
0.4172185430463576
 40
0.423841059602649
 40
0.423841059602649
 40
0.423841059602649
 40
0.423841059602649
 40
0.4304635761589404
 40
0.4304635761589404
 40
0.4304635761589404
 40
0.4304635761589404
 40
0.4370860927152318
 40
0.4370860927152318
 40
0.4370860927152318
 40
0.4370860927152318
 40
0.4437086092715232
 40
0.4437086092715232
 40
0.4437086092715232
 40
0.4437086092715232
 40
0.4503311258278146
 40
0.4503311258278146
 40
0.4503311258278146
 40
0.4503311258278146
 40
0.456953642384106
 40
0.456953642384106
 40
0.456953642384106
 40
0.456953642384106
 40
0.4635761589403973
 40
0.4635761589403973
 40
0.4635761589403973
 40
0.4635761589403973
 40
0.4701986754966888
 40
0.4701986754966888
 40
0.4701986754966888
 40
0.4701986754966888
 40
0.4768211920529801
 40
0.4768211920529801
 40
0.4768211920529801
 40
0.4768211920529801
 40
0.4834437086092715
 40
0.4834437086092715
 40
0.4834437086092715
 40
0.4834437086092715
 40
0.4900662251655629
 40
0.4900662251655629
 40
0.4900662251655629
 40
0.4900662251655629
 40
0.4966887417218543
 40
0.4966887417218543
 40
0.4966887417218543
 40
0.4966887417218543
 40
0.5033112582781457
 40
0.5033112582781457
 40
0.5033112582781457
 40
0.5033112582781457
 40
0.5099337748344371
 40
0.5099337748344371
 40
0.5099337748344371
 40
0.5099337748344371
 40
0.5165562913907285
 40
0.5165562913907285
 40
0.5165562913907285
 40
0.5165562913907285
 40
0.5231788079470199
 40
0.5231788079470199
 40
0.5231788079470199
 40
0.5231788079470199
 40
0.5298013245033113
 40
0.5298013245033113
 40
0.5298013245033113
 40
0.5298013245033113
 40
0.5364238410596026
 40
0.5364238410596026
 40
0.5364238410596026
 40
0.5364238410596026
 40
0.543046357615894
 40
0.543046357615894
 40
0.543046357615894
 40
0.543046357615894
 40
0.5496688741721855
 40
0.5496688741721855
 40
0.5496688741721855
 40
0.5496688741721855
 40
0.5562913907284768
 40
0.5562913907284768
 40
0.5562913907284768
 40
0.5562913907284768
 40
0.5629139072847682
 40
0.5629139072847682
 40
0.5629139072847682
 40
0.5629139072847682
 40
0.5695364238410596
 40
0.5695364238410596
 40
0.5695364238410596
 40
0.5695364238410596
 40
0.5761589403973509
 40
0.5761589403973509
 40
0.5761589403973509
 40
0.5761589403973509
 40
0.5827814569536424
 40
0.5827814569536424
 40
0.5827814569536424
 40
0.5827814569536424
 40
0.5894039735099338
 40
0.5894039735099338
 40
0.5894039735099338
 40
0.5894039735099338
 40
0.5960264900662252
 40
0.5960264900662252
 40
0.5960264900662252
 40
0.5960264900662252
 40
0.6026490066225165
 40
0.6026490066225165
 40
0.6026490066225165
 40
0.6026490066225165
 40
0.609271523178808
 40
0.609271523178808
 40
0.609271523178808
 40
0.609271523178808
 40
0.6158940397350994
 40
0.6158940397350994
 40
0.6158940397350994
 40
0.6158940397350994
 40
0.6225165562913907
 40
0.6225165562913907
 40
0.6225165562913907
 40
0.6225165562913907
 40
0.6291390728476821
 40
0.6291390728476821
 40
0.6291390728476821
 40
0.6291390728476821
 40
0.6357615894039735
 40
0.6357615894039735
 40
0.6357615894039735
 40
0.6357615894039735
 40
0.6423841059602649
 40
0.6423841059602649
 40
0.6423841059602649
 40
0.6423841059602649
 40
0.6490066225165563
 40
0.6490066225165563
 40
0.6490066225165563
 40
0.6490066225165563
 40
0.6556291390728477
 40
0.6556291390728477
 40
0.6556291390728477
 40
0.6556291390728477
 40
0.6622516556291391
 40
0.6622516556291391
 40
0.6622516556291391
 40
0.6622516556291391
 40
0.6688741721854304
 40
0.6688741721854304
 40
0.6688741721854304
 40
0.6688741721854304
 40
0.6754966887417219
 40
0.6754966887417219
 40
0.6754966887417219
 40
0.6754966887417219
 40
0.6821192052980133
 40
0.6821192052980133
 40
0.6821192052980133
 40
0.6821192052980133
 40
0.6887417218543046
 40
0.6887417218543046
 40
0.6887417218543046
 40
0.6887417218543046
 40
0.695364238410596
 40
0.695364238410596
 40
0.695364238410596
 40
0.695364238410596
 40
0.7019867549668874
 40
0.7019867549668874
 40
0.7019867549668874
 40
0.7019867549668874
 40
0.7086092715231788
 40
0.7086092715231788
 40
0.7086092715231788
 40
0.7086092715231788
 40
0.7152317880794702
 40
0.7152317880794702
 40
0.7152317880794702
 40
0.7152317880794702
 40
0.7218543046357616
 40
0.7218543046357616
 40
0.7218543046357616
 40
0.7218543046357616
 40
0.7284768211920529
 40
0.7284768211920529
 40
0.7284768211920529
 40
0.7284768211920529
 40
0.7350993377483444
 40
0.7350993377483444
 40
0.7350993377483444
 40
0.7350993377483444
 40
0.7417218543046358
 40
0.7417218543046358
 40
0.7417218543046358
 40
0.7417218543046358
 40
0.7483443708609272
 40
0.7483443708609272
 40
0.7483443708609272
 40
0.7483443708609272
 40
0.7549668874172185
 40
0.7549668874172185
 40
0.7549668874172185
 40
0.7549668874172185
 40
0.7615894039735099
 40
0.7615894039735099
 40
0.7615894039735099
 40
0.7615894039735099
 40
0.7682119205298014
 40
0.7682119205298014
 40
0.7682119205298014
 40
0.7682119205298014
 40
0.7748344370860927
 40
0.7748344370860927
 40
0.7748344370860927
 40
0.7748344370860927
 40
0.7814569536423841
 40
0.7814569536423841
 40
0.7814569536423841
 40
0.7814569536423841
 40
0.7880794701986755
 40
0.7880794701986755
 40
0.7880794701986755
 40
0.7880794701986755
 40
0.7947019867549668
 40
0.7947019867549668
 40
0.7947019867549668
 40
0.7947019867549668
 40
0.8013245033112583
 40
0.8013245033112583
 40
0.8013245033112583
 40
0.8013245033112583
 40
0.8079470198675497
 40
0.8079470198675497
 40
0.8079470198675497
 40
0.8079470198675497
 40
0.8145695364238411
 40
0.8145695364238411
 40
0.8145695364238411
 40
0.8145695364238411
 40
0.8211920529801324
 40
0.8211920529801324
 40
0.8211920529801324
 40
0.8211920529801324
 40
0.8278145695364238
 40
0.8278145695364238
 40
0.8278145695364238
 40
0.8278145695364238
 40
0.8344370860927153
 40
0.8344370860927153
 40
0.8344370860927153
 40
0.8344370860927153
 40
0.8410596026490066
 40
0.8410596026490066
 40
0.8410596026490066
 40
0.8410596026490066
 40
0.847682119205298
 40
0.847682119205298
 40
0.847682119205298
 40
0.847682119205298
 40
0.8543046357615894
 40
0.8543046357615894
 40
0.8543046357615894
 40
0.8543046357615894
 40
0.8609271523178808
 40
0.8609271523178808
 40
0.8609271523178808
 40
0.8609271523178808
 40
0.8675496688741722
 40
0.8675496688741722
 40
0.8675496688741722
 40
0.8675496688741722
 40
0.8741721854304636
 40
0.8741721854304636
 40
0.8741721854304636
 40
0.8741721854304636
 40
0.8807947019867549
 40
0.8807947019867549
 40
0.8807947019867549
 40
0.8807947019867549
 40
0.8874172185430463
 40
0.8874172185430463
 40
0.8874172185430463
 40
0.8874172185430463
 40
0.8940397350993378
 40
0.8940397350993378
 40
0.8940397350993378
 40
0.8940397350993378
 40
0.9006622516556292
 40
0.9006622516556292
 40
0.9006622516556292
 40
0.9006622516556292
 40
0.9072847682119205
 40
0.9072847682119205
 40
0.9072847682119205
 40
0.9072847682119205
 40
0.9139072847682119
 40
0.9139072847682119
 40
0.9139072847682119
 40
0.9139072847682119
 40
0.9205298013245033
 40
0.9205298013245033
 40
0.9205298013245033
 40
0.9205298013245033
 40
0.9271523178807947
 40
0.9271523178807947
 40
0.9271523178807947
 40
0.9271523178807947
 40
0.9337748344370861
 40
0.9337748344370861
 40
0.9337748344370861
 40
0.9337748344370861
 40
0.9403973509933775
 40
0.9403973509933775
 40
0.9403973509933775
 40
0.9403973509933775
 40
0.9470198675496688
 40
0.9470198675496688
 40
0.9470198675496688
 40
0.9470198675496688
 40
0.9536423841059603
 40
0.9536423841059603
 40
0.9536423841059603
 40
0.9536423841059603
 40
0.9602649006622517
 40
0.9602649006622517
 40
0.9602649006622517
 40
0.9602649006622517
 40
0.9668874172185431
 40
0.9668874172185431
 40
0.9668874172185431
 40
0.9668874172185431
 40
0.9735099337748344
 40
0.9735099337748344
 40
0.9735099337748344
 40
0.9735099337748344
 40
0.9801324503311258
 40
0.9801324503311258
 40
0.9801324503311258
 40
0.9801324503311258
 40
0.9867549668874173
 40
0.9867549668874173
 40
0.9867549668874173
 40
0.9867549668874173
 40
1.0
 40
1.0
 40
1.0
 40
1.0
 10
167.5478
 20
-124.6397
 30
0.0
 10
170.083
 20
-121.6261
 30
0.0
 10
168.961
 20
-121.2051
 30
0.0
 10
175.9875
 20
-121.2191
 30
0.0
 10
175.9875
 20
-121.2191
 30
0.0
 10
177.503
 20
-121.2225
 30
0.0
 10
182.1653
 20
-122.4867
 30
0.0
 10
184.158
 20
-122.6537
 30
0.0
 10
184.158
 20
-122.6537
 30
0.0
 10
191.1244
 20
-123.2389
 30
0.0
 10
193.0003
 20
-121.4631
 30
0.0
 10
196.9424
 20
-119.1511
 30
0.0
 10
196.9424
 20
-119.1511
 30
0.0
 10
196.4382
 20
-118.7267
 30
0.0
 10
195.7389
 20
-118.3574
 30
0.0
 10
195.2757
 20
-118.0859
 30
0.0
 10
195.2757
 20
-118.0859
 30
0.0
 10
195.2757
 20
-118.0859
 30
0.0
 10
190.4015
 20
-115.4028
 30
0.0
 10
190.4015
 20
-115.4028
 30
0.0
 10
190.4015
 20
-115.4028
 30
0.0
 10
184.171
 20
-111.8929
 30
0.0
 10
191.9772
 20
-118.3641
 30
0.0
 10
186.2885
 20
-112.8249
 30
0.0
 10
186.2885
 20
-112.8249
 30
0.0
 10
173.7154
 20
-109.7698
 30
0.0
 10
177.9583
 20
-101.5802
 30
0.0
 10
172.1415
 20
-92.2
 30
0.0
 10
172.1415
 20
-92.2
 30
0.0
 10
163.1031
 20
-83.0081
 30
0.0
 10
137.1143
 20
-86.7828
 30
0.0
 10
130.47
 20
-82.7563
 30
0.0
 10
130.47
 20
-82.7563
 30
0.0
 10
137.7006
 20
-74.7646
 30
0.0
 10
161.9603
 20
-76.5673
 30
0.0
 10
174.1247
 20
-74.8241
 30
0.0
 10
174.1247
 20
-74.8241
 30
0.0
 10
175.1095
 20
-66.5407
 30
0.0
 10
176.3625
 20
-66.9763
 30
0.0
 10
175.2124
 20
-59.4781
 30
0.0
 10
175.2124
 20
-59.4781
 30
0.0
 10
175.2124
 20
-59.4781
 30
0.0
 10
174.1707
 20
-56.2881
 30
0.0
 10
174.1707
 20
-56.2881
 30
0.0
 10
174.1707
 20
-56.2881
 30
0.0
 10
163.5241
 20
-55.5978
 30
0.0
 10
175.5811
 20
-62.6418
 30
0.0
 10
147.372
 20
-65.9347
 30
0.0
 10
147.372
 20
-65.9347
 30
0.0
 10
137.6489
 20
-67.0702
 30
0.0
 10
120.1308
 20
-69.0967
 30
0.0
 10
110.9839
 20
-68.5581
 30
0.0
 10
110.9839
 20
-68.5581
 30
0.0
 10
110.8923
 20
-58.7131
 30
0.0
 10
117.7907
 20
-50.4319
 30
0.0
 10
122.263
 20
-42.8196
 30
0.0
 10
122.263
 20
-42.8196
 30
0.0
 10
142.7345
 20
-7.974
 30
0.0
 10
176.4996
 20
-24.017
 30
0.0
 10
173.73
 20
12.0354
 30
0.0
 10
173.73
 20
12.0354
 30
0.0
 10
164.9513
 20
8.8448
 30
0.0
 10
172.8278
 20
8.4581
 30
0.0
 10
162.2261
 20
5.6373
 30
0.0
 10
162.2261
 20
5.6373
 30
0.0
 10
164.813
 20
27.1898
 30
0.0
 10
177.3676
 20
24.9581
 30
0.0
 10
173.2736
 20
47.2739
 30
0.0
 10
173.2736
 20
47.2739
 30
0.0
 10
163.9108
 20
42.1547
 30
0.0
 10
171.5231
 20
36.86
 30
0.0
 10
160.5679
 20
34.5682
 30
0.0
 10
160.5679
 20
34.5682
 30
0.0
 10
164.6433
 20
65.3586
 30
0.0
 10
174.1247
 20
32.6216
 30
0.0
 10
174.1247
 20
107.6164
 30
0.0
 10
174.1247
 20
107.6164
 30
0.0
 10
164.3931
 20
102.4527
 30
0.0
 10
159.6331
 20
71.3407
 30
0.0
 10
155.5419
 20
64.7476
 30
0.0
 10
155.5419
 20
64.7476
 30
0.0
 10
148.155
 20
75.876
 30
0.0
 10
150.8926
 20
98.4436
 30
0.0
 10
153.5526
 20
110.4416
 30
0.0
 10
153.5526
 20
110.4416
 30
0.0
 10
158.1271
 20
131.0755
 30
0.0
 10
170.5743
 20
140.1286
 30
0.0
 10
165.9424
 20
148.6183
 30
0.0
 10
165.9424
 20
148.6183
 30
0.0
 10
154.5886
 20
144.055
 30
0.0
 10
162.0637
 20
136.8244
 30
0.0
 10
152.3108
 20
132.6456
 30
0.0
 10
152.3108
 20
132.6456
 30
0.0
 10
151.2596
 20
140.1224
 30
0.0
 10
149.8538
 20
140.9144
 30
0.0
 10
148.345
 20
147.2771
 30
0.0
 10
148.345
 20
147.2771
 30
0.0
 10
133.7877
 20
143.8813
 30
0.0
 10
152.8454
 20
142.7874
 30
0.0
 10
137.2127
 20
134.1622
 30
0.0
 10
137.2127
 20
134.1622
 30
0.0
 10
135.7383
 20
142.2281
 30
0.0
 10
143.5377
 20
159.288
 30
0.0
 10
145.4906
 20
169.9465
 30
0.0
 10
145.4906
 20
169.9465
 30
0.0
 10
148.7947
 20
187.9834
 30
0.0
 10
146.6626
 20
190.007
 30
0.0
 10
158.2598
 20
200.6919
 30
0.0
 10
158.2598
 20
200.6919
 30
0.0
 10
164.0266
 20
193.9431
 30
0.0
 10
160.2593
 20
188.1363
 30
0.0
 10
172.7727
 20
163.3646
 30
0.0
 10
172.7727
 20
163.3646
 30
0.0
 10
179.0067
 20
167.4568
 30
0.0
 10
173.6238
 20
161.1425
 30
0.0
 10
176.0398
 20
167.3596
 30
0.0
 10
176.0398
 20
167.3596
 30
0.0
 10
176.0814
 20
167.4653
 30
0.0
 10
176.3046
 20
174.0011
 30
0.0
 10
176.3108
 20
174.1433
 30
0.0
 10
176.3108
 20
174.1433
 30
0.0
 10
175.1404
 20
184.9648
 30
0.0
 10
171.228
 20
191.201
 30
0.0
 10
171.8525
 20
202.7999
 30
0.0
 10
171.8525
 20
202.7999
 30
0.0
 10
172.4906
 20
214.6557
 30
0.0
 10
178.4367
 20
221.1156
 30
0.0
 10
173.3737
 20
229.8151
 30
0.0
 10
173.3737
 20
229.8151
 30
0.0
 10
155.7797
 20
228.8791
 30
0.0
 10
158.0895
 20
204.6645
 30
0.0
 10
144.3787
 20
201.199
 30
0.0
 10
144.3787
 20
201.199
 30
0.0
 10
138.0289
 20
211.1047
 30
0.0
 10
144.4012
 20
214.315
 30
0.0
 10
133.8523
 20
218.667
 30
0.0
 10
133.8523
 20
218.667
 30
0.0
 10
131.746
 20
212.8423
 30
0.0
 10
140.1914
 20
183.6224
 30
0.0
 10
131.7786
 20
153.9147
 30
0.0
 10
131.7786
 20
153.9147
 30
0.0
 10
128.2148
 20
141.3287
 30
0.0
 10
115.0234
 20
109.5574
 30
0.0
 10
99.3851
 20
110.2156
 30
0.0
 10
99.3851
 20
110.2156
 30
0.0
 10
93.4277
 20
157.5246
 30
0.0
 10
114.5613
 20
180.3958
 30
0.0
 10
122.4294
 20
197.3265
 30
0.0
 10
122.4294
 20
197.3265
 30
0.0
 10
125.9696
 20
204.9438
 30
0.0
 10
125.923
 20
203.3468
 30
0.0
 10
121.6778
 20
207.8051
 30
0.0
 10
121.6778
 20
207.8051
 30
0.0
 10
119.1398
 20
206.1923
 30
0.0
 10
98.9393
 20
180.1957
 30
0.0
 10
97.272
 20
174.5391
 30
0.0
 10
97.272
 20
174.5391
 30
0.0
 10
95.222
 20
167.5811
 30
0.0
 10
96.9426
 20
164.0993
 30
0.0
 10
92.8194
 20
158.0901
 30
0.0
 10
92.8194
 20
158.0901
 30
0.0
 10
82.1244
 20
165.8025
 30
0.0
 10
86.8098
 20
171.2321
 30
0.0
 10
78.9378
 20
175.0399
 30
0.0
 10
78.9378
 20
175.0399
 30
0.0
 10
79.2728
 20
157.2267
 30
0.0
 10
97.6739
 20
122.9792
 30
0.0
 10
83.7765
 20
96.7584
 30
0.0
 10
83.7765
 20
96.7584
 30
0.0
 10
81.0513
 20
91.6177
 30
0.0
 10
70.5081
 20
85.9746
 30
0.0
 10
63.0735
 20
85.8025
 30
0.0
 10
63.0735
 20
85.8025
 30
0.0
 10
60.436
 20
115.3074
 30
0.0
 10
76.0827
 20
108.8356
 30
0.0
 10
77.4166
 20
131.8693
 30
0.0
 10
77.4166
 20
131.8693
 30
0.0
 10
65.1606
 20
128.7
 30
0.0
 10
74.4975
 20
126.5881
 30
0.0
 10
63.0735
 20
122.7302
 30
0.0
 10
63.0735
 20
122.7302
 30
0.0
 10
63.1555
 20
145.7622
 30
0.0
 10
63.7486
 20
172.2405
 30
0.0
 10
74.6268
 20
187.22
 30
0.0
 10
74.6268
 20
187.22
 30
0.0
 10
79.4476
 20
193.8587
 30
0.0
 10
85.3241
 20
202.6352
 30
0.0
 10
90.5856
 20
208.9349
 30
0.0
 10
90.5856
 20
208.9349
 30
0.0
 10
96.3614
 20
215.8496
 30
0.0
 10
108.338
 20
220.0881
 30
0.0
 10
110.6669
 20
229.2709
 30
0.0
 10
110.6669
 20
229.2709
 30
0.0
 10
110.6669
 20
229.2709
 30
0.0
 10
86.102
 20
230.018
 30
0.0
 10
86.102
 20
230.018
 30
0.0
 10
86.102
 20
230.018
 30
0.0
 10
81.7855
 20
216.2032
 30
0.0
 10
74.402
 20
198.8397
 30
0.0
 10
65.0566
 20
189.8154
 30
0.0
 10
65.0566
 20
189.8154
 30
0.0
 10
55.8861
 20
201.2136
 30
0.0
 10
58.8502
 20
234.2176
 30
0.0
 10
45.5486
 20
228.9022
 30
0.0
 10
45.5486
 20
228.9022
 30
0.0
 10
42.4395
 20
225.2017
 30
0.0
 10
44.353
 20
230.0596
 30
0.0
 10
43.4424
 20
224.2304
 30
0.0
 10
43.4424
 20
224.2304
 30
0.0
 10
42.9972
 20
221.3821
 30
0.0
 10
43.0157
 20
222.318
 30
0.0
 10
43.489
 20
219.3
 30
0.0
 10
43.489
 20
219.3
 30
0.0
 10
44.955
 20
209.9462
 30
0.0
 10
51.4774
 20
200.5019
 30
0.0
 10
54.0716
 20
191.7541
 30
0.0
 10
54.0716
 20
191.7541
 30
0.0
 10
56.3077
 20
184.2127
 30
0.0
 10
51.6887
 20
80.5197
 30
0.0
 10
46.9736
 20
72.1339
 30
0.0
 10
46.9736
 20
72.1339
 30
0.0
 10
45.0056
 20
68.6347
 30
0.0
 10
37.1415
 20
61.9246
 30
0.0
 10
33.7896
 20
60.485
 30
0.0
 10
33.7896
 20
60.485
 30
0.0
 10
16.3603
 20
80.581
 30
0.0
 10
40.3164
 20
154.6736
 30
0.0
 10
33.328
 20
167.4124
 30
0.0
 10
33.328
 20
167.4124
 30
0.0
 10
24.3442
 20
164.1611
 30
0.0
 10
28.9199
 20
153.3835
 30
0.0
 10
23.4127
 20
145.6256
 30
0.0
 10
23.4127
 20
145.6256
 30
0.0
 10
13.8094
 20
153.6876
 30
0.0
 10
12.2944
 20
172.2771
 30
0.0
 10
6.0605
 20
176.2726
 30
0.0
 10
6.0605
 20
176.2726
 30
0.0
 10
-2.4709
 20
164.5259
 30
0.0
 10
12.9347
 20
148.2569
 30
0.0
 10
17.8044
 20
139.6193
 30
0.0
 10
17.8044
 20
139.6193
 30
0.0
 10
28.4443
 20
120.7476
 30
0.0
 10
13.3591
 20
115.1061
 30
0.0
 10
15.7139
 20
94.0264
 30
0.0
 10
15.7139
 20
94.0264
 30
0.0
 10
19.33
 20
61.6565
 30
0.0
 10
25.1845
 20
60.2264
 30
0.0
 10
16.4907
 20
23.2633
 30
0.0
 10
16.4907
 20
23.2633
 30
0.0
 10
14.3827
 20
14.3019
 30
0.0
 10
14.5446
 20
7.8588
 30
0.0
 10
9.531
 20
2.5147
 30
0.0
 10
9.531
 20
2.5147
 30
0.0
 10
4.3927
 20
7.7728
 30
0.0
 10
6.2201
 20
7.2461
 30
0.0
 10
5.1808
 20
16.0372
 30
0.0
 10
5.1808
 20
16.0372
 30
0.0
 10
5.1808
 20
16.0372
 30
0.0
 10
-4.8667
 20
95.1878
 30
0.0
 10
-4.8667
 20
95.1878
 30
0.0
 10
-4.8667
 20
95.1878
 30
0.0
 10
-7.9449
 20
115.5243
 30
0.0
 10
-23.9019
 20
174.1197
 30
0.0
 10
-9.6616
 20
186.2639
 30
0.0
 10
-9.6616
 20
186.2639
 30
0.0
 10
-6.0803
 20
189.3179
 30
0.0
 10
-7.3996
 20
187.6697
 30
0.0
 10
-4.6559
 20
189.1937
 30
0.0
 10
-4.6559
 20
189.1937
 30
0.0
 10
7.6755
 20
196.0431
 30
0.0
 10
26.0671
 20
207.7056
 30
0.0
 10
25.4499
 20
224.6165
 30
0.0
 10
25.4499
 20
224.6165
 30
0.0
 10
10.7239
 20
222.169
 30
0.0
 10
11.4293
 20
207.5335
 30
0.0
 10
-3.8087
 20
201.3614
 30
0.0
 10
-3.8087
 20
201.3614
 30
0.0
 10
-3.3624
 20
212.1767
 30
0.0
 10
3.0649
 20
217.7676
 30
0.0
 10
4.0486
 20
229.0495
 30
0.0
 10
4.0486
 20
229.0495
 30
0.0
 10
-17.7506
 20
230.086
 30
0.0
 10
-12.1692
 20
229.9061
 30
0.0
 10
-12.9849
 20
215.0986
 30
0.0
 10
-12.9849
 20
215.0986
 30
0.0
 10
-13.4205
 20
207.1895
 30
0.0
 10
-17.1266
 20
193.1611
 30
0.0
 10
-22.1975
 20
188.9216
 30
0.0
 10
-22.1975
 20
188.9216
 30
0.0
 10
-32.9426
 20
196.9111
 30
0.0
 10
-36.3547
 20
216.9345
 30
0.0
 10
-44.0603
 20
228.3479
 30
0.0
 10
-44.0603
 20
228.3479
 30
0.0
 10
-44.0603
 20
228.3479
 30
0.0
 10
-55.5782
 20
228.3592
 30
0.0
 10
-55.5782
 20
228.3592
 30
0.0
 10
-55.5782
 20
228.3592
 30
0.0
 10
-56.0611
 20
212.8068
 30
0.0
 10
-28.2117
 20
182.6308
 30
0.0
 10
-28.1471
 20
145.2945
 30
0.0
 10
-28.1471
 20
145.2945
 30
0.0
 10
-50.1239
 20
149.5239
 30
0.0
 10
-56.2494
 20
168.7284
 30
0.0
 10
-60.8021
 20
191.9464
 30
0.0
 10
-60.8021
 20
191.9464
 30
0.0
 10
-65.4491
 20
215.6484
 30
0.0
 10
-70.4672
 20
212.0227
 30
0.0
 10
-86.9971
 20
225.3529
 30
0.0
 10
-86.9971
 20
225.3529
 30
0.0
 10
-91.7358
 20
229.1748
 30
0.0
 10
-93.9056
 20
230.6678
 30
0.0
 10
-101.4847
 20
226.5991
 30
0.0
 10
-101.4847
 20
226.5991
 30
0.0
 10
-101.7034
 20
213.1222
 30
0.0
 10
-86.4664
 20
216.0649
 30
0.0
 10
-76.5944
 20
205.9304
 30
0.0
 10
-76.5944
 20
205.9304
 30
0.0
 10
-71.5004
 20
200.7009
 30
0.0
 10
-62.8707
 20
180.4863
 30
0.0
 10
-67.8078
 20
171.4996
 30
0.0
 10
-67.8078
 20
171.4996
 30
0.0
 10
-73.971
 20
172.7695
 30
0.0
 10
-111.0915
 20
201.9224
 30
0.0
 10
-114.1607
 20
210.0479
 30
0.0
 10
-114.1607
 20
210.0479
 30
0.0
 10
-117.1528
 20
217.97
 30
0.0
 10
-113.0117
 20
228.9842
 30
0.0
 10
-123.1552
 20
227.0562
 30
0.0
 10
-123.1552
 20
227.0562
 30
0.0
 10
-125.4026
 20
223.9262
 30
0.0
 10
-124.9169
 20
229.0568
 30
0.0
 10
-125.2761
 20
220.6142
 30
0.0
 10
-125.2761
 20
220.6142
 30
0.0
 10
-125.7331
 20
209.8697
 30
0.0
 10
-120.0916
 20
211.388
 30
0.0
 10
-121.7426
 20
199.2287
 30
0.0
 10
-121.7426
 20
199.2287
 30
0.0
 10
-128.4268
 20
201.032
 30
0.0
 10
-139.2213
 20
210.2677
 30
0.0
 10
-144.3648
 20
215.4314
 30
0.0
 10
-144.3648
 20
215.4314
 30
0.0
 10
-155.8968
 20
227.0084
 30
0.0
 10
-150.913
 20
227.1034
 30
0.0
 10
-173.0955
 20
226.5991
 30
0.0
 10
-173.0955
 20
226.5991
 30
0.0
 10
-173.2063
 20
216.8036
 30
0.0
 10
-170.2546
 20
212.0429
 30
0.0
 10
-170.8465
 20
200.8409
 30
0.0
 10
-170.8465
 20
200.8409
 30
0.0
 10
-173.2771
 20
154.8034
 30
0.0
 10
-174.2338
 20
182.7253
 30
0.0
 10
-165.3517
 20
162.8491
 30
0.0
 10
-165.3517
 20
162.8491
 30
0.0
 10
-163.1594
 20
157.9423
 30
0.0
 10
-162.997
 20
153.4374
 30
0.0
 10
-163.1105
 20
146.751
 30
0.0
 10
-163.1105
 20
146.751
 30
0.0
 10
-174.4711
 20
142.4142
 30
0.0
 10
-163.9307
 20
149.7364
 30
0.0
 10
-172.5306
 20
145.163
 30
0.0
 10
-172.5306
 20
145.163
 30
0.0
 10
-166.4709
 20
123.6189
 30
0.0
 10
-146.4266
 20
124.7471
 30
0.0
 10
-147.1299
 20
95.7179
 30
0.0
 10
-147.1299
 20
95.7179
 30
0.0
 10
-158.1565
 20
97.7342
 30
0.0
 10
-160.6816
 20
102.7304
 30
0.0
 10
-173.2063
 20
103.9468
 30
0.0
 10
-173.2063
 20
103.9468
 30
0.0
 10
-173.2063
 20
103.9468
 30
0.0
 10
-173.6369
 20
92.6245
 30
0.0
 10
-173.6369
 20
92.6245
 30
0.0
 10
-173.6369
 20
92.6245
 30
0.0
 10
-164.7508
 20
89.5789
 30
0.0
 10
-154.7669
 20
87.9319
 30
0.0
 10
-147.1894
 20
83.7834
 30
0.0
 10
-147.1894
 20
83.7834
 30
0.0
 10
-148.8348
 20
71.3835
 30
0.0
 10
-148.7926
 20
52.179
 30
0.0
 10
-155.062
 20
41.7021
 30
0.0
 10
-155.062
 20
41.7021
 30
0.0
 10
-161.0492
 20
43.1828
 30
0.0
 10
-178.524
 20
56.0476
 30
0.0
 10
-168.5834
 20
37.0146
 30
0.0
 10
-168.5834
 20
37.0146
 30
0.0
 10
-163.4118
 20
27.1133
 30
0.0
 10
-159.2779
 20
26.4326
 30
0.0
 10
-157.2284
 20
12.6133
 30
0.0
 10
-157.2284
 20
12.6133
 30
0.0
 10
-160.0334
 20
11.7988
 30
0.0
 10
-163.6569
 20
11.9843
 30
0.0
 10
-163.7215
 20
11.9674
 30
0.0
 10
-163.7215
 20
11.9674
 30
0.0
 10
-169.0662
 20
10.5587
 30
0.0
 10
-166.5833
 20
13.5712
 30
0.0
 10
-168.9437
 20
8.4637
 30
0.0
 10
-168.9437
 20
8.4637
 30
0.0
 10
-168.9437
 20
-22.7905
 30
0.0
 10
-172.7369
 20
-16.3738
 30
0.0
 10
-153.8827
 20
-31.9857
 30
0.0
 10
-153.8827
 20
-31.9857
 30
0.0
 10
-147.1158
 20
-37.5884
 30
0.0
 10
-129.3026
 20
-51.1812
 30
0.0
 10
-127.7613
 20
-60.5046
 30
0.0
 10
-127.7613
 20
-60.5046
 30
0.0
 10
-140.865
 20
-61.7671
 30
0.0
 10
-157.3302
 20
-50.1176
 30
0.0
 10
-168.5412
 20
-47.4638
 30
0.0
 10
-168.5412
 20
-47.4638
 30
0.0
 10
-177.3801
 20
-88.1128
 30
0.0
 10
-162.3781
 20
-65.2517
 30
0.0
 10
-149.4059
 20
-76.8073
 30
0.0
 10
-149.4059
 20
-76.8073
 30
0.0
 10
-153.0142
 20
-85.69
 30
0.0
 10
-161.7665
 20
-81.2194
 30
0.0
 10
-167.146
 20
-90.8976
 30
0.0
 10
-167.146
 20
-90.8976
 30
0.0
 10
-168.9909
 20
-94.6402
 30
0.0
 10
-170.9898
 20
-110.2178
 30
0.0
 10
-168.1089
 20
-115.7553
 30
0.0
 10
-168.1089
 20
-115.7553
 30
0.0
 10
-165.2736
 20
-121.2062
 30
0.0
 10
-159.74
 20
-110.8699
 30
0.0
 10
-152.5673
 20
-107.0255
 30
0.0
 10
-152.5673
 20
-107.0255
 30
0.0
 10
-125.7708
 20
-92.6632
 30
0.0
 10
-85.3085
 20
-93.7689
 30
0.0
 10
-55.0133
 20
-103.6241
 30
0.0
 10
-55.0133
 20
-103.6241
 30
0.0
 10
-44.6196
 20
-107.0047
 30
0.0
 10
-40.9765
 20
-107.5573
 30
0.0
 10
-36.9584
 20
-115.4259
 30
0.0
 10
-36.9584
 20
-115.4259
 30
0.0
 10
-33.9443
 20
-121.3276
 30
0.0
 10
-29.8177
 20
-130.9096
 30
0.0
 10
-28.775
 20
-136.2987
 30
0.0
 10
-28.775
 20
-136.2987
 30
0.0
 10
-38.0208
 20
-146.6429
 30
0.0
 10
-49.9064
 20
-144.4169
 30
0.0
 10
-64.1124
 20
-140.3084
 30
0.0
 10
-64.1124
 20
-140.3084
 30
0.0
 10
-64.1124
 20
-140.3084
 30
0.0
 10
-77.1869
 20
-138.8182
 30
0.0
 10
-77.1869
 20
-138.8182
 30
0.0
 10
-77.1869
 20
-138.8182
 30
0.0
 10
-75.541
 20
-155.1338
 30
0.0
 10
-39.0366
 20
-148.0567
 30
0.0
 10
-24.1807
 20
-150.4075
 30
0.0
 10
-24.1807
 20
-150.4075
 30
0.0
 10
-6.7841
 20
-179.3007
 30
0.0
 10
-50.9654
 20
-166.6169
 30
0.0
 10
-63.5739
 20
-163.7484
 30
0.0
 10
-63.5739
 20
-163.7484
 30
0.0
 10
-82.2966
 20
-159.4892
 30
0.0
 10
-100.6011
 20
-155.2092
 30
0.0
 10
-117.5879
 20
-148.5351
 30
0.0
 10
-117.5879
 20
-148.5351
 30
0.0
 10
-122.4295
 20
-146.6328
 30
0.0
 10
-124.3053
 20
-145.8419
 30
0.0
 10
-128.9721
 20
-143.7699
 30
0.0
 10
-128.9721
 20
-143.7699
 30
0.0
 10
-132.4252
 20
-142.2364
 30
0.0
 10
-138.6699
 20
-138.4635
 30
0.0
 10
-140.9999
 20
-137.7316
 30
0.0
 10
-140.9999
 20
-137.7316
 30
0.0
 10
-155.4527
 20
-133.1913
 30
0.0
 10
-159.2746
 20
-148.5221
 30
0.0
 10
-97.854
 20
-162.4122
 30
0.0
 10
-97.854
 20
-162.4122
 30
0.0
 10
-88.4148
 20
-164.5472
 30
0.0
 10
-88.5547
 20
-162.1447
 30
0.0
 10
-85.8863
 20
-168.0279
 30
0.0
 10
-85.8863
 20
-168.0279
 30
0.0
 10
-93.8106
 20
-173.2315
 30
0.0
 10
-119.5391
 20
-169.9616
 30
0.0
 10
-131.3482
 20
-171.6468
 30
0.0
 10
-131.3482
 20
-171.6468
 30
0.0
 10
-138.9245
 20
-172.7278
 30
0.0
 10
-145.3676
 20
-174.7335
 30
0.0
 10
-152.9012
 20
-176.1405
 30
0.0
 10
-152.9012
 20
-176.1405
 30
0.0
 10
-163.7879
 20
-178.1742
 30
0.0
 10
-167.6699
 20
-176.3187
 30
0.0
 10
-168.9437
 20
-186.3368
 30
0.0
 10
-168.9437
 20
-186.3368
 30
0.0
 10
-163.0824
 20
-188.6151
 30
0.0
 10
-148.1777
 20
-185.9265
 30
0.0
 10
-139.1977
 20
-184.9388
 30
0.0
 10
-139.1977
 20
-184.9388
 30
0.0
 10
-145.0657
 20
-196.3831
 30
0.0
 10
-155.2998
 20
-198.7722
 30
0.0
 10
-166.9605
 20
-205.7054
 30
0.0
 10
-166.9605
 20
-205.7054
 30
0.0
 10
-166.9605
 20
-205.7054
 30
0.0
 10
-166.7744
 20
-224.7952
 30
0.0
 10
-166.7744
 20
-224.7952
 30
0.0
 10
-166.7744
 20
-224.7952
 30
0.0
 10
-153.7753
 20
-226.0667
 30
0.0
 10
-158.0289
 20
-218.9615
 30
0.0
 10
-149.6049
 20
-211.1075
 30
0.0
 10
-149.6049
 20
-211.1075
 30
0.0
 10
-149.6049
 20
-211.1075
 30
0.0
 10
-133.545
 20
-195.5343
 30
0.0
 10
-133.545
 20
-195.5343
 30
0.0
 10
-133.545
 20
-195.5343
 30
0.0
 10
-126.0743
 20
-187.0024
 30
0.0
 10
-98.8551
 20
-178.8533
 30
0.0
 10
-85.6553
 20
-183.8922
 30
0.0
 10
-85.6553
 20
-183.8922
 30
0.0
 10
-87.9291
 20
-193.2667
 30
0.0
 10
-100.7528
 20
-206.0213
 30
0.0
 10
-107.3494
 20
-213.8366
 30
0.0
 10
-107.3494
 20
-213.8366
 30
0.0
 10
-110.5068
 20
-217.5764
 30
0.0
 10
-120.1102
 20
-226.0572
 30
0.0
 10
-105.9795
 20
-225.6271
 30
0.0
 10
-105.9795
 20
-225.6271
 30
0.0
 10
-97.3419
 20
-225.3646
 30
0.0
 10
-94.4593
 20
-218.5607
 30
0.0
 10
-89.5744
 20
-213.7107
 30
0.0
 10
-89.5744
 20
-213.7107
 30
0.0
 10
-75.7692
 20
-200.0049
 30
0.0
 10
-53.2966
 20
-181.9343
 30
0.0
 10
-31.9313
 20
-179.891
 30
0.0
 10
-31.9313
 20
-179.891
 30
0.0
 10
-31.7683
 20
-179.8752
 30
0.0
 10
-26.3899
 20
-179.8376
 30
0.0
 10
-26.319
 20
-179.846
 30
0.0
 10
-26.319
 20
-179.846
 30
0.0
 10
-26.319
 20
-179.846
 30
0.0
 10
-22.9002
 20
-180.5992
 30
0.0
 10
-22.9002
 20
-180.5992
 30
0.0
 10
-22.9002
 20
-180.5992
 30
0.0
 10
-12.5779
 20
-183.2468
 30
0.0
 10
-26.0054
 20
-213.1255
 30
0.0
 10
-19.7557
 20
-221.9621
 30
0.0
 10
-19.7557
 20
-221.9621
 30
0.0
 10
-17.2947
 20
-222.3376
 30
0.0
 10
-1.1021
 20
-215.2661
 30
0.0
 10
4.9121
 20
-212.9602
 30
0.0
 10
4.9121
 20
-212.9602
 30
0.0
 10
20.058
 20
-207.1535
 30
0.0
 10
13.6621
 20
-204.1225
 30
0.0
 10
19.5678
 20
-187.9794
 30
0.0
 10
19.5678
 20
-187.9794
 30
0.0
 10
45.6532
 20
-186.0164
 30
0.0
 10
74.5403
 20
-194.3168
 30
0.0
 10
91.4934
 20
-210.9782
 30
0.0
 10
91.4934
 20
-210.9782
 30
0.0
 10
110.3386
 20
-229.4996
 30
0.0
 10
107.442
 20
-222.1442
 30
0.0
 10
127.7645
 20
-210.9276
 30
0.0
 10
127.7645
 20
-210.9276
 30
0.0
 10
146.6991
 20
-200.4771
 30
0.0
 10
144.5861
 20
-202.2388
 30
0.0
 10
160.5505
 20
-215.3942
 30
0.0
 10
160.5505
 20
-215.3942
 30
0.0
 10
167.5978
 20
-221.2015
 30
0.0
 10
167.3252
 20
-222.3213
 30
0.0
 10
176.1073
 20
-218.3701
 30
0.0
 10
176.1073
 20
-218.3701
 30
0.0
 10
176.5508
 20
-209.4497
 30
0.0
 10
176.3023
 20
-209.5155
 30
0.0
 10
169.7463
 20
-206.109
 30
0.0
 10
169.7463
 20
-206.109
 30
0.0
 10
164.2003
 20
-203.227
 30
0.0
 10
161.5572
 20
-202.77
 30
0.0
 10
156.5863
 20
-199.4467
 30
0.0
 10
156.5863
 20
-199.4467
 30
0.0
 10
162.9738
 20
-190.971
 30
0.0
 10
166.989
 20
-193.5124
 30
0.0
 10
176.1073
 20
-189.8411
 30
0.0
 10
176.1073
 20
-189.8411
 30
0.0
 10
176.1073
 20
-189.8411
 30
0.0
 10
175.865
 20
-176.6958
 30
0.0
 10
175.865
 20
-176.6958
 30
0.0
 10
175.865
 20
-176.6958
 30
0.0
 10
166.2285
 20
-176.7813
 30
0.0
 10
163.4094
 20
-180.7431
 30
0.0
 10
146.3068
 20
-179.9387
 30
0.0
 10
146.3068
 20
-179.9387
 30
0.0
 10
134.4589
 20
-179.3817
 30
0.0
 10
125.9359
 20
-177.9432
 30
0.0
 10
112.6501
 20
-177.9432
 30
0.0
 10
112.6501
 20
-177.9432
 30
0.0
 10
113.8424
 20
-163.6613
 30
0.0
 10
128.5211
 20
-162.3482
 30
0.0
 10
139.9654
 20
-155.7263
 30
0.0
 10
139.9654
 20
-155.7263
 30
0.0
 10
156.3525
 20
-146.245
 30
0.0
 10
169.2651
 20
-150.8741
 30
0.0
 10
175.0207
 20
-138.2819
 30
0.0
 10
175.0207
 20
-138.2819
 30
0.0
 10
168.1942
 20
-134.704
 30
0.0
 10
161.9248
 20
-140.6305
 30
0.0
 10
155.4261
 20
-138.8159
 30
0.0
 10
155.4261
 20
-138.8159
 30
0.0
 10
155.7196
 20
-132.5471
 30
0.0
 10
163.2903
 20
-130.307
 30
0.0
 10
167.5478
 20
-124.6397
 30
0.0
  0
SPLINE
  5
7C
330
1F
100
AcDbEntity
  8
layer 1
 62
   250
370
     9
100
AcDbSpline
210
0.0
220
0.0
230
1.0
 70
    11
 71
     3
 72
    68
 73
    64
 74
     0
 42
0.000000001
 43
0.0000000001
 40
0.0
 40
0.0
 40
0.0
 40
0.0
 40
0.0588235294117647
 40
0.0588235294117647
 40
0.0588235294117647
 40
0.0588235294117647
 40
0.1176470588235294
 40
0.1176470588235294
 40
0.1176470588235294
 40
0.1176470588235294
 40
0.1764705882352941
 40
0.1764705882352941
 40
0.1764705882352941
 40
0.1764705882352941
 40
0.2352941176470588
 40
0.2352941176470588
 40
0.2352941176470588
 40
0.2352941176470588
 40
0.2941176470588235
 40
0.2941176470588235
 40
0.2941176470588235
 40
0.2941176470588235
 40
0.3529411764705883
 40
0.3529411764705883
 40
0.3529411764705883
 40
0.3529411764705883
 40
0.4117647058823529
 40
0.4117647058823529
 40
0.4117647058823529
 40
0.4117647058823529
 40
0.4705882352941176
 40
0.4705882352941176
 40
0.4705882352941176
 40
0.4705882352941176
 40
0.5294117647058824
 40
0.5294117647058824
 40
0.5294117647058824
 40
0.5294117647058824
 40
0.5882352941176471
 40
0.5882352941176471
 40
0.5882352941176471
 40
0.5882352941176471
 40
0.6470588235294118
 40
0.6470588235294118
 40
0.6470588235294118
 40
0.6470588235294118
 40
0.7058823529411765
 40
0.7058823529411765
 40
0.7058823529411765
 40
0.7058823529411765
 40
0.7647058823529411
 40
0.7647058823529411
 40
0.7647058823529411
 40
0.7647058823529411
 40
0.8235294117647058
 40
0.8235294117647058
 40
0.8235294117647058
 40
0.8235294117647058
 40
0.8823529411764706
 40
0.8823529411764706
 40
0.8823529411764706
 40
0.8823529411764706
 40
1.0
 40
1.0
 40
1.0
 40
1.0
 10
-369.1285
 20
-131.6203
 30
0.0
 10
-366.3279
 20
-113.0955
 30
0.0
 10
-361.1047
 20
-114.082
 30
0.0
 10
-368.9795
 20
-93.8135
 30
0.0
 10
-368.9795
 20
-93.8135
 30
0.0
 10
-370.3854
 20
-90.1957
 30
0.0
 10
-374.368
 20
-78.2308
 30
0.0
 10
-374.7441
 20
-75.4011
 30
0.0
 10
-374.7441
 20
-75.4011
 30
0.0
 10
-378.408
 20
-47.8457
 30
0.0
 10
-307.1592
 20
-41.1457
 30
0.0
 10
-296.367
 20
-48.332
 30
0.0
 10
-296.367
 20
-48.332
 30
0.0
 10
-299.647
 20
-55.431
 30
0.0
 10
-294.155
 20
-49.549
 30
0.0
 10
-304.0428
 20
-53.8801
 30
0.0
 10
-304.0428
 20
-53.8801
 30
0.0
 10
-318.6569
 20
-60.2816
 30
0.0
 10
-322.7576
 20
-65.2643
 30
0.0
 10
-326.7824
 20
-66.9748
 30
0.0
 10
-326.7824
 20
-66.9748
 30
0.0
 10
-341.0098
 20
-73.0222
 30
0.0
 10
-356.4795
 20
-58.2091
 30
0.0
 10
-365.1627
 20
-72.5129
 30
0.0
 10
-365.1627
 20
-72.5129
 30
0.0
 10
-356.6285
 20
-76.4972
 30
0.0
 10
-354.4486
 20
-74.2662
 30
0.0
 10
-345.3961
 20
-76.3848
 30
0.0
 10
-345.3961
 20
-76.3848
 30
0.0
 10
-332.7578
 20
-79.3427
 30
0.0
 10
-348.0094
 20
-78.1021
 30
0.0
 10
-340.9272
 20
-85.8527
 30
0.0
 10
-340.9272
 20
-85.8527
 30
0.0
 10
-333.9956
 20
-93.4391
 30
0.0
 10
-334.6944
 20
-82.3804
 30
0.0
 10
-327.0905
 20
-80.4175
 30
0.0
 10
-327.0905
 20
-80.4175
 30
0.0
 10
-320.7306
 20
-78.7755
 30
0.0
 10
-314.545
 20
-82.7138
 30
0.0
 10
-311.6202
 20
-86.0101
 30
0.0
 10
-311.6202
 20
-86.0101
 30
0.0
 10
-316.907
 20
-98.3684
 30
0.0
 10
-331.3222
 20
-98.8574
 30
0.0
 10
-335.4167
 20
-107.8239
 30
0.0
 10
-335.4167
 20
-107.8239
 30
0.0
 10
-315.1161
 20
-112.3462
 30
0.0
 10
-308.1885
 20
-82.6053
 30
0.0
 10
-288.3556
 20
-102.4163
 30
0.0
 10
-288.3556
 20
-102.4163
 30
0.0
 10
-273.466
 20
-117.2895
 30
0.0
 10
-248.1889
 20
-101.921
 30
0.0
 10
-232.4258
 20
-111.7897
 30
0.0
 10
-232.4258
 20
-111.7897
 30
0.0
 10
-242.1641
 20
-130.6591
 30
0.0
 10
-278.1738
 20
-133.5439
 30
0.0
 10
-300.8696
 20
-144.3126
 30
0.0
 10
-300.8696
 20
-144.3126
 30
0.0
 10
-317.1724
 20
-152.048
 30
0.0
 10
-316.6102
 20
-154.5135
 30
0.0
 10
-339.7495
 20
-151.9249
 30
0.0
 10
-339.7495
 20
-151.9249
 30
0.0
 10
-355.4711
 20
-150.166
 30
0.0
 10
-359.4419
 20
-138.7801
 30
0.0
 10
-369.1285
 20
-131.6203
 30
0.0
  0
SPLINE
  5
7D
330
1F
100
AcDbEntity
  8
layer 1
 62
   250
370
     9
100
AcDbSpline
210
0.0
220
0.0
230
1.0
 70
    11
 71
     3
 72
    16
 73
    12
 74
     0
 42
0.000000001
 43
0.0000000001
 40
0.0
 40
0.0
 40
0.0
 40
0.0
 40
0.25
 40
0.25
 40
0.25
 40
0.25
 40
0.5
 40
0.5
 40
0.5
 40
0.5
 40
1.0
 40
1.0
 40
1.0
 40
1.0
 10
-238.7064
 20
121.8256
 30
0.0
 10
-232.6181
 20
118.5607
 30
0.0
 10
-232.3628
 20
119.2673
 30
0.0
 10
-232.3218
 20
109.9838
 30
0.0
 10
-232.3218
 20
109.9838
 30
0.0
 10
-232.3218
 20
109.9838
 30
0.0
 10
-243.5216
 20
111.4864
 30
0.0
 10
-243.5216
 20
111.4864
 30
0.0
 10
-243.5216
 20
111.4864
 30
0.0
 10
-243.5216
 20
111.4864
 30
0.0
 10
-238.7064
 20
121.8256
 30
0.0
 10
-238.7064
 20
121.8256
 30
0.0
  0
SPLINE
  5
7E
330
1F
100
AcDbEntity
  8
layer 1
 62
   250
370
     9
100
AcDbSpline
210
0.0
220
0.0
230
1.0
 70
    11
 71
     3
 72
   940
 73
   936
 74
     0
 42
0.000000001
 43
0.0000000001
 40
0.0
 40
0.0
 40
0.0
 40
0.0
 40
0.0042553191489362
 40
0.0042553191489362
 40
0.0042553191489362
 40
0.0042553191489362
 40
0.0085106382978723
 40
0.0085106382978723
 40
0.0085106382978723
 40
0.0085106382978723
 40
0.0127659574468085
 40
0.0127659574468085
 40
0.0127659574468085
 40
0.0127659574468085
 40
0.0170212765957447
 40
0.0170212765957447
 40
0.0170212765957447
 40
0.0170212765957447
 40
0.0212765957446809
 40
0.0212765957446809
 40
0.0212765957446809
 40
0.0212765957446809
 40
0.025531914893617
 40
0.025531914893617
 40
0.025531914893617
 40
0.025531914893617
 40
0.0297872340425532
 40
0.0297872340425532
 40
0.0297872340425532
 40
0.0297872340425532
 40
0.0340425531914894
 40
0.0340425531914894
 40
0.0340425531914894
 40
0.0340425531914894
 40
0.0382978723404255
 40
0.0382978723404255
 40
0.0382978723404255
 40
0.0382978723404255
 40
0.0425531914893617
 40
0.0425531914893617
 40
0.0425531914893617
 40
0.0425531914893617
 40
0.0468085106382979
 40
0.0468085106382979
 40
0.0468085106382979
 40
0.0468085106382979
 40
0.051063829787234
 40
0.051063829787234
 40
0.051063829787234
 40
0.051063829787234
 40
0.0553191489361702
 40
0.0553191489361702
 40
0.0553191489361702
 40
0.0553191489361702
 40
0.0595744680851064
 40
0.0595744680851064
 40
0.0595744680851064
 40
0.0595744680851064
 40
0.0638297872340425
 40
0.0638297872340425
 40
0.0638297872340425
 40
0.0638297872340425
 40
0.0680851063829787
 40
0.0680851063829787
 40
0.0680851063829787
 40
0.0680851063829787
 40
0.0723404255319149
 40
0.0723404255319149
 40
0.0723404255319149
 40
0.0723404255319149
 40
0.0765957446808511
 40
0.0765957446808511
 40
0.0765957446808511
 40
0.0765957446808511
 40
0.0808510638297872
 40
0.0808510638297872
 40
0.0808510638297872
 40
0.0808510638297872
 40
0.0851063829787234
 40
0.0851063829787234
 40
0.0851063829787234
 40
0.0851063829787234
 40
0.0893617021276596
 40
0.0893617021276596
 40
0.0893617021276596
 40
0.0893617021276596
 40
0.0936170212765957
 40
0.0936170212765957
 40
0.0936170212765957
 40
0.0936170212765957
 40
0.0978723404255319
 40
0.0978723404255319
 40
0.0978723404255319
 40
0.0978723404255319
 40
0.1021276595744681
 40
0.1021276595744681
 40
0.1021276595744681
 40
0.1021276595744681
 40
0.1063829787234043
 40
0.1063829787234043
 40
0.1063829787234043
 40
0.1063829787234043
 40
0.1106382978723404
 40
0.1106382978723404
 40
0.1106382978723404
 40
0.1106382978723404
 40
0.1148936170212766
 40
0.1148936170212766
 40
0.1148936170212766
 40
0.1148936170212766
 40
0.1191489361702128
 40
0.1191489361702128
 40
0.1191489361702128
 40
0.1191489361702128
 40
0.1234042553191489
 40
0.1234042553191489
 40
0.1234042553191489
 40
0.1234042553191489
 40
0.1276595744680851
 40
0.1276595744680851
 40
0.1276595744680851
 40
0.1276595744680851
 40
0.1319148936170213
 40
0.1319148936170213
 40
0.1319148936170213
 40
0.1319148936170213
 40
0.1361702127659574
 40
0.1361702127659574
 40
0.1361702127659574
 40
0.1361702127659574
 40
0.1404255319148936
 40
0.1404255319148936
 40
0.1404255319148936
 40
0.1404255319148936
 40
0.1446808510638298
 40
0.1446808510638298
 40
0.1446808510638298
 40
0.1446808510638298
 40
0.148936170212766
 40
0.148936170212766
 40
0.148936170212766
 40
0.148936170212766
 40
0.1531914893617021
 40
0.1531914893617021
 40
0.1531914893617021
 40
0.1531914893617021
 40
0.1574468085106383
 40
0.1574468085106383
 40
0.1574468085106383
 40
0.1574468085106383
 40
0.1617021276595745
 40
0.1617021276595745
 40
0.1617021276595745
 40
0.1617021276595745
 40
0.1659574468085106
 40
0.1659574468085106
 40
0.1659574468085106
 40
0.1659574468085106
 40
0.1702127659574468
 40
0.1702127659574468
 40
0.1702127659574468
 40
0.1702127659574468
 40
0.174468085106383
 40
0.174468085106383
 40
0.174468085106383
 40
0.174468085106383
 40
0.1787234042553192
 40
0.1787234042553192
 40
0.1787234042553192
 40
0.1787234042553192
 40
0.1829787234042553
 40
0.1829787234042553
 40
0.1829787234042553
 40
0.1829787234042553
 40
0.1872340425531915
 40
0.1872340425531915
 40
0.1872340425531915
 40
0.1872340425531915
 40
0.1914893617021277
 40
0.1914893617021277
 40
0.1914893617021277
 40
0.1914893617021277
 40
0.1957446808510638
 40
0.1957446808510638
 40
0.1957446808510638
 40
0.1957446808510638
 40
0.2
 40
0.2
 40
0.2
 40
0.2
 40
0.2042553191489362
 40
0.2042553191489362
 40
0.2042553191489362
 40
0.2042553191489362
 40
0.2085106382978723
 40
0.2085106382978723
 40
0.2085106382978723
 40
0.2085106382978723
 40
0.2127659574468085
 40
0.2127659574468085
 40
0.2127659574468085
 40
0.2127659574468085
 40
0.2170212765957447
 40
0.2170212765957447
 40
0.2170212765957447
 40
0.2170212765957447
 40
0.2212765957446808
 40
0.2212765957446808
 40
0.2212765957446808
 40
0.2212765957446808
 40
0.225531914893617
 40
0.225531914893617
 40
0.225531914893617
 40
0.225531914893617
 40
0.2297872340425532
 40
0.2297872340425532
 40
0.2297872340425532
 40
0.2297872340425532
 40
0.2340425531914894
 40
0.2340425531914894
 40
0.2340425531914894
 40
0.2340425531914894
 40
0.2382978723404255
 40
0.2382978723404255
 40
0.2382978723404255
 40
0.2382978723404255
 40
0.2425531914893617
 40
0.2425531914893617
 40
0.2425531914893617
 40
0.2425531914893617
 40
0.2468085106382979
 40
0.2468085106382979
 40
0.2468085106382979
 40
0.2468085106382979
 40
0.251063829787234
 40
0.251063829787234
 40
0.251063829787234
 40
0.251063829787234
 40
0.2553191489361702
 40
0.2553191489361702
 40
0.2553191489361702
 40
0.2553191489361702
 40
0.2595744680851064
 40
0.2595744680851064
 40
0.2595744680851064
 40
0.2595744680851064
 40
0.2638297872340425
 40
0.2638297872340425
 40
0.2638297872340425
 40
0.2638297872340425
 40
0.2680851063829787
 40
0.2680851063829787
 40
0.2680851063829787
 40
0.2680851063829787
 40
0.2723404255319149
 40
0.2723404255319149
 40
0.2723404255319149
 40
0.2723404255319149
 40
0.2765957446808511
 40
0.2765957446808511
 40
0.2765957446808511
 40
0.2765957446808511
 40
0.2808510638297873
 40
0.2808510638297873
 40
0.2808510638297873
 40
0.2808510638297873
 40
0.2851063829787234
 40
0.2851063829787234
 40
0.2851063829787234
 40
0.2851063829787234
 40
0.2893617021276595
 40
0.2893617021276595
 40
0.2893617021276595
 40
0.2893617021276595
 40
0.2936170212765957
 40
0.2936170212765957
 40
0.2936170212765957
 40
0.2936170212765957
 40
0.2978723404255319
 40
0.2978723404255319
 40
0.2978723404255319
 40
0.2978723404255319
 40
0.3021276595744681
 40
0.3021276595744681
 40
0.3021276595744681
 40
0.3021276595744681
 40
0.3063829787234043
 40
0.3063829787234043
 40
0.3063829787234043
 40
0.3063829787234043
 40
0.3106382978723404
 40
0.3106382978723404
 40
0.3106382978723404
 40
0.3106382978723404
 40
0.3148936170212766
 40
0.3148936170212766
 40
0.3148936170212766
 40
0.3148936170212766
 40
0.3191489361702128
 40
0.3191489361702128
 40
0.3191489361702128
 40
0.3191489361702128
 40
0.323404255319149
 40
0.323404255319149
 40
0.323404255319149
 40
0.323404255319149
 40
0.3276595744680851
 40
0.3276595744680851
 40
0.3276595744680851
 40
0.3276595744680851
 40
0.3319148936170213
 40
0.3319148936170213
 40
0.3319148936170213
 40
0.3319148936170213
 40
0.3361702127659574
 40
0.3361702127659574
 40
0.3361702127659574
 40
0.3361702127659574
 40
0.3404255319148936
 40
0.3404255319148936
 40
0.3404255319148936
 40
0.3404255319148936
 40
0.3446808510638298
 40
0.3446808510638298
 40
0.3446808510638298
 40
0.3446808510638298
 40
0.348936170212766
 40
0.348936170212766
 40
0.348936170212766
 40
0.348936170212766
 40
0.3531914893617021
 40
0.3531914893617021
 40
0.3531914893617021
 40
0.3531914893617021
 40
0.3574468085106383
 40
0.3574468085106383
 40
0.3574468085106383
 40
0.3574468085106383
 40
0.3617021276595745
 40
0.3617021276595745
 40
0.3617021276595745
 40
0.3617021276595745
 40
0.3659574468085106
 40
0.3659574468085106
 40
0.3659574468085106
 40
0.3659574468085106
 40
0.3702127659574468
 40
0.3702127659574468
 40
0.3702127659574468
 40
0.3702127659574468
 40
0.374468085106383
 40
0.374468085106383
 40
0.374468085106383
 40
0.374468085106383
 40
0.3787234042553191
 40
0.3787234042553191
 40
0.3787234042553191
 40
0.3787234042553191
 40
0.3829787234042553
 40
0.3829787234042553
 40
0.3829787234042553
 40
0.3829787234042553
 40
0.3872340425531915
 40
0.3872340425531915
 40
0.3872340425531915
 40
0.3872340425531915
 40
0.3914893617021277
 40
0.3914893617021277
 40
0.3914893617021277
 40
0.3914893617021277
 40
0.3957446808510638
 40
0.3957446808510638
 40
0.3957446808510638
 40
0.3957446808510638
 40
0.4
 40
0.4
 40
0.4
 40
0.4
 40
0.4042553191489361
 40
0.4042553191489361
 40
0.4042553191489361
 40
0.4042553191489361
 40
0.4085106382978723
 40
0.4085106382978723
 40
0.4085106382978723
 40
0.4085106382978723
 40
0.4127659574468085
 40
0.4127659574468085
 40
0.4127659574468085
 40
0.4127659574468085
 40
0.4170212765957447
 40
0.4170212765957447
 40
0.4170212765957447
 40
0.4170212765957447
 40
0.4212765957446808
 40
0.4212765957446808
 40
0.4212765957446808
 40
0.4212765957446808
 40
0.425531914893617
 40
0.425531914893617
 40
0.425531914893617
 40
0.425531914893617
 40
0.4297872340425532
 40
0.4297872340425532
 40
0.4297872340425532
 40
0.4297872340425532
 40
0.4340425531914894
 40
0.4340425531914894
 40
0.4340425531914894
 40
0.4340425531914894
 40
0.4382978723404256
 40
0.4382978723404256
 40
0.4382978723404256
 40
0.4382978723404256
 40
0.4425531914893617
 40
0.4425531914893617
 40
0.4425531914893617
 40
0.4425531914893617
 40
0.4468085106382979
 40
0.4468085106382979
 40
0.4468085106382979
 40
0.4468085106382979
 40
0.451063829787234
 40
0.451063829787234
 40
0.451063829787234
 40
0.451063829787234
 40
0.4553191489361702
 40
0.4553191489361702
 40
0.4553191489361702
 40
0.4553191489361702
 40
0.4595744680851064
 40
0.4595744680851064
 40
0.4595744680851064
 40
0.4595744680851064
 40
0.4638297872340426
 40
0.4638297872340426
 40
0.4638297872340426
 40
0.4638297872340426
 40
0.4680851063829787
 40
0.4680851063829787
 40
0.4680851063829787
 40
0.4680851063829787
 40
0.4723404255319149
 40
0.4723404255319149
 40
0.4723404255319149
 40
0.4723404255319149
 40
0.4765957446808511
 40
0.4765957446808511
 40
0.4765957446808511
 40
0.4765957446808511
 40
0.4808510638297872
 40
0.4808510638297872
 40
0.4808510638297872
 40
0.4808510638297872
 40
0.4851063829787234
 40
0.4851063829787234
 40
0.4851063829787234
 40
0.4851063829787234
 40
0.4893617021276596
 40
0.4893617021276596
 40
0.4893617021276596
 40
0.4893617021276596
 40
0.4936170212765957
 40
0.4936170212765957
 40
0.4936170212765957
 40
0.4936170212765957
 40
0.4978723404255319
 40
0.4978723404255319
 40
0.4978723404255319
 40
0.4978723404255319
 40
0.502127659574468
 40
0.502127659574468
 40
0.502127659574468
 40
0.502127659574468
 40
0.5063829787234042
 40
0.5063829787234042
 40
0.5063829787234042
 40
0.5063829787234042
 40
0.5106382978723404
 40
0.5106382978723404
 40
0.5106382978723404
 40
0.5106382978723404
 40
0.5148936170212766
 40
0.5148936170212766
 40
0.5148936170212766
 40
0.5148936170212766
 40
0.5191489361702127
 40
0.5191489361702127
 40
0.5191489361702127
 40
0.5191489361702127
 40
0.5234042553191489
 40
0.5234042553191489
 40
0.5234042553191489
 40
0.5234042553191489
 40
0.5276595744680851
 40
0.5276595744680851
 40
0.5276595744680851
 40
0.5276595744680851
 40
0.5319148936170213
 40
0.5319148936170213
 40
0.5319148936170213
 40
0.5319148936170213
 40
0.5361702127659574
 40
0.5361702127659574
 40
0.5361702127659574
 40
0.5361702127659574
 40
0.5404255319148936
 40
0.5404255319148936
 40
0.5404255319148936
 40
0.5404255319148936
 40
0.5446808510638298
 40
0.5446808510638298
 40
0.5446808510638298
 40
0.5446808510638298
 40
0.548936170212766
 40
0.548936170212766
 40
0.548936170212766
 40
0.548936170212766
 40
0.5531914893617021
 40
0.5531914893617021
 40
0.5531914893617021
 40
0.5531914893617021
 40
0.5574468085106383
 40
0.5574468085106383
 40
0.5574468085106383
 40
0.5574468085106383
 40
0.5617021276595745
 40
0.5617021276595745
 40
0.5617021276595745
 40
0.5617021276595745
 40
0.5659574468085107
 40
0.5659574468085107
 40
0.5659574468085107
 40
0.5659574468085107
 40
0.5702127659574469
 40
0.5702127659574469
 40
0.5702127659574469
 40
0.5702127659574469
 40
0.574468085106383
 40
0.574468085106383
 40
0.574468085106383
 40
0.574468085106383
 40
0.5787234042553191
 40
0.5787234042553191
 40
0.5787234042553191
 40
0.5787234042553191
 40
0.5829787234042553
 40
0.5829787234042553
 40
0.5829787234042553
 40
0.5829787234042553
 40
0.5872340425531914
 40
0.5872340425531914
 40
0.5872340425531914
 40
0.5872340425531914
 40
0.5914893617021276
 40
0.5914893617021276
 40
0.5914893617021276
 40
0.5914893617021276
 40
0.5957446808510638
 40
0.5957446808510638
 40
0.5957446808510638
 40
0.5957446808510638
 40
0.6
 40
0.6
 40
0.6
 40
0.6
 40
0.6042553191489362
 40
0.6042553191489362
 40
0.6042553191489362
 40
0.6042553191489362
 40
0.6085106382978723
 40
0.6085106382978723
 40
0.6085106382978723
 40
0.6085106382978723
 40
0.6127659574468085
 40
0.6127659574468085
 40
0.6127659574468085
 40
0.6127659574468085
 40
0.6170212765957447
 40
0.6170212765957447
 40
0.6170212765957447
 40
0.6170212765957447
 40
0.6212765957446809
 40
0.6212765957446809
 40
0.6212765957446809
 40
0.6212765957446809
 40
0.625531914893617
 40
0.625531914893617
 40
0.625531914893617
 40
0.625531914893617
 40
0.6297872340425532
 40
0.6297872340425532
 40
0.6297872340425532
 40
0.6297872340425532
 40
0.6340425531914894
 40
0.6340425531914894
 40
0.6340425531914894
 40
0.6340425531914894
 40
0.6382978723404256
 40
0.6382978723404256
 40
0.6382978723404256
 40
0.6382978723404256
 40
0.6425531914893617
 40
0.6425531914893617
 40
0.6425531914893617
 40
0.6425531914893617
 40
0.6468085106382979
 40
0.6468085106382979
 40
0.6468085106382979
 40
0.6468085106382979
 40
0.6510638297872341
 40
0.6510638297872341
 40
0.6510638297872341
 40
0.6510638297872341
 40
0.6553191489361702
 40
0.6553191489361702
 40
0.6553191489361702
 40
0.6553191489361702
 40
0.6595744680851063
 40
0.6595744680851063
 40
0.6595744680851063
 40
0.6595744680851063
 40
0.6638297872340425
 40
0.6638297872340425
 40
0.6638297872340425
 40
0.6638297872340425
 40
0.6680851063829787
 40
0.6680851063829787
 40
0.6680851063829787
 40
0.6680851063829787
 40
0.6723404255319149
 40
0.6723404255319149
 40
0.6723404255319149
 40
0.6723404255319149
 40
0.676595744680851
 40
0.676595744680851
 40
0.676595744680851
 40
0.676595744680851
 40
0.6808510638297872
 40
0.6808510638297872
 40
0.6808510638297872
 40
0.6808510638297872
 40
0.6851063829787234
 40
0.6851063829787234
 40
0.6851063829787234
 40
0.6851063829787234
 40
0.6893617021276596
 40
0.6893617021276596
 40
0.6893617021276596
 40
0.6893617021276596
 40
0.6936170212765957
 40
0.6936170212765957
 40
0.6936170212765957
 40
0.6936170212765957
 40
0.6978723404255319
 40
0.6978723404255319
 40
0.6978723404255319
 40
0.6978723404255319
 40
0.7021276595744681
 40
0.7021276595744681
 40
0.7021276595744681
 40
0.7021276595744681
 40
0.7063829787234043
 40
0.7063829787234043
 40
0.7063829787234043
 40
0.7063829787234043
 40
0.7106382978723405
 40
0.7106382978723405
 40
0.7106382978723405
 40
0.7106382978723405
 40
0.7148936170212766
 40
0.7148936170212766
 40
0.7148936170212766
 40
0.7148936170212766
 40
0.7191489361702128
 40
0.7191489361702128
 40
0.7191489361702128
 40
0.7191489361702128
 40
0.723404255319149
 40
0.723404255319149
 40
0.723404255319149
 40
0.723404255319149
 40
0.7276595744680852
 40
0.7276595744680852
 40
0.7276595744680852
 40
0.7276595744680852
 40
0.7319148936170212
 40
0.7319148936170212
 40
0.7319148936170212
 40
0.7319148936170212
 40
0.7361702127659574
 40
0.7361702127659574
 40
0.7361702127659574
 40
0.7361702127659574
 40
0.7404255319148936
 40
0.7404255319148936
 40
0.7404255319148936
 40
0.7404255319148936
 40
0.7446808510638298
 40
0.7446808510638298
 40
0.7446808510638298
 40
0.7446808510638298
 40
0.7489361702127659
 40
0.7489361702127659
 40
0.7489361702127659
 40
0.7489361702127659
 40
0.7531914893617021
 40
0.7531914893617021
 40
0.7531914893617021
 40
0.7531914893617021
 40
0.7574468085106383
 40
0.7574468085106383
 40
0.7574468085106383
 40
0.7574468085106383
 40
0.7617021276595745
 40
0.7617021276595745
 40
0.7617021276595745
 40
0.7617021276595745
 40
0.7659574468085106
 40
0.7659574468085106
 40
0.7659574468085106
 40
0.7659574468085106
 40
0.7702127659574468
 40
0.7702127659574468
 40
0.7702127659574468
 40
0.7702127659574468
 40
0.774468085106383
 40
0.774468085106383
 40
0.774468085106383
 40
0.774468085106383
 40
0.7787234042553192
 40
0.7787234042553192
 40
0.7787234042553192
 40
0.7787234042553192
 40
0.7829787234042553
 40
0.7829787234042553
 40
0.7829787234042553
 40
0.7829787234042553
 40
0.7872340425531915
 40
0.7872340425531915
 40
0.7872340425531915
 40
0.7872340425531915
 40
0.7914893617021277
 40
0.7914893617021277
 40
0.7914893617021277
 40
0.7914893617021277
 40
0.7957446808510639
 40
0.7957446808510639
 40
0.7957446808510639
 40
0.7957446808510639
 40
0.8
 40
0.8
 40
0.8
 40
0.8
 40
0.8042553191489362
 40
0.8042553191489362
 40
0.8042553191489362
 40
0.8042553191489362
 40
0.8085106382978723
 40
0.8085106382978723
 40
0.8085106382978723
 40
0.8085106382978723
 40
0.8127659574468085
 40
0.8127659574468085
 40
0.8127659574468085
 40
0.8127659574468085
 40
0.8170212765957446
 40
0.8170212765957446
 40
0.8170212765957446
 40
0.8170212765957446
 40
0.8212765957446808
 40
0.8212765957446808
 40
0.8212765957446808
 40
0.8212765957446808
 40
0.825531914893617
 40
0.825531914893617
 40
0.825531914893617
 40
0.825531914893617
 40
0.8297872340425532
 40
0.8297872340425532
 40
0.8297872340425532
 40
0.8297872340425532
 40
0.8340425531914893
 40
0.8340425531914893
 40
0.8340425531914893
 40
0.8340425531914893
 40
0.8382978723404255
 40
0.8382978723404255
 40
0.8382978723404255
 40
0.8382978723404255
 40
0.8425531914893617
 40
0.8425531914893617
 40
0.8425531914893617
 40
0.8425531914893617
 40
0.8468085106382979
 40
0.8468085106382979
 40
0.8468085106382979
 40
0.8468085106382979
 40
0.851063829787234
 40
0.851063829787234
 40
0.851063829787234
 40
0.851063829787234
 40
0.8553191489361702
 40
0.8553191489361702
 40
0.8553191489361702
 40
0.8553191489361702
 40
0.8595744680851064
 40
0.8595744680851064
 40
0.8595744680851064
 40
0.8595744680851064
 40
0.8638297872340426
 40
0.8638297872340426
 40
0.8638297872340426
 40
0.8638297872340426
 40
0.8680851063829788
 40
0.8680851063829788
 40
0.8680851063829788
 40
0.8680851063829788
 40
0.8723404255319149
 40
0.8723404255319149
 40
0.8723404255319149
 40
0.8723404255319149
 40
0.8765957446808511
 40
0.8765957446808511
 40
0.8765957446808511
 40
0.8765957446808511
 40
0.8808510638297873
 40
0.8808510638297873
 40
0.8808510638297873
 40
0.8808510638297873
 40
0.8851063829787233
 40
0.8851063829787233
 40
0.8851063829787233
 40
0.8851063829787233
 40
0.8893617021276595
 40
0.8893617021276595
 40
0.8893617021276595
 40
0.8893617021276595
 40
0.8936170212765957
 40
0.8936170212765957
 40
0.8936170212765957
 40
0.8936170212765957
 40
0.8978723404255319
 40
0.8978723404255319
 40
0.8978723404255319
 40
0.8978723404255319
 40
0.902127659574468
 40
0.902127659574468
 40
0.902127659574468
 40
0.902127659574468
 40
0.9063829787234042
 40
0.9063829787234042
 40
0.9063829787234042
 40
0.9063829787234042
 40
0.9106382978723404
 40
0.9106382978723404
 40
0.9106382978723404
 40
0.9106382978723404
 40
0.9148936170212766
 40
0.9148936170212766
 40
0.9148936170212766
 40
0.9148936170212766
 40
0.9191489361702128
 40
0.9191489361702128
 40
0.9191489361702128
 40
0.9191489361702128
 40
0.9234042553191489
 40
0.9234042553191489
 40
0.9234042553191489
 40
0.9234042553191489
 40
0.9276595744680851
 40
0.9276595744680851
 40
0.9276595744680851
 40
0.9276595744680851
 40
0.9319148936170213
 40
0.9319148936170213
 40
0.9319148936170213
 40
0.9319148936170213
 40
0.9361702127659575
 40
0.9361702127659575
 40
0.9361702127659575
 40
0.9361702127659575
 40
0.9404255319148936
 40
0.9404255319148936
 40
0.9404255319148936
 40
0.9404255319148936
 40
0.9446808510638298
 40
0.9446808510638298
 40
0.9446808510638298
 40
0.9446808510638298
 40
0.948936170212766
 40
0.948936170212766
 40
0.948936170212766
 40
0.948936170212766
 40
0.9531914893617022
 40
0.9531914893617022
 40
0.9531914893617022
 40
0.9531914893617022
 40
0.9574468085106383
 40
0.9574468085106383
 40
0.9574468085106383
 40
0.9574468085106383
 40
0.9617021276595744
 40
0.9617021276595744
 40
0.9617021276595744
 40
0.9617021276595744
 40
0.9659574468085106
 40
0.9659574468085106
 40
0.9659574468085106
 40
0.9659574468085106
 40
0.9702127659574468
 40
0.9702127659574468
 40
0.9702127659574468
 40
0.9702127659574468
 40
0.9744680851063829
 40
0.9744680851063829
 40
0.9744680851063829
 40
0.9744680851063829
 40
0.9787234042553191
 40
0.9787234042553191
 40
0.9787234042553191
 40
0.9787234042553191
 40
0.9829787234042553
 40
0.9829787234042553
 40
0.9829787234042553
 40
0.9829787234042553
 40
0.9872340425531915
 40
0.9872340425531915
 40
0.9872340425531915
 40
0.9872340425531915
 40
0.9914893617021276
 40
0.9914893617021276
 40
0.9914893617021276
 40
0.9914893617021276
 40
1.0
 40
1.0
 40
1.0
 40
1.0
 10
-217.9185
 20
212.0528
 30
0.0
 10
-223.5234
 20
216.7938
 30
0.0
 10
-222.9388
 20
218.1783
 30
0.0
 10
-232.2161
 20
219.2767
 30
0.0
 10
-232.2161
 20
219.2767
 30
0.0
 10
-244.4289
 20
215.8972
 30
0.0
 10
-228.0845
 20
206.6345
 30
0.0
 10
-223.3913
 20
194.6062
 30
0.0
 10
-223.3913
 20
194.6062
 30
0.0
 10
-218.8134
 20
182.8729
 30
0.0
 10
-214.2557
 20
171.0649
 30
0.0
 10
-220.8612
 20
162.3329
 30
0.0
 10
-220.8612
 20
162.3329
 30
0.0
 10
-220.8612
 20
162.3329
 30
0.0
 10
-234.038
 20
169.0126
 30
0.0
 10
-234.038
 20
169.0126
 30
0.0
 10
-234.038
 20
169.0126
 30
0.0
 10
-230.9019
 20
158.3789
 30
0.0
 10
-227.324
 20
165.0575
 30
0.0
 10
-224.3661
 20
153.9156
 30
0.0
 10
-224.3661
 20
153.9156
 30
0.0
 10
-227.7607
 20
151.0044
 30
0.0
 10
-227.2256
 20
150.8419
 30
0.0
 10
-233.1571
 20
149.4467
 30
0.0
 10
-233.1571
 20
149.4467
 30
0.0
 10
-237.7109
 20
160.6105
 30
0.0
 10
-236.3376
 20
172.1453
 30
0.0
 10
-246.1793
 20
176.4372
 30
0.0
 10
-246.1793
 20
176.4372
 30
0.0
 10
-246.1793
 20
176.4372
 30
0.0
 10
-247.3974
 20
173.2718
 30
0.0
 10
-247.3974
 20
173.2718
 30
0.0
 10
-247.3974
 20
173.2718
 30
0.0
 10
-249.0658
 20
163.3711
 30
0.0
 10
-242.0764
 20
149.703
 30
0.0
 10
-243.3872
 20
139.2093
 30
0.0
 10
-243.3872
 20
139.2093
 30
0.0
 10
-244.996
 20
126.3304
 30
0.0
 10
-251.1058
 20
115.147
 30
0.0
 10
-262.0436
 20
112.2947
 30
0.0
 10
-262.0436
 20
112.2947
 30
0.0
 10
-266.0797
 20
144.88
 30
0.0
 10
-267.2995
 20
178.9077
 30
0.0
 10
-284.7557
 20
198.717
 30
0.0
 10
-284.7557
 20
198.717
 30
0.0
 10
-296.8268
 20
212.4154
 30
0.0
 10
-314.0155
 20
211.5908
 30
0.0
 10
-295.1028
 20
194.2486
 30
0.0
 10
-295.1028
 20
194.2486
 30
0.0
 10
-287.2549
 20
187.0518
 30
0.0
 10
-278.2632
 20
172.7817
 30
0.0
 10
-279.1384
 20
157.1523
 30
0.0
 10
-279.1384
 20
157.1523
 30
0.0
 10
-284.817
 20
157.5194
 30
0.0
 10
-290.4725
 20
163.9484
 30
0.0
 10
-296.3467
 20
164.7253
 30
0.0
 10
-296.3467
 20
164.7253
 30
0.0
 10
-299.2816
 20
165.1131
 30
0.0
 10
-299.2619
 20
164.7618
 30
0.0
 10
-300.5655
 20
164.3031
 30
0.0
 10
-300.5655
 20
164.3031
 30
0.0
 10
-301.407
 20
152.5676
 30
0.0
 10
-279.2536
 20
146.8379
 30
0.0
 10
-275.3008
 20
136.7685
 30
0.0
 10
-275.3008
 20
136.7685
 30
0.0
 10
-273.5267
 20
132.2496
 30
0.0
 10
-272.9348
 20
119.1707
 30
0.0
 10
-271.4244
 20
112.9283
 30
0.0
 10
-271.4244
 20
112.9283
 30
0.0
 10
-269.308
 20
104.181
 30
0.0
 10
-264.8379
 20
99.7801
 30
0.0
 10
-266.9465
 20
89.4348
 30
0.0
 10
-266.9465
 20
89.4348
 30
0.0
 10
-274.2294
 20
91.4399
 30
0.0
 10
-269.9707
 20
92.4922
 30
0.0
 10
-277.6735
 20
94.2129
 30
0.0
 10
-277.6735
 20
94.2129
 30
0.0
 10
-278.2356
 20
80.2536
 30
0.0
 10
-267.6862
 20
85.727
 30
0.0
 10
-264.4501
 20
73.6925
 30
0.0
 10
-264.4501
 20
73.6925
 30
0.0
 10
-259.939
 20
56.9187
 30
0.0
 10
-275.1822
 20
64.1431
 30
0.0
 10
-282.7276
 20
67.7177
 30
0.0
 10
-282.7276
 20
67.7177
 30
0.0
 10
-305.1715
 20
78.3508
 30
0.0
 10
-310.7192
 20
72.6171
 30
0.0
 10
-315.6535
 20
104.2552
 30
0.0
 10
-315.6535
 20
104.2552
 30
0.0
 10
-321.11
 20
139.2391
 30
0.0
 10
-326.498
 20
178.0533
 30
0.0
 10
-314.9177
 20
212.9871
 30
0.0
 10
-314.9177
 20
212.9871
 30
0.0
 10
-311.7276
 20
222.6107
 30
0.0
 10
-310.0924
 20
221.6725
 30
0.0
 10
-314.3949
 20
225.3881
 30
0.0
 10
-314.3949
 20
225.3881
 30
0.0
 10
-324.571
 20
231.7002
 30
0.0
 10
-328.1743
 20
210.2181
 30
0.0
 10
-329.4677
 20
201.5321
 30
0.0
 10
-329.4677
 20
201.5321
 30
0.0
 10
-341.7035
 20
202.6929
 30
0.0
 10
-333.2205
 20
208.4665
 30
0.0
 10
-347.3152
 20
209.7195
 30
0.0
 10
-347.3152
 20
209.7195
 30
0.0
 10
-345.373
 20
196.4741
 30
0.0
 10
-334.8731
 20
197.3746
 30
0.0
 10
-333.0378
 20
171.8052
 30
0.0
 10
-333.0378
 20
171.8052
 30
0.0
 10
-331.9562
 20
156.738
 30
0.0
 10
-329.3362
 20
137.5673
 30
0.0
 10
-329.5835
 20
123.5665
 30
0.0
 10
-329.5835
 20
123.5665
 30
0.0
 10
-340.1267
 20
128.032
 30
0.0
 10
-340.2296
 20
144.8418
 30
0.0
 10
-358.6201
 20
172.4551
 30
0.0
 10
-358.6201
 20
172.4551
 30
0.0
 10
-364.3628
 20
181.0769
 30
0.0
 10
-380.168
 20
220.0946
 30
0.0
 10
-386.4835
 20
222.5949
 30
0.0
 10
-386.4835
 20
222.5949
 30
0.0
 10
-394.9789
 20
207.4159
 30
0.0
 10
-372.029
 20
191.8309
 30
0.0
 10
-374.8351
 20
181.1832
 30
0.0
 10
-374.8351
 20
181.1832
 30
0.0
 10
-387.9608
 20
177.8694
 30
0.0
 10
-394.1515
 20
195.5876
 30
0.0
 10
-407.0618
 20
197.8912
 30
0.0
 10
-407.0618
 20
197.8912
 30
0.0
 10
-407.1416
 20
180.2028
 30
0.0
 10
-393.6984
 20
176.4282
 30
0.0
 10
-378.6025
 20
170.2808
 30
0.0
 10
-378.6025
 20
170.2808
 30
0.0
 10
-359.7342
 20
162.5971
 30
0.0
 10
-361.5004
 20
157.0197
 30
0.0
 10
-354.1152
 20
138.926
 30
0.0
 10
-354.1152
 20
138.926
 30
0.0
 10
-362.6545
 20
138.0766
 30
0.0
 10
-356.0298
 20
139.2925
 30
0.0
 10
-364.3116
 20
141.1897
 30
0.0
 10
-364.3116
 20
141.1897
 30
0.0
 10
-369.3724
 20
123.6969
 30
0.0
 10
-349.8852
 20
130.9618
 30
0.0
 10
-341.0177
 20
112.6641
 30
0.0
 10
-341.0177
 20
112.6641
 30
0.0
 10
-338.4848
 20
107.4385
 30
0.0
 10
-320.4703
 20
83.4459
 30
0.0
 10
-322.3922
 20
79.2907
 30
0.0
 10
-322.3922
 20
79.2907
 30
0.0
 10
-327.9764
 20
67.2185
 30
0.0
 10
-368.6866
 20
97.0151
 30
0.0
 10
-373.4276
 20
104.077
 30
0.0
 10
-373.4276
 20
104.077
 30
0.0
 10
-378.6076
 20
111.7928
 30
0.0
 10
-376.861
 20
117.3449
 30
0.0
 10
-384.7842
 20
119.7603
 30
0.0
 10
-384.7842
 20
119.7603
 30
0.0
 10
-394.5719
 20
92.7238
 30
0.0
 10
-362.9142
 20
75.7386
 30
0.0
 10
-343.2555
 20
70.7818
 30
0.0
 10
-343.2555
 20
70.7818
 30
0.0
 10
-334.8832
 20
68.671
 30
0.0
 10
-322.5418
 20
68.1645
 30
0.0
 10
-317.6299
 20
62.7187
 30
0.0
 10
-317.6299
 20
62.7187
 30
0.0
 10
-323.643
 20
57.7208
 30
0.0
 10
-333.2385
 20
54.2986
 30
0.0
 10
-341.4348
 20
50.9444
 30
0.0
 10
-341.4348
 20
50.9444
 30
0.0
 10
-346.5018
 20
48.8707
 30
0.0
 10
-349.5879
 20
47.7127
 30
0.0
 10
-354.0421
 20
45.6694
 30
0.0
 10
-354.0421
 20
45.6694
 30
0.0
 10
-360.203
 20
42.8431
 30
0.0
 10
-361.4425
 20
43.4434
 30
0.0
 10
-363.1795
 20
36.9391
 30
0.0
 10
-363.1795
 20
36.9391
 30
0.0
 10
-352.1129
 20
38.7289
 30
0.0
 10
-339.9255
 20
47.1489
 30
0.0
 10
-327.4817
 20
50.4284
 30
0.0
 10
-327.4817
 20
50.4284
 30
0.0
 10
-327.8567
 20
39.9447
 30
0.0
 10
-342.5731
 20
33.3909
 30
0.0
 10
-345.332
 20
23.0574
 30
0.0
 10
-345.332
 20
23.0574
 30
0.0
 10
-320.1887
 20
29.5454
 30
0.0
 10
-324.2147
 20
67.2337
 30
0.0
 10
-277.3525
 20
55.4037
 30
0.0
 10
-277.3525
 20
55.4037
 30
0.0
 10
-259.9486
 20
51.0102
 30
0.0
 10
-260.7968
 20
40.8779
 30
0.0
 10
-250.2345
 20
28.9484
 30
0.0
 10
-250.2345
 20
28.9484
 30
0.0
 10
-242.9842
 20
20.7605
 30
0.0
 10
-230.2431
 20
8.2223
 30
0.0
 10
-224.8995
 20
-0.5997
 30
0.0
 10
-224.8995
 20
-0.5997
 30
0.0
 10
-240.3304
 20
-11.7303
 30
0.0
 10
-257.2931
 20
4.9232
 30
0.0
 10
-267.2534
 20
15.8751
 30
0.0
 10
-267.2534
 20
15.8751
 30
0.0
 10
-273.7263
 20
22.9922
 30
0.0
 10
-270.6722
 20
25.8208
 30
0.0
 10
-280.4251
 20
27.5578
 30
0.0
 10
-280.4251
 20
27.5578
 30
0.0
 10
-282.4066
 20
-0.1016
 30
0.0
 10
-258.2543
 20
7.102
 30
0.0
 10
-254.5735
 20
-6.2265
 30
0.0
 10
-254.5735
 20
-6.2265
 30
0.0
 10
-291.5524
 20
-10.1108
 30
0.0
 10
-286.7395
 20
8.6569
 30
0.0
 10
-313.6034
 20
11.9256
 30
0.0
 10
-313.6034
 20
11.9256
 30
0.0
 10
-310.4791
 20
5.8771
 30
0.0
 10
-303.8185
 20
-0.4676
 30
0.0
 10
-304.3818
 20
-7.9776
 30
0.0
 10
-304.3818
 20
-7.9776
 30
0.0
 10
-309.4409
 20
-6.7634
 30
0.0
 10
-340.3589
 20
10.4163
 30
0.0
 10
-346.3438
 20
14.1792
 30
0.0
 10
-346.3438
 20
14.1792
 30
0.0
 10
-359.4003
 20
22.3884
 30
0.0
 10
-375.983
 20
28.6247
 30
0.0
 10
-387.2514
 20
38.7199
 30
0.0
 10
-387.2514
 20
38.7199
 30
0.0
 10
-405.1922
 20
54.7927
 30
0.0
 10
-402.0555
 20
57.5364
 30
0.0
 10
-407.1023
 20
84.2216
 30
0.0
 10
-407.1023
 20
84.2216
 30
0.0
 10
-408.8803
 20
93.6198
 30
0.0
 10
-412.4773
 20
102.4828
 30
0.0
 10
-412.8371
 20
112.3228
 30
0.0
 10
-412.8371
 20
112.3228
 30
0.0
 10
-413.3272
 20
125.7245
 30
0.0
 10
-409.0776
 20
129.1433
 30
0.0
 10
-407.557
 20
139.4285
 30
0.0
 10
-407.557
 20
139.4285
 30
0.0
 10
-418.3397
 20
141.9418
 30
0.0
 10
-413.4413
 20
135.2924
 30
0.0
 10
-422.6709
 20
132.1254
 30
0.0
 10
-422.6709
 20
132.1254
 30
0.0
 10
-430.5659
 20
154.471
 30
0.0
 10
-428.7688
 20
169.9351
 30
0.0
 10
-442.4858
 20
203.5816
 30
0.0
 10
-442.4858
 20
203.5816
 30
0.0
 10
-452.1836
 20
227.3691
 30
0.0
 10
-434.5413
 20
232.8953
 30
0.0
 10
-473.704
 20
228.7688
 30
0.0
 10
-473.704
 20
228.7688
 30
0.0
 10
-472.8062
 20
221.4235
 30
0.0
 10
-468.0265
 20
221.1722
 30
0.0
 10
-462.6093
 20
215.1749
 30
0.0
 10
-462.6093
 20
215.1749
 30
0.0
 10
-452.4107
 20
203.8857
 30
0.0
 10
-436.7206
 20
172.2757
 30
0.0
 10
-436.7358
 20
158.0883
 30
0.0
 10
-436.7358
 20
158.0883
 30
0.0
 10
-444.4268
 20
158.5992
 30
0.0
 10
-451.7052
 20
165.3133
 30
0.0
 10
-458.5991
 20
169.6208
 30
0.0
 10
-458.5991
 20
169.6208
 30
0.0
 10
-500.9181
 20
196.0626
 30
0.0
 10
-495.5307
 20
212.6925
 30
0.0
 10
-503.2099
 20
229.2949
 30
0.0
 10
-503.2099
 20
229.2949
 30
0.0
 10
-513.7245
 20
228.6816
 30
0.0
 10
-508.3803
 20
228.893
 30
0.0
 10
-514.1747
 20
225.7024
 30
0.0
 10
-514.1747
 20
225.7024
 30
0.0
 10
-517.9303
 20
223.6349
 30
0.0
 10
-515.5733
 20
225.1475
 30
0.0
 10
-517.887
 20
223.3459
 30
0.0
 10
-517.887
 20
223.3459
 30
0.0
 10
-514.1404
 20
203.4445
 30
0.0
 10
-482.5513
 20
175.6159
 30
0.0
 10
-466.5133
 20
165.6674
 30
0.0
 10
-466.5133
 20
165.6674
 30
0.0
 10
-441.6848
 20
150.2674
 30
0.0
 10
-444.8664
 20
152.8998
 30
0.0
 10
-432.7312
 20
118.115
 30
0.0
 10
-432.7312
 20
118.115
 30
0.0
 10
-431.5401
 20
114.6995
 30
0.0
 10
-430.1365
 20
111.2346
 30
0.0
 10
-429.0589
 20
107.6358
 30
0.0
 10
-429.0589
 20
107.6358
 30
0.0
 10
-429.0589
 20
107.6358
 30
0.0
 10
-428.9144
 20
98.1399
 30
0.0
 10
-428.9144
 20
98.1399
 30
0.0
 10
-428.9144
 20
98.1399
 30
0.0
 10
-437.9528
 20
96.4125
 30
0.0
 10
-456.9155
 20
113.3279
 30
0.0
 10
-459.6239
 20
122.9212
 30
0.0
 10
-459.6239
 20
122.9212
 30
0.0
 10
-463.9966
 20
138.4128
 30
0.0
 10
-460.9831
 20
142.4528
 30
0.0
 10
-473.0676
 20
153.2366
 30
0.0
 10
-473.0676
 20
153.2366
 30
0.0
 10
-477.3921
 20
157.0956
 30
0.0
 10
-476.4561
 20
157.9365
 30
0.0
 10
-483.395
 20
157.1546
 30
0.0
 10
-483.395
 20
157.1546
 30
0.0
 10
-483.1567
 20
148.5962
 30
0.0
 10
-473.5809
 20
137.8484
 30
0.0
 10
-469.8275
 20
128.5576
 30
0.0
 10
-469.8275
 20
128.5576
 30
0.0
 10
-461.9938
 20
109.1682
 30
0.0
 10
-469.0827
 20
110.1474
 30
0.0
 10
-452.4343
 20
100.3462
 30
0.0
 10
-452.4343
 20
100.3462
 30
0.0
 10
-435.4103
 20
90.3246
 30
0.0
 10
-418.5449
 20
81.2682
 30
0.0
 10
-414.4121
 20
60.6922
 30
0.0
 10
-414.4121
 20
60.6922
 30
0.0
 10
-413.8017
 20
57.6528
 30
0.0
 10
-413.8196
 20
58.5179
 30
0.0
 10
-413.9686
 20
56.415
 30
0.0
 10
-413.9686
 20
56.415
 30
0.0
 10
-415.5639
 20
33.8277
 30
0.0
 10
-491.502
 20
114.9991
 30
0.0
 10
-492.2698
 20
116.1526
 30
0.0
 10
-492.2698
 20
116.1526
 30
0.0
 10
-495.9113
 20
121.6255
 30
0.0
 10
-500.4437
 20
134.271
 30
0.0
 10
-502.6478
 20
141.4089
 30
0.0
 10
-502.6478
 20
141.4089
 30
0.0
 10
-505.8592
 20
151.8121
 30
0.0
 10
-507.1459
 20
161.7865
 30
0.0
 10
-510.9762
 20
170.8097
 30
0.0
 10
-510.9762
 20
170.8097
 30
0.0
 10
-516.2456
 20
183.2254
 30
0.0
 10
-528.5792
 20
212.6133
 30
0.0
 10
-542.6908
 20
210.5008
 30
0.0
 10
-542.6908
 20
210.5008
 30
0.0
 10
-544.3007
 20
197.3212
 30
0.0
 10
-517.634
 20
172.9672
 30
0.0
 10
-518.376
 20
150.739
 30
0.0
 10
-518.376
 20
150.739
 30
0.0
 10
-529.5522
 20
159.6943
 30
0.0
 10
-548.9933
 20
203.4045
 30
0.0
 10
-559.4241
 20
207.0865
 30
0.0
 10
-559.4241
 20
207.0865
 30
0.0
 10
-565.4833
 20
187.9635
 30
0.0
 10
-546.6588
 20
176.8278
 30
0.0
 10
-537.9015
 20
163.6865
 30
0.0
 10
-537.9015
 20
163.6865
 30
0.0
 10
-531.4539
 20
154.0117
 30
0.0
 10
-511.8869
 20
129.7178
 30
0.0
 10
-510.3174
 20
120.6193
 30
0.0
 10
-510.3174
 20
120.6193
 30
0.0
 10
-531.613
 20
117.6765
 30
0.0
 10
-533.0447
 20
145.047
 30
0.0
 10
-548.6397
 20
143.0773
 30
0.0
 10
-548.6397
 20
143.0773
 30
0.0
 10
-547.7381
 20
137.3172
 30
0.0
 10
-540.4676
 20
132.3323
 30
0.0
 10
-536.4709
 20
126.942
 30
0.0
 10
-536.4709
 20
126.942
 30
0.0
 10
-542.8667
 20
123.3343
 30
0.0
 10
-553.6494
 20
127.9797
 30
0.0
 10
-559.9531
 20
124.1932
 30
0.0
 10
-559.9531
 20
124.1932
 30
0.0
 10
-554.741
 20
105.3317
 30
0.0
 10
-510.1656
 20
117.6389
 30
0.0
 10
-495.9855
 20
104.3868
 30
0.0
 10
-495.9855
 20
104.3868
 30
0.0
 10
-488.1303
 20
97.046
 30
0.0
 10
-483.6277
 20
89.5174
 30
0.0
 10
-476.4308
 20
82.3335
 30
0.0
 10
-476.4308
 20
82.3335
 30
0.0
 10
-471.3605
 20
77.2721
 30
0.0
 10
-458.4878
 20
67.1128
 30
0.0
 10
-459.5986
 20
60.1065
 30
0.0
 10
-459.5986
 20
60.1065
 30
0.0
 10
-484.2691
 20
52.9214
 30
0.0
 10
-522.5144
 20
78.0343
 30
0.0
 10
-537.309
 20
88.1037
 30
0.0
 10
-537.309
 20
88.1037
 30
0.0
 10
-542.3158
 20
85.8282
 30
0.0
 10
-541.7458
 20
84.84
 30
0.0
 10
-546.4756
 20
83.3543
 30
0.0
 10
-546.4756
 20
83.3543
 30
0.0
 10
-551.3542
 20
81.8219
 30
0.0
 10
-552.8023
 20
82.8962
 30
0.0
 10
-557.5185
 20
81.1002
 30
0.0
 10
-557.5185
 20
81.1002
 30
0.0
 10
-552.9917
 20
66.3039
 30
0.0
 10
-547.9922
 20
85.0755
 30
0.0
 10
-523.5403
 20
68.9257
 30
0.0
 10
-523.5403
 20
68.9257
 30
0.0
 10
-523.5403
 20
68.9257
 30
0.0
 10
-513.6564
 20
59.8844
 30
0.0
 10
-513.6564
 20
59.8844
 30
0.0
 10
-513.6564
 20
59.8844
 30
0.0
 10
-525.2941
 20
59.4314
 30
0.0
 10
-555.9575
 20
66.4793
 30
0.0
 10
-557.1239
 20
50.823
 30
0.0
 10
-557.1239
 20
50.823
 30
0.0
 10
-550.3896
 20
47.5194
 30
0.0
 10
-535.816
 20
50.5689
 30
0.0
 10
-530.2228
 20
45.9258
 30
0.0
 10
-530.2228
 20
45.9258
 30
0.0
 10
-526.0788
 20
42.4855
 30
0.0
 10
-537.4383
 20
40.1308
 30
0.0
 10
-539.5743
 20
30.9901
 30
0.0
 10
-539.5743
 20
30.9901
 30
0.0
 10
-528.2694
 20
24.959
 30
0.0
 10
-517.8173
 20
42.7014
 30
0.0
 10
-513.8914
 20
48.837
 30
0.0
 10
-513.8914
 20
48.837
 30
0.0
 10
-513.8914
 20
48.837
 30
0.0
 10
-476.8198
 20
49.0579
 30
0.0
 10
-476.8198
 20
49.0579
 30
0.0
 10
-476.8198
 20
49.0579
 30
0.0
 10
-480.8486
 20
36.2252
 30
0.0
 10
-500.225
 20
40.4484
 30
0.0
 10
-505.9593
 20
29.0069
 30
0.0
 10
-505.9593
 20
29.0069
 30
0.0
 10
-491.0517
 20
19.1315
 30
0.0
 10
-464.7218
 20
48.0978
 30
0.0
 10
-450.4848
 20
48.2732
 30
0.0
 10
-450.4848
 20
48.2732
 30
0.0
 10
-430.2567
 20
48.5228
 30
0.0
 10
-366.414
 20
8.6293
 30
0.0
 10
-342.5006
 20
-3.8729
 30
0.0
 10
-342.5006
 20
-3.8729
 30
0.0
 10
-330.7505
 20
-10.0158
 30
0.0
 10
-293.4737
 20
-22.124
 30
0.0
 10
-290.2685
 20
-32.6408
 30
0.0
 10
-290.2685
 20
-32.6408
 30
0.0
 10
-298.7701
 20
-33.828
 30
0.0
 10
-331.9624
 20
-29.3119
 30
0.0
 10
-339.7001
 20
-26.8374
 30
0.0
 10
-339.7001
 20
-26.8374
 30
0.0
 10
-360.112
 20
-20.3089
 30
0.0
 10
-362.2109
 20
-16.9418
 30
0.0
 10
-378.8633
 20
-8.5256
 30
0.0
 10
-378.8633
 20
-8.5256
 30
0.0
 10
-397.0605
 20
0.6713
 30
0.0
 10
-409.1085
 20
-10.3947
 30
0.0
 10
-423.5416
 20
4.247
 30
0.0
 10
-423.5416
 20
4.247
 30
0.0
 10
-434.3929
 20
15.2551
 30
0.0
 10
-434.6205
 20
28.0446
 30
0.0
 10
-454.4
 20
30.9901
 30
0.0
 10
-454.4
 20
30.9901
 30
0.0
 10
-451.8008
 20
19.3889
 30
0.0
 10
-432.7739
 20
16.7419
 30
0.0
 10
-433.1202
 20
1.7781
 30
0.0
 10
-433.1202
 20
1.7781
 30
0.0
 10
-442.0867
 20
3.116
 30
0.0
 10
-450.6231
 20
7.1841
 30
0.0
 10
-458.1314
 20
3.3768
 30
0.0
 10
-458.1314
 20
3.3768
 30
0.0
 10
-454.9391
 20
-4.5323
 30
0.0
 10
-445.4982
 20
-4.2417
 30
0.0
 10
-434.5581
 20
-6.6616
 30
0.0
 10
-434.5581
 20
-6.6616
 30
0.0
 10
-425.07
 20
-8.7606
 30
0.0
 10
-416.0592
 20
-11.6033
 30
0.0
 10
-405.7919
 20
-13.5381
 30
0.0
 10
-405.7919
 20
-13.5381
 30
0.0
 10
-385.2828
 20
-17.4027
 30
0.0
 10
-366.134
 20
-21.1869
 30
0.0
 10
-355.371
 20
-34.4508
 30
0.0
 10
-355.371
 20
-34.4508
 30
0.0
 10
-365.1177
 20
-50.6271
 30
0.0
 10
-385.9517
 20
-42.8985
 30
0.0
 10
-401.3978
 20
-36.9658
 30
0.0
 10
-401.3978
 20
-36.9658
 30
0.0
 10
-436.769
 20
-23.3809
 30
0.0
 10
-468.9956
 20
-26.128
 30
0.0
 10
-495.8393
 20
-4.4665
 30
0.0
 10
-495.8393
 20
-4.4665
 30
0.0
 10
-505.8457
 20
3.6078
 30
0.0
 10
-512.7649
 20
10.2089
 30
0.0
 10
-524.4959
 20
14.6812
 30
0.0
 10
-524.4959
 20
14.6812
 30
0.0
 10
-529.7804
 20
16.6952
 30
0.0
 10
-533.6394
 20
14.9948
 30
0.0
 10
-535.3876
 20
13.1426
 30
0.0
 10
-535.3876
 20
13.1426
 30
0.0
 10
-528.6303
 20
3.7636
 30
0.0
 10
-500.0114
 20
-8.8264
 30
0.0
 10
-490.1557
 20
-20.5697
 30
0.0
 10
-490.1557
 20
-20.5697
 30
0.0
 10
-504.5517
 20
-35.7578
 30
0.0
 10
-547.597
 20
-20.2487
 30
0.0
 10
-557.8153
 20
-34.4508
 30
0.0
 10
-557.8153
 20
-34.4508
 30
0.0
 10
-553.6185
 20
-41.3976
 30
0.0
 10
-548.8146
 20
-36.3261
 30
0.0
 10
-537.8739
 20
-36.6195
 30
0.0
 10
-537.8739
 20
-36.6195
 30
0.0
 10
-540.3579
 20
-47.1639
 30
0.0
 10
-545.7712
 20
-41.1182
 30
0.0
 10
-544.5733
 20
-51.2516
 30
0.0
 10
-544.5733
 20
-51.2516
 30
0.0
 10
-533.7766
 20
-54.8908
 30
0.0
 10
-530.8316
 20
-44.3729
 30
0.0
 10
-520.669
 20
-39.574
 30
0.0
 10
-520.669
 20
-39.574
 30
0.0
 10
-502.1166
 20
-30.8139
 30
0.0
 10
-473.6371
 20
-27.4316
 30
0.0
 10
-453.8401
 20
-33.828
 30
0.0
 10
-453.8401
 20
-33.828
 30
0.0
 10
-444.7017
 20
-36.7803
 30
0.0
 10
-429.8054
 20
-38.3059
 30
0.0
 10
-425.1156
 20
-44.7557
 30
0.0
 10
-425.1156
 20
-44.7557
 30
0.0
 10
-431.6964
 20
-48.4039
 30
0.0
 10
-434.5407
 20
-46.2217
 30
0.0
 10
-437.3182
 20
-53.0645
 30
0.0
 10
-437.3182
 20
-53.0645
 30
0.0
 10
-416.6915
 20
-58.4676
 30
0.0
 10
-415.0642
 20
-42.5606
 30
0.0
 10
-388.9591
 20
-53.531
 30
0.0
 10
-388.9591
 20
-53.531
 30
0.0
 10
-390.0687
 20
-61.9213
 30
0.0
 10
-397.9576
 20
-70.5173
 30
0.0
 10
-406.5497
 20
-70.9963
 30
0.0
 10
-406.5497
 20
-70.9963
 30
0.0
 10
-410.6257
 20
-71.2239
 30
0.0
 10
-430.2916
 20
-66.9878
 30
0.0
 10
-435.7262
 20
-65.3514
 30
0.0
 10
-435.7262
 20
-65.3514
 30
0.0
 10
-453.133
 20
-60.1096
 30
0.0
 10
-471.5454
 20
-39.4481
 30
0.0
 10
-478.6529
 20
-39.5487
 30
0.0
 10
-478.6529
 20
-39.5487
 30
0.0
 10
-481.0408
 20
-49.4736
 30
0.0
 10
-467.9343
 20
-43.7624
 30
0.0
 10
-468.5363
 20
-59.9752
 30
0.0
 10
-468.5363
 20
-59.9752
 30
0.0
 10
-481.4208
 20
-58.1169
 30
0.0
 10
-483.0144
 20
-53.4242
 30
0.0
 10
-497.1423
 20
-59.0691
 30
0.0
 10
-497.1423
 20
-59.0691
 30
0.0
 10
-502.5758
 20
-61.24
 30
0.0
 10
-504.5191
 20
-62.4272
 30
0.0
 10
-510.3118
 20
-63.8612
 30
0.0
 10
-510.3118
 20
-63.8612
 30
0.0
 10
-518.1338
 20
-65.7983
 30
0.0
 10
-520.5993
 20
-63.954
 30
0.0
 10
-523.8067
 20
-70.8344
 30
0.0
 10
-523.8067
 20
-70.8344
 30
0.0
 10
-512.1516
 20
-74.9008
 30
0.0
 10
-482.0009
 20
-61.7431
 30
0.0
 10
-435.1146
 20
-76.6243
 30
0.0
 10
-435.1146
 20
-76.6243
 30
0.0
 10
-429.0988
 20
-78.5338
 30
0.0
 10
-427.6018
 20
-79.2494
 30
0.0
 10
-423.6793
 20
-82.0443
 30
0.0
 10
-423.6793
 20
-82.0443
 30
0.0
 10
-428.3225
 20
-90.3975
 30
0.0
 10
-440.4841
 20
-92.4914
 30
0.0
 10
-449.4977
 20
-94.9788
 30
0.0
 10
-449.4977
 20
-94.9788
 30
0.0
 10
-462.4856
 20
-98.5623
 30
0.0
 10
-467.497
 20
-96.6725
 30
0.0
 10
-481.2291
 20
-94.9518
 30
0.0
 10
-481.2291
 20
-94.9518
 30
0.0
 10
-501.9373
 20
-92.3565
 30
0.0
 10
-513.042
 20
-86.575
 30
0.0
 10
-530.4201
 20
-78.6715
 30
0.0
 10
-530.4201
 20
-78.6715
 30
0.0
 10
-530.4201
 20
-78.6715
 30
0.0
 10
-536.0015
 20
-77.7581
 30
0.0
 10
-536.0015
 20
-77.7581
 30
0.0
 10
-536.0015
 20
-77.7581
 30
0.0
 10
-539.4102
 20
-85.1793
 30
0.0
 10
-529.2144
 20
-87.5964
 30
0.0
 10
-525.7899
 20
-94.1772
 30
0.0
 10
-525.7899
 20
-94.1772
 30
0.0
 10
-536.7188
 20
-98.7282
 30
0.0
 10
-551.8995
 20
-94.0951
 30
0.0
 10
-553.5527
 20
-106.0881
 30
0.0
 10
-553.5527
 20
-106.0881
 30
0.0
 10
-538.2084
 20
-113.1568
 30
0.0
 10
-525.809
 20
-100.8901
 30
0.0
 10
-510.0622
 20
-101.7912
 30
0.0
 10
-510.0622
 20
-101.7912
 30
0.0
 10
-490.5019
 20
-102.9115
 30
0.0
 10
-488.9943
 20
-105.8407
 30
0.0
 10
-460.3259
 20
-105.8407
 30
0.0
 10
-460.3259
 20
-105.8407
 30
0.0
 10
-462.0275
 20
-117.3581
 30
0.0
 10
-463.0961
 20
-105.6187
 30
0.0
 10
-465.2535
 20
-116.6942
 30
0.0
 10
-465.2535
 20
-116.6942
 30
0.0
 10
-446.329
 20
-121.13
 30
0.0
 10
-408.9876
 20
-87.76
 30
0.0
 10
-393.387
 20
-82.5058
 30
0.0
 10
-393.387
 20
-82.5058
 30
0.0
 10
-384.2035
 20
-91.3317
 30
0.0
 10
-376.1741
 20
-99.7169
 30
0.0
 10
-377.3804
 20
-119.402
 30
0.0
 10
-377.3804
 20
-119.402
 30
0.0
 10
-385.8258
 20
-119.0108
 30
0.0
 10
-398.7946
 20
-113.8235
 30
0.0
 10
-411.5385
 20
-113.1618
 30
0.0
 10
-411.5385
 20
-113.1618
 30
0.0
 10
-407.4969
 20
-121.8422
 30
0.0
 10
-407.4199
 20
-119.1024
 30
0.0
 10
-395.6939
 20
-122.6365
 30
0.0
 10
-395.6939
 20
-122.6365
 30
0.0
 10
-387.764
 20
-125.0266
 30
0.0
 10
-384.8354
 20
-126.541
 30
0.0
 10
-381.0539
 20
-131.6203
 30
0.0
 10
-381.0539
 20
-131.6203
 30
0.0
 10
-384.6881
 20
-139.9488
 30
0.0
 10
-386.2862
 20
-136.5822
 30
0.0
 10
-387.5875
 20
-146.2755
 30
0.0
 10
-387.5875
 20
-146.2755
 30
0.0
 10
-377.3698
 20
-144.7443
 30
0.0
 10
-382.6329
 20
-144.1945
 30
0.0
 10
-375.078
 20
-141.8415
 30
0.0
 10
-375.078
 20
-141.8415
 30
0.0
 10
-370.622
 20
-146.5667
 30
0.0
 10
-370.699
 20
-145.2609
 30
0.0
 10
-369.2909
 20
-151.2649
 30
0.0
 10
-369.2909
 20
-151.2649
 30
0.0
 10
-389.4566
 20
-151.953
 30
0.0
 10
-390.4712
 20
-152.7787
 30
0.0
 10
-402.8144
 20
-143.4958
 30
0.0
 10
-402.8144
 20
-143.4958
 30
0.0
 10
-410.8837
 20
-137.4271
 30
0.0
 10
-422.4196
 20
-129.6613
 30
0.0
 10
-431.8358
 20
-138.2607
 30
0.0
 10
-431.8358
 20
-138.2607
 30
0.0
 10
-427.0138
 20
-144.9697
 30
0.0
 10
-426.4332
 20
-141.4249
 30
0.0
 10
-421.1548
 20
-147.0181
 30
0.0
 10
-421.1548
 20
-147.0181
 30
0.0
 10
-429.9408
 20
-147.7235
 30
0.0
 10
-459.3973
 20
-142.7915
 30
0.0
 10
-469.859
 20
-141.0961
 30
0.0
 10
-469.859
 20
-141.0961
 30
0.0
 10
-485.4895
 20
-138.5637
 30
0.0
 10
-530.9317
 20
-122.0249
 30
0.0
 10
-534.1577
 20
-125.2447
 30
0.0
 10
-534.1577
 20
-125.2447
 30
0.0
 10
-542.5795
 20
-133.6519
 30
0.0
 10
-483.8588
 20
-151.7855
 30
0.0
 10
-480.1796
 20
-153.1992
 30
0.0
 10
-480.1796
 20
-153.1992
 30
0.0
 10
-486.7565
 20
-161.6345
 30
0.0
 10
-488.6514
 20
-154.9412
 30
0.0
 10
-491.8184
 20
-163.3489
 30
0.0
 10
-491.8184
 20
-163.3489
 30
0.0
 10
-483.789
 20
-168.2164
 30
0.0
 10
-472.0221
 20
-157.9627
 30
0.0
 10
-458.4338
 20
-157.3359
 30
0.0
 10
-458.4338
 20
-157.3359
 30
0.0
 10
-443.5465
 20
-156.649
 30
0.0
 10
-430.8475
 20
-160.3781
 30
0.0
 10
-416.7163
 20
-161.4147
 30
0.0
 10
-416.7163
 20
-161.4147
 30
0.0
 10
-401.151
 20
-162.5558
 30
0.0
 10
-341.5506
 20
-163.5142
 30
0.0
 10
-333.4335
 20
-167.0983
 30
0.0
 10
-333.4335
 20
-167.0983
 30
0.0
 10
-336.5837
 20
-178.2987
 30
0.0
 10
-352.7959
 20
-184.0037
 30
0.0
 10
-364.1362
 20
-186.2803
 30
0.0
 10
-364.1362
 20
-186.2803
 30
0.0
 10
-376.2461
 20
-188.7115
 30
0.0
 10
-398.269
 20
-178.6798
 30
0.0
 10
-406.5283
 20
-183.1796
 30
0.0
 10
-406.5283
 20
-183.1796
 30
0.0
 10
-404.4923
 20
-189.784
 30
0.0
 10
-411.2283
 20
-184.8126
 30
0.0
 10
-400.2128
 20
-188.4866
 30
0.0
 10
-400.2128
 20
-188.4866
 30
0.0
 10
-395.5866
 20
-190.0296
 30
0.0
 10
-394.5708
 20
-188.97
 30
0.0
 10
-389.0805
 20
-191.2332
 30
0.0
 10
-389.0805
 20
-191.2332
 30
0.0
 10
-402.0313
 20
-214.5422
 30
0.0
 10
-489.6273
 20
-183.8024
 30
0.0
 10
-502.039
 20
-177.2683
 30
0.0
 10
-502.039
 20
-177.2683
 30
0.0
 10
-506.6973
 20
-174.8163
 30
0.0
 10
-549.2215
 20
-151.8479
 30
0.0
 10
-555.0047
 20
-162.3427
 30
0.0
 10
-555.0047
 20
-162.3427
 30
0.0
 10
-559.3876
 20
-170.2968
 30
0.0
 10
-552.8984
 20
-169.9337
 30
0.0
 10
-547.6341
 20
-171.1878
 30
0.0
 10
-547.6341
 20
-171.1878
 30
0.0
 10
-533.1318
 20
-174.6432
 30
0.0
 10
-516.3097
 20
-176.3003
 30
0.0
 10
-507.4236
 20
-187.1459
 30
0.0
 10
-507.4236
 20
-187.1459
 30
0.0
 10
-507.4236
 20
-187.1459
 30
0.0
 10
-525.2598
 20
-191.6514
 30
0.0
 10
-525.2598
 20
-191.6514
 30
0.0
 10
-525.2598
 20
-191.6514
 30
0.0
 10
-534.7069
 20
-192.4226
 30
0.0
 10
-537.6766
 20
-191.3355
 30
0.0
 10
-542.2394
 20
-197.0613
 30
0.0
 10
-542.2394
 20
-197.0613
 30
0.0
 10
-535.4708
 20
-213.4882
 30
0.0
 10
-499.926
 20
-193.0854
 30
0.0
 10
-487.865
 20
-196.7167
 30
0.0
 10
-487.865
 20
-196.7167
 30
0.0
 10
-476.8833
 20
-200.0225
 30
0.0
 10
-475.4252
 20
-202.1547
 30
0.0
 10
-461.6031
 20
-204.4178
 30
0.0
 10
-461.6031
 20
-204.4178
 30
0.0
 10
-450.066
 20
-206.3071
 30
0.0
 10
-441.1142
 20
-206.9333
 30
0.0
 10
-432.5862
 20
-210.4162
 30
0.0
 10
-432.5862
 20
-210.4162
 30
0.0
 10
-435.3687
 20
-218.0797
 30
0.0
 10
-443.985
 20
-218.6317
 30
0.0
 10
-448.9856
 20
-226.8067
 30
0.0
 10
-448.9856
 20
-226.8067
 30
0.0
 10
-436.6133
 20
-234.3195
 30
0.0
 10
-432.2354
 20
-221.4496
 30
0.0
 10
-408.9753
 20
-215.0942
 30
0.0
 10
-408.9753
 20
-215.0942
 30
0.0
 10
-409.0725
 20
-224.9663
 30
0.0
 10
-412.3396
 20
-219.5564
 30
0.0
 10
-411.7089
 20
-227.7432
 30
0.0
 10
-411.7089
 20
-227.7432
 30
0.0
 10
-396.1847
 20
-231.9018
 30
0.0
 10
-401.6423
 20
-215.8986
 30
0.0
 10
-385.0057
 20
-206.9631
 30
0.0
 10
-385.0057
 20
-206.9631
 30
0.0
 10
-364.2689
 20
-195.8257
 30
0.0
 10
-337.0778
 20
-192.6177
 30
0.0
 10
-318.6187
 20
-174.2187
 30
0.0
 10
-318.6187
 20
-174.2187
 30
0.0
 10
-311.1492
 20
-166.774
 30
0.0
 10
-302.2918
 20
-157.798
 30
0.0
 10
-289.0712
 20
-154.1812
 30
0.0
 10
-289.0712
 20
-154.1812
 30
0.0
 10
-250.366
 20
-143.5914
 30
0.0
 10
-253.2008
 20
-146.5094
 30
0.0
 10
-266.4687
 20
-174.8253
 30
0.0
 10
-266.4687
 20
-174.8253
 30
0.0
 10
-269.7307
 20
-181.7861
 30
0.0
 10
-270.973
 20
-187.0509
 30
0.0
 10
-274.1304
 20
-192.9077
 30
0.0
 10
-274.1304
 20
-192.9077
 30
0.0
 10
-290.7103
 20
-223.6582
 30
0.0
 10
-320.1449
 20
-199.6527
 30
0.0
 10
-338.5415
 20
-205.867
 30
0.0
 10
-338.5415
 20
-205.867
 30
0.0
 10
-346.3489
 20
-208.5039
 30
0.0
 10
-343.0166
 20
-205.4206
 30
0.0
 10
-344.8109
 20
-213.142
 30
0.0
 10
-344.8109
 20
-213.142
 30
0.0
 10
-339.0165
 20
-218.087
 30
0.0
 10
-344.5737
 20
-214.5833
 30
0.0
 10
-337.4842
 20
-215.4973
 30
0.0
 10
-337.4842
 20
-215.4973
 30
0.0
 10
-335.3622
 20
-215.771
 30
0.0
 10
-331.4441
 20
-215.7851
 30
0.0
 10
-328.5824
 20
-216.0673
 30
0.0
 10
-328.5824
 20
-216.0673
 30
0.0
 10
-323.3647
 20
-216.5816
 30
0.0
 10
-316.364
 20
-217.1623
 30
0.0
 10
-310.4881
 20
-217.7424
 30
0.0
 10
-310.4881
 20
-217.7424
 30
0.0
 10
-312.4527
 20
-224.8741
 30
0.0
 10
-314.5439
 20
-218.3771
 30
0.0
 10
-316.8907
 20
-226.8067
 30
0.0
 10
-316.8907
 20
-226.8067
 30
0.0
 10
-307.7961
 20
-230.3857
 30
0.0
 10
-295.4687
 20
-222.2967
 30
0.0
 10
-289.8064
 20
-219.0021
 30
0.0
 10
-289.8064
 20
-219.0021
 30
0.0
 10
-288.391
 20
-221.3366
 30
0.0
 10
-288.595
 20
-218.1522
 30
0.0
 10
-288.7929
 20
-222.2248
 30
0.0
 10
-288.7929
 20
-222.2248
 30
0.0
 10
-288.7946
 20
-222.2608
 30
0.0
 10
-289.635
 20
-226.0478
 30
0.0
 10
-289.8064
 20
-226.8067
 30
0.0
 10
-289.8064
 20
-226.8067
 30
0.0
 10
-289.8064
 20
-226.8067
 30
0.0
 10
-273.1102
 20
-227.6173
 30
0.0
 10
-273.1102
 20
-227.6173
 30
0.0
 10
-273.1102
 20
-227.6173
 30
0.0
 10
-268.4946
 20
-214.6625
 30
0.0
 10
-257.1751
 20
-181.405
 30
0.0
 10
-248.1625
 20
-175.5144
 30
0.0
 10
-248.1625
 20
-175.5144
 30
0.0
 10
-240.4704
 20
-185.9801
 30
0.0
 10
-242.9044
 20
-190.0173
 30
0.0
 10
-246.1793
 20
-199.0439
 30
0.0
 10
-246.1793
 20
-199.0439
 30
0.0
 10
-234.9784
 20
-201.7977
 30
0.0
 10
-238.0263
 20
-216.092
 30
0.0
 10
-236.264
 20
-226.8067
 30
0.0
 10
-236.264
 20
-226.8067
 30
0.0
 10
-225.5032
 20
-226.8359
 30
0.0
 10
-223.5729
 20
-225.154
 30
0.0
 10
-215.1939
 20
-222.0067
 30
0.0
 10
-215.1939
 20
-222.0067
 30
0.0
 10
-205.3494
 20
-218.3085
 30
0.0
 10
-201.2183
 20
-219.4316
 30
0.0
 10
-202.9317
 20
-207.3555
 30
0.0
 10
-202.9317
 20
-207.3555
 30
0.0
 10
-214.5789
 20
-208.8412
 30
0.0
 10
-218.1613
 20
-215.3714
 30
0.0
 10
-228.3318
 20
-216.8914
 30
0.0
 10
-228.3318
 20
-216.8914
 30
0.0
 10
-228.3318
 20
-216.8914
 30
0.0
 10
-232.5101
 20
-197.113
 30
0.0
 10
-232.5101
 20
-197.113
 30
0.0
 10
-232.5101
 20
-197.113
 30
0.0
 10
-226.8119
 20
-195.4828
 30
0.0
 10
-189.8774
 20
-194.5851
 30
0.0
 10
-201.8586
 20
-182.7203
 30
0.0
 10
-201.8586
 20
-182.7203
 30
0.0
 10
-201.8586
 20
-182.7203
 30
0.0
 10
-204.8142
 20
-181.9918
 30
0.0
 10
-204.8142
 20
-181.9918
 30
0.0
 10
-204.8142
 20
-181.9918
 30
0.0
 10
-213.1758
 20
-181.6568
 30
0.0
 10
-224.8995
 20
-188.5125
 30
0.0
 10
-234.2808
 20
-189.544
 30
0.0
 10
-234.2808
 20
-189.544
 30
0.0
 10
-237.2848
 20
-184.5259
 30
0.0
 10
-244.6683
 20
-170.1759
 30
0.0
 10
-242.8009
 20
-164.8835
 30
0.0
 10
-242.8009
 20
-164.8835
 30
0.0
 10
-241.4777
 20
-161.1319
 30
0.0
 10
-229.2565
 20
-147.0299
 30
0.0
 10
-226.3835
 20
-143.4744
 30
0.0
 10
-226.3835
 20
-143.4744
 30
0.0
 10
-200.6764
 20
-111.6649
 30
0.0
 10
-205.9767
 20
-133.7384
 30
0.0
 10
-204.143
 20
-91.031
 30
0.0
 10
-204.143
 20
-91.031
 30
0.0
 10
-225.0024
 20
-93.3059
 30
0.0
 10
-245.7223
 20
-103.5371
 30
0.0
 10
-267.3456
 20
-97.2689
 30
0.0
 10
-267.3456
 20
-97.2689
 30
0.0
 10
-267.3456
 20
-97.2689
 30
0.0
 10
-317.5692
 20
-72.129
 30
0.0
 10
-317.5692
 20
-72.129
 30
0.0
 10
-317.5692
 20
-72.129
 30
0.0
 10
-311.0739
 20
-61.6138
 30
0.0
 10
-280.1907
 20
-52.2404
 30
0.0
 10
-261.9627
 20
-53.6277
 30
0.0
 10
-261.9627
 20
-53.6277
 30
0.0
 10
-244.4626
 20
-54.9594
 30
0.0
 10
-211.6322
 20
-68.2812
 30
0.0
 10
-203.1402
 20
-67.5049
 30
0.0
 10
-203.1402
 20
-67.5049
 30
0.0
 10
-201.2048
 20
-58.1523
 30
0.0
 10
-201.6219
 20
-48.8896
 30
0.0
 10
-208.4382
 20
-42.4639
 30
0.0
 10
-208.4382
 20
-42.4639
 30
0.0
 10
-213.3164
 20
-37.8641
 30
0.0
 10
-221.8129
 20
-30.2653
 30
0.0
 10
-228.3318
 20
-28.5019
 30
0.0
 10
-228.3318
 20
-28.5019
 30
0.0
 10
-226.4898
 20
-35.4003
 30
0.0
 10
-226.3419
 20
-32.534
 30
0.0
 10
-222.9866
 20
-38.3396
 30
0.0
 10
-222.9866
 20
-38.3396
 30
0.0
 10
-238.1775
 20
-38.637
 30
0.0
 10
-252.9344
 20
-30.1669
 30
0.0
 10
-265.8273
 20
-24.4461
 30
0.0
 10
-265.8273
 20
-24.4461
 30
0.0
 10
-272.9792
 20
-21.2724
 30
0.0
 10
-274.1524
 20
-21.5208
 30
0.0
 10
-275.9253
 20
-13.9782
 30
0.0
 10
-275.9253
 20
-13.9782
 30
0.0
 10
-275.9253
 20
-13.9782
 30
0.0
 10
-218.5469
 20
-10.7792
 30
0.0
 10
-218.5469
 20
-10.7792
 30
0.0
 10
-218.5469
 20
-10.7792
 30
0.0
 10
-209.1808
 20
-11.945
 30
0.0
 10
-214.8571
 20
-15.6775
 30
0.0
 10
-204.5354
 20
-18.812
 30
0.0
 10
-204.5354
 20
-18.812
 30
0.0
 10
-200.8035
 20
-11.7882
 30
0.0
 10
-203.9019
 20
4.0272
 30
0.0
 10
-204.5585
 20
13.4389
 30
0.0
 10
-204.5585
 20
13.4389
 30
0.0
 10
-228.7158
 20
22.8691
 30
0.0
 10
-242.8948
 20
36.7125
 30
0.0
 10
-247.7701
 20
62.3263
 30
0.0
 10
-247.7701
 20
62.3263
 30
0.0
 10
-231.568
 20
62.2055
 30
0.0
 10
-222.4554
 20
39.2601
 30
0.0
 10
-204.649
 20
36.8536
 30
0.0
 10
-204.649
 20
36.8536
 30
0.0
 10
-204.26
 20
53.8663
 30
0.0
 10
-213.4271
 20
52.3812
 30
0.0
 10
-225.8073
 20
59.2779
 30
0.0
 10
-225.8073
 20
59.2779
 30
0.0
 10
-234.7895
 20
64.2808
 30
0.0
 10
-247.172
 20
71.2062
 30
0.0
 10
-252.1401
 20
78.583
 30
0.0
 10
-252.1401
 20
78.583
 30
0.0
 10
-253.4335
 20
87.8041
 30
0.0
 10
-252.8832
 20
96.1988
 30
0.0
 10
-246.8398
 20
101.24
 30
0.0
 10
-246.8398
 20
101.24
 30
0.0
 10
-233.1459
 20
103.6172
 30
0.0
 10
-218.0011
 20
93.1504
 30
0.0
 10
-203.2043
 20
91.5282
 30
0.0
 10
-203.2043
 20
91.5282
 30
0.0
 10
-204.441
 20
110.4324
 30
0.0
 10
-204.69
 20
104.0742
 30
0.0
 10
-218.0556
 20
110.7157
 30
0.0
 10
-218.0556
 20
110.7157
 30
0.0
 10
-225.1446
 20
114.2386
 30
0.0
 10
-230.143
 20
122.2415
 30
0.0
 10
-234.1532
 20
128.159
 30
0.0
 10
-234.1532
 20
128.159
 30
0.0
 10
-229.9423
 20
135.6921
 30
0.0
 10
-224.1867
 20
140.2717
 30
0.0
 10
-217.4727
 20
147.0459
 30
0.0
 10
-217.4727
 20
147.0459
 30
0.0
 10
-209.3944
 20
144.2909
 30
0.0
 10
-215.7543
 20
143.3465
 30
0.0
 10
-207.269
 20
142.7912
 30
0.0
 10
-207.269
 20
142.7912
 30
0.0
 10
-206.1909
 20
154.9718
 30
0.0
 10
-211.9392
 20
148.7857
 30
0.0
 10
-211.0043
 20
156.9916
 30
0.0
 10
-211.0043
 20
156.9916
 30
0.0
 10
-210.3708
 20
162.5476
 30
0.0
 10
-206.1206
 20
164.8658
 30
0.0
 10
-207.0807
 20
175.5957
 30
0.0
 10
-207.0807
 20
175.5957
 30
0.0
 10
-207.848
 20
184.1765
 30
0.0
 10
-216.8802
 20
197.6647
 30
0.0
 10
-217.9185
 20
212.0528
 30
0.0
  0
SPLINE
  5
7F
330
1F
100
AcDbEntity
  8
layer 1
 62
   250
370
     9
100
AcDbSpline
210
0.0
220
0.0
230
1.0
 70
    11
 71
     3
 72
    20
 73
    16
 74
     0
 42
0.000000001
 43
0.0000000001
 40
0.0
 40
0.0
 40
0.0
 40
0.0
 40
0.2
 40
0.2
 40
0.2
 40
0.2
 40
0.4
 40
0.4
 40
0.4
 40
0.4
 40
0.6
 40
0.6
 40
0.6
 40
0.6
 40
1.0
 40
1.0
 40
1.0
 40
1.0
 10
284.0216
 20
-55.4478
 30
0.0
 10
284.0216
 20
-55.4478
 30
0.0
 10
333.27
 20
-38.461
 30
0.0
 10
333.27
 20
-38.461
 30
0.0
 10
333.27
 20
-38.461
 30
0.0
 10
341.9087
 20
-35.8084
 30
0.0
 10
345.2927
 20
-33.4822
 30
0.0
 10
347.7734
 20
-41.9563
 30
0.0
 10
347.7734
 20
-41.9563
 30
0.0
 10
347.7734
 20
-41.9563
 30
0.0
 10
302.3273
 20
-55.0599
 30
0.0
 10
302.3273
 20
-55.0599
 30
0.0
 10
302.3273
 20
-55.0599
 30
0.0
 10
294.9712
 20
-56.2501
 30
0.0
 10
289.1319
 20
-58.0127
 30
0.0
 10
284.0216
 20
-55.4478
 30
0.0
  0
SPLINE
  5
80
330
1F
100
AcDbEntity
  8
layer 1
 62
   250
370
     9
100
AcDbSpline
210
0.0
220
0.0
230
1.0
 70
    11
 71
     3
 72
  1096
 73
  1092
 74
     0
 42
0.000000001
 43
0.0000000001
 40
0.0
 40
0.0
 40
0.0
 40
0.0
 40
0.0036496350364964
 40
0.0036496350364964
 40
0.0036496350364964
 40
0.0036496350364964
 40
0.0072992700729927
 40
0.0072992700729927
 40
0.0072992700729927
 40
0.0072992700729927
 40
0.0109489051094891
 40
0.0109489051094891
 40
0.0109489051094891
 40
0.0109489051094891
 40
0.0145985401459854
 40
0.0145985401459854
 40
0.0145985401459854
 40
0.0145985401459854
 40
0.0182481751824818
 40
0.0182481751824818
 40
0.0182481751824818
 40
0.0182481751824818
 40
0.0218978102189781
 40
0.0218978102189781
 40
0.0218978102189781
 40
0.0218978102189781
 40
0.0255474452554745
 40
0.0255474452554745
 40
0.0255474452554745
 40
0.0255474452554745
 40
0.0291970802919708
 40
0.0291970802919708
 40
0.0291970802919708
 40
0.0291970802919708
 40
0.0328467153284672
 40
0.0328467153284672
 40
0.0328467153284672
 40
0.0328467153284672
 40
0.0364963503649635
 40
0.0364963503649635
 40
0.0364963503649635
 40
0.0364963503649635
 40
0.0401459854014599
 40
0.0401459854014599
 40
0.0401459854014599
 40
0.0401459854014599
 40
0.0437956204379562
 40
0.0437956204379562
 40
0.0437956204379562
 40
0.0437956204379562
 40
0.0474452554744526
 40
0.0474452554744526
 40
0.0474452554744526
 40
0.0474452554744526
 40
0.0510948905109489
 40
0.0510948905109489
 40
0.0510948905109489
 40
0.0510948905109489
 40
0.0547445255474453
 40
0.0547445255474453
 40
0.0547445255474453
 40
0.0547445255474453
 40
0.0583941605839416
 40
0.0583941605839416
 40
0.0583941605839416
 40
0.0583941605839416
 40
0.062043795620438
 40
0.062043795620438
 40
0.062043795620438
 40
0.062043795620438
 40
0.0656934306569343
 40
0.0656934306569343
 40
0.0656934306569343
 40
0.0656934306569343
 40
0.0693430656934307
 40
0.0693430656934307
 40
0.0693430656934307
 40
0.0693430656934307
 40
0.072992700729927
 40
0.072992700729927
 40
0.072992700729927
 40
0.072992700729927
 40
0.0766423357664234
 40
0.0766423357664234
 40
0.0766423357664234
 40
0.0766423357664234
 40
0.0802919708029197
 40
0.0802919708029197
 40
0.0802919708029197
 40
0.0802919708029197
 40
0.0839416058394161
 40
0.0839416058394161
 40
0.0839416058394161
 40
0.0839416058394161
 40
0.0875912408759124
 40
0.0875912408759124
 40
0.0875912408759124
 40
0.0875912408759124
 40
0.0912408759124088
 40
0.0912408759124088
 40
0.0912408759124088
 40
0.0912408759124088
 40
0.0948905109489051
 40
0.0948905109489051
 40
0.0948905109489051
 40
0.0948905109489051
 40
0.0985401459854015
 40
0.0985401459854015
 40
0.0985401459854015
 40
0.0985401459854015
 40
0.1021897810218978
 40
0.1021897810218978
 40
0.1021897810218978
 40
0.1021897810218978
 40
0.1058394160583942
 40
0.1058394160583942
 40
0.1058394160583942
 40
0.1058394160583942
 40
0.1094890510948905
 40
0.1094890510948905
 40
0.1094890510948905
 40
0.1094890510948905
 40
0.1131386861313869
 40
0.1131386861313869
 40
0.1131386861313869
 40
0.1131386861313869
 40
0.1167883211678832
 40
0.1167883211678832
 40
0.1167883211678832
 40
0.1167883211678832
 40
0.1204379562043796
 40
0.1204379562043796
 40
0.1204379562043796
 40
0.1204379562043796
 40
0.1240875912408759
 40
0.1240875912408759
 40
0.1240875912408759
 40
0.1240875912408759
 40
0.1277372262773723
 40
0.1277372262773723
 40
0.1277372262773723
 40
0.1277372262773723
 40
0.1313868613138686
 40
0.1313868613138686
 40
0.1313868613138686
 40
0.1313868613138686
 40
0.135036496350365
 40
0.135036496350365
 40
0.135036496350365
 40
0.135036496350365
 40
0.1386861313868613
 40
0.1386861313868613
 40
0.1386861313868613
 40
0.1386861313868613
 40
0.1423357664233577
 40
0.1423357664233577
 40
0.1423357664233577
 40
0.1423357664233577
 40
0.145985401459854
 40
0.145985401459854
 40
0.145985401459854
 40
0.145985401459854
 40
0.1496350364963504
 40
0.1496350364963504
 40
0.1496350364963504
 40
0.1496350364963504
 40
0.1532846715328467
 40
0.1532846715328467
 40
0.1532846715328467
 40
0.1532846715328467
 40
0.1569343065693431
 40
0.1569343065693431
 40
0.1569343065693431
 40
0.1569343065693431
 40
0.1605839416058394
 40
0.1605839416058394
 40
0.1605839416058394
 40
0.1605839416058394
 40
0.1642335766423358
 40
0.1642335766423358
 40
0.1642335766423358
 40
0.1642335766423358
 40
0.1678832116788321
 40
0.1678832116788321
 40
0.1678832116788321
 40
0.1678832116788321
 40
0.1715328467153285
 40
0.1715328467153285
 40
0.1715328467153285
 40
0.1715328467153285
 40
0.1751824817518248
 40
0.1751824817518248
 40
0.1751824817518248
 40
0.1751824817518248
 40
0.1788321167883212
 40
0.1788321167883212
 40
0.1788321167883212
 40
0.1788321167883212
 40
0.1824817518248175
 40
0.1824817518248175
 40
0.1824817518248175
 40
0.1824817518248175
 40
0.1861313868613139
 40
0.1861313868613139
 40
0.1861313868613139
 40
0.1861313868613139
 40
0.1897810218978102
 40
0.1897810218978102
 40
0.1897810218978102
 40
0.1897810218978102
 40
0.1934306569343066
 40
0.1934306569343066
 40
0.1934306569343066
 40
0.1934306569343066
 40
0.1970802919708029
 40
0.1970802919708029
 40
0.1970802919708029
 40
0.1970802919708029
 40
0.2007299270072993
 40
0.2007299270072993
 40
0.2007299270072993
 40
0.2007299270072993
 40
0.2043795620437956
 40
0.2043795620437956
 40
0.2043795620437956
 40
0.2043795620437956
 40
0.208029197080292
 40
0.208029197080292
 40
0.208029197080292
 40
0.208029197080292
 40
0.2116788321167883
 40
0.2116788321167883
 40
0.2116788321167883
 40
0.2116788321167883
 40
0.2153284671532847
 40
0.2153284671532847
 40
0.2153284671532847
 40
0.2153284671532847
 40
0.218978102189781
 40
0.218978102189781
 40
0.218978102189781
 40
0.218978102189781
 40
0.2226277372262774
 40
0.2226277372262774
 40
0.2226277372262774
 40
0.2226277372262774
 40
0.2262773722627737
 40
0.2262773722627737
 40
0.2262773722627737
 40
0.2262773722627737
 40
0.2299270072992701
 40
0.2299270072992701
 40
0.2299270072992701
 40
0.2299270072992701
 40
0.2335766423357664
 40
0.2335766423357664
 40
0.2335766423357664
 40
0.2335766423357664
 40
0.2372262773722628
 40
0.2372262773722628
 40
0.2372262773722628
 40
0.2372262773722628
 40
0.2408759124087591
 40
0.2408759124087591
 40
0.2408759124087591
 40
0.2408759124087591
 40
0.2445255474452555
 40
0.2445255474452555
 40
0.2445255474452555
 40
0.2445255474452555
 40
0.2481751824817518
 40
0.2481751824817518
 40
0.2481751824817518
 40
0.2481751824817518
 40
0.2518248175182482
 40
0.2518248175182482
 40
0.2518248175182482
 40
0.2518248175182482
 40
0.2554744525547445
 40
0.2554744525547445
 40
0.2554744525547445
 40
0.2554744525547445
 40
0.2591240875912409
 40
0.2591240875912409
 40
0.2591240875912409
 40
0.2591240875912409
 40
0.2627737226277372
 40
0.2627737226277372
 40
0.2627737226277372
 40
0.2627737226277372
 40
0.2664233576642336
 40
0.2664233576642336
 40
0.2664233576642336
 40
0.2664233576642336
 40
0.2700729927007299
 40
0.2700729927007299
 40
0.2700729927007299
 40
0.2700729927007299
 40
0.2737226277372263
 40
0.2737226277372263
 40
0.2737226277372263
 40
0.2737226277372263
 40
0.2773722627737226
 40
0.2773722627737226
 40
0.2773722627737226
 40
0.2773722627737226
 40
0.281021897810219
 40
0.281021897810219
 40
0.281021897810219
 40
0.281021897810219
 40
0.2846715328467153
 40
0.2846715328467153
 40
0.2846715328467153
 40
0.2846715328467153
 40
0.2883211678832117
 40
0.2883211678832117
 40
0.2883211678832117
 40
0.2883211678832117
 40
0.291970802919708
 40
0.291970802919708
 40
0.291970802919708
 40
0.291970802919708
 40
0.2956204379562044
 40
0.2956204379562044
 40
0.2956204379562044
 40
0.2956204379562044
 40
0.2992700729927008
 40
0.2992700729927008
 40
0.2992700729927008
 40
0.2992700729927008
 40
0.3029197080291971
 40
0.3029197080291971
 40
0.3029197080291971
 40
0.3029197080291971
 40
0.3065693430656934
 40
0.3065693430656934
 40
0.3065693430656934
 40
0.3065693430656934
 40
0.3102189781021898
 40
0.3102189781021898
 40
0.3102189781021898
 40
0.3102189781021898
 40
0.3138686131386861
 40
0.3138686131386861
 40
0.3138686131386861
 40
0.3138686131386861
 40
0.3175182481751825
 40
0.3175182481751825
 40
0.3175182481751825
 40
0.3175182481751825
 40
0.3211678832116788
 40
0.3211678832116788
 40
0.3211678832116788
 40
0.3211678832116788
 40
0.3248175182481752
 40
0.3248175182481752
 40
0.3248175182481752
 40
0.3248175182481752
 40
0.3284671532846715
 40
0.3284671532846715
 40
0.3284671532846715
 40
0.3284671532846715
 40
0.3321167883211679
 40
0.3321167883211679
 40
0.3321167883211679
 40
0.3321167883211679
 40
0.3357664233576642
 40
0.3357664233576642
 40
0.3357664233576642
 40
0.3357664233576642
 40
0.3394160583941606
 40
0.3394160583941606
 40
0.3394160583941606
 40
0.3394160583941606
 40
0.343065693430657
 40
0.343065693430657
 40
0.343065693430657
 40
0.343065693430657
 40
0.3467153284671533
 40
0.3467153284671533
 40
0.3467153284671533
 40
0.3467153284671533
 40
0.3503649635036497
 40
0.3503649635036497
 40
0.3503649635036497
 40
0.3503649635036497
 40
0.354014598540146
 40
0.354014598540146
 40
0.354014598540146
 40
0.354014598540146
 40
0.3576642335766423
 40
0.3576642335766423
 40
0.3576642335766423
 40
0.3576642335766423
 40
0.3613138686131387
 40
0.3613138686131387
 40
0.3613138686131387
 40
0.3613138686131387
 40
0.364963503649635
 40
0.364963503649635
 40
0.364963503649635
 40
0.364963503649635
 40
0.3686131386861314
 40
0.3686131386861314
 40
0.3686131386861314
 40
0.3686131386861314
 40
0.3722627737226277
 40
0.3722627737226277
 40
0.3722627737226277
 40
0.3722627737226277
 40
0.3759124087591241
 40
0.3759124087591241
 40
0.3759124087591241
 40
0.3759124087591241
 40
0.3795620437956204
 40
0.3795620437956204
 40
0.3795620437956204
 40
0.3795620437956204
 40
0.3832116788321168
 40
0.3832116788321168
 40
0.3832116788321168
 40
0.3832116788321168
 40
0.3868613138686132
 40
0.3868613138686132
 40
0.3868613138686132
 40
0.3868613138686132
 40
0.3905109489051095
 40
0.3905109489051095
 40
0.3905109489051095
 40
0.3905109489051095
 40
0.3941605839416059
 40
0.3941605839416059
 40
0.3941605839416059
 40
0.3941605839416059
 40
0.3978102189781022
 40
0.3978102189781022
 40
0.3978102189781022
 40
0.3978102189781022
 40
0.4014598540145985
 40
0.4014598540145985
 40
0.4014598540145985
 40
0.4014598540145985
 40
0.4051094890510949
 40
0.4051094890510949
 40
0.4051094890510949
 40
0.4051094890510949
 40
0.4087591240875912
 40
0.4087591240875912
 40
0.4087591240875912
 40
0.4087591240875912
 40
0.4124087591240876
 40
0.4124087591240876
 40
0.4124087591240876
 40
0.4124087591240876
 40
0.4160583941605839
 40
0.4160583941605839
 40
0.4160583941605839
 40
0.4160583941605839
 40
0.4197080291970803
 40
0.4197080291970803
 40
0.4197080291970803
 40
0.4197080291970803
 40
0.4233576642335766
 40
0.4233576642335766
 40
0.4233576642335766
 40
0.4233576642335766
 40
0.427007299270073
 40
0.427007299270073
 40
0.427007299270073
 40
0.427007299270073
 40
0.4306569343065693
 40
0.4306569343065693
 40
0.4306569343065693
 40
0.4306569343065693
 40
0.4343065693430657
 40
0.4343065693430657
 40
0.4343065693430657
 40
0.4343065693430657
 40
0.4379562043795621
 40
0.4379562043795621
 40
0.4379562043795621
 40
0.4379562043795621
 40
0.4416058394160584
 40
0.4416058394160584
 40
0.4416058394160584
 40
0.4416058394160584
 40
0.4452554744525548
 40
0.4452554744525548
 40
0.4452554744525548
 40
0.4452554744525548
 40
0.4489051094890511
 40
0.4489051094890511
 40
0.4489051094890511
 40
0.4489051094890511
 40
0.4525547445255474
 40
0.4525547445255474
 40
0.4525547445255474
 40
0.4525547445255474
 40
0.4562043795620438
 40
0.4562043795620438
 40
0.4562043795620438
 40
0.4562043795620438
 40
0.4598540145985401
 40
0.4598540145985401
 40
0.4598540145985401
 40
0.4598540145985401
 40
0.4635036496350365
 40
0.4635036496350365
 40
0.4635036496350365
 40
0.4635036496350365
 40
0.4671532846715328
 40
0.4671532846715328
 40
0.4671532846715328
 40
0.4671532846715328
 40
0.4708029197080292
 40
0.4708029197080292
 40
0.4708029197080292
 40
0.4708029197080292
 40
0.4744525547445255
 40
0.4744525547445255
 40
0.4744525547445255
 40
0.4744525547445255
 40
0.4781021897810219
 40
0.4781021897810219
 40
0.4781021897810219
 40
0.4781021897810219
 40
0.4817518248175183
 40
0.4817518248175183
 40
0.4817518248175183
 40
0.4817518248175183
 40
0.4854014598540146
 40
0.4854014598540146
 40
0.4854014598540146
 40
0.4854014598540146
 40
0.489051094890511
 40
0.489051094890511
 40
0.489051094890511
 40
0.489051094890511
 40
0.4927007299270073
 40
0.4927007299270073
 40
0.4927007299270073
 40
0.4927007299270073
 40
0.4963503649635037
 40
0.4963503649635037
 40
0.4963503649635037
 40
0.4963503649635037
 40
0.5
 40
0.5
 40
0.5
 40
0.5
 40
0.5036496350364964
 40
0.5036496350364964
 40
0.5036496350364964
 40
0.5036496350364964
 40
0.5072992700729927
 40
0.5072992700729927
 40
0.5072992700729927
 40
0.5072992700729927
 40
0.5109489051094891
 40
0.5109489051094891
 40
0.5109489051094891
 40
0.5109489051094891
 40
0.5145985401459854
 40
0.5145985401459854
 40
0.5145985401459854
 40
0.5145985401459854
 40
0.5182481751824818
 40
0.5182481751824818
 40
0.5182481751824818
 40
0.5182481751824818
 40
0.5218978102189781
 40
0.5218978102189781
 40
0.5218978102189781
 40
0.5218978102189781
 40
0.5255474452554745
 40
0.5255474452554745
 40
0.5255474452554745
 40
0.5255474452554745
 40
0.5291970802919708
 40
0.5291970802919708
 40
0.5291970802919708
 40
0.5291970802919708
 40
0.5328467153284672
 40
0.5328467153284672
 40
0.5328467153284672
 40
0.5328467153284672
 40
0.5364963503649635
 40
0.5364963503649635
 40
0.5364963503649635
 40
0.5364963503649635
 40
0.5401459854014599
 40
0.5401459854014599
 40
0.5401459854014599
 40
0.5401459854014599
 40
0.5437956204379562
 40
0.5437956204379562
 40
0.5437956204379562
 40
0.5437956204379562
 40
0.5474452554744526
 40
0.5474452554744526
 40
0.5474452554744526
 40
0.5474452554744526
 40
0.551094890510949
 40
0.551094890510949
 40
0.551094890510949
 40
0.551094890510949
 40
0.5547445255474452
 40
0.5547445255474452
 40
0.5547445255474452
 40
0.5547445255474452
 40
0.5583941605839416
 40
0.5583941605839416
 40
0.5583941605839416
 40
0.5583941605839416
 40
0.5620437956204379
 40
0.5620437956204379
 40
0.5620437956204379
 40
0.5620437956204379
 40
0.5656934306569343
 40
0.5656934306569343
 40
0.5656934306569343
 40
0.5656934306569343
 40
0.5693430656934306
 40
0.5693430656934306
 40
0.5693430656934306
 40
0.5693430656934306
 40
0.572992700729927
 40
0.572992700729927
 40
0.572992700729927
 40
0.572992700729927
 40
0.5766423357664233
 40
0.5766423357664233
 40
0.5766423357664233
 40
0.5766423357664233
 40
0.5802919708029197
 40
0.5802919708029197
 40
0.5802919708029197
 40
0.5802919708029197
 40
0.583941605839416
 40
0.583941605839416
 40
0.583941605839416
 40
0.583941605839416
 40
0.5875912408759124
 40
0.5875912408759124
 40
0.5875912408759124
 40
0.5875912408759124
 40
0.5912408759124088
 40
0.5912408759124088
 40
0.5912408759124088
 40
0.5912408759124088
 40
0.5948905109489051
 40
0.5948905109489051
 40
0.5948905109489051
 40
0.5948905109489051
 40
0.5985401459854015
 40
0.5985401459854015
 40
0.5985401459854015
 40
0.5985401459854015
 40
0.6021897810218978
 40
0.6021897810218978
 40
0.6021897810218978
 40
0.6021897810218978
 40
0.6058394160583942
 40
0.6058394160583942
 40
0.6058394160583942
 40
0.6058394160583942
 40
0.6094890510948905
 40
0.6094890510948905
 40
0.6094890510948905
 40
0.6094890510948905
 40
0.6131386861313869
 40
0.6131386861313869
 40
0.6131386861313869
 40
0.6131386861313869
 40
0.6167883211678832
 40
0.6167883211678832
 40
0.6167883211678832
 40
0.6167883211678832
 40
0.6204379562043796
 40
0.6204379562043796
 40
0.6204379562043796
 40
0.6204379562043796
 40
0.6240875912408759
 40
0.6240875912408759
 40
0.6240875912408759
 40
0.6240875912408759
 40
0.6277372262773723
 40
0.6277372262773723
 40
0.6277372262773723
 40
0.6277372262773723
 40
0.6313868613138686
 40
0.6313868613138686
 40
0.6313868613138686
 40
0.6313868613138686
 40
0.635036496350365
 40
0.635036496350365
 40
0.635036496350365
 40
0.635036496350365
 40
0.6386861313868614
 40
0.6386861313868614
 40
0.6386861313868614
 40
0.6386861313868614
 40
0.6423357664233577
 40
0.6423357664233577
 40
0.6423357664233577
 40
0.6423357664233577
 40
0.6459854014598541
 40
0.6459854014598541
 40
0.6459854014598541
 40
0.6459854014598541
 40
0.6496350364963503
 40
0.6496350364963503
 40
0.6496350364963503
 40
0.6496350364963503
 40
0.6532846715328468
 40
0.6532846715328468
 40
0.6532846715328468
 40
0.6532846715328468
 40
0.656934306569343
 40
0.656934306569343
 40
0.656934306569343
 40
0.656934306569343
 40
0.6605839416058394
 40
0.6605839416058394
 40
0.6605839416058394
 40
0.6605839416058394
 40
0.6642335766423357
 40
0.6642335766423357
 40
0.6642335766423357
 40
0.6642335766423357
 40
0.6678832116788321
 40
0.6678832116788321
 40
0.6678832116788321
 40
0.6678832116788321
 40
0.6715328467153284
 40
0.6715328467153284
 40
0.6715328467153284
 40
0.6715328467153284
 40
0.6751824817518248
 40
0.6751824817518248
 40
0.6751824817518248
 40
0.6751824817518248
 40
0.6788321167883211
 40
0.6788321167883211
 40
0.6788321167883211
 40
0.6788321167883211
 40
0.6824817518248175
 40
0.6824817518248175
 40
0.6824817518248175
 40
0.6824817518248175
 40
0.6861313868613139
 40
0.6861313868613139
 40
0.6861313868613139
 40
0.6861313868613139
 40
0.6897810218978102
 40
0.6897810218978102
 40
0.6897810218978102
 40
0.6897810218978102
 40
0.6934306569343066
 40
0.6934306569343066
 40
0.6934306569343066
 40
0.6934306569343066
 40
0.6970802919708029
 40
0.6970802919708029
 40
0.6970802919708029
 40
0.6970802919708029
 40
0.7007299270072993
 40
0.7007299270072993
 40
0.7007299270072993
 40
0.7007299270072993
 40
0.7043795620437956
 40
0.7043795620437956
 40
0.7043795620437956
 40
0.7043795620437956
 40
0.708029197080292
 40
0.708029197080292
 40
0.708029197080292
 40
0.708029197080292
 40
0.7116788321167883
 40
0.7116788321167883
 40
0.7116788321167883
 40
0.7116788321167883
 40
0.7153284671532847
 40
0.7153284671532847
 40
0.7153284671532847
 40
0.7153284671532847
 40
0.718978102189781
 40
0.718978102189781
 40
0.718978102189781
 40
0.718978102189781
 40
0.7226277372262774
 40
0.7226277372262774
 40
0.7226277372262774
 40
0.7226277372262774
 40
0.7262773722627737
 40
0.7262773722627737
 40
0.7262773722627737
 40
0.7262773722627737
 40
0.7299270072992701
 40
0.7299270072992701
 40
0.7299270072992701
 40
0.7299270072992701
 40
0.7335766423357665
 40
0.7335766423357665
 40
0.7335766423357665
 40
0.7335766423357665
 40
0.7372262773722628
 40
0.7372262773722628
 40
0.7372262773722628
 40
0.7372262773722628
 40
0.7408759124087592
 40
0.7408759124087592
 40
0.7408759124087592
 40
0.7408759124087592
 40
0.7445255474452555
 40
0.7445255474452555
 40
0.7445255474452555
 40
0.7445255474452555
 40
0.7481751824817519
 40
0.7481751824817519
 40
0.7481751824817519
 40
0.7481751824817519
 40
0.7518248175182481
 40
0.7518248175182481
 40
0.7518248175182481
 40
0.7518248175182481
 40
0.7554744525547445
 40
0.7554744525547445
 40
0.7554744525547445
 40
0.7554744525547445
 40
0.7591240875912408
 40
0.7591240875912408
 40
0.7591240875912408
 40
0.7591240875912408
 40
0.7627737226277372
 40
0.7627737226277372
 40
0.7627737226277372
 40
0.7627737226277372
 40
0.7664233576642335
 40
0.7664233576642335
 40
0.7664233576642335
 40
0.7664233576642335
 40
0.7700729927007299
 40
0.7700729927007299
 40
0.7700729927007299
 40
0.7700729927007299
 40
0.7737226277372263
 40
0.7737226277372263
 40
0.7737226277372263
 40
0.7737226277372263
 40
0.7773722627737226
 40
0.7773722627737226
 40
0.7773722627737226
 40
0.7773722627737226
 40
0.781021897810219
 40
0.781021897810219
 40
0.781021897810219
 40
0.781021897810219
 40
0.7846715328467153
 40
0.7846715328467153
 40
0.7846715328467153
 40
0.7846715328467153
 40
0.7883211678832117
 40
0.7883211678832117
 40
0.7883211678832117
 40
0.7883211678832117
 40
0.791970802919708
 40
0.791970802919708
 40
0.791970802919708
 40
0.791970802919708
 40
0.7956204379562044
 40
0.7956204379562044
 40
0.7956204379562044
 40
0.7956204379562044
 40
0.7992700729927007
 40
0.7992700729927007
 40
0.7992700729927007
 40
0.7992700729927007
 40
0.8029197080291971
 40
0.8029197080291971
 40
0.8029197080291971
 40
0.8029197080291971
 40
0.8065693430656934
 40
0.8065693430656934
 40
0.8065693430656934
 40
0.8065693430656934
 40
0.8102189781021898
 40
0.8102189781021898
 40
0.8102189781021898
 40
0.8102189781021898
 40
0.8138686131386861
 40
0.8138686131386861
 40
0.8138686131386861
 40
0.8138686131386861
 40
0.8175182481751825
 40
0.8175182481751825
 40
0.8175182481751825
 40
0.8175182481751825
 40
0.8211678832116789
 40
0.8211678832116789
 40
0.8211678832116789
 40
0.8211678832116789
 40
0.8248175182481752
 40
0.8248175182481752
 40
0.8248175182481752
 40
0.8248175182481752
 40
0.8284671532846716
 40
0.8284671532846716
 40
0.8284671532846716
 40
0.8284671532846716
 40
0.8321167883211679
 40
0.8321167883211679
 40
0.8321167883211679
 40
0.8321167883211679
 40
0.8357664233576643
 40
0.8357664233576643
 40
0.8357664233576643
 40
0.8357664233576643
 40
0.8394160583941606
 40
0.8394160583941606
 40
0.8394160583941606
 40
0.8394160583941606
 40
0.843065693430657
 40
0.843065693430657
 40
0.843065693430657
 40
0.843065693430657
 40
0.8467153284671532
 40
0.8467153284671532
 40
0.8467153284671532
 40
0.8467153284671532
 40
0.8503649635036497
 40
0.8503649635036497
 40
0.8503649635036497
 40
0.8503649635036497
 40
0.8540145985401459
 40
0.8540145985401459
 40
0.8540145985401459
 40
0.8540145985401459
 40
0.8576642335766423
 40
0.8576642335766423
 40
0.8576642335766423
 40
0.8576642335766423
 40
0.8613138686131386
 40
0.8613138686131386
 40
0.8613138686131386
 40
0.8613138686131386
 40
0.864963503649635
 40
0.864963503649635
 40
0.864963503649635
 40
0.864963503649635
 40
0.8686131386861314
 40
0.8686131386861314
 40
0.8686131386861314
 40
0.8686131386861314
 40
0.8722627737226277
 40
0.8722627737226277
 40
0.8722627737226277
 40
0.8722627737226277
 40
0.8759124087591241
 40
0.8759124087591241
 40
0.8759124087591241
 40
0.8759124087591241
 40
0.8795620437956204
 40
0.8795620437956204
 40
0.8795620437956204
 40
0.8795620437956204
 40
0.8832116788321168
 40
0.8832116788321168
 40
0.8832116788321168
 40
0.8832116788321168
 40
0.8868613138686131
 40
0.8868613138686131
 40
0.8868613138686131
 40
0.8868613138686131
 40
0.8905109489051095
 40
0.8905109489051095
 40
0.8905109489051095
 40
0.8905109489051095
 40
0.8941605839416058
 40
0.8941605839416058
 40
0.8941605839416058
 40
0.8941605839416058
 40
0.8978102189781022
 40
0.8978102189781022
 40
0.8978102189781022
 40
0.8978102189781022
 40
0.9014598540145985
 40
0.9014598540145985
 40
0.9014598540145985
 40
0.9014598540145985
 40
0.9051094890510949
 40
0.9051094890510949
 40
0.9051094890510949
 40
0.9051094890510949
 40
0.9087591240875912
 40
0.9087591240875912
 40
0.9087591240875912
 40
0.9087591240875912
 40
0.9124087591240876
 40
0.9124087591240876
 40
0.9124087591240876
 40
0.9124087591240876
 40
0.916058394160584
 40
0.916058394160584
 40
0.916058394160584
 40
0.916058394160584
 40
0.9197080291970803
 40
0.9197080291970803
 40
0.9197080291970803
 40
0.9197080291970803
 40
0.9233576642335767
 40
0.9233576642335767
 40
0.9233576642335767
 40
0.9233576642335767
 40
0.927007299270073
 40
0.927007299270073
 40
0.927007299270073
 40
0.927007299270073
 40
0.9306569343065694
 40
0.9306569343065694
 40
0.9306569343065694
 40
0.9306569343065694
 40
0.9343065693430657
 40
0.9343065693430657
 40
0.9343065693430657
 40
0.9343065693430657
 40
0.9379562043795621
 40
0.9379562043795621
 40
0.9379562043795621
 40
0.9379562043795621
 40
0.9416058394160584
 40
0.9416058394160584
 40
0.9416058394160584
 40
0.9416058394160584
 40
0.9452554744525548
 40
0.9452554744525548
 40
0.9452554744525548
 40
0.9452554744525548
 40
0.948905109489051
 40
0.948905109489051
 40
0.948905109489051
 40
0.948905109489051
 40
0.9525547445255474
 40
0.9525547445255474
 40
0.9525547445255474
 40
0.9525547445255474
 40
0.9562043795620438
 40
0.9562043795620438
 40
0.9562043795620438
 40
0.9562043795620438
 40
0.9598540145985401
 40
0.9598540145985401
 40
0.9598540145985401
 40
0.9598540145985401
 40
0.9635036496350365
 40
0.9635036496350365
 40
0.9635036496350365
 40
0.9635036496350365
 40
0.9671532846715328
 40
0.9671532846715328
 40
0.9671532846715328
 40
0.9671532846715328
 40
0.9708029197080292
 40
0.9708029197080292
 40
0.9708029197080292
 40
0.9708029197080292
 40
0.9744525547445255
 40
0.9744525547445255
 40
0.9744525547445255
 40
0.9744525547445255
 40
0.9781021897810219
 40
0.9781021897810219
 40
0.9781021897810219
 40
0.9781021897810219
 40
0.9817518248175182
 40
0.9817518248175182
 40
0.9817518248175182
 40
0.9817518248175182
 40
0.9854014598540146
 40
0.9854014598540146
 40
0.9854014598540146
 40
0.9854014598540146
 40
0.9890510948905109
 40
0.9890510948905109
 40
0.9890510948905109
 40
0.9890510948905109
 40
0.9927007299270073
 40
0.9927007299270073
 40
0.9927007299270073
 40
0.9927007299270073
 40
1.0
 40
1.0
 40
1.0
 40
1.0
 10
360.578
 20
-59.4738
 30
0.0
 10
365.1892
 20
-57.4068
 30
0.0
 10
367.5506
 20
-59.3579
 30
0.0
 10
370.8283
 20
-62.498
 30
0.0
 10
370.8283
 20
-62.498
 30
0.0
 10
372.9785
 20
-64.5566
 30
0.0
 10
372.1859
 20
-64.4159
 30
0.0
 10
374.5632
 20
-66.8551
 30
0.0
 10
374.5632
 20
-66.8551
 30
0.0
 10
377.9864
 20
-70.3672
 30
0.0
 10
375.8307
 20
-68.4661
 30
0.0
 10
379.6217
 20
-70.976
 30
0.0
 10
379.6217
 20
-70.976
 30
0.0
 10
379.6217
 20
-70.976
 30
0.0
 10
383.3632
 20
-78.1128
 30
0.0
 10
383.3632
 20
-78.1128
 30
0.0
 10
383.3632
 20
-78.1128
 30
0.0
 10
364.1447
 20
-77.3977
 30
0.0
 10
354.7955
 20
-71.0317
 30
0.0
 10
334.7933
 20
-79.4995
 30
0.0
 10
334.7933
 20
-79.4995
 30
0.0
 10
323.0269
 20
-84.481
 30
0.0
 10
307.3576
 20
-89.0973
 30
0.0
 10
297.8786
 20
-96.3924
 30
0.0
 10
297.8786
 20
-96.3924
 30
0.0
 10
283.8205
 20
-107.2122
 30
0.0
 10
281.7473
 20
-110.4506
 30
0.0
 10
259.7873
 20
-106.3174
 30
0.0
 10
259.7873
 20
-106.3174
 30
0.0
 10
248.5437
 20
-104.2009
 30
0.0
 10
226.6635
 20
-99.8547
 30
0.0
 10
215.3474
 20
-99.0749
 30
0.0
 10
215.3474
 20
-99.0749
 30
0.0
 10
215.3474
 20
-107.9532
 30
0.0
 10
216.4441
 20
-111.9791
 30
0.0
 10
211.8746
 20
-117.9667
 30
0.0
 10
211.8746
 20
-117.9667
 30
0.0
 10
212.1966
 20
-126.5448
 30
0.0
 10
211.0297
 20
-121.7764
 30
0.0
 10
218.335
 20
-130.6883
 30
0.0
 10
218.335
 20
-130.6883
 30
0.0
 10
225.0086
 20
-135.1156
 30
0.0
 10
242.2642
 20
-152.5892
 30
0.0
 10
244.7965
 20
-160.5495
 30
0.0
 10
244.7965
 20
-160.5495
 30
0.0
 10
232.5906
 20
-179.0271
 30
0.0
 10
215.5481
 20
-173.4616
 30
0.0
 10
211.946
 20
-183.0749
 30
0.0
 10
211.946
 20
-183.0749
 30
0.0
 10
205.9818
 20
-198.9926
 30
0.0
 10
220.3368
 20
-199.548
 30
0.0
 10
232.9098
 20
-202.6442
 30
0.0
 10
232.9098
 20
-202.6442
 30
0.0
 10
241.8077
 20
-204.8354
 30
0.0
 10
241.2428
 20
-204.606
 30
0.0
 10
245.3902
 20
-202.194
 30
0.0
 10
245.3902
 20
-202.194
 30
0.0
 10
242.3203
 20
-192.9616
 30
0.0
 10
239.598
 20
-196.2512
 30
0.0
 10
222.529
 20
-190.2954
 30
0.0
 10
222.529
 20
-190.2954
 30
0.0
 10
226.3419
 20
-183.0176
 30
0.0
 10
225.1036
 20
-186.1874
 30
0.0
 10
236.8002
 20
-179.9669
 30
0.0
 10
236.8002
 20
-179.9669
 30
0.0
 10
262.096
 20
-166.5142
 30
0.0
 10
258.6631
 20
-177.2142
 30
0.0
 10
280.4634
 20
-225.9903
 30
0.0
 10
280.4634
 20
-225.9903
 30
0.0
 10
303.8804
 20
-225.9903
 30
0.0
 10
331.6454
 20
-226.4942
 30
0.0
 10
352.57
 20
-222.7127
 30
0.0
 10
352.57
 20
-222.7127
 30
0.0
 10
351.728
 20
-215.989
 30
0.0
 10
352.6627
 20
-211.1676
 30
0.0
 10
328.5048
 20
-214.247
 30
0.0
 10
328.5048
 20
-214.247
 30
0.0
 10
301.9787
 20
-217.6282
 30
0.0
 10
288.9047
 20
-221.7481
 30
0.0
 10
275.0944
 20
-174.6863
 30
0.0
 10
275.0944
 20
-174.6863
 30
0.0
 10
283.6411
 20
-172.2838
 30
0.0
 10
287.269
 20
-173.3299
 30
0.0
 10
294.6177
 20
-168.1398
 30
0.0
 10
294.6177
 20
-168.1398
 30
0.0
 10
315.1505
 20
-153.637
 30
0.0
 10
314.6002
 20
-185.1357
 30
0.0
 10
375.0656
 20
-209.0986
 30
0.0
 10
375.0656
 20
-209.0986
 30
0.0
 10
381.7043
 20
-211.7293
 30
0.0
 10
387.0934
 20
-213.911
 30
0.0
 10
393.3808
 20
-216.5444
 30
0.0
 10
393.3808
 20
-216.5444
 30
0.0
 10
404.6172
 20
-221.2501
 30
0.0
 10
402.1304
 20
-223.6514
 30
0.0
 10
409.6869
 20
-228.3863
 30
0.0
 10
409.6869
 20
-228.3863
 30
0.0
 10
421.8182
 20
-228.3795
 30
0.0
 10
414.5972
 20
-223.9819
 30
0.0
 10
427.8706
 20
-227.4385
 30
0.0
 10
427.8706
 20
-227.4385
 30
0.0
 10
436.7499
 20
-229.751
 30
0.0
 10
435.8466
 20
-230.9079
 30
0.0
 10
446.614
 20
-229.2058
 30
0.0
 10
446.614
 20
-229.2058
 30
0.0
 10
446.614
 20
-229.2058
 30
0.0
 10
441.9097
 20
-221.124
 30
0.0
 10
441.9097
 20
-221.124
 30
0.0
 10
441.9097
 20
-221.124
 30
0.0
 10
447.8108
 20
-216.2708
 30
0.0
 10
484.9988
 20
-208.8394
 30
0.0
 10
495.6916
 20
-206.9828
 30
0.0
 10
495.6916
 20
-206.9828
 30
0.0
 10
516.3063
 20
-203.4026
 30
0.0
 10
535.6463
 20
-221.2433
 30
0.0
 10
549.841
 20
-210.1722
 30
0.0
 10
549.841
 20
-210.1722
 30
0.0
 10
544.4351
 20
-197.9431
 30
0.0
 10
528.9091
 20
-209.4218
 30
0.0
 10
514.5256
 20
-198.2276
 30
0.0
 10
514.5256
 20
-198.2276
 30
0.0
 10
518.8995
 20
-191.1207
 30
0.0
 10
525.6399
 20
-188.9565
 30
0.0
 10
536.0538
 20
-185.8334
 30
0.0
 10
536.0538
 20
-185.8334
 30
0.0
 10
543.5386
 20
-183.5888
 30
0.0
 10
558.6327
 20
-183.3347
 30
0.0
 10
560.6035
 20
-174.4312
 30
0.0
 10
560.6035
 20
-174.4312
 30
0.0
 10
545.3996
 20
-164.9386
 30
0.0
 10
512.4484
 20
-191.0858
 30
0.0
 10
486.344
 20
-197.4783
 30
0.0
 10
486.344
 20
-197.4783
 30
0.0
 10
462.5992
 20
-203.2924
 30
0.0
 10
417.3639
 20
-215.3449
 30
0.0
 10
399.8913
 20
-202.194
 30
0.0
 10
399.8913
 20
-202.194
 30
0.0
 10
408.4683
 20
-194.4456
 30
0.0
 10
412.7437
 20
-202.6376
 30
0.0
 10
417.74
 20
-192.2786
 30
0.0
 10
417.74
 20
-192.2786
 30
0.0
 10
393.4471
 20
-188.6118
 30
0.0
 10
386.9321
 20
-204.1609
 30
0.0
 10
360.0311
 20
-190.3297
 30
0.0
 10
360.0311
 20
-190.3297
 30
0.0
 10
312.1605
 20
-165.7171
 30
0.0
 10
393.5552
 20
-175.9803
 30
0.0
 10
445.5022
 20
-168.4541
 30
0.0
 10
445.5022
 20
-168.4541
 30
0.0
 10
455.4108
 20
-167.0185
 30
0.0
 10
466.2688
 20
-165.3786
 30
0.0
 10
475.8451
 20
-167.7532
 30
0.0
 10
475.8451
 20
-167.7532
 30
0.0
 10
485.208
 20
-170.0753
 30
0.0
 10
493.3643
 20
-178.3121
 30
0.0
 10
501.2425
 20
-174.4312
 30
0.0
 10
501.2425
 20
-174.4312
 30
0.0
 10
496.1143
 20
-165.3624
 30
0.0
 10
493.2643
 20
-172.3958
 30
0.0
 10
487.9269
 20
-164.5159
 30
0.0
 10
487.9269
 20
-164.5159
 30
0.0
 10
497.8478
 20
-156.0408
 30
0.0
 10
537.4034
 20
-150.0287
 30
0.0
 10
542.3343
 20
-136.2887
 30
0.0
 10
542.3343
 20
-136.2887
 30
0.0
 10
536.8009
 20
-134.0267
 30
0.0
 10
510.9346
 20
-144.6476
 30
0.0
 10
498.3932
 20
-148.0939
 30
0.0
 10
498.3932
 20
-148.0939
 30
0.0
 10
477.9902
 20
-153.7012
 30
0.0
 10
464.9286
 20
-153.7242
 30
0.0
 10
443.3988
 20
-154.9023
 30
0.0
 10
443.3988
 20
-154.9023
 30
0.0
 10
443.1109
 20
-154.4655
 30
0.0
 10
442.9248
 20
-153.1543
 30
0.0
 10
442.8354
 20
-153.4392
 30
0.0
 10
442.8354
 20
-153.4392
 30
0.0
 10
442.8354
 20
-153.4392
 30
0.0
 10
441.728
 20
-150.5083
 30
0.0
 10
441.728
 20
-150.5083
 30
0.0
 10
441.728
 20
-150.5083
 30
0.0
 10
439.9647
 20
-145.9027
 30
0.0
 10
443.3492
 20
-150.0175
 30
0.0
 10
439.4324
 20
-144.7885
 30
0.0
 10
439.4324
 20
-144.7885
 30
0.0
 10
426.7154
 20
-143.6678
 30
0.0
 10
418.3144
 20
-148.6009
 30
0.0
 10
411.9123
 20
-154.8596
 30
0.0
 10
411.9123
 20
-154.8596
 30
0.0
 10
401.531
 20
-165.0088
 30
0.0
 10
396.8294
 20
-161.3381
 30
0.0
 10
379.4227
 20
-160.5495
 30
0.0
 10
379.4227
 20
-160.5495
 30
0.0
 10
394.147
 20
-125.7297
 30
0.0
 10
413.4667
 20
-136.0768
 30
0.0
 10
421.4764
 20
-124.8546
 30
0.0
 10
421.4764
 20
-124.8546
 30
0.0
 10
413.9709
 20
-120.1596
 30
0.0
 10
396.9115
 20
-125.1772
 30
0.0
 10
390.3397
 20
-129.3628
 30
0.0
 10
390.3397
 20
-129.3628
 30
0.0
 10
383.9945
 20
-133.4045
 30
0.0
 10
376.1961
 20
-142.8874
 30
0.0
 10
369.9746
 20
-148.6881
 30
0.0
 10
369.9746
 20
-148.6881
 30
0.0
 10
359.827
 20
-158.1486
 30
0.0
 10
360.6455
 20
-160.5893
 30
0.0
 10
342.2752
 20
-160.6906
 30
0.0
 10
342.2752
 20
-160.6906
 30
0.0
 10
333.5324
 20
-160.7383
 30
0.0
 10
331.3026
 20
-161.6034
 30
0.0
 10
324.8802
 20
-158.034
 30
0.0
 10
324.8802
 20
-158.034
 30
0.0
 10
324.4958
 20
-157.8204
 30
0.0
 10
324.0658
 20
-157.4414
 30
0.0
 10
323.6919
 20
-157.2172
 30
0.0
 10
323.6919
 20
-157.2172
 30
0.0
 10
323.6919
 20
-157.2172
 30
0.0
 10
311.0278
 20
-150.6342
 30
0.0
 10
311.0278
 20
-150.6342
 30
0.0
 10
311.0278
 20
-150.6342
 30
0.0
 10
311.0278
 20
-150.6342
 30
0.0
 10
316.3303
 20
-139.4344
 30
0.0
 10
316.3303
 20
-139.4344
 30
0.0
 10
316.3303
 20
-139.4344
 30
0.0
 10
306.2813
 20
-138.3865
 30
0.0
 10
305.4492
 20
-142.5451
 30
0.0
 10
300.1519
 20
-148.1845
 30
0.0
 10
300.1519
 20
-148.1845
 30
0.0
 10
300.1519
 20
-148.1845
 30
0.0
 10
276.7467
 20
-141.2118
 30
0.0
 10
276.7467
 20
-141.2118
 30
0.0
 10
276.7467
 20
-141.2118
 30
0.0
 10
279.2525
 20
-131.3094
 30
0.0
 10
307.257
 20
-110.8987
 30
0.0
 10
316.4833
 20
-105.0245
 30
0.0
 10
316.4833
 20
-105.0245
 30
0.0
 10
325.1608
 20
-107.341
 30
0.0
 10
337.139
 20
-122.1479
 30
0.0
 10
345.5585
 20
-114.9393
 30
0.0
 10
345.5585
 20
-114.9393
 30
0.0
 10
338.3336
 20
-107.2742
 30
0.0
 10
327.307
 20
-106.2988
 30
0.0
 10
321.7323
 20
-95.1091
 30
0.0
 10
321.7323
 20
-95.1091
 30
0.0
 10
327.1816
 20
-88.2698
 30
0.0
 10
349.9532
 20
-82.9762
 30
0.0
 10
359.958
 20
-87.5278
 30
0.0
 10
359.958
 20
-87.5278
 30
0.0
 10
369.4372
 20
-91.8398
 30
0.0
 10
367.0733
 20
-94.9315
 30
0.0
 10
380.1535
 20
-89.4637
 30
0.0
 10
380.1535
 20
-89.4637
 30
0.0
 10
386.9377
 20
-86.6277
 30
0.0
 10
391.8378
 20
-82.7407
 30
0.0
 10
400.0954
 20
-86.6367
 30
0.0
 10
400.0954
 20
-86.6367
 30
0.0
 10
402.4822
 20
-87.7628
 30
0.0
 10
418.429
 20
-100.7731
 30
0.0
 10
429.8122
 20
-106.78
 30
0.0
 10
429.8122
 20
-106.78
 30
0.0
 10
436.2772
 20
-110.192
 30
0.0
 10
442.9338
 20
-110.4343
 30
0.0
 10
449.1149
 20
-113.1601
 30
0.0
 10
449.1149
 20
-113.1601
 30
0.0
 10
455.4344
 20
-115.9471
 30
0.0
 10
458.8223
 20
-119.9096
 30
0.0
 10
468.4279
 20
-118.1552
 30
0.0
 10
468.4279
 20
-118.1552
 30
0.0
 10
464.416
 20
-108.3675
 30
0.0
 10
463.38
 20
-118.4519
 30
0.0
 10
463.5234
 20
-107.6957
 30
0.0
 10
463.5234
 20
-107.6957
 30
0.0
 10
512.6773
 20
-105.816
 30
0.0
 10
501.9272
 20
-97.347
 30
0.0
 10
530.807
 20
-106.8384
 30
0.0
 10
530.807
 20
-106.8384
 30
0.0
 10
542.1147
 20
-110.5547
 30
0.0
 10
548.4841
 20
-111.6531
 30
0.0
 10
553.5028
 20
-106.3162
 30
0.0
 10
553.5028
 20
-106.3162
 30
0.0
 10
548.4807
 20
-96.321
 30
0.0
 10
540.1405
 20
-105.1904
 30
0.0
 10
525.1715
 20
-95.1091
 30
0.0
 10
525.1715
 20
-95.1091
 30
0.0
 10
529.0891
 20
-86.0247
 30
0.0
 10
536.0994
 20
-90.4216
 30
0.0
 10
538.9048
 20
-79.1285
 30
0.0
 10
538.9048
 20
-79.1285
 30
0.0
 10
525.2014
 20
-79.88
 30
0.0
 10
532.4399
 20
-84.0573
 30
0.0
 10
510.861
 20
-91.3069
 30
0.0
 10
510.861
 20
-91.3069
 30
0.0
 10
492.5004
 20
-97.4757
 30
0.0
 10
499.691
 20
-92.9821
 30
0.0
 10
497.7635
 20
-91.8713
 30
0.0
 10
497.7635
 20
-91.8713
 30
0.0
 10
495.7011
 20
-90.683
 30
0.0
 10
499.3431
 20
-82.5979
 30
0.0
 10
485.0387
 20
-92.7095
 30
0.0
 10
485.0387
 20
-92.7095
 30
0.0
 10
469.5943
 20
-103.6265
 30
0.0
 10
441.9248
 20
-95.3504
 30
0.0
 10
431.1506
 20
-89.6104
 30
0.0
 10
431.1506
 20
-89.6104
 30
0.0
 10
423.134
 20
-85.34
 30
0.0
 10
427.3754
 20
-88.7161
 30
0.0
 10
425.5844
 20
-83.2106
 30
0.0
 10
425.5844
 20
-83.2106
 30
0.0
 10
437.0563
 20
-73.555
 30
0.0
 10
478.6906
 20
-66.7616
 30
0.0
 10
498.2695
 20
-70.2677
 30
0.0
 10
498.2695
 20
-70.2677
 30
0.0
 10
502.6922
 20
-71.0597
 30
0.0
 10
510.8296
 20
-74.2639
 30
0.0
 10
516.5987
 20
-73.5786
 30
0.0
 10
516.5987
 20
-73.5786
 30
0.0
 10
516.5987
 20
-73.5786
 30
0.0
 10
521.6336
 20
-72.0754
 30
0.0
 10
521.6336
 20
-72.0754
 30
0.0
 10
521.6336
 20
-72.0754
 30
0.0
 10
522.0423
 20
-71.9338
 30
0.0
 10
522.7124
 20
-71.6427
 30
0.0
 10
523.1851
 20
-71.3121
 30
0.0
 10
523.1851
 20
-71.3121
 30
0.0
 10
516.7156
 20
-66.145
 30
0.0
 10
510.6693
 20
-68.4195
 30
0.0
 10
497.4948
 20
-62.8729
 30
0.0
 10
497.4948
 20
-62.8729
 30
0.0
 10
482.9908
 20
-56.7661
 30
0.0
 10
485.009
 20
-61.1472
 30
0.0
 10
469.1754
 20
-61.222
 30
0.0
 10
469.1754
 20
-61.222
 30
0.0
 10
470.6067
 20
-45.569
 30
0.0
 10
476.7023
 20
-52.2015
 30
0.0
 10
480.494
 20
-42.1548
 30
0.0
 10
480.494
 20
-42.1548
 30
0.0
 10
471.8564
 20
-42.4818
 30
0.0
 10
467.7398
 20
-49.5366
 30
0.0
 10
461.675
 20
-53.9194
 30
0.0
 10
461.675
 20
-53.9194
 30
0.0
 10
440.9732
 20
-68.8804
 30
0.0
 10
413.2935
 20
-82.1409
 30
0.0
 10
392.8283
 20
-63.0326
 30
0.0
 10
392.8283
 20
-63.0326
 30
0.0
 10
392.3139
 20
-62.7825
 30
0.0
 10
391.4787
 20
-61.9247
 30
0.0
 10
391.2139
 20
-62.4541
 30
0.0
 10
391.2139
 20
-62.4541
 30
0.0
 10
391.2139
 20
-62.4541
 30
0.0
 10
386.7163
 20
-61.7813
 30
0.0
 10
386.7163
 20
-61.7813
 30
0.0
 10
386.7163
 20
-61.7813
 30
0.0
 10
383.3908
 20
-61.543
 30
0.0
 10
386.261
 20
-63.7672
 30
0.0
 10
381.7157
 20
-61.3591
 30
0.0
 10
381.7157
 20
-61.3591
 30
0.0
 10
377.2619
 20
-58.9998
 30
0.0
 10
376.856
 20
-54.6733
 30
0.0
 10
378.5564
 20
-48.7541
 30
0.0
 10
378.5564
 20
-48.7541
 30
0.0
 10
395.8418
 20
-44.5269
 30
0.0
 10
388.8108
 20
-59.4456
 30
0.0
 10
399.5811
 20
-51.2173
 30
0.0
 10
399.5811
 20
-51.2173
 30
0.0
 10
422.0227
 20
-49.9205
 30
0.0
 10
423.9362
 20
-60.5081
 30
0.0
 10
435.9596
 20
-53.4646
 30
0.0
 10
435.9596
 20
-53.4646
 30
0.0
 10
435.5498
 20
-53.1775
 30
0.0
 10
434.8544
 20
-52.3478
 30
0.0
 10
434.6402
 20
-52.7468
 30
0.0
 10
434.6402
 20
-52.7468
 30
0.0
 10
434.4256
 20
-53.1476
 30
0.0
 10
433.5974
 20
-52.1976
 30
0.0
 10
433.2984
 20
-52.0565
 30
0.0
 10
433.2984
 20
-52.0565
 30
0.0
 10
432.7082
 20
-51.7783
 30
0.0
 10
429.5272
 20
-50.428
 30
0.0
 10
429.0921
 20
-50.188
 30
0.0
 10
429.0921
 20
-50.188
 30
0.0
 10
422.3454
 20
-46.4657
 30
0.0
 10
426.6597
 20
-52.5737
 30
0.0
 10
423.6034
 20
-45.5325
 30
0.0
 10
423.6034
 20
-45.5325
 30
0.0
 10
429.8482
 20
-38.3064
 30
0.0
 10
468.3632
 20
-27.9616
 30
0.0
 10
481.5822
 20
-31.2876
 30
0.0
 10
481.5822
 20
-31.2876
 30
0.0
 10
496.202
 20
-34.9668
 30
0.0
 10
488.6261
 20
-42.7466
 30
0.0
 10
508.8335
 20
-42.4138
 30
0.0
 10
508.8335
 20
-42.4138
 30
0.0
 10
529.387
 20
-42.0749
 30
0.0
 10
523.0462
 20
-53.902
 30
0.0
 10
535.1803
 20
-52.2803
 30
0.0
 10
535.1803
 20
-52.2803
 30
0.0
 10
535.1803
 20
-52.2803
 30
0.0
 10
534.9566
 20
-45.3183
 30
0.0
 10
534.9566
 20
-45.3183
 30
0.0
 10
534.9566
 20
-45.3183
 30
0.0
 10
533.4607
 20
-41.1334
 30
0.0
 10
532.694
 20
-45.5112
 30
0.0
 10
531.4518
 20
-38.3992
 30
0.0
 10
531.4518
 20
-38.3992
 30
0.0
 10
543.7752
 20
-37.0647
 30
0.0
 10
543.9927
 20
-43.4752
 30
0.0
 10
548.6465
 20
-35.6172
 30
0.0
 10
548.6465
 20
-35.6172
 30
0.0
 10
543.3513
 20
-28.6457
 30
0.0
 10
526.9997
 20
-30.2427
 30
0.0
 10
518.7336
 20
-29.5789
 30
0.0
 10
518.7336
 20
-29.5789
 30
0.0
 10
509.4276
 20
-28.8311
 30
0.0
 10
494.239
 20
-28.1083
 30
0.0
 10
486.8729
 20
-23.7192
 30
0.0
 10
486.8729
 20
-23.7192
 30
0.0
 10
487.733
 20
-15.5089
 30
0.0
 10
490.0017
 20
-17.4364
 30
0.0
 10
507.9679
 20
-5.0207
 30
0.0
 10
507.9679
 20
-5.0207
 30
0.0
 10
511.7897
 20
-2.3793
 30
0.0
 10
515.7049
 20
0.1233
 30
0.0
 10
520.0917
 20
2.8507
 30
0.0
 10
520.0917
 20
2.8507
 30
0.0
 10
527.0177
 20
7.1565
 30
0.0
 10
528.8811
 20
6.7671
 30
0.0
 10
527.3836
 20
12.6963
 30
0.0
 10
527.3836
 20
12.6963
 30
0.0
 10
508.9239
 20
16.4395
 30
0.0
 10
489.9893
 20
-19.22
 30
0.0
 10
468.5039
 20
-21.1441
 30
0.0
 10
468.5039
 20
-21.1441
 30
0.0
 10
447.3353
 20
-23.0396
 30
0.0
 10
468.7028
 20
-15.1996
 30
0.0
 10
451.4618
 20
-15.1389
 30
0.0
 10
451.4618
 20
-15.1389
 30
0.0
 10
443.3752
 20
-15.1109
 30
0.0
 10
443.4274
 20
-23.0756
 30
0.0
 10
438.9433
 20
-27.083
 30
0.0
 10
438.9433
 20
-27.083
 30
0.0
 10
436.7881
 20
-29.0094
 30
0.0
 10
406.6976
 20
-38.7268
 30
0.0
 10
401.4839
 20
-38.9444
 30
0.0
 10
401.4839
 20
-38.9444
 30
0.0
 10
392.4966
 20
-40.7427
 30
0.0
 10
370.6811
 20
-44.1868
 30
0.0
 10
363.9615
 20
-42.3705
 30
0.0
 10
363.9615
 20
-42.3705
 30
0.0
 10
355.6706
 20
-41.985
 30
0.0
 10
362.2655
 20
-42.4021
 30
0.0
 10
359.284
 20
-39.5836
 30
0.0
 10
359.284
 20
-39.5836
 30
0.0
 10
364.568
 20
-22.7277
 30
0.0
 10
409.4722
 20
-15.428
 30
0.0
 10
431.7065
 20
-10.0096
 30
0.0
 10
431.7065
 20
-10.0096
 30
0.0
 10
445.641
 20
-6.6137
 30
0.0
 10
454.2332
 20
-9.6453
 30
0.0
 10
459.9516
 20
-1.9053
 30
0.0
 10
459.9516
 20
-1.9053
 30
0.0
 10
452.938
 20
1.9935
 30
0.0
 10
448.1121
 20
-2.3995
 30
0.0
 10
435.8583
 20
-1.5137
 30
0.0
 10
435.8583
 20
-1.5137
 30
0.0
 10
437.2985
 20
14.0235
 30
0.0
 10
454.015
 20
16.9056
 30
0.0
 10
458.5125
 20
25.4313
 30
0.0
 10
458.5125
 20
25.4313
 30
0.0
 10
443.7005
 20
27.0469
 30
0.0
 10
437.6605
 20
13.8464
 30
0.0
 10
430.9852
 20
4.5574
 30
0.0
 10
430.9852
 20
4.5574
 30
0.0
 10
417.1997
 20
-14.6274
 30
0.0
 10
413.1592
 20
-3.6818
 30
0.0
 10
392.4111
 20
-8.2816
 30
0.0
 10
392.4111
 20
-8.2816
 30
0.0
 10
366.1712
 20
-14.0985
 30
0.0
 10
358.5425
 20
-37.9595
 30
0.0
 10
314.6862
 20
-34.1996
 30
0.0
 10
314.6862
 20
-34.1996
 30
0.0
 10
318.336
 20
-21.8176
 30
0.0
 10
339.7675
 20
-13.9905
 30
0.0
 10
351.1017
 20
-10.7594
 30
0.0
 10
351.1017
 20
-10.7594
 30
0.0
 10
351.7459
 20
-10.5762
 30
0.0
 10
353.6252
 20
-10.0219
 30
0.0
 10
354.226
 20
-9.8156
 30
0.0
 10
354.226
 20
-9.8156
 30
0.0
 10
354.226
 20
-9.8156
 30
0.0
 10
357.2481
 20
-8.6037
 30
0.0
 10
357.2481
 20
-8.6037
 30
0.0
 10
357.2481
 20
-8.6037
 30
0.0
 10
357.6033
 20
-8.4638
 30
0.0
 10
358.2631
 20
-8.2041
 30
0.0
 10
358.7388
 20
-7.9398
 30
0.0
 10
358.7388
 20
-7.9398
 30
0.0
 10
358.1985
 20
2.2868
 30
0.0
 10
352.3743
 20
-5.2141
 30
0.0
 10
386.7545
 20
13.0033
 30
0.0
 10
386.7545
 20
13.0033
 30
0.0
 10
399.7002
 20
19.8629
 30
0.0
 10
409.8966
 20
25.75
 30
0.0
 10
424.6109
 20
32.7648
 30
0.0
 10
424.6109
 20
32.7648
 30
0.0
 10
436.619
 20
38.49
 30
0.0
 10
453.06
 20
50.4358
 30
0.0
 10
467.3295
 20
39.883
 30
0.0
 10
467.3295
 20
39.883
 30
0.0
 10
474.1003
 20
34.8755
 30
0.0
 10
495.8905
 20
18.5487
 30
0.0
 10
506.9903
 20
23.8742
 30
0.0
 10
506.9903
 20
23.8742
 30
0.0
 10
504.8412
 20
29.189
 30
0.0
 10
502.5681
 20
29.5668
 30
0.0
 10
494.3279
 20
33.3061
 30
0.0
 10
494.3279
 20
33.3061
 30
0.0
 10
492.2951
 20
34.2286
 30
0.0
 10
486.9623
 20
36.6721
 30
0.0
 10
486.3596
 20
37.0713
 30
0.0
 10
486.3596
 20
37.0713
 30
0.0
 10
478.8419
 20
42.0482
 30
0.0
 10
483.001
 20
38.1566
 30
0.0
 10
480.1893
 20
44.236
 30
0.0
 10
480.1893
 20
44.236
 30
0.0
 10
480.1893
 20
44.236
 30
0.0
 10
514.788
 20
44.2316
 30
0.0
 10
514.788
 20
44.2316
 30
0.0
 10
514.788
 20
44.2316
 30
0.0
 10
522.2233
 20
36.5541
 30
0.0
 10
526.4431
 20
23.8169
 30
0.0
 10
539.6166
 20
24.8259
 30
0.0
 10
539.6166
 20
24.8259
 30
0.0
 10
540.055
 20
34.2752
 30
0.0
 10
529.7473
 20
32.3151
 30
0.0
 10
529.5286
 20
42.846
 30
0.0
 10
529.5286
 20
42.846
 30
0.0
 10
529.5286
 20
42.846
 30
0.0
 10
555.3268
 20
44.0984
 30
0.0
 10
555.3268
 20
44.0984
 30
0.0
 10
555.3268
 20
44.0984
 30
0.0
 10
554.0278
 20
50.5881
 30
0.0
 10
558.9245
 20
52.5522
 30
0.0
 10
538.6682
 20
52.9759
 30
0.0
 10
538.6682
 20
52.9759
 30
0.0
 10
530.672
 20
53.143
 30
0.0
 10
523.0175
 20
53.342
 30
0.0
 10
515.0359
 20
54.1588
 30
0.0
 10
515.0359
 20
54.1588
 30
0.0
 10
517.1935
 20
60.7688
 30
0.0
 10
525.5848
 20
64.9206
 30
0.0
 10
532.0735
 20
68.2186
 30
0.0
 10
532.0735
 20
68.2186
 30
0.0
 10
543.8999
 20
74.23
 30
0.0
 10
545.8078
 20
65.7262
 30
0.0
 10
555.9063
 20
71.6015
 30
0.0
 10
555.9063
 20
71.6015
 30
0.0
 10
553.7192
 20
76.9253
 30
0.0
 10
539.7126
 20
81.4662
 30
0.0
 10
535.6468
 20
80.3424
 30
0.0
 10
535.6468
 20
80.3424
 30
0.0
 10
532.3551
 20
79.433
 30
0.0
 10
520.4498
 20
70.2985
 30
0.0
 10
516.5643
 20
67.698
 30
0.0
 10
516.5643
 20
67.698
 30
0.0
 10
498.899
 20
55.8755
 30
0.0
 10
489.8482
 20
54.7231
 30
0.0
 10
463.9719
 20
56.1986
 30
0.0
 10
463.9719
 20
56.1986
 30
0.0
 10
463.9719
 20
56.1986
 30
0.0
 10
479.4382
 20
77.0596
 30
0.0
 10
479.4382
 20
77.0596
 30
0.0
 10
479.4382
 20
77.0596
 30
0.0
 10
511.1292
 20
117.8914
 30
0.0
 10
505.6259
 20
100.1956
 30
0.0
 10
545.2767
 20
108.3464
 30
0.0
 10
545.2767
 20
108.3464
 30
0.0
 10
554.4532
 20
110.2329
 30
0.0
 10
555.6298
 20
109.9103
 30
0.0
 10
556.2651
 20
117.0773
 30
0.0
 10
556.2651
 20
117.0773
 30
0.0
 10
556.2651
 20
117.0773
 30
0.0
 10
538.1201
 20
117.5895
 30
0.0
 10
538.1201
 20
117.5895
 30
0.0
 10
538.1201
 20
117.5895
 30
0.0
 10
536.6952
 20
126.7582
 30
0.0
 10
547.307
 20
124.9538
 30
0.0
 10
548.1778
 20
136.2656
 30
0.0
 10
548.1778
 20
136.2656
 30
0.0
 10
528.4134
 20
129.2249
 30
0.0
 10
532.5412
 20
111.4336
 30
0.0
 10
512.6969
 20
113.6451
 30
0.0
 10
512.6969
 20
113.6451
 30
0.0
 10
512.8971
 20
122.9752
 30
0.0
 10
531.6124
 20
145.7008
 30
0.0
 10
537.3147
 20
154.077
 30
0.0
 10
537.3147
 20
154.077
 30
0.0
 10
543.4137
 20
163.035
 30
0.0
 10
564.7665
 20
181.4873
 30
0.0
 10
558.4157
 20
195.3319
 30
0.0
 10
558.4157
 20
195.3319
 30
0.0
 10
552.2902
 20
192.365
 30
0.0
 10
544.1164
 20
176.9453
 30
0.0
 10
539.381
 20
169.9126
 30
0.0
 10
539.381
 20
169.9126
 30
0.0
 10
533.3832
 20
161.0063
 30
0.0
 10
528.8058
 20
147.196
 30
0.0
 10
518.2878
 20
142.3027
 30
0.0
 10
518.2878
 20
142.3027
 30
0.0
 10
525.664
 20
177.8117
 30
0.0
 10
542.4621
 20
184.203
 30
0.0
 10
542.8712
 20
202.3483
 30
0.0
 10
542.8712
 20
202.3483
 30
0.0
 10
518.3879
 20
198.6991
 30
0.0
 10
507.9801
 20
136.1772
 30
0.0
 10
495.7499
 20
110.3082
 30
0.0
 10
495.7499
 20
110.3082
 30
0.0
 10
493.1783
 20
104.8685
 30
0.0
 10
483.8735
 20
95.2618
 30
0.0
 10
480.4906
 20
91.8689
 30
0.0
 10
480.4906
 20
91.8689
 30
0.0
 10
476.9491
 20
88.3163
 30
0.0
 10
474.6168
 20
86.6377
 30
0.0
 10
471.0906
 20
83.3746
 30
0.0
 10
471.0906
 20
83.3746
 30
0.0
 10
463.7229
 20
76.556
 30
0.0
 10
452.024
 20
64.1679
 30
0.0
 10
443.0137
 20
59.7131
 30
0.0
 10
443.0137
 20
59.7131
 30
0.0
 10
432.8465
 20
54.686
 30
0.0
 10
429.8779
 20
49.8584
 30
0.0
 10
419.6843
 20
48.0394
 30
0.0
 10
419.6843
 20
48.0394
 30
0.0
 10
418.2752
 20
75.0602
 30
0.0
 10
439.6678
 20
84.568
 30
0.0
 10
456.8774
 20
95.6976
 30
0.0
 10
456.8774
 20
95.6976
 30
0.0
 10
470.4577
 20
104.4808
 30
0.0
 10
468.6949
 20
107.2548
 30
0.0
 10
473.7259
 20
122.5306
 30
0.0
 10
473.7259
 20
122.5306
 30
0.0
 10
477.2718
 20
133.2975
 30
0.0
 10
487.222
 20
142.3673
 30
0.0
 10
486.6672
 20
152.7156
 30
0.0
 10
486.6672
 20
152.7156
 30
0.0
 10
480.6619
 20
152.0326
 30
0.0
 10
473.9059
 20
145.7329
 30
0.0
 10
470.2682
 20
141.7619
 30
0.0
 10
470.2682
 20
141.7619
 30
0.0
 10
459.4969
 20
130.0023
 30
0.0
 10
470.5865
 20
111.3667
 30
0.0
 10
451.2663
 20
101.2901
 30
0.0
 10
451.2663
 20
101.2901
 30
0.0
 10
446.1357
 20
98.6145
 30
0.0
 10
436.5879
 20
92.7266
 30
0.0
 10
432.413
 20
92.2106
 30
0.0
 10
432.413
 20
92.2106
 30
0.0
 10
431.2809
 20
100.8703
 30
0.0
 10
441.3998
 20
124.8279
 30
0.0
 10
445.106
 20
133.1317
 30
0.0
 10
445.106
 20
133.1317
 30
0.0
 10
461.1208
 20
169.012
 30
0.0
 10
466.3273
 20
142.0879
 30
0.0
 10
502.4208
 20
186.9765
 30
0.0
 10
502.4208
 20
186.9765
 30
0.0
 10
507.0037
 20
192.6759
 30
0.0
 10
511.7992
 20
195.631
 30
0.0
 10
515.2963
 20
201.9887
 30
0.0
 10
515.2963
 20
201.9887
 30
0.0
 10
522.7101
 20
215.4662
 30
0.0
 10
518.7314
 20
213.8641
 30
0.0
 10
512.6003
 20
216.23
 30
0.0
 10
512.6003
 20
216.23
 30
0.0
 10
512.6964
 20
216.6826
 30
0.0
 10
514.1377
 20
222.6556
 30
0.0
 10
514.1388
 20
222.7389
 30
0.0
 10
514.1388
 20
222.7389
 30
0.0
 10
514.1388
 20
222.7389
 30
0.0
 10
512.8055
 20
229.1111
 30
0.0
 10
512.8055
 20
229.1111
 30
0.0
 10
512.8055
 20
229.1111
 30
0.0
 10
498.5825
 20
221.5944
 30
0.0
 10
511.8869
 20
206.0679
 30
0.0
 10
486.0449
 20
181.5296
 30
0.0
 10
486.0449
 20
181.5296
 30
0.0
 10
479.8138
 20
175.6132
 30
0.0
 10
452.3073
 20
152.1439
 30
0.0
 10
442.1816
 20
151.5553
 30
0.0
 10
442.1816
 20
151.5553
 30
0.0
 10
440.0636
 20
160.0182
 30
0.0
 10
453.1897
 20
188.1177
 30
0.0
 10
457.9499
 20
195.7699
 30
0.0
 10
457.9499
 20
195.7699
 30
0.0
 10
462.9303
 20
203.7768
 30
0.0
 10
466.4087
 20
207.2899
 30
0.0
 10
472.225
 20
213.1597
 30
0.0
 10
472.225
 20
213.1597
 30
0.0
 10
478.7474
 20
219.7416
 30
0.0
 10
486.5907
 20
221.7907
 30
0.0
 10
485.9791
 20
228.8302
 30
0.0
 10
485.9791
 20
228.8302
 30
0.0
 10
476.1093
 20
231.947
 30
0.0
 10
470.8793
 20
225.4012
 30
0.0
 10
463.2294
 20
221.7186
 30
0.0
 10
463.2294
 20
221.7186
 30
0.0
 10
462.8381
 20
222.0402
 30
0.0
 10
462.4019
 20
223.2044
 30
0.0
 10
462.2491
 20
222.8784
 30
0.0
 10
462.2491
 20
222.8784
 30
0.0
 10
461.3434
 20
220.9413
 30
0.0
 10
460.5941
 20
224.9099
 30
0.0
 10
460.3181
 20
225.2078
 30
0.0
 10
460.3181
 20
225.2078
 30
0.0
 10
455.2011
 20
230.7223
 30
0.0
 10
455.9054
 20
230.6317
 30
0.0
 10
448.311
 20
229.1645
 30
0.0
 10
448.311
 20
229.1645
 30
0.0
 10
446.6366
 20
218.162
 30
0.0
 10
454.0942
 20
217.6787
 30
0.0
 10
450.3168
 20
203.4957
 30
0.0
 10
450.3168
 20
203.4957
 30
0.0
 10
448.4915
 20
196.644
 30
0.0
 10
443.4712
 20
187.7394
 30
0.0
 10
440.4773
 20
179.4671
 30
0.0
 10
440.4773
 20
179.4671
 30
0.0
 10
433.6071
 20
160.483
 30
0.0
 10
432.458
 20
145.1994
 30
0.0
 10
427.9133
 20
126.0461
 30
0.0
 10
427.9133
 20
126.0461
 30
0.0
 10
416.9839
 20
130.5606
 30
0.0
 10
427.4631
 20
132.2013
 30
0.0
 10
415.636
 20
135.2807
 30
0.0
 10
415.636
 20
135.2807
 30
0.0
 10
411.0827
 20
127.7363
 30
0.0
 10
418.9064
 20
122.8936
 30
0.0
 10
417.5381
 20
101.1912
 30
0.0
 10
417.5381
 20
101.1912
 30
0.0
 10
416.5916
 20
86.1667
 30
0.0
 10
411.5627
 20
80.1266
 30
0.0
 10
408.6728
 20
69.042
 30
0.0
 10
408.6728
 20
69.042
 30
0.0
 10
406.0601
 20
61.7233
 30
0.0
 10
405.8369
 20
64.6519
 30
0.0
 10
405.1685
 20
57.5343
 30
0.0
 10
405.1685
 20
57.5343
 30
0.0
 10
404.6661
 20
52.1863
 30
0.0
 10
407.8679
 20
48.5127
 30
0.0
 10
403.014
 20
46.9038
 30
0.0
 10
403.014
 20
46.9038
 30
0.0
 10
401.11
 20
33.7113
 30
0.0
 10
375.6868
 20
24.2036
 30
0.0
 10
357.9371
 20
14.1292
 30
0.0
 10
357.9371
 20
14.1292
 30
0.0
 10
349.9268
 20
9.5827
 30
0.0
 10
343.4528
 20
2.7158
 30
0.0
 10
335.7608
 20
-3.3344
 30
0.0
 10
335.7608
 20
-3.3344
 30
0.0
 10
329.2878
 20
-8.4254
 30
0.0
 10
319.7131
 20
-18.8074
 30
0.0
 10
312.5169
 20
-20.1475
 30
0.0
 10
312.5169
 20
-20.1475
 30
0.0
 10
312.9598
 20
1.4061
 30
0.0
 10
322.6127
 20
15.3423
 30
0.0
 10
336.3139
 20
25.4498
 30
0.0
 10
336.3139
 20
25.4498
 30
0.0
 10
343.4422
 20
23.8618
 30
0.0
 10
340.9953
 20
22.3672
 30
0.0
 10
350.195
 20
21.1328
 30
0.0
 10
350.195
 20
21.1328
 30
0.0
 10
348.073
 20
25.5005
 30
0.0
 10
341.0751
 20
32.1999
 30
0.0
 10
348.9241
 20
34.938
 30
0.0
 10
348.9241
 20
34.938
 30
0.0
 10
353.7537
 20
36.6226
 30
0.0
 10
355.0292
 20
35.1144
 30
0.0
 10
359.3987
 20
34.8643
 30
0.0
 10
359.3987
 20
34.8643
 30
0.0
 10
364.0441
 20
34.5984
 30
0.0
 10
358.379
 20
33.681
 30
0.0
 10
363.8884
 20
34.8833
 30
0.0
 10
363.8884
 20
34.8833
 30
0.0
 10
369.8295
 20
36.1802
 30
0.0
 10
363.9132
 20
31.8991
 30
0.0
 10
367.383
 20
36.7805
 30
0.0
 10
367.383
 20
36.7805
 30
0.0
 10
364.4865
 20
41.7819
 30
0.0
 10
356.0365
 20
46.4278
 30
0.0
 10
349.3918
 20
49.8421
 30
0.0
 10
349.3918
 20
49.8421
 30
0.0
 10
340.1105
 20
48.1451
 30
0.0
 10
323.8583
 20
53.8692
 30
0.0
 10
319.4102
 20
59.5691
 30
0.0
 10
319.4102
 20
59.5691
 30
0.0
 10
324.6722
 20
67.0425
 30
0.0
 10
330.9882
 20
65.3742
 30
0.0
 10
342.0583
 20
67.689
 30
0.0
 10
342.0583
 20
67.689
 30
0.0
 10
356.6089
 20
70.7318
 30
0.0
 10
353.9157
 20
68.7852
 30
0.0
 10
365.2256
 20
76.2132
 30
0.0
 10
365.2256
 20
76.2132
 30
0.0
 10
376.8953
 20
83.8778
 30
0.0
 10
396.8289
 20
91.2213
 30
0.0
 10
387.8731
 20
113.1954
 30
0.0
 10
387.8731
 20
113.1954
 30
0.0
 10
378.6543
 20
110.1532
 30
0.0
 10
385.6393
 20
107.8923
 30
0.0
 10
376.638
 20
98.5615
 30
0.0
 10
376.638
 20
98.5615
 30
0.0
 10
373.5479
 20
95.358
 30
0.0
 10
338.3769
 20
65.8105
 30
0.0
 10
325.5548
 20
74.5898
 30
0.0
 10
325.5548
 20
74.5898
 30
0.0
 10
324.3923
 20
84.7068
 30
0.0
 10
338.1937
 20
94.2467
 30
0.0
 10
338.7462
 20
94.7875
 30
0.0
 10
338.7462
 20
94.7875
 30
0.0
 10
338.7462
 20
94.7875
 30
0.0
 10
342.7434
 20
102.4937
 30
0.0
 10
342.7434
 20
102.4937
 30
0.0
 10
342.7434
 20
102.4937
 30
0.0
 10
349.5699
 20
123.0286
 30
0.0
 10
350.4766
 20
115.5888
 30
0.0
 10
368.0992
 20
125.8162
 30
0.0
 10
368.0992
 20
125.8162
 30
0.0
 10
368.0992
 20
125.8162
 30
0.0
 10
369.4714
 20
136.537
 30
0.0
 10
369.4714
 20
136.537
 30
0.0
 10
369.4714
 20
136.537
 30
0.0
 10
360.9317
 20
135.9092
 30
0.0
 10
366.5568
 20
134.4797
 30
0.0
 10
358.9782
 20
133.7933
 30
0.0
 10
358.9782
 20
133.7933
 30
0.0
 10
359.0732
 20
138.8226
 30
0.0
 10
363.034
 20
148.0111
 30
0.0
 10
365.6428
 20
153.0771
 30
0.0
 10
365.6428
 20
153.0771
 30
0.0
 10
374.8875
 20
171.0302
 30
0.0
 10
414.8479
 20
167.7783
 30
0.0
 10
409.1658
 20
191.7911
 30
0.0
 10
409.1658
 20
191.7911
 30
0.0
 10
398.3146
 20
189.9231
 30
0.0
 10
397.7699
 20
178.1562
 30
0.0
 10
378.6465
 20
175.2748
 30
0.0
 10
378.6465
 20
175.2748
 30
0.0
 10
378.2765
 20
183.2535
 30
0.0
 10
389.9063
 20
197.7412
 30
0.0
 10
390.7923
 20
215.0979
 30
0.0
 10
390.7923
 20
215.0979
 30
0.0
 10
386.5589
 20
213.276
 30
0.0
 10
386.6736
 20
215.2485
 30
0.0
 10
382.1146
 20
204.1617
 30
0.0
 10
382.1146
 20
204.1617
 30
0.0
 10
373.6638
 20
183.6071
 30
0.0
 10
352.1731
 20
151.8465
 30
0.0
 10
348.6277
 20
142.3646
 30
0.0
 10
348.6277
 20
142.3646
 30
0.0
 10
344.6058
 20
131.6072
 30
0.0
 10
343.0824
 20
121.3389
 30
0.0
 10
334.3307
 20
117.2376
 30
0.0
 10
334.3307
 20
117.2376
 30
0.0
 10
331.6853
 20
121.5727
 30
0.0
 10
335.6208
 20
155.2485
 30
0.0
 10
336.356
 20
164.6848
 30
0.0
 10
336.356
 20
164.6848
 30
0.0
 10
337.2082
 20
175.6176
 30
0.0
 10
351.0365
 20
199.6867
 30
0.0
 10
350.6571
 20
201.9593
 30
0.0
 10
350.6571
 20
201.9593
 30
0.0
 10
347.9015
 20
203.6884
 30
0.0
 10
348.1736
 20
204.548
 30
0.0
 10
343.4501
 20
201.332
 30
0.0
 10
343.4501
 20
201.332
 30
0.0
 10
341.3095
 20
199.8745
 30
0.0
 10
340.396
 20
197.6428
 30
0.0
 10
336.9019
 20
195.0279
 30
0.0
 10
336.9019
 20
195.0279
 30
0.0
 10
331.1345
 20
201.9329
 30
0.0
 10
333.1891
 20
203.504
 30
0.0
 10
329.4924
 20
213.3351
 30
0.0
 10
329.4924
 20
213.3351
 30
0.0
 10
328.4346
 20
216.1479
 30
0.0
 10
327.1664
 20
219.8405
 30
0.0
 10
324.6627
 20
222.572
 30
0.0
 10
324.6627
 20
222.572
 30
0.0
 10
321.2799
 20
226.2639
 30
0.0
 10
320.2838
 20
226.5304
 30
0.0
 10
315.8723
 20
224.7732
 30
0.0
 10
315.8723
 20
224.7732
 30
0.0
 10
314.5934
 20
219.1542
 30
0.0
 10
319.2461
 20
211.1642
 30
0.0
 10
321.25
 20
203.1291
 30
0.0
 10
321.25
 20
203.1291
 30
0.0
 10
324.5469
 20
189.908
 30
0.0
 10
330.7084
 20
132.3402
 30
0.0
 10
322.4322
 20
121.7711
 30
0.0
 10
322.4322
 20
121.7711
 30
0.0
 10
317.3827
 20
129.8021
 30
0.0
 10
322.8819
 20
140.6849
 30
0.0
 10
320.4495
 20
146.5422
 30
0.0
 10
320.4495
 20
146.5422
 30
0.0
 10
308.0114
 20
140.2942
 30
0.0
 10
321.2422
 20
115.8929
 30
0.0
 10
308.238
 20
101.4959
 30
0.0
 10
308.238
 20
101.4959
 30
0.0
 10
302.5858
 20
95.2382
 30
0.0
 10
281.4065
 20
82.6623
 30
0.0
 10
270.8729
 20
81.3824
 30
0.0
 10
270.8729
 20
81.3824
 30
0.0
 10
270.8729
 20
81.3824
 30
0.0
 10
280.0345
 20
129.3957
 30
0.0
 10
280.0345
 20
129.3957
 30
0.0
 10
280.0345
 20
129.3957
 30
0.0
 10
283.0571
 20
144.7271
 30
0.0
 10
308.0981
 20
144.006
 30
0.0
 10
305.6212
 20
161.741
 30
0.0
 10
305.6212
 20
161.741
 30
0.0
 10
295.7183
 20
162.2334
 30
0.0
 10
294.6245
 20
152.1692
 30
0.0
 10
282.9648
 20
150.9826
 30
0.0
 10
282.9648
 20
150.9826
 30
0.0
 10
281.9558
 20
183.5825
 30
0.0
 10
315.355
 20
195.1261
 30
0.0
 10
306.9603
 20
202.7407
 30
0.0
 10
306.9603
 20
202.7407
 30
0.0
 10
300.3542
 20
208.7318
 30
0.0
 10
285.1222
 20
187.0861
 30
0.0
 10
282.9682
 20
182.3794
 30
0.0
 10
282.9682
 20
182.3794
 30
0.0
 10
278.4296
 20
172.4646
 30
0.0
 10
274.3621
 20
155.3822
 30
0.0
 10
265.3625
 20
151.2513
 30
0.0
 10
265.3625
 20
151.2513
 30
0.0
 10
251.4173
 20
173.9728
 30
0.0
 10
272.0524
 20
203.1471
 30
0.0
 10
268.354
 20
217.2565
 30
0.0
 10
268.354
 20
217.2565
 30
0.0
 10
253.7844
 20
213.61
 30
0.0
 10
256.6017
 20
201.394
 30
0.0
 10
254.1071
 20
181.6892
 30
0.0
 10
254.1071
 20
181.6892
 30
0.0
 10
252.0979
 20
165.8181
 30
0.0
 10
250.5437
 20
175.639
 30
0.0
 10
245.8905
 20
165.8901
 30
0.0
 10
245.8905
 20
165.8901
 30
0.0
 10
244.3604
 20
162.6843
 30
0.0
 10
241.3636
 20
150.2872
 30
0.0
 10
240.091
 20
146.8233
 30
0.0
 10
240.091
 20
146.8233
 30
0.0
 10
214.9404
 20
149.919
 30
0.0
 10
228.0598
 20
183.584
 30
0.0
 10
233.1987
 20
196.3746
 30
0.0
 10
233.1987
 20
196.3746
 30
0.0
 10
237.4192
 20
206.8791
 30
0.0
 10
240.6738
 20
203.1398
 30
0.0
 10
243.1101
 20
212.2636
 30
0.0
 10
243.1101
 20
212.2636
 30
0.0
 10
224.107
 20
219.9165
 30
0.0
 10
221.8315
 20
189.4245
 30
0.0
 10
218.6836
 20
181.1265
 30
0.0
 10
218.6836
 20
181.1265
 30
0.0
 10
215.5991
 20
172.9954
 30
0.0
 10
213.9224
 20
177.118
 30
0.0
 10
213.3715
 20
167.0278
 30
0.0
 10
213.3715
 20
167.0278
 30
0.0
 10
213.3715
 20
167.0278
 30
0.0
 10
213.7701
 20
153.7015
 30
0.0
 10
213.7701
 20
153.7015
 30
0.0
 10
213.7701
 20
153.7015
 30
0.0
 10
215.7762
 20
151.891
 30
0.0
 10
216.3974
 20
151.7858
 30
0.0
 10
217.4086
 20
150.9926
 30
0.0
 10
217.4086
 20
150.9926
 30
0.0
 10
219.6707
 20
149.2185
 30
0.0
 10
219.7915
 20
149.0567
 30
0.0
 10
221.2868
 20
147.6474
 30
0.0
 10
221.2868
 20
147.6474
 30
0.0
 10
225.0924
 20
142.0138
 30
0.0
 10
224.5853
 20
145.445
 30
0.0
 10
227.2459
 20
138.1329
 30
0.0
 10
227.2459
 20
138.1329
 30
0.0
 10
222.4396
 20
134.4797
 30
0.0
 10
211.3866
 20
129.099
 30
0.0
 10
210.9274
 20
118.925
 30
0.0
 10
210.9274
 20
118.925
 30
0.0
 10
210.3642
 20
106.4465
 30
0.0
 10
211.3169
 20
113.2494
 30
0.0
 10
213.3647
 20
110.5494
 30
0.0
 10
213.3647
 20
110.5494
 30
0.0
 10
218.9545
 20
115.4979
 30
0.0
 10
219.5767
 20
121.2005
 30
0.0
 10
230.6805
 20
134.605
 30
0.0
 10
230.6805
 20
134.605
 30
0.0
 10
246.0979
 20
127.5116
 30
0.0
 10
257.4787
 20
93.0487
 30
0.0
 10
256.8058
 20
67.0449
 30
0.0
 10
256.8058
 20
67.0449
 30
0.0
 10
249.4752
 20
64.2551
 30
0.0
 10
244.7391
 20
65.7542
 30
0.0
 10
239.3962
 20
57.3983
 30
0.0
 10
239.3962
 20
57.3983
 30
0.0
 10
234.8204
 20
50.2412
 30
0.0
 10
236.5058
 20
44.1871
 30
0.0
 10
227.2459
 20
41.7217
 30
0.0
 10
227.2459
 20
41.7217
 30
0.0
 10
227.2797
 20
73.5694
 30
0.0
 10
236.2606
 20
62.3067
 30
0.0
 10
237.1612
 20
75.4335
 30
0.0
 10
237.1612
 20
75.4335
 30
0.0
 10
219.8354
 20
74.0568
 30
0.0
 10
207.0673
 20
60.3718
 30
0.0
 10
210.1487
 20
40.4889
 30
0.0
 10
210.1487
 20
40.4889
 30
0.0
 10
217.747
 20
42.4316
 30
0.0
 10
212.0505
 20
45.0056
 30
0.0
 10
221.297
 20
50.5898
 30
0.0
 10
221.297
 20
50.5898
 30
0.0
 10
220.7482
 20
21.3519
 30
0.0
 10
209.232
 20
29.7097
 30
0.0
 10
209.1432
 20
3.858
 30
0.0
 10
209.1432
 20
3.858
 30
0.0
 10
226.8737
 20
9.0151
 30
0.0
 10
230.8783
 20
36.1989
 30
0.0
 10
262.2073
 20
48.5335
 30
0.0
 10
262.2073
 20
48.5335
 30
0.0
 10
282.6754
 20
56.5922
 30
0.0
 10
321.4912
 20
64.0241
 30
0.0
 10
329.9029
 20
33.6085
 30
0.0
 10
329.9029
 20
33.6085
 30
0.0
 10
322.0231
 20
28.3695
 30
0.0
 10
318.5851
 20
32.3066
 30
0.0
 10
313.3735
 20
25.0698
 30
0.0
 10
313.3735
 20
25.0698
 30
0.0
 10
305.3525
 20
13.9319
 30
0.0
 10
307.5157
 20
-15.0023
 30
0.0
 10
292.8425
 20
-31.852
 30
0.0
 10
292.8425
 20
-31.852
 30
0.0
 10
280.0001
 20
-46.6
 30
0.0
 10
250.144
 20
-58.9082
 30
0.0
 10
230.3499
 20
-60.9381
 30
0.0
 10
230.3499
 20
-60.9381
 30
0.0
 10
215.1095
 20
-62.5008
 30
0.0
 10
225.3735
 20
-62.5969
 30
0.0
 10
221.297
 20
-58.5552
 30
0.0
 10
221.297
 20
-58.5552
 30
0.0
 10
221.297
 20
-58.5552
 30
0.0
 10
245.2452
 20
-39.7146
 30
0.0
 10
245.2452
 20
-39.7146
 30
0.0
 10
245.2452
 20
-39.7146
 30
0.0
 10
254.0852
 20
-30.2747
 30
0.0
 10
266.3574
 20
-25.4798
 30
0.0
 10
261.5074
 20
-15.021
 30
0.0
 10
261.5074
 20
-15.021
 30
0.0
 10
249.3812
 20
-12.5476
 30
0.0
 10
234.422
 20
-35.547
 30
0.0
 10
229.4612
 20
-39.1169
 30
0.0
 10
229.4612
 20
-39.1169
 30
0.0
 10
230.3814
 20
-32.3838
 30
0.0
 10
234.6924
 20
-12.8697
 30
0.0
 10
233.9611
 20
-9.0719
 30
0.0
 10
233.9611
 20
-9.0719
 30
0.0
 10
222.5038
 20
-6.163
 30
0.0
 10
221.3216
 20
-27.2707
 30
0.0
 10
218.0444
 20
-38.2564
 30
0.0
 10
218.0444
 20
-38.2564
 30
0.0
 10
214.5396
 20
-50.0036
 30
0.0
 10
196.6163
 20
-72.8001
 30
0.0
 10
219.3148
 20
-75.5028
 30
0.0
 10
219.3148
 20
-75.5028
 30
0.0
 10
240.7402
 20
-78.0537
 30
0.0
 10
230.0289
 20
-78.2083
 30
0.0
 10
243.1101
 20
-81.2274
 30
0.0
 10
243.1101
 20
-81.2274
 30
0.0
 10
245.5369
 20
-77.4315
 30
0.0
 10
243.6031
 20
-77.7658
 30
0.0
 10
243.366
 20
-71.5679
 30
0.0
 10
243.366
 20
-71.5679
 30
0.0
 10
260.2382
 20
-70.6904
 30
0.0
 10
275.4515
 20
-66.7084
 30
0.0
 10
291.6862
 20
-64.5823
 30
0.0
 10
291.6862
 20
-64.5823
 30
0.0
 10
330.1299
 20
-59.5486
 30
0.0
 10
319.4395
 20
-60.1691
 30
0.0
 10
334.3307
 20
-68.8432
 30
0.0
 10
334.3307
 20
-68.8432
 30
0.0
 10
347.9426
 20
-64.4834
 30
0.0
 10
333.3745
 20
-60.4704
 30
0.0
 10
358.8843
 20
-63.3423
 30
0.0
 10
358.8843
 20
-63.3423
 30
0.0
 10
358.8843
 20
-63.3423
 30
0.0
 10
360.578
 20
-59.4738
 30
0.0
 10
360.578
 20
-59.4738
 30
0.0
  0
SPLINE
  5
81
330
1F
100
AcDbEntity
  8
layer 1
 62
   250
370
     9
100
AcDbSpline
210
0.0
220
0.0
230
1.0
 70
    11
 71
     3
 72
    12
 73
     8
 74
     0
 42
0.000000001
 43
0.0000000001
 40
0.0
 40
0.0
 40
0.0
 40
0.0
 40
0.3333333333333333
 40
0.3333333333333333
 40
0.3333333333333333
 40
0.3333333333333333
 40
1.0
 40
1.0
 40
1.0
 40
1.0
 10
274.262
 20
-164.1775
 30
0.0
 10
258.3264
 20
-165.0679
 30
0.0
 10
271.353
 20
-146.9527
 30
0.0
 10
283.5501
 20
-160.5495
 30
0.0
 10
283.5501
 20
-160.5495
 30
0.0
 10
283.5501
 20
-160.5495
 30
0.0
 10
274.262
 20
-164.1775
 30
0.0
 10
274.262
 20
-164.1775
 30
0.0
  0
SPLINE
  5
82
330
1F
100
AcDbEntity
  8
layer 1
 62
   250
370
     9
100
AcDbSpline
210
0.0
220
0.0
230
1.0
 70
    11
 71
     3
 72
    16
 73
    12
 74
     0
 42
0.000000001
 43
0.0000000001
 40
0.0
 40
0.0
 40
0.0
 40
0.0
 40
0.25
 40
0.25
 40
0.25
 40
0.25
 40
0.5
 40
0.5
 40
0.5
 40
0.5
 40
1.0
 40
1.0
 40
1.0
 40
1.0
 10
269.4159
 20
-116.0634
 30
0.0
 10
270.353
 20
-123.2086
 30
0.0
 10
268.499
 20
-128.3966
 30
0.0
 10
264.4619
 20
-134.3083
 30
0.0
 10
264.4619
 20
-134.3083
 30
0.0
 10
257.6507
 20
-133.6725
 30
0.0
 10
245.5385
 20
-127.4319
 30
0.0
 10
245.1045
 20
-117.0731
 30
0.0
 10
245.1045
 20
-117.0731
 30
0.0
 10
245.1045
 20
-117.0731
 30
0.0
 10
269.4159
 20
-116.0634
 30
0.0
 10
269.4159
 20
-116.0634
 30
0.0
  0
SPLINE
  5
83
330
1F
100
AcDbEntity
  8
layer 1
 62
   250
370
     9
100
AcDbSpline
210
0.0
220
0.0
230
1.0
 70
    11
 71
     3
 72
    12
 73
     8
 74
     0
 42
0.000000001
 43
0.0000000001
 40
0.0
 40
0.0
 40
0.0
 40
0.0
 40
0.3333333333333333
 40
0.3333333333333333
 40
0.3333333333333333
 40
0.3333333333333333
 40
1.0
 40
1.0
 40
1.0
 40
1.0
 10
276.822
 20
-121.6392
 30
0.0
 10
276.977
 20
-113.8093
 30
0.0
 10
281.1942
 20
-114.9993
 30
0.0
 10
288.7204
 20
-114.9393
 30
0.0
 10
288.7204
 20
-114.9393
 30
0.0
 10
286.3122
 20
-121.5094
 30
0.0
 10
284.1976
 20
-123.9766
 30
0.0
 10
276.822
 20
-121.6392
 30
0.0
  0
SPLINE
  5
84
330
1F
100
AcDbEntity
  8
layer 1
 62
   250
370
     9
100
AcDbSpline
210
0.0
220
0.0
230
1.0
 70
    11
 71
     3
 72
    16
 73
    12
 74
     0
 42
0.000000001
 43
0.0000000001
 40
0.0
 40
0.0
 40
0.0
 40
0.0
 40
0.25
 40
0.25
 40
0.25
 40
0.25
 40
0.5
 40
0.5
 40
0.5
 40
0.5
 40
1.0
 40
1.0
 40
1.0
 40
1.0
 10
340.3999
 20
41.7217
 30
0.0
 10
340.0998
 20
41.5553
 30
0.0
 10
340.0925
 20
37.4416
 30
0.0
 10
333.9877
 20
41.0669
 30
0.0
 10
333.9877
 20
41.0669
 30
0.0
 10
330.5623
 20
43.1006
 30
0.0
 10
331.3964
 20
43.7313
 30
0.0
 10
330.4436
 20
47.5914
 30
0.0
 10
330.4436
 20
47.5914
 30
0.0
 10
336.9524
 20
46.8353
 30
0.0
 10
337.5134
 20
47.1569
 30
0.0
 10
340.3999
 20
41.7217
 30
0.0
  0
SPLINE
  5
85
330
1F
100
AcDbEntity
  8
layer 1
 62
   250
370
     9
100
AcDbSpline
210
0.0
220
0.0
230
1.0
 70
    11
 71
     3
 72
    20
 73
    16
 74
     0
 42
0.000000001
 43
0.0000000001
 40
0.0
 40
0.0
 40
0.0
 40
0.0
 40
0.2
 40
0.2
 40
0.2
 40
0.2
 40
0.4
 40
0.4
 40
0.4
 40
0.4
 40
0.6
 40
0.6
 40
0.6
 40
0.6
 40
1.0
 40
1.0
 40
1.0
 40
1.0
 10
271.4846
 20
60.1801
 30
0.0
 10
268.5109
 20
73.0259
 30
0.0
 10
277.9294
 20
74.2647
 30
0.0
 10
288.0818
 20
78.0372
 30
0.0
 10
288.0818
 20
78.0372
 30
0.0
 10
297.5071
 20
81.5399
 30
0.0
 10
306.8231
 20
85.1526
 30
0.0
 10
317.1257
 20
86.1999
 30
0.0
 10
317.1257
 20
86.1999
 30
0.0
 10
314.9542
 20
71.678
 30
0.0
 10
310.0947
 20
72.1882
 30
0.0
 10
298.1984
 20
67.9004
 30
0.0
 10
298.1984
 20
67.9004
 30
0.0
 10
291.2489
 20
65.395
 30
0.0
 10
279.7826
 20
59.7328
 30
0.0
 10
271.4846
 20
60.1801
 30
0.0
  0
SPLINE
  5
86
330
1F
100
AcDbEntity
  8
layer 1
 62
   250
370
     9
100
AcDbSpline
210
0.0
220
0.0
230
1.0
 70
    11
 71
     3
 72
    16
 73
    12
 74
     0
 42
0.000000001
 43
0.0000000001
 40
0.0
 40
0.0
 40
0.0
 40
0.0
 40
0.25
 40
0.25
 40
0.25
 40
0.25
 40
0.5
 40
0.5
 40
0.5
 40
0.5
 40
1.0
 40
1.0
 40
1.0
 40
1.0
 10
255.0087
 20
123.4249
 30
0.0
 10
248.7595
 20
126.1996
 30
0.0
 10
248.9062
 20
132.9153
 30
0.0
 10
248.9434
 20
140.8783
 30
0.0
 10
248.9434
 20
140.8783
 30
0.0
 10
248.9798
 20
148.5463
 30
0.0
 10
249.0418
 20
152.4289
 30
0.0
 10
253.0255
 20
158.0692
 30
0.0
 10
253.0255
 20
158.0692
 30
0.0
 10
258.7681
 20
152.7279
 30
0.0
 10
259.3466
 20
130.3323
 30
0.0
 10
255.0087
 20
123.4249
 30
0.0
  0
ENDSEC
  0
SECTION
  2
OBJECTS
  0
DICTIONARY
  5
C
330
0
100
AcDbDictionary
281
     1
  3
ACAD_DETAILVIEWSTYLE
350
C2
  3
ACAD_GROUP
350
D
  3
ACAD_LAYOUT
350
1A
  3
ACAD_MATERIAL
350
43
  3
ACAD_MLEADERSTYLE
350
6B
  3
ACAD_MLINESTYLE
350
17
  3
ACAD_PLOTSETTINGS
350
19
  3
ACAD_PLOTSTYLENAME
350
E
  3
ACAD_SCALELIST
350
47
  3
ACAD_SECTIONVIEWSTYLE
350
C3
  3
ACAD_TABLESTYLE
350
69
  3
ACAD_VISUALSTYLE
350
2A
  3
ACDB_RECOMPOSE_DATA
350
BF
  3
AcDbVariableDictionary
350
87
  0
SUN
  5
6D
330
29
100
AcDbSun
 90
        1
290
     0
 63
     7
421
 16777215
 40
1.0
291
     1
 91
  2455826
 92
 54000000
292
     0
 70
     2
 71
   256
280
     1
  0
DICTIONARY
  5
C2
102
{ACAD_REACTORS
330
C
102
}
330
C
100
AcDbDictionary
281
     1
  0
DICTIONARY
  5
D
102
{ACAD_REACTORS
330
C
102
}
330
C
100
AcDbDictionary
281
     1
  0
DICTIONARY
  5
1A
102
{ACAD_REACTORS
330
C
102
}
330
C
100
AcDbDictionary
281
     1
  3
Layout1
350
1E
  3
Layout2
350
26
  3
Model
350
22
  0
DICTIONARY
  5
43
102
{ACAD_REACTORS
330
C
102
}
330
C
100
AcDbDictionary
281
     1
  3
ByBlock
350
45
  3
ByLayer
350
44
  3
Global
350
46
  0
DICTIONARY
  5
6B
102
{ACAD_REACTORS
330
C
102
}
330
C
100
AcDbDictionary
281
     1
  3
Standard
350
6C
  0
DICTIONARY
  5
17
102
{ACAD_REACTORS
330
C
102
}
330
C
100
AcDbDictionary
281
     1
  3
Standard
350
18
  0
DICTIONARY
  5
19
102
{ACAD_REACTORS
330
C
102
}
330
C
100
AcDbDictionary
281
     1
  0
ACDBDICTIONARYWDFLT
  5
E
102
{ACAD_REACTORS
330
C
102
}
330
C
100
AcDbDictionary
281
     1
  3
Normal
350
F
100
AcDbDictionaryWithDefault
340
F
  0
DICTIONARY
  5
47
102
{ACAD_REACTORS
330
C
102
}
330
C
100
AcDbDictionary
281
     1
  3
A0
350
48
  3
A1
350
49
  3
A2
350
4A
  3
A3
350
4B
  3
A4
350
4C
  3
A5
350
4D
  3
A6
350
4E
  3
A7
350
4F
  3
A8
350
50
  3
A9
350
51
  3
B0
350
52
  3
B1
350
53
  3
B2
350
54
  3
B3
350
55
  3
B4
350
56
  3
B5
350
57
  3
B6
350
58
  3
B7
350
59
  3
B8
350
5A
  3
B9
350
5B
  3
C0
350
5C
  3
C1
350
5D
  3
C2
350
5E
  3
C3
350
5F
  3
C4
350
60
  3
C5
350
61
  3
C6
350
62
  3
C7
350
63
  3
C8
350
64
  3
C9
350
65
  3
D0
350
66
  3
D1
350
67
  3
D2
350
68
  0
DICTIONARY
  5
C3
102
{ACAD_REACTORS
330
C
102
}
330
C
100
AcDbDictionary
281
     1
  0
DICTIONARY
  5
69
102
{ACAD_REACTORS
330
C
102
}
330
C
100
AcDbDictionary
281
     1
  3
Standard
350
6A
  0
DICTIONARY
  5
2A
102
{ACAD_REACTORS
330
C
102
}
330
C
100
AcDbDictionary
281
     1
  3
2dWireframe
350
2F
  3
Basic
350
32
  3
Brighten
350
36
  3
ColorChange
350
3A
  3
Conceptual
350
34
  3
Dim
350
35
  3
EdgeColorOff
350
3D
  3
Facepattern
350
39
  3
Flat
350
2B
  3
FlatWithEdges
350
2C
  3
Gouraud
350
2D
  3
GouraudWithEdges
350
2E
  3
Hidden
350
31
  3
JitterOff
350
3B
  3
Linepattern
350
38
  3
OverhangOff
350
3C
  3
Realistic
350
33
  3
Shaded
350
42
  3
Shaded with edges
350
41
  3
Shades of Gray
350
3E
  3
Sketchy
350
3F
  3
Thicken
350
37
  3
Wireframe
350
30
  3
X-Ray
350
40
  0
XRECORD
  5
BF
102
{ACAD_REACTORS
330
C
102
}
330
C
100
AcDbXrecord
280
     1
 90
        1
330
6A
  0
DICTIONARY
  5
87
102
{ACAD_REACTORS
330
C
102
}
330
C
100
AcDbDictionary
281
     1
  3
CANNOSCALE
350
88
  3
CMLEADERSTYLE
350
C1
  3
CTABLESTYLE
350
C0
  3
XCLIPFRAME
350
89
  0
LAYOUT
  5
1E
102
{ACAD_REACTORS
330
1A
102
}
330
1A
100
AcDbPlotSettings
  1

  2
none_device
  4

  6

 40
0.0
 41
0.0
 42
0.0
 43
0.0
 44
0.0
 45
0.0
 46
0.0
 47
0.0
 48
0.0
 49
0.0
140
0.0
141
0.0
142
1.0
143
1.0
 70
   688
 72
     0
 73
     0
 74
     5
  7

 75
    16
 76
     0
 77
     2
 78
   300
147
1.0
148
0.0
149
0.0
100
AcDbLayout
  1
Layout1
 70
     1
 71
     1
 10
0.0
 20
0.0
 11
12.0
 21
9.0
 12
0.0
 22
0.0
 32
0.0
 14
1.000000000000000E+20
 24
1.000000000000000E+20
 34
1.000000000000000E+20
 15
-1.000000000000000E+20
 25
-1.000000000000000E+20
 35
-1.000000000000000E+20
146
0.0
 13
0.0
 23
0.0
 33
0.0
 16
1.0
 26
0.0
 36
0.0
 17
0.0
 27
1.0
 37
0.0
 76
     0
330
1B
  0
LAYOUT
  5
26
102
{ACAD_REACTORS
330
1A
102
}
330
1A
100
AcDbPlotSettings
  1

  2
none_device
  4

  6

 40
0.0
 41
0.0
 42
0.0
 43
0.0
 44
0.0
 45
0.0
 46
0.0
 47
0.0
 48
0.0
 49
0.0
140
0.0
141
0.0
142
1.0
143
1.0
 70
   688
 72
     0
 73
     0
 74
     5
  7

 75
    16
 76
     0
 77
     2
 78
   300
147
1.0
148
0.0
149
0.0
100
AcDbLayout
  1
Layout2
 70
     1
 71
     2
 10
0.0
 20
0.0
 11
0.0
 21
0.0
 12
0.0
 22
0.0
 32
0.0
 14
0.0
 24
0.0
 34
0.0
 15
0.0
 25
0.0
 35
0.0
146
0.0
 13
0.0
 23
0.0
 33
0.0
 16
1.0
 26
0.0
 36
0.0
 17
0.0
 27
1.0
 37
0.0
 76
     0
330
23
  0
LAYOUT
  5
22
102
{ACAD_REACTORS
330
1A
102
}
330
1A
100
AcDbPlotSettings
  1

  2
none_device
  4
Letter_(8.50_x_11.00_Inches)
  6

 40
6.35
 41
6.35
 42
6.35000508
 43
6.35000508
 44
215.9
 45
279.4
 46
0.0
 47
0.0
 48
0.0
 49
0.0
140
0.0
141
0.0
142
1.0
143
1.0
 70
  1712
 72
     0
 73
     0
 74
     0
  7

 75
     0
 76
     0
 77
     2
 78
   300
147
1.0
148
0.0
149
0.0
100
AcDbLayout
  1
Model
 70
     1
 71
     0
 10
0.0
 20
0.0
 11
12.0
 21
9.0
 12
0.0
 22
0.0
 32
0.0
 14
-560.6362
 24
-230.0549
 34
0.0
 15
560.6465
 25
230.057
 35
0.0
146
0.0
 13
0.0
 23
0.0
 33
0.0
 16
1.0
 26
0.0
 36
0.0
 17
0.0
 27
1.0
 37
0.0
 76
     0
330
1F
331
29
  0
MATERIAL
  5
45
102
{ACAD_REACTORS
330
43
102
}
330
43
100
AcDbMaterial
  1
ByBlock
 72
     1
 94
      127
  0
MATERIAL
  5
44
102
{ACAD_REACTORS
330
43
102
}
330
43
100
AcDbMaterial
  1
ByLayer
 72
     1
 94
      127
  0
MATERIAL
  5
46
102
{ACAD_REACTORS
330
43
102
}
330
43
100
AcDbMaterial
  1
Global
 72
     1
 94
      127
  0
MLEADERSTYLE
  5
6C
102
{ACAD_REACTORS
330
6B
102
}
102
{ACAD_XDICTIONARY
360
BD
102
}
330
6B
100
AcDbMLeaderStyle
170
     2
171
     1
172
     0
 90
        2
 40
0.0
 41
0.0
173
     1
 91
-1056964608
340
14
 92
       -2
290
     1
 42
0.09
291
     1
 43
0.36
  3
Standard
341
0
 44
0.18
300

342
11
174
     1
178
     6
175
     1
176
     0
 93
-1056964608
 45
0.18
292
     0
297
     0
 46
0.18
343
0
 94
-1056964608
 47
1.0
 49
1.0
140
1.0
293
     1
141
0.0
294
     1
177
     0
142
1.0
295
     0
296
     0
143
0.125
1001
ACAD_MLEADERVER
1070
     2
  0
MLINESTYLE
  5
18
102
{ACAD_REACTORS
330
17
102
}
330
17
100
AcDbMlineStyle
  2
Standard
 70
     0
  3

 62
   256
 51
90.0
 52
90.0
 71
     2
 49
0.5
 62
   256
  6
BYLAYER
 49
-0.5
 62
   256
  6
BYLAYER
  0
ACDBPLACEHOLDER
  5
F
102
{ACAD_REACTORS
330
E
102
}
330
E
  0
SCALE
  5
48
102
{ACAD_REACTORS
330
47
102
}
330
47
100
AcDbScale
 70
     0
300
1:1
140
1.0
141
1.0
290
     1
  0
SCALE
  5
49
102
{ACAD_REACTORS
330
47
102
}
330
47
100
AcDbScale
 70
     0
300
1:2
140
1.0
141
2.0
290
     0
  0
SCALE
  5
4A
102
{ACAD_REACTORS
330
47
102
}
330
47
100
AcDbScale
 70
     0
300
1:4
140
1.0
141
4.0
290
     0
  0
SCALE
  5
4B
102
{ACAD_REACTORS
330
47
102
}
330
47
100
AcDbScale
 70
     0
300
1:5
140
1.0
141
5.0
290
     0
  0
SCALE
  5
4C
102
{ACAD_REACTORS
330
47
102
}
330
47
100
AcDbScale
 70
     0
300
1:8
140
1.0
141
8.0
290
     0
  0
SCALE
  5
4D
102
{ACAD_REACTORS
330
47
102
}
330
47
100
AcDbScale
 70
     0
300
1:10
140
1.0
141
10.0
290
     0
  0
SCALE
  5
4E
102
{ACAD_REACTORS
330
47
102
}
330
47
100
AcDbScale
 70
     0
300
1:16
140
1.0
141
16.0
290
     0
  0
SCALE
  5
4F
102
{ACAD_REACTORS
330
47
102
}
330
47
100
AcDbScale
 70
     0
300
1:20
140
1.0
141
20.0
290
     0
  0
SCALE
  5
50
102
{ACAD_REACTORS
330
47
102
}
330
47
100
AcDbScale
 70
     0
300
1:30
140
1.0
141
30.0
290
     0
  0
SCALE
  5
51
102
{ACAD_REACTORS
330
47
102
}
330
47
100
AcDbScale
 70
     0
300
1:40
140
1.0
141
40.0
290
     0
  0
SCALE
  5
52
102
{ACAD_REACTORS
330
47
102
}
330
47
100
AcDbScale
 70
     0
300
1:50
140
1.0
141
50.0
290
     0
  0
SCALE
  5
53
102
{ACAD_REACTORS
330
47
102
}
330
47
100
AcDbScale
 70
     0
300
1:100
140
1.0
141
100.0
290
     0
  0
SCALE
  5
54
102
{ACAD_REACTORS
330
47
102
}
330
47
100
AcDbScale
 70
     0
300
2:1
140
2.0
141
1.0
290
     0
  0
SCALE
  5
55
102
{ACAD_REACTORS
330
47
102
}
330
47
100
AcDbScale
 70
     0
300
4:1
140
4.0
141
1.0
290
     0
  0
SCALE
  5
56
102
{ACAD_REACTORS
330
47
102
}
330
47
100
AcDbScale
 70
     0
300
8:1
140
8.0
141
1.0
290
     0
  0
SCALE
  5
57
102
{ACAD_REACTORS
330
47
102
}
330
47
100
AcDbScale
 70
     0
300
10:1
140
10.0
141
1.0
290
     0
  0
SCALE
  5
58
102
{ACAD_REACTORS
330
47
102
}
330
47
100
AcDbScale
 70
     0
300
100:1
140
100.0
141
1.0
290
     0
  0
SCALE
  5
59
102
{ACAD_REACTORS
330
47
102
}
330
47
100
AcDbScale
 70
     0
300
1/128" = 1'-0"
140
0.0078125
141
12.0
290
     0
  0
SCALE
  5
5A
102
{ACAD_REACTORS
330
47
102
}
330
47
100
AcDbScale
 70
     0
300
1/64" = 1'-0"
140
0.015625
141
12.0
290
     0
  0
SCALE
  5
5B
102
{ACAD_REACTORS
330
47
102
}
330
47
100
AcDbScale
 70
     0
300
1/32" = 1'-0"
140
0.03125
141
12.0
290
     0
  0
SCALE
  5
5C
102
{ACAD_REACTORS
330
47
102
}
330
47
100
AcDbScale
 70
     0
300
1/16" = 1'-0"
140
0.0625
141
12.0
290
     0
  0
SCALE
  5
5D
102
{ACAD_REACTORS
330
47
102
}
330
47
100
AcDbScale
 70
     0
300
3/32" = 1'-0"
140
0.09375
141
12.0
290
     0
  0
SCALE
  5
5E
102
{ACAD_REACTORS
330
47
102
}
330
47
100
AcDbScale
 70
     0
300
1/8" = 1'-0"
140
0.125
141
12.0
290
     0
  0
SCALE
  5
5F
102
{ACAD_REACTORS
330
47
102
}
330
47
100
AcDbScale
 70
     0
300
3/16" = 1'-0"
140
0.1875
141
12.0
290
     0
  0
SCALE
  5
60
102
{ACAD_REACTORS
330
47
102
}
330
47
100
AcDbScale
 70
     0
300
1/4" = 1'-0"
140
0.25
141
12.0
290
     0
  0
SCALE
  5
61
102
{ACAD_REACTORS
330
47
102
}
330
47
100
AcDbScale
 70
     0
300
3/8" = 1'-0"
140
0.375
141
12.0
290
     0
  0
SCALE
  5
62
102
{ACAD_REACTORS
330
47
102
}
330
47
100
AcDbScale
 70
     0
300
1/2" = 1'-0"
140
0.5
141
12.0
290
     0
  0
SCALE
  5
63
102
{ACAD_REACTORS
330
47
102
}
330
47
100
AcDbScale
 70
     0
300
3/4" = 1'-0"
140
0.75
141
12.0
290
     0
  0
SCALE
  5
64
102
{ACAD_REACTORS
330
47
102
}
330
47
100
AcDbScale
 70
     0
300
1" = 1'-0"
140
1.0
141
12.0
290
     0
  0
SCALE
  5
65
102
{ACAD_REACTORS
330
47
102
}
330
47
100
AcDbScale
 70
     0
300
1-1/2" = 1'-0"
140
1.5
141
12.0
290
     0
  0
SCALE
  5
66
102
{ACAD_REACTORS
330
47
102
}
330
47
100
AcDbScale
 70
     0
300
3" = 1'-0"
140
3.0
141
12.0
290
     0
  0
SCALE
  5
67
102
{ACAD_REACTORS
330
47
102
}
330
47
100
AcDbScale
 70
     0
300
6" = 1'-0"
140
6.0
141
12.0
290
     0
  0
SCALE
  5
68
102
{ACAD_REACTORS
330
47
102
}
330
47
100
AcDbScale
 70
     0
300
1'-0" = 1'-0"
140
12.0
141
12.0
290
     0
  0
TABLESTYLE
  5
6A
102
{ACAD_REACTORS
330
69
102
}
102
{ACAD_XDICTIONARY
360
BA
102
}
330
69
100
AcDbTableStyle
  3
Standard
 70
     0
 71
     0
 40
0.06
 41
0.06
280
     0
281
     0
  7
Standard
140
0.18
170
     2
 62
     0
 63
   257
283
     0
 90
        4
 91
        0
  1

274
    -2
284
     1
 64
     0
275
    -2
285
     1
 65
     0
276
    -2
286
     1
 66
     0
277
    -2
287
     1
 67
     0
278
    -2
288
     1
 68
     0
279
    -2
289
     1
 69
     0
  7
Standard
140
0.25
170
     5
 62
     0
 63
   257
283
     0
 90
        4
 91
        0
  1

274
    -2
284
     1
 64
     0
275
    -2
285
     1
 65
     0
276
    -2
286
     1
 66
     0
277
    -2
287
     1
 67
     0
278
    -2
288
     1
 68
     0
279
    -2
289
     1
 69
     0
  7
Standard
140
0.18
170
     5
 62
     0
 63
   257
283
     0
 90
        4
 91
        0
  1

274
    -2
284
     1
 64
     0
275
    -2
285
     1
 65
     0
276
    -2
286
     1
 66
     0
277
    -2
287
     1
 67
     0
278
    -2
288
     1
 68
     0
279
    -2
289
     1
 69
     0
  0
VISUALSTYLE
  5
2F
102
{ACAD_REACTORS
330
2A
102
}
102
{ACAD_XDICTIONARY
360
92
102
}
330
2A
100
AcDbVisualStyle
  2
2dWireframe
 70
     4
 71
     0
 72
     2
 73
     0
 90
        0
 40
0.6
 41
30.0
 62
     5
 63
     7
421
 16777215
 74
     1
 91
        4
 64
     7
 65
   257
 75
     1
175
     1
 42
1.0
 92
        0
 66
   257
 43
1.0
 76
     1
 77
     6
 78
     2
 67
     7
 79
     5
170
     0
171
     0
290
     0
174
     0
 93
        1
 44
0.0
173
     0
291
     0
 45
0.0
  0
VISUALSTYLE
  5
32
102
{ACAD_REACTORS
330
2A
102
}
102
{ACAD_XDICTIONARY
360
98
102
}
330
2A
100
AcDbVisualStyle
  2
Basic
 70
     7
 71
     1
 72
     0
 73
     1
 90
        0
 40
0.6
 41
30.0
 62
     5
 63
     7
421
 16777215
 74
     0
 91
        4
 64
     7
 65
   257
 75
     1
175
     1
 42
1.0
 92
        8
 66
     7
 43
1.0
 76
     1
 77
     6
 78
     2
 67
     7
 79
     5
170
     0
171
     0
290
     0
174
     0
 93
        1
 44
0.0
173
     0
291
     1
 45
0.0
  0
VISUALSTYLE
  5
36
102
{ACAD_REACTORS
330
2A
102
}
102
{ACAD_XDICTIONARY
360
A0
102
}
330
2A
100
AcDbVisualStyle
  2
Brighten
 70
    12
 71
     2
 72
     2
 73
     0
 90
        0
 40
0.6
 41
30.0
 62
     5
 63
     7
421
 16777215
 74
     1
 91
        4
 64
     7
 65
   257
 75
     1
175
     1
 42
1.0
 92
        8
 66
     7
 43
1.0
 76
     1
 77
     6
 78
     2
 67
     7
 79
     5
170
     0
171
     0
290
     0
174
     0
 93
        1
 44
50.0
173
     0
291
     1
 45
0.0
  0
VISUALSTYLE
  5
3A
102
{ACAD_REACTORS
330
2A
102
}
102
{ACAD_XDICTIONARY
360
A8
102
}
330
2A
100
AcDbVisualStyle
  2
ColorChange
 70
    16
 71
     2
 72
     2
 73
     3
 90
        0
 40
0.6
 41
30.0
 62
     5
 63
     8
421
  8421504
 74
     1
 91
        4
 64
     7
 65
   257
 75
     1
175
     1
 42
1.0
 92
        8
 66
     8
424
  8421504
 43
1.0
 76
     1
 77
     6
 78
     2
 67
     7
 79
     5
170
     0
171
     0
290
     0
174
     0
 93
        1
 44
0.0
173
     0
291
     1
 45
0.0
  0
VISUALSTYLE
  5
34
102
{ACAD_REACTORS
330
2A
102
}
102
{ACAD_XDICTIONARY
360
9C
102
}
330
2A
100
AcDbVisualStyle
  2
Conceptual
 70
     9
 71
     3
 72
     2
 73
     0
 90
        0
 40
0.6
 41
30.0
 62
     5
 63
     7
421
 16777215
 74
     2
 91
        2
 64
     7
 65
   257
 75
     1
175
     1
 42
179.0
 92
        8
 66
     7
 43
1.0
 76
     1
 77
     6
 78
     2
 67
     7
 79
     3
170
     0
171
     0
290
     0
174
     0
 93
        1
 44
0.0
173
     0
291
     0
 45
0.0
  0
VISUALSTYLE
  5
35
102
{ACAD_REACTORS
330
2A
102
}
102
{ACAD_XDICTIONARY
360
9E
102
}
330
2A
100
AcDbVisualStyle
  2
Dim
 70
    11
 71
     2
 72
     2
 73
     0
 90
        0
 40
0.6
 41
30.0
 62
     5
 63
     7
421
 16777215
 74
     1
 91
        4
 64
     7
 65
   257
 75
     1
175
     1
 42
1.0
 92
        8
 66
     7
 43
1.0
 76
     1
 77
     6
 78
     2
 67
     7
 79
     5
170
     0
171
     0
290
     0
174
     0
 93
        1
 44
-50.0
173
     0
291
     1
 45
0.0
  0
VISUALSTYLE
  5
3D
102
{ACAD_REACTORS
330
2A
102
}
102
{ACAD_XDICTIONARY
360
AE
102
}
330
2A
100
AcDbVisualStyle
  2
EdgeColorOff
 70
    22
 71
     2
 72
     2
 73
     0
 90
        0
 40
0.6
 41
30.0
 62
     5
 63
     7
421
 16777215
 74
     1
 91
        4
 64
     7
 65
   257
 75
     1
175
     1
 42
1.0
 92
        8
 66
     7
 43
1.0
 76
     1
 77
     6
 78
     2
 67
     7
 79
     5
170
     0
171
     0
290
     0
174
     0
 93
        1
 44
0.0
173
     0
291
     1
 45
0.0
  0
VISUALSTYLE
  5
39
102
{ACAD_REACTORS
330
2A
102
}
102
{ACAD_XDICTIONARY
360
A6
102
}
330
2A
100
AcDbVisualStyle
  2
Facepattern
 70
    15
 71
     2
 72
     2
 73
     0
 90
        0
 40
0.6
 41
30.0
 62
     5
 63
     7
421
 16777215
 74
     1
 91
        4
 64
     7
 65
   257
 75
     1
175
     1
 42
1.0
 92
        8
 66
     7
 43
1.0
 76
     1
 77
     6
 78
     2
 67
     7
 79
     5
170
     0
171
     0
290
     0
174
     0
 93
        1
 44
0.0
173
     0
291
     1
 45
0.0
  0
VISUALSTYLE
  5
2B
102
{ACAD_REACTORS
330
2A
102
}
102
{ACAD_XDICTIONARY
360
8A
102
}
330
2A
100
AcDbVisualStyle
  2
Flat
 70
     0
 71
     2
 72
     1
 73
     1
 90
        2
 40
0.6
 41
30.0
 62
     5
 63
     7
421
 16777215
 74
     0
 91
        0
 64
     7
 65
   257
 75
     1
175
     1
 42
1.0
 92
        8
 66
     7
 43
1.0
 76
     1
 77
     6
 78
     2
 67
     7
 79
     5
170
     0
171
     0
290
     0
174
     0
 93
       13
 44
0.0
173
     0
291
     1
 45
0.0
  0
VISUALSTYLE
  5
2C
102
{ACAD_REACTORS
330
2A
102
}
102
{ACAD_XDICTIONARY
360
8C
102
}
330
2A
100
AcDbVisualStyle
  2
FlatWithEdges
 70
     1
 71
     2
 72
     1
 73
     1
 90
        2
 40
0.6
 41
30.0
 62
     5
 63
     7
421
 16777215
 74
     1
 91
        0
 64
     7
 65
   257
 75
     1
175
     1
 42
1.0
 92
        0
 66
   257
 43
1.0
 76
     1
 77
     6
 78
     2
 67
     7
 79
     5
170
     0
171
     0
290
     0
174
     0
 93
       13
 44
0.0
173
     0
291
     1
 45
0.0
  0
VISUALSTYLE
  5
2D
102
{ACAD_REACTORS
330
2A
102
}
102
{ACAD_XDICTIONARY
360
8E
102
}
330
2A
100
AcDbVisualStyle
  2
Gouraud
 70
     2
 71
     2
 72
     2
 73
     1
 90
        2
 40
0.6
 41
30.0
 62
     5
 63
     7
421
 16777215
 74
     0
 91
        0
 64
     7
 65
   257
 75
     1
175
     1
 42
1.0
 92
        0
 66
     7
 43
1.0
 76
     1
 77
     6
 78
     2
 67
     7
 79
     5
170
     0
171
     0
290
     0
174
     0
 93
       13
 44
0.0
173
     0
291
     1
 45
0.0
  0
VISUALSTYLE
  5
2E
102
{ACAD_REACTORS
330
2A
102
}
102
{ACAD_XDICTIONARY
360
90
102
}
330
2A
100
AcDbVisualStyle
  2
GouraudWithEdges
 70
     3
 71
     2
 72
     2
 73
     1
 90
        2
 40
0.6
 41
30.0
 62
     5
 63
     7
421
 16777215
 74
     1
 91
        0
 64
     7
 65
   257
 75
     1
175
     1
 42
1.0
 92
        0
 66
   257
 43
1.0
 76
     1
 77
     6
 78
     2
 67
     7
 79
     5
170
     0
171
     0
290
     0
174
     0
 93
       13
 44
0.0
173
     0
291
     1
 45
0.0
  0
VISUALSTYLE
  5
31
102
{ACAD_REACTORS
330
2A
102
}
102
{ACAD_XDICTIONARY
360
96
102
}
330
2A
100
AcDbVisualStyle
  2
Hidden
 70
     6
 71
     1
 72
     2
 73
     2
 90
        0
 40
0.6
 41
30.0
 62
     5
 63
     7
421
 16777215
 74
     2
 91
        2
 64
     7
 65
   257
 75
     2
175
     1
 42
40.0
 92
        0
 66
   257
 43
1.0
 76
     1
 77
     6
 78
     2
 67
     7
 79
     3
170
     0
171
     0
290
     0
174
     0
 93
        1
 44
0.0
173
     0
291
     0
 45
0.0
  0
VISUALSTYLE
  5
3B
102
{ACAD_REACTORS
330
2A
102
}
102
{ACAD_XDICTIONARY
360
AA
102
}
330
2A
100
AcDbVisualStyle
  2
JitterOff
 70
    20
 71
     2
 72
     2
 73
     0
 90
        0
 40
0.6
 41
30.0
 62
     5
 63
     7
421
 16777215
 74
     1
 91
        4
 64
     7
 65
   257
 75
     1
175
     1
 42
1.0
 92
       10
 66
     7
 43
1.0
 76
     1
 77
     6
 78
     2
 67
     7
 79
     5
170
     0
171
     0
290
     0
174
     0
 93
        1
 44
0.0
173
     0
291
     1
 45
0.0
  0
VISUALSTYLE
  5
38
102
{ACAD_REACTORS
330
2A
102
}
102
{ACAD_XDICTIONARY
360
A4
102
}
330
2A
100
AcDbVisualStyle
  2
Linepattern
 70
    14
 71
     2
 72
     2
 73
     0
 90
        0
 40
0.6
 41
30.0
 62
     5
 63
     7
421
 16777215
 74
     1
 91
        4
 64
     7
 65
   257
 75
     7
175
     7
 42
1.0
 92
        8
 66
     7
 43
1.0
 76
     1
 77
     6
 78
     2
 67
     7
 79
     5
170
     0
171
     0
290
     0
174
     0
 93
        1
 44
0.0
173
     0
291
     1
 45
0.0
  0
VISUALSTYLE
  5
3C
102
{ACAD_REACTORS
330
2A
102
}
102
{ACAD_XDICTIONARY
360
AC
102
}
330
2A
100
AcDbVisualStyle
  2
OverhangOff
 70
    21
 71
     2
 72
     2
 73
     0
 90
        0
 40
0.6
 41
30.0
 62
     5
 63
     7
421
 16777215
 74
     1
 91
        4
 64
     7
 65
   257
 75
     1
175
     1
 42
1.0
 92
        9
 66
     7
 43
1.0
 76
     1
 77
     6
 78
     2
 67
     7
 79
     5
170
     0
171
     0
290
     0
174
     0
 93
        1
 44
0.0
173
     0
291
     1
 45
0.0
  0
VISUALSTYLE
  5
33
102
{ACAD_REACTORS
330
2A
102
}
102
{ACAD_XDICTIONARY
360
9A
102
}
330
2A
100
AcDbVisualStyle
  2
Realistic
 70
     8
 71
     2
 72
     3
 73
     0
 90
        2
 40
0.6
 41
30.0
 62
     5
 63
     7
421
 16777215
 74
     0
 91
        0
 64
     7
 65
   257
 75
     1
175
     1
 42
1.0
 92
        8
 66
   257
 43
1.0
 76
     1
 77
     6
 78
     2
 67
     7
 79
     3
170
     0
171
     0
290
     0
174
     0
 93
       13
 44
0.0
173
     0
291
     0
 45
0.0
  0
VISUALSTYLE
  5
42
102
{ACAD_REACTORS
330
2A
102
}
102
{ACAD_XDICTIONARY
360
B8
102
}
330
2A
100
AcDbVisualStyle
  2
Shaded
 70
    27
 71
     2
 72
     2
 73
     1
 90
        2
 40
0.6
 41
30.0
 62
     5
 63
     7
421
 16777215
 74
     0
 91
        4
 64
     7
 65
   257
 75
     1
175
     1
 42
1.0
 92
        8
 66
   257
 43
1.0
 76
     1
 77
     6
 78
     2
 67
     8
425
  7895160
 79
     3
170
     0
171
     0
290
     0
174
     0
 93
        5
 44
0.0
173
     0
291
     0
 45
0.0
  0
VISUALSTYLE
  5
41
102
{ACAD_REACTORS
330
2A
102
}
102
{ACAD_XDICTIONARY
360
B6
102
}
330
2A
100
AcDbVisualStyle
  2
Shaded with edges
 70
    26
 71
     2
 72
     2
 73
     1
 90
        2
 40
0.6
 41
30.0
 62
     5
 63
     7
421
 16777215
 74
     1
 91
       10
 64
     7
 65
   257
 75
     2
175
     1
 42
1.0
 92
        8
 66
   257
 43
1.0
 76
     1
 77
     6
 78
     2
 67
     7
 79
     3
170
     0
171
     0
290
     0
174
     0
 93
        5
 44
0.0
173
     0
291
     0
 45
0.0
  0
VISUALSTYLE
  5
3E
102
{ACAD_REACTORS
330
2A
102
}
102
{ACAD_XDICTIONARY
360
B0
102
}
330
2A
100
AcDbVisualStyle
  2
Shades of Gray
 70
    23
 71
     2
 72
     2
 73
     3
 90
        0
 40
0.6
 41
30.0
 62
     5
 63
     7
421
 16777215
 74
     2
 91
        2
 64
     7
 65
     7
 75
     1
175
     1
 42
40.0
 92
        8
 66
     7
 43
1.0
 76
     1
 77
     6
 78
     2
 67
     7
 79
     3
170
     0
171
     0
290
     0
174
     0
 93
        1
 44
0.0
173
     0
291
     0
 45
0.0
  0
VISUALSTYLE
  5
3F
102
{ACAD_REACTORS
330
2A
102
}
102
{ACAD_XDICTIONARY
360
B2
102
}
330
2A
100
AcDbVisualStyle
  2
Sketchy
 70
    24
 71
     1
 72
     2
 73
     2
 90
        0
 40
0.6
 41
30.0
 62
     5
 63
     7
421
 16777215
 74
     2
 91
        2
 64
     7
 65
     7
 75
     1
175
     1
 42
40.0
 92
       11
 66
     7
 43
1.0
 76
     1
 77
     6
 78
     2
 67
     7
 79
     6
170
     0
171
     0
290
     0
174
     0
 93
        1
 44
0.0
173
     0
291
     0
 45
0.0
  0
VISUALSTYLE
  5
37
102
{ACAD_REACTORS
330
2A
102
}
102
{ACAD_XDICTIONARY
360
A2
102
}
330
2A
100
AcDbVisualStyle
  2
Thicken
 70
    13
 71
     2
 72
     2
 73
     0
 90
        0
 40
0.6
 41
30.0
 62
     5
 63
     7
421
 16777215
 74
     1
 91
        4
 64
     7
 65
   257
 75
     1
175
     1
 42
1.0
 92
       12
 66
     7
 43
1.0
 76
     1
 77
     6
 78
     2
 67
     7
 79
     5
170
     0
171
     0
290
     0
174
     0
 93
        1
 44
0.0
173
     0
291
     1
 45
0.0
  0
VISUALSTYLE
  5
30
102
{ACAD_REACTORS
330
2A
102
}
102
{ACAD_XDICTIONARY
360
94
102
}
330
2A
100
AcDbVisualStyle
  2
Wireframe
 70
     5
 71
     0
 72
     2
 73
     0
 90
        0
 40
0.6
 41
30.0
 62
     5
 63
     7
421
 16777215
 74
     1
 91
        4
 64
     7
 65
   257
 75
     1
175
     1
 42
1.0
 92
        0
 66
   257
 43
1.0
 76
     1
 77
     6
 78
     2
 67
     7
 79
     3
170
     0
171
     0
290
     0
174
     0
 93
        1
 44
0.0
173
     0
291
     0
 45
0.0
  0
VISUALSTYLE
  5
40
102
{ACAD_REACTORS
330
2A
102
}
102
{ACAD_XDICTIONARY
360
B4
102
}
330
2A
100
AcDbVisualStyle
  2
X-Ray
 70
    25
 71
     2
 72
     2
 73
     1
 90
        1
 40
0.5
 41
30.0
 62
     5
 63
     7
421
 16777215
 74
     1
 91
        0
 64
     7
 65
   257
 75
     1
175
     1
 42
1.0
 92
        8
 66
     7
 43
1.0
 76
     1
 77
     6
 78
     2
 67
     7
 79
     3
170
     0
171
     0
290
     0
174
     0
 93
       13
 44
0.0
173
     0
291
     0
 45
0.0
  0
DICTIONARYVAR
  5
88
102
{ACAD_REACTORS
330
87
102
}
330
87
100
DictionaryVariables
280
     0
  1
1:1
  0
DICTIONARYVAR
  5
C1
102
{ACAD_REACTORS
330
87
102
}
330
87
100
DictionaryVariables
280
     0
  1
Standard
  0
DICTIONARYVAR
  5
C0
102
{ACAD_REACTORS
330
87
102
}
330
87
100
DictionaryVariables
280
     0
  1
Standard
  0
DICTIONARYVAR
  5
89
102
{ACAD_REACTORS
330
87
102
}
330
87
100
DictionaryVariables
280
     0
  1
2
  0
DICTIONARY
  5
BD
330
6C
100
AcDbDictionary
280
     1
281
     1
  3
ACAD_XREC_ROUNDTRIP
360
BE
  0
DICTIONARY
  5
BA
330
6A
100
AcDbDictionary
280
     1
281
     1
  3
ACAD_ROUNDTRIP_2008_TABLESTYLE_CELLSTYLEMAP
360
BB
  0
DICTIONARY
  5
92
330
2F
100
AcDbDictionary
280
     1
281
     1
  3
ACAD_XREC_ROUNDTRIP
360
93
  0
DICTIONARY
  5
98
330
32
100
AcDbDictionary
280
     1
281
     1
  3
ACAD_XREC_ROUNDTRIP
360
99
  0
DICTIONARY
  5
A0
330
36
100
AcDbDictionary
280
     1
281
     1
  3
ACAD_XREC_ROUNDTRIP
360
A1
  0
DICTIONARY
  5
A8
330
3A
100
AcDbDictionary
280
     1
281
     1
  3
ACAD_XREC_ROUNDTRIP
360
A9
  0
DICTIONARY
  5
9C
330
34
100
AcDbDictionary
280
     1
281
     1
  3
ACAD_XREC_ROUNDTRIP
360
9D
  0
DICTIONARY
  5
9E
330
35
100
AcDbDictionary
280
     1
281
     1
  3
ACAD_XREC_ROUNDTRIP
360
9F
  0
DICTIONARY
  5
AE
330
3D
100
AcDbDictionary
280
     1
281
     1
  3
ACAD_XREC_ROUNDTRIP
360
AF
  0
DICTIONARY
  5
A6
330
39
100
AcDbDictionary
280
     1
281
     1
  3
ACAD_XREC_ROUNDTRIP
360
A7
  0
DICTIONARY
  5
8A
330
2B
100
AcDbDictionary
280
     1
281
     1
  3
ACAD_XREC_ROUNDTRIP
360
8B
  0
DICTIONARY
  5
8C
330
2C
100
AcDbDictionary
280
     1
281
     1
  3
ACAD_XREC_ROUNDTRIP
360
8D
  0
DICTIONARY
  5
8E
330
2D
100
AcDbDictionary
280
     1
281
     1
  3
ACAD_XREC_ROUNDTRIP
360
8F
  0
DICTIONARY
  5
90
330
2E
100
AcDbDictionary
280
     1
281
     1
  3
ACAD_XREC_ROUNDTRIP
360
91
  0
DICTIONARY
  5
96
330
31
100
AcDbDictionary
280
     1
281
     1
  3
ACAD_XREC_ROUNDTRIP
360
97
  0
DICTIONARY
  5
AA
330
3B
100
AcDbDictionary
280
     1
281
     1
  3
ACAD_XREC_ROUNDTRIP
360
AB
  0
DICTIONARY
  5
A4
330
38
100
AcDbDictionary
280
     1
281
     1
  3
ACAD_XREC_ROUNDTRIP
360
A5
  0
DICTIONARY
  5
AC
330
3C
100
AcDbDictionary
280
     1
281
     1
  3
ACAD_XREC_ROUNDTRIP
360
AD
  0
DICTIONARY
  5
9A
330
33
100
AcDbDictionary
280
     1
281
     1
  3
ACAD_XREC_ROUNDTRIP
360
9B
  0
DICTIONARY
  5
B8
330
42
100
AcDbDictionary
280
     1
281
     1
  3
ACAD_XREC_ROUNDTRIP
360
B9
  0
DICTIONARY
  5
B6
330
41
100
AcDbDictionary
280
     1
281
     1
  3
ACAD_XREC_ROUNDTRIP
360
B7
  0
DICTIONARY
  5
B0
330
3E
100
AcDbDictionary
280
     1
281
     1
  3
ACAD_XREC_ROUNDTRIP
360
B1
  0
DICTIONARY
  5
B2
330
3F
100
AcDbDictionary
280
     1
281
     1
  3
ACAD_XREC_ROUNDTRIP
360
B3
  0
DICTIONARY
  5
A2
330
37
100
AcDbDictionary
280
     1
281
     1
  3
ACAD_XREC_ROUNDTRIP
360
A3
  0
DICTIONARY
  5
94
330
30
100
AcDbDictionary
280
     1
281
     1
  3
ACAD_XREC_ROUNDTRIP
360
95
  0
DICTIONARY
  5
B4
330
40
100
AcDbDictionary
280
     1
281
     1
  3
ACAD_XREC_ROUNDTRIP
360
B5
  0
XRECORD
  5
BE
102
{ACAD_REACTORS
330
BD
102
}
330
BD
100
AcDbXrecord
280
     1
102
ACAD_ROUNDTRIP_2010_MLEADER_STYLE
  0
CELLSTYLEMAP
  5
BB
102
{ACAD_REACTORS
330
BA
102
}
330
BA
100
AcDbCellStyleMap
 90
        3
300
CELLSTYLE
  1
TABLEFORMAT_BEGIN
 90
        5
170
     1
 91
        0
 92
    32768
 62
   257
 93
        1
300
CONTENTFORMAT
  1
CONTENTFORMAT_BEGIN
 90
        0
 91
        0
 92
        4
 93
        0
300

 40
0.0
140
1.0
 94
        5
 62
     0
340
11
144
0.25
309
CONTENTFORMAT_END
171
     1
301
MARGIN
  1
CELLMARGIN_BEGIN
 40
0.06
 40
0.06
 40
0.06
 40
0.06
 40
0.06
 40
0.06
309
CELLMARGIN_END
 94
        6
 95
        1
302
GRIDFORMAT
  1
GRIDFORMAT_BEGIN
 90
        0
 91
        1
 62
     0
 92
       -2
340
14
 93
        0
 40
0.045
309
GRIDFORMAT_END
 95
        2
302
GRIDFORMAT
  1
GRIDFORMAT_BEGIN
 90
        0
 91
        1
 62
     0
 92
       -2
340
14
 93
        0
 40
0.045
309
GRIDFORMAT_END
 95
        4
302
GRIDFORMAT
  1
GRIDFORMAT_BEGIN
 90
        0
 91
        1
 62
     0
 92
       -2
340
14
 93
        0
 40
0.045
309
GRIDFORMAT_END
 95
        8
302
GRIDFORMAT
  1
GRIDFORMAT_BEGIN
 90
        0
 91
        1
 62
     0
 92
       -2
340
14
 93
        0
 40
0.045
309
GRIDFORMAT_END
 95
       16
302
GRIDFORMAT
  1
GRIDFORMAT_BEGIN
 90
        0
 91
        1
 62
     0
 92
       -2
340
14
 93
        0
 40
0.045
309
GRIDFORMAT_END
 95
       32
302
GRIDFORMAT
  1
GRIDFORMAT_BEGIN
 90
        0
 91
        1
 62
     0
 92
       -2
340
14
 93
        0
 40
0.045
309
GRIDFORMAT_END
309
TABLEFORMAT_END
  1
CELLSTYLE_BEGIN
 90
        1
 91
        1
300
_TITLE
309
CELLSTYLE_END
300
CELLSTYLE
  1
TABLEFORMAT_BEGIN
 90
        5
170
     1
 91
        0
 92
        0
 62
   257
 93
        1
300
CONTENTFORMAT
  1
CONTENTFORMAT_BEGIN
 90
        0
 91
        0
 92
        4
 93
        0
300

 40
0.0
140
1.0
 94
        5
 62
     0
340
11
144
0.18
309
CONTENTFORMAT_END
171
     1
301
MARGIN
  1
CELLMARGIN_BEGIN
 40
0.06
 40
0.06
 40
0.06
 40
0.06
 40
0.06
 40
0.06
309
CELLMARGIN_END
 94
        6
 95
        1
302
GRIDFORMAT
  1
GRIDFORMAT_BEGIN
 90
        0
 91
        1
 62
     0
 92
       -2
340
14
 93
        0
 40
0.045
309
GRIDFORMAT_END
 95
        2
302
GRIDFORMAT
  1
GRIDFORMAT_BEGIN
 90
        0
 91
        1
 62
     0
 92
       -2
340
14
 93
        0
 40
0.045
309
GRIDFORMAT_END
 95
        4
302
GRIDFORMAT
  1
GRIDFORMAT_BEGIN
 90
        0
 91
        1
 62
     0
 92
       -2
340
14
 93
        0
 40
0.045
309
GRIDFORMAT_END
 95
        8
302
GRIDFORMAT
  1
GRIDFORMAT_BEGIN
 90
        0
 91
        1
 62
     0
 92
       -2
340
14
 93
        0
 40
0.045
309
GRIDFORMAT_END
 95
       16
302
GRIDFORMAT
  1
GRIDFORMAT_BEGIN
 90
        0
 91
        1
 62
     0
 92
       -2
340
14
 93
        0
 40
0.045
309
GRIDFORMAT_END
 95
       32
302
GRIDFORMAT
  1
GRIDFORMAT_BEGIN
 90
        0
 91
        1
 62
     0
 92
       -2
340
14
 93
        0
 40
0.045
309
GRIDFORMAT_END
309
TABLEFORMAT_END
  1
CELLSTYLE_BEGIN
 90
        2
 91
        1
300
_HEADER
309
CELLSTYLE_END
300
CELLSTYLE
  1
TABLEFORMAT_BEGIN
 90
        5
170
     1
 91
        0
 92
        0
 62
   257
 93
        1
300
CONTENTFORMAT
  1
CONTENTFORMAT_BEGIN
 90
        0
 91
        0
 92
        4
 93
        0
300

 40
0.0
140
1.0
 94
        2
 62
     0
340
11
144
0.18
309
CONTENTFORMAT_END
171
     1
301
MARGIN
  1
CELLMARGIN_BEGIN
 40
0.06
 40
0.06
 40
0.06
 40
0.06
 40
0.06
 40
0.06
309
CELLMARGIN_END
 94
        6
 95
        1
302
GRIDFORMAT
  1
GRIDFORMAT_BEGIN
 90
        0
 91
        1
 62
     0
 92
       -2
340
14
 93
        0
 40
0.045
309
GRIDFORMAT_END
 95
        2
302
GRIDFORMAT
  1
GRIDFORMAT_BEGIN
 90
        0
 91
        1
 62
     0
 92
       -2
340
14
 93
        0
 40
0.045
309
GRIDFORMAT_END
 95
        4
302
GRIDFORMAT
  1
GRIDFORMAT_BEGIN
 90
        0
 91
        1
 62
     0
 92
       -2
340
14
 93
        0
 40
0.045
309
GRIDFORMAT_END
 95
        8
302
GRIDFORMAT
  1
GRIDFORMAT_BEGIN
 90
        0
 91
        1
 62
     0
 92
       -2
340
14
 93
        0
 40
0.045
309
GRIDFORMAT_END
 95
       16
302
GRIDFORMAT
  1
GRIDFORMAT_BEGIN
 90
        0
 91
        1
 62
     0
 92
       -2
340
14
 93
        0
 40
0.045
309
GRIDFORMAT_END
 95
       32
302
GRIDFORMAT
  1
GRIDFORMAT_BEGIN
 90
        0
 91
        1
 62
     0
 92
       -2
340
14
 93
        0
 40
0.045
309
GRIDFORMAT_END
309
TABLEFORMAT_END
  1
CELLSTYLE_BEGIN
 90
        3
 91
        2
300
_DATA
309
CELLSTYLE_END
  0
XRECORD
  5
93
102
{ACAD_REACTORS
330
92
102
}
330
92
100
AcDbXrecord
280
     1
102
RTVSPropertyOp0
 70
     1
102
RTVSPropertyOp1
 70
     1
102
RTVSPropertyOp2
 70
     1
102
RTVSPropertyOp3
 70
     1
102
RTVSPropertyOp4
 70
     1
102
RTVSPropertyOp5
 70
     1
102
RTVSPropertyOp6
 70
     1
102
RTVSPropertyOp7
 70
     1
102
RTVSPropertyOp8
 70
     1
102
RTVSPropertyOp9
 70
     1
102
RTVSPropertyOp10
 70
     1
102
RTVSPropertyOp11
 70
     1
102
RTVSPropertyOp12
 70
     1
102
RTVSPropertyOp13
 70
     1
102
RTVSPropertyOp14
 70
     1
102
RTVSPropertyOp15
 70
     1
102
RTVSPropertyOp16
 70
     1
102
RTVSPropertyOp17
 70
     1
102
RTVSPropertyOp18
 70
     1
102
RTVSPropertyOp19
 70
     1
102
RTVSPropertyOp20
 70
     1
102
RTVSPropertyOp21
 70
     1
102
RTVSPropertyOp22
 70
     1
102
RTVSPropertyOp23
 70
     1
102
RTVSPropertyOp24
 70
     1
102
RTVSPropertyOp25
 70
     1
102
RTVSPropertyOp26
 70
     1
102
RTVSPropertyOp27
 70
     1
102
RTVSPropertyOp28
 70
     1
102
RTVSPropertyOp29
 70
     1
102
RTVSPropertyOp30
 70
     1
102
RTVSPropertyOp31
 70
     1
102
RTVSPropertyOp32
 70
     1
102
RTVSPropertyOp33
 70
     1
102
RTVSPropertyOp34
 70
     1
102
RTVSPropertyOp35
 70
     1
102
RTVSPropertyOp36
 70
     1
102
RTVSPropertyOp37
 70
     1
102
RTVSPropertyOp38
 70
     1
102
RTVSPropertyOp39
 70
     1
102
RTVSPropertyOp40
 70
     1
102
RTVSPropertyOp41
 70
     1
102
RTVSPropertyOp42
 70
     1
102
RTVSPropertyOp43
 70
     1
102
RTVSPropertyOp44
 70
     1
102
RTVSPropertyOp45
 70
     1
102
RTVSPropertyOp46
 70
     1
102
RTVSPropertyOp47
 70
     1
102
RTVSPropertyOp48
 70
     1
102
RTVSPropertyOp49
 70
     1
102
RTVSPropertyOp50
 70
     1
102
RTVSPropertyOp51
 70
     0
102
RTVSPropertyOp52
 70
     0
102
RTVSPropertyOp53
 70
     1
102
RTVSPropertyOp54
 70
     1
102
RTVSPropertyOp55
 70
     1
102
RTVSPropertyOp56
 70
     1
102
RTVSPropertyOp57
 70
     1
102
RTVSPost2010Prop28
280
     1
102
RTVSPost2010PropOp28
 70
     1
102
RTVSPost2010Prop29
280
     1
102
RTVSPost2010PropOp29
 70
     1
102
RTVSPost2010Prop30
280
     0
102
RTVSPost2010PropOp30
 70
     1
102
RTVSPost2010Prop31
280
     0
102
RTVSPost2010PropOp31
 70
     1
102
RTVSPost2010Prop32
280
     0
102
RTVSPost2010PropOp32
 70
     1
102
RTVSPost2010Prop33
280
     0
102
RTVSPost2010PropOp33
 70
     1
102
RTVSPost2010Prop34
280
     0
102
RTVSPost2010PropOp34
 70
     1
102
RTVSPost2010Prop35
280
     0
102
RTVSPost2010PropOp35
 70
     1
102
RTVSPost2010Prop36
280
     0
102
RTVSPost2010PropOp36
 70
     1
102
RTVSPost2010Prop37
 90
       50
102
RTVSPost2010PropOp37
 70
     1
102
RTVSPost2010Prop38
140
0.0
102
RTVSPost2010PropOp38
 70
     1
102
RTVSPost2010Prop39
140
1.0
102
RTVSPost2010PropOp39
 70
     1
102
RTVSPost2010Prop40
 90
        0
102
RTVSPost2010PropOp40
 70
     1
102
RTVSPost2010Prop41ColorIndex
 90
       18
102
RTVSPost2010Prop41ColorRGB
 90
        0
102
RTVSPost2010PropOp41
 70
     1
102
RTVSPost2010Prop42
 90
       50
102
RTVSPost2010PropOp42
 70
     1
102
RTVSPost2010Prop43
 90
        3
102
RTVSPost2010PropOp43
 70
     1
102
RTVSPost2010Prop44ColorIndex
 90
        5
102
RTVSPost2010Prop44ColorRGB
 90
      255
102
RTVSPost2010PropOp44
 70
     1
102
RTVSPost2010Prop45
280
     0
102
RTVSPost2010PropOp45
 70
     1
102
RTVSPost2010Prop46
 90
       50
102
RTVSPost2010PropOp46
 70
     1
102
RTVSPost2010Prop47
 90
       50
102
RTVSPost2010PropOp47
 70
     1
102
RTVSPost2010Prop48
 90
       50
102
RTVSPost2010PropOp48
 70
     1
102
RTVSPost2010Prop49
280
     0
102
RTVSPost2010PropOp49
 70
     1
102
RTVSPost2010Prop50
 90
       50
102
RTVSPost2010PropOp50
 70
     1
102
RTVSPost2010Prop51ColorIndex
 90
      256
102
RTVSPost2010Prop51ColorRGB
 90
-16777216
102
RTVSPost2010PropOp51
 70
     0
102
RTVSPost2010Prop52
140
1.0
102
RTVSPost2010PropOp52
 70
     0
102
RTVSPost2010Prop53
 90
        2
102
RTVSPost2010PropOp53
 70
     1
102
RTVSPost2010Prop54
  1
strokes_ogs.tif
102
RTVSPost2010PropOp54
 70
     1
102
RTVSPost2010Prop55
280
     0
102
RTVSPost2010PropOp55
 70
     1
102
RTVSPost2010Prop56
140
1.0
102
RTVSPost2010PropOp56
 70
     1
102
RTVSPost2010Prop57
140
1.0
102
RTVSPost2010PropOp57
 70
     1
  0
XRECORD
  5
99
102
{ACAD_REACTORS
330
98
102
}
330
98
100
AcDbXrecord
280
     1
102
RTVSPropertyOp0
 70
     1
102
RTVSPropertyOp1
 70
     1
102
RTVSPropertyOp2
 70
     1
102
RTVSPropertyOp3
 70
     1
102
RTVSPropertyOp4
 70
     1
102
RTVSPropertyOp5
 70
     1
102
RTVSPropertyOp6
 70
     1
102
RTVSPropertyOp7
 70
     1
102
RTVSPropertyOp8
 70
     1
102
RTVSPropertyOp9
 70
     1
102
RTVSPropertyOp10
 70
     1
102
RTVSPropertyOp11
 70
     1
102
RTVSPropertyOp12
 70
     1
102
RTVSPropertyOp13
 70
     1
102
RTVSPropertyOp14
 70
     1
102
RTVSPropertyOp15
 70
     1
102
RTVSPropertyOp16
 70
     1
102
RTVSPropertyOp17
 70
     1
102
RTVSPropertyOp18
 70
     1
102
RTVSPropertyOp19
 70
     1
102
RTVSPropertyOp20
 70
     1
102
RTVSPropertyOp21
 70
     1
102
RTVSPropertyOp22
 70
     1
102
RTVSPropertyOp23
 70
     1
102
RTVSPropertyOp24
 70
     1
102
RTVSPropertyOp25
 70
     1
102
RTVSPropertyOp26
 70
     1
102
RTVSPropertyOp27
 70
     1
102
RTVSPropertyOp28
 70
     1
102
RTVSPropertyOp29
 70
     1
102
RTVSPropertyOp30
 70
     1
102
RTVSPropertyOp31
 70
     1
102
RTVSPropertyOp32
 70
     1
102
RTVSPropertyOp33
 70
     1
102
RTVSPropertyOp34
 70
     1
102
RTVSPropertyOp35
 70
     1
102
RTVSPropertyOp36
 70
     1
102
RTVSPropertyOp37
 70
     1
102
RTVSPropertyOp38
 70
     1
102
RTVSPropertyOp39
 70
     1
102
RTVSPropertyOp40
 70
     1
102
RTVSPropertyOp41
 70
     1
102
RTVSPropertyOp42
 70
     1
102
RTVSPropertyOp43
 70
     1
102
RTVSPropertyOp44
 70
     1
102
RTVSPropertyOp45
 70
     1
102
RTVSPropertyOp46
 70
     1
102
RTVSPropertyOp47
 70
     1
102
RTVSPropertyOp48
 70
     1
102
RTVSPropertyOp49
 70
     1
102
RTVSPropertyOp50
 70
     1
102
RTVSPropertyOp51
 70
     0
102
RTVSPropertyOp52
 70
     0
102
RTVSPropertyOp53
 70
     1
102
RTVSPropertyOp54
 70
     1
102
RTVSPropertyOp55
 70
     1
102
RTVSPropertyOp56
 70
     1
102
RTVSPropertyOp57
 70
     1
102
RTVSPost2010Prop28
280
     0
102
RTVSPost2010PropOp28
 70
     1
102
RTVSPost2010Prop29
280
     1
102
RTVSPost2010PropOp29
 70
     1
102
RTVSPost2010Prop30
280
     1
102
RTVSPost2010PropOp30
 70
     1
102
RTVSPost2010Prop31
280
     0
102
RTVSPost2010PropOp31
 70
     1
102
RTVSPost2010Prop32
280
     0
102
RTVSPost2010PropOp32
 70
     1
102
RTVSPost2010Prop33
280
     0
102
RTVSPost2010PropOp33
 70
     1
102
RTVSPost2010Prop34
280
     0
102
RTVSPost2010PropOp34
 70
     1
102
RTVSPost2010Prop35
280
     0
102
RTVSPost2010PropOp35
 70
     1
102
RTVSPost2010Prop36
280
     0
102
RTVSPost2010PropOp36
 70
     1
102
RTVSPost2010Prop37
 90
       50
102
RTVSPost2010PropOp37
 70
     1
102
RTVSPost2010Prop38
140
0.0
102
RTVSPost2010PropOp38
 70
     1
102
RTVSPost2010Prop39
140
1.0
102
RTVSPost2010PropOp39
 70
     1
102
RTVSPost2010Prop40
 90
        0
102
RTVSPost2010PropOp40
 70
     1
102
RTVSPost2010Prop41ColorIndex
 90
       18
102
RTVSPost2010Prop41ColorRGB
 90
        0
102
RTVSPost2010PropOp41
 70
     1
102
RTVSPost2010Prop42
 90
       50
102
RTVSPost2010PropOp42
 70
     1
102
RTVSPost2010Prop43
 90
        3
102
RTVSPost2010PropOp43
 70
     1
102
RTVSPost2010Prop44ColorIndex
 90
        5
102
RTVSPost2010Prop44ColorRGB
 90
      255
102
RTVSPost2010PropOp44
 70
     1
102
RTVSPost2010Prop45
280
     0
102
RTVSPost2010PropOp45
 70
     1
102
RTVSPost2010Prop46
 90
       50
102
RTVSPost2010PropOp46
 70
     1
102
RTVSPost2010Prop47
 90
       50
102
RTVSPost2010PropOp47
 70
     1
102
RTVSPost2010Prop48
 90
       50
102
RTVSPost2010PropOp48
 70
     1
102
RTVSPost2010Prop49
280
     0
102
RTVSPost2010PropOp49
 70
     1
102
RTVSPost2010Prop50
 90
       50
102
RTVSPost2010PropOp50
 70
     1
102
RTVSPost2010Prop51ColorIndex
 90
      256
102
RTVSPost2010Prop51ColorRGB
 90
-16777216
102
RTVSPost2010PropOp51
 70
     0
102
RTVSPost2010Prop52
140
1.0
102
RTVSPost2010PropOp52
 70
     0
102
RTVSPost2010Prop53
 90
        2
102
RTVSPost2010PropOp53
 70
     1
102
RTVSPost2010Prop54
  1
strokes_ogs.tif
102
RTVSPost2010PropOp54
 70
     1
102
RTVSPost2010Prop55
280
     0
102
RTVSPost2010PropOp55
 70
     1
102
RTVSPost2010Prop56
140
1.0
102
RTVSPost2010PropOp56
 70
     1
102
RTVSPost2010Prop57
140
1.0
102
RTVSPost2010PropOp57
 70
     1
  0
XRECORD
  5
A1
102
{ACAD_REACTORS
330
A0
102
}
330
A0
100
AcDbXrecord
280
     1
102
RTVSPropertyOp0
 70
     1
102
RTVSPropertyOp1
 70
     1
102
RTVSPropertyOp2
 70
     1
102
RTVSPropertyOp3
 70
     1
102
RTVSPropertyOp4
 70
     1
102
RTVSPropertyOp5
 70
     1
102
RTVSPropertyOp6
 70
     1
102
RTVSPropertyOp7
 70
     1
102
RTVSPropertyOp8
 70
     1
102
RTVSPropertyOp9
 70
     1
102
RTVSPropertyOp10
 70
     1
102
RTVSPropertyOp11
 70
     1
102
RTVSPropertyOp12
 70
     1
102
RTVSPropertyOp13
 70
     1
102
RTVSPropertyOp14
 70
     1
102
RTVSPropertyOp15
 70
     1
102
RTVSPropertyOp16
 70
     1
102
RTVSPropertyOp17
 70
     1
102
RTVSPropertyOp18
 70
     1
102
RTVSPropertyOp19
 70
     1
102
RTVSPropertyOp20
 70
     1
102
RTVSPropertyOp21
 70
     1
102
RTVSPropertyOp22
 70
     1
102
RTVSPropertyOp23
 70
     1
102
RTVSPropertyOp24
 70
     1
102
RTVSPropertyOp25
 70
     1
102
RTVSPropertyOp26
 70
     1
102
RTVSPropertyOp27
 70
     1
102
RTVSPropertyOp28
 70
     1
102
RTVSPropertyOp29
 70
     1
102
RTVSPropertyOp30
 70
     1
102
RTVSPropertyOp31
 70
     1
102
RTVSPropertyOp32
 70
     1
102
RTVSPropertyOp33
 70
     1
102
RTVSPropertyOp34
 70
     1
102
RTVSPropertyOp35
 70
     1
102
RTVSPropertyOp36
 70
     1
102
RTVSPropertyOp37
 70
     1
102
RTVSPropertyOp38
 70
     1
102
RTVSPropertyOp39
 70
     1
102
RTVSPropertyOp40
 70
     1
102
RTVSPropertyOp41
 70
     1
102
RTVSPropertyOp42
 70
     1
102
RTVSPropertyOp43
 70
     1
102
RTVSPropertyOp44
 70
     1
102
RTVSPropertyOp45
 70
     1
102
RTVSPropertyOp46
 70
     1
102
RTVSPropertyOp47
 70
     1
102
RTVSPropertyOp48
 70
     1
102
RTVSPropertyOp49
 70
     1
102
RTVSPropertyOp50
 70
     1
102
RTVSPropertyOp51
 70
     0
102
RTVSPropertyOp52
 70
     0
102
RTVSPropertyOp53
 70
     1
102
RTVSPropertyOp54
 70
     1
102
RTVSPropertyOp55
 70
     1
102
RTVSPropertyOp56
 70
     1
102
RTVSPropertyOp57
 70
     1
102
RTVSPost2010Prop28
280
     0
102
RTVSPost2010PropOp28
 70
     1
102
RTVSPost2010Prop29
280
     1
102
RTVSPost2010PropOp29
 70
     1
102
RTVSPost2010Prop30
280
     1
102
RTVSPost2010PropOp30
 70
     1
102
RTVSPost2010Prop31
280
     0
102
RTVSPost2010PropOp31
 70
     1
102
RTVSPost2010Prop32
280
     0
102
RTVSPost2010PropOp32
 70
     1
102
RTVSPost2010Prop33
280
     0
102
RTVSPost2010PropOp33
 70
     1
102
RTVSPost2010Prop34
280
     0
102
RTVSPost2010PropOp34
 70
     1
102
RTVSPost2010Prop35
280
     0
102
RTVSPost2010PropOp35
 70
     1
102
RTVSPost2010Prop36
280
     0
102
RTVSPost2010PropOp36
 70
     1
102
RTVSPost2010Prop37
 90
       50
102
RTVSPost2010PropOp37
 70
     1
102
RTVSPost2010Prop38
140
0.0
102
RTVSPost2010PropOp38
 70
     1
102
RTVSPost2010Prop39
140
1.0
102
RTVSPost2010PropOp39
 70
     1
102
RTVSPost2010Prop40
 90
        0
102
RTVSPost2010PropOp40
 70
     1
102
RTVSPost2010Prop41ColorIndex
 90
       18
102
RTVSPost2010Prop41ColorRGB
 90
        0
102
RTVSPost2010PropOp41
 70
     1
102
RTVSPost2010Prop42
 90
       50
102
RTVSPost2010PropOp42
 70
     1
102
RTVSPost2010Prop43
 90
        3
102
RTVSPost2010PropOp43
 70
     1
102
RTVSPost2010Prop44ColorIndex
 90
        5
102
RTVSPost2010Prop44ColorRGB
 90
      255
102
RTVSPost2010PropOp44
 70
     1
102
RTVSPost2010Prop45
280
     0
102
RTVSPost2010PropOp45
 70
     1
102
RTVSPost2010Prop46
 90
       50
102
RTVSPost2010PropOp46
 70
     1
102
RTVSPost2010Prop47
 90
       50
102
RTVSPost2010PropOp47
 70
     1
102
RTVSPost2010Prop48
 90
       50
102
RTVSPost2010PropOp48
 70
     1
102
RTVSPost2010Prop49
280
     0
102
RTVSPost2010PropOp49
 70
     1
102
RTVSPost2010Prop50
 90
       50
102
RTVSPost2010PropOp50
 70
     1
102
RTVSPost2010Prop51ColorIndex
 90
      256
102
RTVSPost2010Prop51ColorRGB
 90
-16777216
102
RTVSPost2010PropOp51
 70
     0
102
RTVSPost2010Prop52
140
1.0
102
RTVSPost2010PropOp52
 70
     0
102
RTVSPost2010Prop53
 90
        2
102
RTVSPost2010PropOp53
 70
     1
102
RTVSPost2010Prop54
  1
strokes_ogs.tif
102
RTVSPost2010PropOp54
 70
     1
102
RTVSPost2010Prop55
280
     0
102
RTVSPost2010PropOp55
 70
     1
102
RTVSPost2010Prop56
140
1.0
102
RTVSPost2010PropOp56
 70
     1
102
RTVSPost2010Prop57
140
1.0
102
RTVSPost2010PropOp57
 70
     1
  0
XRECORD
  5
A9
102
{ACAD_REACTORS
330
A8
102
}
330
A8
100
AcDbXrecord
280
     1
102
RTVSPropertyOp0
 70
     1
102
RTVSPropertyOp1
 70
     1
102
RTVSPropertyOp2
 70
     1
102
RTVSPropertyOp3
 70
     1
102
RTVSPropertyOp4
 70
     1
102
RTVSPropertyOp5
 70
     1
102
RTVSPropertyOp6
 70
     1
102
RTVSPropertyOp7
 70
     1
102
RTVSPropertyOp8
 70
     1
102
RTVSPropertyOp9
 70
     1
102
RTVSPropertyOp10
 70
     1
102
RTVSPropertyOp11
 70
     1
102
RTVSPropertyOp12
 70
     1
102
RTVSPropertyOp13
 70
     1
102
RTVSPropertyOp14
 70
     1
102
RTVSPropertyOp15
 70
     1
102
RTVSPropertyOp16
 70
     1
102
RTVSPropertyOp17
 70
     1
102
RTVSPropertyOp18
 70
     1
102
RTVSPropertyOp19
 70
     1
102
RTVSPropertyOp20
 70
     1
102
RTVSPropertyOp21
 70
     1
102
RTVSPropertyOp22
 70
     1
102
RTVSPropertyOp23
 70
     1
102
RTVSPropertyOp24
 70
     1
102
RTVSPropertyOp25
 70
     1
102
RTVSPropertyOp26
 70
     1
102
RTVSPropertyOp27
 70
     1
102
RTVSPropertyOp28
 70
     1
102
RTVSPropertyOp29
 70
     1
102
RTVSPropertyOp30
 70
     1
102
RTVSPropertyOp31
 70
     1
102
RTVSPropertyOp32
 70
     1
102
RTVSPropertyOp33
 70
     1
102
RTVSPropertyOp34
 70
     1
102
RTVSPropertyOp35
 70
     1
102
RTVSPropertyOp36
 70
     1
102
RTVSPropertyOp37
 70
     1
102
RTVSPropertyOp38
 70
     1
102
RTVSPropertyOp39
 70
     1
102
RTVSPropertyOp40
 70
     1
102
RTVSPropertyOp41
 70
     1
102
RTVSPropertyOp42
 70
     1
102
RTVSPropertyOp43
 70
     1
102
RTVSPropertyOp44
 70
     1
102
RTVSPropertyOp45
 70
     1
102
RTVSPropertyOp46
 70
     1
102
RTVSPropertyOp47
 70
     1
102
RTVSPropertyOp48
 70
     1
102
RTVSPropertyOp49
 70
     1
102
RTVSPropertyOp50
 70
     1
102
RTVSPropertyOp51
 70
     0
102
RTVSPropertyOp52
 70
     0
102
RTVSPropertyOp53
 70
     1
102
RTVSPropertyOp54
 70
     1
102
RTVSPropertyOp55
 70
     1
102
RTVSPropertyOp56
 70
     1
102
RTVSPropertyOp57
 70
     1
102
RTVSPost2010Prop28
280
     0
102
RTVSPost2010PropOp28
 70
     1
102
RTVSPost2010Prop29
280
     1
102
RTVSPost2010PropOp29
 70
     1
102
RTVSPost2010Prop30
280
     1
102
RTVSPost2010PropOp30
 70
     1
102
RTVSPost2010Prop31
280
     0
102
RTVSPost2010PropOp31
 70
     1
102
RTVSPost2010Prop32
280
     0
102
RTVSPost2010PropOp32
 70
     1
102
RTVSPost2010Prop33
280
     0
102
RTVSPost2010PropOp33
 70
     1
102
RTVSPost2010Prop34
280
     0
102
RTVSPost2010PropOp34
 70
     1
102
RTVSPost2010Prop35
280
     0
102
RTVSPost2010PropOp35
 70
     1
102
RTVSPost2010Prop36
280
     0
102
RTVSPost2010PropOp36
 70
     1
102
RTVSPost2010Prop37
 90
       50
102
RTVSPost2010PropOp37
 70
     1
102
RTVSPost2010Prop38
140
0.0
102
RTVSPost2010PropOp38
 70
     1
102
RTVSPost2010Prop39
140
1.0
102
RTVSPost2010PropOp39
 70
     1
102
RTVSPost2010Prop40
 90
        0
102
RTVSPost2010PropOp40
 70
     1
102
RTVSPost2010Prop41ColorIndex
 90
       18
102
RTVSPost2010Prop41ColorRGB
 90
        0
102
RTVSPost2010PropOp41
 70
     1
102
RTVSPost2010Prop42
 90
       50
102
RTVSPost2010PropOp42
 70
     1
102
RTVSPost2010Prop43
 90
        3
102
RTVSPost2010PropOp43
 70
     1
102
RTVSPost2010Prop44ColorIndex
 90
        5
102
RTVSPost2010Prop44ColorRGB
 90
      255
102
RTVSPost2010PropOp44
 70
     1
102
RTVSPost2010Prop45
280
     0
102
RTVSPost2010PropOp45
 70
     1
102
RTVSPost2010Prop46
 90
       50
102
RTVSPost2010PropOp46
 70
     1
102
RTVSPost2010Prop47
 90
       50
102
RTVSPost2010PropOp47
 70
     1
102
RTVSPost2010Prop48
 90
       50
102
RTVSPost2010PropOp48
 70
     1
102
RTVSPost2010Prop49
280
     0
102
RTVSPost2010PropOp49
 70
     1
102
RTVSPost2010Prop50
 90
       50
102
RTVSPost2010PropOp50
 70
     1
102
RTVSPost2010Prop51ColorIndex
 90
      256
102
RTVSPost2010Prop51ColorRGB
 90
-16777216
102
RTVSPost2010PropOp51
 70
     0
102
RTVSPost2010Prop52
140
1.0
102
RTVSPost2010PropOp52
 70
     0
102
RTVSPost2010Prop53
 90
        2
102
RTVSPost2010PropOp53
 70
     1
102
RTVSPost2010Prop54
  1
strokes_ogs.tif
102
RTVSPost2010PropOp54
 70
     1
102
RTVSPost2010Prop55
280
     0
102
RTVSPost2010PropOp55
 70
     1
102
RTVSPost2010Prop56
140
1.0
102
RTVSPost2010PropOp56
 70
     1
102
RTVSPost2010Prop57
140
1.0
102
RTVSPost2010PropOp57
 70
     1
  0
XRECORD
  5
9D
102
{ACAD_REACTORS
330
9C
102
}
330
9C
100
AcDbXrecord
280
     1
102
RTVSPropertyOp0
 70
     1
102
RTVSPropertyOp1
 70
     1
102
RTVSPropertyOp2
 70
     1
102
RTVSPropertyOp3
 70
     1
102
RTVSPropertyOp4
 70
     1
102
RTVSPropertyOp5
 70
     1
102
RTVSPropertyOp6
 70
     1
102
RTVSPropertyOp7
 70
     1
102
RTVSPropertyOp8
 70
     1
102
RTVSPropertyOp9
 70
     1
102
RTVSPropertyOp10
 70
     1
102
RTVSPropertyOp11
 70
     1
102
RTVSPropertyOp12
 70
     1
102
RTVSPropertyOp13
 70
     1
102
RTVSPropertyOp14
 70
     1
102
RTVSPropertyOp15
 70
     1
102
RTVSPropertyOp16
 70
     1
102
RTVSPropertyOp17
 70
     1
102
RTVSPropertyOp18
 70
     1
102
RTVSPropertyOp19
 70
     1
102
RTVSPropertyOp20
 70
     1
102
RTVSPropertyOp21
 70
     1
102
RTVSPropertyOp22
 70
     1
102
RTVSPropertyOp23
 70
     1
102
RTVSPropertyOp24
 70
     1
102
RTVSPropertyOp25
 70
     1
102
RTVSPropertyOp26
 70
     1
102
RTVSPropertyOp27
 70
     1
102
RTVSPropertyOp28
 70
     1
102
RTVSPropertyOp29
 70
     1
102
RTVSPropertyOp30
 70
     1
102
RTVSPropertyOp31
 70
     1
102
RTVSPropertyOp32
 70
     1
102
RTVSPropertyOp33
 70
     1
102
RTVSPropertyOp34
 70
     1
102
RTVSPropertyOp35
 70
     1
102
RTVSPropertyOp36
 70
     1
102
RTVSPropertyOp37
 70
     1
102
RTVSPropertyOp38
 70
     1
102
RTVSPropertyOp39
 70
     1
102
RTVSPropertyOp40
 70
     1
102
RTVSPropertyOp41
 70
     1
102
RTVSPropertyOp42
 70
     1
102
RTVSPropertyOp43
 70
     1
102
RTVSPropertyOp44
 70
     1
102
RTVSPropertyOp45
 70
     1
102
RTVSPropertyOp46
 70
     1
102
RTVSPropertyOp47
 70
     1
102
RTVSPropertyOp48
 70
     1
102
RTVSPropertyOp49
 70
     1
102
RTVSPropertyOp50
 70
     1
102
RTVSPropertyOp51
 70
     0
102
RTVSPropertyOp52
 70
     0
102
RTVSPropertyOp53
 70
     1
102
RTVSPropertyOp54
 70
     1
102
RTVSPropertyOp55
 70
     1
102
RTVSPropertyOp56
 70
     1
102
RTVSPropertyOp57
 70
     1
102
RTVSPost2010Prop28
280
     0
102
RTVSPost2010PropOp28
 70
     1
102
RTVSPost2010Prop29
280
     1
102
RTVSPost2010PropOp29
 70
     1
102
RTVSPost2010Prop30
280
     1
102
RTVSPost2010PropOp30
 70
     1
102
RTVSPost2010Prop31
280
     0
102
RTVSPost2010PropOp31
 70
     1
102
RTVSPost2010Prop32
280
     0
102
RTVSPost2010PropOp32
 70
     1
102
RTVSPost2010Prop33
280
     0
102
RTVSPost2010PropOp33
 70
     1
102
RTVSPost2010Prop34
280
     0
102
RTVSPost2010PropOp34
 70
     1
102
RTVSPost2010Prop35
280
     0
102
RTVSPost2010PropOp35
 70
     1
102
RTVSPost2010Prop36
280
     0
102
RTVSPost2010PropOp36
 70
     1
102
RTVSPost2010Prop37
 90
       50
102
RTVSPost2010PropOp37
 70
     1
102
RTVSPost2010Prop38
140
0.0
102
RTVSPost2010PropOp38
 70
     1
102
RTVSPost2010Prop39
140
1.0
102
RTVSPost2010PropOp39
 70
     1
102
RTVSPost2010Prop40
 90
        0
102
RTVSPost2010PropOp40
 70
     1
102
RTVSPost2010Prop41ColorIndex
 90
       18
102
RTVSPost2010Prop41ColorRGB
 90
        0
102
RTVSPost2010PropOp41
 70
     1
102
RTVSPost2010Prop42
 90
       50
102
RTVSPost2010PropOp42
 70
     1
102
RTVSPost2010Prop43
 90
        3
102
RTVSPost2010PropOp43
 70
     1
102
RTVSPost2010Prop44ColorIndex
 90
        5
102
RTVSPost2010Prop44ColorRGB
 90
      255
102
RTVSPost2010PropOp44
 70
     1
102
RTVSPost2010Prop45
280
     0
102
RTVSPost2010PropOp45
 70
     1
102
RTVSPost2010Prop46
 90
       50
102
RTVSPost2010PropOp46
 70
     1
102
RTVSPost2010Prop47
 90
       50
102
RTVSPost2010PropOp47
 70
     1
102
RTVSPost2010Prop48
 90
       50
102
RTVSPost2010PropOp48
 70
     1
102
RTVSPost2010Prop49
280
     0
102
RTVSPost2010PropOp49
 70
     1
102
RTVSPost2010Prop50
 90
       50
102
RTVSPost2010PropOp50
 70
     1
102
RTVSPost2010Prop51ColorIndex
 90
      256
102
RTVSPost2010Prop51ColorRGB
 90
-16777216
102
RTVSPost2010PropOp51
 70
     0
102
RTVSPost2010Prop52
140
1.0
102
RTVSPost2010PropOp52
 70
     0
102
RTVSPost2010Prop53
 90
        2
102
RTVSPost2010PropOp53
 70
     1
102
RTVSPost2010Prop54
  1
strokes_ogs.tif
102
RTVSPost2010PropOp54
 70
     1
102
RTVSPost2010Prop55
280
     0
102
RTVSPost2010PropOp55
 70
     1
102
RTVSPost2010Prop56
140
1.0
102
RTVSPost2010PropOp56
 70
     1
102
RTVSPost2010Prop57
140
1.0
102
RTVSPost2010PropOp57
 70
     1
  0
XRECORD
  5
9F
102
{ACAD_REACTORS
330
9E
102
}
330
9E
100
AcDbXrecord
280
     1
102
RTVSPropertyOp0
 70
     1
102
RTVSPropertyOp1
 70
     1
102
RTVSPropertyOp2
 70
     1
102
RTVSPropertyOp3
 70
     1
102
RTVSPropertyOp4
 70
     1
102
RTVSPropertyOp5
 70
     1
102
RTVSPropertyOp6
 70
     1
102
RTVSPropertyOp7
 70
     1
102
RTVSPropertyOp8
 70
     1
102
RTVSPropertyOp9
 70
     1
102
RTVSPropertyOp10
 70
     1
102
RTVSPropertyOp11
 70
     1
102
RTVSPropertyOp12
 70
     1
102
RTVSPropertyOp13
 70
     1
102
RTVSPropertyOp14
 70
     1
102
RTVSPropertyOp15
 70
     1
102
RTVSPropertyOp16
 70
     1
102
RTVSPropertyOp17
 70
     1
102
RTVSPropertyOp18
 70
     1
102
RTVSPropertyOp19
 70
     1
102
RTVSPropertyOp20
 70
     1
102
RTVSPropertyOp21
 70
     1
102
RTVSPropertyOp22
 70
     1
102
RTVSPropertyOp23
 70
     1
102
RTVSPropertyOp24
 70
     1
102
RTVSPropertyOp25
 70
     1
102
RTVSPropertyOp26
 70
     1
102
RTVSPropertyOp27
 70
     1
102
RTVSPropertyOp28
 70
     1
102
RTVSPropertyOp29
 70
     1
102
RTVSPropertyOp30
 70
     1
102
RTVSPropertyOp31
 70
     1
102
RTVSPropertyOp32
 70
     1
102
RTVSPropertyOp33
 70
     1
102
RTVSPropertyOp34
 70
     1
102
RTVSPropertyOp35
 70
     1
102
RTVSPropertyOp36
 70
     1
102
RTVSPropertyOp37
 70
     1
102
RTVSPropertyOp38
 70
     1
102
RTVSPropertyOp39
 70
     1
102
RTVSPropertyOp40
 70
     1
102
RTVSPropertyOp41
 70
     1
102
RTVSPropertyOp42
 70
     1
102
RTVSPropertyOp43
 70
     1
102
RTVSPropertyOp44
 70
     1
102
RTVSPropertyOp45
 70
     1
102
RTVSPropertyOp46
 70
     1
102
RTVSPropertyOp47
 70
     1
102
RTVSPropertyOp48
 70
     1
102
RTVSPropertyOp49
 70
     1
102
RTVSPropertyOp50
 70
     1
102
RTVSPropertyOp51
 70
     0
102
RTVSPropertyOp52
 70
     0
102
RTVSPropertyOp53
 70
     1
102
RTVSPropertyOp54
 70
     1
102
RTVSPropertyOp55
 70
     1
102
RTVSPropertyOp56
 70
     1
102
RTVSPropertyOp57
 70
     1
102
RTVSPost2010Prop28
280
     0
102
RTVSPost2010PropOp28
 70
     1
102
RTVSPost2010Prop29
280
     1
102
RTVSPost2010PropOp29
 70
     1
102
RTVSPost2010Prop30
280
     1
102
RTVSPost2010PropOp30
 70
     1
102
RTVSPost2010Prop31
280
     0
102
RTVSPost2010PropOp31
 70
     1
102
RTVSPost2010Prop32
280
     0
102
RTVSPost2010PropOp32
 70
     1
102
RTVSPost2010Prop33
280
     0
102
RTVSPost2010PropOp33
 70
     1
102
RTVSPost2010Prop34
280
     0
102
RTVSPost2010PropOp34
 70
     1
102
RTVSPost2010Prop35
280
     0
102
RTVSPost2010PropOp35
 70
     1
102
RTVSPost2010Prop36
280
     0
102
RTVSPost2010PropOp36
 70
     1
102
RTVSPost2010Prop37
 90
       50
102
RTVSPost2010PropOp37
 70
     1
102
RTVSPost2010Prop38
140
0.0
102
RTVSPost2010PropOp38
 70
     1
102
RTVSPost2010Prop39
140
1.0
102
RTVSPost2010PropOp39
 70
     1
102
RTVSPost2010Prop40
 90
        0
102
RTVSPost2010PropOp40
 70
     1
102
RTVSPost2010Prop41ColorIndex
 90
       18
102
RTVSPost2010Prop41ColorRGB
 90
        0
102
RTVSPost2010PropOp41
 70
     1
102
RTVSPost2010Prop42
 90
       50
102
RTVSPost2010PropOp42
 70
     1
102
RTVSPost2010Prop43
 90
        3
102
RTVSPost2010PropOp43
 70
     1
102
RTVSPost2010Prop44ColorIndex
 90
        5
102
RTVSPost2010Prop44ColorRGB
 90
      255
102
RTVSPost2010PropOp44
 70
     1
102
RTVSPost2010Prop45
280
     0
102
RTVSPost2010PropOp45
 70
     1
102
RTVSPost2010Prop46
 90
       50
102
RTVSPost2010PropOp46
 70
     1
102
RTVSPost2010Prop47
 90
       50
102
RTVSPost2010PropOp47
 70
     1
102
RTVSPost2010Prop48
 90
       50
102
RTVSPost2010PropOp48
 70
     1
102
RTVSPost2010Prop49
280
     0
102
RTVSPost2010PropOp49
 70
     1
102
RTVSPost2010Prop50
 90
       50
102
RTVSPost2010PropOp50
 70
     1
102
RTVSPost2010Prop51ColorIndex
 90
      256
102
RTVSPost2010Prop51ColorRGB
 90
-16777216
102
RTVSPost2010PropOp51
 70
     0
102
RTVSPost2010Prop52
140
1.0
102
RTVSPost2010PropOp52
 70
     0
102
RTVSPost2010Prop53
 90
        2
102
RTVSPost2010PropOp53
 70
     1
102
RTVSPost2010Prop54
  1
strokes_ogs.tif
102
RTVSPost2010PropOp54
 70
     1
102
RTVSPost2010Prop55
280
     0
102
RTVSPost2010PropOp55
 70
     1
102
RTVSPost2010Prop56
140
1.0
102
RTVSPost2010PropOp56
 70
     1
102
RTVSPost2010Prop57
140
1.0
102
RTVSPost2010PropOp57
 70
     1
  0
XRECORD
  5
AF
102
{ACAD_REACTORS
330
AE
102
}
330
AE
100
AcDbXrecord
280
     1
102
RTVSPropertyOp0
 70
     0
102
RTVSPropertyOp1
 70
     0
102
RTVSPropertyOp2
 70
     0
102
RTVSPropertyOp3
 70
     0
102
RTVSPropertyOp4
 70
     0
102
RTVSPropertyOp5
 70
     0
102
RTVSPropertyOp6
 70
     0
102
RTVSPropertyOp7
 70
     0
102
RTVSPropertyOp8
 70
     0
102
RTVSPropertyOp9
 70
     0
102
RTVSPropertyOp10
 70
     0
102
RTVSPropertyOp11
 70
     0
102
RTVSPropertyOp12
 70
     0
102
RTVSPropertyOp13
 70
     0
102
RTVSPropertyOp14
 70
     2
102
RTVSPropertyOp15
 70
     0
102
RTVSPropertyOp16
 70
     0
102
RTVSPropertyOp17
 70
     0
102
RTVSPropertyOp18
 70
     0
102
RTVSPropertyOp19
 70
     0
102
RTVSPropertyOp20
 70
     0
102
RTVSPropertyOp21
 70
     0
102
RTVSPropertyOp22
 70
     0
102
RTVSPropertyOp23
 70
     0
102
RTVSPropertyOp24
 70
     0
102
RTVSPropertyOp25
 70
     0
102
RTVSPropertyOp26
 70
     0
102
RTVSPropertyOp27
 70
     0
102
RTVSPropertyOp28
 70
     0
102
RTVSPropertyOp29
 70
     0
102
RTVSPropertyOp30
 70
     0
102
RTVSPropertyOp31
 70
     0
102
RTVSPropertyOp32
 70
     0
102
RTVSPropertyOp33
 70
     0
102
RTVSPropertyOp34
 70
     0
102
RTVSPropertyOp35
 70
     0
102
RTVSPropertyOp36
 70
     0
102
RTVSPropertyOp37
 70
     0
102
RTVSPropertyOp38
 70
     0
102
RTVSPropertyOp39
 70
     0
102
RTVSPropertyOp40
 70
     0
102
RTVSPropertyOp41
 70
     0
102
RTVSPropertyOp42
 70
     0
102
RTVSPropertyOp43
 70
     0
102
RTVSPropertyOp44
 70
     0
102
RTVSPropertyOp45
 70
     0
102
RTVSPropertyOp46
 70
     0
102
RTVSPropertyOp47
 70
     0
102
RTVSPropertyOp48
 70
     0
102
RTVSPropertyOp49
 70
     0
102
RTVSPropertyOp50
 70
     0
102
RTVSPropertyOp51
 70
     0
102
RTVSPropertyOp52
 70
     0
102
RTVSPropertyOp53
 70
     0
102
RTVSPropertyOp54
 70
     0
102
RTVSPropertyOp55
 70
     0
102
RTVSPropertyOp56
 70
     0
102
RTVSPropertyOp57
 70
     0
102
RTVSPost2010Prop28
280
     0
102
RTVSPost2010PropOp28
 70
     0
102
RTVSPost2010Prop29
280
     1
102
RTVSPost2010PropOp29
 70
     0
102
RTVSPost2010Prop30
280
     1
102
RTVSPost2010PropOp30
 70
     0
102
RTVSPost2010Prop31
280
     0
102
RTVSPost2010PropOp31
 70
     0
102
RTVSPost2010Prop32
280
     0
102
RTVSPost2010PropOp32
 70
     0
102
RTVSPost2010Prop33
280
     0
102
RTVSPost2010PropOp33
 70
     0
102
RTVSPost2010Prop34
280
     0
102
RTVSPost2010PropOp34
 70
     0
102
RTVSPost2010Prop35
280
     0
102
RTVSPost2010PropOp35
 70
     0
102
RTVSPost2010Prop36
280
     0
102
RTVSPost2010PropOp36
 70
     0
102
RTVSPost2010Prop37
 90
       50
102
RTVSPost2010PropOp37
 70
     0
102
RTVSPost2010Prop38
140
0.0
102
RTVSPost2010PropOp38
 70
     0
102
RTVSPost2010Prop39
140
1.0
102
RTVSPost2010PropOp39
 70
     0
102
RTVSPost2010Prop40
 90
        0
102
RTVSPost2010PropOp40
 70
     0
102
RTVSPost2010Prop41ColorIndex
 90
       18
102
RTVSPost2010Prop41ColorRGB
 90
        0
102
RTVSPost2010PropOp41
 70
     0
102
RTVSPost2010Prop42
 90
       50
102
RTVSPost2010PropOp42
 70
     0
102
RTVSPost2010Prop43
 90
        3
102
RTVSPost2010PropOp43
 70
     0
102
RTVSPost2010Prop44ColorIndex
 90
        5
102
RTVSPost2010Prop44ColorRGB
 90
      255
102
RTVSPost2010PropOp44
 70
     0
102
RTVSPost2010Prop45
280
     0
102
RTVSPost2010PropOp45
 70
     0
102
RTVSPost2010Prop46
 90
       50
102
RTVSPost2010PropOp46
 70
     0
102
RTVSPost2010Prop47
 90
       50
102
RTVSPost2010PropOp47
 70
     0
102
RTVSPost2010Prop48
 90
       50
102
RTVSPost2010PropOp48
 70
     0
102
RTVSPost2010Prop49
280
     0
102
RTVSPost2010PropOp49
 70
     0
102
RTVSPost2010Prop50
 90
       50
102
RTVSPost2010PropOp50
 70
     0
102
RTVSPost2010Prop51ColorIndex
 90
      256
102
RTVSPost2010Prop51ColorRGB
 90
-16777216
102
RTVSPost2010PropOp51
 70
     0
102
RTVSPost2010Prop52
140
1.0
102
RTVSPost2010PropOp52
 70
     0
102
RTVSPost2010Prop53
 90
        2
102
RTVSPost2010PropOp53
 70
     0
102
RTVSPost2010Prop54
  1
strokes_ogs.tif
102
RTVSPost2010PropOp54
 70
     0
102
RTVSPost2010Prop55
280
     0
102
RTVSPost2010PropOp55
 70
     0
102
RTVSPost2010Prop56
140
1.0
102
RTVSPost2010PropOp56
 70
     0
102
RTVSPost2010Prop57
140
1.0
102
RTVSPost2010PropOp57
 70
     0
  0
XRECORD
  5
A7
102
{ACAD_REACTORS
330
A6
102
}
330
A6
100
AcDbXrecord
280
     1
102
RTVSPropertyOp0
 70
     1
102
RTVSPropertyOp1
 70
     1
102
RTVSPropertyOp2
 70
     1
102
RTVSPropertyOp3
 70
     1
102
RTVSPropertyOp4
 70
     1
102
RTVSPropertyOp5
 70
     1
102
RTVSPropertyOp6
 70
     1
102
RTVSPropertyOp7
 70
     1
102
RTVSPropertyOp8
 70
     1
102
RTVSPropertyOp9
 70
     1
102
RTVSPropertyOp10
 70
     1
102
RTVSPropertyOp11
 70
     1
102
RTVSPropertyOp12
 70
     1
102
RTVSPropertyOp13
 70
     1
102
RTVSPropertyOp14
 70
     1
102
RTVSPropertyOp15
 70
     1
102
RTVSPropertyOp16
 70
     1
102
RTVSPropertyOp17
 70
     1
102
RTVSPropertyOp18
 70
     1
102
RTVSPropertyOp19
 70
     1
102
RTVSPropertyOp20
 70
     1
102
RTVSPropertyOp21
 70
     1
102
RTVSPropertyOp22
 70
     1
102
RTVSPropertyOp23
 70
     1
102
RTVSPropertyOp24
 70
     1
102
RTVSPropertyOp25
 70
     1
102
RTVSPropertyOp26
 70
     1
102
RTVSPropertyOp27
 70
     1
102
RTVSPropertyOp28
 70
     1
102
RTVSPropertyOp29
 70
     1
102
RTVSPropertyOp30
 70
     1
102
RTVSPropertyOp31
 70
     1
102
RTVSPropertyOp32
 70
     1
102
RTVSPropertyOp33
 70
     1
102
RTVSPropertyOp34
 70
     1
102
RTVSPropertyOp35
 70
     1
102
RTVSPropertyOp36
 70
     1
102
RTVSPropertyOp37
 70
     1
102
RTVSPropertyOp38
 70
     1
102
RTVSPropertyOp39
 70
     1
102
RTVSPropertyOp40
 70
     1
102
RTVSPropertyOp41
 70
     1
102
RTVSPropertyOp42
 70
     1
102
RTVSPropertyOp43
 70
     1
102
RTVSPropertyOp44
 70
     1
102
RTVSPropertyOp45
 70
     1
102
RTVSPropertyOp46
 70
     1
102
RTVSPropertyOp47
 70
     1
102
RTVSPropertyOp48
 70
     1
102
RTVSPropertyOp49
 70
     1
102
RTVSPropertyOp50
 70
     1
102
RTVSPropertyOp51
 70
     0
102
RTVSPropertyOp52
 70
     0
102
RTVSPropertyOp53
 70
     1
102
RTVSPropertyOp54
 70
     1
102
RTVSPropertyOp55
 70
     1
102
RTVSPropertyOp56
 70
     1
102
RTVSPropertyOp57
 70
     1
102
RTVSPost2010Prop28
280
     0
102
RTVSPost2010PropOp28
 70
     1
102
RTVSPost2010Prop29
280
     1
102
RTVSPost2010PropOp29
 70
     1
102
RTVSPost2010Prop30
280
     1
102
RTVSPost2010PropOp30
 70
     1
102
RTVSPost2010Prop31
280
     0
102
RTVSPost2010PropOp31
 70
     1
102
RTVSPost2010Prop32
280
     0
102
RTVSPost2010PropOp32
 70
     1
102
RTVSPost2010Prop33
280
     0
102
RTVSPost2010PropOp33
 70
     1
102
RTVSPost2010Prop34
280
     0
102
RTVSPost2010PropOp34
 70
     1
102
RTVSPost2010Prop35
280
     0
102
RTVSPost2010PropOp35
 70
     1
102
RTVSPost2010Prop36
280
     0
102
RTVSPost2010PropOp36
 70
     1
102
RTVSPost2010Prop37
 90
       50
102
RTVSPost2010PropOp37
 70
     1
102
RTVSPost2010Prop38
140
0.0
102
RTVSPost2010PropOp38
 70
     1
102
RTVSPost2010Prop39
140
1.0
102
RTVSPost2010PropOp39
 70
     1
102
RTVSPost2010Prop40
 90
        0
102
RTVSPost2010PropOp40
 70
     1
102
RTVSPost2010Prop41ColorIndex
 90
       18
102
RTVSPost2010Prop41ColorRGB
 90
        0
102
RTVSPost2010PropOp41
 70
     1
102
RTVSPost2010Prop42
 90
       50
102
RTVSPost2010PropOp42
 70
     1
102
RTVSPost2010Prop43
 90
        3
102
RTVSPost2010PropOp43
 70
     1
102
RTVSPost2010Prop44ColorIndex
 90
        5
102
RTVSPost2010Prop44ColorRGB
 90
      255
102
RTVSPost2010PropOp44
 70
     1
102
RTVSPost2010Prop45
280
     0
102
RTVSPost2010PropOp45
 70
     1
102
RTVSPost2010Prop46
 90
       50
102
RTVSPost2010PropOp46
 70
     1
102
RTVSPost2010Prop47
 90
       50
102
RTVSPost2010PropOp47
 70
     1
102
RTVSPost2010Prop48
 90
       50
102
RTVSPost2010PropOp48
 70
     1
102
RTVSPost2010Prop49
280
     0
102
RTVSPost2010PropOp49
 70
     1
102
RTVSPost2010Prop50
 90
       50
102
RTVSPost2010PropOp50
 70
     1
102
RTVSPost2010Prop51ColorIndex
 90
      256
102
RTVSPost2010Prop51ColorRGB
 90
-16777216
102
RTVSPost2010PropOp51
 70
     0
102
RTVSPost2010Prop52
140
1.0
102
RTVSPost2010PropOp52
 70
     0
102
RTVSPost2010Prop53
 90
        2
102
RTVSPost2010PropOp53
 70
     1
102
RTVSPost2010Prop54
  1
strokes_ogs.tif
102
RTVSPost2010PropOp54
 70
     1
102
RTVSPost2010Prop55
280
     0
102
RTVSPost2010PropOp55
 70
     1
102
RTVSPost2010Prop56
140
1.0
102
RTVSPost2010PropOp56
 70
     1
102
RTVSPost2010Prop57
140
1.0
102
RTVSPost2010PropOp57
 70
     1
  0
XRECORD
  5
8B
102
{ACAD_REACTORS
330
8A
102
}
330
8A
100
AcDbXrecord
280
     1
102
RTVSPropertyOp0
 70
     1
102
RTVSPropertyOp1
 70
     1
102
RTVSPropertyOp2
 70
     1
102
RTVSPropertyOp3
 70
     1
102
RTVSPropertyOp4
 70
     1
102
RTVSPropertyOp5
 70
     1
102
RTVSPropertyOp6
 70
     1
102
RTVSPropertyOp7
 70
     1
102
RTVSPropertyOp8
 70
     1
102
RTVSPropertyOp9
 70
     1
102
RTVSPropertyOp10
 70
     1
102
RTVSPropertyOp11
 70
     1
102
RTVSPropertyOp12
 70
     1
102
RTVSPropertyOp13
 70
     1
102
RTVSPropertyOp14
 70
     1
102
RTVSPropertyOp15
 70
     1
102
RTVSPropertyOp16
 70
     1
102
RTVSPropertyOp17
 70
     1
102
RTVSPropertyOp18
 70
     1
102
RTVSPropertyOp19
 70
     1
102
RTVSPropertyOp20
 70
     1
102
RTVSPropertyOp21
 70
     1
102
RTVSPropertyOp22
 70
     1
102
RTVSPropertyOp23
 70
     1
102
RTVSPropertyOp24
 70
     1
102
RTVSPropertyOp25
 70
     1
102
RTVSPropertyOp26
 70
     1
102
RTVSPropertyOp27
 70
     1
102
RTVSPropertyOp28
 70
     1
102
RTVSPropertyOp29
 70
     1
102
RTVSPropertyOp30
 70
     1
102
RTVSPropertyOp31
 70
     1
102
RTVSPropertyOp32
 70
     1
102
RTVSPropertyOp33
 70
     1
102
RTVSPropertyOp34
 70
     1
102
RTVSPropertyOp35
 70
     1
102
RTVSPropertyOp36
 70
     1
102
RTVSPropertyOp37
 70
     1
102
RTVSPropertyOp38
 70
     1
102
RTVSPropertyOp39
 70
     1
102
RTVSPropertyOp40
 70
     1
102
RTVSPropertyOp41
 70
     1
102
RTVSPropertyOp42
 70
     1
102
RTVSPropertyOp43
 70
     1
102
RTVSPropertyOp44
 70
     1
102
RTVSPropertyOp45
 70
     1
102
RTVSPropertyOp46
 70
     1
102
RTVSPropertyOp47
 70
     1
102
RTVSPropertyOp48
 70
     1
102
RTVSPropertyOp49
 70
     1
102
RTVSPropertyOp50
 70
     1
102
RTVSPropertyOp51
 70
     0
102
RTVSPropertyOp52
 70
     0
102
RTVSPropertyOp53
 70
     1
102
RTVSPropertyOp54
 70
     1
102
RTVSPropertyOp55
 70
     1
102
RTVSPropertyOp56
 70
     1
102
RTVSPropertyOp57
 70
     1
102
RTVSPost2010Prop28
280
     0
102
RTVSPost2010PropOp28
 70
     1
102
RTVSPost2010Prop29
280
     1
102
RTVSPost2010PropOp29
 70
     1
102
RTVSPost2010Prop30
280
     1
102
RTVSPost2010PropOp30
 70
     1
102
RTVSPost2010Prop31
280
     0
102
RTVSPost2010PropOp31
 70
     1
102
RTVSPost2010Prop32
280
     0
102
RTVSPost2010PropOp32
 70
     1
102
RTVSPost2010Prop33
280
     0
102
RTVSPost2010PropOp33
 70
     1
102
RTVSPost2010Prop34
280
     0
102
RTVSPost2010PropOp34
 70
     1
102
RTVSPost2010Prop35
280
     0
102
RTVSPost2010PropOp35
 70
     1
102
RTVSPost2010Prop36
280
     0
102
RTVSPost2010PropOp36
 70
     1
102
RTVSPost2010Prop37
 90
       50
102
RTVSPost2010PropOp37
 70
     1
102
RTVSPost2010Prop38
140
0.0
102
RTVSPost2010PropOp38
 70
     1
102
RTVSPost2010Prop39
140
1.0
102
RTVSPost2010PropOp39
 70
     1
102
RTVSPost2010Prop40
 90
        0
102
RTVSPost2010PropOp40
 70
     1
102
RTVSPost2010Prop41ColorIndex
 90
       18
102
RTVSPost2010Prop41ColorRGB
 90
        0
102
RTVSPost2010PropOp41
 70
     1
102
RTVSPost2010Prop42
 90
       50
102
RTVSPost2010PropOp42
 70
     1
102
RTVSPost2010Prop43
 90
        3
102
RTVSPost2010PropOp43
 70
     1
102
RTVSPost2010Prop44ColorIndex
 90
        5
102
RTVSPost2010Prop44ColorRGB
 90
      255
102
RTVSPost2010PropOp44
 70
     1
102
RTVSPost2010Prop45
280
     0
102
RTVSPost2010PropOp45
 70
     1
102
RTVSPost2010Prop46
 90
       50
102
RTVSPost2010PropOp46
 70
     1
102
RTVSPost2010Prop47
 90
       50
102
RTVSPost2010PropOp47
 70
     1
102
RTVSPost2010Prop48
 90
       50
102
RTVSPost2010PropOp48
 70
     1
102
RTVSPost2010Prop49
280
     0
102
RTVSPost2010PropOp49
 70
     1
102
RTVSPost2010Prop50
 90
       50
102
RTVSPost2010PropOp50
 70
     1
102
RTVSPost2010Prop51ColorIndex
 90
      256
102
RTVSPost2010Prop51ColorRGB
 90
-16777216
102
RTVSPost2010PropOp51
 70
     0
102
RTVSPost2010Prop52
140
1.0
102
RTVSPost2010PropOp52
 70
     0
102
RTVSPost2010Prop53
 90
        2
102
RTVSPost2010PropOp53
 70
     1
102
RTVSPost2010Prop54
  1
strokes_ogs.tif
102
RTVSPost2010PropOp54
 70
     1
102
RTVSPost2010Prop55
280
     0
102
RTVSPost2010PropOp55
 70
     1
102
RTVSPost2010Prop56
140
1.0
102
RTVSPost2010PropOp56
 70
     1
102
RTVSPost2010Prop57
140
1.0
102
RTVSPost2010PropOp57
 70
     1
  0
XRECORD
  5
8D
102
{ACAD_REACTORS
330
8C
102
}
330
8C
100
AcDbXrecord
280
     1
102
RTVSPropertyOp0
 70
     1
102
RTVSPropertyOp1
 70
     1
102
RTVSPropertyOp2
 70
     1
102
RTVSPropertyOp3
 70
     1
102
RTVSPropertyOp4
 70
     1
102
RTVSPropertyOp5
 70
     1
102
RTVSPropertyOp6
 70
     1
102
RTVSPropertyOp7
 70
     1
102
RTVSPropertyOp8
 70
     1
102
RTVSPropertyOp9
 70
     1
102
RTVSPropertyOp10
 70
     1
102
RTVSPropertyOp11
 70
     1
102
RTVSPropertyOp12
 70
     1
102
RTVSPropertyOp13
 70
     1
102
RTVSPropertyOp14
 70
     1
102
RTVSPropertyOp15
 70
     1
102
RTVSPropertyOp16
 70
     1
102
RTVSPropertyOp17
 70
     1
102
RTVSPropertyOp18
 70
     1
102
RTVSPropertyOp19
 70
     1
102
RTVSPropertyOp20
 70
     1
102
RTVSPropertyOp21
 70
     1
102
RTVSPropertyOp22
 70
     1
102
RTVSPropertyOp23
 70
     1
102
RTVSPropertyOp24
 70
     1
102
RTVSPropertyOp25
 70
     1
102
RTVSPropertyOp26
 70
     1
102
RTVSPropertyOp27
 70
     1
102
RTVSPropertyOp28
 70
     1
102
RTVSPropertyOp29
 70
     1
102
RTVSPropertyOp30
 70
     1
102
RTVSPropertyOp31
 70
     1
102
RTVSPropertyOp32
 70
     1
102
RTVSPropertyOp33
 70
     1
102
RTVSPropertyOp34
 70
     1
102
RTVSPropertyOp35
 70
     1
102
RTVSPropertyOp36
 70
     1
102
RTVSPropertyOp37
 70
     1
102
RTVSPropertyOp38
 70
     1
102
RTVSPropertyOp39
 70
     1
102
RTVSPropertyOp40
 70
     1
102
RTVSPropertyOp41
 70
     1
102
RTVSPropertyOp42
 70
     1
102
RTVSPropertyOp43
 70
     1
102
RTVSPropertyOp44
 70
     1
102
RTVSPropertyOp45
 70
     1
102
RTVSPropertyOp46
 70
     1
102
RTVSPropertyOp47
 70
     1
102
RTVSPropertyOp48
 70
     1
102
RTVSPropertyOp49
 70
     1
102
RTVSPropertyOp50
 70
     1
102
RTVSPropertyOp51
 70
     0
102
RTVSPropertyOp52
 70
     0
102
RTVSPropertyOp53
 70
     1
102
RTVSPropertyOp54
 70
     1
102
RTVSPropertyOp55
 70
     1
102
RTVSPropertyOp56
 70
     1
102
RTVSPropertyOp57
 70
     1
102
RTVSPost2010Prop28
280
     0
102
RTVSPost2010PropOp28
 70
     1
102
RTVSPost2010Prop29
280
     1
102
RTVSPost2010PropOp29
 70
     1
102
RTVSPost2010Prop30
280
     1
102
RTVSPost2010PropOp30
 70
     1
102
RTVSPost2010Prop31
280
     0
102
RTVSPost2010PropOp31
 70
     1
102
RTVSPost2010Prop32
280
     0
102
RTVSPost2010PropOp32
 70
     1
102
RTVSPost2010Prop33
280
     0
102
RTVSPost2010PropOp33
 70
     1
102
RTVSPost2010Prop34
280
     0
102
RTVSPost2010PropOp34
 70
     1
102
RTVSPost2010Prop35
280
     0
102
RTVSPost2010PropOp35
 70
     1
102
RTVSPost2010Prop36
280
     0
102
RTVSPost2010PropOp36
 70
     1
102
RTVSPost2010Prop37
 90
       50
102
RTVSPost2010PropOp37
 70
     1
102
RTVSPost2010Prop38
140
0.0
102
RTVSPost2010PropOp38
 70
     1
102
RTVSPost2010Prop39
140
1.0
102
RTVSPost2010PropOp39
 70
     1
102
RTVSPost2010Prop40
 90
        0
102
RTVSPost2010PropOp40
 70
     1
102
RTVSPost2010Prop41ColorIndex
 90
       18
102
RTVSPost2010Prop41ColorRGB
 90
        0
102
RTVSPost2010PropOp41
 70
     1
102
RTVSPost2010Prop42
 90
       50
102
RTVSPost2010PropOp42
 70
     1
102
RTVSPost2010Prop43
 90
        3
102
RTVSPost2010PropOp43
 70
     1
102
RTVSPost2010Prop44ColorIndex
 90
        5
102
RTVSPost2010Prop44ColorRGB
 90
      255
102
RTVSPost2010PropOp44
 70
     1
102
RTVSPost2010Prop45
280
     0
102
RTVSPost2010PropOp45
 70
     1
102
RTVSPost2010Prop46
 90
       50
102
RTVSPost2010PropOp46
 70
     1
102
RTVSPost2010Prop47
 90
       50
102
RTVSPost2010PropOp47
 70
     1
102
RTVSPost2010Prop48
 90
       50
102
RTVSPost2010PropOp48
 70
     1
102
RTVSPost2010Prop49
280
     0
102
RTVSPost2010PropOp49
 70
     1
102
RTVSPost2010Prop50
 90
       50
102
RTVSPost2010PropOp50
 70
     1
102
RTVSPost2010Prop51ColorIndex
 90
      256
102
RTVSPost2010Prop51ColorRGB
 90
-16777216
102
RTVSPost2010PropOp51
 70
     0
102
RTVSPost2010Prop52
140
1.0
102
RTVSPost2010PropOp52
 70
     0
102
RTVSPost2010Prop53
 90
        2
102
RTVSPost2010PropOp53
 70
     1
102
RTVSPost2010Prop54
  1
strokes_ogs.tif
102
RTVSPost2010PropOp54
 70
     1
102
RTVSPost2010Prop55
280
     0
102
RTVSPost2010PropOp55
 70
     1
102
RTVSPost2010Prop56
140
1.0
102
RTVSPost2010PropOp56
 70
     1
102
RTVSPost2010Prop57
140
1.0
102
RTVSPost2010PropOp57
 70
     1
  0
XRECORD
  5
8F
102
{ACAD_REACTORS
330
8E
102
}
330
8E
100
AcDbXrecord
280
     1
102
RTVSPropertyOp0
 70
     1
102
RTVSPropertyOp1
 70
     1
102
RTVSPropertyOp2
 70
     1
102
RTVSPropertyOp3
 70
     1
102
RTVSPropertyOp4
 70
     1
102
RTVSPropertyOp5
 70
     1
102
RTVSPropertyOp6
 70
     1
102
RTVSPropertyOp7
 70
     1
102
RTVSPropertyOp8
 70
     1
102
RTVSPropertyOp9
 70
     1
102
RTVSPropertyOp10
 70
     1
102
RTVSPropertyOp11
 70
     1
102
RTVSPropertyOp12
 70
     1
102
RTVSPropertyOp13
 70
     1
102
RTVSPropertyOp14
 70
     1
102
RTVSPropertyOp15
 70
     1
102
RTVSPropertyOp16
 70
     1
102
RTVSPropertyOp17
 70
     1
102
RTVSPropertyOp18
 70
     1
102
RTVSPropertyOp19
 70
     1
102
RTVSPropertyOp20
 70
     1
102
RTVSPropertyOp21
 70
     1
102
RTVSPropertyOp22
 70
     1
102
RTVSPropertyOp23
 70
     1
102
RTVSPropertyOp24
 70
     1
102
RTVSPropertyOp25
 70
     1
102
RTVSPropertyOp26
 70
     1
102
RTVSPropertyOp27
 70
     1
102
RTVSPropertyOp28
 70
     1
102
RTVSPropertyOp29
 70
     1
102
RTVSPropertyOp30
 70
     1
102
RTVSPropertyOp31
 70
     1
102
RTVSPropertyOp32
 70
     1
102
RTVSPropertyOp33
 70
     1
102
RTVSPropertyOp34
 70
     1
102
RTVSPropertyOp35
 70
     1
102
RTVSPropertyOp36
 70
     1
102
RTVSPropertyOp37
 70
     1
102
RTVSPropertyOp38
 70
     1
102
RTVSPropertyOp39
 70
     1
102
RTVSPropertyOp40
 70
     1
102
RTVSPropertyOp41
 70
     1
102
RTVSPropertyOp42
 70
     1
102
RTVSPropertyOp43
 70
     1
102
RTVSPropertyOp44
 70
     1
102
RTVSPropertyOp45
 70
     1
102
RTVSPropertyOp46
 70
     1
102
RTVSPropertyOp47
 70
     1
102
RTVSPropertyOp48
 70
     1
102
RTVSPropertyOp49
 70
     1
102
RTVSPropertyOp50
 70
     1
102
RTVSPropertyOp51
 70
     0
102
RTVSPropertyOp52
 70
     0
102
RTVSPropertyOp53
 70
     1
102
RTVSPropertyOp54
 70
     1
102
RTVSPropertyOp55
 70
     1
102
RTVSPropertyOp56
 70
     1
102
RTVSPropertyOp57
 70
     1
102
RTVSPost2010Prop28
280
     0
102
RTVSPost2010PropOp28
 70
     1
102
RTVSPost2010Prop29
280
     1
102
RTVSPost2010PropOp29
 70
     1
102
RTVSPost2010Prop30
280
     1
102
RTVSPost2010PropOp30
 70
     1
102
RTVSPost2010Prop31
280
     0
102
RTVSPost2010PropOp31
 70
     1
102
RTVSPost2010Prop32
280
     0
102
RTVSPost2010PropOp32
 70
     1
102
RTVSPost2010Prop33
280
     0
102
RTVSPost2010PropOp33
 70
     1
102
RTVSPost2010Prop34
280
     0
102
RTVSPost2010PropOp34
 70
     1
102
RTVSPost2010Prop35
280
     0
102
RTVSPost2010PropOp35
 70
     1
102
RTVSPost2010Prop36
280
     0
102
RTVSPost2010PropOp36
 70
     1
102
RTVSPost2010Prop37
 90
       50
102
RTVSPost2010PropOp37
 70
     1
102
RTVSPost2010Prop38
140
0.0
102
RTVSPost2010PropOp38
 70
     1
102
RTVSPost2010Prop39
140
1.0
102
RTVSPost2010PropOp39
 70
     1
102
RTVSPost2010Prop40
 90
        0
102
RTVSPost2010PropOp40
 70
     1
102
RTVSPost2010Prop41ColorIndex
 90
       18
102
RTVSPost2010Prop41ColorRGB
 90
        0
102
RTVSPost2010PropOp41
 70
     1
102
RTVSPost2010Prop42
 90
       50
102
RTVSPost2010PropOp42
 70
     1
102
RTVSPost2010Prop43
 90
        3
102
RTVSPost2010PropOp43
 70
     1
102
RTVSPost2010Prop44ColorIndex
 90
        5
102
RTVSPost2010Prop44ColorRGB
 90
      255
102
RTVSPost2010PropOp44
 70
     1
102
RTVSPost2010Prop45
280
     0
102
RTVSPost2010PropOp45
 70
     1
102
RTVSPost2010Prop46
 90
       50
102
RTVSPost2010PropOp46
 70
     1
102
RTVSPost2010Prop47
 90
       50
102
RTVSPost2010PropOp47
 70
     1
102
RTVSPost2010Prop48
 90
       50
102
RTVSPost2010PropOp48
 70
     1
102
RTVSPost2010Prop49
280
     0
102
RTVSPost2010PropOp49
 70
     1
102
RTVSPost2010Prop50
 90
       50
102
RTVSPost2010PropOp50
 70
     1
102
RTVSPost2010Prop51ColorIndex
 90
      256
102
RTVSPost2010Prop51ColorRGB
 90
-16777216
102
RTVSPost2010PropOp51
 70
     0
102
RTVSPost2010Prop52
140
1.0
102
RTVSPost2010PropOp52
 70
     0
102
RTVSPost2010Prop53
 90
        2
102
RTVSPost2010PropOp53
 70
     1
102
RTVSPost2010Prop54
  1
strokes_ogs.tif
102
RTVSPost2010PropOp54
 70
     1
102
RTVSPost2010Prop55
280
     0
102
RTVSPost2010PropOp55
 70
     1
102
RTVSPost2010Prop56
140
1.0
102
RTVSPost2010PropOp56
 70
     1
102
RTVSPost2010Prop57
140
1.0
102
RTVSPost2010PropOp57
 70
     1
  0
XRECORD
  5
91
102
{ACAD_REACTORS
330
90
102
}
330
90
100
AcDbXrecord
280
     1
102
RTVSPropertyOp0
 70
     1
102
RTVSPropertyOp1
 70
     1
102
RTVSPropertyOp2
 70
     1
102
RTVSPropertyOp3
 70
     1
102
RTVSPropertyOp4
 70
     1
102
RTVSPropertyOp5
 70
     1
102
RTVSPropertyOp6
 70
     1
102
RTVSPropertyOp7
 70
     1
102
RTVSPropertyOp8
 70
     1
102
RTVSPropertyOp9
 70
     1
102
RTVSPropertyOp10
 70
     1
102
RTVSPropertyOp11
 70
     1
102
RTVSPropertyOp12
 70
     1
102
RTVSPropertyOp13
 70
     1
102
RTVSPropertyOp14
 70
     1
102
RTVSPropertyOp15
 70
     1
102
RTVSPropertyOp16
 70
     1
102
RTVSPropertyOp17
 70
     1
102
RTVSPropertyOp18
 70
     1
102
RTVSPropertyOp19
 70
     1
102
RTVSPropertyOp20
 70
     1
102
RTVSPropertyOp21
 70
     1
102
RTVSPropertyOp22
 70
     1
102
RTVSPropertyOp23
 70
     1
102
RTVSPropertyOp24
 70
     1
102
RTVSPropertyOp25
 70
     1
102
RTVSPropertyOp26
 70
     1
102
RTVSPropertyOp27
 70
     1
102
RTVSPropertyOp28
 70
     1
102
RTVSPropertyOp29
 70
     1
102
RTVSPropertyOp30
 70
     1
102
RTVSPropertyOp31
 70
     1
102
RTVSPropertyOp32
 70
     1
102
RTVSPropertyOp33
 70
     1
102
RTVSPropertyOp34
 70
     1
102
RTVSPropertyOp35
 70
     1
102
RTVSPropertyOp36
 70
     1
102
RTVSPropertyOp37
 70
     1
102
RTVSPropertyOp38
 70
     1
102
RTVSPropertyOp39
 70
     1
102
RTVSPropertyOp40
 70
     1
102
RTVSPropertyOp41
 70
     1
102
RTVSPropertyOp42
 70
     1
102
RTVSPropertyOp43
 70
     1
102
RTVSPropertyOp44
 70
     1
102
RTVSPropertyOp45
 70
     1
102
RTVSPropertyOp46
 70
     1
102
RTVSPropertyOp47
 70
     1
102
RTVSPropertyOp48
 70
     1
102
RTVSPropertyOp49
 70
     1
102
RTVSPropertyOp50
 70
     1
102
RTVSPropertyOp51
 70
     0
102
RTVSPropertyOp52
 70
     0
102
RTVSPropertyOp53
 70
     1
102
RTVSPropertyOp54
 70
     1
102
RTVSPropertyOp55
 70
     1
102
RTVSPropertyOp56
 70
     1
102
RTVSPropertyOp57
 70
     1
102
RTVSPost2010Prop28
280
     0
102
RTVSPost2010PropOp28
 70
     1
102
RTVSPost2010Prop29
280
     1
102
RTVSPost2010PropOp29
 70
     1
102
RTVSPost2010Prop30
280
     1
102
RTVSPost2010PropOp30
 70
     1
102
RTVSPost2010Prop31
280
     0
102
RTVSPost2010PropOp31
 70
     1
102
RTVSPost2010Prop32
280
     0
102
RTVSPost2010PropOp32
 70
     1
102
RTVSPost2010Prop33
280
     0
102
RTVSPost2010PropOp33
 70
     1
102
RTVSPost2010Prop34
280
     0
102
RTVSPost2010PropOp34
 70
     1
102
RTVSPost2010Prop35
280
     0
102
RTVSPost2010PropOp35
 70
     1
102
RTVSPost2010Prop36
280
     0
102
RTVSPost2010PropOp36
 70
     1
102
RTVSPost2010Prop37
 90
       50
102
RTVSPost2010PropOp37
 70
     1
102
RTVSPost2010Prop38
140
0.0
102
RTVSPost2010PropOp38
 70
     1
102
RTVSPost2010Prop39
140
1.0
102
RTVSPost2010PropOp39
 70
     1
102
RTVSPost2010Prop40
 90
        0
102
RTVSPost2010PropOp40
 70
     1
102
RTVSPost2010Prop41ColorIndex
 90
       18
102
RTVSPost2010Prop41ColorRGB
 90
        0
102
RTVSPost2010PropOp41
 70
     1
102
RTVSPost2010Prop42
 90
       50
102
RTVSPost2010PropOp42
 70
     1
102
RTVSPost2010Prop43
 90
        3
102
RTVSPost2010PropOp43
 70
     1
102
RTVSPost2010Prop44ColorIndex
 90
        5
102
RTVSPost2010Prop44ColorRGB
 90
      255
102
RTVSPost2010PropOp44
 70
     1
102
RTVSPost2010Prop45
280
     0
102
RTVSPost2010PropOp45
 70
     1
102
RTVSPost2010Prop46
 90
       50
102
RTVSPost2010PropOp46
 70
     1
102
RTVSPost2010Prop47
 90
       50
102
RTVSPost2010PropOp47
 70
     1
102
RTVSPost2010Prop48
 90
       50
102
RTVSPost2010PropOp48
 70
     1
102
RTVSPost2010Prop49
280
     0
102
RTVSPost2010PropOp49
 70
     1
102
RTVSPost2010Prop50
 90
       50
102
RTVSPost2010PropOp50
 70
     1
102
RTVSPost2010Prop51ColorIndex
 90
      256
102
RTVSPost2010Prop51ColorRGB
 90
-16777216
102
RTVSPost2010PropOp51
 70
     0
102
RTVSPost2010Prop52
140
1.0
102
RTVSPost2010PropOp52
 70
     0
102
RTVSPost2010Prop53
 90
        2
102
RTVSPost2010PropOp53
 70
     1
102
RTVSPost2010Prop54
  1
strokes_ogs.tif
102
RTVSPost2010PropOp54
 70
     1
102
RTVSPost2010Prop55
280
     0
102
RTVSPost2010PropOp55
 70
     1
102
RTVSPost2010Prop56
140
1.0
102
RTVSPost2010PropOp56
 70
     1
102
RTVSPost2010Prop57
140
1.0
102
RTVSPost2010PropOp57
 70
     1
  0
XRECORD
  5
97
102
{ACAD_REACTORS
330
96
102
}
330
96
100
AcDbXrecord
280
     1
102
RTVSPropertyOp0
 70
     1
102
RTVSPropertyOp1
 70
     1
102
RTVSPropertyOp2
 70
     1
102
RTVSPropertyOp3
 70
     1
102
RTVSPropertyOp4
 70
     1
102
RTVSPropertyOp5
 70
     1
102
RTVSPropertyOp6
 70
     1
102
RTVSPropertyOp7
 70
     1
102
RTVSPropertyOp8
 70
     1
102
RTVSPropertyOp9
 70
     1
102
RTVSPropertyOp10
 70
     1
102
RTVSPropertyOp11
 70
     1
102
RTVSPropertyOp12
 70
     1
102
RTVSPropertyOp13
 70
     1
102
RTVSPropertyOp14
 70
     1
102
RTVSPropertyOp15
 70
     1
102
RTVSPropertyOp16
 70
     1
102
RTVSPropertyOp17
 70
     1
102
RTVSPropertyOp18
 70
     1
102
RTVSPropertyOp19
 70
     1
102
RTVSPropertyOp20
 70
     1
102
RTVSPropertyOp21
 70
     1
102
RTVSPropertyOp22
 70
     1
102
RTVSPropertyOp23
 70
     1
102
RTVSPropertyOp24
 70
     1
102
RTVSPropertyOp25
 70
     1
102
RTVSPropertyOp26
 70
     1
102
RTVSPropertyOp27
 70
     1
102
RTVSPropertyOp28
 70
     1
102
RTVSPropertyOp29
 70
     1
102
RTVSPropertyOp30
 70
     1
102
RTVSPropertyOp31
 70
     1
102
RTVSPropertyOp32
 70
     1
102
RTVSPropertyOp33
 70
     1
102
RTVSPropertyOp34
 70
     1
102
RTVSPropertyOp35
 70
     1
102
RTVSPropertyOp36
 70
     1
102
RTVSPropertyOp37
 70
     1
102
RTVSPropertyOp38
 70
     1
102
RTVSPropertyOp39
 70
     1
102
RTVSPropertyOp40
 70
     1
102
RTVSPropertyOp41
 70
     1
102
RTVSPropertyOp42
 70
     1
102
RTVSPropertyOp43
 70
     1
102
RTVSPropertyOp44
 70
     1
102
RTVSPropertyOp45
 70
     1
102
RTVSPropertyOp46
 70
     1
102
RTVSPropertyOp47
 70
     1
102
RTVSPropertyOp48
 70
     1
102
RTVSPropertyOp49
 70
     1
102
RTVSPropertyOp50
 70
     1
102
RTVSPropertyOp51
 70
     0
102
RTVSPropertyOp52
 70
     0
102
RTVSPropertyOp53
 70
     1
102
RTVSPropertyOp54
 70
     1
102
RTVSPropertyOp55
 70
     1
102
RTVSPropertyOp56
 70
     1
102
RTVSPropertyOp57
 70
     1
102
RTVSPost2010Prop28
280
     0
102
RTVSPost2010PropOp28
 70
     1
102
RTVSPost2010Prop29
280
     1
102
RTVSPost2010PropOp29
 70
     1
102
RTVSPost2010Prop30
280
     1
102
RTVSPost2010PropOp30
 70
     1
102
RTVSPost2010Prop31
280
     0
102
RTVSPost2010PropOp31
 70
     1
102
RTVSPost2010Prop32
280
     0
102
RTVSPost2010PropOp32
 70
     1
102
RTVSPost2010Prop33
280
     0
102
RTVSPost2010PropOp33
 70
     1
102
RTVSPost2010Prop34
280
     0
102
RTVSPost2010PropOp34
 70
     1
102
RTVSPost2010Prop35
280
     0
102
RTVSPost2010PropOp35
 70
     1
102
RTVSPost2010Prop36
280
     0
102
RTVSPost2010PropOp36
 70
     1
102
RTVSPost2010Prop37
 90
       50
102
RTVSPost2010PropOp37
 70
     1
102
RTVSPost2010Prop38
140
0.0
102
RTVSPost2010PropOp38
 70
     1
102
RTVSPost2010Prop39
140
1.0
102
RTVSPost2010PropOp39
 70
     1
102
RTVSPost2010Prop40
 90
        0
102
RTVSPost2010PropOp40
 70
     1
102
RTVSPost2010Prop41ColorIndex
 90
       18
102
RTVSPost2010Prop41ColorRGB
 90
        0
102
RTVSPost2010PropOp41
 70
     1
102
RTVSPost2010Prop42
 90
       50
102
RTVSPost2010PropOp42
 70
     1
102
RTVSPost2010Prop43
 90
        3
102
RTVSPost2010PropOp43
 70
     1
102
RTVSPost2010Prop44ColorIndex
 90
        5
102
RTVSPost2010Prop44ColorRGB
 90
      255
102
RTVSPost2010PropOp44
 70
     1
102
RTVSPost2010Prop45
280
     0
102
RTVSPost2010PropOp45
 70
     1
102
RTVSPost2010Prop46
 90
       50
102
RTVSPost2010PropOp46
 70
     1
102
RTVSPost2010Prop47
 90
       50
102
RTVSPost2010PropOp47
 70
     1
102
RTVSPost2010Prop48
 90
       50
102
RTVSPost2010PropOp48
 70
     1
102
RTVSPost2010Prop49
280
     0
102
RTVSPost2010PropOp49
 70
     1
102
RTVSPost2010Prop50
 90
       50
102
RTVSPost2010PropOp50
 70
     1
102
RTVSPost2010Prop51ColorIndex
 90
      256
102
RTVSPost2010Prop51ColorRGB
 90
-16777216
102
RTVSPost2010PropOp51
 70
     0
102
RTVSPost2010Prop52
140
1.0
102
RTVSPost2010PropOp52
 70
     0
102
RTVSPost2010Prop53
 90
        2
102
RTVSPost2010PropOp53
 70
     1
102
RTVSPost2010Prop54
  1
strokes_ogs.tif
102
RTVSPost2010PropOp54
 70
     1
102
RTVSPost2010Prop55
280
     0
102
RTVSPost2010PropOp55
 70
     1
102
RTVSPost2010Prop56
140
1.0
102
RTVSPost2010PropOp56
 70
     1
102
RTVSPost2010Prop57
140
1.0
102
RTVSPost2010PropOp57
 70
     1
  0
XRECORD
  5
AB
102
{ACAD_REACTORS
330
AA
102
}
330
AA
100
AcDbXrecord
280
     1
102
RTVSPropertyOp0
 70
     0
102
RTVSPropertyOp1
 70
     0
102
RTVSPropertyOp2
 70
     0
102
RTVSPropertyOp3
 70
     0
102
RTVSPropertyOp4
 70
     0
102
RTVSPropertyOp5
 70
     0
102
RTVSPropertyOp6
 70
     0
102
RTVSPropertyOp7
 70
     0
102
RTVSPropertyOp8
 70
     0
102
RTVSPropertyOp9
 70
     0
102
RTVSPropertyOp10
 70
     0
102
RTVSPropertyOp11
 70
     0
102
RTVSPropertyOp12
 70
     0
102
RTVSPropertyOp13
 70
     0
102
RTVSPropertyOp14
 70
     2
102
RTVSPropertyOp15
 70
     0
102
RTVSPropertyOp16
 70
     0
102
RTVSPropertyOp17
 70
     0
102
RTVSPropertyOp18
 70
     0
102
RTVSPropertyOp19
 70
     0
102
RTVSPropertyOp20
 70
     0
102
RTVSPropertyOp21
 70
     0
102
RTVSPropertyOp22
 70
     0
102
RTVSPropertyOp23
 70
     0
102
RTVSPropertyOp24
 70
     0
102
RTVSPropertyOp25
 70
     0
102
RTVSPropertyOp26
 70
     0
102
RTVSPropertyOp27
 70
     0
102
RTVSPropertyOp28
 70
     0
102
RTVSPropertyOp29
 70
     0
102
RTVSPropertyOp30
 70
     0
102
RTVSPropertyOp31
 70
     0
102
RTVSPropertyOp32
 70
     0
102
RTVSPropertyOp33
 70
     0
102
RTVSPropertyOp34
 70
     0
102
RTVSPropertyOp35
 70
     0
102
RTVSPropertyOp36
 70
     0
102
RTVSPropertyOp37
 70
     0
102
RTVSPropertyOp38
 70
     0
102
RTVSPropertyOp39
 70
     0
102
RTVSPropertyOp40
 70
     0
102
RTVSPropertyOp41
 70
     0
102
RTVSPropertyOp42
 70
     0
102
RTVSPropertyOp43
 70
     0
102
RTVSPropertyOp44
 70
     0
102
RTVSPropertyOp45
 70
     0
102
RTVSPropertyOp46
 70
     0
102
RTVSPropertyOp47
 70
     0
102
RTVSPropertyOp48
 70
     0
102
RTVSPropertyOp49
 70
     0
102
RTVSPropertyOp50
 70
     0
102
RTVSPropertyOp51
 70
     0
102
RTVSPropertyOp52
 70
     0
102
RTVSPropertyOp53
 70
     0
102
RTVSPropertyOp54
 70
     0
102
RTVSPropertyOp55
 70
     0
102
RTVSPropertyOp56
 70
     0
102
RTVSPropertyOp57
 70
     0
102
RTVSPost2010Prop28
280
     0
102
RTVSPost2010PropOp28
 70
     0
102
RTVSPost2010Prop29
280
     1
102
RTVSPost2010PropOp29
 70
     0
102
RTVSPost2010Prop30
280
     1
102
RTVSPost2010PropOp30
 70
     0
102
RTVSPost2010Prop31
280
     0
102
RTVSPost2010PropOp31
 70
     0
102
RTVSPost2010Prop32
280
     0
102
RTVSPost2010PropOp32
 70
     0
102
RTVSPost2010Prop33
280
     0
102
RTVSPost2010PropOp33
 70
     0
102
RTVSPost2010Prop34
280
     0
102
RTVSPost2010PropOp34
 70
     0
102
RTVSPost2010Prop35
280
     0
102
RTVSPost2010PropOp35
 70
     0
102
RTVSPost2010Prop36
280
     0
102
RTVSPost2010PropOp36
 70
     0
102
RTVSPost2010Prop37
 90
       50
102
RTVSPost2010PropOp37
 70
     0
102
RTVSPost2010Prop38
140
0.0
102
RTVSPost2010PropOp38
 70
     0
102
RTVSPost2010Prop39
140
1.0
102
RTVSPost2010PropOp39
 70
     0
102
RTVSPost2010Prop40
 90
        0
102
RTVSPost2010PropOp40
 70
     0
102
RTVSPost2010Prop41ColorIndex
 90
       18
102
RTVSPost2010Prop41ColorRGB
 90
        0
102
RTVSPost2010PropOp41
 70
     0
102
RTVSPost2010Prop42
 90
       50
102
RTVSPost2010PropOp42
 70
     0
102
RTVSPost2010Prop43
 90
        3
102
RTVSPost2010PropOp43
 70
     0
102
RTVSPost2010Prop44ColorIndex
 90
        5
102
RTVSPost2010Prop44ColorRGB
 90
      255
102
RTVSPost2010PropOp44
 70
     0
102
RTVSPost2010Prop45
280
     0
102
RTVSPost2010PropOp45
 70
     0
102
RTVSPost2010Prop46
 90
       50
102
RTVSPost2010PropOp46
 70
     0
102
RTVSPost2010Prop47
 90
       50
102
RTVSPost2010PropOp47
 70
     0
102
RTVSPost2010Prop48
 90
       50
102
RTVSPost2010PropOp48
 70
     0
102
RTVSPost2010Prop49
280
     0
102
RTVSPost2010PropOp49
 70
     0
102
RTVSPost2010Prop50
 90
       50
102
RTVSPost2010PropOp50
 70
     0
102
RTVSPost2010Prop51ColorIndex
 90
      256
102
RTVSPost2010Prop51ColorRGB
 90
-16777216
102
RTVSPost2010PropOp51
 70
     0
102
RTVSPost2010Prop52
140
1.0
102
RTVSPost2010PropOp52
 70
     0
102
RTVSPost2010Prop53
 90
        2
102
RTVSPost2010PropOp53
 70
     0
102
RTVSPost2010Prop54
  1
strokes_ogs.tif
102
RTVSPost2010PropOp54
 70
     0
102
RTVSPost2010Prop55
280
     0
102
RTVSPost2010PropOp55
 70
     0
102
RTVSPost2010Prop56
140
1.0
102
RTVSPost2010PropOp56
 70
     0
102
RTVSPost2010Prop57
140
1.0
102
RTVSPost2010PropOp57
 70
     0
  0
XRECORD
  5
A5
102
{ACAD_REACTORS
330
A4
102
}
330
A4
100
AcDbXrecord
280
     1
102
RTVSPropertyOp0
 70
     1
102
RTVSPropertyOp1
 70
     1
102
RTVSPropertyOp2
 70
     1
102
RTVSPropertyOp3
 70
     1
102
RTVSPropertyOp4
 70
     1
102
RTVSPropertyOp5
 70
     1
102
RTVSPropertyOp6
 70
     1
102
RTVSPropertyOp7
 70
     1
102
RTVSPropertyOp8
 70
     1
102
RTVSPropertyOp9
 70
     1
102
RTVSPropertyOp10
 70
     1
102
RTVSPropertyOp11
 70
     1
102
RTVSPropertyOp12
 70
     1
102
RTVSPropertyOp13
 70
     1
102
RTVSPropertyOp14
 70
     1
102
RTVSPropertyOp15
 70
     1
102
RTVSPropertyOp16
 70
     1
102
RTVSPropertyOp17
 70
     1
102
RTVSPropertyOp18
 70
     1
102
RTVSPropertyOp19
 70
     1
102
RTVSPropertyOp20
 70
     1
102
RTVSPropertyOp21
 70
     1
102
RTVSPropertyOp22
 70
     1
102
RTVSPropertyOp23
 70
     1
102
RTVSPropertyOp24
 70
     1
102
RTVSPropertyOp25
 70
     1
102
RTVSPropertyOp26
 70
     1
102
RTVSPropertyOp27
 70
     1
102
RTVSPropertyOp28
 70
     1
102
RTVSPropertyOp29
 70
     1
102
RTVSPropertyOp30
 70
     1
102
RTVSPropertyOp31
 70
     1
102
RTVSPropertyOp32
 70
     1
102
RTVSPropertyOp33
 70
     1
102
RTVSPropertyOp34
 70
     1
102
RTVSPropertyOp35
 70
     1
102
RTVSPropertyOp36
 70
     1
102
RTVSPropertyOp37
 70
     1
102
RTVSPropertyOp38
 70
     1
102
RTVSPropertyOp39
 70
     1
102
RTVSPropertyOp40
 70
     1
102
RTVSPropertyOp41
 70
     1
102
RTVSPropertyOp42
 70
     1
102
RTVSPropertyOp43
 70
     1
102
RTVSPropertyOp44
 70
     1
102
RTVSPropertyOp45
 70
     1
102
RTVSPropertyOp46
 70
     1
102
RTVSPropertyOp47
 70
     1
102
RTVSPropertyOp48
 70
     1
102
RTVSPropertyOp49
 70
     1
102
RTVSPropertyOp50
 70
     1
102
RTVSPropertyOp51
 70
     0
102
RTVSPropertyOp52
 70
     0
102
RTVSPropertyOp53
 70
     1
102
RTVSPropertyOp54
 70
     1
102
RTVSPropertyOp55
 70
     1
102
RTVSPropertyOp56
 70
     1
102
RTVSPropertyOp57
 70
     1
102
RTVSPost2010Prop28
280
     0
102
RTVSPost2010PropOp28
 70
     1
102
RTVSPost2010Prop29
280
     1
102
RTVSPost2010PropOp29
 70
     1
102
RTVSPost2010Prop30
280
     1
102
RTVSPost2010PropOp30
 70
     1
102
RTVSPost2010Prop31
280
     0
102
RTVSPost2010PropOp31
 70
     1
102
RTVSPost2010Prop32
280
     0
102
RTVSPost2010PropOp32
 70
     1
102
RTVSPost2010Prop33
280
     0
102
RTVSPost2010PropOp33
 70
     1
102
RTVSPost2010Prop34
280
     0
102
RTVSPost2010PropOp34
 70
     1
102
RTVSPost2010Prop35
280
     0
102
RTVSPost2010PropOp35
 70
     1
102
RTVSPost2010Prop36
280
     0
102
RTVSPost2010PropOp36
 70
     1
102
RTVSPost2010Prop37
 90
       50
102
RTVSPost2010PropOp37
 70
     1
102
RTVSPost2010Prop38
140
0.0
102
RTVSPost2010PropOp38
 70
     1
102
RTVSPost2010Prop39
140
1.0
102
RTVSPost2010PropOp39
 70
     1
102
RTVSPost2010Prop40
 90
        0
102
RTVSPost2010PropOp40
 70
     1
102
RTVSPost2010Prop41ColorIndex
 90
       18
102
RTVSPost2010Prop41ColorRGB
 90
        0
102
RTVSPost2010PropOp41
 70
     1
102
RTVSPost2010Prop42
 90
       50
102
RTVSPost2010PropOp42
 70
     1
102
RTVSPost2010Prop43
 90
        3
102
RTVSPost2010PropOp43
 70
     1
102
RTVSPost2010Prop44ColorIndex
 90
        5
102
RTVSPost2010Prop44ColorRGB
 90
      255
102
RTVSPost2010PropOp44
 70
     1
102
RTVSPost2010Prop45
280
     0
102
RTVSPost2010PropOp45
 70
     1
102
RTVSPost2010Prop46
 90
       50
102
RTVSPost2010PropOp46
 70
     1
102
RTVSPost2010Prop47
 90
       50
102
RTVSPost2010PropOp47
 70
     1
102
RTVSPost2010Prop48
 90
       50
102
RTVSPost2010PropOp48
 70
     1
102
RTVSPost2010Prop49
280
     0
102
RTVSPost2010PropOp49
 70
     1
102
RTVSPost2010Prop50
 90
       50
102
RTVSPost2010PropOp50
 70
     1
102
RTVSPost2010Prop51ColorIndex
 90
      256
102
RTVSPost2010Prop51ColorRGB
 90
-16777216
102
RTVSPost2010PropOp51
 70
     0
102
RTVSPost2010Prop52
140
1.0
102
RTVSPost2010PropOp52
 70
     0
102
RTVSPost2010Prop53
 90
        2
102
RTVSPost2010PropOp53
 70
     1
102
RTVSPost2010Prop54
  1
strokes_ogs.tif
102
RTVSPost2010PropOp54
 70
     1
102
RTVSPost2010Prop55
280
     0
102
RTVSPost2010PropOp55
 70
     1
102
RTVSPost2010Prop56
140
1.0
102
RTVSPost2010PropOp56
 70
     1
102
RTVSPost2010Prop57
140
1.0
102
RTVSPost2010PropOp57
 70
     1
  0
XRECORD
  5
AD
102
{ACAD_REACTORS
330
AC
102
}
330
AC
100
AcDbXrecord
280
     1
102
RTVSPropertyOp0
 70
     0
102
RTVSPropertyOp1
 70
     0
102
RTVSPropertyOp2
 70
     0
102
RTVSPropertyOp3
 70
     0
102
RTVSPropertyOp4
 70
     0
102
RTVSPropertyOp5
 70
     0
102
RTVSPropertyOp6
 70
     0
102
RTVSPropertyOp7
 70
     0
102
RTVSPropertyOp8
 70
     0
102
RTVSPropertyOp9
 70
     0
102
RTVSPropertyOp10
 70
     0
102
RTVSPropertyOp11
 70
     0
102
RTVSPropertyOp12
 70
     0
102
RTVSPropertyOp13
 70
     0
102
RTVSPropertyOp14
 70
     2
102
RTVSPropertyOp15
 70
     0
102
RTVSPropertyOp16
 70
     0
102
RTVSPropertyOp17
 70
     0
102
RTVSPropertyOp18
 70
     0
102
RTVSPropertyOp19
 70
     0
102
RTVSPropertyOp20
 70
     0
102
RTVSPropertyOp21
 70
     0
102
RTVSPropertyOp22
 70
     0
102
RTVSPropertyOp23
 70
     0
102
RTVSPropertyOp24
 70
     0
102
RTVSPropertyOp25
 70
     0
102
RTVSPropertyOp26
 70
     0
102
RTVSPropertyOp27
 70
     0
102
RTVSPropertyOp28
 70
     0
102
RTVSPropertyOp29
 70
     0
102
RTVSPropertyOp30
 70
     0
102
RTVSPropertyOp31
 70
     0
102
RTVSPropertyOp32
 70
     0
102
RTVSPropertyOp33
 70
     0
102
RTVSPropertyOp34
 70
     0
102
RTVSPropertyOp35
 70
     0
102
RTVSPropertyOp36
 70
     0
102
RTVSPropertyOp37
 70
     0
102
RTVSPropertyOp38
 70
     0
102
RTVSPropertyOp39
 70
     0
102
RTVSPropertyOp40
 70
     0
102
RTVSPropertyOp41
 70
     0
102
RTVSPropertyOp42
 70
     0
102
RTVSPropertyOp43
 70
     0
102
RTVSPropertyOp44
 70
     0
102
RTVSPropertyOp45
 70
     0
102
RTVSPropertyOp46
 70
     0
102
RTVSPropertyOp47
 70
     0
102
RTVSPropertyOp48
 70
     0
102
RTVSPropertyOp49
 70
     0
102
RTVSPropertyOp50
 70
     0
102
RTVSPropertyOp51
 70
     0
102
RTVSPropertyOp52
 70
     0
102
RTVSPropertyOp53
 70
     0
102
RTVSPropertyOp54
 70
     0
102
RTVSPropertyOp55
 70
     0
102
RTVSPropertyOp56
 70
     0
102
RTVSPropertyOp57
 70
     0
102
RTVSPost2010Prop28
280
     0
102
RTVSPost2010PropOp28
 70
     0
102
RTVSPost2010Prop29
280
     1
102
RTVSPost2010PropOp29
 70
     0
102
RTVSPost2010Prop30
280
     1
102
RTVSPost2010PropOp30
 70
     0
102
RTVSPost2010Prop31
280
     0
102
RTVSPost2010PropOp31
 70
     0
102
RTVSPost2010Prop32
280
     0
102
RTVSPost2010PropOp32
 70
     0
102
RTVSPost2010Prop33
280
     0
102
RTVSPost2010PropOp33
 70
     0
102
RTVSPost2010Prop34
280
     0
102
RTVSPost2010PropOp34
 70
     0
102
RTVSPost2010Prop35
280
     0
102
RTVSPost2010PropOp35
 70
     0
102
RTVSPost2010Prop36
280
     0
102
RTVSPost2010PropOp36
 70
     0
102
RTVSPost2010Prop37
 90
       50
102
RTVSPost2010PropOp37
 70
     0
102
RTVSPost2010Prop38
140
0.0
102
RTVSPost2010PropOp38
 70
     0
102
RTVSPost2010Prop39
140
1.0
102
RTVSPost2010PropOp39
 70
     0
102
RTVSPost2010Prop40
 90
        0
102
RTVSPost2010PropOp40
 70
     0
102
RTVSPost2010Prop41ColorIndex
 90
       18
102
RTVSPost2010Prop41ColorRGB
 90
        0
102
RTVSPost2010PropOp41
 70
     0
102
RTVSPost2010Prop42
 90
       50
102
RTVSPost2010PropOp42
 70
     0
102
RTVSPost2010Prop43
 90
        3
102
RTVSPost2010PropOp43
 70
     0
102
RTVSPost2010Prop44ColorIndex
 90
        5
102
RTVSPost2010Prop44ColorRGB
 90
      255
102
RTVSPost2010PropOp44
 70
     0
102
RTVSPost2010Prop45
280
     0
102
RTVSPost2010PropOp45
 70
     0
102
RTVSPost2010Prop46
 90
       50
102
RTVSPost2010PropOp46
 70
     0
102
RTVSPost2010Prop47
 90
       50
102
RTVSPost2010PropOp47
 70
     0
102
RTVSPost2010Prop48
 90
       50
102
RTVSPost2010PropOp48
 70
     0
102
RTVSPost2010Prop49
280
     0
102
RTVSPost2010PropOp49
 70
     0
102
RTVSPost2010Prop50
 90
       50
102
RTVSPost2010PropOp50
 70
     0
102
RTVSPost2010Prop51ColorIndex
 90
      256
102
RTVSPost2010Prop51ColorRGB
 90
-16777216
102
RTVSPost2010PropOp51
 70
     0
102
RTVSPost2010Prop52
140
1.0
102
RTVSPost2010PropOp52
 70
     0
102
RTVSPost2010Prop53
 90
        2
102
RTVSPost2010PropOp53
 70
     0
102
RTVSPost2010Prop54
  1
strokes_ogs.tif
102
RTVSPost2010PropOp54
 70
     0
102
RTVSPost2010Prop55
280
     0
102
RTVSPost2010PropOp55
 70
     0
102
RTVSPost2010Prop56
140
1.0
102
RTVSPost2010PropOp56
 70
     0
102
RTVSPost2010Prop57
140
1.0
102
RTVSPost2010PropOp57
 70
     0
  0
XRECORD
  5
9B
102
{ACAD_REACTORS
330
9A
102
}
330
9A
100
AcDbXrecord
280
     1
102
RTVSPropertyOp0
 70
     1
102
RTVSPropertyOp1
 70
     1
102
RTVSPropertyOp2
 70
     1
102
RTVSPropertyOp3
 70
     1
102
RTVSPropertyOp4
 70
     1
102
RTVSPropertyOp5
 70
     1
102
RTVSPropertyOp6
 70
     1
102
RTVSPropertyOp7
 70
     1
102
RTVSPropertyOp8
 70
     1
102
RTVSPropertyOp9
 70
     1
102
RTVSPropertyOp10
 70
     1
102
RTVSPropertyOp11
 70
     1
102
RTVSPropertyOp12
 70
     1
102
RTVSPropertyOp13
 70
     1
102
RTVSPropertyOp14
 70
     1
102
RTVSPropertyOp15
 70
     1
102
RTVSPropertyOp16
 70
     1
102
RTVSPropertyOp17
 70
     1
102
RTVSPropertyOp18
 70
     1
102
RTVSPropertyOp19
 70
     1
102
RTVSPropertyOp20
 70
     1
102
RTVSPropertyOp21
 70
     1
102
RTVSPropertyOp22
 70
     1
102
RTVSPropertyOp23
 70
     1
102
RTVSPropertyOp24
 70
     1
102
RTVSPropertyOp25
 70
     1
102
RTVSPropertyOp26
 70
     1
102
RTVSPropertyOp27
 70
     1
102
RTVSPropertyOp28
 70
     1
102
RTVSPropertyOp29
 70
     1
102
RTVSPropertyOp30
 70
     1
102
RTVSPropertyOp31
 70
     1
102
RTVSPropertyOp32
 70
     1
102
RTVSPropertyOp33
 70
     1
102
RTVSPropertyOp34
 70
     1
102
RTVSPropertyOp35
 70
     1
102
RTVSPropertyOp36
 70
     1
102
RTVSPropertyOp37
 70
     1
102
RTVSPropertyOp38
 70
     1
102
RTVSPropertyOp39
 70
     1
102
RTVSPropertyOp40
 70
     1
102
RTVSPropertyOp41
 70
     1
102
RTVSPropertyOp42
 70
     1
102
RTVSPropertyOp43
 70
     1
102
RTVSPropertyOp44
 70
     1
102
RTVSPropertyOp45
 70
     1
102
RTVSPropertyOp46
 70
     1
102
RTVSPropertyOp47
 70
     1
102
RTVSPropertyOp48
 70
     1
102
RTVSPropertyOp49
 70
     1
102
RTVSPropertyOp50
 70
     1
102
RTVSPropertyOp51
 70
     0
102
RTVSPropertyOp52
 70
     0
102
RTVSPropertyOp53
 70
     1
102
RTVSPropertyOp54
 70
     1
102
RTVSPropertyOp55
 70
     1
102
RTVSPropertyOp56
 70
     1
102
RTVSPropertyOp57
 70
     1
102
RTVSPost2010Prop28
280
     0
102
RTVSPost2010PropOp28
 70
     1
102
RTVSPost2010Prop29
280
     1
102
RTVSPost2010PropOp29
 70
     1
102
RTVSPost2010Prop30
280
     1
102
RTVSPost2010PropOp30
 70
     1
102
RTVSPost2010Prop31
280
     0
102
RTVSPost2010PropOp31
 70
     1
102
RTVSPost2010Prop32
280
     0
102
RTVSPost2010PropOp32
 70
     1
102
RTVSPost2010Prop33
280
     0
102
RTVSPost2010PropOp33
 70
     1
102
RTVSPost2010Prop34
280
     0
102
RTVSPost2010PropOp34
 70
     1
102
RTVSPost2010Prop35
280
     0
102
RTVSPost2010PropOp35
 70
     1
102
RTVSPost2010Prop36
280
     0
102
RTVSPost2010PropOp36
 70
     1
102
RTVSPost2010Prop37
 90
       50
102
RTVSPost2010PropOp37
 70
     1
102
RTVSPost2010Prop38
140
0.0
102
RTVSPost2010PropOp38
 70
     1
102
RTVSPost2010Prop39
140
1.0
102
RTVSPost2010PropOp39
 70
     1
102
RTVSPost2010Prop40
 90
        0
102
RTVSPost2010PropOp40
 70
     1
102
RTVSPost2010Prop41ColorIndex
 90
       18
102
RTVSPost2010Prop41ColorRGB
 90
        0
102
RTVSPost2010PropOp41
 70
     1
102
RTVSPost2010Prop42
 90
       50
102
RTVSPost2010PropOp42
 70
     1
102
RTVSPost2010Prop43
 90
        3
102
RTVSPost2010PropOp43
 70
     1
102
RTVSPost2010Prop44ColorIndex
 90
        5
102
RTVSPost2010Prop44ColorRGB
 90
      255
102
RTVSPost2010PropOp44
 70
     1
102
RTVSPost2010Prop45
280
     0
102
RTVSPost2010PropOp45
 70
     1
102
RTVSPost2010Prop46
 90
       50
102
RTVSPost2010PropOp46
 70
     1
102
RTVSPost2010Prop47
 90
       50
102
RTVSPost2010PropOp47
 70
     1
102
RTVSPost2010Prop48
 90
       50
102
RTVSPost2010PropOp48
 70
     1
102
RTVSPost2010Prop49
280
     0
102
RTVSPost2010PropOp49
 70
     1
102
RTVSPost2010Prop50
 90
       50
102
RTVSPost2010PropOp50
 70
     1
102
RTVSPost2010Prop51ColorIndex
 90
      256
102
RTVSPost2010Prop51ColorRGB
 90
-16777216
102
RTVSPost2010PropOp51
 70
     0
102
RTVSPost2010Prop52
140
1.0
102
RTVSPost2010PropOp52
 70
     0
102
RTVSPost2010Prop53
 90
        2
102
RTVSPost2010PropOp53
 70
     1
102
RTVSPost2010Prop54
  1
strokes_ogs.tif
102
RTVSPost2010PropOp54
 70
     1
102
RTVSPost2010Prop55
280
     0
102
RTVSPost2010PropOp55
 70
     1
102
RTVSPost2010Prop56
140
1.0
102
RTVSPost2010PropOp56
 70
     1
102
RTVSPost2010Prop57
140
1.0
102
RTVSPost2010PropOp57
 70
     1
  0
XRECORD
  5
B9
102
{ACAD_REACTORS
330
B8
102
}
330
B8
100
AcDbXrecord
280
     1
102
RTVSPropertyOp0
 70
     1
102
RTVSPropertyOp1
 70
     1
102
RTVSPropertyOp2
 70
     1
102
RTVSPropertyOp3
 70
     1
102
RTVSPropertyOp4
 70
     1
102
RTVSPropertyOp5
 70
     1
102
RTVSPropertyOp6
 70
     1
102
RTVSPropertyOp7
 70
     1
102
RTVSPropertyOp8
 70
     1
102
RTVSPropertyOp9
 70
     1
102
RTVSPropertyOp10
 70
     1
102
RTVSPropertyOp11
 70
     1
102
RTVSPropertyOp12
 70
     1
102
RTVSPropertyOp13
 70
     1
102
RTVSPropertyOp14
 70
     1
102
RTVSPropertyOp15
 70
     1
102
RTVSPropertyOp16
 70
     1
102
RTVSPropertyOp17
 70
     1
102
RTVSPropertyOp18
 70
     1
102
RTVSPropertyOp19
 70
     1
102
RTVSPropertyOp20
 70
     1
102
RTVSPropertyOp21
 70
     1
102
RTVSPropertyOp22
 70
     1
102
RTVSPropertyOp23
 70
     1
102
RTVSPropertyOp24
 70
     1
102
RTVSPropertyOp25
 70
     1
102
RTVSPropertyOp26
 70
     1
102
RTVSPropertyOp27
 70
     1
102
RTVSPropertyOp28
 70
     1
102
RTVSPropertyOp29
 70
     1
102
RTVSPropertyOp30
 70
     1
102
RTVSPropertyOp31
 70
     1
102
RTVSPropertyOp32
 70
     1
102
RTVSPropertyOp33
 70
     1
102
RTVSPropertyOp34
 70
     1
102
RTVSPropertyOp35
 70
     1
102
RTVSPropertyOp36
 70
     1
102
RTVSPropertyOp37
 70
     1
102
RTVSPropertyOp38
 70
     1
102
RTVSPropertyOp39
 70
     1
102
RTVSPropertyOp40
 70
     1
102
RTVSPropertyOp41
 70
     1
102
RTVSPropertyOp42
 70
     1
102
RTVSPropertyOp43
 70
     1
102
RTVSPropertyOp44
 70
     1
102
RTVSPropertyOp45
 70
     1
102
RTVSPropertyOp46
 70
     1
102
RTVSPropertyOp47
 70
     1
102
RTVSPropertyOp48
 70
     1
102
RTVSPropertyOp49
 70
     1
102
RTVSPropertyOp50
 70
     1
102
RTVSPropertyOp51
 70
     0
102
RTVSPropertyOp52
 70
     0
102
RTVSPropertyOp53
 70
     1
102
RTVSPropertyOp54
 70
     1
102
RTVSPropertyOp55
 70
     1
102
RTVSPropertyOp56
 70
     1
102
RTVSPropertyOp57
 70
     1
102
RTVSPost2010Prop28
280
     0
102
RTVSPost2010PropOp28
 70
     1
102
RTVSPost2010Prop29
280
     1
102
RTVSPost2010PropOp29
 70
     1
102
RTVSPost2010Prop30
280
     1
102
RTVSPost2010PropOp30
 70
     1
102
RTVSPost2010Prop31
280
     0
102
RTVSPost2010PropOp31
 70
     1
102
RTVSPost2010Prop32
280
     0
102
RTVSPost2010PropOp32
 70
     1
102
RTVSPost2010Prop33
280
     0
102
RTVSPost2010PropOp33
 70
     1
102
RTVSPost2010Prop34
280
     0
102
RTVSPost2010PropOp34
 70
     1
102
RTVSPost2010Prop35
280
     0
102
RTVSPost2010PropOp35
 70
     1
102
RTVSPost2010Prop36
280
     0
102
RTVSPost2010PropOp36
 70
     1
102
RTVSPost2010Prop37
 90
       50
102
RTVSPost2010PropOp37
 70
     1
102
RTVSPost2010Prop38
140
0.0
102
RTVSPost2010PropOp38
 70
     1
102
RTVSPost2010Prop39
140
1.0
102
RTVSPost2010PropOp39
 70
     1
102
RTVSPost2010Prop40
 90
        0
102
RTVSPost2010PropOp40
 70
     1
102
RTVSPost2010Prop41ColorIndex
 90
       18
102
RTVSPost2010Prop41ColorRGB
 90
        0
102
RTVSPost2010PropOp41
 70
     1
102
RTVSPost2010Prop42
 90
       50
102
RTVSPost2010PropOp42
 70
     1
102
RTVSPost2010Prop43
 90
        3
102
RTVSPost2010PropOp43
 70
     1
102
RTVSPost2010Prop44ColorIndex
 90
        5
102
RTVSPost2010Prop44ColorRGB
 90
      255
102
RTVSPost2010PropOp44
 70
     1
102
RTVSPost2010Prop45
280
     0
102
RTVSPost2010PropOp45
 70
     1
102
RTVSPost2010Prop46
 90
       50
102
RTVSPost2010PropOp46
 70
     1
102
RTVSPost2010Prop47
 90
       50
102
RTVSPost2010PropOp47
 70
     1
102
RTVSPost2010Prop48
 90
       50
102
RTVSPost2010PropOp48
 70
     1
102
RTVSPost2010Prop49
280
     0
102
RTVSPost2010PropOp49
 70
     1
102
RTVSPost2010Prop50
 90
       50
102
RTVSPost2010PropOp50
 70
     1
102
RTVSPost2010Prop51ColorIndex
 90
      256
102
RTVSPost2010Prop51ColorRGB
 90
-16777216
102
RTVSPost2010PropOp51
 70
     0
102
RTVSPost2010Prop52
140
1.0
102
RTVSPost2010PropOp52
 70
     0
102
RTVSPost2010Prop53
 90
        2
102
RTVSPost2010PropOp53
 70
     1
102
RTVSPost2010Prop54
  1
strokes_ogs.tif
102
RTVSPost2010PropOp54
 70
     1
102
RTVSPost2010Prop55
280
     0
102
RTVSPost2010PropOp55
 70
     1
102
RTVSPost2010Prop56
140
1.0
102
RTVSPost2010PropOp56
 70
     1
102
RTVSPost2010Prop57
140
1.0
102
RTVSPost2010PropOp57
 70
     1
  0
XRECORD
  5
B7
102
{ACAD_REACTORS
330
B6
102
}
330
B6
100
AcDbXrecord
280
     1
102
RTVSPropertyOp0
 70
     1
102
RTVSPropertyOp1
 70
     1
102
RTVSPropertyOp2
 70
     1
102
RTVSPropertyOp3
 70
     1
102
RTVSPropertyOp4
 70
     1
102
RTVSPropertyOp5
 70
     1
102
RTVSPropertyOp6
 70
     1
102
RTVSPropertyOp7
 70
     1
102
RTVSPropertyOp8
 70
     1
102
RTVSPropertyOp9
 70
     1
102
RTVSPropertyOp10
 70
     1
102
RTVSPropertyOp11
 70
     1
102
RTVSPropertyOp12
 70
     1
102
RTVSPropertyOp13
 70
     1
102
RTVSPropertyOp14
 70
     1
102
RTVSPropertyOp15
 70
     1
102
RTVSPropertyOp16
 70
     1
102
RTVSPropertyOp17
 70
     1
102
RTVSPropertyOp18
 70
     1
102
RTVSPropertyOp19
 70
     1
102
RTVSPropertyOp20
 70
     1
102
RTVSPropertyOp21
 70
     1
102
RTVSPropertyOp22
 70
     1
102
RTVSPropertyOp23
 70
     1
102
RTVSPropertyOp24
 70
     1
102
RTVSPropertyOp25
 70
     1
102
RTVSPropertyOp26
 70
     1
102
RTVSPropertyOp27
 70
     1
102
RTVSPropertyOp28
 70
     1
102
RTVSPropertyOp29
 70
     1
102
RTVSPropertyOp30
 70
     1
102
RTVSPropertyOp31
 70
     1
102
RTVSPropertyOp32
 70
     1
102
RTVSPropertyOp33
 70
     1
102
RTVSPropertyOp34
 70
     1
102
RTVSPropertyOp35
 70
     1
102
RTVSPropertyOp36
 70
     1
102
RTVSPropertyOp37
 70
     1
102
RTVSPropertyOp38
 70
     1
102
RTVSPropertyOp39
 70
     1
102
RTVSPropertyOp40
 70
     1
102
RTVSPropertyOp41
 70
     1
102
RTVSPropertyOp42
 70
     1
102
RTVSPropertyOp43
 70
     1
102
RTVSPropertyOp44
 70
     1
102
RTVSPropertyOp45
 70
     1
102
RTVSPropertyOp46
 70
     1
102
RTVSPropertyOp47
 70
     1
102
RTVSPropertyOp48
 70
     1
102
RTVSPropertyOp49
 70
     1
102
RTVSPropertyOp50
 70
     1
102
RTVSPropertyOp51
 70
     0
102
RTVSPropertyOp52
 70
     0
102
RTVSPropertyOp53
 70
     1
102
RTVSPropertyOp54
 70
     1
102
RTVSPropertyOp55
 70
     1
102
RTVSPropertyOp56
 70
     1
102
RTVSPropertyOp57
 70
     1
102
RTVSPost2010Prop28
280
     0
102
RTVSPost2010PropOp28
 70
     1
102
RTVSPost2010Prop29
280
     1
102
RTVSPost2010PropOp29
 70
     1
102
RTVSPost2010Prop30
280
     1
102
RTVSPost2010PropOp30
 70
     1
102
RTVSPost2010Prop31
280
     0
102
RTVSPost2010PropOp31
 70
     1
102
RTVSPost2010Prop32
280
     0
102
RTVSPost2010PropOp32
 70
     1
102
RTVSPost2010Prop33
280
     0
102
RTVSPost2010PropOp33
 70
     1
102
RTVSPost2010Prop34
280
     0
102
RTVSPost2010PropOp34
 70
     1
102
RTVSPost2010Prop35
280
     0
102
RTVSPost2010PropOp35
 70
     1
102
RTVSPost2010Prop36
280
     0
102
RTVSPost2010PropOp36
 70
     1
102
RTVSPost2010Prop37
 90
       50
102
RTVSPost2010PropOp37
 70
     1
102
RTVSPost2010Prop38
140
0.0
102
RTVSPost2010PropOp38
 70
     1
102
RTVSPost2010Prop39
140
1.0
102
RTVSPost2010PropOp39
 70
     1
102
RTVSPost2010Prop40
 90
        0
102
RTVSPost2010PropOp40
 70
     1
102
RTVSPost2010Prop41ColorIndex
 90
       18
102
RTVSPost2010Prop41ColorRGB
 90
        0
102
RTVSPost2010PropOp41
 70
     1
102
RTVSPost2010Prop42
 90
       50
102
RTVSPost2010PropOp42
 70
     1
102
RTVSPost2010Prop43
 90
        3
102
RTVSPost2010PropOp43
 70
     1
102
RTVSPost2010Prop44ColorIndex
 90
        5
102
RTVSPost2010Prop44ColorRGB
 90
      255
102
RTVSPost2010PropOp44
 70
     1
102
RTVSPost2010Prop45
280
     0
102
RTVSPost2010PropOp45
 70
     1
102
RTVSPost2010Prop46
 90
       50
102
RTVSPost2010PropOp46
 70
     1
102
RTVSPost2010Prop47
 90
       50
102
RTVSPost2010PropOp47
 70
     1
102
RTVSPost2010Prop48
 90
       50
102
RTVSPost2010PropOp48
 70
     1
102
RTVSPost2010Prop49
280
     0
102
RTVSPost2010PropOp49
 70
     1
102
RTVSPost2010Prop50
 90
       50
102
RTVSPost2010PropOp50
 70
     1
102
RTVSPost2010Prop51ColorIndex
 90
      256
102
RTVSPost2010Prop51ColorRGB
 90
-16777216
102
RTVSPost2010PropOp51
 70
     0
102
RTVSPost2010Prop52
140
1.0
102
RTVSPost2010PropOp52
 70
     0
102
RTVSPost2010Prop53
 90
        2
102
RTVSPost2010PropOp53
 70
     1
102
RTVSPost2010Prop54
  1
strokes_ogs.tif
102
RTVSPost2010PropOp54
 70
     1
102
RTVSPost2010Prop55
280
     0
102
RTVSPost2010PropOp55
 70
     1
102
RTVSPost2010Prop56
140
1.0
102
RTVSPost2010PropOp56
 70
     1
102
RTVSPost2010Prop57
140
1.0
102
RTVSPost2010PropOp57
 70
     1
  0
XRECORD
  5
B1
102
{ACAD_REACTORS
330
B0
102
}
330
B0
100
AcDbXrecord
280
     1
102
RTVSPropertyOp0
 70
     1
102
RTVSPropertyOp1
 70
     1
102
RTVSPropertyOp2
 70
     1
102
RTVSPropertyOp3
 70
     1
102
RTVSPropertyOp4
 70
     1
102
RTVSPropertyOp5
 70
     1
102
RTVSPropertyOp6
 70
     1
102
RTVSPropertyOp7
 70
     1
102
RTVSPropertyOp8
 70
     1
102
RTVSPropertyOp9
 70
     1
102
RTVSPropertyOp10
 70
     1
102
RTVSPropertyOp11
 70
     1
102
RTVSPropertyOp12
 70
     1
102
RTVSPropertyOp13
 70
     1
102
RTVSPropertyOp14
 70
     1
102
RTVSPropertyOp15
 70
     1
102
RTVSPropertyOp16
 70
     1
102
RTVSPropertyOp17
 70
     1
102
RTVSPropertyOp18
 70
     1
102
RTVSPropertyOp19
 70
     1
102
RTVSPropertyOp20
 70
     1
102
RTVSPropertyOp21
 70
     1
102
RTVSPropertyOp22
 70
     1
102
RTVSPropertyOp23
 70
     1
102
RTVSPropertyOp24
 70
     1
102
RTVSPropertyOp25
 70
     1
102
RTVSPropertyOp26
 70
     1
102
RTVSPropertyOp27
 70
     1
102
RTVSPropertyOp28
 70
     1
102
RTVSPropertyOp29
 70
     1
102
RTVSPropertyOp30
 70
     1
102
RTVSPropertyOp31
 70
     1
102
RTVSPropertyOp32
 70
     1
102
RTVSPropertyOp33
 70
     1
102
RTVSPropertyOp34
 70
     1
102
RTVSPropertyOp35
 70
     1
102
RTVSPropertyOp36
 70
     1
102
RTVSPropertyOp37
 70
     1
102
RTVSPropertyOp38
 70
     1
102
RTVSPropertyOp39
 70
     1
102
RTVSPropertyOp40
 70
     1
102
RTVSPropertyOp41
 70
     1
102
RTVSPropertyOp42
 70
     1
102
RTVSPropertyOp43
 70
     1
102
RTVSPropertyOp44
 70
     1
102
RTVSPropertyOp45
 70
     1
102
RTVSPropertyOp46
 70
     1
102
RTVSPropertyOp47
 70
     1
102
RTVSPropertyOp48
 70
     1
102
RTVSPropertyOp49
 70
     1
102
RTVSPropertyOp50
 70
     1
102
RTVSPropertyOp51
 70
     0
102
RTVSPropertyOp52
 70
     0
102
RTVSPropertyOp53
 70
     1
102
RTVSPropertyOp54
 70
     1
102
RTVSPropertyOp55
 70
     1
102
RTVSPropertyOp56
 70
     1
102
RTVSPropertyOp57
 70
     1
102
RTVSPost2010Prop28
280
     0
102
RTVSPost2010PropOp28
 70
     1
102
RTVSPost2010Prop29
280
     1
102
RTVSPost2010PropOp29
 70
     1
102
RTVSPost2010Prop30
280
     1
102
RTVSPost2010PropOp30
 70
     1
102
RTVSPost2010Prop31
280
     0
102
RTVSPost2010PropOp31
 70
     1
102
RTVSPost2010Prop32
280
     0
102
RTVSPost2010PropOp32
 70
     1
102
RTVSPost2010Prop33
280
     0
102
RTVSPost2010PropOp33
 70
     1
102
RTVSPost2010Prop34
280
     0
102
RTVSPost2010PropOp34
 70
     1
102
RTVSPost2010Prop35
280
     0
102
RTVSPost2010PropOp35
 70
     1
102
RTVSPost2010Prop36
280
     0
102
RTVSPost2010PropOp36
 70
     1
102
RTVSPost2010Prop37
 90
       50
102
RTVSPost2010PropOp37
 70
     1
102
RTVSPost2010Prop38
140
0.0
102
RTVSPost2010PropOp38
 70
     1
102
RTVSPost2010Prop39
140
1.0
102
RTVSPost2010PropOp39
 70
     1
102
RTVSPost2010Prop40
 90
        0
102
RTVSPost2010PropOp40
 70
     1
102
RTVSPost2010Prop41ColorIndex
 90
       18
102
RTVSPost2010Prop41ColorRGB
 90
        0
102
RTVSPost2010PropOp41
 70
     1
102
RTVSPost2010Prop42
 90
       50
102
RTVSPost2010PropOp42
 70
     1
102
RTVSPost2010Prop43
 90
        3
102
RTVSPost2010PropOp43
 70
     1
102
RTVSPost2010Prop44ColorIndex
 90
        5
102
RTVSPost2010Prop44ColorRGB
 90
      255
102
RTVSPost2010PropOp44
 70
     1
102
RTVSPost2010Prop45
280
     0
102
RTVSPost2010PropOp45
 70
     1
102
RTVSPost2010Prop46
 90
       50
102
RTVSPost2010PropOp46
 70
     1
102
RTVSPost2010Prop47
 90
       50
102
RTVSPost2010PropOp47
 70
     1
102
RTVSPost2010Prop48
 90
       50
102
RTVSPost2010PropOp48
 70
     1
102
RTVSPost2010Prop49
280
     0
102
RTVSPost2010PropOp49
 70
     1
102
RTVSPost2010Prop50
 90
       50
102
RTVSPost2010PropOp50
 70
     1
102
RTVSPost2010Prop51ColorIndex
 90
      256
102
RTVSPost2010Prop51ColorRGB
 90
-16777216
102
RTVSPost2010PropOp51
 70
     0
102
RTVSPost2010Prop52
140
1.0
102
RTVSPost2010PropOp52
 70
     0
102
RTVSPost2010Prop53
 90
        2
102
RTVSPost2010PropOp53
 70
     1
102
RTVSPost2010Prop54
  1
strokes_ogs.tif
102
RTVSPost2010PropOp54
 70
     1
102
RTVSPost2010Prop55
280
     0
102
RTVSPost2010PropOp55
 70
     1
102
RTVSPost2010Prop56
140
1.0
102
RTVSPost2010PropOp56
 70
     1
102
RTVSPost2010Prop57
140
1.0
102
RTVSPost2010PropOp57
 70
     1
  0
XRECORD
  5
B3
102
{ACAD_REACTORS
330
B2
102
}
330
B2
100
AcDbXrecord
280
     1
102
RTVSPropertyOp0
 70
     1
102
RTVSPropertyOp1
 70
     1
102
RTVSPropertyOp2
 70
     1
102
RTVSPropertyOp3
 70
     1
102
RTVSPropertyOp4
 70
     1
102
RTVSPropertyOp5
 70
     1
102
RTVSPropertyOp6
 70
     1
102
RTVSPropertyOp7
 70
     1
102
RTVSPropertyOp8
 70
     1
102
RTVSPropertyOp9
 70
     1
102
RTVSPropertyOp10
 70
     1
102
RTVSPropertyOp11
 70
     1
102
RTVSPropertyOp12
 70
     1
102
RTVSPropertyOp13
 70
     1
102
RTVSPropertyOp14
 70
     1
102
RTVSPropertyOp15
 70
     1
102
RTVSPropertyOp16
 70
     1
102
RTVSPropertyOp17
 70
     1
102
RTVSPropertyOp18
 70
     1
102
RTVSPropertyOp19
 70
     1
102
RTVSPropertyOp20
 70
     1
102
RTVSPropertyOp21
 70
     1
102
RTVSPropertyOp22
 70
     1
102
RTVSPropertyOp23
 70
     1
102
RTVSPropertyOp24
 70
     1
102
RTVSPropertyOp25
 70
     1
102
RTVSPropertyOp26
 70
     1
102
RTVSPropertyOp27
 70
     1
102
RTVSPropertyOp28
 70
     1
102
RTVSPropertyOp29
 70
     1
102
RTVSPropertyOp30
 70
     1
102
RTVSPropertyOp31
 70
     1
102
RTVSPropertyOp32
 70
     1
102
RTVSPropertyOp33
 70
     1
102
RTVSPropertyOp34
 70
     1
102
RTVSPropertyOp35
 70
     1
102
RTVSPropertyOp36
 70
     1
102
RTVSPropertyOp37
 70
     1
102
RTVSPropertyOp38
 70
     1
102
RTVSPropertyOp39
 70
     1
102
RTVSPropertyOp40
 70
     1
102
RTVSPropertyOp41
 70
     1
102
RTVSPropertyOp42
 70
     1
102
RTVSPropertyOp43
 70
     1
102
RTVSPropertyOp44
 70
     1
102
RTVSPropertyOp45
 70
     1
102
RTVSPropertyOp46
 70
     1
102
RTVSPropertyOp47
 70
     1
102
RTVSPropertyOp48
 70
     1
102
RTVSPropertyOp49
 70
     1
102
RTVSPropertyOp50
 70
     1
102
RTVSPropertyOp51
 70
     0
102
RTVSPropertyOp52
 70
     0
102
RTVSPropertyOp53
 70
     1
102
RTVSPropertyOp54
 70
     1
102
RTVSPropertyOp55
 70
     1
102
RTVSPropertyOp56
 70
     1
102
RTVSPropertyOp57
 70
     1
102
RTVSPost2010Prop28
280
     0
102
RTVSPost2010PropOp28
 70
     1
102
RTVSPost2010Prop29
280
     1
102
RTVSPost2010PropOp29
 70
     1
102
RTVSPost2010Prop30
280
     1
102
RTVSPost2010PropOp30
 70
     1
102
RTVSPost2010Prop31
280
     0
102
RTVSPost2010PropOp31
 70
     1
102
RTVSPost2010Prop32
280
     0
102
RTVSPost2010PropOp32
 70
     1
102
RTVSPost2010Prop33
280
     0
102
RTVSPost2010PropOp33
 70
     1
102
RTVSPost2010Prop34
280
     0
102
RTVSPost2010PropOp34
 70
     1
102
RTVSPost2010Prop35
280
     0
102
RTVSPost2010PropOp35
 70
     1
102
RTVSPost2010Prop36
280
     0
102
RTVSPost2010PropOp36
 70
     1
102
RTVSPost2010Prop37
 90
       50
102
RTVSPost2010PropOp37
 70
     1
102
RTVSPost2010Prop38
140
0.0
102
RTVSPost2010PropOp38
 70
     1
102
RTVSPost2010Prop39
140
1.0
102
RTVSPost2010PropOp39
 70
     1
102
RTVSPost2010Prop40
 90
        0
102
RTVSPost2010PropOp40
 70
     1
102
RTVSPost2010Prop41ColorIndex
 90
       18
102
RTVSPost2010Prop41ColorRGB
 90
        0
102
RTVSPost2010PropOp41
 70
     1
102
RTVSPost2010Prop42
 90
       50
102
RTVSPost2010PropOp42
 70
     1
102
RTVSPost2010Prop43
 90
        3
102
RTVSPost2010PropOp43
 70
     1
102
RTVSPost2010Prop44ColorIndex
 90
        5
102
RTVSPost2010Prop44ColorRGB
 90
      255
102
RTVSPost2010PropOp44
 70
     1
102
RTVSPost2010Prop45
280
     0
102
RTVSPost2010PropOp45
 70
     1
102
RTVSPost2010Prop46
 90
       50
102
RTVSPost2010PropOp46
 70
     1
102
RTVSPost2010Prop47
 90
       50
102
RTVSPost2010PropOp47
 70
     1
102
RTVSPost2010Prop48
 90
       50
102
RTVSPost2010PropOp48
 70
     1
102
RTVSPost2010Prop49
280
     0
102
RTVSPost2010PropOp49
 70
     1
102
RTVSPost2010Prop50
 90
       50
102
RTVSPost2010PropOp50
 70
     1
102
RTVSPost2010Prop51ColorIndex
 90
      256
102
RTVSPost2010Prop51ColorRGB
 90
-16777216
102
RTVSPost2010PropOp51
 70
     0
102
RTVSPost2010Prop52
140
1.0
102
RTVSPost2010PropOp52
 70
     0
102
RTVSPost2010Prop53
 90
        2
102
RTVSPost2010PropOp53
 70
     1
102
RTVSPost2010Prop54
  1
strokes_ogs.tif
102
RTVSPost2010PropOp54
 70
     1
102
RTVSPost2010Prop55
280
     0
102
RTVSPost2010PropOp55
 70
     1
102
RTVSPost2010Prop56
140
1.0
102
RTVSPost2010PropOp56
 70
     1
102
RTVSPost2010Prop57
140
1.0
102
RTVSPost2010PropOp57
 70
     1
  0
XRECORD
  5
A3
102
{ACAD_REACTORS
330
A2
102
}
330
A2
100
AcDbXrecord
280
     1
102
RTVSPropertyOp0
 70
     1
102
RTVSPropertyOp1
 70
     1
102
RTVSPropertyOp2
 70
     1
102
RTVSPropertyOp3
 70
     1
102
RTVSPropertyOp4
 70
     1
102
RTVSPropertyOp5
 70
     1
102
RTVSPropertyOp6
 70
     1
102
RTVSPropertyOp7
 70
     1
102
RTVSPropertyOp8
 70
     1
102
RTVSPropertyOp9
 70
     1
102
RTVSPropertyOp10
 70
     1
102
RTVSPropertyOp11
 70
     1
102
RTVSPropertyOp12
 70
     1
102
RTVSPropertyOp13
 70
     1
102
RTVSPropertyOp14
 70
     1
102
RTVSPropertyOp15
 70
     1
102
RTVSPropertyOp16
 70
     1
102
RTVSPropertyOp17
 70
     1
102
RTVSPropertyOp18
 70
     1
102
RTVSPropertyOp19
 70
     1
102
RTVSPropertyOp20
 70
     1
102
RTVSPropertyOp21
 70
     1
102
RTVSPropertyOp22
 70
     1
102
RTVSPropertyOp23
 70
     1
102
RTVSPropertyOp24
 70
     1
102
RTVSPropertyOp25
 70
     1
102
RTVSPropertyOp26
 70
     1
102
RTVSPropertyOp27
 70
     1
102
RTVSPropertyOp28
 70
     1
102
RTVSPropertyOp29
 70
     1
102
RTVSPropertyOp30
 70
     1
102
RTVSPropertyOp31
 70
     1
102
RTVSPropertyOp32
 70
     1
102
RTVSPropertyOp33
 70
     1
102
RTVSPropertyOp34
 70
     1
102
RTVSPropertyOp35
 70
     1
102
RTVSPropertyOp36
 70
     1
102
RTVSPropertyOp37
 70
     1
102
RTVSPropertyOp38
 70
     1
102
RTVSPropertyOp39
 70
     1
102
RTVSPropertyOp40
 70
     1
102
RTVSPropertyOp41
 70
     1
102
RTVSPropertyOp42
 70
     1
102
RTVSPropertyOp43
 70
     1
102
RTVSPropertyOp44
 70
     1
102
RTVSPropertyOp45
 70
     1
102
RTVSPropertyOp46
 70
     1
102
RTVSPropertyOp47
 70
     1
102
RTVSPropertyOp48
 70
     1
102
RTVSPropertyOp49
 70
     1
102
RTVSPropertyOp50
 70
     1
102
RTVSPropertyOp51
 70
     0
102
RTVSPropertyOp52
 70
     0
102
RTVSPropertyOp53
 70
     1
102
RTVSPropertyOp54
 70
     1
102
RTVSPropertyOp55
 70
     1
102
RTVSPropertyOp56
 70
     1
102
RTVSPropertyOp57
 70
     1
102
RTVSPost2010Prop28
280
     0
102
RTVSPost2010PropOp28
 70
     1
102
RTVSPost2010Prop29
280
     1
102
RTVSPost2010PropOp29
 70
     1
102
RTVSPost2010Prop30
280
     1
102
RTVSPost2010PropOp30
 70
     1
102
RTVSPost2010Prop31
280
     0
102
RTVSPost2010PropOp31
 70
     1
102
RTVSPost2010Prop32
280
     0
102
RTVSPost2010PropOp32
 70
     1
102
RTVSPost2010Prop33
280
     0
102
RTVSPost2010PropOp33
 70
     1
102
RTVSPost2010Prop34
280
     0
102
RTVSPost2010PropOp34
 70
     1
102
RTVSPost2010Prop35
280
     0
102
RTVSPost2010PropOp35
 70
     1
102
RTVSPost2010Prop36
280
     0
102
RTVSPost2010PropOp36
 70
     1
102
RTVSPost2010Prop37
 90
       50
102
RTVSPost2010PropOp37
 70
     1
102
RTVSPost2010Prop38
140
0.0
102
RTVSPost2010PropOp38
 70
     1
102
RTVSPost2010Prop39
140
1.0
102
RTVSPost2010PropOp39
 70
     1
102
RTVSPost2010Prop40
 90
        0
102
RTVSPost2010PropOp40
 70
     1
102
RTVSPost2010Prop41ColorIndex
 90
       18
102
RTVSPost2010Prop41ColorRGB
 90
        0
102
RTVSPost2010PropOp41
 70
     1
102
RTVSPost2010Prop42
 90
       50
102
RTVSPost2010PropOp42
 70
     1
102
RTVSPost2010Prop43
 90
        3
102
RTVSPost2010PropOp43
 70
     1
102
RTVSPost2010Prop44ColorIndex
 90
        5
102
RTVSPost2010Prop44ColorRGB
 90
      255
102
RTVSPost2010PropOp44
 70
     1
102
RTVSPost2010Prop45
280
     0
102
RTVSPost2010PropOp45
 70
     1
102
RTVSPost2010Prop46
 90
       50
102
RTVSPost2010PropOp46
 70
     1
102
RTVSPost2010Prop47
 90
       50
102
RTVSPost2010PropOp47
 70
     1
102
RTVSPost2010Prop48
 90
       50
102
RTVSPost2010PropOp48
 70
     1
102
RTVSPost2010Prop49
280
     0
102
RTVSPost2010PropOp49
 70
     1
102
RTVSPost2010Prop50
 90
       50
102
RTVSPost2010PropOp50
 70
     1
102
RTVSPost2010Prop51ColorIndex
 90
      256
102
RTVSPost2010Prop51ColorRGB
 90
-16777216
102
RTVSPost2010PropOp51
 70
     0
102
RTVSPost2010Prop52
140
1.0
102
RTVSPost2010PropOp52
 70
     0
102
RTVSPost2010Prop53
 90
        2
102
RTVSPost2010PropOp53
 70
     1
102
RTVSPost2010Prop54
  1
strokes_ogs.tif
102
RTVSPost2010PropOp54
 70
     1
102
RTVSPost2010Prop55
280
     0
102
RTVSPost2010PropOp55
 70
     1
102
RTVSPost2010Prop56
140
1.0
102
RTVSPost2010PropOp56
 70
     1
102
RTVSPost2010Prop57
140
1.0
102
RTVSPost2010PropOp57
 70
     1
  0
XRECORD
  5
95
102
{ACAD_REACTORS
330
94
102
}
330
94
100
AcDbXrecord
280
     1
102
RTVSPropertyOp0
 70
     1
102
RTVSPropertyOp1
 70
     1
102
RTVSPropertyOp2
 70
     1
102
RTVSPropertyOp3
 70
     1
102
RTVSPropertyOp4
 70
     1
102
RTVSPropertyOp5
 70
     1
102
RTVSPropertyOp6
 70
     1
102
RTVSPropertyOp7
 70
     1
102
RTVSPropertyOp8
 70
     1
102
RTVSPropertyOp9
 70
     1
102
RTVSPropertyOp10
 70
     1
102
RTVSPropertyOp11
 70
     1
102
RTVSPropertyOp12
 70
     1
102
RTVSPropertyOp13
 70
     1
102
RTVSPropertyOp14
 70
     1
102
RTVSPropertyOp15
 70
     1
102
RTVSPropertyOp16
 70
     1
102
RTVSPropertyOp17
 70
     1
102
RTVSPropertyOp18
 70
     1
102
RTVSPropertyOp19
 70
     1
102
RTVSPropertyOp20
 70
     1
102
RTVSPropertyOp21
 70
     1
102
RTVSPropertyOp22
 70
     1
102
RTVSPropertyOp23
 70
     1
102
RTVSPropertyOp24
 70
     1
102
RTVSPropertyOp25
 70
     1
102
RTVSPropertyOp26
 70
     1
102
RTVSPropertyOp27
 70
     1
102
RTVSPropertyOp28
 70
     1
102
RTVSPropertyOp29
 70
     1
102
RTVSPropertyOp30
 70
     1
102
RTVSPropertyOp31
 70
     1
102
RTVSPropertyOp32
 70
     1
102
RTVSPropertyOp33
 70
     1
102
RTVSPropertyOp34
 70
     1
102
RTVSPropertyOp35
 70
     1
102
RTVSPropertyOp36
 70
     1
102
RTVSPropertyOp37
 70
     1
102
RTVSPropertyOp38
 70
     1
102
RTVSPropertyOp39
 70
     1
102
RTVSPropertyOp40
 70
     1
102
RTVSPropertyOp41
 70
     1
102
RTVSPropertyOp42
 70
     1
102
RTVSPropertyOp43
 70
     1
102
RTVSPropertyOp44
 70
     1
102
RTVSPropertyOp45
 70
     1
102
RTVSPropertyOp46
 70
     1
102
RTVSPropertyOp47
 70
     1
102
RTVSPropertyOp48
 70
     1
102
RTVSPropertyOp49
 70
     1
102
RTVSPropertyOp50
 70
     1
102
RTVSPropertyOp51
 70
     0
102
RTVSPropertyOp52
 70
     0
102
RTVSPropertyOp53
 70
     1
102
RTVSPropertyOp54
 70
     1
102
RTVSPropertyOp55
 70
     1
102
RTVSPropertyOp56
 70
     1
102
RTVSPropertyOp57
 70
     1
102
RTVSPost2010Prop28
280
     0
102
RTVSPost2010PropOp28
 70
     1
102
RTVSPost2010Prop29
280
     1
102
RTVSPost2010PropOp29
 70
     1
102
RTVSPost2010Prop30
280
     1
102
RTVSPost2010PropOp30
 70
     1
102
RTVSPost2010Prop31
280
     0
102
RTVSPost2010PropOp31
 70
     1
102
RTVSPost2010Prop32
280
     0
102
RTVSPost2010PropOp32
 70
     1
102
RTVSPost2010Prop33
280
     0
102
RTVSPost2010PropOp33
 70
     1
102
RTVSPost2010Prop34
280
     0
102
RTVSPost2010PropOp34
 70
     1
102
RTVSPost2010Prop35
280
     0
102
RTVSPost2010PropOp35
 70
     1
102
RTVSPost2010Prop36
280
     0
102
RTVSPost2010PropOp36
 70
     1
102
RTVSPost2010Prop37
 90
       50
102
RTVSPost2010PropOp37
 70
     1
102
RTVSPost2010Prop38
140
0.0
102
RTVSPost2010PropOp38
 70
     1
102
RTVSPost2010Prop39
140
1.0
102
RTVSPost2010PropOp39
 70
     1
102
RTVSPost2010Prop40
 90
        0
102
RTVSPost2010PropOp40
 70
     1
102
RTVSPost2010Prop41ColorIndex
 90
       18
102
RTVSPost2010Prop41ColorRGB
 90
        0
102
RTVSPost2010PropOp41
 70
     1
102
RTVSPost2010Prop42
 90
       50
102
RTVSPost2010PropOp42
 70
     1
102
RTVSPost2010Prop43
 90
        3
102
RTVSPost2010PropOp43
 70
     1
102
RTVSPost2010Prop44ColorIndex
 90
        5
102
RTVSPost2010Prop44ColorRGB
 90
      255
102
RTVSPost2010PropOp44
 70
     1
102
RTVSPost2010Prop45
280
     0
102
RTVSPost2010PropOp45
 70
     1
102
RTVSPost2010Prop46
 90
       50
102
RTVSPost2010PropOp46
 70
     1
102
RTVSPost2010Prop47
 90
       50
102
RTVSPost2010PropOp47
 70
     1
102
RTVSPost2010Prop48
 90
       50
102
RTVSPost2010PropOp48
 70
     1
102
RTVSPost2010Prop49
280
     0
102
RTVSPost2010PropOp49
 70
     1
102
RTVSPost2010Prop50
 90
       50
102
RTVSPost2010PropOp50
 70
     1
102
RTVSPost2010Prop51ColorIndex
 90
      256
102
RTVSPost2010Prop51ColorRGB
 90
-16777216
102
RTVSPost2010PropOp51
 70
     0
102
RTVSPost2010Prop52
140
1.0
102
RTVSPost2010PropOp52
 70
     0
102
RTVSPost2010Prop53
 90
        2
102
RTVSPost2010PropOp53
 70
     1
102
RTVSPost2010Prop54
  1
strokes_ogs.tif
102
RTVSPost2010PropOp54
 70
     1
102
RTVSPost2010Prop55
280
     0
102
RTVSPost2010PropOp55
 70
     1
102
RTVSPost2010Prop56
140
1.0
102
RTVSPost2010PropOp56
 70
     1
102
RTVSPost2010Prop57
140
1.0
102
RTVSPost2010PropOp57
 70
     1
  0
XRECORD
  5
B5
102
{ACAD_REACTORS
330
B4
102
}
330
B4
100
AcDbXrecord
280
     1
102
RTVSPropertyOp0
 70
     1
102
RTVSPropertyOp1
 70
     1
102
RTVSPropertyOp2
 70
     1
102
RTVSPropertyOp3
 70
     1
102
RTVSPropertyOp4
 70
     1
102
RTVSPropertyOp5
 70
     1
102
RTVSPropertyOp6
 70
     1
102
RTVSPropertyOp7
 70
     1
102
RTVSPropertyOp8
 70
     1
102
RTVSPropertyOp9
 70
     1
102
RTVSPropertyOp10
 70
     1
102
RTVSPropertyOp11
 70
     1
102
RTVSPropertyOp12
 70
     1
102
RTVSPropertyOp13
 70
     1
102
RTVSPropertyOp14
 70
     1
102
RTVSPropertyOp15
 70
     1
102
RTVSPropertyOp16
 70
     1
102
RTVSPropertyOp17
 70
     1
102
RTVSPropertyOp18
 70
     1
102
RTVSPropertyOp19
 70
     1
102
RTVSPropertyOp20
 70
     1
102
RTVSPropertyOp21
 70
     1
102
RTVSPropertyOp22
 70
     1
102
RTVSPropertyOp23
 70
     1
102
RTVSPropertyOp24
 70
     1
102
RTVSPropertyOp25
 70
     1
102
RTVSPropertyOp26
 70
     1
102
RTVSPropertyOp27
 70
     1
102
RTVSPropertyOp28
 70
     1
102
RTVSPropertyOp29
 70
     1
102
RTVSPropertyOp30
 70
     1
102
RTVSPropertyOp31
 70
     1
102
RTVSPropertyOp32
 70
     1
102
RTVSPropertyOp33
 70
     1
102
RTVSPropertyOp34
 70
     1
102
RTVSPropertyOp35
 70
     1
102
RTVSPropertyOp36
 70
     1
102
RTVSPropertyOp37
 70
     1
102
RTVSPropertyOp38
 70
     1
102
RTVSPropertyOp39
 70
     1
102
RTVSPropertyOp40
 70
     1
102
RTVSPropertyOp41
 70
     1
102
RTVSPropertyOp42
 70
     1
102
RTVSPropertyOp43
 70
     1
102
RTVSPropertyOp44
 70
     1
102
RTVSPropertyOp45
 70
     1
102
RTVSPropertyOp46
 70
     1
102
RTVSPropertyOp47
 70
     1
102
RTVSPropertyOp48
 70
     1
102
RTVSPropertyOp49
 70
     1
102
RTVSPropertyOp50
 70
     1
102
RTVSPropertyOp51
 70
     0
102
RTVSPropertyOp52
 70
     0
102
RTVSPropertyOp53
 70
     1
102
RTVSPropertyOp54
 70
     1
102
RTVSPropertyOp55
 70
     1
102
RTVSPropertyOp56
 70
     1
102
RTVSPropertyOp57
 70
     1
102
RTVSPost2010Prop28
280
     0
102
RTVSPost2010PropOp28
 70
     1
102
RTVSPost2010Prop29
280
     1
102
RTVSPost2010PropOp29
 70
     1
102
RTVSPost2010Prop30
280
     1
102
RTVSPost2010PropOp30
 70
     1
102
RTVSPost2010Prop31
280
     0
102
RTVSPost2010PropOp31
 70
     1
102
RTVSPost2010Prop32
280
     0
102
RTVSPost2010PropOp32
 70
     1
102
RTVSPost2010Prop33
280
     0
102
RTVSPost2010PropOp33
 70
     1
102
RTVSPost2010Prop34
280
     0
102
RTVSPost2010PropOp34
 70
     1
102
RTVSPost2010Prop35
280
     0
102
RTVSPost2010PropOp35
 70
     1
102
RTVSPost2010Prop36
280
     0
102
RTVSPost2010PropOp36
 70
     1
102
RTVSPost2010Prop37
 90
       50
102
RTVSPost2010PropOp37
 70
     1
102
RTVSPost2010Prop38
140
0.0
102
RTVSPost2010PropOp38
 70
     1
102
RTVSPost2010Prop39
140
1.0
102
RTVSPost2010PropOp39
 70
     1
102
RTVSPost2010Prop40
 90
        0
102
RTVSPost2010PropOp40
 70
     1
102
RTVSPost2010Prop41ColorIndex
 90
       18
102
RTVSPost2010Prop41ColorRGB
 90
        0
102
RTVSPost2010PropOp41
 70
     1
102
RTVSPost2010Prop42
 90
       50
102
RTVSPost2010PropOp42
 70
     1
102
RTVSPost2010Prop43
 90
        3
102
RTVSPost2010PropOp43
 70
     1
102
RTVSPost2010Prop44ColorIndex
 90
        5
102
RTVSPost2010Prop44ColorRGB
 90
      255
102
RTVSPost2010PropOp44
 70
     1
102
RTVSPost2010Prop45
280
     0
102
RTVSPost2010PropOp45
 70
     1
102
RTVSPost2010Prop46
 90
       50
102
RTVSPost2010PropOp46
 70
     1
102
RTVSPost2010Prop47
 90
       50
102
RTVSPost2010PropOp47
 70
     1
102
RTVSPost2010Prop48
 90
       50
102
RTVSPost2010PropOp48
 70
     1
102
RTVSPost2010Prop49
280
     0
102
RTVSPost2010PropOp49
 70
     1
102
RTVSPost2010Prop50
 90
       50
102
RTVSPost2010PropOp50
 70
     1
102
RTVSPost2010Prop51ColorIndex
 90
      256
102
RTVSPost2010Prop51ColorRGB
 90
-16777216
102
RTVSPost2010PropOp51
 70
     0
102
RTVSPost2010Prop52
140
1.0
102
RTVSPost2010PropOp52
 70
     0
102
RTVSPost2010Prop53
 90
        2
102
RTVSPost2010PropOp53
 70
     1
102
RTVSPost2010Prop54
  1
strokes_ogs.tif
102
RTVSPost2010PropOp54
 70
     1
102
RTVSPost2010Prop55
280
     0
102
RTVSPost2010PropOp55
 70
     1
102
RTVSPost2010Prop56
140
1.0
102
RTVSPost2010PropOp56
 70
     1
102
RTVSPost2010Prop57
140
1.0
102
RTVSPost2010PropOp57
 70
     1
  0
ENDSEC
  0
EOF
