  0
SECTION
  2
HEADER
  9
$ACADVER
  1
AC1018
  9
$ACADMAINTVER
 70
     0
  9
$DWGCODEPAGE
  3
ANSI_1252
  9
$INSBASE
 10
0.0
 20
0.0
 30
0.0
  9
$EXTMIN
 10
-20.51407
 20
-14.63641
 30
0.0
  9
$EXTMAX
 10
18.78283
 20
14.73874
 30
0.0
  9
$LIMMIN
 10
0.0
 20
0.0
  9
$LIMMAX
 10
12.0
 20
9.0
  9
$ORTHOMODE
 70
     0
  9
$REGENMODE
 70
     1
  9
$FILLMODE
 70
     1
  9
$QTEXTMODE
 70
     0
  9
$MIRRTEXT
 70
     1
  9
$LTSCALE
 40
1.0
  9
$ATTMODE
 70
     1
  9
$TEXTSIZE
 40
0.2
  9
$TRACEWID
 40
0.05
  9
$TEXTSTYLE
  7
Standard
  9
$CLAYER
  8
0
  9
$CELTYPE
  6
ByLayer
  9
$CECOLOR
 62
   256
  9
$CELTSCALE
 40
1.0
  9
$DISPSILH
 70
     0
  9
$DIMSCALE
 40
1.0
  9
$DIMASZ
 40
0.18
  9
$DIMEXO
 40
0.0625
  9
$DIMDLI
 40
0.38
  9
$DIMRND
 40
0.0
  9
$DIMDLE
 40
0.0
  9
$DIMEXE
 40
0.18
  9
$DIMTP
 40
0.0
  9
$DIMTM
 40
0.0
  9
$DIMTXT
 40
0.18
  9
$DIMCEN
 40
0.09
  9
$DIMTSZ
 40
0.0
  9
$DIMTOL
 70
     0
  9
$DIMLIM
 70
     0
  9
$DIMTIH
 70
     1
  9
$DIMTOH
 70
     1
  9
$DIMSE1
 70
     0
  9
$DIMSE2
 70
     0
  9
$DIMTAD
 70
     0
  9
$DIMZIN
 70
     0
  9
$DIMBLK
  1

  9
$DIMASO
 70
     1
  9
$DIMSHO
 70
     1
  9
$DIMPOST
  1

  9
$DIMAPOST
  1

  9
$DIMALT
 70
     0
  9
$DIMALTD
 70
     2
  9
$DIMALTF
 40
25.4
  9
$DIMLFAC
 40
1.0
  9
$DIMTOFL
 70
     0
  9
$DIMTVP
 40
0.0
  9
$DIMTIX
 70
     0
  9
$DIMSOXD
 70
     0
  9
$DIMSAH
 70
     0
  9
$DIMBLK1
  1

  9
$DIMBLK2
  1

  9
$DIMSTYLE
  2
Standard
  9
$DIMCLRD
 70
     0
  9
$DIMCLRE
 70
     0
  9
$DIMCLRT
 70
     0
  9
$DIMTFAC
 40
1.0
  9
$DIMGAP
 40
0.09
  9
$DIMJUST
 70
     0
  9
$DIMSD1
 70
     0
  9
$DIMSD2
 70
     0
  9
$DIMTOLJ
 70
     1
  9
$DIMTZIN
 70
     0
  9
$DIMALTZ
 70
     0
  9
$DIMALTTZ
 70
     0
  9
$DIMUPT
 70
     0
  9
$DIMDEC
 70
     4
  9
$DIMTDEC
 70
     4
  9
$DIMALTU
 70
     2
  9
$DIMALTTD
 70
     2
  9
$DIMTXSTY
  7
Standard
  9
$DIMAUNIT
 70
     0
  9
$DIMADEC
 70
     0
  9
$DIMALTRND
 40
0.0
  9
$DIMAZIN
 70
     0
  9
$DIMDSEP
 70
    46
  9
$DIMATFIT
 70
     3
  9
$DIMFRAC
 70
     0
  9
$DIMLDRBLK
  1

  9
$DIMLUNIT
 70
     2
  9
$DIMLWD
 70
    -2
  9
$DIMLWE
 70
    -2
  9
$DIMTMOVE
 70
     0
  9
$LUNITS
 70
     2
  9
$LUPREC
 70
     4
  9
$SKETCHINC
 40
0.1
  9
$FILLETRAD
 40
0.5
  9
$AUNITS
 70
     0
  9
$AUPREC
 70
     0
  9
$MENU
  1
.
  9
$ELEVATION
 40
0.0
  9
$PELEVATION
 40
0.0
  9
$THICKNESS
 40
0.0
  9
$LIMCHECK
 70
     0
  9
$CHAMFERA
 40
0.5
  9
$CHAMFERB
 40
0.5
  9
$CHAMFERC
 40
1.0
  9
$CHAMFERD
 40
0.0
  9
$SKPOLY
 70
     0
  9
$TDCREATE
 40
2454279.803984734
  9
$TDUCREATE
 40
2454279.928984734
  9
$TDUPDATE
 40
2454279.803984745
  9
$TDUUPDATE
 40
2454279.928984745
  9
$TDINDWG
 40
0.0000000116
  9
$TDUSRTIMER
 40
0.0000000116
  9
$USRTIMER
 70
     1
  9
$ANGBASE
 50
0.0
  9
$ANGDIR
 70
     0
  9
$PDMODE
 70
     0
  9
$PDSIZE
 40
0.0
  9
$PLINEWID
 40
0.0
  9
$SPLFRAME
 70
     0
  9
$SPLINETYPE
 70
     6
  9
$SPLINESEGS
 70
     8
  9
$HANDSEED
  5
55
  9
$SURFTAB1
 70
     6
  9
$SURFTAB2
 70
     6
  9
$SURFTYPE
 70
     6
  9
$SURFU
 70
     6
  9
$SURFV
 70
     6
  9
$UCSBASE
  2

  9
$UCSNAME
  2

  9
$UCSORG
 10
0.0
 20
0.0
 30
0.0
  9
$UCSXDIR
 10
1.0
 20
0.0
 30
0.0
  9
$UCSYDIR
 10
0.0
 20
1.0
 30
0.0
  9
$UCSORTHOREF
  2

  9
$UCSORTHOVIEW
 70
     0
  9
$UCSORGTOP
 10
0.0
 20
0.0
 30
0.0
  9
$UCSORGBOTTOM
 10
0.0
 20
0.0
 30
0.0
  9
$UCSORGLEFT
 10
0.0
 20
0.0
 30
0.0
  9
$UCSORGRIGHT
 10
0.0
 20
0.0
 30
0.0
  9
$UCSORGFRONT
 10
0.0
 20
0.0
 30
0.0
  9
$UCSORGBACK
 10
0.0
 20
0.0
 30
0.0
  9
$PUCSBASE
  2

  9
$PUCSNAME
  2

  9
$PUCSORG
 10
0.0
 20
0.0
 30
0.0
  9
$PUCSXDIR
 10
1.0
 20
0.0
 30
0.0
  9
$PUCSYDIR
 10
0.0
 20
1.0
 30
0.0
  9
$PUCSORTHOREF
  2

  9
$PUCSORTHOVIEW
 70
     0
  9
$PUCSORGTOP
 10
0.0
 20
0.0
 30
0.0
  9
$PUCSORGBOTTOM
 10
0.0
 20
0.0
 30
0.0
  9
$PUCSORGLEFT
 10
0.0
 20
0.0
 30
0.0
  9
$PUCSORGRIGHT
 10
0.0
 20
0.0
 30
0.0
  9
$PUCSORGFRONT
 10
0.0
 20
0.0
 30
0.0
  9
$PUCSORGBACK
 10
0.0
 20
0.0
 30
0.0
  9
$USERI1
 70
     0
  9
$USERI2
 70
     0
  9
$USERI3
 70
     0
  9
$USERI4
 70
     0
  9
$USERI5
 70
     0
  9
$USERR1
 40
0.0
  9
$USERR2
 40
0.0
  9
$USERR3
 40
0.0
  9
$USERR4
 40
0.0
  9
$USERR5
 40
0.0
  9
$WORLDVIEW
 70
     1
  9
$SHADEDGE
 70
     3
  9
$SHADEDIF
 70
    70
  9
$TILEMODE
 70
     1
  9
$MAXACTVP
 70
    64
  9
$PINSBASE
 10
0.0
 20
0.0
 30
0.0
  9
$PLIMCHECK
 70
     0
  9
$PEXTMIN
 10
1.000000000000000E+20
 20
1.000000000000000E+20
 30
1.000000000000000E+20
  9
$PEXTMAX
 10
-1.000000000000000E+20
 20
-1.000000000000000E+20
 30
-1.000000000000000E+20
  9
$PLIMMIN
 10
0.0
 20
0.0
  9
$PLIMMAX
 10
12.0
 20
9.0
  9
$UNITMODE
 70
     0
  9
$VISRETAIN
 70
     1
  9
$PLINEGEN
 70
     0
  9
$PSLTSCALE
 70
     1
  9
$TREEDEPTH
 70
  3020
  9
$CMLSTYLE
  2
Standard
  9
$CMLJUST
 70
     0
  9
$CMLSCALE
 40
1.0
  9
$PROXYGRAPHICS
 70
     1
  9
$MEASUREMENT
 70
     0
  9
$CELWEIGHT
370
    -1
  9
$ENDCAPS
280
     0
  9
$JOINSTYLE
280
     0
  9
$LWDISPLAY
290
     0
  9
$INSUNITS
 70
     5
  9
$HYPERLINKBASE
  1

  9
$STYLESHEET
  1

  9
$XEDIT
290
     1
  9
$CEPSNTYPE
380
     0
  9
$PSTYLEMODE
290
     0
  9
$FINGERPRINTGUID
  2
{FAEB1C30-E019-11D5-929B-00C0DF256EC4}
  9
$VERSIONGUID
  2
{FAEB1C32-E019-11D5-929B-00C0DF256EC4}
  9
$EXTNAMES
290
     1
  9
$PSVPSCALE
 40
0.0
  9
$OLESTARTUP
290
     0
  9
$SORTENTS
280
   127
  9
$INDEXCTL
280
     0
  9
$HIDETEXT
280
     1
  9
$XCLIPFRAME
290
     0
  9
$HALOGAP
280
     0
  9
$OBSCOLOR
 70
   257
  9
$OBSLTYPE
280
     0
  9
$INTERSECTIONDISPLAY
280
     0
  9
$INTERSECTIONCOLOR
 70
   257
  9
$DIMASSOC
280
     2
  9
$PROJECTNAME
  1

  0
ENDSEC
  0
SECTION
  2
CLASSES
  0
CLASS
  1
ACDBDICTIONARYWDFLT
  2
AcDbDictionaryWithDefault
  3
ObjectDBX Classes
 90
        0
 91
        1
280
     0
281
     0
  0
ENDSEC
  0
SECTION
  2
TABLES
  0
TABLE
  2
VPORT
  5
8
330
0
100
AcDbSymbolTable
 70
     2
  0
VPORT
  5
29
330
8
100
AcDbSymbolTableRecord
100
AcDbViewportTableRecord
  2
*Active
 70
     0
 10
0.0
 20
0.0
 11
1.0
 21
1.0
 12
10.42990654205607
 22
4.5
 13
0.0
 23
0.0
 14
0.5
 24
0.5
 15
0.5
 25
0.5
 16
0.0
 26
0.0
 36
1.0
 17
0.0
 27
0.0
 37
0.0
 40
9.0
 41
1.972972972850329
 42
50.0
 43
0.0
 44
0.0
 50
0.0
 51
0.0
 71
     0
 72
   100
 73
     1
 74
     3
 75
     0
 76
     0
 77
     0
 78
     0
281
     0
 65
     1
110
0.0
120
0.0
130
0.0
111
1.0
121
0.0
131
0.0
112
0.0
122
1.0
132
0.0
 79
     0
146
0.0
  0
ENDTAB
  0
TABLE
  2
LTYPE
  5
5
330
0
100
AcDbSymbolTable
 70
     1
  0
LTYPE
  5
14
330
5
100
AcDbSymbolTableRecord
100
AcDbLinetypeTableRecord
  2
ByBlock
 70
     0
  3

 72
    65
 73
     0
 40
0.0
  0
LTYPE
  5
15
330
5
100
AcDbSymbolTableRecord
100
AcDbLinetypeTableRecord
  2
ByLayer
 70
     0
  3

 72
    65
 73
     0
 40
0.0
  0
LTYPE
  5
16
330
5
100
AcDbSymbolTableRecord
100
AcDbLinetypeTableRecord
  2
Continuous
 70
     0
  3
Solid line
 72
    65
 73
     0
 40
0.0
  0
ENDTAB
  0
TABLE
  2
LAYER
  5
2
330
0
100
AcDbSymbolTable
 70
     2
  0
LAYER
  5
10
330
2
100
AcDbSymbolTableRecord
100
AcDbLayerTableRecord
  2
0
 70
     0
 62
     7
  6
Continuous
370
    -3
390
F
  0
LAYER
  5
2B
330
2
100
AcDbSymbolTableRecord
100
AcDbLayerTableRecord
  2
Layer 1
 70
     0
 62
     7
  6
Continuous
370
    -3
390
F
  0
ENDTAB
  0
TABLE
  2
STYLE
  5
3
330
0
100
AcDbSymbolTable
 70
     1
  0
STYLE
  5
11
330
3
100
AcDbSymbolTableRecord
100
AcDbTextStyleTableRecord
  2
Standard
 70
     0
 40
0.0
 41
1.0
 50
0.0
 71
     0
 42
0.2
  3
txt
  4

  0
ENDTAB
  0
TABLE
  2
VIEW
  5
6
330
0
100
AcDbSymbolTable
 70
     0
  0
ENDTAB
  0
TABLE
  2
UCS
  5
7
330
0
100
AcDbSymbolTable
 70
     0
  0
ENDTAB
  0
TABLE
  2
APPID
  5
9
330
0
100
AcDbSymbolTable
 70
     2
  0
APPID
  5
12
330
9
100
AcDbSymbolTableRecord
100
AcDbRegAppTableRecord
  2
ACAD
 70
     0
  0
APPID
  5
2A
330
9
100
AcDbSymbolTableRecord
100
AcDbRegAppTableRecord
  2
ODA
 70
     0
  0
ENDTAB
  0
TABLE
  2
DIMSTYLE
  5
A
330
0
100
AcDbSymbolTable
 70
     1
100
AcDbDimStyleTable
  0
DIMSTYLE
105
27
330
A
100
AcDbSymbolTableRecord
100
AcDbDimStyleTableRecord
  2
Standard
 70
     0
340
11
  0
ENDTAB
  0
TABLE
  2
BLOCK_RECORD
  5
1
330
0
100
AcDbSymbolTable
 70
     1
  0
BLOCK_RECORD
  5
1F
330
1
100
AcDbSymbolTableRecord
100
AcDbBlockTableRecord
  2
*Model_Space
340
22
  0
BLOCK_RECORD
  5
1B
330
1
100
AcDbSymbolTableRecord
100
AcDbBlockTableRecord
  2
*Paper_Space
340
1E
  0
BLOCK_RECORD
  5
23
330
1
100
AcDbSymbolTableRecord
100
AcDbBlockTableRecord
  2
*Paper_Space0
340
26
  0
ENDTAB
  0
ENDSEC
  0
SECTION
  2
BLOCKS
  0
BLOCK
  5
20
330
1F
100
AcDbEntity
  8
0
100
AcDbBlockBegin
  2
*Model_Space
 70
     0
 71
     0
 10
0.0
 20
0.0
 30
0.0
  3
*Model_Space
  1

  0
ENDBLK
  5
21
330
1F
100
AcDbEntity
  8
0
100
AcDbBlockEnd
  0
BLOCK
  5
1C
330
1B
100
AcDbEntity
 67
     1
  8
0
100
AcDbBlockBegin
  2
*Paper_Space
 70
     0
 71
     0
 10
0.0
 20
0.0
 30
0.0
  3
*Paper_Space
  1

  0
ENDBLK
  5
1D
330
1B
100
AcDbEntity
 67
     1
  8
0
100
AcDbBlockEnd
  0
BLOCK
  5
24
330
23
100
AcDbEntity
  8
0
100
AcDbBlockBegin
  2
*Paper_Space0
 70
     0
 71
     0
 10
0.0
 20
0.0
 30
0.0
  3
*Paper_Space0
  1

  0
ENDBLK
  5
25
330
23
100
AcDbEntity
  8
0
100
AcDbBlockEnd
  0
ENDSEC
  0
SECTION
  2
ENTITIES
  0
SPLINE
  5
2C
330
1F
100
AcDbEntity
  8
Layer 1
 62
    22
370
     5
100
AcDbSpline
210
0.0
220
0.0
230
1.0
 70
    11
 71
     3
 72
    20
 73
    16
 74
     0
 42
0.0000000001
 43
0.0000000001
 40
0.0
 40
0.0
 40
0.0
 40
0.0
 40
0.25
 40
0.25
 40
0.25
 40
0.25
 40
0.5
 40
0.5
 40
0.5
 40
0.5
 40
0.75
 40
0.75
 40
0.75
 40
0.75
 40
1.0
 40
1.0
 40
1.0
 40
1.0
 10
1.9346
 20
-8.315560000000001
 30
0.0
 10
1.9346
 20
-8.315560000000001
 30
0.0
 10
1.9346
 20
-7.906860000000001
 30
0.0
 10
1.9346
 20
-7.906860000000001
 30
0.0
 10
1.9346
 20
-7.906860000000001
 30
0.0
 10
1.9346
 20
-7.906860000000001
 30
0.0
 10
0.5722700000000001
 20
-7.906860000000001
 30
0.0
 10
0.5722700000000001
 20
-7.906860000000001
 30
0.0
 10
0.5722700000000001
 20
-7.906860000000001
 30
0.0
 10
0.5722700000000001
 20
-7.906860000000001
 30
0.0
 10
0.5722700000000001
 20
-8.315560000000001
 30
0.0
 10
0.5722700000000001
 20
-8.315560000000001
 30
0.0
 10
0.5722700000000001
 20
-8.315560000000001
 30
0.0
 10
0.5722700000000001
 20
-8.315560000000001
 30
0.0
 10
1.9346
 20
-8.315560000000001
 30
0.0
 10
1.9346
 20
-8.315560000000001
 30
0.0
  0
SPLINE
  5
2D
330
1F
100
AcDbEntity
  8
Layer 1
 62
    22
370
     5
100
AcDbSpline
210
0.0
220
0.0
230
1.0
 70
    11
 71
     3
 72
    20
 73
    16
 74
     0
 42
0.0000000001
 43
0.0000000001
 40
0.0
 40
0.0
 40
0.0
 40
0.0
 40
0.25
 40
0.25
 40
0.25
 40
0.25
 40
0.5
 40
0.5
 40
0.5
 40
0.5
 40
0.75
 40
0.75
 40
0.75
 40
0.75
 40
1.0
 40
1.0
 40
1.0
 40
1.0
 10
6.703770000000001
 20
-8.19017
 30
0.0
 10
6.703770000000001
 20
-8.19017
 30
0.0
 10
6.703770000000001
 20
-7.781480000000001
 30
0.0
 10
6.703770000000001
 20
-7.781480000000001
 30
0.0
 10
6.703770000000001
 20
-7.781480000000001
 30
0.0
 10
6.703770000000001
 20
-7.781480000000001
 30
0.0
 10
5.34144
 20
-7.781480000000001
 30
0.0
 10
5.34144
 20
-7.781480000000001
 30
0.0
 10
5.34144
 20
-7.781480000000001
 30
0.0
 10
5.34144
 20
-7.781480000000001
 30
0.0
 10
5.34144
 20
-8.19017
 30
0.0
 10
5.34144
 20
-8.19017
 30
0.0
 10
5.34144
 20
-8.19017
 30
0.0
 10
5.34144
 20
-8.19017
 30
0.0
 10
6.703770000000001
 20
-8.19017
 30
0.0
 10
6.703770000000001
 20
-8.19017
 30
0.0
  0
SPLINE
  5
2E
330
1F
100
AcDbEntity
  8
Layer 1
 62
    22
370
     5
100
AcDbSpline
210
0.0
220
0.0
230
1.0
 70
    11
 71
     3
 72
    28
 73
    24
 74
     0
 42
0.0000000001
 43
0.0000000001
 40
0.0
 40
0.0
 40
0.0
 40
0.0
 40
0.1666666666666667
 40
0.1666666666666667
 40
0.1666666666666667
 40
0.1666666666666667
 40
0.3333333333333333
 40
0.3333333333333333
 40
0.3333333333333333
 40
0.3333333333333333
 40
0.5
 40
0.5
 40
0.5
 40
0.5
 40
0.6666666666666666
 40
0.6666666666666666
 40
0.6666666666666666
 40
0.6666666666666666
 40
0.8333333333333333
 40
0.8333333333333333
 40
0.8333333333333333
 40
0.8333333333333333
 40
1.0
 40
1.0
 40
1.0
 40
1.0
 10
0.22337
 20
-6.47217
 30
0.0
 10
0.22337
 20
-6.47217
 30
0.0
 10
6.031190000000001
 20
-6.47217
 30
0.0
 10
6.031190000000001
 20
-6.47217
 30
0.0
 10
6.031190000000001
 20
-6.47217
 30
0.0
 10
6.21084
 20
-6.47217
 30
0.0
 10
6.357780000000001
 20
-6.276770000000001
 30
0.0
 10
6.357780000000001
 20
-6.12992
 30
0.0
 10
6.357780000000001
 20
-6.12992
 30
0.0
 10
6.357780000000001
 20
-6.12992
 30
0.0
 10
6.357780000000001
 20
-3.19614
 30
0.0
 10
6.357780000000001
 20
-3.19614
 30
0.0
 10
6.357780000000001
 20
-3.19614
 30
0.0
 10
6.357780000000001
 20
-3.04928
 30
0.0
 10
6.210610000000001
 20
-2.86592
 30
0.0
 10
6.031190000000001
 20
-2.86592
 30
0.0
 10
6.031190000000001
 20
-2.86592
 30
0.0
 10
6.031190000000001
 20
-2.86592
 30
0.0
 10
0.22337
 20
-2.86592
 30
0.0
 10
0.22337
 20
-2.86592
 30
0.0
 10
0.22337
 20
-2.86592
 30
0.0
 10
0.22337
 20
-2.86592
 30
0.0
 10
0.22337
 20
-6.47217
 30
0.0
 10
0.22337
 20
-6.47217
 30
0.0
  0
SPLINE
  5
2F
330
1F
100
AcDbEntity
  8
Layer 1
 62
    22
370
     5
100
AcDbSpline
210
0.0
220
0.0
230
1.0
 70
     8
 71
     3
 72
   140
 73
   136
 74
     0
 42
0.0000000001
 43
0.0000000001
 40
0.0
 40
0.0
 40
0.0
 40
0.0
 40
0.0294117647058824
 40
0.0294117647058824
 40
0.0294117647058824
 40
0.0294117647058824
 40
0.0588235294117647
 40
0.0588235294117647
 40
0.0588235294117647
 40
0.0588235294117647
 40
0.0882352941176471
 40
0.0882352941176471
 40
0.0882352941176471
 40
0.0882352941176471
 40
0.1176470588235294
 40
0.1176470588235294
 40
0.1176470588235294
 40
0.1176470588235294
 40
0.1470588235294118
 40
0.1470588235294118
 40
0.1470588235294118
 40
0.1470588235294118
 40
0.1764705882352941
 40
0.1764705882352941
 40
0.1764705882352941
 40
0.1764705882352941
 40
0.2058823529411765
 40
0.2058823529411765
 40
0.2058823529411765
 40
0.2058823529411765
 40
0.2352941176470589
 40
0.2352941176470589
 40
0.2352941176470589
 40
0.2352941176470589
 40
0.2647058823529412
 40
0.2647058823529412
 40
0.2647058823529412
 40
0.2647058823529412
 40
0.2941176470588235
 40
0.2941176470588235
 40
0.2941176470588235
 40
0.2941176470588235
 40
0.3235294117647059
 40
0.3235294117647059
 40
0.3235294117647059
 40
0.3235294117647059
 40
0.3529411764705883
 40
0.3529411764705883
 40
0.3529411764705883
 40
0.3529411764705883
 40
0.3823529411764706
 40
0.3823529411764706
 40
0.3823529411764706
 40
0.3823529411764706
 40
0.411764705882353
 40
0.411764705882353
 40
0.411764705882353
 40
0.411764705882353
 40
0.4411764705882353
 40
0.4411764705882353
 40
0.4411764705882353
 40
0.4411764705882353
 40
0.4705882352941177
 40
0.4705882352941177
 40
0.4705882352941177
 40
0.4705882352941177
 40
0.5
 40
0.5
 40
0.5
 40
0.5
 40
0.5294117647058824
 40
0.5294117647058824
 40
0.5294117647058824
 40
0.5294117647058824
 40
0.5588235294117647
 40
0.5588235294117647
 40
0.5588235294117647
 40
0.5588235294117647
 40
0.5882352941176471
 40
0.5882352941176471
 40
0.5882352941176471
 40
0.5882352941176471
 40
0.6176470588235294
 40
0.6176470588235294
 40
0.6176470588235294
 40
0.6176470588235294
 40
0.6470588235294118
 40
0.6470588235294118
 40
0.6470588235294118
 40
0.6470588235294118
 40
0.6764705882352942
 40
0.6764705882352942
 40
0.6764705882352942
 40
0.6764705882352942
 40
0.7058823529411765
 40
0.7058823529411765
 40
0.7058823529411765
 40
0.7058823529411765
 40
0.7352941176470589
 40
0.7352941176470589
 40
0.7352941176470589
 40
0.7352941176470589
 40
0.7647058823529412
 40
0.7647058823529412
 40
0.7647058823529412
 40
0.7647058823529412
 40
0.7941176470588236
 40
0.7941176470588236
 40
0.7941176470588236
 40
0.7941176470588236
 40
0.823529411764706
 40
0.823529411764706
 40
0.823529411764706
 40
0.823529411764706
 40
0.8529411764705883
 40
0.8529411764705883
 40
0.8529411764705883
 40
0.8529411764705883
 40
0.8823529411764707
 40
0.8823529411764707
 40
0.8823529411764707
 40
0.8823529411764707
 40
0.911764705882353
 40
0.911764705882353
 40
0.911764705882353
 40
0.911764705882353
 40
0.9411764705882354
 40
0.9411764705882354
 40
0.9411764705882354
 40
0.9411764705882354
 40
0.9705882352941178
 40
0.9705882352941178
 40
0.9705882352941178
 40
0.9705882352941178
 40
1.0
 40
1.0
 40
1.0
 40
1.0
 10
-0.18522
 20
-1.84765
 30
0.0
 10
-0.18522
 20
-1.84765
 30
0.0
 10
-0.18391
 20
-0.7268300000000001
 30
0.0
 10
-0.18391
 20
-0.7268300000000001
 30
0.0
 10
-0.18391
 20
-0.7268300000000001
 30
0.0
 10
-0.18391
 20
-0.7268300000000001
 30
0.0
 10
0.5734600000000001
 20
-0.72482
 30
0.0
 10
0.5734600000000001
 20
-0.72482
 30
0.0
 10
0.5734600000000001
 20
-0.72482
 30
0.0
 10
0.5734600000000001
 20
-0.72482
 30
0.0
 10
0.5734600000000001
 20
-1.13463
 30
0.0
 10
0.5734600000000001
 20
-1.13463
 30
0.0
 10
0.5734600000000001
 20
-1.13463
 30
0.0
 10
0.5734600000000001
 20
-1.13463
 30
0.0
 10
1.9358
 20
-1.13463
 30
0.0
 10
1.9358
 20
-1.13463
 30
0.0
 10
1.9358
 20
-1.13463
 30
0.0
 10
1.9358
 20
-1.13463
 30
0.0
 10
1.9358
 20
-0.72482
 30
0.0
 10
1.9358
 20
-0.72482
 30
0.0
 10
1.9358
 20
-0.72482
 30
0.0
 10
1.9358
 20
-0.72482
 30
0.0
 10
5.341620000000001
 20
-0.72482
 30
0.0
 10
5.341620000000001
 20
-0.72482
 30
0.0
 10
5.341620000000001
 20
-0.72482
 30
0.0
 10
5.341620000000001
 20
-0.72482
 30
0.0
 10
5.34159
 20
-1.13463
 30
0.0
 10
5.34159
 20
-1.13463
 30
0.0
 10
5.34159
 20
-1.13463
 30
0.0
 10
5.34159
 20
-1.13463
 30
0.0
 10
6.703930000000001
 20
-1.13463
 30
0.0
 10
6.703930000000001
 20
-1.13463
 30
0.0
 10
6.703930000000001
 20
-1.13463
 30
0.0
 10
6.703930000000001
 20
-1.13463
 30
0.0
 10
6.703930000000001
 20
-0.72482
 30
0.0
 10
6.703930000000001
 20
-0.72482
 30
0.0
 10
6.703930000000001
 20
-0.72482
 30
0.0
 10
6.703930000000001
 20
-0.72482
 30
0.0
 10
7.784260000000001
 20
-0.7247400000000001
 30
0.0
 10
7.784260000000001
 20
-0.7247400000000001
 30
0.0
 10
7.784260000000001
 20
-0.7247400000000001
 30
0.0
 10
7.784260000000001
 20
-0.7247400000000001
 30
0.0
 10
7.784260000000001
 20
-3.722210000000001
 30
0.0
 10
7.784260000000001
 20
-3.722210000000001
 30
0.0
 10
7.784260000000001
 20
-3.722210000000001
 30
0.0
 10
7.784260000000001
 20
-3.722210000000001
 30
0.0
 10
7.988600000000001
 20
-3.722210000000001
 30
0.0
 10
7.988600000000001
 20
-3.722210000000001
 30
0.0
 10
7.988600000000001
 20
-3.722210000000001
 30
0.0
 10
7.988600000000001
 20
-3.722210000000001
 30
0.0
 10
7.988600000000001
 20
-5.084540000000001
 30
0.0
 10
7.988600000000001
 20
-5.084540000000001
 30
0.0
 10
7.988600000000001
 20
-5.084540000000001
 30
0.0
 10
7.988600000000001
 20
-5.084540000000001
 30
0.0
 10
7.784260000000001
 20
-5.084540000000001
 30
0.0
 10
7.784260000000001
 20
-5.084540000000001
 30
0.0
 10
7.784260000000001
 20
-5.084540000000001
 30
0.0
 10
7.784260000000001
 20
-5.084540000000001
 30
0.0
 10
7.784260000000001
 20
-10.53383
 30
0.0
 10
7.784260000000001
 20
-10.53383
 30
0.0
 10
7.784260000000001
 20
-10.53383
 30
0.0
 10
7.784260000000001
 20
-10.53383
 30
0.0
 10
7.988600000000001
 20
-10.53383
 30
0.0
 10
7.988600000000001
 20
-10.53383
 30
0.0
 10
7.988600000000001
 20
-10.53383
 30
0.0
 10
7.988600000000001
 20
-10.53383
 30
0.0
 10
7.988600000000001
 20
-11.89616
 30
0.0
 10
7.988600000000001
 20
-11.89616
 30
0.0
 10
7.988600000000001
 20
-11.89616
 30
0.0
 10
7.988600000000001
 20
-11.89616
 30
0.0
 10
7.784260000000001
 20
-11.89616
 30
0.0
 10
7.784260000000001
 20
-11.89616
 30
0.0
 10
7.784260000000001
 20
-11.89616
 30
0.0
 10
7.784260000000001
 20
-11.89616
 30
0.0
 10
7.784260000000001
 20
-14.62081
 30
0.0
 10
7.784260000000001
 20
-14.62081
 30
0.0
 10
7.784260000000001
 20
-14.62081
 30
0.0
 10
7.784260000000001
 20
-14.62081
 30
0.0
 10
6.703930000000001
 20
-14.61881
 30
0.0
 10
6.703930000000001
 20
-14.61881
 30
0.0
 10
6.703930000000001
 20
-14.61881
 30
0.0
 10
6.703930000000001
 20
-14.61881
 30
0.0
 10
6.703930000000001
 20
-14.20662
 30
0.0
 10
6.703930000000001
 20
-14.20662
 30
0.0
 10
6.703930000000001
 20
-14.20662
 30
0.0
 10
6.703930000000001
 20
-14.20662
 30
0.0
 10
5.34159
 20
-14.20662
 30
0.0
 10
5.34159
 20
-14.20662
 30
0.0
 10
5.34159
 20
-14.20662
 30
0.0
 10
5.34159
 20
-14.20662
 30
0.0
 10
5.34159
 20
-14.61881
 30
0.0
 10
5.34159
 20
-14.61881
 30
0.0
 10
5.34159
 20
-14.61881
 30
0.0
 10
5.34159
 20
-14.61881
 30
0.0
 10
1.9358
 20
-14.61881
 30
0.0
 10
1.9358
 20
-14.61881
 30
0.0
 10
1.9358
 20
-14.61881
 30
0.0
 10
1.9358
 20
-14.61881
 30
0.0
 10
1.92547
 20
-14.20662
 30
0.0
 10
1.92547
 20
-14.20662
 30
0.0
 10
1.92547
 20
-14.20662
 30
0.0
 10
1.92547
 20
-14.20662
 30
0.0
 10
0.5734600000000001
 20
-14.20662
 30
0.0
 10
0.5734600000000001
 20
-14.20662
 30
0.0
 10
0.5734600000000001
 20
-14.20662
 30
0.0
 10
0.5734600000000001
 20
-14.20662
 30
0.0
 10
0.5734600000000001
 20
-14.61881
 30
0.0
 10
0.5734600000000001
 20
-14.61881
 30
0.0
 10
0.5734600000000001
 20
-14.61881
 30
0.0
 10
0.5734600000000001
 20
-14.61881
 30
0.0
 10
0.5734600000000001
 20
-14.61881
 30
0.0
 10
0.5734600000000001
 20
-14.61881
 30
0.0
 10
0.5734600000000001
 20
-14.61881
 30
0.0
 10
0.5734600000000001
 20
-14.61881
 30
0.0
 10
-0.18533
 20
-14.62081
 30
0.0
 10
-0.18533
 20
-14.62081
 30
0.0
 10
-0.18533
 20
-14.62081
 30
0.0
 10
-0.18533
 20
-14.62081
 30
0.0
 10
-0.18533
 20
-11.89924
 30
0.0
 10
-0.18533
 20
-11.89924
 30
0.0
 10
-0.18533
 20
-11.89924
 30
0.0
 10
-0.18533
 20
-11.89924
 30
0.0
 10
-0.19779
 20
-11.93044
 30
0.0
 10
-0.19779
 20
-11.93044
 30
0.0
 10
-0.19779
 20
-11.93044
 30
0.0
 10
-0.19779
 20
-11.93044
 30
0.0
 10
-0.1822
 20
-8.91488
 30
0.0
 10
-0.1822
 20
-8.91488
 30
0.0
 10
-0.1822
 20
-8.91488
 30
0.0
 10
-0.1822
 20
-8.91488
 30
0.0
 10
-0.18533
 20
-8.899280000000001
 30
0.0
 10
-0.18533
 20
-8.899280000000001
 30
0.0
 10
-0.18533
 20
-8.899280000000001
 30
0.0
 10
-0.18533
 20
-8.899280000000001
 30
0.0
 10
-0.18533
 20
-1.8475
 30
0.0
 10
-0.18533
 20
-1.8475
 30
0.0
  0
SPLINE
  5
30
330
1F
100
AcDbEntity
  8
Layer 1
 62
    22
370
     5
100
AcDbSpline
210
0.0
220
0.0
230
1.0
 70
    11
 71
     3
 72
    20
 73
    16
 74
     0
 42
0.0000000001
 43
0.0000000001
 40
0.0
 40
0.0
 40
0.0
 40
0.0
 40
0.25
 40
0.25
 40
0.25
 40
0.25
 40
0.5
 40
0.5
 40
0.5
 40
0.5
 40
0.75
 40
0.75
 40
0.75
 40
0.75
 40
1.0
 40
1.0
 40
1.0
 40
1.0
 10
6.906260000000001
 20
-13.23141
 30
0.0
 10
6.906260000000001
 20
-13.23141
 30
0.0
 10
6.906260000000001
 20
-8.899280000000001
 30
0.0
 10
6.906260000000001
 20
-8.899280000000001
 30
0.0
 10
6.906260000000001
 20
-8.899280000000001
 30
0.0
 10
6.906260000000001
 20
-8.899280000000001
 30
0.0
 10
3.62866
 20
-8.899280000000001
 30
0.0
 10
3.62866
 20
-8.899280000000001
 30
0.0
 10
3.62866
 20
-8.899280000000001
 30
0.0
 10
3.62866
 20
-8.899280000000001
 30
0.0
 10
3.62866
 20
-13.23141
 30
0.0
 10
3.62866
 20
-13.23141
 30
0.0
 10
3.62866
 20
-13.23141
 30
0.0
 10
3.62866
 20
-13.23141
 30
0.0
 10
6.906260000000001
 20
-13.23141
 30
0.0
 10
6.906260000000001
 20
-13.23141
 30
0.0
  0
SPLINE
  5
31
330
1F
100
AcDbEntity
  8
Layer 1
 62
    22
370
     5
100
AcDbSpline
210
0.0
220
0.0
230
1.0
 70
    11
 71
     3
 72
    20
 73
    16
 74
     0
 42
0.0000000001
 43
0.0000000001
 40
0.0
 40
0.0
 40
0.0
 40
0.0
 40
0.25
 40
0.25
 40
0.25
 40
0.25
 40
0.5
 40
0.5
 40
0.5
 40
0.5
 40
0.75
 40
0.75
 40
0.75
 40
0.75
 40
1.0
 40
1.0
 40
1.0
 40
1.0
 10
-16.32765
 20
-8.20547
 30
0.0
 10
-16.32765
 20
-8.20547
 30
0.0
 10
-16.32765
 20
-7.79677
 30
0.0
 10
-16.32765
 20
-7.79677
 30
0.0
 10
-16.32765
 20
-7.79677
 30
0.0
 10
-16.32765
 20
-7.79677
 30
0.0
 10
-17.68997
 20
-7.79677
 30
0.0
 10
-17.68997
 20
-7.79677
 30
0.0
 10
-17.68997
 20
-7.79677
 30
0.0
 10
-17.68997
 20
-7.79677
 30
0.0
 10
-17.68997
 20
-8.20547
 30
0.0
 10
-17.68997
 20
-8.20547
 30
0.0
 10
-17.68997
 20
-8.20547
 30
0.0
 10
-17.68997
 20
-8.20547
 30
0.0
 10
-16.32765
 20
-8.20547
 30
0.0
 10
-16.32765
 20
-8.20547
 30
0.0
  0
SPLINE
  5
32
330
1F
100
AcDbEntity
  8
Layer 1
 62
    22
370
     5
100
AcDbSpline
210
0.0
220
0.0
230
1.0
 70
    11
 71
     3
 72
   116
 73
   112
 74
     0
 42
0.0000000001
 43
0.0000000001
 40
0.0
 40
0.0
 40
0.0
 40
0.0
 40
0.0357142857142857
 40
0.0357142857142857
 40
0.0357142857142857
 40
0.0357142857142857
 40
0.0714285714285714
 40
0.0714285714285714
 40
0.0714285714285714
 40
0.0714285714285714
 40
0.1071428571428571
 40
0.1071428571428571
 40
0.1071428571428571
 40
0.1071428571428571
 40
0.1428571428571429
 40
0.1428571428571429
 40
0.1428571428571429
 40
0.1428571428571429
 40
0.1785714285714286
 40
0.1785714285714286
 40
0.1785714285714286
 40
0.1785714285714286
 40
0.2142857142857143
 40
0.2142857142857143
 40
0.2142857142857143
 40
0.2142857142857143
 40
0.2499999999999999
 40
0.2499999999999999
 40
0.2499999999999999
 40
0.2499999999999999
 40
0.2857142857142856
 40
0.2857142857142856
 40
0.2857142857142856
 40
0.2857142857142856
 40
0.3214285714285713
 40
0.3214285714285713
 40
0.3214285714285713
 40
0.3214285714285713
 40
0.357142857142857
 40
0.357142857142857
 40
0.357142857142857
 40
0.357142857142857
 40
0.3928571428571427
 40
0.3928571428571427
 40
0.3928571428571427
 40
0.3928571428571427
 40
0.4285714285714284
 40
0.4285714285714284
 40
0.4285714285714284
 40
0.4285714285714284
 40
0.4642857142857141
 40
0.4642857142857141
 40
0.4642857142857141
 40
0.4642857142857141
 40
0.4999999999999998
 40
0.4999999999999998
 40
0.4999999999999998
 40
0.4999999999999998
 40
0.5357142857142856
 40
0.5357142857142856
 40
0.5357142857142856
 40
0.5357142857142856
 40
0.5714285714285713
 40
0.5714285714285713
 40
0.5714285714285713
 40
0.5714285714285713
 40
0.607142857142857
 40
0.607142857142857
 40
0.607142857142857
 40
0.607142857142857
 40
0.6428571428571427
 40
0.6428571428571427
 40
0.6428571428571427
 40
0.6428571428571427
 40
0.6785714285714284
 40
0.6785714285714284
 40
0.6785714285714284
 40
0.6785714285714284
 40
0.7142857142857141
 40
0.7142857142857141
 40
0.7142857142857141
 40
0.7142857142857141
 40
0.7499999999999998
 40
0.7499999999999998
 40
0.7499999999999998
 40
0.7499999999999998
 40
0.7857142857142855
 40
0.7857142857142855
 40
0.7857142857142855
 40
0.7857142857142855
 40
0.8214285714285712
 40
0.8214285714285712
 40
0.8214285714285712
 40
0.8214285714285712
 40
0.8571428571428569
 40
0.8571428571428569
 40
0.8571428571428569
 40
0.8571428571428569
 40
0.8928571428571426
 40
0.8928571428571426
 40
0.8928571428571426
 40
0.8928571428571426
 40
0.9285714285714283
 40
0.9285714285714283
 40
0.9285714285714283
 40
0.9285714285714283
 40
0.964285714285714
 40
0.964285714285714
 40
0.964285714285714
 40
0.964285714285714
 40
1.0
 40
1.0
 40
1.0
 40
1.0
 10
-13.603
 20
-14.63637
 30
0.0
 10
-13.603
 20
-14.63637
 30
0.0
 10
-13.603
 20
-11.91172
 30
0.0
 10
-13.603
 20
-11.91172
 30
0.0
 10
-13.603
 20
-11.91172
 30
0.0
 10
-13.603
 20
-11.91172
 30
0.0
 10
-14.01168
 20
-11.91172
 30
0.0
 10
-14.01168
 20
-11.91172
 30
0.0
 10
-14.01168
 20
-11.91172
 30
0.0
 10
-14.01168
 20
-11.91172
 30
0.0
 10
-14.01168
 20
-10.54939
 30
0.0
 10
-14.01168
 20
-10.54939
 30
0.0
 10
-14.01168
 20
-10.54939
 30
0.0
 10
-14.01168
 20
-10.54939
 30
0.0
 10
-13.603
 20
-10.54939
 30
0.0
 10
-13.603
 20
-10.54939
 30
0.0
 10
-13.603
 20
-10.54939
 30
0.0
 10
-13.603
 20
-10.54939
 30
0.0
 10
-13.603
 20
-5.100090000000001
 30
0.0
 10
-13.603
 20
-5.100090000000001
 30
0.0
 10
-13.603
 20
-5.100090000000001
 30
0.0
 10
-13.603
 20
-5.100090000000001
 30
0.0
 10
-14.01168
 20
-5.100090000000001
 30
0.0
 10
-14.01168
 20
-5.100090000000001
 30
0.0
 10
-14.01168
 20
-5.100090000000001
 30
0.0
 10
-14.01168
 20
-5.100090000000001
 30
0.0
 10
-14.01168
 20
-3.73778
 30
0.0
 10
-14.01168
 20
-3.73778
 30
0.0
 10
-14.01168
 20
-3.73778
 30
0.0
 10
-14.01168
 20
-3.73778
 30
0.0
 10
-13.603
 20
-3.73778
 30
0.0
 10
-13.603
 20
-3.73778
 30
0.0
 10
-13.603
 20
-3.73778
 30
0.0
 10
-13.603
 20
-3.73778
 30
0.0
 10
-13.603
 20
-0.74038
 30
0.0
 10
-13.603
 20
-0.74038
 30
0.0
 10
-13.603
 20
-0.74038
 30
0.0
 10
-13.603
 20
-0.74038
 30
0.0
 10
-16.32765
 20
-0.7403000000000001
 30
0.0
 10
-16.32765
 20
-0.7403000000000001
 30
0.0
 10
-16.32765
 20
-0.7403000000000001
 30
0.0
 10
-16.32765
 20
-0.7403000000000001
 30
0.0
 10
-16.32765
 20
-1.14894
 30
0.0
 10
-16.32765
 20
-1.14894
 30
0.0
 10
-16.32765
 20
-1.14894
 30
0.0
 10
-16.32765
 20
-1.14894
 30
0.0
 10
-17.68996
 20
-1.14894
 30
0.0
 10
-17.68996
 20
-1.14894
 30
0.0
 10
-17.68996
 20
-1.14894
 30
0.0
 10
-17.68996
 20
-1.14894
 30
0.0
 10
-17.68997
 20
-0.7403000000000001
 30
0.0
 10
-17.68997
 20
-0.7403000000000001
 30
0.0
 10
-17.68997
 20
-0.7403000000000001
 30
0.0
 10
-17.68997
 20
-0.7403000000000001
 30
0.0
 10
-20.41462
 20
-0.74038
 30
0.0
 10
-20.41462
 20
-0.74038
 30
0.0
 10
-20.41462
 20
-0.74038
 30
0.0
 10
-20.41462
 20
-0.74038
 30
0.0
 10
-20.41462
 20
-3.73778
 30
0.0
 10
-20.41462
 20
-3.73778
 30
0.0
 10
-20.41462
 20
-3.73778
 30
0.0
 10
-20.41462
 20
-3.73778
 30
0.0
 10
-20.00592
 20
-3.73778
 30
0.0
 10
-20.00592
 20
-3.73778
 30
0.0
 10
-20.00592
 20
-3.73778
 30
0.0
 10
-20.00592
 20
-3.73778
 30
0.0
 10
-20.00592
 20
-5.100090000000001
 30
0.0
 10
-20.00592
 20
-5.100090000000001
 30
0.0
 10
-20.00592
 20
-5.100090000000001
 30
0.0
 10
-20.00592
 20
-5.100090000000001
 30
0.0
 10
-20.41462
 20
-5.100090000000001
 30
0.0
 10
-20.41462
 20
-5.100090000000001
 30
0.0
 10
-20.41462
 20
-5.100090000000001
 30
0.0
 10
-20.41462
 20
-5.100090000000001
 30
0.0
 10
-20.41462
 20
-10.54939
 30
0.0
 10
-20.41462
 20
-10.54939
 30
0.0
 10
-20.41462
 20
-10.54939
 30
0.0
 10
-20.41462
 20
-10.54939
 30
0.0
 10
-20.00592
 20
-10.54939
 30
0.0
 10
-20.00592
 20
-10.54939
 30
0.0
 10
-20.00592
 20
-10.54939
 30
0.0
 10
-20.00592
 20
-10.54939
 30
0.0
 10
-20.00592
 20
-11.91173
 30
0.0
 10
-20.00592
 20
-11.91173
 30
0.0
 10
-20.00592
 20
-11.91173
 30
0.0
 10
-20.00592
 20
-11.91173
 30
0.0
 10
-20.41462
 20
-11.91172
 30
0.0
 10
-20.41462
 20
-11.91172
 30
0.0
 10
-20.41462
 20
-11.91172
 30
0.0
 10
-20.41462
 20
-11.91172
 30
0.0
 10
-20.41462
 20
-14.63637
 30
0.0
 10
-20.41462
 20
-14.63637
 30
0.0
 10
-20.41462
 20
-14.63637
 30
0.0
 10
-20.41462
 20
-14.63637
 30
0.0
 10
-17.68996
 20
-14.63637
 30
0.0
 10
-17.68996
 20
-14.63637
 30
0.0
 10
-17.68996
 20
-14.63637
 30
0.0
 10
-17.68996
 20
-14.63637
 30
0.0
 10
-17.68997
 20
-14.22767
 30
0.0
 10
-17.68997
 20
-14.22767
 30
0.0
 10
-17.68997
 20
-14.22767
 30
0.0
 10
-17.68997
 20
-14.22767
 30
0.0
 10
-16.32763
 20
-14.22767
 30
0.0
 10
-16.32763
 20
-14.22767
 30
0.0
 10
-16.32763
 20
-14.22767
 30
0.0
 10
-16.32763
 20
-14.22767
 30
0.0
 10
-16.32763
 20
-14.63637
 30
0.0
 10
-16.32763
 20
-14.63637
 30
0.0
 10
-16.32763
 20
-14.63637
 30
0.0
 10
-16.32763
 20
-14.63637
 30
0.0
 10
-13.603
 20
-14.63637
 30
0.0
 10
-13.603
 20
-14.63637
 30
0.0
  0
SPLINE
  5
33
330
1F
100
AcDbEntity
  8
Layer 1
 62
    22
370
     5
100
AcDbSpline
210
0.0
220
0.0
230
1.0
 70
    11
 71
     3
 72
   100
 73
    96
 74
     0
 42
0.0000000001
 43
0.0000000001
 40
0.0
 40
0.0
 40
0.0
 40
0.0
 40
0.0416666666666667
 40
0.0416666666666667
 40
0.0416666666666667
 40
0.0416666666666667
 40
0.0833333333333333
 40
0.0833333333333333
 40
0.0833333333333333
 40
0.0833333333333333
 40
0.125
 40
0.125
 40
0.125
 40
0.125
 40
0.1666666666666667
 40
0.1666666666666667
 40
0.1666666666666667
 40
0.1666666666666667
 40
0.2083333333333333
 40
0.2083333333333333
 40
0.2083333333333333
 40
0.2083333333333333
 40
0.25
 40
0.25
 40
0.25
 40
0.25
 40
0.2916666666666666
 40
0.2916666666666666
 40
0.2916666666666666
 40
0.2916666666666666
 40
0.3333333333333333
 40
0.3333333333333333
 40
0.3333333333333333
 40
0.3333333333333333
 40
0.375
 40
0.375
 40
0.375
 40
0.375
 40
0.4166666666666667
 40
0.4166666666666667
 40
0.4166666666666667
 40
0.4166666666666667
 40
0.4583333333333334
 40
0.4583333333333334
 40
0.4583333333333334
 40
0.4583333333333334
 40
0.5
 40
0.5
 40
0.5
 40
0.5
 40
0.5416666666666666
 40
0.5416666666666666
 40
0.5416666666666666
 40
0.5416666666666666
 40
0.5833333333333333
 40
0.5833333333333333
 40
0.5833333333333333
 40
0.5833333333333333
 40
0.6249999999999999
 40
0.6249999999999999
 40
0.6249999999999999
 40
0.6249999999999999
 40
0.6666666666666665
 40
0.6666666666666665
 40
0.6666666666666665
 40
0.6666666666666665
 40
0.7083333333333332
 40
0.7083333333333332
 40
0.7083333333333332
 40
0.7083333333333332
 40
0.7499999999999998
 40
0.7499999999999998
 40
0.7499999999999998
 40
0.7499999999999998
 40
0.7916666666666664
 40
0.7916666666666664
 40
0.7916666666666664
 40
0.7916666666666664
 40
0.833333333333333
 40
0.833333333333333
 40
0.833333333333333
 40
0.833333333333333
 40
0.8749999999999997
 40
0.8749999999999997
 40
0.8749999999999997
 40
0.8749999999999997
 40
0.9166666666666663
 40
0.9166666666666663
 40
0.9166666666666663
 40
0.9166666666666663
 40
0.9583333333333329
 40
0.9583333333333329
 40
0.9583333333333329
 40
0.9583333333333329
 40
1.0
 40
1.0
 40
1.0
 40
1.0
 10
-9.44848
 20
6.01334
 30
0.0
 10
-9.44848
 20
6.01334
 30
0.0
 10
-9.44848
 20
3.697400000000001
 30
0.0
 10
-9.44848
 20
3.697400000000001
 30
0.0
 10
-9.44848
 20
3.697400000000001
 30
0.0
 10
-9.44848
 20
3.697400000000001
 30
0.0
 10
-9.652830000000002
 20
3.697400000000001
 30
0.0
 10
-9.652830000000002
 20
3.697400000000001
 30
0.0
 10
-9.652830000000002
 20
3.697400000000001
 30
0.0
 10
-9.652830000000002
 20
3.697400000000001
 30
0.0
 10
-9.652830000000002
 20
2.33507
 30
0.0
 10
-9.652830000000002
 20
2.33507
 30
0.0
 10
-9.652830000000002
 20
2.33507
 30
0.0
 10
-9.652830000000002
 20
2.33507
 30
0.0
 10
-9.44848
 20
2.33507
 30
0.0
 10
-9.44848
 20
2.33507
 30
0.0
 10
-9.44848
 20
2.33507
 30
0.0
 10
-9.44848
 20
2.33507
 30
0.0
 10
-9.44848
 20
0.01912
 30
0.0
 10
-9.44848
 20
0.01912
 30
0.0
 10
-9.44848
 20
0.01912
 30
0.0
 10
-9.44848
 20
0.01912
 30
0.0
 10
-8.368160000000001
 20
0.01879
 30
0.0
 10
-8.368160000000001
 20
0.01879
 30
0.0
 10
-8.368160000000001
 20
0.01879
 30
0.0
 10
-8.368160000000001
 20
0.01879
 30
0.0
 10
-8.368160000000001
 20
-0.38729
 30
0.0
 10
-8.368160000000001
 20
-0.38729
 30
0.0
 10
-8.368160000000001
 20
-0.38729
 30
0.0
 10
-8.368160000000001
 20
-0.38729
 30
0.0
 10
-7.00583
 20
-0.38729
 30
0.0
 10
-7.00583
 20
-0.38729
 30
0.0
 10
-7.00583
 20
-0.38729
 30
0.0
 10
-7.00583
 20
-0.38729
 30
0.0
 10
-7.00583
 20
0.01879
 30
0.0
 10
-7.00583
 20
0.01879
 30
0.0
 10
-7.00583
 20
0.01879
 30
0.0
 10
-7.00583
 20
0.01879
 30
0.0
 10
-3.60002
 20
0.01879
 30
0.0
 10
-3.60002
 20
0.01879
 30
0.0
 10
-3.60002
 20
0.01879
 30
0.0
 10
-3.60002
 20
0.01879
 30
0.0
 10
-3.60002
 20
-0.38729
 30
0.0
 10
-3.60002
 20
-0.38729
 30
0.0
 10
-3.60002
 20
-0.38729
 30
0.0
 10
-3.60002
 20
-0.38729
 30
0.0
 10
-2.23769
 20
-0.38729
 30
0.0
 10
-2.23769
 20
-0.38729
 30
0.0
 10
-2.23769
 20
-0.38729
 30
0.0
 10
-2.23769
 20
-0.38729
 30
0.0
 10
-2.23769
 20
0.01879
 30
0.0
 10
-2.23769
 20
0.01879
 30
0.0
 10
-2.23769
 20
0.01879
 30
0.0
 10
-2.23769
 20
0.01879
 30
0.0
 10
-1.47888
 20
0.01879
 30
0.0
 10
-1.47888
 20
0.01879
 30
0.0
 10
-1.47888
 20
0.01879
 30
0.0
 10
-1.47888
 20
0.01879
 30
0.0
 10
-1.47888
 20
6.013750000000001
 30
0.0
 10
-1.47888
 20
6.013750000000001
 30
0.0
 10
-1.47888
 20
6.013750000000001
 30
0.0
 10
-1.47888
 20
6.013750000000001
 30
0.0
 10
-2.23769
 20
6.013750000000001
 30
0.0
 10
-2.23769
 20
6.013750000000001
 30
0.0
 10
-2.23769
 20
6.013750000000001
 30
0.0
 10
-2.23769
 20
6.013750000000001
 30
0.0
 10
-2.23769
 20
6.422040000000001
 30
0.0
 10
-2.23769
 20
6.422040000000001
 30
0.0
 10
-2.23769
 20
6.422040000000001
 30
0.0
 10
-2.23769
 20
6.422040000000001
 30
0.0
 10
-3.60002
 20
6.422020000000001
 30
0.0
 10
-3.60002
 20
6.422020000000001
 30
0.0
 10
-3.60002
 20
6.422020000000001
 30
0.0
 10
-3.60002
 20
6.422020000000001
 30
0.0
 10
-3.60002
 20
6.013750000000001
 30
0.0
 10
-3.60002
 20
6.013750000000001
 30
0.0
 10
-3.60002
 20
6.013750000000001
 30
0.0
 10
-3.60002
 20
6.013750000000001
 30
0.0
 10
-7.00583
 20
6.013750000000001
 30
0.0
 10
-7.00583
 20
6.013750000000001
 30
0.0
 10
-7.00583
 20
6.013750000000001
 30
0.0
 10
-7.00583
 20
6.013750000000001
 30
0.0
 10
-7.00583
 20
6.422020000000001
 30
0.0
 10
-7.00583
 20
6.422020000000001
 30
0.0
 10
-7.00583
 20
6.422020000000001
 30
0.0
 10
-7.00583
 20
6.422020000000001
 30
0.0
 10
-8.368160000000001
 20
6.422020000000001
 30
0.0
 10
-8.368160000000001
 20
6.422020000000001
 30
0.0
 10
-8.368160000000001
 20
6.422020000000001
 30
0.0
 10
-8.368160000000001
 20
6.422020000000001
 30
0.0
 10
-8.368160000000001
 20
6.013750000000001
 30
0.0
 10
-8.368160000000001
 20
6.013750000000001
 30
0.0
 10
-8.368160000000001
 20
6.013750000000001
 30
0.0
 10
-8.368160000000001
 20
6.013750000000001
 30
0.0
 10
-9.44848
 20
6.01334
 30
0.0
 10
-9.44848
 20
6.01334
 30
0.0
  0
SPLINE
  5
34
330
1F
100
AcDbEntity
  8
Layer 1
 62
    22
370
     5
100
AcDbSpline
210
0.0
220
0.0
230
1.0
 70
    11
 71
     3
 72
    20
 73
    16
 74
     0
 42
0.0000000001
 43
0.0000000001
 40
0.0
 40
0.0
 40
0.0
 40
0.0
 40
0.25
 40
0.25
 40
0.25
 40
0.25
 40
0.5
 40
0.5
 40
0.5
 40
0.5
 40
0.75
 40
0.75
 40
0.75
 40
0.75
 40
1.0
 40
1.0
 40
1.0
 40
1.0
 10
-7.101680000000001
 20
2.84418
 30
0.0
 10
-7.101680000000001
 20
2.84418
 30
0.0
 10
-8.570460000000001
 20
2.84418
 30
0.0
 10
-8.570460000000001
 20
2.84418
 30
0.0
 10
-8.570460000000001
 20
2.84418
 30
0.0
 10
-8.570460000000001
 20
2.84418
 30
0.0
 10
-8.570460000000001
 20
1.20145
 30
0.0
 10
-8.570460000000001
 20
1.20145
 30
0.0
 10
-8.570460000000001
 20
1.20145
 30
0.0
 10
-8.570460000000001
 20
1.20145
 30
0.0
 10
-7.101680000000001
 20
1.20145
 30
0.0
 10
-7.101680000000001
 20
1.20145
 30
0.0
 10
-7.101680000000001
 20
1.20145
 30
0.0
 10
-7.101680000000001
 20
1.20145
 30
0.0
 10
-7.101680000000001
 20
2.84418
 30
0.0
 10
-7.101680000000001
 20
2.84418
 30
0.0
  0
SPLINE
  5
35
330
1F
100
AcDbEntity
  8
Layer 1
 62
    22
370
     5
100
AcDbSpline
210
0.0
220
0.0
230
1.0
 70
    11
 71
     3
 72
    20
 73
    16
 74
     0
 42
0.0000000001
 43
0.0000000001
 40
0.0
 40
0.0
 40
0.0
 40
0.0
 40
0.25
 40
0.25
 40
0.25
 40
0.25
 40
0.5
 40
0.5
 40
0.5
 40
0.5
 40
0.75
 40
0.75
 40
0.75
 40
0.75
 40
1.0
 40
1.0
 40
1.0
 40
1.0
 10
-6.727480000000001
 20
2.84418
 30
0.0
 10
-6.727480000000001
 20
2.84418
 30
0.0
 10
-6.727480000000001
 20
1.20145
 30
0.0
 10
-6.727480000000001
 20
1.20145
 30
0.0
 10
-6.727480000000001
 20
1.20145
 30
0.0
 10
-6.727480000000001
 20
1.20145
 30
0.0
 10
-5.30088
 20
1.20145
 30
0.0
 10
-5.30088
 20
1.20145
 30
0.0
 10
-5.30088
 20
1.20145
 30
0.0
 10
-5.30088
 20
1.20145
 30
0.0
 10
-5.30088
 20
2.84418
 30
0.0
 10
-5.30088
 20
2.84418
 30
0.0
 10
-5.30088
 20
2.84418
 30
0.0
 10
-5.30088
 20
2.84418
 30
0.0
 10
-6.727480000000001
 20
2.84418
 30
0.0
 10
-6.727480000000001
 20
2.84418
 30
0.0
  0
SPLINE
  5
36
330
1F
100
AcDbEntity
  8
Layer 1
 62
    22
370
     5
100
AcDbSpline
210
0.0
220
0.0
230
1.0
 70
    11
 71
     3
 72
    20
 73
    16
 74
     0
 42
0.0000000001
 43
0.0000000001
 40
0.0
 40
0.0
 40
0.0
 40
0.0
 40
0.25
 40
0.25
 40
0.25
 40
0.25
 40
0.5
 40
0.5
 40
0.5
 40
0.5
 40
0.75
 40
0.75
 40
0.75
 40
0.75
 40
1.0
 40
1.0
 40
1.0
 40
1.0
 10
-6.727480000000001
 20
3.2451
 30
0.0
 10
-6.727480000000001
 20
3.2451
 30
0.0
 10
-5.30088
 20
3.2451
 30
0.0
 10
-5.30088
 20
3.2451
 30
0.0
 10
-5.30088
 20
3.2451
 30
0.0
 10
-5.30088
 20
3.2451
 30
0.0
 10
-5.30088
 20
4.84931
 30
0.0
 10
-5.30088
 20
4.84931
 30
0.0
 10
-5.30088
 20
4.84931
 30
0.0
 10
-5.30088
 20
4.84931
 30
0.0
 10
-6.727480000000001
 20
4.84931
 30
0.0
 10
-6.727480000000001
 20
4.84931
 30
0.0
 10
-6.727480000000001
 20
4.84931
 30
0.0
 10
-6.727480000000001
 20
4.84931
 30
0.0
 10
-6.727480000000001
 20
3.2451
 30
0.0
 10
-6.727480000000001
 20
3.2451
 30
0.0
  0
SPLINE
  5
37
330
1F
100
AcDbEntity
  8
Layer 1
 62
    22
370
     5
100
AcDbSpline
210
0.0
220
0.0
230
1.0
 70
    11
 71
     3
 72
    20
 73
    16
 74
     0
 42
0.0000000001
 43
0.0000000001
 40
0.0
 40
0.0
 40
0.0
 40
0.0
 40
0.25
 40
0.25
 40
0.25
 40
0.25
 40
0.5
 40
0.5
 40
0.5
 40
0.5
 40
0.75
 40
0.75
 40
0.75
 40
0.75
 40
1.0
 40
1.0
 40
1.0
 40
1.0
 10
-7.101680000000001
 20
3.2451
 30
0.0
 10
-7.101680000000001
 20
3.2451
 30
0.0
 10
-7.101680000000001
 20
4.84931
 30
0.0
 10
-7.101680000000001
 20
4.84931
 30
0.0
 10
-7.101680000000001
 20
4.84931
 30
0.0
 10
-7.101680000000001
 20
4.84931
 30
0.0
 10
-8.570460000000001
 20
4.84931
 30
0.0
 10
-8.570460000000001
 20
4.84931
 30
0.0
 10
-8.570460000000001
 20
4.84931
 30
0.0
 10
-8.570460000000001
 20
4.84931
 30
0.0
 10
-8.570460000000001
 20
3.2451
 30
0.0
 10
-8.570460000000001
 20
3.2451
 30
0.0
 10
-8.570460000000001
 20
3.2451
 30
0.0
 10
-8.570460000000001
 20
3.2451
 30
0.0
 10
-7.101680000000001
 20
3.2451
 30
0.0
 10
-7.101680000000001
 20
3.2451
 30
0.0
  0
SPLINE
  5
38
330
1F
100
AcDbEntity
  8
Layer 1
 62
    22
370
     5
100
AcDbSpline
210
0.0
220
0.0
230
1.0
 70
    11
 71
     3
 72
    20
 73
    16
 74
     0
 42
0.0000000001
 43
0.0000000001
 40
0.0
 40
0.0
 40
0.0
 40
0.0
 40
0.25
 40
0.25
 40
0.25
 40
0.25
 40
0.5
 40
0.5
 40
0.5
 40
0.5
 40
0.75
 40
0.75
 40
0.75
 40
0.75
 40
1.0
 40
1.0
 40
1.0
 40
1.0
 10
-6.313350000000001
 20
-8.228000000000002
 30
0.0
 10
-6.313350000000001
 20
-8.228000000000002
 30
0.0
 10
-6.313350000000001
 20
-7.819300000000001
 30
0.0
 10
-6.313350000000001
 20
-7.819300000000001
 30
0.0
 10
-6.313350000000001
 20
-7.819300000000001
 30
0.0
 10
-6.313350000000001
 20
-7.819300000000001
 30
0.0
 10
-4.95103
 20
-7.819300000000001
 30
0.0
 10
-4.95103
 20
-7.819300000000001
 30
0.0
 10
-4.95103
 20
-7.819300000000001
 30
0.0
 10
-4.95103
 20
-7.819300000000001
 30
0.0
 10
-4.95103
 20
-8.228000000000002
 30
0.0
 10
-4.95103
 20
-8.228000000000002
 30
0.0
 10
-4.95103
 20
-8.228000000000002
 30
0.0
 10
-4.95103
 20
-8.228000000000002
 30
0.0
 10
-6.313350000000001
 20
-8.228000000000002
 30
0.0
 10
-6.313350000000001
 20
-8.228000000000002
 30
0.0
  0
SPLINE
  5
39
330
1F
100
AcDbEntity
  8
Layer 1
 62
    22
370
     5
100
AcDbSpline
210
0.0
220
0.0
230
1.0
 70
    11
 71
     3
 72
    20
 73
    16
 74
     0
 42
0.0000000001
 43
0.0000000001
 40
0.0
 40
0.0
 40
0.0
 40
0.0
 40
0.25
 40
0.25
 40
0.25
 40
0.25
 40
0.5
 40
0.5
 40
0.5
 40
0.5
 40
0.75
 40
0.75
 40
0.75
 40
0.75
 40
1.0
 40
1.0
 40
1.0
 40
1.0
 10
-11.08252
 20
-8.10261
 30
0.0
 10
-11.08252
 20
-8.10261
 30
0.0
 10
-11.08252
 20
-7.693910000000001
 30
0.0
 10
-11.08252
 20
-7.693910000000001
 30
0.0
 10
-11.08252
 20
-7.693910000000001
 30
0.0
 10
-11.08252
 20
-7.693910000000001
 30
0.0
 10
-9.7202
 20
-7.693910000000001
 30
0.0
 10
-9.7202
 20
-7.693910000000001
 30
0.0
 10
-9.7202
 20
-7.693910000000001
 30
0.0
 10
-9.7202
 20
-7.693910000000001
 30
0.0
 10
-9.7202
 20
-8.10261
 30
0.0
 10
-9.7202
 20
-8.10261
 30
0.0
 10
-9.7202
 20
-8.10261
 30
0.0
 10
-9.7202
 20
-8.10261
 30
0.0
 10
-11.08252
 20
-8.10261
 30
0.0
 10
-11.08252
 20
-8.10261
 30
0.0
  0
SPLINE
  5
3A
330
1F
100
AcDbEntity
  8
Layer 1
 62
    22
370
     5
100
AcDbSpline
210
0.0
220
0.0
230
1.0
 70
    11
 71
     3
 72
   136
 73
   132
 74
     0
 42
0.0000000001
 43
0.0000000001
 40
0.0
 40
0.0
 40
0.0
 40
0.0
 40
0.0303030303030303
 40
0.0303030303030303
 40
0.0303030303030303
 40
0.0303030303030303
 40
0.0606060606060606
 40
0.0606060606060606
 40
0.0606060606060606
 40
0.0606060606060606
 40
0.0909090909090909
 40
0.0909090909090909
 40
0.0909090909090909
 40
0.0909090909090909
 40
0.1212121212121212
 40
0.1212121212121212
 40
0.1212121212121212
 40
0.1212121212121212
 40
0.1515151515151515
 40
0.1515151515151515
 40
0.1515151515151515
 40
0.1515151515151515
 40
0.1818181818181818
 40
0.1818181818181818
 40
0.1818181818181818
 40
0.1818181818181818
 40
0.2121212121212121
 40
0.2121212121212121
 40
0.2121212121212121
 40
0.2121212121212121
 40
0.2424242424242424
 40
0.2424242424242424
 40
0.2424242424242424
 40
0.2424242424242424
 40
0.2727272727272727
 40
0.2727272727272727
 40
0.2727272727272727
 40
0.2727272727272727
 40
0.303030303030303
 40
0.303030303030303
 40
0.303030303030303
 40
0.303030303030303
 40
0.3333333333333333
 40
0.3333333333333333
 40
0.3333333333333333
 40
0.3333333333333333
 40
0.3636363636363635
 40
0.3636363636363635
 40
0.3636363636363635
 40
0.3636363636363635
 40
0.3939393939393938
 40
0.3939393939393938
 40
0.3939393939393938
 40
0.3939393939393938
 40
0.4242424242424241
 40
0.4242424242424241
 40
0.4242424242424241
 40
0.4242424242424241
 40
0.4545454545454544
 40
0.4545454545454544
 40
0.4545454545454544
 40
0.4545454545454544
 40
0.4848484848484846
 40
0.4848484848484846
 40
0.4848484848484846
 40
0.4848484848484846
 40
0.5151515151515149
 40
0.5151515151515149
 40
0.5151515151515149
 40
0.5151515151515149
 40
0.5454545454545452
 40
0.5454545454545452
 40
0.5454545454545452
 40
0.5454545454545452
 40
0.5757575757575755
 40
0.5757575757575755
 40
0.5757575757575755
 40
0.5757575757575755
 40
0.6060606060606057
 40
0.6060606060606057
 40
0.6060606060606057
 40
0.6060606060606057
 40
0.636363636363636
 40
0.636363636363636
 40
0.636363636363636
 40
0.636363636363636
 40
0.6666666666666663
 40
0.6666666666666663
 40
0.6666666666666663
 40
0.6666666666666663
 40
0.6969696969696966
 40
0.6969696969696966
 40
0.6969696969696966
 40
0.6969696969696966
 40
0.7272727272727269
 40
0.7272727272727269
 40
0.7272727272727269
 40
0.7272727272727269
 40
0.7575757575757571
 40
0.7575757575757571
 40
0.7575757575757571
 40
0.7575757575757571
 40
0.7878787878787874
 40
0.7878787878787874
 40
0.7878787878787874
 40
0.7878787878787874
 40
0.8181818181818177
 40
0.8181818181818177
 40
0.8181818181818177
 40
0.8181818181818177
 40
0.848484848484848
 40
0.848484848484848
 40
0.848484848484848
 40
0.848484848484848
 40
0.8787878787878782
 40
0.8787878787878782
 40
0.8787878787878782
 40
0.8787878787878782
 40
0.9090909090909085
 40
0.9090909090909085
 40
0.9090909090909085
 40
0.9090909090909085
 40
0.9393939393939388
 40
0.9393939393939388
 40
0.9393939393939388
 40
0.9393939393939388
 40
0.9696969696969691
 40
0.9696969696969691
 40
0.9696969696969691
 40
0.9696969696969691
 40
1.0
 40
1.0
 40
1.0
 40
1.0
 10
-4.193440000000001
 20
-8.81155
 30
0.0
 10
-4.193440000000001
 20
-8.81155
 30
0.0
 10
-4.19486
 20
-0.6391
 30
0.0
 10
-4.19486
 20
-0.6391
 30
0.0
 10
-4.19486
 20
-0.6391
 30
0.0
 10
-4.19486
 20
-0.6391
 30
0.0
 10
-4.95223
 20
-0.6371
 30
0.0
 10
-4.95223
 20
-0.6371
 30
0.0
 10
-4.95223
 20
-0.6371
 30
0.0
 10
-4.95223
 20
-0.6371
 30
0.0
 10
-4.95223
 20
-1.05128
 30
0.0
 10
-4.95223
 20
-1.05128
 30
0.0
 10
-4.95223
 20
-1.05128
 30
0.0
 10
-4.95223
 20
-1.05128
 30
0.0
 10
-6.314550000000001
 20
-1.05128
 30
0.0
 10
-6.314550000000001
 20
-1.05128
 30
0.0
 10
-6.314550000000001
 20
-1.05128
 30
0.0
 10
-6.314550000000001
 20
-1.05128
 30
0.0
 10
-6.314550000000001
 20
-0.6371
 30
0.0
 10
-6.314550000000001
 20
-0.6371
 30
0.0
 10
-6.314550000000001
 20
-0.6371
 30
0.0
 10
-6.314550000000001
 20
-0.6371
 30
0.0
 10
-9.720360000000001
 20
-0.6371
 30
0.0
 10
-9.720360000000001
 20
-0.6371
 30
0.0
 10
-9.720360000000001
 20
-0.6371
 30
0.0
 10
-9.720360000000001
 20
-0.6371
 30
0.0
 10
-9.720360000000001
 20
-1.05128
 30
0.0
 10
-9.720360000000001
 20
-1.05128
 30
0.0
 10
-9.720360000000001
 20
-1.05128
 30
0.0
 10
-9.720360000000001
 20
-1.05128
 30
0.0
 10
-11.08269
 20
-1.05128
 30
0.0
 10
-11.08269
 20
-1.05128
 30
0.0
 10
-11.08269
 20
-1.05128
 30
0.0
 10
-11.08269
 20
-1.05128
 30
0.0
 10
-11.08269
 20
-0.6371
 30
0.0
 10
-11.08269
 20
-0.6371
 30
0.0
 10
-11.08269
 20
-0.6371
 30
0.0
 10
-11.08269
 20
-0.6371
 30
0.0
 10
-12.16301
 20
-0.6370100000000001
 30
0.0
 10
-12.16301
 20
-0.6370100000000001
 30
0.0
 10
-12.16301
 20
-0.6370100000000001
 30
0.0
 10
-12.16301
 20
-0.6370100000000001
 30
0.0
 10
-12.16301
 20
-3.63448
 30
0.0
 10
-12.16301
 20
-3.63448
 30
0.0
 10
-12.16301
 20
-3.63448
 30
0.0
 10
-12.16301
 20
-3.63448
 30
0.0
 10
-12.36736
 20
-3.63448
 30
0.0
 10
-12.36736
 20
-3.63448
 30
0.0
 10
-12.36736
 20
-3.63448
 30
0.0
 10
-12.36736
 20
-3.63448
 30
0.0
 10
-12.36736
 20
-4.99681
 30
0.0
 10
-12.36736
 20
-4.99681
 30
0.0
 10
-12.36736
 20
-4.99681
 30
0.0
 10
-12.36736
 20
-4.99681
 30
0.0
 10
-12.16301
 20
-4.99681
 30
0.0
 10
-12.16301
 20
-4.99681
 30
0.0
 10
-12.16301
 20
-4.99681
 30
0.0
 10
-12.16301
 20
-4.99681
 30
0.0
 10
-12.16301
 20
-10.44611
 30
0.0
 10
-12.16301
 20
-10.44611
 30
0.0
 10
-12.16301
 20
-10.44611
 30
0.0
 10
-12.16301
 20
-10.44611
 30
0.0
 10
-12.36736
 20
-10.44611
 30
0.0
 10
-12.36736
 20
-10.44611
 30
0.0
 10
-12.36736
 20
-10.44611
 30
0.0
 10
-12.36736
 20
-10.44611
 30
0.0
 10
-12.36736
 20
-11.80843
 30
0.0
 10
-12.36736
 20
-11.80843
 30
0.0
 10
-12.36736
 20
-11.80843
 30
0.0
 10
-12.36736
 20
-11.80843
 30
0.0
 10
-12.16301
 20
-11.80843
 30
0.0
 10
-12.16301
 20
-11.80843
 30
0.0
 10
-12.16301
 20
-11.80843
 30
0.0
 10
-12.16301
 20
-11.80843
 30
0.0
 10
-12.16301
 20
-14.53308
 30
0.0
 10
-12.16301
 20
-14.53308
 30
0.0
 10
-12.16301
 20
-14.53308
 30
0.0
 10
-12.16301
 20
-14.53308
 30
0.0
 10
-11.08269
 20
-14.53108
 30
0.0
 10
-11.08269
 20
-14.53108
 30
0.0
 10
-11.08269
 20
-14.53108
 30
0.0
 10
-11.08269
 20
-14.53108
 30
0.0
 10
-11.08269
 20
-14.06793
 30
0.0
 10
-11.08269
 20
-14.06793
 30
0.0
 10
-11.08269
 20
-14.06793
 30
0.0
 10
-11.08269
 20
-14.06793
 30
0.0
 10
-9.720360000000001
 20
-14.06793
 30
0.0
 10
-9.720360000000001
 20
-14.06793
 30
0.0
 10
-9.720360000000001
 20
-14.06793
 30
0.0
 10
-9.720360000000001
 20
-14.06793
 30
0.0
 10
-9.720360000000001
 20
-14.53108
 30
0.0
 10
-9.720360000000001
 20
-14.53108
 30
0.0
 10
-9.720360000000001
 20
-14.53108
 30
0.0
 10
-9.720360000000001
 20
-14.53108
 30
0.0
 10
-6.314550000000001
 20
-14.53108
 30
0.0
 10
-6.314550000000001
 20
-14.53108
 30
0.0
 10
-6.314550000000001
 20
-14.53108
 30
0.0
 10
-6.314550000000001
 20
-14.53108
 30
0.0
 10
-6.314550000000001
 20
-14.12331
 30
0.0
 10
-6.314550000000001
 20
-14.12331
 30
0.0
 10
-6.314550000000001
 20
-14.12331
 30
0.0
 10
-6.314550000000001
 20
-14.12331
 30
0.0
 10
-4.95223
 20
-14.12328
 30
0.0
 10
-4.95223
 20
-14.12328
 30
0.0
 10
-4.95223
 20
-14.12328
 30
0.0
 10
-4.95223
 20
-14.12328
 30
0.0
 10
-4.95223
 20
-14.53108
 30
0.0
 10
-4.95223
 20
-14.53108
 30
0.0
 10
-4.95223
 20
-14.53108
 30
0.0
 10
-4.95223
 20
-14.53108
 30
0.0
 10
-4.873810000000001
 20
-14.53308
 30
0.0
 10
-4.873810000000001
 20
-14.53308
 30
0.0
 10
-4.873810000000001
 20
-14.53308
 30
0.0
 10
-4.873810000000001
 20
-14.53308
 30
0.0
 10
-4.193440000000001
 20
-14.53308
 30
0.0
 10
-4.193440000000001
 20
-14.53308
 30
0.0
 10
-4.193440000000001
 20
-14.53308
 30
0.0
 10
-4.193440000000001
 20
-14.53308
 30
0.0
 10
-4.193440000000001
 20
-11.84317
 30
0.0
 10
-4.193440000000001
 20
-11.84317
 30
0.0
 10
-4.193440000000001
 20
-11.84317
 30
0.0
 10
-4.193440000000001
 20
-11.84317
 30
0.0
 10
-4.19657
 20
-11.84317
 30
0.0
 10
-4.19657
 20
-11.84317
 30
0.0
 10
-4.19657
 20
-11.84317
 30
0.0
 10
-4.19657
 20
-11.84317
 30
0.0
 10
-4.19657
 20
-8.81155
 30
0.0
 10
-4.19657
 20
-8.81155
 30
0.0
 10
-4.19657
 20
-8.81155
 30
0.0
 10
-4.19657
 20
-8.81155
 30
0.0
 10
-4.193440000000001
 20
-8.81155
 30
0.0
 10
-4.193440000000001
 20
-8.81155
 30
0.0
  0
SPLINE
  5
3B
330
1F
100
AcDbEntity
  8
Layer 1
 62
    22
370
     5
100
AcDbSpline
210
0.0
220
0.0
230
1.0
 70
    11
 71
     3
 72
    20
 73
    16
 74
     0
 42
0.0000000001
 43
0.0000000001
 40
0.0
 40
0.0
 40
0.0
 40
0.0
 40
0.25
 40
0.25
 40
0.25
 40
0.25
 40
0.5
 40
0.5
 40
0.5
 40
0.5
 40
0.75
 40
0.75
 40
0.75
 40
0.75
 40
1.0
 40
1.0
 40
1.0
 40
1.0
 10
-11.28502
 20
-6.93813
 30
0.0
 10
-11.28502
 20
-6.93813
 30
0.0
 10
-11.28502
 20
-2.60601
 30
0.0
 10
-11.28502
 20
-2.60601
 30
0.0
 10
-11.28502
 20
-2.60601
 30
0.0
 10
-11.28502
 20
-2.60601
 30
0.0
 10
-8.007430000000001
 20
-2.60601
 30
0.0
 10
-8.007430000000001
 20
-2.60601
 30
0.0
 10
-8.007430000000001
 20
-2.60601
 30
0.0
 10
-8.007430000000001
 20
-2.60601
 30
0.0
 10
-8.007430000000001
 20
-6.93813
 30
0.0
 10
-8.007430000000001
 20
-6.93813
 30
0.0
 10
-8.007430000000001
 20
-6.93813
 30
0.0
 10
-8.007430000000001
 20
-6.93813
 30
0.0
 10
-11.28502
 20
-6.93813
 30
0.0
 10
-11.28502
 20
-6.93813
 30
0.0
  0
SPLINE
  5
3C
330
1F
100
AcDbEntity
  8
Layer 1
 62
    22
370
     5
100
AcDbSpline
210
0.0
220
0.0
230
1.0
 70
    11
 71
     3
 72
    20
 73
    16
 74
     0
 42
0.0000000001
 43
0.0000000001
 40
0.0
 40
0.0
 40
0.0
 40
0.0
 40
0.25
 40
0.25
 40
0.25
 40
0.25
 40
0.5
 40
0.5
 40
0.5
 40
0.5
 40
0.75
 40
0.75
 40
0.75
 40
0.75
 40
1.0
 40
1.0
 40
1.0
 40
1.0
 10
-11.15963
 20
-13.05244
 30
0.0
 10
-11.15963
 20
-13.05244
 30
0.0
 10
-11.15963
 20
-8.720310000000001
 30
0.0
 10
-11.15963
 20
-8.720310000000001
 30
0.0
 10
-11.15963
 20
-8.720310000000001
 30
0.0
 10
-11.15963
 20
-8.720310000000001
 30
0.0
 10
-7.882040000000001
 20
-8.720310000000001
 30
0.0
 10
-7.882040000000001
 20
-8.720310000000001
 30
0.0
 10
-7.882040000000001
 20
-8.720310000000001
 30
0.0
 10
-7.882040000000001
 20
-8.720310000000001
 30
0.0
 10
-7.882040000000001
 20
-13.05244
 30
0.0
 10
-7.882040000000001
 20
-13.05244
 30
0.0
 10
-7.882040000000001
 20
-13.05244
 30
0.0
 10
-7.882040000000001
 20
-13.05244
 30
0.0
 10
-11.15963
 20
-13.05244
 30
0.0
 10
-11.15963
 20
-13.05244
 30
0.0
  0
SPLINE
  5
3D
330
1F
100
AcDbEntity
  8
Layer 1
 62
    22
370
     5
100
AcDbSpline
210
0.0
220
0.0
230
1.0
 70
    11
 71
     3
 72
   100
 73
    96
 74
     0
 42
0.0000000001
 43
0.0000000001
 40
0.0
 40
0.0
 40
0.0
 40
0.0
 40
0.0416666666666667
 40
0.0416666666666667
 40
0.0416666666666667
 40
0.0416666666666667
 40
0.0833333333333333
 40
0.0833333333333333
 40
0.0833333333333333
 40
0.0833333333333333
 40
0.125
 40
0.125
 40
0.125
 40
0.125
 40
0.1666666666666667
 40
0.1666666666666667
 40
0.1666666666666667
 40
0.1666666666666667
 40
0.2083333333333333
 40
0.2083333333333333
 40
0.2083333333333333
 40
0.2083333333333333
 40
0.25
 40
0.25
 40
0.25
 40
0.25
 40
0.2916666666666666
 40
0.2916666666666666
 40
0.2916666666666666
 40
0.2916666666666666
 40
0.3333333333333333
 40
0.3333333333333333
 40
0.3333333333333333
 40
0.3333333333333333
 40
0.375
 40
0.375
 40
0.375
 40
0.375
 40
0.4166666666666667
 40
0.4166666666666667
 40
0.4166666666666667
 40
0.4166666666666667
 40
0.4583333333333334
 40
0.4583333333333334
 40
0.4583333333333334
 40
0.4583333333333334
 40
0.5
 40
0.5
 40
0.5
 40
0.5
 40
0.5416666666666666
 40
0.5416666666666666
 40
0.5416666666666666
 40
0.5416666666666666
 40
0.5833333333333333
 40
0.5833333333333333
 40
0.5833333333333333
 40
0.5833333333333333
 40
0.6249999999999999
 40
0.6249999999999999
 40
0.6249999999999999
 40
0.6249999999999999
 40
0.6666666666666665
 40
0.6666666666666665
 40
0.6666666666666665
 40
0.6666666666666665
 40
0.7083333333333332
 40
0.7083333333333332
 40
0.7083333333333332
 40
0.7083333333333332
 40
0.7499999999999998
 40
0.7499999999999998
 40
0.7499999999999998
 40
0.7499999999999998
 40
0.7916666666666664
 40
0.7916666666666664
 40
0.7916666666666664
 40
0.7916666666666664
 40
0.833333333333333
 40
0.833333333333333
 40
0.833333333333333
 40
0.833333333333333
 40
0.8749999999999997
 40
0.8749999999999997
 40
0.8749999999999997
 40
0.8749999999999997
 40
0.9166666666666663
 40
0.9166666666666663
 40
0.9166666666666663
 40
0.9166666666666663
 40
0.9583333333333329
 40
0.9583333333333329
 40
0.9583333333333329
 40
0.9583333333333329
 40
1.0
 40
1.0
 40
1.0
 40
1.0
 10
3.348430000000001
 20
6.5444
 30
0.0
 10
3.348430000000001
 20
6.5444
 30
0.0
 10
5.66438
 20
6.5444
 30
0.0
 10
5.66438
 20
6.5444
 30
0.0
 10
5.66438
 20
6.5444
 30
0.0
 10
5.66438
 20
6.5444
 30
0.0
 10
5.66438
 20
6.34006
 30
0.0
 10
5.66438
 20
6.34006
 30
0.0
 10
5.66438
 20
6.34006
 30
0.0
 10
5.66438
 20
6.34006
 30
0.0
 10
7.026710000000001
 20
6.34006
 30
0.0
 10
7.026710000000001
 20
6.34006
 30
0.0
 10
7.026710000000001
 20
6.34006
 30
0.0
 10
7.026710000000001
 20
6.34006
 30
0.0
 10
7.026710000000001
 20
6.5444
 30
0.0
 10
7.026710000000001
 20
6.5444
 30
0.0
 10
7.026710000000001
 20
6.5444
 30
0.0
 10
7.026710000000001
 20
6.5444
 30
0.0
 10
9.34266
 20
6.5444
 30
0.0
 10
9.34266
 20
6.5444
 30
0.0
 10
9.34266
 20
6.5444
 30
0.0
 10
9.34266
 20
6.5444
 30
0.0
 10
9.34299
 20
7.624730000000001
 30
0.0
 10
9.34299
 20
7.624730000000001
 30
0.0
 10
9.34299
 20
7.624730000000001
 30
0.0
 10
9.34299
 20
7.624730000000001
 30
0.0
 10
9.749070000000002
 20
7.624730000000001
 30
0.0
 10
9.749070000000002
 20
7.624730000000001
 30
0.0
 10
9.749070000000002
 20
7.624730000000001
 30
0.0
 10
9.749070000000002
 20
7.624730000000001
 30
0.0
 10
9.749070000000002
 20
8.98705
 30
0.0
 10
9.749070000000002
 20
8.98705
 30
0.0
 10
9.749070000000002
 20
8.98705
 30
0.0
 10
9.749070000000002
 20
8.98705
 30
0.0
 10
9.34299
 20
8.98705
 30
0.0
 10
9.34299
 20
8.98705
 30
0.0
 10
9.34299
 20
8.98705
 30
0.0
 10
9.34299
 20
8.98705
 30
0.0
 10
9.34299
 20
12.39286
 30
0.0
 10
9.34299
 20
12.39286
 30
0.0
 10
9.34299
 20
12.39286
 30
0.0
 10
9.34299
 20
12.39286
 30
0.0
 10
9.749070000000002
 20
12.39286
 30
0.0
 10
9.749070000000002
 20
12.39286
 30
0.0
 10
9.749070000000002
 20
12.39286
 30
0.0
 10
9.749070000000002
 20
12.39286
 30
0.0
 10
9.749070000000002
 20
13.75519
 30
0.0
 10
9.749070000000002
 20
13.75519
 30
0.0
 10
9.749070000000002
 20
13.75519
 30
0.0
 10
9.749070000000002
 20
13.75519
 30
0.0
 10
9.34299
 20
13.75519
 30
0.0
 10
9.34299
 20
13.75519
 30
0.0
 10
9.34299
 20
13.75519
 30
0.0
 10
9.34299
 20
13.75519
 30
0.0
 10
9.34299
 20
14.514
 30
0.0
 10
9.34299
 20
14.514
 30
0.0
 10
9.34299
 20
14.514
 30
0.0
 10
9.34299
 20
14.514
 30
0.0
 10
3.34802
 20
14.514
 30
0.0
 10
3.34802
 20
14.514
 30
0.0
 10
3.34802
 20
14.514
 30
0.0
 10
3.34802
 20
14.514
 30
0.0
 10
3.34802
 20
13.75519
 30
0.0
 10
3.34802
 20
13.75519
 30
0.0
 10
3.34802
 20
13.75519
 30
0.0
 10
3.34802
 20
13.75519
 30
0.0
 10
2.93973
 20
13.75519
 30
0.0
 10
2.93973
 20
13.75519
 30
0.0
 10
2.93973
 20
13.75519
 30
0.0
 10
2.93973
 20
13.75519
 30
0.0
 10
2.93976
 20
12.39286
 30
0.0
 10
2.93976
 20
12.39286
 30
0.0
 10
2.93976
 20
12.39286
 30
0.0
 10
2.93976
 20
12.39286
 30
0.0
 10
3.34802
 20
12.39286
 30
0.0
 10
3.34802
 20
12.39286
 30
0.0
 10
3.34802
 20
12.39286
 30
0.0
 10
3.34802
 20
12.39286
 30
0.0
 10
3.34802
 20
8.98705
 30
0.0
 10
3.34802
 20
8.98705
 30
0.0
 10
3.34802
 20
8.98705
 30
0.0
 10
3.34802
 20
8.98705
 30
0.0
 10
2.93976
 20
8.98705
 30
0.0
 10
2.93976
 20
8.98705
 30
0.0
 10
2.93976
 20
8.98705
 30
0.0
 10
2.93976
 20
8.98705
 30
0.0
 10
2.93976
 20
7.624730000000001
 30
0.0
 10
2.93976
 20
7.624730000000001
 30
0.0
 10
2.93976
 20
7.624730000000001
 30
0.0
 10
2.93976
 20
7.624730000000001
 30
0.0
 10
3.34802
 20
7.624730000000001
 30
0.0
 10
3.34802
 20
7.624730000000001
 30
0.0
 10
3.34802
 20
7.624730000000001
 30
0.0
 10
3.34802
 20
7.624730000000001
 30
0.0
 10
3.348430000000001
 20
6.5444
 30
0.0
 10
3.348430000000001
 20
6.5444
 30
0.0
  0
SPLINE
  5
3E
330
1F
100
AcDbEntity
  8
Layer 1
 62
    22
370
     5
100
AcDbSpline
210
0.0
220
0.0
230
1.0
 70
    11
 71
     3
 72
    16
 73
    12
 74
     0
 42
0.0000000001
 43
0.0000000001
 40
0.0
 40
0.0
 40
0.0
 40
0.0
 40
0.3333333333333333
 40
0.3333333333333333
 40
0.3333333333333333
 40
0.3333333333333333
 40
0.6666666666666666
 40
0.6666666666666666
 40
0.6666666666666666
 40
0.6666666666666666
 40
1.0
 40
1.0
 40
1.0
 40
1.0
 10
6.509790000000001
 20
7.6439
 30
0.0
 10
6.509790000000001
 20
7.6439
 30
0.0
 10
6.512060000000001
 20
8.99174
 30
0.0
 10
6.512060000000001
 20
8.99174
 30
0.0
 10
6.512060000000001
 20
8.99174
 30
0.0
 10
6.512060000000001
 20
8.99174
 30
0.0
 10
8.718100000000002
 20
9.00122
 30
0.0
 10
8.718100000000002
 20
9.00122
 30
0.0
 10
8.718100000000002
 20
9.00122
 30
0.0
 10
8.502850000000001
 20
8.1576
 30
0.0
 10
7.638680000000001
 20
7.643750000000001
 30
0.0
 10
6.509790000000001
 20
7.6439
 30
0.0
  0
SPLINE
  5
3F
330
1F
100
AcDbEntity
  8
Layer 1
 62
    22
370
     5
100
AcDbSpline
210
0.0
220
0.0
230
1.0
 70
    11
 71
     3
 72
    16
 73
    12
 74
     0
 42
0.0000000001
 43
0.0000000001
 40
0.0
 40
0.0
 40
0.0
 40
0.0
 40
0.3333333333333333
 40
0.3333333333333333
 40
0.3333333333333333
 40
0.3333333333333333
 40
0.6666666666666666
 40
0.6666666666666666
 40
0.6666666666666666
 40
0.6666666666666666
 40
1.0
 40
1.0
 40
1.0
 40
1.0
 10
3.97986
 20
9.01168
 30
0.0
 10
3.97986
 20
9.01168
 30
0.0
 10
6.156020000000001
 20
9.000960000000001
 30
0.0
 10
6.156020000000001
 20
9.000960000000001
 30
0.0
 10
6.156020000000001
 20
9.000960000000001
 30
0.0
 10
6.156020000000001
 20
9.000960000000001
 30
0.0
 10
6.156020000000001
 20
7.63168
 30
0.0
 10
6.156020000000001
 20
7.63168
 30
0.0
 10
6.156020000000001
 20
7.63168
 30
0.0
 10
5.027130000000001
 20
7.631530000000001
 30
0.0
 10
4.19512
 20
8.168060000000001
 30
0.0
 10
3.97986
 20
9.01168
 30
0.0
  0
SPLINE
  5
40
330
1F
100
AcDbEntity
  8
Layer 1
 62
    22
370
     5
100
AcDbSpline
210
0.0
220
0.0
230
1.0
 70
    11
 71
     3
 72
    16
 73
    12
 74
     0
 42
0.0000000001
 43
0.0000000001
 40
0.0
 40
0.0
 40
0.0
 40
0.0
 40
0.3333333333333333
 40
0.3333333333333333
 40
0.3333333333333333
 40
0.3333333333333333
 40
0.6666666666666666
 40
0.6666666666666666
 40
0.6666666666666666
 40
0.6666666666666666
 40
1.0
 40
1.0
 40
1.0
 40
1.0
 10
8.717130000000001
 20
9.359870000000001
 30
0.0
 10
8.717130000000001
 20
9.359870000000001
 30
0.0
 10
6.512060000000001
 20
9.359830000000001
 30
0.0
 10
6.512060000000001
 20
9.359830000000001
 30
0.0
 10
6.512060000000001
 20
9.359830000000001
 30
0.0
 10
6.512060000000001
 20
9.359830000000001
 30
0.0
 10
6.514950000000001
 20
10.70855
 30
0.0
 10
6.514950000000001
 20
10.70855
 30
0.0
 10
6.514950000000001
 20
10.70855
 30
0.0
 10
7.643840000000001
 20
10.7087
 30
0.0
 10
8.501890000000001
 20
10.2035
 30
0.0
 10
8.717130000000001
 20
9.359870000000001
 30
0.0
  0
SPLINE
  5
41
330
1F
100
AcDbEntity
  8
Layer 1
 62
    22
370
     5
100
AcDbSpline
210
0.0
220
0.0
230
1.0
 70
    11
 71
     3
 72
    16
 73
    12
 74
     0
 42
0.0000000001
 43
0.0000000001
 40
0.0
 40
0.0
 40
0.0
 40
0.0
 40
0.3333333333333333
 40
0.3333333333333333
 40
0.3333333333333333
 40
0.3333333333333333
 40
0.6666666666666666
 40
0.6666666666666666
 40
0.6666666666666666
 40
0.6666666666666666
 40
1.0
 40
1.0
 40
1.0
 40
1.0
 10
6.149850000000001
 20
10.70018
 30
0.0
 10
6.149850000000001
 20
10.70018
 30
0.0
 10
6.156020000000001
 20
9.35384
 30
0.0
 10
6.156020000000001
 20
9.35384
 30
0.0
 10
6.156020000000001
 20
9.35384
 30
0.0
 10
6.156020000000001
 20
9.35384
 30
0.0
 10
3.97986
 20
9.35384
 30
0.0
 10
3.97986
 20
9.35384
 30
0.0
 10
3.97986
 20
9.35384
 30
0.0
 10
4.19512
 20
10.19746
 30
0.0
 10
5.020960000000001
 20
10.70033
 30
0.0
 10
6.149850000000001
 20
10.70018
 30
0.0
  0
SPLINE
  5
42
330
1F
100
AcDbEntity
  8
Layer 1
 62
    22
370
     5
100
AcDbSpline
210
0.0
220
0.0
230
1.0
 70
    11
 71
     3
 72
   116
 73
   112
 74
     0
 42
0.0000000001
 43
0.0000000001
 40
0.0
 40
0.0
 40
0.0
 40
0.0
 40
0.0357142857142857
 40
0.0357142857142857
 40
0.0357142857142857
 40
0.0357142857142857
 40
0.0714285714285714
 40
0.0714285714285714
 40
0.0714285714285714
 40
0.0714285714285714
 40
0.1071428571428571
 40
0.1071428571428571
 40
0.1071428571428571
 40
0.1071428571428571
 40
0.1428571428571429
 40
0.1428571428571429
 40
0.1428571428571429
 40
0.1428571428571429
 40
0.1785714285714286
 40
0.1785714285714286
 40
0.1785714285714286
 40
0.1785714285714286
 40
0.2142857142857143
 40
0.2142857142857143
 40
0.2142857142857143
 40
0.2142857142857143
 40
0.2499999999999999
 40
0.2499999999999999
 40
0.2499999999999999
 40
0.2499999999999999
 40
0.2857142857142856
 40
0.2857142857142856
 40
0.2857142857142856
 40
0.2857142857142856
 40
0.3214285714285713
 40
0.3214285714285713
 40
0.3214285714285713
 40
0.3214285714285713
 40
0.357142857142857
 40
0.357142857142857
 40
0.357142857142857
 40
0.357142857142857
 40
0.3928571428571427
 40
0.3928571428571427
 40
0.3928571428571427
 40
0.3928571428571427
 40
0.4285714285714284
 40
0.4285714285714284
 40
0.4285714285714284
 40
0.4285714285714284
 40
0.4642857142857141
 40
0.4642857142857141
 40
0.4642857142857141
 40
0.4642857142857141
 40
0.4999999999999998
 40
0.4999999999999998
 40
0.4999999999999998
 40
0.4999999999999998
 40
0.5357142857142856
 40
0.5357142857142856
 40
0.5357142857142856
 40
0.5357142857142856
 40
0.5714285714285713
 40
0.5714285714285713
 40
0.5714285714285713
 40
0.5714285714285713
 40
0.607142857142857
 40
0.607142857142857
 40
0.607142857142857
 40
0.607142857142857
 40
0.6428571428571427
 40
0.6428571428571427
 40
0.6428571428571427
 40
0.6428571428571427
 40
0.6785714285714284
 40
0.6785714285714284
 40
0.6785714285714284
 40
0.6785714285714284
 40
0.7142857142857141
 40
0.7142857142857141
 40
0.7142857142857141
 40
0.7142857142857141
 40
0.7499999999999998
 40
0.7499999999999998
 40
0.7499999999999998
 40
0.7499999999999998
 40
0.7857142857142855
 40
0.7857142857142855
 40
0.7857142857142855
 40
0.7857142857142855
 40
0.8214285714285712
 40
0.8214285714285712
 40
0.8214285714285712
 40
0.8214285714285712
 40
0.8571428571428569
 40
0.8571428571428569
 40
0.8571428571428569
 40
0.8571428571428569
 40
0.8928571428571426
 40
0.8928571428571426
 40
0.8928571428571426
 40
0.8928571428571426
 40
0.9285714285714283
 40
0.9285714285714283
 40
0.9285714285714283
 40
0.9285714285714283
 40
0.964285714285714
 40
0.964285714285714
 40
0.964285714285714
 40
0.964285714285714
 40
1.0
 40
1.0
 40
1.0
 40
1.0
 10
-4.24359
 20
6.626670000000001
 30
0.0
 10
-4.24359
 20
6.626670000000001
 30
0.0
 10
-1.92764
 20
6.626670000000001
 30
0.0
 10
-1.92764
 20
6.626670000000001
 30
0.0
 10
-1.92764
 20
6.626670000000001
 30
0.0
 10
-1.92764
 20
6.626670000000001
 30
0.0
 10
-1.92764
 20
6.422320000000001
 30
0.0
 10
-1.92764
 20
6.422320000000001
 30
0.0
 10
-1.92764
 20
6.422320000000001
 30
0.0
 10
-1.92764
 20
6.422320000000001
 30
0.0
 10
-0.56532
 20
6.422320000000001
 30
0.0
 10
-0.56532
 20
6.422320000000001
 30
0.0
 10
-0.56532
 20
6.422320000000001
 30
0.0
 10
-0.56532
 20
6.422320000000001
 30
0.0
 10
-0.56532
 20
6.626670000000001
 30
0.0
 10
-0.56532
 20
6.626670000000001
 30
0.0
 10
-0.56532
 20
6.626670000000001
 30
0.0
 10
-0.56532
 20
6.626670000000001
 30
0.0
 10
1.75064
 20
6.626670000000001
 30
0.0
 10
1.75064
 20
6.626670000000001
 30
0.0
 10
1.75064
 20
6.626670000000001
 30
0.0
 10
1.75064
 20
6.626670000000001
 30
0.0
 10
1.76106
 20
7.70699
 30
0.0
 10
1.76106
 20
7.70699
 30
0.0
 10
1.76106
 20
7.70699
 30
0.0
 10
1.76106
 20
7.70699
 30
0.0
 10
2.17188
 20
7.70699
 30
0.0
 10
2.17188
 20
7.70699
 30
0.0
 10
2.17188
 20
7.70699
 30
0.0
 10
2.17188
 20
7.70699
 30
0.0
 10
2.17188
 20
9.069310000000002
 30
0.0
 10
2.17188
 20
9.069310000000002
 30
0.0
 10
2.17188
 20
9.069310000000002
 30
0.0
 10
2.17188
 20
9.069310000000002
 30
0.0
 10
1.76106
 20
9.069310000000002
 30
0.0
 10
1.76106
 20
9.069310000000002
 30
0.0
 10
1.76106
 20
9.069310000000002
 30
0.0
 10
1.76106
 20
9.069310000000002
 30
0.0
 10
1.76106
 20
12.47512
 30
0.0
 10
1.76106
 20
12.47512
 30
0.0
 10
1.76106
 20
12.47512
 30
0.0
 10
1.76106
 20
12.47512
 30
0.0
 10
2.15771
 20
12.47512
 30
0.0
 10
2.15771
 20
12.47512
 30
0.0
 10
2.15771
 20
12.47512
 30
0.0
 10
2.15771
 20
12.47512
 30
0.0
 10
2.15771
 20
13.83745
 30
0.0
 10
2.15771
 20
13.83745
 30
0.0
 10
2.15771
 20
13.83745
 30
0.0
 10
2.15771
 20
13.83745
 30
0.0
 10
1.76106
 20
13.83745
 30
0.0
 10
1.76106
 20
13.83745
 30
0.0
 10
1.76106
 20
13.83745
 30
0.0
 10
1.76106
 20
13.83745
 30
0.0
 10
1.76106
 20
14.18934
 30
0.0
 10
1.76106
 20
14.18934
 30
0.0
 10
1.76106
 20
14.18934
 30
0.0
 10
1.76106
 20
14.18934
 30
0.0
 10
1.75249
 20
14.57816
 30
0.0
 10
1.75249
 20
14.57816
 30
0.0
 10
1.75249
 20
14.57816
 30
0.0
 10
1.75249
 20
14.57816
 30
0.0
 10
0.6012700000000001
 20
14.59626
 30
0.0
 10
0.6012700000000001
 20
14.59626
 30
0.0
 10
0.6012700000000001
 20
14.59626
 30
0.0
 10
0.6012700000000001
 20
14.59626
 30
0.0
 10
-3.2855
 20
14.59626
 30
0.0
 10
-3.2855
 20
14.59626
 30
0.0
 10
-3.2855
 20
14.59626
 30
0.0
 10
-3.2855
 20
14.59626
 30
0.0
 10
-4.27226
 20
14.57816
 30
0.0
 10
-4.27226
 20
14.57816
 30
0.0
 10
-4.27226
 20
14.57816
 30
0.0
 10
-4.27226
 20
14.57816
 30
0.0
 10
-4.260050000000001
 20
14.18934
 30
0.0
 10
-4.260050000000001
 20
14.18934
 30
0.0
 10
-4.260050000000001
 20
14.18934
 30
0.0
 10
-4.260050000000001
 20
14.18934
 30
0.0
 10
-4.25596
 20
13.83745
 30
0.0
 10
-4.25596
 20
13.83745
 30
0.0
 10
-4.25596
 20
13.83745
 30
0.0
 10
-4.25596
 20
13.83745
 30
0.0
 10
-4.652290000000001
 20
13.83745
 30
0.0
 10
-4.652290000000001
 20
13.83745
 30
0.0
 10
-4.652290000000001
 20
13.83745
 30
0.0
 10
-4.652290000000001
 20
13.83745
 30
0.0
 10
-4.652290000000001
 20
12.47512
 30
0.0
 10
-4.652290000000001
 20
12.47512
 30
0.0
 10
-4.652290000000001
 20
12.47512
 30
0.0
 10
-4.652290000000001
 20
12.47512
 30
0.0
 10
-4.25596
 20
12.47512
 30
0.0
 10
-4.25596
 20
12.47512
 30
0.0
 10
-4.25596
 20
12.47512
 30
0.0
 10
-4.25596
 20
12.47512
 30
0.0
 10
-4.25596
 20
9.069310000000002
 30
0.0
 10
-4.25596
 20
9.069310000000002
 30
0.0
 10
-4.25596
 20
9.069310000000002
 30
0.0
 10
-4.25596
 20
9.069310000000002
 30
0.0
 10
-4.652290000000001
 20
9.069310000000002
 30
0.0
 10
-4.652290000000001
 20
9.069310000000002
 30
0.0
 10
-4.652290000000001
 20
9.069310000000002
 30
0.0
 10
-4.652290000000001
 20
9.069310000000002
 30
0.0
 10
-4.652290000000001
 20
7.70699
 30
0.0
 10
-4.652290000000001
 20
7.70699
 30
0.0
 10
-4.652290000000001
 20
7.70699
 30
0.0
 10
-4.652290000000001
 20
7.70699
 30
0.0
 10
-4.25596
 20
7.70699
 30
0.0
 10
-4.25596
 20
7.70699
 30
0.0
 10
-4.25596
 20
7.70699
 30
0.0
 10
-4.25596
 20
7.70699
 30
0.0
 10
-4.24359
 20
6.626670000000001
 30
0.0
 10
-4.24359
 20
6.626670000000001
 30
0.0
  0
SPLINE
  5
43
330
1F
100
AcDbEntity
  8
Layer 1
 62
    22
370
     5
100
AcDbSpline
210
0.0
220
0.0
230
1.0
 70
    11
 71
     3
 72
    28
 73
    24
 74
     0
 42
0.0000000001
 43
0.0000000001
 40
0.0
 40
0.0
 40
0.0
 40
0.0
 40
0.1666666666666667
 40
0.1666666666666667
 40
0.1666666666666667
 40
0.1666666666666667
 40
0.3333333333333333
 40
0.3333333333333333
 40
0.3333333333333333
 40
0.3333333333333333
 40
0.5
 40
0.5
 40
0.5
 40
0.5
 40
0.6666666666666666
 40
0.6666666666666666
 40
0.6666666666666666
 40
0.6666666666666666
 40
0.8333333333333333
 40
0.8333333333333333
 40
0.8333333333333333
 40
0.8333333333333333
 40
1.0
 40
1.0
 40
1.0
 40
1.0
 10
-3.17723
 20
13.83744
 30
0.0
 10
-3.17723
 20
13.83744
 30
0.0
 10
-3.17723
 20
8.02961
 30
0.0
 10
-3.17723
 20
8.02961
 30
0.0
 10
-3.17723
 20
8.02961
 30
0.0
 10
-3.17723
 20
7.84996
 30
0.0
 10
-2.98184
 20
7.70302
 30
0.0
 10
-2.83498
 20
7.70302
 30
0.0
 10
-2.83498
 20
7.70302
 30
0.0
 10
-2.83498
 20
7.70302
 30
0.0
 10
0.0988
 20
7.70302
 30
0.0
 10
0.0988
 20
7.70302
 30
0.0
 10
0.0988
 20
7.70302
 30
0.0
 10
0.24566
 20
7.70302
 30
0.0
 10
0.42902
 20
7.850200000000001
 30
0.0
 10
0.42902
 20
8.02961
 30
0.0
 10
0.42902
 20
8.02961
 30
0.0
 10
0.42902
 20
8.02961
 30
0.0
 10
0.42902
 20
13.83744
 30
0.0
 10
0.42902
 20
13.83744
 30
0.0
 10
0.42902
 20
13.83744
 30
0.0
 10
0.42902
 20
13.83744
 30
0.0
 10
-3.17723
 20
13.83744
 30
0.0
 10
-3.17723
 20
13.83744
 30
0.0
  0
SPLINE
  5
44
330
1F
100
AcDbEntity
  8
Layer 1
 62
    22
370
     5
100
AcDbSpline
210
0.0
220
0.0
230
1.0
 70
    11
 71
     3
 72
    20
 73
    16
 74
     0
 42
0.0000000001
 43
0.0000000001
 40
0.0
 40
0.0
 40
0.0
 40
0.0
 40
0.25
 40
0.25
 40
0.25
 40
0.25
 40
0.5
 40
0.5
 40
0.5
 40
0.5
 40
0.75
 40
0.75
 40
0.75
 40
0.75
 40
1.0
 40
1.0
 40
1.0
 40
1.0
 10
17.37065
 20
-12.83014
 30
0.0
 10
17.37065
 20
-12.83014
 30
0.0
 10
17.37065
 20
-8.49802
 30
0.0
 10
17.37065
 20
-8.49802
 30
0.0
 10
17.37065
 20
-8.49802
 30
0.0
 10
17.37065
 20
-8.49802
 30
0.0
 10
14.09306
 20
-8.49802
 30
0.0
 10
14.09306
 20
-8.49802
 30
0.0
 10
14.09306
 20
-8.49802
 30
0.0
 10
14.09306
 20
-8.49802
 30
0.0
 10
14.09306
 20
-12.83014
 30
0.0
 10
14.09306
 20
-12.83014
 30
0.0
 10
14.09306
 20
-12.83014
 30
0.0
 10
14.09306
 20
-12.83014
 30
0.0
 10
17.37065
 20
-12.83014
 30
0.0
 10
17.37065
 20
-12.83014
 30
0.0
  0
SPLINE
  5
45
330
1F
100
AcDbEntity
  8
Layer 1
 62
    22
370
     5
100
AcDbSpline
210
0.0
220
0.0
230
1.0
 70
    11
 71
     3
 72
    20
 73
    16
 74
     0
 42
0.0000000001
 43
0.0000000001
 40
0.0
 40
0.0
 40
0.0
 40
0.0
 40
0.25
 40
0.25
 40
0.25
 40
0.25
 40
0.5
 40
0.5
 40
0.5
 40
0.5
 40
0.75
 40
0.75
 40
0.75
 40
0.75
 40
1.0
 40
1.0
 40
1.0
 40
1.0
 10
17.49604
 20
-6.715840000000001
 30
0.0
 10
17.49604
 20
-6.715840000000001
 30
0.0
 10
17.49604
 20
-2.38371
 30
0.0
 10
17.49604
 20
-2.38371
 30
0.0
 10
17.49604
 20
-2.38371
 30
0.0
 10
17.49604
 20
-2.38371
 30
0.0
 10
14.21845
 20
-2.38371
 30
0.0
 10
14.21845
 20
-2.38371
 30
0.0
 10
14.21845
 20
-2.38371
 30
0.0
 10
14.21845
 20
-2.38371
 30
0.0
 10
14.21845
 20
-6.715840000000001
 30
0.0
 10
14.21845
 20
-6.715840000000001
 30
0.0
 10
14.21845
 20
-6.715840000000001
 30
0.0
 10
14.21845
 20
-6.715840000000001
 30
0.0
 10
17.49604
 20
-6.715840000000001
 30
0.0
 10
17.49604
 20
-6.715840000000001
 30
0.0
  0
SPLINE
  5
46
330
1F
100
AcDbEntity
  8
Layer 1
 62
    22
370
     5
100
AcDbSpline
210
0.0
220
0.0
230
1.0
 70
    11
 71
     3
 72
   152
 73
   148
 74
     0
 42
0.0000000001
 43
0.0000000001
 40
0.0
 40
0.0
 40
0.0
 40
0.0
 40
0.027027027027027
 40
0.027027027027027
 40
0.027027027027027
 40
0.027027027027027
 40
0.0540540540540541
 40
0.0540540540540541
 40
0.0540540540540541
 40
0.0540540540540541
 40
0.0810810810810811
 40
0.0810810810810811
 40
0.0810810810810811
 40
0.0810810810810811
 40
0.1081081081081081
 40
0.1081081081081081
 40
0.1081081081081081
 40
0.1081081081081081
 40
0.1351351351351351
 40
0.1351351351351351
 40
0.1351351351351351
 40
0.1351351351351351
 40
0.1621621621621622
 40
0.1621621621621622
 40
0.1621621621621622
 40
0.1621621621621622
 40
0.1891891891891892
 40
0.1891891891891892
 40
0.1891891891891892
 40
0.1891891891891892
 40
0.2162162162162162
 40
0.2162162162162162
 40
0.2162162162162162
 40
0.2162162162162162
 40
0.2432432432432433
 40
0.2432432432432433
 40
0.2432432432432433
 40
0.2432432432432433
 40
0.2702702702702703
 40
0.2702702702702703
 40
0.2702702702702703
 40
0.2702702702702703
 40
0.2972972972972973
 40
0.2972972972972973
 40
0.2972972972972973
 40
0.2972972972972973
 40
0.3243243243243243
 40
0.3243243243243243
 40
0.3243243243243243
 40
0.3243243243243243
 40
0.3513513513513514
 40
0.3513513513513514
 40
0.3513513513513514
 40
0.3513513513513514
 40
0.3783783783783784
 40
0.3783783783783784
 40
0.3783783783783784
 40
0.3783783783783784
 40
0.4054054054054054
 40
0.4054054054054054
 40
0.4054054054054054
 40
0.4054054054054054
 40
0.4324324324324325
 40
0.4324324324324325
 40
0.4324324324324325
 40
0.4324324324324325
 40
0.4594594594594595
 40
0.4594594594594595
 40
0.4594594594594595
 40
0.4594594594594595
 40
0.4864864864864865
 40
0.4864864864864865
 40
0.4864864864864865
 40
0.4864864864864865
 40
0.5135135135135136
 40
0.5135135135135136
 40
0.5135135135135136
 40
0.5135135135135136
 40
0.5405405405405406
 40
0.5405405405405406
 40
0.5405405405405406
 40
0.5405405405405406
 40
0.5675675675675675
 40
0.5675675675675675
 40
0.5675675675675675
 40
0.5675675675675675
 40
0.5945945945945945
 40
0.5945945945945945
 40
0.5945945945945945
 40
0.5945945945945945
 40
0.6216216216216215
 40
0.6216216216216215
 40
0.6216216216216215
 40
0.6216216216216215
 40
0.6486486486486485
 40
0.6486486486486485
 40
0.6486486486486485
 40
0.6486486486486485
 40
0.6756756756756754
 40
0.6756756756756754
 40
0.6756756756756754
 40
0.6756756756756754
 40
0.7027027027027024
 40
0.7027027027027024
 40
0.7027027027027024
 40
0.7027027027027024
 40
0.7297297297297294
 40
0.7297297297297294
 40
0.7297297297297294
 40
0.7297297297297294
 40
0.7567567567567564
 40
0.7567567567567564
 40
0.7567567567567564
 40
0.7567567567567564
 40
0.7837837837837833
 40
0.7837837837837833
 40
0.7837837837837833
 40
0.7837837837837833
 40
0.8108108108108103
 40
0.8108108108108103
 40
0.8108108108108103
 40
0.8108108108108103
 40
0.8378378378378373
 40
0.8378378378378373
 40
0.8378378378378373
 40
0.8378378378378373
 40
0.8648648648648643
 40
0.8648648648648643
 40
0.8648648648648643
 40
0.8648648648648643
 40
0.8918918918918912
 40
0.8918918918918912
 40
0.8918918918918912
 40
0.8918918918918912
 40
0.9189189189189182
 40
0.9189189189189182
 40
0.9189189189189182
 40
0.9189189189189182
 40
0.9459459459459452
 40
0.9459459459459452
 40
0.9459459459459452
 40
0.9459459459459452
 40
0.9729729729729721
 40
0.9729729729729721
 40
0.9729729729729721
 40
0.9729729729729721
 40
1.0
 40
1.0
 40
1.0
 40
1.0
 10
10.60878
 20
-10.22381
 30
0.0
 10
10.60878
 20
-10.22381
 30
0.0
 10
10.60878
 20
-4.77451
 30
0.0
 10
10.60878
 20
-4.77451
 30
0.0
 10
10.60878
 20
-4.77451
 30
0.0
 10
10.60878
 20
-4.77451
 30
0.0
 10
10.40443
 20
-4.77451
 30
0.0
 10
10.40443
 20
-4.77451
 30
0.0
 10
10.40443
 20
-4.77451
 30
0.0
 10
10.40443
 20
-4.77451
 30
0.0
 10
10.40443
 20
-3.41219
 30
0.0
 10
10.40443
 20
-3.41219
 30
0.0
 10
10.40443
 20
-3.41219
 30
0.0
 10
10.40443
 20
-3.41219
 30
0.0
 10
10.60878
 20
-3.41219
 30
0.0
 10
10.60878
 20
-3.41219
 30
0.0
 10
10.60878
 20
-3.41219
 30
0.0
 10
10.60878
 20
-3.41219
 30
0.0
 10
10.60878
 20
-0.41472
 30
0.0
 10
10.60878
 20
-0.41472
 30
0.0
 10
10.60878
 20
-0.41472
 30
0.0
 10
10.60878
 20
-0.41472
 30
0.0
 10
11.16325
 20
-0.4148000000000001
 30
0.0
 10
11.16325
 20
-0.4148000000000001
 30
0.0
 10
11.16325
 20
-0.4148000000000001
 30
0.0
 10
11.16325
 20
-0.4148000000000001
 30
0.0
 10
11.16325
 20
-0.8289900000000001
 30
0.0
 10
11.16325
 20
-0.8289900000000001
 30
0.0
 10
11.16325
 20
-0.8289900000000001
 30
0.0
 10
11.16325
 20
-0.8289900000000001
 30
0.0
 10
12.52557
 20
-0.8289900000000001
 30
0.0
 10
12.52557
 20
-0.8289900000000001
 30
0.0
 10
12.52557
 20
-0.8289900000000001
 30
0.0
 10
12.52557
 20
-0.8289900000000001
 30
0.0
 10
12.52557
 20
-0.4148000000000001
 30
0.0
 10
12.52557
 20
-0.4148000000000001
 30
0.0
 10
12.52557
 20
-0.4148000000000001
 30
0.0
 10
12.52557
 20
-0.4148000000000001
 30
0.0
 10
15.93138
 20
-0.4148000000000001
 30
0.0
 10
15.93138
 20
-0.4148000000000001
 30
0.0
 10
15.93138
 20
-0.4148000000000001
 30
0.0
 10
15.93138
 20
-0.4148000000000001
 30
0.0
 10
15.93138
 20
-0.8289900000000001
 30
0.0
 10
15.93138
 20
-0.8289900000000001
 30
0.0
 10
15.93138
 20
-0.8289900000000001
 30
0.0
 10
15.93138
 20
-0.8289900000000001
 30
0.0
 10
17.29371
 20
-0.8289900000000001
 30
0.0
 10
17.29371
 20
-0.8289900000000001
 30
0.0
 10
17.29371
 20
-0.8289900000000001
 30
0.0
 10
17.29371
 20
-0.8289900000000001
 30
0.0
 10
17.29371
 20
-0.4148000000000001
 30
0.0
 10
17.29371
 20
-0.4148000000000001
 30
0.0
 10
17.29371
 20
-0.4148000000000001
 30
0.0
 10
17.29371
 20
-0.4148000000000001
 30
0.0
 10
18.37403
 20
-0.41472
 30
0.0
 10
18.37403
 20
-0.41472
 30
0.0
 10
18.37403
 20
-0.41472
 30
0.0
 10
18.37403
 20
-0.41472
 30
0.0
 10
18.37403
 20
-3.41219
 30
0.0
 10
18.37403
 20
-3.41219
 30
0.0
 10
18.37403
 20
-3.41219
 30
0.0
 10
18.37403
 20
-3.41219
 30
0.0
 10
18.78273
 20
-3.41219
 30
0.0
 10
18.78273
 20
-3.41219
 30
0.0
 10
18.78273
 20
-3.41219
 30
0.0
 10
18.78273
 20
-3.41219
 30
0.0
 10
18.78273
 20
-4.77451
 30
0.0
 10
18.78273
 20
-4.77451
 30
0.0
 10
18.78273
 20
-4.77451
 30
0.0
 10
18.78273
 20
-4.77451
 30
0.0
 10
18.37403
 20
-4.77451
 30
0.0
 10
18.37403
 20
-4.77451
 30
0.0
 10
18.37403
 20
-4.77451
 30
0.0
 10
18.37403
 20
-4.77451
 30
0.0
 10
18.37403
 20
-10.22381
 30
0.0
 10
18.37403
 20
-10.22381
 30
0.0
 10
18.37403
 20
-10.22381
 30
0.0
 10
18.37403
 20
-10.22381
 30
0.0
 10
18.78273
 20
-10.22381
 30
0.0
 10
18.78273
 20
-10.22381
 30
0.0
 10
18.78273
 20
-10.22381
 30
0.0
 10
18.78273
 20
-10.22381
 30
0.0
 10
18.78273
 20
-11.58613
 30
0.0
 10
18.78273
 20
-11.58613
 30
0.0
 10
18.78273
 20
-11.58613
 30
0.0
 10
18.78273
 20
-11.58613
 30
0.0
 10
18.37403
 20
-11.58613
 30
0.0
 10
18.37403
 20
-11.58613
 30
0.0
 10
18.37403
 20
-11.58613
 30
0.0
 10
18.37403
 20
-11.58613
 30
0.0
 10
18.37403
 20
-14.31078
 30
0.0
 10
18.37403
 20
-14.31078
 30
0.0
 10
18.37403
 20
-14.31078
 30
0.0
 10
18.37403
 20
-14.31078
 30
0.0
 10
17.29371
 20
-14.30878
 30
0.0
 10
17.29371
 20
-14.30878
 30
0.0
 10
17.29371
 20
-14.30878
 30
0.0
 10
17.29371
 20
-14.30878
 30
0.0
 10
17.29371
 20
-13.84563
 30
0.0
 10
17.29371
 20
-13.84563
 30
0.0
 10
17.29371
 20
-13.84563
 30
0.0
 10
17.29371
 20
-13.84563
 30
0.0
 10
15.93138
 20
-13.84563
 30
0.0
 10
15.93138
 20
-13.84563
 30
0.0
 10
15.93138
 20
-13.84563
 30
0.0
 10
15.93138
 20
-13.84563
 30
0.0
 10
15.93138
 20
-14.30878
 30
0.0
 10
15.93138
 20
-14.30878
 30
0.0
 10
15.93138
 20
-14.30878
 30
0.0
 10
15.93138
 20
-14.30878
 30
0.0
 10
12.52557
 20
-14.30878
 30
0.0
 10
12.52557
 20
-14.30878
 30
0.0
 10
12.52557
 20
-14.30878
 30
0.0
 10
12.52557
 20
-14.30878
 30
0.0
 10
12.52557
 20
-13.90101
 30
0.0
 10
12.52557
 20
-13.90101
 30
0.0
 10
12.52557
 20
-13.90101
 30
0.0
 10
12.52557
 20
-13.90101
 30
0.0
 10
11.16325
 20
-13.90098
 30
0.0
 10
11.16325
 20
-13.90098
 30
0.0
 10
11.16325
 20
-13.90098
 30
0.0
 10
11.16325
 20
-13.90098
 30
0.0
 10
11.16325
 20
-14.30878
 30
0.0
 10
11.16325
 20
-14.30878
 30
0.0
 10
11.16325
 20
-14.30878
 30
0.0
 10
11.16325
 20
-14.30878
 30
0.0
 10
11.08483
 20
-14.31078
 30
0.0
 10
11.08483
 20
-14.31078
 30
0.0
 10
11.08483
 20
-14.31078
 30
0.0
 10
11.08483
 20
-14.31078
 30
0.0
 10
10.60878
 20
-14.31078
 30
0.0
 10
10.60878
 20
-14.31078
 30
0.0
 10
10.60878
 20
-14.31078
 30
0.0
 10
10.60878
 20
-14.31078
 30
0.0
 10
10.60878
 20
-11.58613
 30
0.0
 10
10.60878
 20
-11.58613
 30
0.0
 10
10.60878
 20
-11.58613
 30
0.0
 10
10.60878
 20
-11.58613
 30
0.0
 10
10.40443
 20
-11.58613
 30
0.0
 10
10.40443
 20
-11.58613
 30
0.0
 10
10.40443
 20
-11.58613
 30
0.0
 10
10.40443
 20
-11.58613
 30
0.0
 10
10.40443
 20
-10.22381
 30
0.0
 10
10.40443
 20
-10.22381
 30
0.0
 10
10.40443
 20
-10.22381
 30
0.0
 10
10.40443
 20
-10.22381
 30
0.0
 10
10.60878
 20
-10.22381
 30
0.0
 10
10.60878
 20
-10.22381
 30
0.0
  0
SPLINE
  5
47
330
1F
100
AcDbEntity
  8
Layer 1
 62
    22
370
     5
100
AcDbSpline
210
0.0
220
0.0
230
1.0
 70
    11
 71
     3
 72
   116
 73
   112
 74
     0
 42
0.0000000001
 43
0.0000000001
 40
0.0
 40
0.0
 40
0.0
 40
0.0
 40
0.0357142857142857
 40
0.0357142857142857
 40
0.0357142857142857
 40
0.0357142857142857
 40
0.0714285714285714
 40
0.0714285714285714
 40
0.0714285714285714
 40
0.0714285714285714
 40
0.1071428571428571
 40
0.1071428571428571
 40
0.1071428571428571
 40
0.1071428571428571
 40
0.1428571428571429
 40
0.1428571428571429
 40
0.1428571428571429
 40
0.1428571428571429
 40
0.1785714285714286
 40
0.1785714285714286
 40
0.1785714285714286
 40
0.1785714285714286
 40
0.2142857142857143
 40
0.2142857142857143
 40
0.2142857142857143
 40
0.2142857142857143
 40
0.2499999999999999
 40
0.2499999999999999
 40
0.2499999999999999
 40
0.2499999999999999
 40
0.2857142857142856
 40
0.2857142857142856
 40
0.2857142857142856
 40
0.2857142857142856
 40
0.3214285714285713
 40
0.3214285714285713
 40
0.3214285714285713
 40
0.3214285714285713
 40
0.357142857142857
 40
0.357142857142857
 40
0.357142857142857
 40
0.357142857142857
 40
0.3928571428571427
 40
0.3928571428571427
 40
0.3928571428571427
 40
0.3928571428571427
 40
0.4285714285714284
 40
0.4285714285714284
 40
0.4285714285714284
 40
0.4285714285714284
 40
0.4642857142857141
 40
0.4642857142857141
 40
0.4642857142857141
 40
0.4642857142857141
 40
0.4999999999999998
 40
0.4999999999999998
 40
0.4999999999999998
 40
0.4999999999999998
 40
0.5357142857142856
 40
0.5357142857142856
 40
0.5357142857142856
 40
0.5357142857142856
 40
0.5714285714285713
 40
0.5714285714285713
 40
0.5714285714285713
 40
0.5714285714285713
 40
0.607142857142857
 40
0.607142857142857
 40
0.607142857142857
 40
0.607142857142857
 40
0.6428571428571427
 40
0.6428571428571427
 40
0.6428571428571427
 40
0.6428571428571427
 40
0.6785714285714284
 40
0.6785714285714284
 40
0.6785714285714284
 40
0.6785714285714284
 40
0.7142857142857141
 40
0.7142857142857141
 40
0.7142857142857141
 40
0.7142857142857141
 40
0.7499999999999998
 40
0.7499999999999998
 40
0.7499999999999998
 40
0.7499999999999998
 40
0.7857142857142855
 40
0.7857142857142855
 40
0.7857142857142855
 40
0.7857142857142855
 40
0.8214285714285712
 40
0.8214285714285712
 40
0.8214285714285712
 40
0.8214285714285712
 40
0.8571428571428569
 40
0.8571428571428569
 40
0.8571428571428569
 40
0.8571428571428569
 40
0.8928571428571426
 40
0.8928571428571426
 40
0.8928571428571426
 40
0.8928571428571426
 40
0.9285714285714283
 40
0.9285714285714283
 40
0.9285714285714283
 40
0.9285714285714283
 40
0.964285714285714
 40
0.964285714285714
 40
0.964285714285714
 40
0.964285714285714
 40
1.0
 40
1.0
 40
1.0
 40
1.0
 10
11.52648
 20
-0.00239
 30
0.0
 10
11.52648
 20
-0.00239
 30
0.0
 10
11.52648
 20
2.72226
 30
0.0
 10
11.52648
 20
2.72226
 30
0.0
 10
11.52648
 20
2.72226
 30
0.0
 10
11.52648
 20
2.72226
 30
0.0
 10
11.93516
 20
2.72226
 30
0.0
 10
11.93516
 20
2.72226
 30
0.0
 10
11.93516
 20
2.72226
 30
0.0
 10
11.93516
 20
2.72226
 30
0.0
 10
11.93516
 20
4.084580000000001
 30
0.0
 10
11.93516
 20
4.084580000000001
 30
0.0
 10
11.93516
 20
4.084580000000001
 30
0.0
 10
11.93516
 20
4.084580000000001
 30
0.0
 10
11.52648
 20
4.084580000000001
 30
0.0
 10
11.52648
 20
4.084580000000001
 30
0.0
 10
11.52648
 20
4.084580000000001
 30
0.0
 10
11.52648
 20
4.084580000000001
 30
0.0
 10
11.52648
 20
9.53388
 30
0.0
 10
11.52648
 20
9.53388
 30
0.0
 10
11.52648
 20
9.53388
 30
0.0
 10
11.52648
 20
9.53388
 30
0.0
 10
11.93516
 20
9.53388
 30
0.0
 10
11.93516
 20
9.53388
 30
0.0
 10
11.93516
 20
9.53388
 30
0.0
 10
11.93516
 20
9.53388
 30
0.0
 10
11.93516
 20
10.89619
 30
0.0
 10
11.93516
 20
10.89619
 30
0.0
 10
11.93516
 20
10.89619
 30
0.0
 10
11.93516
 20
10.89619
 30
0.0
 10
11.52648
 20
10.89619
 30
0.0
 10
11.52648
 20
10.89619
 30
0.0
 10
11.52648
 20
10.89619
 30
0.0
 10
11.52648
 20
10.89619
 30
0.0
 10
11.52648
 20
13.89359
 30
0.0
 10
11.52648
 20
13.89359
 30
0.0
 10
11.52648
 20
13.89359
 30
0.0
 10
11.52648
 20
13.89359
 30
0.0
 10
14.25113
 20
13.89367
 30
0.0
 10
14.25113
 20
13.89367
 30
0.0
 10
14.25113
 20
13.89367
 30
0.0
 10
14.25113
 20
13.89367
 30
0.0
 10
14.25113
 20
13.48503
 30
0.0
 10
14.25113
 20
13.48503
 30
0.0
 10
14.25113
 20
13.48503
 30
0.0
 10
14.25113
 20
13.48503
 30
0.0
 10
15.61344
 20
13.48503
 30
0.0
 10
15.61344
 20
13.48503
 30
0.0
 10
15.61344
 20
13.48503
 30
0.0
 10
15.61344
 20
13.48503
 30
0.0
 10
15.61345
 20
13.89367
 30
0.0
 10
15.61345
 20
13.89367
 30
0.0
 10
15.61345
 20
13.89367
 30
0.0
 10
15.61345
 20
13.89367
 30
0.0
 10
18.3381
 20
13.89359
 30
0.0
 10
18.3381
 20
13.89359
 30
0.0
 10
18.3381
 20
13.89359
 30
0.0
 10
18.3381
 20
13.89359
 30
0.0
 10
18.3381
 20
10.89619
 30
0.0
 10
18.3381
 20
10.89619
 30
0.0
 10
18.3381
 20
10.89619
 30
0.0
 10
18.3381
 20
10.89619
 30
0.0
 10
17.92941
 20
10.89619
 30
0.0
 10
17.92941
 20
10.89619
 30
0.0
 10
17.92941
 20
10.89619
 30
0.0
 10
17.92941
 20
10.89619
 30
0.0
 10
17.92941
 20
9.53388
 30
0.0
 10
17.92941
 20
9.53388
 30
0.0
 10
17.92941
 20
9.53388
 30
0.0
 10
17.92941
 20
9.53388
 30
0.0
 10
18.3381
 20
9.53388
 30
0.0
 10
18.3381
 20
9.53388
 30
0.0
 10
18.3381
 20
9.53388
 30
0.0
 10
18.3381
 20
9.53388
 30
0.0
 10
18.3381
 20
4.084580000000001
 30
0.0
 10
18.3381
 20
4.084580000000001
 30
0.0
 10
18.3381
 20
4.084580000000001
 30
0.0
 10
18.3381
 20
4.084580000000001
 30
0.0
 10
17.92941
 20
4.084580000000001
 30
0.0
 10
17.92941
 20
4.084580000000001
 30
0.0
 10
17.92941
 20
4.084580000000001
 30
0.0
 10
17.92941
 20
4.084580000000001
 30
0.0
 10
17.92941
 20
2.72224
 30
0.0
 10
17.92941
 20
2.72224
 30
0.0
 10
17.92941
 20
2.72224
 30
0.0
 10
17.92941
 20
2.72224
 30
0.0
 10
18.3381
 20
2.72226
 30
0.0
 10
18.3381
 20
2.72226
 30
0.0
 10
18.3381
 20
2.72226
 30
0.0
 10
18.3381
 20
2.72226
 30
0.0
 10
18.3381
 20
-0.00239
 30
0.0
 10
18.3381
 20
-0.00239
 30
0.0
 10
18.3381
 20
-0.00239
 30
0.0
 10
18.3381
 20
-0.00239
 30
0.0
 10
15.61344
 20
-0.00239
 30
0.0
 10
15.61344
 20
-0.00239
 30
0.0
 10
15.61344
 20
-0.00239
 30
0.0
 10
15.61344
 20
-0.00239
 30
0.0
 10
15.61345
 20
0.4063000000000001
 30
0.0
 10
15.61345
 20
0.4063000000000001
 30
0.0
 10
15.61345
 20
0.4063000000000001
 30
0.0
 10
15.61345
 20
0.4063000000000001
 30
0.0
 10
14.25112
 20
0.4063000000000001
 30
0.0
 10
14.25112
 20
0.4063000000000001
 30
0.0
 10
14.25112
 20
0.4063000000000001
 30
0.0
 10
14.25112
 20
0.4063000000000001
 30
0.0
 10
14.25112
 20
-0.00239
 30
0.0
 10
14.25112
 20
-0.00239
 30
0.0
 10
14.25112
 20
-0.00239
 30
0.0
 10
14.25112
 20
-0.00239
 30
0.0
 10
11.52648
 20
-0.00239
 30
0.0
 10
11.52648
 20
-0.00239
 30
0.0
  0
SPLINE
  5
48
330
1F
100
AcDbEntity
  8
Layer 1
 62
    22
370
     5
100
AcDbSpline
210
0.0
220
0.0
230
1.0
 70
    11
 71
     3
 72
    20
 73
    16
 74
     0
 42
0.0000000001
 43
0.0000000001
 40
0.0
 40
0.0
 40
0.0
 40
0.0
 40
0.25
 40
0.25
 40
0.25
 40
0.25
 40
0.5
 40
0.5
 40
0.5
 40
0.5
 40
0.75
 40
0.75
 40
0.75
 40
0.75
 40
1.0
 40
1.0
 40
1.0
 40
1.0
 10
-18.13026
 20
13.43679
 30
0.0
 10
-18.13026
 20
13.43679
 30
0.0
 10
-13.79814
 20
13.43679
 30
0.0
 10
-13.79814
 20
13.43679
 30
0.0
 10
-13.79814
 20
13.43679
 30
0.0
 10
-13.79814
 20
13.43679
 30
0.0
 10
-13.79814
 20
10.1592
 30
0.0
 10
-13.79814
 20
10.1592
 30
0.0
 10
-13.79814
 20
10.1592
 30
0.0
 10
-13.79814
 20
10.1592
 30
0.0
 10
-18.13026
 20
10.1592
 30
0.0
 10
-18.13026
 20
10.1592
 30
0.0
 10
-18.13026
 20
10.1592
 30
0.0
 10
-18.13026
 20
10.1592
 30
0.0
 10
-18.13026
 20
13.43679
 30
0.0
 10
-18.13026
 20
13.43679
 30
0.0
  0
SPLINE
  5
49
330
1F
100
AcDbEntity
  8
Layer 1
 62
    22
370
     5
100
AcDbSpline
210
0.0
220
0.0
230
1.0
 70
    11
 71
     3
 72
    20
 73
    16
 74
     0
 42
0.0000000001
 43
0.0000000001
 40
0.0
 40
0.0
 40
0.0
 40
0.0
 40
0.25
 40
0.25
 40
0.25
 40
0.25
 40
0.5
 40
0.5
 40
0.5
 40
0.5
 40
0.75
 40
0.75
 40
0.75
 40
0.75
 40
1.0
 40
1.0
 40
1.0
 40
1.0
 10
-12.01596
 20
13.45198
 30
0.0
 10
-12.01596
 20
13.45198
 30
0.0
 10
-7.68383
 20
13.45198
 30
0.0
 10
-7.68383
 20
13.45198
 30
0.0
 10
-7.68383
 20
13.45198
 30
0.0
 10
-7.68383
 20
13.45198
 30
0.0
 10
-7.68383
 20
10.17439
 30
0.0
 10
-7.68383
 20
10.17439
 30
0.0
 10
-7.68383
 20
10.17439
 30
0.0
 10
-7.68383
 20
10.17439
 30
0.0
 10
-12.01596
 20
10.17439
 30
0.0
 10
-12.01596
 20
10.17439
 30
0.0
 10
-12.01596
 20
10.17439
 30
0.0
 10
-12.01596
 20
10.17439
 30
0.0
 10
-12.01596
 20
13.45198
 30
0.0
 10
-12.01596
 20
13.45198
 30
0.0
  0
SPLINE
  5
4A
330
1F
100
AcDbEntity
  8
Layer 1
 62
    22
370
     5
100
AcDbSpline
210
0.0
220
0.0
230
1.0
 70
    11
 71
     3
 72
   152
 73
   148
 74
     0
 42
0.0000000001
 43
0.0000000001
 40
0.0
 40
0.0
 40
0.0
 40
0.0
 40
0.027027027027027
 40
0.027027027027027
 40
0.027027027027027
 40
0.027027027027027
 40
0.0540540540540541
 40
0.0540540540540541
 40
0.0540540540540541
 40
0.0540540540540541
 40
0.0810810810810811
 40
0.0810810810810811
 40
0.0810810810810811
 40
0.0810810810810811
 40
0.1081081081081081
 40
0.1081081081081081
 40
0.1081081081081081
 40
0.1081081081081081
 40
0.1351351351351351
 40
0.1351351351351351
 40
0.1351351351351351
 40
0.1351351351351351
 40
0.1621621621621622
 40
0.1621621621621622
 40
0.1621621621621622
 40
0.1621621621621622
 40
0.1891891891891892
 40
0.1891891891891892
 40
0.1891891891891892
 40
0.1891891891891892
 40
0.2162162162162162
 40
0.2162162162162162
 40
0.2162162162162162
 40
0.2162162162162162
 40
0.2432432432432433
 40
0.2432432432432433
 40
0.2432432432432433
 40
0.2432432432432433
 40
0.2702702702702703
 40
0.2702702702702703
 40
0.2702702702702703
 40
0.2702702702702703
 40
0.2972972972972973
 40
0.2972972972972973
 40
0.2972972972972973
 40
0.2972972972972973
 40
0.3243243243243243
 40
0.3243243243243243
 40
0.3243243243243243
 40
0.3243243243243243
 40
0.3513513513513514
 40
0.3513513513513514
 40
0.3513513513513514
 40
0.3513513513513514
 40
0.3783783783783784
 40
0.3783783783783784
 40
0.3783783783783784
 40
0.3783783783783784
 40
0.4054054054054054
 40
0.4054054054054054
 40
0.4054054054054054
 40
0.4054054054054054
 40
0.4324324324324325
 40
0.4324324324324325
 40
0.4324324324324325
 40
0.4324324324324325
 40
0.4594594594594595
 40
0.4594594594594595
 40
0.4594594594594595
 40
0.4594594594594595
 40
0.4864864864864865
 40
0.4864864864864865
 40
0.4864864864864865
 40
0.4864864864864865
 40
0.5135135135135136
 40
0.5135135135135136
 40
0.5135135135135136
 40
0.5135135135135136
 40
0.5405405405405406
 40
0.5405405405405406
 40
0.5405405405405406
 40
0.5405405405405406
 40
0.5675675675675675
 40
0.5675675675675675
 40
0.5675675675675675
 40
0.5675675675675675
 40
0.5945945945945945
 40
0.5945945945945945
 40
0.5945945945945945
 40
0.5945945945945945
 40
0.6216216216216215
 40
0.6216216216216215
 40
0.6216216216216215
 40
0.6216216216216215
 40
0.6486486486486485
 40
0.6486486486486485
 40
0.6486486486486485
 40
0.6486486486486485
 40
0.6756756756756754
 40
0.6756756756756754
 40
0.6756756756756754
 40
0.6756756756756754
 40
0.7027027027027024
 40
0.7027027027027024
 40
0.7027027027027024
 40
0.7027027027027024
 40
0.7297297297297294
 40
0.7297297297297294
 40
0.7297297297297294
 40
0.7297297297297294
 40
0.7567567567567564
 40
0.7567567567567564
 40
0.7567567567567564
 40
0.7567567567567564
 40
0.7837837837837833
 40
0.7837837837837833
 40
0.7837837837837833
 40
0.7837837837837833
 40
0.8108108108108103
 40
0.8108108108108103
 40
0.8108108108108103
 40
0.8108108108108103
 40
0.8378378378378373
 40
0.8378378378378373
 40
0.8378378378378373
 40
0.8378378378378373
 40
0.8648648648648643
 40
0.8648648648648643
 40
0.8648648648648643
 40
0.8648648648648643
 40
0.8918918918918912
 40
0.8918918918918912
 40
0.8918918918918912
 40
0.8918918918918912
 40
0.9189189189189182
 40
0.9189189189189182
 40
0.9189189189189182
 40
0.9189189189189182
 40
0.9459459459459452
 40
0.9459459459459452
 40
0.9459459459459452
 40
0.9459459459459452
 40
0.9729729729729721
 40
0.9729729729729721
 40
0.9729729729729721
 40
0.9729729729729721
 40
1.0
 40
1.0
 40
1.0
 40
1.0
 10
-15.52393
 20
6.56472
 30
0.0
 10
-15.52393
 20
6.56472
 30
0.0
 10
-10.07463
 20
6.56472
 30
0.0
 10
-10.07463
 20
6.56472
 30
0.0
 10
-10.07463
 20
6.56472
 30
0.0
 10
-10.07463
 20
6.56472
 30
0.0
 10
-10.07463
 20
6.360370000000001
 30
0.0
 10
-10.07463
 20
6.360370000000001
 30
0.0
 10
-10.07463
 20
6.360370000000001
 30
0.0
 10
-10.07463
 20
6.360370000000001
 30
0.0
 10
-8.71231
 20
6.360370000000001
 30
0.0
 10
-8.71231
 20
6.360370000000001
 30
0.0
 10
-8.71231
 20
6.360370000000001
 30
0.0
 10
-8.71231
 20
6.360370000000001
 30
0.0
 10
-8.71231
 20
6.56472
 30
0.0
 10
-8.71231
 20
6.56472
 30
0.0
 10
-8.71231
 20
6.56472
 30
0.0
 10
-8.71231
 20
6.56472
 30
0.0
 10
-5.714840000000001
 20
6.56472
 30
0.0
 10
-5.714840000000001
 20
6.56472
 30
0.0
 10
-5.714840000000001
 20
6.56472
 30
0.0
 10
-5.714840000000001
 20
6.56472
 30
0.0
 10
-5.71492
 20
7.119190000000001
 30
0.0
 10
-5.71492
 20
7.119190000000001
 30
0.0
 10
-5.71492
 20
7.119190000000001
 30
0.0
 10
-5.71492
 20
7.119190000000001
 30
0.0
 10
-6.129110000000001
 20
7.119190000000001
 30
0.0
 10
-6.129110000000001
 20
7.119190000000001
 30
0.0
 10
-6.129110000000001
 20
7.119190000000001
 30
0.0
 10
-6.129110000000001
 20
7.119190000000001
 30
0.0
 10
-6.129110000000001
 20
8.48151
 30
0.0
 10
-6.129110000000001
 20
8.48151
 30
0.0
 10
-6.129110000000001
 20
8.48151
 30
0.0
 10
-6.129110000000001
 20
8.48151
 30
0.0
 10
-5.71492
 20
8.48151
 30
0.0
 10
-5.71492
 20
8.48151
 30
0.0
 10
-5.71492
 20
8.48151
 30
0.0
 10
-5.71492
 20
8.48151
 30
0.0
 10
-5.71492
 20
11.88732
 30
0.0
 10
-5.71492
 20
11.88732
 30
0.0
 10
-5.71492
 20
11.88732
 30
0.0
 10
-5.71492
 20
11.88732
 30
0.0
 10
-6.129110000000001
 20
11.88732
 30
0.0
 10
-6.129110000000001
 20
11.88732
 30
0.0
 10
-6.129110000000001
 20
11.88732
 30
0.0
 10
-6.129110000000001
 20
11.88732
 30
0.0
 10
-6.129110000000001
 20
13.24965
 30
0.0
 10
-6.129110000000001
 20
13.24965
 30
0.0
 10
-6.129110000000001
 20
13.24965
 30
0.0
 10
-6.129110000000001
 20
13.24965
 30
0.0
 10
-5.71492
 20
13.24965
 30
0.0
 10
-5.71492
 20
13.24965
 30
0.0
 10
-5.71492
 20
13.24965
 30
0.0
 10
-5.71492
 20
13.24965
 30
0.0
 10
-5.714840000000001
 20
14.32997
 30
0.0
 10
-5.714840000000001
 20
14.32997
 30
0.0
 10
-5.714840000000001
 20
14.32997
 30
0.0
 10
-5.714840000000001
 20
14.32997
 30
0.0
 10
-8.71231
 20
14.32997
 30
0.0
 10
-8.71231
 20
14.32997
 30
0.0
 10
-8.71231
 20
14.32997
 30
0.0
 10
-8.71231
 20
14.32997
 30
0.0
 10
-8.71231
 20
14.73867
 30
0.0
 10
-8.71231
 20
14.73867
 30
0.0
 10
-8.71231
 20
14.73867
 30
0.0
 10
-8.71231
 20
14.73867
 30
0.0
 10
-10.07463
 20
14.73867
 30
0.0
 10
-10.07463
 20
14.73867
 30
0.0
 10
-10.07463
 20
14.73867
 30
0.0
 10
-10.07463
 20
14.73867
 30
0.0
 10
-10.07463
 20
14.32997
 30
0.0
 10
-10.07463
 20
14.32997
 30
0.0
 10
-10.07463
 20
14.32997
 30
0.0
 10
-10.07463
 20
14.32997
 30
0.0
 10
-15.52393
 20
14.32997
 30
0.0
 10
-15.52393
 20
14.32997
 30
0.0
 10
-15.52393
 20
14.32997
 30
0.0
 10
-15.52393
 20
14.32997
 30
0.0
 10
-15.52393
 20
14.73867
 30
0.0
 10
-15.52393
 20
14.73867
 30
0.0
 10
-15.52393
 20
14.73867
 30
0.0
 10
-15.52393
 20
14.73867
 30
0.0
 10
-16.88625
 20
14.73867
 30
0.0
 10
-16.88625
 20
14.73867
 30
0.0
 10
-16.88625
 20
14.73867
 30
0.0
 10
-16.88625
 20
14.73867
 30
0.0
 10
-16.88625
 20
14.32997
 30
0.0
 10
-16.88625
 20
14.32997
 30
0.0
 10
-16.88625
 20
14.32997
 30
0.0
 10
-16.88625
 20
14.32997
 30
0.0
 10
-19.6109
 20
14.32997
 30
0.0
 10
-19.6109
 20
14.32997
 30
0.0
 10
-19.6109
 20
14.32997
 30
0.0
 10
-19.6109
 20
14.32997
 30
0.0
 10
-19.6089
 20
13.24965
 30
0.0
 10
-19.6089
 20
13.24965
 30
0.0
 10
-19.6089
 20
13.24965
 30
0.0
 10
-19.6089
 20
13.24965
 30
0.0
 10
-19.14575
 20
13.24965
 30
0.0
 10
-19.14575
 20
13.24965
 30
0.0
 10
-19.14575
 20
13.24965
 30
0.0
 10
-19.14575
 20
13.24965
 30
0.0
 10
-19.14575
 20
11.88732
 30
0.0
 10
-19.14575
 20
11.88732
 30
0.0
 10
-19.14575
 20
11.88732
 30
0.0
 10
-19.14575
 20
11.88732
 30
0.0
 10
-19.6089
 20
11.88732
 30
0.0
 10
-19.6089
 20
11.88732
 30
0.0
 10
-19.6089
 20
11.88732
 30
0.0
 10
-19.6089
 20
11.88732
 30
0.0
 10
-19.6089
 20
8.48151
 30
0.0
 10
-19.6089
 20
8.48151
 30
0.0
 10
-19.6089
 20
8.48151
 30
0.0
 10
-19.6089
 20
8.48151
 30
0.0
 10
-19.20113
 20
8.48151
 30
0.0
 10
-19.20113
 20
8.48151
 30
0.0
 10
-19.20113
 20
8.48151
 30
0.0
 10
-19.20113
 20
8.48151
 30
0.0
 10
-19.2011
 20
7.119190000000001
 30
0.0
 10
-19.2011
 20
7.119190000000001
 30
0.0
 10
-19.2011
 20
7.119190000000001
 30
0.0
 10
-19.2011
 20
7.119190000000001
 30
0.0
 10
-19.6089
 20
7.119190000000001
 30
0.0
 10
-19.6089
 20
7.119190000000001
 30
0.0
 10
-19.6089
 20
7.119190000000001
 30
0.0
 10
-19.6089
 20
7.119190000000001
 30
0.0
 10
-19.6109
 20
7.04077
 30
0.0
 10
-19.6109
 20
7.04077
 30
0.0
 10
-19.6109
 20
7.04077
 30
0.0
 10
-19.6109
 20
7.04077
 30
0.0
 10
-19.6109
 20
6.56472
 30
0.0
 10
-19.6109
 20
6.56472
 30
0.0
 10
-19.6109
 20
6.56472
 30
0.0
 10
-19.6109
 20
6.56472
 30
0.0
 10
-16.88625
 20
6.56472
 30
0.0
 10
-16.88625
 20
6.56472
 30
0.0
 10
-16.88625
 20
6.56472
 30
0.0
 10
-16.88625
 20
6.56472
 30
0.0
 10
-16.88625
 20
6.360370000000001
 30
0.0
 10
-16.88625
 20
6.360370000000001
 30
0.0
 10
-16.88625
 20
6.360370000000001
 30
0.0
 10
-16.88625
 20
6.360370000000001
 30
0.0
 10
-15.52393
 20
6.360370000000001
 30
0.0
 10
-15.52393
 20
6.360370000000001
 30
0.0
 10
-15.52393
 20
6.360370000000001
 30
0.0
 10
-15.52393
 20
6.360370000000001
 30
0.0
 10
-15.52393
 20
6.56472
 30
0.0
 10
-15.52393
 20
6.56472
 30
0.0
  0
SPLINE
  5
4B
330
1F
100
AcDbEntity
  8
Layer 1
 62
    22
370
     5
100
AcDbSpline
210
0.0
220
0.0
230
1.0
 70
    11
 71
     3
 72
   116
 73
   112
 74
     0
 42
0.0000000001
 43
0.0000000001
 40
0.0
 40
0.0
 40
0.0
 40
0.0
 40
0.0357142857142857
 40
0.0357142857142857
 40
0.0357142857142857
 40
0.0357142857142857
 40
0.0714285714285714
 40
0.0714285714285714
 40
0.0714285714285714
 40
0.0714285714285714
 40
0.1071428571428571
 40
0.1071428571428571
 40
0.1071428571428571
 40
0.1071428571428571
 40
0.1428571428571429
 40
0.1428571428571429
 40
0.1428571428571429
 40
0.1428571428571429
 40
0.1785714285714286
 40
0.1785714285714286
 40
0.1785714285714286
 40
0.1785714285714286
 40
0.2142857142857143
 40
0.2142857142857143
 40
0.2142857142857143
 40
0.2142857142857143
 40
0.2499999999999999
 40
0.2499999999999999
 40
0.2499999999999999
 40
0.2499999999999999
 40
0.2857142857142856
 40
0.2857142857142856
 40
0.2857142857142856
 40
0.2857142857142856
 40
0.3214285714285713
 40
0.3214285714285713
 40
0.3214285714285713
 40
0.3214285714285713
 40
0.357142857142857
 40
0.357142857142857
 40
0.357142857142857
 40
0.357142857142857
 40
0.3928571428571427
 40
0.3928571428571427
 40
0.3928571428571427
 40
0.3928571428571427
 40
0.4285714285714284
 40
0.4285714285714284
 40
0.4285714285714284
 40
0.4285714285714284
 40
0.4642857142857141
 40
0.4642857142857141
 40
0.4642857142857141
 40
0.4642857142857141
 40
0.4999999999999998
 40
0.4999999999999998
 40
0.4999999999999998
 40
0.4999999999999998
 40
0.5357142857142856
 40
0.5357142857142856
 40
0.5357142857142856
 40
0.5357142857142856
 40
0.5714285714285713
 40
0.5714285714285713
 40
0.5714285714285713
 40
0.5714285714285713
 40
0.607142857142857
 40
0.607142857142857
 40
0.607142857142857
 40
0.607142857142857
 40
0.6428571428571427
 40
0.6428571428571427
 40
0.6428571428571427
 40
0.6428571428571427
 40
0.6785714285714284
 40
0.6785714285714284
 40
0.6785714285714284
 40
0.6785714285714284
 40
0.7142857142857141
 40
0.7142857142857141
 40
0.7142857142857141
 40
0.7142857142857141
 40
0.7499999999999998
 40
0.7499999999999998
 40
0.7499999999999998
 40
0.7499999999999998
 40
0.7857142857142855
 40
0.7857142857142855
 40
0.7857142857142855
 40
0.7857142857142855
 40
0.8214285714285712
 40
0.8214285714285712
 40
0.8214285714285712
 40
0.8214285714285712
 40
0.8571428571428569
 40
0.8571428571428569
 40
0.8571428571428569
 40
0.8571428571428569
 40
0.8928571428571426
 40
0.8928571428571426
 40
0.8928571428571426
 40
0.8928571428571426
 40
0.9285714285714283
 40
0.9285714285714283
 40
0.9285714285714283
 40
0.9285714285714283
 40
0.964285714285714
 40
0.964285714285714
 40
0.964285714285714
 40
0.964285714285714
 40
1.0
 40
1.0
 40
1.0
 40
1.0
 10
2.15124
 20
5.94106
 30
0.0
 10
2.15124
 20
5.94106
 30
0.0
 10
2.15124
 20
3.62512
 30
0.0
 10
2.15124
 20
3.62512
 30
0.0
 10
2.15124
 20
3.62512
 30
0.0
 10
2.15124
 20
3.62512
 30
0.0
 10
1.74254
 20
3.62512
 30
0.0
 10
1.74254
 20
3.62512
 30
0.0
 10
1.74254
 20
3.62512
 30
0.0
 10
1.74254
 20
3.62512
 30
0.0
 10
1.74254
 20
2.26342
 30
0.0
 10
1.74254
 20
2.26342
 30
0.0
 10
1.74254
 20
2.26342
 30
0.0
 10
1.74254
 20
2.26342
 30
0.0
 10
2.15124
 20
2.26279
 30
0.0
 10
2.15124
 20
2.26279
 30
0.0
 10
2.15124
 20
2.26279
 30
0.0
 10
2.15124
 20
2.26279
 30
0.0
 10
2.15124
 20
-0.05316
 30
0.0
 10
2.15124
 20
-0.05316
 30
0.0
 10
2.15124
 20
-0.05316
 30
0.0
 10
2.15124
 20
-0.05316
 30
0.0
 10
3.23156
 20
-0.05349
 30
0.0
 10
3.23156
 20
-0.05349
 30
0.0
 10
3.23156
 20
-0.05349
 30
0.0
 10
3.23156
 20
-0.05349
 30
0.0
 10
3.23156
 20
-0.45957
 30
0.0
 10
3.23156
 20
-0.45957
 30
0.0
 10
3.23156
 20
-0.45957
 30
0.0
 10
3.23156
 20
-0.45957
 30
0.0
 10
4.59388
 20
-0.45957
 30
0.0
 10
4.59388
 20
-0.45957
 30
0.0
 10
4.59388
 20
-0.45957
 30
0.0
 10
4.59388
 20
-0.45957
 30
0.0
 10
4.59388
 20
-0.05349
 30
0.0
 10
4.59388
 20
-0.05349
 30
0.0
 10
4.59388
 20
-0.05349
 30
0.0
 10
4.59388
 20
-0.05349
 30
0.0
 10
7.999690000000001
 20
-0.05349
 30
0.0
 10
7.999690000000001
 20
-0.05349
 30
0.0
 10
7.999690000000001
 20
-0.05349
 30
0.0
 10
7.999690000000001
 20
-0.05349
 30
0.0
 10
7.999690000000001
 20
-0.45957
 30
0.0
 10
7.999690000000001
 20
-0.45957
 30
0.0
 10
7.999690000000001
 20
-0.45957
 30
0.0
 10
7.999690000000001
 20
-0.45957
 30
0.0
 10
9.362020000000001
 20
-0.45957
 30
0.0
 10
9.362020000000001
 20
-0.45957
 30
0.0
 10
9.362020000000001
 20
-0.45957
 30
0.0
 10
9.362020000000001
 20
-0.45957
 30
0.0
 10
9.362020000000001
 20
-0.05349
 30
0.0
 10
9.362020000000001
 20
-0.05349
 30
0.0
 10
9.362020000000001
 20
-0.05349
 30
0.0
 10
9.362020000000001
 20
-0.05349
 30
0.0
 10
9.916490000000001
 20
-0.05349
 30
0.0
 10
9.916490000000001
 20
-0.05349
 30
0.0
 10
9.916490000000001
 20
-0.05349
 30
0.0
 10
9.916490000000001
 20
-0.05349
 30
0.0
 10
9.916490000000001
 20
2.2603
 30
0.0
 10
9.916490000000001
 20
2.2603
 30
0.0
 10
9.916490000000001
 20
2.2603
 30
0.0
 10
9.916490000000001
 20
2.2603
 30
0.0
 10
10.12083
 20
2.2603
 30
0.0
 10
10.12083
 20
2.2603
 30
0.0
 10
10.12083
 20
2.2603
 30
0.0
 10
10.12083
 20
2.2603
 30
0.0
 10
10.12083
 20
3.62741
 30
0.0
 10
10.12083
 20
3.62741
 30
0.0
 10
10.12083
 20
3.62741
 30
0.0
 10
10.12083
 20
3.62741
 30
0.0
 10
9.916490000000001
 20
3.62741
 30
0.0
 10
9.916490000000001
 20
3.62741
 30
0.0
 10
9.916490000000001
 20
3.62741
 30
0.0
 10
9.916490000000001
 20
3.62741
 30
0.0
 10
9.916490000000001
 20
5.941470000000001
 30
0.0
 10
9.916490000000001
 20
5.941470000000001
 30
0.0
 10
9.916490000000001
 20
5.941470000000001
 30
0.0
 10
9.916490000000001
 20
5.941470000000001
 30
0.0
 10
9.362020000000001
 20
5.941470000000001
 30
0.0
 10
9.362020000000001
 20
5.941470000000001
 30
0.0
 10
9.362020000000001
 20
5.941470000000001
 30
0.0
 10
9.362020000000001
 20
5.941470000000001
 30
0.0
 10
9.362020000000001
 20
6.349760000000001
 30
0.0
 10
9.362020000000001
 20
6.349760000000001
 30
0.0
 10
9.362020000000001
 20
6.349760000000001
 30
0.0
 10
9.362020000000001
 20
6.349760000000001
 30
0.0
 10
7.999690000000001
 20
6.349740000000001
 30
0.0
 10
7.999690000000001
 20
6.349740000000001
 30
0.0
 10
7.999690000000001
 20
6.349740000000001
 30
0.0
 10
7.999690000000001
 20
6.349740000000001
 30
0.0
 10
7.999690000000001
 20
5.941470000000001
 30
0.0
 10
7.999690000000001
 20
5.941470000000001
 30
0.0
 10
7.999690000000001
 20
5.941470000000001
 30
0.0
 10
7.999690000000001
 20
5.941470000000001
 30
0.0
 10
4.59388
 20
5.941470000000001
 30
0.0
 10
4.59388
 20
5.941470000000001
 30
0.0
 10
4.59388
 20
5.941470000000001
 30
0.0
 10
4.59388
 20
5.941470000000001
 30
0.0
 10
4.59388
 20
6.349740000000001
 30
0.0
 10
4.59388
 20
6.349740000000001
 30
0.0
 10
4.59388
 20
6.349740000000001
 30
0.0
 10
4.59388
 20
6.349740000000001
 30
0.0
 10
3.23156
 20
6.349740000000001
 30
0.0
 10
3.23156
 20
6.349740000000001
 30
0.0
 10
3.23156
 20
6.349740000000001
 30
0.0
 10
3.23156
 20
6.349740000000001
 30
0.0
 10
3.23156
 20
5.941470000000001
 30
0.0
 10
3.23156
 20
5.941470000000001
 30
0.0
 10
3.23156
 20
5.941470000000001
 30
0.0
 10
3.23156
 20
5.941470000000001
 30
0.0
 10
2.15124
 20
5.94106
 30
0.0
 10
2.15124
 20
5.94106
 30
0.0
  0
SPLINE
  5
4C
330
1F
100
AcDbEntity
  8
Layer 1
 62
    22
370
     5
100
AcDbSpline
210
0.0
220
0.0
230
1.0
 70
    11
 71
     3
 72
    20
 73
    16
 74
     0
 42
0.0000000001
 43
0.0000000001
 40
0.0
 40
0.0
 40
0.0
 40
0.0
 40
0.25
 40
0.25
 40
0.25
 40
0.25
 40
0.5
 40
0.5
 40
0.5
 40
0.5
 40
0.75
 40
0.75
 40
0.75
 40
0.75
 40
1.0
 40
1.0
 40
1.0
 40
1.0
 10
4.49803
 20
2.77189
 30
0.0
 10
4.49803
 20
2.77189
 30
0.0
 10
3.02925
 20
2.77189
 30
0.0
 10
3.02925
 20
2.77189
 30
0.0
 10
3.02925
 20
2.77189
 30
0.0
 10
3.02925
 20
2.77189
 30
0.0
 10
3.02925
 20
1.12917
 30
0.0
 10
3.02925
 20
1.12917
 30
0.0
 10
3.02925
 20
1.12917
 30
0.0
 10
3.02925
 20
1.12917
 30
0.0
 10
4.49803
 20
1.12917
 30
0.0
 10
4.49803
 20
1.12917
 30
0.0
 10
4.49803
 20
1.12917
 30
0.0
 10
4.49803
 20
1.12917
 30
0.0
 10
4.49803
 20
2.77189
 30
0.0
 10
4.49803
 20
2.77189
 30
0.0
  0
SPLINE
  5
4D
330
1F
100
AcDbEntity
  8
Layer 1
 62
    22
370
     5
100
AcDbSpline
210
0.0
220
0.0
230
1.0
 70
    11
 71
     3
 72
    20
 73
    16
 74
     0
 42
0.0000000001
 43
0.0000000001
 40
0.0
 40
0.0
 40
0.0
 40
0.0
 40
0.25
 40
0.25
 40
0.25
 40
0.25
 40
0.5
 40
0.5
 40
0.5
 40
0.5
 40
0.75
 40
0.75
 40
0.75
 40
0.75
 40
1.0
 40
1.0
 40
1.0
 40
1.0
 10
4.87223
 20
2.77189
 30
0.0
 10
4.87223
 20
2.77189
 30
0.0
 10
4.87223
 20
1.12917
 30
0.0
 10
4.87223
 20
1.12917
 30
0.0
 10
4.87223
 20
1.12917
 30
0.0
 10
4.87223
 20
1.12917
 30
0.0
 10
6.298830000000001
 20
1.12917
 30
0.0
 10
6.298830000000001
 20
1.12917
 30
0.0
 10
6.298830000000001
 20
1.12917
 30
0.0
 10
6.298830000000001
 20
1.12917
 30
0.0
 10
6.298830000000001
 20
2.77189
 30
0.0
 10
6.298830000000001
 20
2.77189
 30
0.0
 10
6.298830000000001
 20
2.77189
 30
0.0
 10
6.298830000000001
 20
2.77189
 30
0.0
 10
4.87223
 20
2.77189
 30
0.0
 10
4.87223
 20
2.77189
 30
0.0
  0
SPLINE
  5
4E
330
1F
100
AcDbEntity
  8
Layer 1
 62
    22
370
     5
100
AcDbSpline
210
0.0
220
0.0
230
1.0
 70
    11
 71
     3
 72
    20
 73
    16
 74
     0
 42
0.0000000001
 43
0.0000000001
 40
0.0
 40
0.0
 40
0.0
 40
0.0
 40
0.25
 40
0.25
 40
0.25
 40
0.25
 40
0.5
 40
0.5
 40
0.5
 40
0.5
 40
0.75
 40
0.75
 40
0.75
 40
0.75
 40
1.0
 40
1.0
 40
1.0
 40
1.0
 10
4.87223
 20
3.17282
 30
0.0
 10
4.87223
 20
3.17282
 30
0.0
 10
6.298830000000001
 20
3.17282
 30
0.0
 10
6.298830000000001
 20
3.17282
 30
0.0
 10
6.298830000000001
 20
3.17282
 30
0.0
 10
6.298830000000001
 20
3.17282
 30
0.0
 10
6.298830000000001
 20
4.777030000000001
 30
0.0
 10
6.298830000000001
 20
4.777030000000001
 30
0.0
 10
6.298830000000001
 20
4.777030000000001
 30
0.0
 10
6.298830000000001
 20
4.777030000000001
 30
0.0
 10
4.87223
 20
4.777030000000001
 30
0.0
 10
4.87223
 20
4.777030000000001
 30
0.0
 10
4.87223
 20
4.777030000000001
 30
0.0
 10
4.87223
 20
4.777030000000001
 30
0.0
 10
4.87223
 20
3.17282
 30
0.0
 10
4.87223
 20
3.17282
 30
0.0
  0
SPLINE
  5
4F
330
1F
100
AcDbEntity
  8
Layer 1
 62
    22
370
     5
100
AcDbSpline
210
0.0
220
0.0
230
1.0
 70
    11
 71
     3
 72
    20
 73
    16
 74
     0
 42
0.0000000001
 43
0.0000000001
 40
0.0
 40
0.0
 40
0.0
 40
0.0
 40
0.25
 40
0.25
 40
0.25
 40
0.25
 40
0.5
 40
0.5
 40
0.5
 40
0.5
 40
0.75
 40
0.75
 40
0.75
 40
0.75
 40
1.0
 40
1.0
 40
1.0
 40
1.0
 10
4.49803
 20
3.17282
 30
0.0
 10
4.49803
 20
3.17282
 30
0.0
 10
4.49803
 20
4.777030000000001
 30
0.0
 10
4.49803
 20
4.777030000000001
 30
0.0
 10
4.49803
 20
4.777030000000001
 30
0.0
 10
4.49803
 20
4.777030000000001
 30
0.0
 10
3.02925
 20
4.777030000000001
 30
0.0
 10
3.02925
 20
4.777030000000001
 30
0.0
 10
3.02925
 20
4.777030000000001
 30
0.0
 10
3.02925
 20
4.777030000000001
 30
0.0
 10
3.02925
 20
3.17282
 30
0.0
 10
3.02925
 20
3.17282
 30
0.0
 10
3.02925
 20
3.17282
 30
0.0
 10
3.02925
 20
3.17282
 30
0.0
 10
4.49803
 20
3.17282
 30
0.0
 10
4.49803
 20
3.17282
 30
0.0
  0
SPLINE
  5
50
330
1F
100
AcDbEntity
  8
Layer 1
 62
    22
370
     5
100
AcDbSpline
210
0.0
220
0.0
230
1.0
 70
    11
 71
     3
 72
   116
 73
   112
 74
     0
 42
0.0000000001
 43
0.0000000001
 40
0.0
 40
0.0
 40
0.0
 40
0.0
 40
0.0357142857142857
 40
0.0357142857142857
 40
0.0357142857142857
 40
0.0357142857142857
 40
0.0714285714285714
 40
0.0714285714285714
 40
0.0714285714285714
 40
0.0714285714285714
 40
0.1071428571428571
 40
0.1071428571428571
 40
0.1071428571428571
 40
0.1071428571428571
 40
0.1428571428571429
 40
0.1428571428571429
 40
0.1428571428571429
 40
0.1428571428571429
 40
0.1785714285714286
 40
0.1785714285714286
 40
0.1785714285714286
 40
0.1785714285714286
 40
0.2142857142857143
 40
0.2142857142857143
 40
0.2142857142857143
 40
0.2142857142857143
 40
0.2499999999999999
 40
0.2499999999999999
 40
0.2499999999999999
 40
0.2499999999999999
 40
0.2857142857142856
 40
0.2857142857142856
 40
0.2857142857142856
 40
0.2857142857142856
 40
0.3214285714285713
 40
0.3214285714285713
 40
0.3214285714285713
 40
0.3214285714285713
 40
0.357142857142857
 40
0.357142857142857
 40
0.357142857142857
 40
0.357142857142857
 40
0.3928571428571427
 40
0.3928571428571427
 40
0.3928571428571427
 40
0.3928571428571427
 40
0.4285714285714284
 40
0.4285714285714284
 40
0.4285714285714284
 40
0.4285714285714284
 40
0.4642857142857141
 40
0.4642857142857141
 40
0.4642857142857141
 40
0.4642857142857141
 40
0.4999999999999998
 40
0.4999999999999998
 40
0.4999999999999998
 40
0.4999999999999998
 40
0.5357142857142856
 40
0.5357142857142856
 40
0.5357142857142856
 40
0.5357142857142856
 40
0.5714285714285713
 40
0.5714285714285713
 40
0.5714285714285713
 40
0.5714285714285713
 40
0.607142857142857
 40
0.607142857142857
 40
0.607142857142857
 40
0.607142857142857
 40
0.6428571428571427
 40
0.6428571428571427
 40
0.6428571428571427
 40
0.6428571428571427
 40
0.6785714285714284
 40
0.6785714285714284
 40
0.6785714285714284
 40
0.6785714285714284
 40
0.7142857142857141
 40
0.7142857142857141
 40
0.7142857142857141
 40
0.7142857142857141
 40
0.7499999999999998
 40
0.7499999999999998
 40
0.7499999999999998
 40
0.7499999999999998
 40
0.7857142857142855
 40
0.7857142857142855
 40
0.7857142857142855
 40
0.7857142857142855
 40
0.8214285714285712
 40
0.8214285714285712
 40
0.8214285714285712
 40
0.8214285714285712
 40
0.8571428571428569
 40
0.8571428571428569
 40
0.8571428571428569
 40
0.8571428571428569
 40
0.8928571428571426
 40
0.8928571428571426
 40
0.8928571428571426
 40
0.8928571428571426
 40
0.9285714285714283
 40
0.9285714285714283
 40
0.9285714285714283
 40
0.9285714285714283
 40
0.964285714285714
 40
0.964285714285714
 40
0.964285714285714
 40
0.964285714285714
 40
1.0
 40
1.0
 40
1.0
 40
1.0
 10
-20.10526
 20
5.842700000000001
 30
0.0
 10
-20.10526
 20
5.842700000000001
 30
0.0
 10
-20.10526
 20
3.52676
 30
0.0
 10
-20.10526
 20
3.52676
 30
0.0
 10
-20.10526
 20
3.52676
 30
0.0
 10
-20.10526
 20
3.52676
 30
0.0
 10
-20.51396
 20
3.52676
 30
0.0
 10
-20.51396
 20
3.52676
 30
0.0
 10
-20.51396
 20
3.52676
 30
0.0
 10
-20.51396
 20
3.52676
 30
0.0
 10
-20.51396
 20
2.16506
 30
0.0
 10
-20.51396
 20
2.16506
 30
0.0
 10
-20.51396
 20
2.16506
 30
0.0
 10
-20.51396
 20
2.16506
 30
0.0
 10
-20.10526
 20
2.16443
 30
0.0
 10
-20.10526
 20
2.16443
 30
0.0
 10
-20.10526
 20
2.16443
 30
0.0
 10
-20.10526
 20
2.16443
 30
0.0
 10
-20.10526
 20
-0.15152
 30
0.0
 10
-20.10526
 20
-0.15152
 30
0.0
 10
-20.10526
 20
-0.15152
 30
0.0
 10
-20.10526
 20
-0.15152
 30
0.0
 10
-19.02494
 20
-0.15185
 30
0.0
 10
-19.02494
 20
-0.15185
 30
0.0
 10
-19.02494
 20
-0.15185
 30
0.0
 10
-19.02494
 20
-0.15185
 30
0.0
 10
-19.02494
 20
-0.55793
 30
0.0
 10
-19.02494
 20
-0.55793
 30
0.0
 10
-19.02494
 20
-0.55793
 30
0.0
 10
-19.02494
 20
-0.55793
 30
0.0
 10
-17.66261
 20
-0.55793
 30
0.0
 10
-17.66261
 20
-0.55793
 30
0.0
 10
-17.66261
 20
-0.55793
 30
0.0
 10
-17.66261
 20
-0.55793
 30
0.0
 10
-17.66261
 20
-0.15185
 30
0.0
 10
-17.66261
 20
-0.15185
 30
0.0
 10
-17.66261
 20
-0.15185
 30
0.0
 10
-17.66261
 20
-0.15185
 30
0.0
 10
-14.2568
 20
-0.15185
 30
0.0
 10
-14.2568
 20
-0.15185
 30
0.0
 10
-14.2568
 20
-0.15185
 30
0.0
 10
-14.2568
 20
-0.15185
 30
0.0
 10
-14.2568
 20
-0.55793
 30
0.0
 10
-14.2568
 20
-0.55793
 30
0.0
 10
-14.2568
 20
-0.55793
 30
0.0
 10
-14.2568
 20
-0.55793
 30
0.0
 10
-12.89447
 20
-0.55793
 30
0.0
 10
-12.89447
 20
-0.55793
 30
0.0
 10
-12.89447
 20
-0.55793
 30
0.0
 10
-12.89447
 20
-0.55793
 30
0.0
 10
-12.89447
 20
-0.15185
 30
0.0
 10
-12.89447
 20
-0.15185
 30
0.0
 10
-12.89447
 20
-0.15185
 30
0.0
 10
-12.89447
 20
-0.15185
 30
0.0
 10
-12.34001
 20
-0.15185
 30
0.0
 10
-12.34001
 20
-0.15185
 30
0.0
 10
-12.34001
 20
-0.15185
 30
0.0
 10
-12.34001
 20
-0.15185
 30
0.0
 10
-12.34001
 20
2.16194
 30
0.0
 10
-12.34001
 20
2.16194
 30
0.0
 10
-12.34001
 20
2.16194
 30
0.0
 10
-12.34001
 20
2.16194
 30
0.0
 10
-12.13566
 20
2.16194
 30
0.0
 10
-12.13566
 20
2.16194
 30
0.0
 10
-12.13566
 20
2.16194
 30
0.0
 10
-12.13566
 20
2.16194
 30
0.0
 10
-12.13566
 20
3.52905
 30
0.0
 10
-12.13566
 20
3.52905
 30
0.0
 10
-12.13566
 20
3.52905
 30
0.0
 10
-12.13566
 20
3.52905
 30
0.0
 10
-12.34001
 20
3.52905
 30
0.0
 10
-12.34001
 20
3.52905
 30
0.0
 10
-12.34001
 20
3.52905
 30
0.0
 10
-12.34001
 20
3.52905
 30
0.0
 10
-12.34001
 20
5.84311
 30
0.0
 10
-12.34001
 20
5.84311
 30
0.0
 10
-12.34001
 20
5.84311
 30
0.0
 10
-12.34001
 20
5.84311
 30
0.0
 10
-12.89447
 20
5.84311
 30
0.0
 10
-12.89447
 20
5.84311
 30
0.0
 10
-12.89447
 20
5.84311
 30
0.0
 10
-12.89447
 20
5.84311
 30
0.0
 10
-12.89447
 20
6.2514
 30
0.0
 10
-12.89447
 20
6.2514
 30
0.0
 10
-12.89447
 20
6.2514
 30
0.0
 10
-12.89447
 20
6.2514
 30
0.0
 10
-14.2568
 20
6.25138
 30
0.0
 10
-14.2568
 20
6.25138
 30
0.0
 10
-14.2568
 20
6.25138
 30
0.0
 10
-14.2568
 20
6.25138
 30
0.0
 10
-14.2568
 20
5.84311
 30
0.0
 10
-14.2568
 20
5.84311
 30
0.0
 10
-14.2568
 20
5.84311
 30
0.0
 10
-14.2568
 20
5.84311
 30
0.0
 10
-17.66261
 20
5.84311
 30
0.0
 10
-17.66261
 20
5.84311
 30
0.0
 10
-17.66261
 20
5.84311
 30
0.0
 10
-17.66261
 20
5.84311
 30
0.0
 10
-17.66261
 20
6.25138
 30
0.0
 10
-17.66261
 20
6.25138
 30
0.0
 10
-17.66261
 20
6.25138
 30
0.0
 10
-17.66261
 20
6.25138
 30
0.0
 10
-19.02494
 20
6.25138
 30
0.0
 10
-19.02494
 20
6.25138
 30
0.0
 10
-19.02494
 20
6.25138
 30
0.0
 10
-19.02494
 20
6.25138
 30
0.0
 10
-19.02494
 20
5.84311
 30
0.0
 10
-19.02494
 20
5.84311
 30
0.0
 10
-19.02494
 20
5.84311
 30
0.0
 10
-19.02494
 20
5.84311
 30
0.0
 10
-20.10526
 20
5.842700000000001
 30
0.0
 10
-20.10526
 20
5.842700000000001
 30
0.0
  0
SPLINE
  5
51
330
1F
100
AcDbEntity
  8
Layer 1
 62
    22
370
     5
100
AcDbSpline
210
0.0
220
0.0
230
1.0
 70
    11
 71
     3
 72
    20
 73
    16
 74
     0
 42
0.0000000001
 43
0.0000000001
 40
0.0
 40
0.0
 40
0.0
 40
0.0
 40
0.25
 40
0.25
 40
0.25
 40
0.25
 40
0.5
 40
0.5
 40
0.5
 40
0.5
 40
0.75
 40
0.75
 40
0.75
 40
0.75
 40
1.0
 40
1.0
 40
1.0
 40
1.0
 10
-17.75846
 20
2.67354
 30
0.0
 10
-17.75846
 20
2.67354
 30
0.0
 10
-19.22724
 20
2.67354
 30
0.0
 10
-19.22724
 20
2.67354
 30
0.0
 10
-19.22724
 20
2.67354
 30
0.0
 10
-19.22724
 20
2.67354
 30
0.0
 10
-19.22724
 20
1.03081
 30
0.0
 10
-19.22724
 20
1.03081
 30
0.0
 10
-19.22724
 20
1.03081
 30
0.0
 10
-19.22724
 20
1.03081
 30
0.0
 10
-17.75846
 20
1.03081
 30
0.0
 10
-17.75846
 20
1.03081
 30
0.0
 10
-17.75846
 20
1.03081
 30
0.0
 10
-17.75846
 20
1.03081
 30
0.0
 10
-17.75846
 20
2.67354
 30
0.0
 10
-17.75846
 20
2.67354
 30
0.0
  0
SPLINE
  5
52
330
1F
100
AcDbEntity
  8
Layer 1
 62
    22
370
     5
100
AcDbSpline
210
0.0
220
0.0
230
1.0
 70
    11
 71
     3
 72
    20
 73
    16
 74
     0
 42
0.0000000001
 43
0.0000000001
 40
0.0
 40
0.0
 40
0.0
 40
0.0
 40
0.25
 40
0.25
 40
0.25
 40
0.25
 40
0.5
 40
0.5
 40
0.5
 40
0.5
 40
0.75
 40
0.75
 40
0.75
 40
0.75
 40
1.0
 40
1.0
 40
1.0
 40
1.0
 10
-17.38426
 20
2.67354
 30
0.0
 10
-17.38426
 20
2.67354
 30
0.0
 10
-17.38426
 20
1.03081
 30
0.0
 10
-17.38426
 20
1.03081
 30
0.0
 10
-17.38426
 20
1.03081
 30
0.0
 10
-17.38426
 20
1.03081
 30
0.0
 10
-15.95766
 20
1.03081
 30
0.0
 10
-15.95766
 20
1.03081
 30
0.0
 10
-15.95766
 20
1.03081
 30
0.0
 10
-15.95766
 20
1.03081
 30
0.0
 10
-15.95766
 20
2.67354
 30
0.0
 10
-15.95766
 20
2.67354
 30
0.0
 10
-15.95766
 20
2.67354
 30
0.0
 10
-15.95766
 20
2.67354
 30
0.0
 10
-17.38426
 20
2.67354
 30
0.0
 10
-17.38426
 20
2.67354
 30
0.0
  0
SPLINE
  5
53
330
1F
100
AcDbEntity
  8
Layer 1
 62
    22
370
     5
100
AcDbSpline
210
0.0
220
0.0
230
1.0
 70
    11
 71
     3
 72
    20
 73
    16
 74
     0
 42
0.0000000001
 43
0.0000000001
 40
0.0
 40
0.0
 40
0.0
 40
0.0
 40
0.25
 40
0.25
 40
0.25
 40
0.25
 40
0.5
 40
0.5
 40
0.5
 40
0.5
 40
0.75
 40
0.75
 40
0.75
 40
0.75
 40
1.0
 40
1.0
 40
1.0
 40
1.0
 10
-17.38426
 20
3.07446
 30
0.0
 10
-17.38426
 20
3.07446
 30
0.0
 10
-15.95766
 20
3.07446
 30
0.0
 10
-15.95766
 20
3.07446
 30
0.0
 10
-15.95766
 20
3.07446
 30
0.0
 10
-15.95766
 20
3.07446
 30
0.0
 10
-15.95766
 20
4.67867
 30
0.0
 10
-15.95766
 20
4.67867
 30
0.0
 10
-15.95766
 20
4.67867
 30
0.0
 10
-15.95766
 20
4.67867
 30
0.0
 10
-17.38426
 20
4.67867
 30
0.0
 10
-17.38426
 20
4.67867
 30
0.0
 10
-17.38426
 20
4.67867
 30
0.0
 10
-17.38426
 20
4.67867
 30
0.0
 10
-17.38426
 20
3.07446
 30
0.0
 10
-17.38426
 20
3.07446
 30
0.0
  0
SPLINE
  5
54
330
1F
100
AcDbEntity
  8
Layer 1
 62
    22
370
     5
100
AcDbSpline
210
0.0
220
0.0
230
1.0
 70
    11
 71
     3
 72
    20
 73
    16
 74
     0
 42
0.0000000001
 43
0.0000000001
 40
0.0
 40
0.0
 40
0.0
 40
0.0
 40
0.25
 40
0.25
 40
0.25
 40
0.25
 40
0.5
 40
0.5
 40
0.5
 40
0.5
 40
0.75
 40
0.75
 40
0.75
 40
0.75
 40
1.0
 40
1.0
 40
1.0
 40
1.0
 10
-17.75846
 20
3.07446
 30
0.0
 10
-17.75846
 20
3.07446
 30
0.0
 10
-17.75846
 20
4.67867
 30
0.0
 10
-17.75846
 20
4.67867
 30
0.0
 10
-17.75846
 20
4.67867
 30
0.0
 10
-17.75846
 20
4.67867
 30
0.0
 10
-19.22724
 20
4.67867
 30
0.0
 10
-19.22724
 20
4.67867
 30
0.0
 10
-19.22724
 20
4.67867
 30
0.0
 10
-19.22724
 20
4.67867
 30
0.0
 10
-19.22724
 20
3.07446
 30
0.0
 10
-19.22724
 20
3.07446
 30
0.0
 10
-19.22724
 20
3.07446
 30
0.0
 10
-19.22724
 20
3.07446
 30
0.0
 10
-17.75846
 20
3.07446
 30
0.0
 10
-17.75846
 20
3.07446
 30
0.0
  0
ENDSEC
  0
SECTION
  2
OBJECTS
  0
DICTIONARY
  5
C
330
0
100
AcDbDictionary
281
     1
  3
ACAD_GROUP
350
D
  3
ACAD_LAYOUT
350
1A
  3
ACAD_MLINESTYLE
350
17
  3
ACAD_PLOTSETTINGS
350
19
  3
ACAD_PLOTSTYLENAME
350
E
  0
DICTIONARY
  5
D
102
{ACAD_REACTORS
330
C
102
}
330
C
100
AcDbDictionary
281
     1
  0
DICTIONARY
  5
1A
102
{ACAD_REACTORS
330
C
102
}
330
C
100
AcDbDictionary
281
     1
  3
Layout1
350
1E
  3
Layout2
350
26
  3
Model
350
22
  0
DICTIONARY
  5
17
102
{ACAD_REACTORS
330
C
102
}
330
C
100
AcDbDictionary
281
     1
  3
Standard
350
18
  0
DICTIONARY
  5
19
102
{ACAD_REACTORS
330
C
102
}
330
C
100
AcDbDictionary
281
     1
  0
ACDBDICTIONARYWDFLT
  5
E
102
{ACAD_REACTORS
330
C
102
}
330
C
100
AcDbDictionary
281
     1
  3
Normal
350
F
100
AcDbDictionaryWithDefault
340
F
  0
LAYOUT
  5
1E
102
{ACAD_REACTORS
330
1A
102
}
330
1A
100
AcDbPlotSettings
  1

  2

  4

  6

 40
0.0
 41
0.0
 42
0.0
 43
0.0
 44
0.0
 45
0.0
 46
0.0
 47
0.0
 48
0.0
 49
0.0
140
0.0
141
0.0
142
1.0
143
1.0
 70
   688
 72
     0
 73
     0
 74
     5
  7

 75
    16
 76
     0
 77
     2
 78
   300
147
1.0
148
0.0
149
0.0
100
AcDbLayout
  1
Layout1
 70
     1
 71
     1
 10
0.0
 20
0.0
 11
12.0
 21
9.0
 12
0.0
 22
0.0
 32
0.0
 14
1.000000000000000E+20
 24
1.000000000000000E+20
 34
1.000000000000000E+20
 15
-1.000000000000000E+20
 25
-1.000000000000000E+20
 35
-1.000000000000000E+20
146
0.0
 13
0.0
 23
0.0
 33
0.0
 16
1.0
 26
0.0
 36
0.0
 17
0.0
 27
1.0
 37
0.0
 76
     0
330
1B
  0
LAYOUT
  5
26
102
{ACAD_REACTORS
330
1A
102
}
330
1A
100
AcDbPlotSettings
  1

  2

  4

  6

 40
0.0
 41
0.0
 42
0.0
 43
0.0
 44
0.0
 45
0.0
 46
0.0
 47
0.0
 48
0.0
 49
0.0
140
0.0
141
0.0
142
1.0
143
1.0
 70
   688
 72
     0
 73
     0
 74
     5
  7

 75
    16
 76
     0
 77
     2
 78
   300
147
1.0
148
0.0
149
0.0
100
AcDbLayout
  1
Layout2
 70
     1
 71
     2
 10
0.0
 20
0.0
 11
0.0
 21
0.0
 12
0.0
 22
0.0
 32
0.0
 14
0.0
 24
0.0
 34
0.0
 15
0.0
 25
0.0
 35
0.0
146
0.0
 13
0.0
 23
0.0
 33
0.0
 16
1.0
 26
0.0
 36
0.0
 17
0.0
 27
1.0
 37
0.0
 76
     0
330
23
  0
LAYOUT
  5
22
102
{ACAD_REACTORS
330
1A
102
}
330
1A
100
AcDbPlotSettings
  1

  2

  4

  6

 40
0.0
 41
0.0
 42
0.0
 43
0.0
 44
0.0
 45
0.0
 46
0.0
 47
0.0
 48
0.0
 49
0.0
140
0.0
141
0.0
142
1.0
143
1.0
 70
  1712
 72
     0
 73
     0
 74
     0
  7

 75
     0
 76
     0
 77
     2
 78
   300
147
1.0
148
0.0
149
0.0
100
AcDbLayout
  1
Model
 70
     1
 71
     0
 10
0.0
 20
0.0
 11
0.0
 21
0.0
 12
0.0
 22
0.0
 32
0.0
 14
-20.51407
 24
-14.63641
 34
0.0
 15
18.78283
 25
14.73874
 35
0.0
146
0.0
 13
0.0
 23
0.0
 33
0.0
 16
1.0
 26
0.0
 36
0.0
 17
0.0
 27
1.0
 37
0.0
 76
     0
330
1F
  0
MLINESTYLE
  5
18
102
{ACAD_REACTORS
330
17
102
}
330
17
100
AcDbMlineStyle
  2
Standard
 70
     0
  3

 62
   256
 51
90.0
 52
90.0
 71
     2
 49
0.5
 62
   256
  6
BYLAYER
 49
-0.5
 62
   256
  6
BYLAYER
  0
ACDBPLACEHOLDER
  5
F
102
{ACAD_REACTORS
330
E
102
}
330
E
  0
ENDSEC
  0
EOF
