  0
SECTION
  2
HEADER
  9
$ACADVER
  1
AC1009
  9
$EXTMIN
 10
0.55901857
 20
0.08952255
 30
0.0
  9
$EXTMAX
 10
11.05901857
 20
10.58952255
 30
0.0
  0
ENDSEC
  0
SECTION
  2
TABLES
  0
TABLE
  2
LAYER
 70
1
 0
LAYER
 2
Default_Layer
 70
0
 62
1
 6
CONTINUOUS
 0
ENDTAB
 0
ENDSEC
  0
SECTION
  2
ENTITIES
  0
POLYLINE
  8
Default_Layer
 66
   1
 39
0.000000
 70
    1
  0
VERTEX
  8
0
 10
0.55901857
 20
5.33952255
  0
VERTEX
  8
0
 10
0.55944810
 20
5.40737808
  0
VERTEX
  8
0
 10
0.56073326
 20
5.47502741
  0
VERTEX
  8
0
 10
0.56286889
 20
5.54246538
  0
VERTEX
  8
0
 10
0.56584984
 20
5.60968685
  0
VERTEX
  8
0
 10
0.56967095
 20
5.67668665
  0
VERTEX
  8
0
 10
0.57432707
 20
5.74345964
  0
VERTEX
  8
0
 10
0.57981305
 20
5.81000066
  0
VERTEX
  8
0
 10
0.58612373
 20
5.87630455
  0
VERTEX
  8
0
 10
0.59325395
 20
5.94236616
  0
VERTEX
  8
0
 10
0.60119857
 20
6.00818034
  0
VERTEX
  8
0
 10
0.60995243
 20
6.07374193
  0
VERTEX
  8
0
 10
0.61951037
 20
6.13904578
  0
VERTEX
  8
0
 10
0.62986725
 20
6.20408673
  0
VERTEX
  8
0
 10
0.64101790
 20
6.26885963
  0
VERTEX
  8
0
 10
0.65295717
 20
6.33335933
  0
VERTEX
  8
0
 10
0.66567991
 20
6.39758066
  0
VERTEX
  8
0
 10
0.67918096
 20
6.46151849
  0
VERTEX
  8
0
 10
0.69345518
 20
6.52516765
  0
VERTEX
  8
0
 10
0.70849739
 20
6.58852298
  0
VERTEX
  8
0
 10
0.72430247
 20
6.65157934
  0
VERTEX
  8
0
 10
0.74086523
 20
6.71433158
  0
VERTEX
  8
0
 10
0.75818054
 20
6.77677452
  0
VERTEX
  8
0
 10
0.77624324
 20
6.83890303
  0
VERTEX
  8
0
 10
0.79504818
 20
6.90071195
  0
VERTEX
  8
0
 10
0.81459019
 20
6.96219612
  0
VERTEX
  8
0
 10
0.83486413
 20
7.02335039
  0
VERTEX
  8
0
 10
0.85586484
 20
7.08416961
  0
VERTEX
  8
0
 10
0.87758717
 20
7.14464862
  0
VERTEX
  8
0
 10
0.90002597
 20
7.20478226
  0
VERTEX
  8
0
 10
0.92317607
 20
7.26456539
  0
VERTEX
  8
0
 10
0.94703233
 20
7.32399284
  0
VERTEX
  8
0
 10
0.97158959
 20
7.38305947
  0
VERTEX
  8
0
 10
0.99684270
 20
7.44176012
  0
VERTEX
  8
0
 10
1.02278650
 20
7.50008964
  0
VERTEX
  8
0
 10
1.04941584
 20
7.55804287
  0
VERTEX
  8
0
 10
1.07672556
 20
7.61561465
  0
VERTEX
  8
0
 10
1.10471052
 20
7.67279984
  0
VERTEX
  8
0
 10
1.13336555
 20
7.72959328
  0
VERTEX
  8
0
 10
1.16268550
 20
7.78598982
  0
VERTEX
  8
0
 10
1.19266522
 20
7.84198429
  0
VERTEX
  8
0
 10
1.22329955
 20
7.89757155
  0
VERTEX
  8
0
 10
1.25458334
 20
7.95274645
  0
VERTEX
  8
0
 10
1.28651144
 20
8.00750382
  0
VERTEX
  8
0
 10
1.31907869
 20
8.06183852
  0
VERTEX
  8
0
 10
1.35227994
 20
8.11574539
  0
VERTEX
  8
0
 10
1.38611002
 20
8.16921927
  0
VERTEX
  8
0
 10
1.42056380
 20
8.22225502
  0
VERTEX
  8
0
 10
1.45563611
 20
8.27484747
  0
VERTEX
  8
0
 10
1.49132181
 20
8.32699148
  0
VERTEX
  8
0
 10
1.52761572
 20
8.37868188
  0
VERTEX
  8
0
 10
1.56451271
 20
8.42991353
  0
VERTEX
  8
0
 10
1.60200762
 20
8.48068127
  0
VERTEX
  8
0
 10
1.64009529
 20
8.53097995
  0
VERTEX
  8
0
 10
1.67877057
 20
8.58080441
  0
VERTEX
  8
0
 10
1.71802831
 20
8.63014950
  0
VERTEX
  8
0
 10
1.75786334
 20
8.67901007
  0
VERTEX
  8
0
 10
1.79827053
 20
8.72738095
  0
VERTEX
  8
0
 10
1.83924470
 20
8.77525700
  0
VERTEX
  8
0
 10
1.88078072
 20
8.82263306
  0
VERTEX
  8
0
 10
1.92287341
 20
8.86950398
  0
VERTEX
  8
0
 10
1.96551764
 20
8.91586460
  0
VERTEX
  8
0
 10
2.00870825
 20
8.96170977
  0
VERTEX
  8
0
 10
2.05244007
 20
9.00703434
  0
VERTEX
  8
0
 10
2.09670797
 20
9.05183315
  0
VERTEX
  8
0
 10
2.14150677
 20
9.09610104
  0
VERTEX
  8
0
 10
2.18683134
 20
9.13983287
  0
VERTEX
  8
0
 10
2.23267651
 20
9.18302347
  0
VERTEX
  8
0
 10
2.27903713
 20
9.22566770
  0
VERTEX
  8
0
 10
2.32590805
 20
9.26776040
  0
VERTEX
  8
0
 10
2.37328411
 20
9.30929641
  0
VERTEX
  8
0
 10
2.42116016
 20
9.35027059
  0
VERTEX
  8
0
 10
2.46953105
 20
9.39067777
  0
VERTEX
  8
0
 10
2.51839161
 20
9.43051281
  0
VERTEX
  8
0
 10
2.56773670
 20
9.46977054
  0
VERTEX
  8
0
 10
2.61756116
 20
9.50844582
  0
VERTEX
  8
0
 10
2.66785984
 20
9.54653349
  0
VERTEX
  8
0
 10
2.71862758
 20
9.58402840
  0
VERTEX
  8
0
 10
2.76985923
 20
9.62092539
  0
VERTEX
  8
0
 10
2.82154964
 20
9.65721931
  0
VERTEX
  8
0
 10
2.87369364
 20
9.69290500
  0
VERTEX
  8
0
 10
2.92628610
 20
9.72797731
  0
VERTEX
  8
0
 10
2.97932184
 20
9.76243109
  0
VERTEX
  8
0
 10
3.03279573
 20
9.79626118
  0
VERTEX
  8
0
 10
3.08670259
 20
9.82946242
  0
VERTEX
  8
0
 10
3.14103729
 20
9.86202967
  0
VERTEX
  8
0
 10
3.19579467
 20
9.89395777
  0
VERTEX
  8
0
 10
3.25096956
 20
9.92524156
  0
VERTEX
  8
0
 10
3.30655682
 20
9.95587590
  0
VERTEX
  8
0
 10
3.36255130
 20
9.98585562
  0
VERTEX
  8
0
 10
3.41894783
 20
10.01517557
  0
VERTEX
  8
0
 10
3.47574127
 20
10.04383060
  0
VERTEX
  8
0
 10
3.53292646
 20
10.07181555
  0
VERTEX
  8
0
 10
3.59049825
 20
10.09912528
  0
VERTEX
  8
0
 10
3.64845147
 20
10.12575461
  0
VERTEX
  8
0
 10
3.70678099
 20
10.15169841
  0
VERTEX
  8
0
 10
3.76548164
 20
10.17695152
  0
VERTEX
  8
0
 10
3.82454827
 20
10.20150878
  0
VERTEX
  8
0
 10
3.88397573
 20
10.22536504
  0
VERTEX
  8
0
 10
3.94375885
 20
10.24851515
  0
VERTEX
  8
0
 10
4.00389250
 20
10.27095394
  0
VERTEX
  8
0
 10
4.06437151
 20
10.29267627
  0
VERTEX
  8
0
 10
4.12519072
 20
10.31367698
  0
VERTEX
  8
0
 10
4.18634499
 20
10.33395092
  0
VERTEX
  8
0
 10
4.24782916
 20
10.35349294
  0
VERTEX
  8
0
 10
4.30963808
 20
10.37229787
  0
VERTEX
  8
0
 10
4.37176659
 20
10.39036057
  0
VERTEX
  8
0
 10
4.43420954
 20
10.40767588
  0
VERTEX
  8
0
 10
4.49696177
 20
10.42423865
  0
VERTEX
  8
0
 10
4.56001813
 20
10.44004372
  0
VERTEX
  8
0
 10
4.62337347
 20
10.45508594
  0
VERTEX
  8
0
 10
4.68702263
 20
10.46936015
  0
VERTEX
  8
0
 10
4.75096045
 20
10.48286121
  0
VERTEX
  8
0
 10
4.81518179
 20
10.49558395
  0
VERTEX
  8
0
 10
4.87968149
 20
10.50752322
  0
VERTEX
  8
0
 10
4.94445439
 20
10.51867387
  0
VERTEX
  8
0
 10
5.00949534
 20
10.52903074
  0
VERTEX
  8
0
 10
5.07479919
 20
10.53858868
  0
VERTEX
  8
0
 10
5.14036078
 20
10.54734254
  0
VERTEX
  8
0
 10
5.20617495
 20
10.55528716
  0
VERTEX
  8
0
 10
5.27223657
 20
10.56241739
  0
VERTEX
  8
0
 10
5.33854046
 20
10.56872807
  0
VERTEX
  8
0
 10
5.40508147
 20
10.57421404
  0
VERTEX
  8
0
 10
5.47185446
 20
10.57887017
  0
VERTEX
  8
0
 10
5.53885426
 20
10.58269128
  0
VERTEX
  8
0
 10
5.60607573
 20
10.58567223
  0
VERTEX
  8
0
 10
5.67351371
 20
10.58780786
  0
VERTEX
  8
0
 10
5.74116304
 20
10.58909302
  0
VERTEX
  8
0
 10
5.80901857
 20
10.58952255
  0
VERTEX
  8
0
 10
5.87687410
 20
10.58909302
  0
VERTEX
  8
0
 10
5.94452343
 20
10.58780786
  0
VERTEX
  8
0
 10
6.01196140
 20
10.58567223
  0
VERTEX
  8
0
 10
6.07918287
 20
10.58269128
  0
VERTEX
  8
0
 10
6.14618268
 20
10.57887017
  0
VERTEX
  8
0
 10
6.21295566
 20
10.57421404
  0
VERTEX
  8
0
 10
6.27949668
 20
10.56872807
  0
VERTEX
  8
0
 10
6.34580057
 20
10.56241739
  0
VERTEX
  8
0
 10
6.41186218
 20
10.55528716
  0
VERTEX
  8
0
 10
6.47767636
 20
10.54734254
  0
VERTEX
  8
0
 10
6.54323795
 20
10.53858868
  0
VERTEX
  8
0
 10
6.60854180
 20
10.52903074
  0
VERTEX
  8
0
 10
6.67358275
 20
10.51867387
  0
VERTEX
  8
0
 10
6.73835565
 20
10.50752322
  0
VERTEX
  8
0
 10
6.80285535
 20
10.49558395
  0
VERTEX
  8
0
 10
6.86707668
 20
10.48286121
  0
VERTEX
  8
0
 10
6.93101451
 20
10.46936015
  0
VERTEX
  8
0
 10
6.99466367
 20
10.45508594
  0
VERTEX
  8
0
 10
7.05801900
 20
10.44004372
  0
VERTEX
  8
0
 10
7.12107536
 20
10.42423865
  0
VERTEX
  8
0
 10
7.18382760
 20
10.40767588
  0
VERTEX
  8
0
 10
7.24627054
 20
10.39036057
  0
VERTEX
  8
0
 10
7.30839905
 20
10.37229787
  0
VERTEX
  8
0
 10
7.37020797
 20
10.35349294
  0
VERTEX
  8
0
 10
7.43169214
 20
10.33395092
  0
VERTEX
  8
0
 10
7.49284641
 20
10.31367698
  0
VERTEX
  8
0
 10
7.55366563
 20
10.29267627
  0
VERTEX
  8
0
 10
7.61414464
 20
10.27095394
  0
VERTEX
  8
0
 10
7.67427828
 20
10.24851515
  0
VERTEX
  8
0
 10
7.73406141
 20
10.22536504
  0
VERTEX
  8
0
 10
7.79348886
 20
10.20150878
  0
VERTEX
  8
0
 10
7.85255549
 20
10.17695152
  0
VERTEX
  8
0
 10
7.91125614
 20
10.15169841
  0
VERTEX
  8
0
 10
7.96958566
 20
10.12575461
  0
VERTEX
  8
0
 10
8.02753889
 20
10.09912528
  0
VERTEX
  8
0
 10
8.08511068
 20
10.07181555
  0
VERTEX
  8
0
 10
8.14229586
 20
10.04383060
  0
VERTEX
  8
0
 10
8.19908930
 20
10.01517557
  0
VERTEX
  8
0
 10
8.25548584
 20
9.98585562
  0
VERTEX
  8
0
 10
8.31148031
 20
9.95587590
  0
VERTEX
  8
0
 10
8.36706758
 20
9.92524156
  0
VERTEX
  8
0
 10
8.42224247
 20
9.89395777
  0
VERTEX
  8
0
 10
8.47699984
 20
9.86202967
  0
VERTEX
  8
0
 10
8.53133454
 20
9.82946242
  0
VERTEX
  8
0
 10
8.58524141
 20
9.79626118
  0
VERTEX
  8
0
 10
8.63871529
 20
9.76243109
  0
VERTEX
  8
0
 10
8.69175104
 20
9.72797731
  0
VERTEX
  8
0
 10
8.74434349
 20
9.69290500
  0
VERTEX
  8
0
 10
8.79648750
 20
9.65721931
  0
VERTEX
  8
0
 10
8.84817790
 20
9.62092539
  0
VERTEX
  8
0
 10
8.89940955
 20
9.58402840
  0
VERTEX
  8
0
 10
8.95017730
 20
9.54653349
  0
VERTEX
  8
0
 10
9.00047597
 20
9.50844582
  0
VERTEX
  8
0
 10
9.05030044
 20
9.46977054
  0
VERTEX
  8
0
 10
9.09964553
 20
9.43051281
  0
VERTEX
  8
0
 10
9.14850609
 20
9.39067777
  0
VERTEX
  8
0
 10
9.19687697
 20
9.35027059
  0
VERTEX
  8
0
 10
9.24475302
 20
9.30929641
  0
VERTEX
  8
0
 10
9.29212908
 20
9.26776040
  0
VERTEX
  8
0
 10
9.33900000
 20
9.22566770
  0
VERTEX
  8
0
 10
9.38536062
 20
9.18302347
  0
VERTEX
  8
0
 10
9.43120580
 20
9.13983287
  0
VERTEX
  8
0
 10
9.47653036
 20
9.09610104
  0
VERTEX
  8
0
 10
9.52132917
 20
9.05183315
  0
VERTEX
  8
0
 10
9.56559706
 20
9.00703434
  0
VERTEX
  8
0
 10
9.60932889
 20
8.96170977
  0
VERTEX
  8
0
 10
9.65251949
 20
8.91586460
  0
VERTEX
  8
0
 10
9.69516372
 20
8.86950398
  0
VERTEX
  8
0
 10
9.73725642
 20
8.82263306
  0
VERTEX
  8
0
 10
9.77879243
 20
8.77525700
  0
VERTEX
  8
0
 10
9.81976661
 20
8.72738095
  0
VERTEX
  8
0
 10
9.86017379
 20
8.67901007
  0
VERTEX
  8
0
 10
9.90000883
 20
8.63014950
  0
VERTEX
  8
0
 10
9.93926656
 20
8.58080441
  0
VERTEX
  8
0
 10
9.97794184
 20
8.53097995
  0
VERTEX
  8
0
 10
10.01602952
 20
8.48068127
  0
VERTEX
  8
0
 10
10.05352442
 20
8.42991353
  0
VERTEX
  8
0
 10
10.09042141
 20
8.37868188
  0
VERTEX
  8
0
 10
10.12671533
 20
8.32699148
  0
VERTEX
  8
0
 10
10.16240102
 20
8.27484747
  0
VERTEX
  8
0
 10
10.19747333
 20
8.22225502
  0
VERTEX
  8
0
 10
10.23192711
 20
8.16921927
  0
VERTEX
  8
0
 10
10.26575720
 20
8.11574539
  0
VERTEX
  8
0
 10
10.29895845
 20
8.06183852
  0
VERTEX
  8
0
 10
10.33152569
 20
8.00750382
  0
VERTEX
  8
0
 10
10.36345379
 20
7.95274645
  0
VERTEX
  8
0
 10
10.39473758
 20
7.89757155
  0
VERTEX
  8
0
 10
10.42537192
 20
7.84198429
  0
VERTEX
  8
0
 10
10.45535164
 20
7.78598982
  0
VERTEX
  8
0
 10
10.48467159
 20
7.72959328
  0
VERTEX
  8
0
 10
10.51332662
 20
7.67279984
  0
VERTEX
  8
0
 10
10.54131157
 20
7.61561465
  0
VERTEX
  8
0
 10
10.56862130
 20
7.55804287
  0
VERTEX
  8
0
 10
10.59525064
 20
7.50008964
  0
VERTEX
  8
0
 10
10.62119444
 20
7.44176012
  0
VERTEX
  8
0
 10
10.64644754
 20
7.38305947
  0
VERTEX
  8
0
 10
10.67100480
 20
7.32399284
  0
VERTEX
  8
0
 10
10.69486106
 20
7.26456539
  0
VERTEX
  8
0
 10
10.71801117
 20
7.20478226
  0
VERTEX
  8
0
 10
10.74044996
 20
7.14464862
  0
VERTEX
  8
0
 10
10.76217229
 20
7.08416961
  0
VERTEX
  8
0
 10
10.78317300
 20
7.02335039
  0
VERTEX
  8
0
 10
10.80344694
 20
6.96219612
  0
VERTEX
  8
0
 10
10.82298896
 20
6.90071195
  0
VERTEX
  8
0
 10
10.84179389
 20
6.83890303
  0
VERTEX
  8
0
 10
10.85985659
 20
6.77677452
  0
VERTEX
  8
0
 10
10.87717190
 20
6.71433158
  0
VERTEX
  8
0
 10
10.89373467
 20
6.65157934
  0
VERTEX
  8
0
 10
10.90953974
 20
6.58852298
  0
VERTEX
  8
0
 10
10.92458196
 20
6.52516765
  0
VERTEX
  8
0
 10
10.93885617
 20
6.46151849
  0
VERTEX
  8
0
 10
10.95235723
 20
6.39758066
  0
VERTEX
  8
0
 10
10.96507997
 20
6.33335933
  0
VERTEX
  8
0
 10
10.97701924
 20
6.26885963
  0
VERTEX
  8
0
 10
10.98816989
 20
6.20408673
  0
VERTEX
  8
0
 10
10.99852676
 20
6.13904578
  0
VERTEX
  8
0
 10
11.00808471
 20
6.07374193
  0
VERTEX
  8
0
 10
11.01683856
 20
6.00818034
  0
VERTEX
  8
0
 10
11.02478318
 20
5.94236616
  0
VERTEX
  8
0
 10
11.03191341
 20
5.87630455
  0
VERTEX
  8
0
 10
11.03822409
 20
5.81000066
  0
VERTEX
  8
0
 10
11.04371007
 20
5.74345964
  0
VERTEX
  8
0
 10
11.04836619
 20
5.67668665
  0
VERTEX
  8
0
 10
11.05218730
 20
5.60968685
  0
VERTEX
  8
0
 10
11.05516825
 20
5.54246538
  0
VERTEX
  8
0
 10
11.05730388
 20
5.47502741
  0
VERTEX
  8
0
 10
11.05858904
 20
5.40737808
  0
VERTEX
  8
0
 10
11.05901857
 20
5.33952255
  0
VERTEX
  8
0
 10
11.05858904
 20
5.27166702
  0
VERTEX
  8
0
 10
11.05730388
 20
5.20401769
  0
VERTEX
  8
0
 10
11.05516825
 20
5.13657971
  0
VERTEX
  8
0
 10
11.05218730
 20
5.06935824
  0
VERTEX
  8
0
 10
11.04836619
 20
5.00235844
  0
VERTEX
  8
0
 10
11.04371007
 20
4.93558545
  0
VERTEX
  8
0
 10
11.03822409
 20
4.86904443
  0
VERTEX
  8
0
 10
11.03191341
 20
4.80274054
  0
VERTEX
  8
0
 10
11.02478318
 20
4.73667893
  0
VERTEX
  8
0
 10
11.01683856
 20
4.67086475
  0
VERTEX
  8
0
 10
11.00808471
 20
4.60530317
  0
VERTEX
  8
0
 10
10.99852676
 20
4.53999932
  0
VERTEX
  8
0
 10
10.98816989
 20
4.47495837
  0
VERTEX
  8
0
 10
10.97701924
 20
4.41018546
  0
VERTEX
  8
0
 10
10.96507997
 20
4.34568577
  0
VERTEX
  8
0
 10
10.95235723
 20
4.28146443
  0
VERTEX
  8
0
 10
10.93885617
 20
4.21752660
  0
VERTEX
  8
0
 10
10.92458196
 20
4.15387745
  0
VERTEX
  8
0
 10
10.90953974
 20
4.09052211
  0
VERTEX
  8
0
 10
10.89373467
 20
4.02746575
  0
VERTEX
  8
0
 10
10.87717190
 20
3.96471352
  0
VERTEX
  8
0
 10
10.85985659
 20
3.90227057
  0
VERTEX
  8
0
 10
10.84179389
 20
3.84014206
  0
VERTEX
  8
0
 10
10.82298896
 20
3.77833314
  0
VERTEX
  8
0
 10
10.80344694
 20
3.71684897
  0
VERTEX
  8
0
 10
10.78317300
 20
3.65569470
  0
VERTEX
  8
0
 10
10.76217229
 20
3.59487548
  0
VERTEX
  8
0
 10
10.74044996
 20
3.53439648
  0
VERTEX
  8
0
 10
10.71801117
 20
3.47426283
  0
VERTEX
  8
0
 10
10.69486106
 20
3.41447971
  0
VERTEX
  8
0
 10
10.67100480
 20
3.35505225
  0
VERTEX
  8
0
 10
10.64644754
 20
3.29598562
  0
VERTEX
  8
0
 10
10.62119444
 20
3.23728497
  0
VERTEX
  8
0
 10
10.59525064
 20
3.17895545
  0
VERTEX
  8
0
 10
10.56862130
 20
3.12100222
  0
VERTEX
  8
0
 10
10.54131157
 20
3.06343044
  0
VERTEX
  8
0
 10
10.51332662
 20
3.00624525
  0
VERTEX
  8
0
 10
10.48467159
 20
2.94945181
  0
VERTEX
  8
0
 10
10.45535164
 20
2.89305528
  0
VERTEX
  8
0
 10
10.42537192
 20
2.83706080
  0
VERTEX
  8
0
 10
10.39473758
 20
2.78147354
  0
VERTEX
  8
0
 10
10.36345379
 20
2.72629864
  0
VERTEX
  8
0
 10
10.33152569
 20
2.67154127
  0
VERTEX
  8
0
 10
10.29895845
 20
2.61720657
  0
VERTEX
  8
0
 10
10.26575720
 20
2.56329971
  0
VERTEX
  8
0
 10
10.23192711
 20
2.50982582
  0
VERTEX
  8
0
 10
10.19747333
 20
2.45679008
  0
VERTEX
  8
0
 10
10.16240102
 20
2.40419762
  0
VERTEX
  8
0
 10
10.12671533
 20
2.35205362
  0
VERTEX
  8
0
 10
10.09042141
 20
2.30036321
  0
VERTEX
  8
0
 10
10.05352442
 20
2.24913156
  0
VERTEX
  8
0
 10
10.01602952
 20
2.19836382
  0
VERTEX
  8
0
 10
9.97794184
 20
2.14806514
  0
VERTEX
  8
0
 10
9.93926656
 20
2.09824068
  0
VERTEX
  8
0
 10
9.90000883
 20
2.04889559
  0
VERTEX
  8
0
 10
9.86017379
 20
2.00003503
  0
VERTEX
  8
0
 10
9.81976661
 20
1.95166414
  0
VERTEX
  8
0
 10
9.77879243
 20
1.90378809
  0
VERTEX
  8
0
 10
9.73725642
 20
1.85641203
  0
VERTEX
  8
0
 10
9.69516372
 20
1.80954111
  0
VERTEX
  8
0
 10
9.65251949
 20
1.76318049
  0
VERTEX
  8
0
 10
9.60932889
 20
1.71733532
  0
VERTEX
  8
0
 10
9.56559706
 20
1.67201075
  0
VERTEX
  8
0
 10
9.52132917
 20
1.62721195
  0
VERTEX
  8
0
 10
9.47653036
 20
1.58294405
  0
VERTEX
  8
0
 10
9.43120580
 20
1.53921223
  0
VERTEX
  8
0
 10
9.38536062
 20
1.49602162
  0
VERTEX
  8
0
 10
9.33900000
 20
1.45337739
  0
VERTEX
  8
0
 10
9.29212908
 20
1.41128469
  0
VERTEX
  8
0
 10
9.24475302
 20
1.36974868
  0
VERTEX
  8
0
 10
9.19687697
 20
1.32877450
  0
VERTEX
  8
0
 10
9.14850609
 20
1.28836732
  0
VERTEX
  8
0
 10
9.09964553
 20
1.24853229
  0
VERTEX
  8
0
 10
9.05030044
 20
1.20927455
  0
VERTEX
  8
0
 10
9.00047597
 20
1.17059927
  0
VERTEX
  8
0
 10
8.95017730
 20
1.13251160
  0
VERTEX
  8
0
 10
8.89940955
 20
1.09501669
  0
VERTEX
  8
0
 10
8.84817790
 20
1.05811970
  0
VERTEX
  8
0
 10
8.79648750
 20
1.02182578
  0
VERTEX
  8
0
 10
8.74434349
 20
0.98614009
  0
VERTEX
  8
0
 10
8.69175104
 20
0.95106778
  0
VERTEX
  8
0
 10
8.63871529
 20
0.91661400
  0
VERTEX
  8
0
 10
8.58524141
 20
0.88278391
  0
VERTEX
  8
0
 10
8.53133454
 20
0.84958267
  0
VERTEX
  8
0
 10
8.47699984
 20
0.81701542
  0
VERTEX
  8
0
 10
8.42224247
 20
0.78508732
  0
VERTEX
  8
0
 10
8.36706758
 20
0.75380353
  0
VERTEX
  8
0
 10
8.31148031
 20
0.72316920
  0
VERTEX
  8
0
 10
8.25548584
 20
0.69318948
  0
VERTEX
  8
0
 10
8.19908930
 20
0.66386952
  0
VERTEX
  8
0
 10
8.14229586
 20
0.63521449
  0
VERTEX
  8
0
 10
8.08511068
 20
0.60722954
  0
VERTEX
  8
0
 10
8.02753889
 20
0.57991982
  0
VERTEX
  8
0
 10
7.96958566
 20
0.55329048
  0
VERTEX
  8
0
 10
7.91125614
 20
0.52734668
  0
VERTEX
  8
0
 10
7.85255549
 20
0.50209357
  0
VERTEX
  8
0
 10
7.79348886
 20
0.47753631
  0
VERTEX
  8
0
 10
7.73406141
 20
0.45368005
  0
VERTEX
  8
0
 10
7.67427828
 20
0.43052995
  0
VERTEX
  8
0
 10
7.61414464
 20
0.40809115
  0
VERTEX
  8
0
 10
7.55366563
 20
0.38636882
  0
VERTEX
  8
0
 10
7.49284641
 20
0.36536811
  0
VERTEX
  8
0
 10
7.43169214
 20
0.34509417
  0
VERTEX
  8
0
 10
7.37020797
 20
0.32555216
  0
VERTEX
  8
0
 10
7.30839905
 20
0.30674722
  0
VERTEX
  8
0
 10
7.24627054
 20
0.28868452
  0
VERTEX
  8
0
 10
7.18382760
 20
0.27136921
  0
VERTEX
  8
0
 10
7.12107536
 20
0.25480644
  0
VERTEX
  8
0
 10
7.05801900
 20
0.23900137
  0
VERTEX
  8
0
 10
6.99466367
 20
0.22395915
  0
VERTEX
  8
0
 10
6.93101451
 20
0.20968494
  0
VERTEX
  8
0
 10
6.86707668
 20
0.19618389
  0
VERTEX
  8
0
 10
6.80285535
 20
0.18346115
  0
VERTEX
  8
0
 10
6.73835565
 20
0.17152187
  0
VERTEX
  8
0
 10
6.67358275
 20
0.16037122
  0
VERTEX
  8
0
 10
6.60854180
 20
0.15001435
  0
VERTEX
  8
0
 10
6.54323795
 20
0.14045641
  0
VERTEX
  8
0
 10
6.47767636
 20
0.13170255
  0
VERTEX
  8
0
 10
6.41186218
 20
0.12375793
  0
VERTEX
  8
0
 10
6.34580057
 20
0.11662770
  0
VERTEX
  8
0
 10
6.27949668
 20
0.11031703
  0
VERTEX
  8
0
 10
6.21295566
 20
0.10483105
  0
VERTEX
  8
0
 10
6.14618268
 20
0.10017493
  0
VERTEX
  8
0
 10
6.07918287
 20
0.09635381
  0
VERTEX
  8
0
 10
6.01196140
 20
0.09337287
  0
VERTEX
  8
0
 10
5.94452343
 20
0.09123724
  0
VERTEX
  8
0
 10
5.87687410
 20
0.08995208
  0
VERTEX
  8
0
 10
5.80901857
 20
0.08952255
  0
VERTEX
  8
0
 10
5.74116304
 20
0.08995208
  0
VERTEX
  8
0
 10
5.67351371
 20
0.09123724
  0
VERTEX
  8
0
 10
5.60607573
 20
0.09337287
  0
VERTEX
  8
0
 10
5.53885426
 20
0.09635381
  0
VERTEX
  8
0
 10
5.47185446
 20
0.10017493
  0
VERTEX
  8
0
 10
5.40508147
 20
0.10483105
  0
VERTEX
  8
0
 10
5.33854046
 20
0.11031703
  0
VERTEX
  8
0
 10
5.27223657
 20
0.11662770
  0
VERTEX
  8
0
 10
5.20617495
 20
0.12375793
  0
VERTEX
  8
0
 10
5.14036078
 20
0.13170255
  0
VERTEX
  8
0
 10
5.07479919
 20
0.14045641
  0
VERTEX
  8
0
 10
5.00949534
 20
0.15001435
  0
VERTEX
  8
0
 10
4.94445439
 20
0.16037122
  0
VERTEX
  8
0
 10
4.87968149
 20
0.17152187
  0
VERTEX
  8
0
 10
4.81518179
 20
0.18346115
  0
VERTEX
  8
0
 10
4.75096045
 20
0.19618389
  0
VERTEX
  8
0
 10
4.68702263
 20
0.20968494
  0
VERTEX
  8
0
 10
4.62337347
 20
0.22395915
  0
VERTEX
  8
0
 10
4.56001813
 20
0.23900137
  0
VERTEX
  8
0
 10
4.49696177
 20
0.25480644
  0
VERTEX
  8
0
 10
4.43420954
 20
0.27136921
  0
VERTEX
  8
0
 10
4.37176659
 20
0.28868452
  0
VERTEX
  8
0
 10
4.30963808
 20
0.30674722
  0
VERTEX
  8
0
 10
4.24782916
 20
0.32555216
  0
VERTEX
  8
0
 10
4.18634499
 20
0.34509417
  0
VERTEX
  8
0
 10
4.12519072
 20
0.36536811
  0
VERTEX
  8
0
 10
4.06437151
 20
0.38636882
  0
VERTEX
  8
0
 10
4.00389250
 20
0.40809115
  0
VERTEX
  8
0
 10
3.94375885
 20
0.43052995
  0
VERTEX
  8
0
 10
3.88397573
 20
0.45368005
  0
VERTEX
  8
0
 10
3.82454827
 20
0.47753631
  0
VERTEX
  8
0
 10
3.76548164
 20
0.50209357
  0
VERTEX
  8
0
 10
3.70678099
 20
0.52734668
  0
VERTEX
  8
0
 10
3.64845147
 20
0.55329048
  0
VERTEX
  8
0
 10
3.59049825
 20
0.57991982
  0
VERTEX
  8
0
 10
3.53292646
 20
0.60722954
  0
VERTEX
  8
0
 10
3.47574127
 20
0.63521449
  0
VERTEX
  8
0
 10
3.41894783
 20
0.66386952
  0
VERTEX
  8
0
 10
3.36255130
 20
0.69318948
  0
VERTEX
  8
0
 10
3.30655682
 20
0.72316920
  0
VERTEX
  8
0
 10
3.25096956
 20
0.75380353
  0
VERTEX
  8
0
 10
3.19579467
 20
0.78508732
  0
VERTEX
  8
0
 10
3.14103729
 20
0.81701542
  0
VERTEX
  8
0
 10
3.08670259
 20
0.84958267
  0
VERTEX
  8
0
 10
3.03279573
 20
0.88278391
  0
VERTEX
  8
0
 10
2.97932184
 20
0.91661400
  0
VERTEX
  8
0
 10
2.92628610
 20
0.95106778
  0
VERTEX
  8
0
 10
2.87369364
 20
0.98614009
  0
VERTEX
  8
0
 10
2.82154964
 20
1.02182578
  0
VERTEX
  8
0
 10
2.76985923
 20
1.05811970
  0
VERTEX
  8
0
 10
2.71862758
 20
1.09501669
  0
VERTEX
  8
0
 10
2.66785984
 20
1.13251160
  0
VERTEX
  8
0
 10
2.61756116
 20
1.17059927
  0
VERTEX
  8
0
 10
2.56773670
 20
1.20927455
  0
VERTEX
  8
0
 10
2.51839161
 20
1.24853229
  0
VERTEX
  8
0
 10
2.46953105
 20
1.28836732
  0
VERTEX
  8
0
 10
2.42116016
 20
1.32877450
  0
VERTEX
  8
0
 10
2.37328411
 20
1.36974868
  0
VERTEX
  8
0
 10
2.32590805
 20
1.41128469
  0
VERTEX
  8
0
 10
2.27903713
 20
1.45337739
  0
VERTEX
  8
0
 10
2.23267651
 20
1.49602162
  0
VERTEX
  8
0
 10
2.18683134
 20
1.53921223
  0
VERTEX
  8
0
 10
2.14150677
 20
1.58294405
  0
VERTEX
  8
0
 10
2.09670797
 20
1.62721195
  0
VERTEX
  8
0
 10
2.05244007
 20
1.67201075
  0
VERTEX
  8
0
 10
2.00870825
 20
1.71733532
  0
VERTEX
  8
0
 10
1.96551764
 20
1.76318049
  0
VERTEX
  8
0
 10
1.92287341
 20
1.80954111
  0
VERTEX
  8
0
 10
1.88078072
 20
1.85641203
  0
VERTEX
  8
0
 10
1.83924470
 20
1.90378809
  0
VERTEX
  8
0
 10
1.79827053
 20
1.95166414
  0
VERTEX
  8
0
 10
1.75786334
 20
2.00003503
  0
VERTEX
  8
0
 10
1.71802831
 20
2.04889559
  0
VERTEX
  8
0
 10
1.67877057
 20
2.09824068
  0
VERTEX
  8
0
 10
1.64009529
 20
2.14806514
  0
VERTEX
  8
0
 10
1.60200762
 20
2.19836382
  0
VERTEX
  8
0
 10
1.56451271
 20
2.24913156
  0
VERTEX
  8
0
 10
1.52761572
 20
2.30036321
  0
VERTEX
  8
0
 10
1.49132181
 20
2.35205362
  0
VERTEX
  8
0
 10
1.45563611
 20
2.40419762
  0
VERTEX
  8
0
 10
1.42056380
 20
2.45679008
  0
VERTEX
  8
0
 10
1.38611002
 20
2.50982582
  0
VERTEX
  8
0
 10
1.35227994
 20
2.56329971
  0
VERTEX
  8
0
 10
1.31907869
 20
2.61720657
  0
VERTEX
  8
0
 10
1.28651144
 20
2.67154127
  0
VERTEX
  8
0
 10
1.25458334
 20
2.72629864
  0
VERTEX
  8
0
 10
1.22329955
 20
2.78147354
  0
VERTEX
  8
0
 10
1.19266522
 20
2.83706080
  0
VERTEX
  8
0
 10
1.16268550
 20
2.89305528
  0
VERTEX
  8
0
 10
1.13336555
 20
2.94945181
  0
VERTEX
  8
0
 10
1.10471052
 20
3.00624525
  0
VERTEX
  8
0
 10
1.07672556
 20
3.06343044
  0
VERTEX
  8
0
 10
1.04941584
 20
3.12100222
  0
VERTEX
  8
0
 10
1.02278650
 20
3.17895545
  0
VERTEX
  8
0
 10
0.99684270
 20
3.23728497
  0
VERTEX
  8
0
 10
0.97158959
 20
3.29598562
  0
VERTEX
  8
0
 10
0.94703233
 20
3.35505225
  0
VERTEX
  8
0
 10
0.92317607
 20
3.41447971
  0
VERTEX
  8
0
 10
0.90002597
 20
3.47426283
  0
VERTEX
  8
0
 10
0.87758717
 20
3.53439648
  0
VERTEX
  8
0
 10
0.85586484
 20
3.59487548
  0
VERTEX
  8
0
 10
0.83486413
 20
3.65569470
  0
VERTEX
  8
0
 10
0.81459019
 20
3.71684897
  0
VERTEX
  8
0
 10
0.79504818
 20
3.77833314
  0
VERTEX
  8
0
 10
0.77624324
 20
3.84014206
  0
VERTEX
  8
0
 10
0.75818054
 20
3.90227057
  0
VERTEX
  8
0
 10
0.74086523
 20
3.96471352
  0
VERTEX
  8
0
 10
0.72430247
 20
4.02746575
  0
VERTEX
  8
0
 10
0.70849739
 20
4.09052211
  0
VERTEX
  8
0
 10
0.69345518
 20
4.15387745
  0
VERTEX
  8
0
 10
0.67918096
 20
4.21752660
  0
VERTEX
  8
0
 10
0.66567991
 20
4.28146443
  0
VERTEX
  8
0
 10
0.65295717
 20
4.34568577
  0
VERTEX
  8
0
 10
0.64101790
 20
4.41018546
  0
VERTEX
  8
0
 10
0.62986725
 20
4.47495837
  0
VERTEX
  8
0
 10
0.61951037
 20
4.53999932
  0
VERTEX
  8
0
 10
0.60995243
 20
4.60530317
  0
VERTEX
  8
0
 10
0.60119857
 20
4.67086475
  0
VERTEX
  8
0
 10
0.59325395
 20
4.73667893
  0
VERTEX
  8
0
 10
0.58612373
 20
4.80274054
  0
VERTEX
  8
0
 10
0.57981305
 20
4.86904443
  0
VERTEX
  8
0
 10
0.57432707
 20
4.93558545
  0
VERTEX
  8
0
 10
0.56967095
 20
5.00235844
  0
VERTEX
  8
0
 10
0.56584984
 20
5.06935824
  0
VERTEX
  8
0
 10
0.56286889
 20
5.13657971
  0
VERTEX
  8
0
 10
0.56073326
 20
5.20401769
  0
VERTEX
  8
0
 10
0.55944810
 20
5.27166702
  0
VERTEX
  8
0
 10
0.55901857
 20
5.33952255
  0
SEQEND
  0
POLYLINE
  8
Default_Layer
 66
   1
 39
0.000000
 70
    1
  0
VERTEX
  8
0
 10
0.75978823
 20
5.42765660
 42
0.03004894
  0
VERTEX
  8
0
 10
0.78576977
 20
4.81529699
 42
0.04695221
  0
VERTEX
  8
0
 10
0.96933851
 20
3.89237494
 42
0.05509943
  0
VERTEX
  8
0
 10
1.39957937
 20
2.87618949
 42
0.05697971
  0
VERTEX
  8
0
 10
2.07275470
 20
1.94202651
 42
0.06285079
  0
VERTEX
  8
0
 10
3.03880542
 20
1.11634072
 42
0.05178233
  0
VERTEX
  8
0
 10
3.96137069
 20
0.63813104
 42
0.05460366
  0
VERTEX
  8
0
 10
5.01534470
 20
0.35161865
 42
0.03161033
  0
VERTEX
  8
0
 10
5.65557804
 20
0.29184557
 42
0.03005474
  0
VERTEX
  8
0
 10
6.26969426
 20
0.31013028
 42
0.04389545
  0
VERTEX
  8
0
 10
7.13668233
 20
0.46575803
 42
0.05677380
  0
VERTEX
  8
0
 10
8.19211580
 20
0.88610843
 42
0.05554923
  0
VERTEX
  8
0
 10
9.11588604
 20
1.52277033
 42
0.06732420
  0
VERTEX
  8
0
 10
10.01540736
 20
2.54393162
 42
0.05174804
  0
VERTEX
  8
0
 10
10.49903212
 20
3.46319755
 42
0.05614887
  0
VERTEX
  8
0
 10
10.79692140
 20
4.54584858
 42
0.03161033
  0
VERTEX
  8
0
 10
10.85669448
 20
5.18608192
 42
0.03005474
  0
VERTEX
  8
0
 10
10.83840977
 20
5.80019813
 42
0.04389545
  0
VERTEX
  8
0
 10
10.68278202
 20
6.66718621
 42
0.05677380
  0
VERTEX
  8
0
 10
10.26243162
 20
7.72261968
 42
0.05554923
  0
VERTEX
  8
0
 10
9.62576972
 20
8.64638992
 42
0.06732420
  0
VERTEX
  8
0
 10
8.60460843
 20
9.54591124
 42
0.05174804
  0
VERTEX
  8
0
 10
7.68534250
 20
10.02953600
 42
0.05614887
  0
VERTEX
  8
0
 10
6.60269147
 20
10.32742527
 42
0.03161033
  0
VERTEX
  8
0
 10
5.96245813
 20
10.38719836
 42
0.03005474
  0
VERTEX
  8
0
 10
5.34834192
 20
10.36891364
 42
0.04389545
  0
VERTEX
  8
0
 10
4.48135384
 20
10.21328589
 42
0.05677380
  0
VERTEX
  8
0
 10
3.42592037
 20
9.79293550
 42
0.05554923
  0
VERTEX
  8
0
 10
2.50215013
 20
9.15627359
 42
0.06732420
  0
VERTEX
  8
0
 10
1.60262881
 20
8.13511231
 42
0.05174804
  0
VERTEX
  8
0
 10
1.11900405
 20
7.21584638
 42
0.05614887
  0
VERTEX
  8
0
 10
0.82111477
 20
6.13319534
 42
0.03161033
  0
VERTEX
  8
0
 10
0.76134169
 20
5.49296200
 42
0.00316650
  0
VERTEX
  8
0
 10
0.75978823
 20
5.42765660
  0
SEQEND
  0
POLYLINE
  8
Default_Layer
 66
   1
 39
0.000000
 70
    1
  0
VERTEX
  8
0
 10
1.86390941
 20
5.47747795
 42
0.04575917
  0
VERTEX
  8
0
 10
1.90448723
 20
4.75191033
 42
0.09566581
  0
VERTEX
  8
0
 10
2.39820938
 20
3.35018182
 42
0.06956756
  0
VERTEX
  8
0
 10
3.08026022
 20
2.48576041
 42
0.06287246
  0
VERTEX
  8
0
 10
3.87774630
 20
1.89387462
 42
0.08810797
  0
VERTEX
  8
0
 10
5.17103698
 20
1.44112596
 42
0.05124316
  0
VERTEX
  8
0
 10
5.99061618
 20
1.39325040
 42
0.07759850
  0
VERTEX
  8
0
 10
7.17699464
 20
1.63150732
 42
0.05480844
  0
VERTEX
  8
0
 10
7.94695476
 20
2.01590931
 42
0.08149564
  0
VERTEX
  8
0
 10
8.90229376
 20
2.87935048
 42
0.04327989
  0
VERTEX
  8
0
 10
9.28072131
 20
3.44837179
 42
0.09296646
  0
VERTEX
  8
0
 10
9.72785721
 20
4.82236029
 42
0.05347973
  0
VERTEX
  8
0
 10
9.74739535
 20
5.67888493
 42
0.10975951
  0
VERTEX
  8
0
 10
9.24047674
 20
7.30158553
 42
0.06407668
  0
VERTEX
  8
0
 10
8.62721332
 20
8.10972833
 42
0.06883415
  0
VERTEX
  8
0
 10
7.76605512
 20
8.77320521
 42
0.09764899
  0
VERTEX
  8
0
 10
6.32857024
 20
9.25580242
 42
0.05347973
  0
VERTEX
  8
0
 10
5.47204559
 20
9.27534056
 42
0.10975951
  0
VERTEX
  8
0
 10
3.84934499
 20
8.76842195
 42
0.06407668
  0
VERTEX
  8
0
 10
3.04120219
 20
8.15515853
 42
0.06883415
  0
VERTEX
  8
0
 10
2.37772531
 20
7.29400033
 42
0.09764934
  0
VERTEX
  8
0
 10
1.89512731
 20
5.85650954
 42
0.02375332
  0
VERTEX
  8
0
 10
1.86390941
 20
5.47747795
  0
SEQEND
  0
POLYLINE
  8
Default_Layer
 66
   1
 39
0.000000
 70
    1
  0
VERTEX
  8
0
 10
2.05902320
 20
5.33967226
 42
0.05047721
  0
VERTEX
  8
0
 10
2.13482206
 20
4.58421906
 42
0.09408532
  0
VERTEX
  8
0
 10
2.66135985
 20
3.30013257
 42
0.10753404
  0
VERTEX
  8
0
 10
3.80206858
 20
2.17100433
 42
0.03618163
  0
VERTEX
  8
0
 10
4.27724548
 20
1.91521227
 42
0.08189723
  0
VERTEX
  8
0
 10
5.44765929
 20
1.60662931
 42
0.05738655
  0
VERTEX
  8
0
 10
6.32022974
 20
1.62386222
 42
0.09025363
  0
VERTEX
  8
0
 10
7.58657756
 20
2.03644488
 42
0.03904332
  0
VERTEX
  8
0
 10
8.07837991
 20
2.35380513
 42
0.09376562
  0
VERTEX
  8
0
 10
9.01736706
 20
3.39666713
 42
0.11500335
  0
VERTEX
  8
0
 10
9.54406992
 20
5.00152787
 42
0.05818038
  0
VERTEX
  8
0
 10
9.51979986
 20
5.88520462
 42
0.10656689
  0
VERTEX
  8
0
 10
8.97250296
 20
7.35434913
 42
0.09385966
  0
VERTEX
  8
0
 10
8.00889503
 20
8.37693758
 42
0.04224632
  0
VERTEX
  8
0
 10
7.46673225
 20
8.70454157
 42
0.09290634
  0
VERTEX
  8
0
 10
6.14701324
 20
9.07457390
 42
0.05818038
  0
VERTEX
  8
0
 10
5.26333650
 20
9.05030384
 42
0.10656689
  0
VERTEX
  8
0
 10
3.79419198
 20
8.50300694
 42
0.09385966
  0
VERTEX
  8
0
 10
2.77160354
 20
7.53939901
 42
0.04224635
  0
VERTEX
  8
0
 10
2.44399939
 20
6.99723591
 42
0.09286111
  0
VERTEX
  8
0
 10
2.07402656
 20
5.67818570
 42
0.02227288
  0
VERTEX
  8
0
 10
2.05902320
 20
5.33967226
  0
SEQEND
  0
POLYLINE
  8
Default_Layer
 66
   1
 39
0.000000
 70
    1
  0
VERTEX
  8
0
 10
4.25686936
 20
10.00787539
  0
VERTEX
  8
0
 10
4.53134346
 20
9.29617854
  0
VERTEX
  8
0
 10
4.33468410
 20
9.22033459
  0
VERTEX
  8
0
 10
4.15483085
 20
9.68668457
  0
VERTEX
  8
0
 10
4.13780508
 20
9.66027591
  0
VERTEX
  8
0
 10
4.12046999
 20
9.63573563
  0
VERTEX
  8
0
 10
4.10282558
 20
9.61306374
  0
VERTEX
  8
0
 10
4.08487185
 20
9.59226023
  0
VERTEX
  8
0
 10
4.06552411
 20
9.57205002
  0
VERTEX
  8
0
 10
4.04322036
 20
9.55097395
  0
VERTEX
  8
0
 10
4.01796060
 20
9.52903203
  0
VERTEX
  8
0
 10
3.98974482
 20
9.50622424
  0
VERTEX
  8
0
 10
3.92825968
 20
9.66565197
  0
VERTEX
  8
0
 10
3.94922602
 20
9.68315363
  0
VERTEX
  8
0
 10
3.96864980
 20
9.70052304
  0
VERTEX
  8
0
 10
3.98653102
 20
9.71776018
  0
VERTEX
  8
0
 10
4.00286969
 20
9.73486507
  0
VERTEX
  8
0
 10
4.01766579
 20
9.75183770
  0
VERTEX
  8
0
 10
4.03091934
 20
9.76867808
  0
VERTEX
  8
0
 10
4.04263032
 20
9.78538619
  0
VERTEX
  8
0
 10
4.05279875
 20
9.80196205
  0
VERTEX
  8
0
 10
4.06169642
 20
9.81865613
  0
VERTEX
  8
0
 10
4.06959514
 20
9.83571889
  0
VERTEX
  8
0
 10
4.07649492
 20
9.85315035
  0
VERTEX
  8
0
 10
4.08239576
 20
9.87095049
  0
VERTEX
  8
0
 10
4.08729765
 20
9.88911933
  0
VERTEX
  8
0
 10
4.09120059
 20
9.90765685
  0
VERTEX
  8
0
 10
4.09410459
 20
9.92656307
  0
VERTEX
  8
0
 10
4.09600964
 20
9.94583798
  0
VERTEX
  8
0
 10
4.25686936
 20
10.00787539
  0
SEQEND
  0
POLYLINE
  8
Default_Layer
 66
   1
 39
0.000000
 70
    1
  0
VERTEX
  8
0
 10
4.74138373
 20
10.13634748
  0
VERTEX
  8
0
 10
4.84492655
 20
10.16054235
  0
VERTEX
  8
0
 10
4.83795694
 20
9.36244133
  0
VERTEX
  8
0
 10
4.73544939
 20
9.33848837
  0
VERTEX
  8
0
 10
4.74138373
 20
10.13634748
  0
SEQEND
  0
POLYLINE
  8
Default_Layer
 66
   1
 39
0.000000
 70
    1
  0
VERTEX
  8
0
 10
5.59284525
 20
9.49690818
  0
VERTEX
  8
0
 10
4.97288908
 20
9.41633189
  0
VERTEX
  8
0
 10
4.97326533
 20
9.43954789
  0
VERTEX
  8
0
 10
4.97503450
 20
9.46259025
  0
VERTEX
  8
0
 10
4.97819659
 20
9.48545896
  0
VERTEX
  8
0
 10
4.98275161
 20
9.50815404
  0
VERTEX
  8
0
 10
4.98869956
 20
9.53067547
  0
VERTEX
  8
0
 10
4.99604043
 20
9.55302326
  0
VERTEX
  8
0
 10
5.00477422
 20
9.57519741
  0
VERTEX
  8
0
 10
5.01490094
 20
9.59719792
  0
VERTEX
  8
0
 10
5.02725018
 20
9.61989840
  0
VERTEX
  8
0
 10
5.04243080
 20
9.64388583
  0
VERTEX
  8
0
 10
5.06044283
 20
9.66916020
  0
VERTEX
  8
0
 10
5.08128626
 20
9.69572151
  0
VERTEX
  8
0
 10
5.10496108
 20
9.72356977
  0
VERTEX
  8
0
 10
5.13146731
 20
9.75270497
  0
VERTEX
  8
0
 10
5.16080493
 20
9.78312712
  0
VERTEX
  8
0
 10
5.19297395
 20
9.81483621
  0
VERTEX
  8
0
 10
5.23016843
 20
9.85191411
  0
VERTEX
  8
0
 10
5.25970974
 20
9.88387013
  0
VERTEX
  8
0
 10
5.28159787
 20
9.91070426
  0
VERTEX
  8
0
 10
5.28967200
 20
9.92220062
  0
VERTEX
  8
0
 10
5.29583283
 20
9.93241651
  0
VERTEX
  8
0
 10
5.30468464
 20
9.95113980
  0
VERTEX
  8
0
 10
5.31042334
 20
9.96900707
  0
VERTEX
  8
0
 10
5.31304892
 20
9.98601831
  0
VERTEX
  8
0
 10
5.31319430
 20
9.99420292
  0
VERTEX
  8
0
 10
5.31256140
 20
10.00217352
  0
VERTEX
  8
0
 10
5.31108119
 20
10.01046123
  0
VERTEX
  8
0
 10
5.30884949
 20
10.01832883
  0
VERTEX
  8
0
 10
5.30586631
 20
10.02577632
  0
VERTEX
  8
0
 10
5.30213163
 20
10.03280370
  0
VERTEX
  8
0
 10
5.29764546
 20
10.03941097
  0
VERTEX
  8
0
 10
5.29240780
 20
10.04559814
  0
VERTEX
  8
0
 10
5.28641865
 20
10.05136519
  0
VERTEX
  8
0
 10
5.27967801
 20
10.05671214
  0
VERTEX
  8
0
 10
5.27251532
 20
10.06158506
  0
VERTEX
  8
0
 10
5.26503933
 20
10.06564342
  0
VERTEX
  8
0
 10
5.25725005
 20
10.06888721
  0
VERTEX
  8
0
 10
5.24914747
 20
10.07131643
  0
VERTEX
  8
0
 10
5.24073159
 20
10.07293108
  0
VERTEX
  8
0
 10
5.23200242
 20
10.07373116
  0
VERTEX
  8
0
 10
5.22295994
 20
10.07371667
  0
VERTEX
  8
0
 10
5.21360417
 20
10.07288762
  0
VERTEX
  8
0
 10
5.20398369
 20
10.07124225
  0
VERTEX
  8
0
 10
5.19490810
 20
10.06887773
  0
VERTEX
  8
0
 10
5.18637738
 20
10.06579406
  0
VERTEX
  8
0
 10
5.17839154
 20
10.06199124
  0
VERTEX
  8
0
 10
5.17095059
 20
10.05746926
  0
VERTEX
  8
0
 10
5.16405452
 20
10.05222813
  0
VERTEX
  8
0
 10
5.15770332
 20
10.04626785
  0
VERTEX
  8
0
 10
5.15189701
 20
10.03958842
  0
VERTEX
  8
0
 10
5.14682090
 20
10.03200434
  0
VERTEX
  8
0
 10
5.14240667
 20
10.02329715
  0
VERTEX
  8
0
 10
5.13865431
 20
10.01346684
  0
VERTEX
  8
0
 10
5.13556382
 20
10.00251342
  0
VERTEX
  8
0
 10
5.13313520
 20
9.99043688
  0
VERTEX
  8
0
 10
5.13136845
 20
9.97723723
  0
VERTEX
  8
0
 10
5.12982057
 20
9.94746858
  0
VERTEX
  8
0
 10
4.92065434
 20
9.93730771
  0
VERTEX
  8
0
 10
4.92125836
 20
9.95895725
  0
VERTEX
  8
0
 10
4.92265314
 20
9.97948431
  0
VERTEX
  8
0
 10
4.92483869
 20
9.99888888
  0
VERTEX
  8
0
 10
4.92781501
 20
10.01717096
  0
VERTEX
  8
0
 10
4.93158208
 20
10.03433056
  0
VERTEX
  8
0
 10
4.93613993
 20
10.05036768
  0
VERTEX
  8
0
 10
4.94148853
 20
10.06528231
  0
VERTEX
  8
0
 10
4.94762790
 20
10.07907446
  0
VERTEX
  8
0
 10
4.95460577
 20
10.09212114
  0
VERTEX
  8
0
 10
4.96250283
 20
10.10454567
  0
VERTEX
  8
0
 10
4.97131909
 20
10.11634807
  0
VERTEX
  8
0
 10
4.98105454
 20
10.12752833
  0
VERTEX
  8
0
 10
4.99170919
 20
10.13808646
  0
VERTEX
  8
0
 10
5.00328304
 20
10.14802245
  0
VERTEX
  8
0
 10
5.01577608
 20
10.15733630
  0
VERTEX
  8
0
 10
5.02918831
 20
10.16602802
  0
VERTEX
  8
0
 10
5.04392957
 20
10.17423148
  0
VERTEX
  8
0
 10
5.06018899
 20
10.18179391
  0
VERTEX
  8
0
 10
5.07796657
 20
10.18871533
  0
VERTEX
  8
0
 10
5.09726231
 20
10.19499573
  0
VERTEX
  8
0
 10
5.11807620
 20
10.20063511
  0
VERTEX
  8
0
 10
5.14040825
 20
10.20563346
  0
VERTEX
  8
0
 10
5.16425847
 20
10.20999080
  0
VERTEX
  8
0
 10
5.18962684
 20
10.21370712
  0
VERTEX
  8
0
 10
5.21618527
 20
10.21676396
  0
VERTEX
  8
0
 10
5.24132268
 20
10.21884614
  0
VERTEX
  8
0
 10
5.26503907
 20
10.21995365
  0
VERTEX
  8
0
 10
5.28733444
 20
10.22008651
  0
VERTEX
  8
0
 10
5.30820879
 20
10.21924470
  0
VERTEX
  8
0
 10
5.32766212
 20
10.21742823
  0
VERTEX
  8
0
 10
5.34569443
 20
10.21463710
  0
VERTEX
  8
0
 10
5.36230572
 20
10.21087130
  0
VERTEX
  8
0
 10
5.37797574
 20
10.20616096
  0
VERTEX
  8
0
 10
5.39293055
 20
10.20050320
  0
VERTEX
  8
0
 10
5.40717017
 20
10.19389802
  0
VERTEX
  8
0
 10
5.42069458
 20
10.18634544
  0
VERTEX
  8
0
 10
5.43350380
 20
10.17784544
  0
VERTEX
  8
0
 10
5.44559781
 20
10.16839802
  0
VERTEX
  8
0
 10
5.45697663
 20
10.15800320
  0
VERTEX
  8
0
 10
5.46764024
 20
10.14666096
  0
VERTEX
  8
0
 10
5.47753540
 20
10.13471907
  0
VERTEX
  8
0
 10
5.48638814
 20
10.12223864
  0
VERTEX
  8
0
 10
5.49419846
 20
10.10921969
  0
VERTEX
  8
0
 10
5.50096638
 20
10.09566221
  0
VERTEX
  8
0
 10
5.50669188
 20
10.08156619
  0
VERTEX
  8
0
 10
5.51137496
 20
10.06693165
  0
VERTEX
  8
0
 10
5.51501563
 20
10.05175858
  0
VERTEX
  8
0
 10
5.51761388
 20
10.03604698
  0
VERTEX
  8
0
 10
5.51918421
 20
10.01906518
  0
VERTEX
  8
0
 10
5.51947734
 20
10.00211085
  0
VERTEX
  8
0
 10
5.51849328
 20
9.98518399
  0
VERTEX
  8
0
 10
5.51623202
 20
9.96828459
  0
VERTEX
  8
0
 10
5.51269356
 20
9.95141265
  0
VERTEX
  8
0
 10
5.50787791
 20
9.93456817
  0
VERTEX
  8
0
 10
5.50178507
 20
9.91775116
  0
VERTEX
  8
0
 10
5.49441502
 20
9.90096162
  0
VERTEX
  8
0
 10
5.48553536
 20
9.88387913
  0
VERTEX
  8
0
 10
5.47465998
 20
9.86615034
  0
VERTEX
  8
0
 10
5.46178888
 20
9.84777524
  0
VERTEX
  8
0
 10
5.44692206
 20
9.82875382
  0
VERTEX
  8
0
 10
5.43005953
 20
9.80908610
  0
VERTEX
  8
0
 10
5.41120128
 20
9.78877207
  0
VERTEX
  8
0
 10
5.39034731
 20
9.76781173
  0
VERTEX
  8
0
 10
5.36749762
 20
9.74620507
  0
VERTEX
  8
0
 10
5.32013358
 20
9.70277541
  0
VERTEX
  8
0
 10
5.29163495
 20
9.67495313
  0
VERTEX
  8
0
 10
5.27152004
 20
9.65208974
  0
VERTEX
  8
0
 10
5.24829251
 20
9.62340485
  0
VERTEX
  8
0
 10
5.57095382
 20
9.66534145
  0
VERTEX
  8
0
 10
5.59284525
 20
9.49690818
  0
SEQEND
  0
POLYLINE
  8
Default_Layer
 66
   1
 39
0.000000
 70
    1
  0
VERTEX
  8
0
 10
5.74345588
 20
10.24320195
  0
VERTEX
  8
0
 10
6.23798261
 20
10.22960915
  0
VERTEX
  8
0
 10
6.23341419
 20
10.06340317
  0
VERTEX
  8
0
 10
5.89844520
 20
10.07261028
  0
VERTEX
  8
0
 10
5.87745363
 20
9.96059360
  0
VERTEX
  8
0
 10
5.89498826
 20
9.96778848
  0
VERTEX
  8
0
 10
5.91236692
 20
9.97396406
  0
VERTEX
  8
0
 10
5.92958962
 20
9.97912035
  0
VERTEX
  8
0
 10
5.94665636
 20
9.98325735
  0
VERTEX
  8
0
 10
5.96382283
 20
9.98636803
  0
VERTEX
  8
0
 10
5.98083334
 20
9.98845942
  0
VERTEX
  8
0
 10
5.99768788
 20
9.98953152
  0
VERTEX
  8
0
 10
6.01438646
 20
9.98958432
  0
VERTEX
  8
0
 10
6.04182119
 20
9.98776667
  0
VERTEX
  8
0
 10
6.06787105
 20
9.98385997
  0
VERTEX
  8
0
 10
6.09253603
 20
9.97786420
  0
VERTEX
  8
0
 10
6.11581613
 20
9.96977938
  0
VERTEX
  8
0
 10
6.13771137
 20
9.95960549
  0
VERTEX
  8
0
 10
6.15822172
 20
9.94734255
  0
VERTEX
  8
0
 10
6.17734720
 20
9.93299055
  0
VERTEX
  8
0
 10
6.19508781
 20
9.91654949
  0
VERTEX
  8
0
 10
6.21102610
 20
9.89854263
  0
VERTEX
  8
0
 10
6.22474464
 20
9.87949324
  0
VERTEX
  8
0
 10
6.23624343
 20
9.85940131
  0
VERTEX
  8
0
 10
6.24552246
 20
9.83826686
  0
VERTEX
  8
0
 10
6.25258173
 20
9.81608987
  0
VERTEX
  8
0
 10
6.25742126
 20
9.79287035
  0
VERTEX
  8
0
 10
6.26004103
 20
9.76860829
  0
VERTEX
  8
0
 10
6.26044104
 20
9.74330371
  0
VERTEX
  8
0
 10
6.25937711
 20
9.72525239
  0
VERTEX
  8
0
 10
6.25718333
 20
9.70740806
  0
VERTEX
  8
0
 10
6.25385971
 20
9.68977071
  0
VERTEX
  8
0
 10
6.24940625
 20
9.67234034
  0
VERTEX
  8
0
 10
6.24382294
 20
9.65511696
  0
VERTEX
  8
0
 10
6.23710979
 20
9.63810056
  0
VERTEX
  8
0
 10
6.22926679
 20
9.62129114
  0
VERTEX
  8
0
 10
6.22029396
 20
9.60468870
  0
VERTEX
  8
0
 10
6.21041822
 20
9.58869485
  0
VERTEX
  8
0
 10
6.19961085
 20
9.57371819
  0
VERTEX
  8
0
 10
6.18787182
 20
9.55975873
  0
VERTEX
  8
0
 10
6.17520115
 20
9.54681647
  0
VERTEX
  8
0
 10
6.16159884
 20
9.53489141
  0
VERTEX
  8
0
 10
6.14706488
 20
9.52398355
  0
VERTEX
  8
0
 10
6.13159927
 20
9.51409289
  0
VERTEX
  8
0
 10
6.11520202
 20
9.50521943
  0
VERTEX
  8
0
 10
6.09789863
 20
9.49741845
  0
VERTEX
  8
0
 10
6.07945891
 20
9.49075224
  0
VERTEX
  8
0
 10
6.05988286
 20
9.48522081
  0
VERTEX
  8
0
 10
6.03917049
 20
9.48082417
  0
VERTEX
  8
0
 10
6.01732178
 20
9.47756230
  0
VERTEX
  8
0
 10
5.99433675
 20
9.47543521
  0
VERTEX
  8
0
 10
5.97021539
 20
9.47444291
  0
VERTEX
  8
0
 10
5.94495770
 20
9.47458538
  0
VERTEX
  8
0
 10
5.90921517
 20
9.47643146
  0
VERTEX
  8
0
 10
5.87614103
 20
9.47993149
  0
VERTEX
  8
0
 10
5.84573526
 20
9.48508546
  0
VERTEX
  8
0
 10
5.81799788
 20
9.49189337
  0
VERTEX
  8
0
 10
5.79283914
 20
9.50058161
  0
VERTEX
  8
0
 10
5.76964384
 20
9.51087919
  0
VERTEX
  8
0
 10
5.74841199
 20
9.52278612
  0
VERTEX
  8
0
 10
5.72914359
 20
9.53630239
  0
VERTEX
  8
0
 10
5.71199493
 20
9.55129577
  0
VERTEX
  8
0
 10
5.69659686
 20
9.56713667
  0
VERTEX
  8
0
 10
5.68294937
 20
9.58382508
  0
VERTEX
  8
0
 10
5.67105246
 20
9.60136100
  0
VERTEX
  8
0
 10
5.66054016
 20
9.62039423
  0
VERTEX
  8
0
 10
5.65104648
 20
9.64157457
  0
VERTEX
  8
0
 10
5.64257142
 20
9.66490202
  0
VERTEX
  8
0
 10
5.63511498
 20
9.69037657
  0
VERTEX
  8
0
 10
5.84644558
 20
9.70759836
  0
VERTEX
  8
0
 10
5.84834539
 20
9.69525520
  0
VERTEX
  8
0
 10
5.85090510
 20
9.68364559
  0
VERTEX
  8
0
 10
5.85412471
 20
9.67276953
  0
VERTEX
  8
0
 10
5.85800421
 20
9.66262703
  0
VERTEX
  8
0
 10
5.86254362
 20
9.65321808
  0
VERTEX
  8
0
 10
5.86774293
 20
9.64454268
  0
VERTEX
  8
0
 10
5.87360213
 20
9.63660083
  0
VERTEX
  8
0
 10
5.88012124
 20
9.62939254
  0
VERTEX
  8
0
 10
5.88715281
 20
9.62308178
  0
VERTEX
  8
0
 10
5.89454240
 20
9.61757685
  0
VERTEX
  8
0
 10
5.90228999
 20
9.61287774
  0
VERTEX
  8
0
 10
5.91039560
 20
9.60898446
  0
VERTEX
  8
0
 10
5.91885922
 20
9.60589699
  0
VERTEX
  8
0
 10
5.92768085
 20
9.60361536
  0
VERTEX
  8
0
 10
5.93686049
 20
9.60213955
  0
VERTEX
  8
0
 10
5.94639814
 20
9.60146956
  0
VERTEX
  8
0
 10
5.95703979
 20
9.60168885
  0
VERTEX
  8
0
 10
5.96723012
 20
9.60294412
  0
VERTEX
  8
0
 10
5.97696911
 20
9.60523537
  0
VERTEX
  8
0
 10
5.98625678
 20
9.60856261
  0
VERTEX
  8
0
 10
5.99509313
 20
9.61292584
  0
VERTEX
  8
0
 10
6.00347814
 20
9.61832505
  0
VERTEX
  8
0
 10
6.01141183
 20
9.62476024
  0
VERTEX
  8
0
 10
6.01889419
 20
9.63223142
  0
VERTEX
  8
0
 10
6.02584862
 20
9.64086064
  0
VERTEX
  8
0
 10
6.03193576
 20
9.65052128
  0
VERTEX
  8
0
 10
6.03715562
 20
9.66121334
  0
VERTEX
  8
0
 10
6.04150820
 20
9.67293683
  0
VERTEX
  8
0
 10
6.04499350
 20
9.68569175
  0
VERTEX
  8
0
 10
6.04761151
 20
9.69947808
  0
VERTEX
  8
0
 10
6.04936225
 20
9.71429584
  0
VERTEX
  8
0
 10
6.05024570
 20
9.73014503
  0
VERTEX
  8
0
 10
6.05024321
 20
9.74634643
  0
VERTEX
  8
0
 10
6.04931500
 20
9.76145374
  0
VERTEX
  8
0
 10
6.04746110
 20
9.77546695
  0
VERTEX
  8
0
 10
6.04468149
 20
9.78838607
  0
VERTEX
  8
0
 10
6.04097618
 20
9.80021109
  0
VERTEX
  8
0
 10
6.03634516
 20
9.81094202
  0
VERTEX
  8
0
 10
6.03078844
 20
9.82057885
  0
VERTEX
  8
0
 10
6.02430601
 20
9.82912159
  0
VERTEX
  8
0
 10
6.01705168
 20
9.83663797
  0
VERTEX
  8
0
 10
6.00917925
 20
9.84319575
  0
VERTEX
  8
0
 10
6.00068870
 20
9.84879491
  0
VERTEX
  8
0
 10
5.99158006
 20
9.85343547
  0
VERTEX
  8
0
 10
5.98185330
 20
9.85711742
  0
VERTEX
  8
0
 10
5.97150845
 20
9.85984076
  0
VERTEX
  8
0
 10
5.96054548
 20
9.86160549
  0
VERTEX
  8
0
 10
5.94896442
 20
9.86241161
  0
VERTEX
  8
0
 10
5.93398040
 20
9.86189585
  0
VERTEX
  8
0
 10
5.91920113
 20
9.85951923
  0
VERTEX
  8
0
 10
5.90462661
 20
9.85528174
  0
VERTEX
  8
0
 10
5.89025683
 20
9.84918339
  0
VERTEX
  8
0
 10
5.87933990
 20
9.84302211
  0
VERTEX
  8
0
 10
5.86785183
 20
9.83470143
  0
VERTEX
  8
0
 10
5.85579261
 20
9.82422135
  0
VERTEX
  8
0
 10
5.84316225
 20
9.81158186
  0
VERTEX
  8
0
 10
5.66640823
 20
9.84202967
  0
VERTEX
  8
0
 10
5.74345588
 20
10.24320195
  0
SEQEND
  0
POLYLINE
  8
Default_Layer
 66
   1
 39
0.000000
 70
    1
  0
VERTEX
  8
0
 10
1.03541130
 20
6.07662750
  0
VERTEX
  8
0
 10
1.07531702
 20
6.50862182
  0
VERTEX
  8
0
 10
1.07857411
 20
6.53475624
  0
VERTEX
  8
0
 10
1.08335718
 20
6.55916021
  0
VERTEX
  8
0
 10
1.08966621
 20
6.58183373
  0
VERTEX
  8
0
 10
1.09750122
 20
6.60277679
  0
VERTEX
  8
0
 10
1.10686219
 20
6.62198940
  0
VERTEX
  8
0
 10
1.11774914
 20
6.63947156
  0
VERTEX
  8
0
 10
1.13016205
 20
6.65522327
  0
VERTEX
  8
0
 10
1.14410094
 20
6.66924453
  0
VERTEX
  8
0
 10
1.15912874
 20
6.68158373
  0
VERTEX
  8
0
 10
1.17478488
 20
6.69203458
  0
VERTEX
  8
0
 10
1.19106935
 20
6.70059706
  0
VERTEX
  8
0
 10
1.20798216
 20
6.70727117
  0
VERTEX
  8
0
 10
1.22552329
 20
6.71205692
  0
VERTEX
  8
0
 10
1.24369277
 20
6.71495431
  0
VERTEX
  8
0
 10
1.26249057
 20
6.71596333
  0
VERTEX
  8
0
 10
1.28191671
 20
6.71508399
  0
VERTEX
  8
0
 10
1.29811903
 20
6.71293705
  0
VERTEX
  8
0
 10
1.31361320
 20
6.70955503
  0
VERTEX
  8
0
 10
1.32839923
 20
6.70493793
  0
VERTEX
  8
0
 10
1.34247712
 20
6.69908576
  0
VERTEX
  8
0
 10
1.35584686
 20
6.69199851
  0
VERTEX
  8
0
 10
1.36850846
 20
6.68367619
  0
VERTEX
  8
0
 10
1.38046192
 20
6.67411879
  0
VERTEX
  8
0
 10
1.39170724
 20
6.66332631
  0
VERTEX
  8
0
 10
1.39872435
 20
6.65534076
  0
VERTEX
  8
0
 10
1.40525403
 20
6.64659747
  0
VERTEX
  8
0
 10
1.41129626
 20
6.63709643
  0
VERTEX
  8
0
 10
1.41685106
 20
6.62683764
  0
VERTEX
  8
0
 10
1.42649833
 20
6.60404684
  0
VERTEX
  8
0
 10
1.43419585
 20
6.57822506
  0
VERTEX
  8
0
 10
1.44127025
 20
6.59719131
  0
VERTEX
  8
0
 10
1.44909670
 20
6.61473944
  0
VERTEX
  8
0
 10
1.45767520
 20
6.63086944
  0
VERTEX
  8
0
 10
1.46700574
 20
6.64558131
  0
VERTEX
  8
0
 10
1.47708834
 20
6.65887505
  0
VERTEX
  8
0
 10
1.48792299
 20
6.67075066
  0
VERTEX
  8
0
 10
1.49950968
 20
6.68120815
  0
VERTEX
  8
0
 10
1.51184842
 20
6.69024750
  0
VERTEX
  8
0
 10
1.52477452
 20
6.69808464
  0
VERTEX
  8
0
 10
1.53835447
 20
6.70465721
  0
VERTEX
  8
0
 10
1.55258827
 20
6.70996523
  0
VERTEX
  8
0
 10
1.56747591
 20
6.71400869
  0
VERTEX
  8
0
 10
1.58301740
 20
6.71678759
  0
VERTEX
  8
0
 10
1.59921273
 20
6.71830193
  0
VERTEX
  8
0
 10
1.61606192
 20
6.71855172
  0
VERTEX
  8
0
 10
1.63356495
 20
6.71753694
  0
VERTEX
  8
0
 10
1.64786158
 20
6.71579082
  0
VERTEX
  8
0
 10
1.66171412
 20
6.71323477
  0
VERTEX
  8
0
 10
1.67512256
 20
6.70986881
  0
VERTEX
  8
0
 10
1.68808692
 20
6.70569294
  0
VERTEX
  8
0
 10
1.70060719
 20
6.70070715
  0
VERTEX
  8
0
 10
1.71268336
 20
6.69491144
  0
VERTEX
  8
0
 10
1.72431544
 20
6.68830582
  0
VERTEX
  8
0
 10
1.73550343
 20
6.68089028
  0
VERTEX
  8
0
 10
1.74613822
 20
6.67278729
  0
VERTEX
  8
0
 10
1.75611072
 20
6.66411933
  0
VERTEX
  8
0
 10
1.76542092
 20
6.65488637
  0
VERTEX
  8
0
 10
1.77406882
 20
6.64508844
  0
VERTEX
  8
0
 10
1.78205443
 20
6.63472553
  0
VERTEX
  8
0
 10
1.78937773
 20
6.62379763
  0
VERTEX
  8
0
 10
1.79603874
 20
6.61230475
  0
VERTEX
  8
0
 10
1.80203745
 20
6.60024688
  0
VERTEX
  8
0
 10
1.80835814
 20
6.58315801
  0
VERTEX
  8
0
 10
1.81319144
 20
6.56248166
  0
VERTEX
  8
0
 10
1.81653735
 20
6.53821786
  0
VERTEX
  8
0
 10
1.81839588
 20
6.51036658
  0
VERTEX
  8
0
 10
1.82004908
 20
6.44483608
  0
VERTEX
  8
0
 10
1.81987414
 20
6.42208562
  0
VERTEX
  8
0
 10
1.81903152
 20
6.40601167
  0
VERTEX
  8
0
 10
1.78223167
 20
6.00763955
  0
VERTEX
  8
0
 10
1.03541130
 20
6.07662750
  0
SEQEND
  0
POLYLINE
  8
Default_Layer
 66
   1
 39
0.000000
 70
    1
  0
VERTEX
  8
0
 10
1.34983777
 20
6.28237705
  0
VERTEX
  8
0
 10
1.35910832
 20
6.38273422
  0
VERTEX
  8
0
 10
1.36026504
 20
6.40777020
  0
VERTEX
  8
0
 10
1.35874699
 20
6.42887885
  0
VERTEX
  8
0
 10
1.35698492
 20
6.43796042
  0
VERTEX
  8
0
 10
1.35455416
 20
6.44606016
  0
VERTEX
  8
0
 10
1.35145471
 20
6.45317807
  0
VERTEX
  8
0
 10
1.34768656
 20
6.45931414
  0
VERTEX
  8
0
 10
1.34318288
 20
6.46478764
  0
VERTEX
  8
0
 10
1.33810800
 20
6.46963957
  0
VERTEX
  8
0
 10
1.33246194
 20
6.47386994
  0
VERTEX
  8
0
 10
1.32624468
 20
6.47747874
  0
VERTEX
  8
0
 10
1.31945623
 20
6.48046598
  0
VERTEX
  8
0
 10
1.31209659
 20
6.48283165
  0
VERTEX
  8
0
 10
1.29566373
 20
6.48569830
  0
VERTEX
  8
0
 10
1.28013003
 20
6.48578458
  0
VERTEX
  8
0
 10
1.27293915
 20
6.48476302
  0
VERTEX
  8
0
 10
1.26613226
 20
6.48303166
  0
VERTEX
  8
0
 10
1.25970936
 20
6.48059050
  0
VERTEX
  8
0
 10
1.25367044
 20
6.47743954
  0
VERTEX
  8
0
 10
1.24801550
 20
6.47357878
  0
VERTEX
  8
0
 10
1.24274455
 20
6.46900822
  0
VERTEX
  8
0
 10
1.23791831
 20
6.46369014
  0
VERTEX
  8
0
 10
1.23357401
 20
6.45733210
  0
VERTEX
  8
0
 10
1.22971164
 20
6.44993411
  0
VERTEX
  8
0
 10
1.22633120
 20
6.44149616
  0
VERTEX
  8
0
 10
1.22101610
 20
6.42150040
  0
VERTEX
  8
0
 10
1.21762872
 20
6.39734480
  0
VERTEX
  8
0
 10
1.20821700
 20
6.29545935
  0
VERTEX
  8
0
 10
1.34983777
 20
6.28237705
  0
SEQEND
  0
POLYLINE
  8
Default_Layer
 66
   1
 39
0.000000
 70
    1
  0
VERTEX
  8
0
 10
1.64326788
 20
6.25527128
  0
VERTEX
  8
0
 10
1.65413842
 20
6.37294898
  0
VERTEX
  8
0
 10
1.65538300
 20
6.40067416
  0
VERTEX
  8
0
 10
1.65487403
 20
6.41297951
  0
VERTEX
  8
0
 10
1.65361089
 20
6.42424670
  0
VERTEX
  8
0
 10
1.65159357
 20
6.43447573
  0
VERTEX
  8
0
 10
1.64882208
 20
6.44366661
  0
VERTEX
  8
0
 10
1.64529642
 20
6.45181932
  0
VERTEX
  8
0
 10
1.64101658
 20
6.45893388
  0
VERTEX
  8
0
 10
1.63597413
 20
6.46517964
  0
VERTEX
  8
0
 10
1.63041534
 20
6.47070244
  0
VERTEX
  8
0
 10
1.62434021
 20
6.47550227
  0
VERTEX
  8
0
 10
1.61774875
 20
6.47957914
  0
VERTEX
  8
0
 10
1.61064095
 20
6.48293304
  0
VERTEX
  8
0
 10
1.60301682
 20
6.48556398
  0
VERTEX
  8
0
 10
1.59487635
 20
6.48747195
  0
VERTEX
  8
0
 10
1.58621954
 20
6.48865696
  0
VERTEX
  8
0
 10
1.57811301
 20
6.48902047
  0
VERTEX
  8
0
 10
1.57034980
 20
6.48858161
  0
VERTEX
  8
0
 10
1.56292991
 20
6.48734037
  0
VERTEX
  8
0
 10
1.55585334
 20
6.48529676
  0
VERTEX
  8
0
 10
1.54912009
 20
6.48245077
  0
VERTEX
  8
0
 10
1.54273017
 20
6.47880240
  0
VERTEX
  8
0
 10
1.53668357
 20
6.47435166
  0
VERTEX
  8
0
 10
1.53098029
 20
6.46909855
  0
VERTEX
  8
0
 10
1.52559853
 20
6.46298084
  0
VERTEX
  8
0
 10
1.52074767
 20
6.45565811
  0
VERTEX
  8
0
 10
1.51642771
 20
6.44713034
  0
VERTEX
  8
0
 10
1.51263866
 20
6.43739753
  0
VERTEX
  8
0
 10
1.50938051
 20
6.42645969
  0
VERTEX
  8
0
 10
1.50665326
 20
6.41431682
  0
VERTEX
  8
0
 10
1.50279147
 20
6.38641597
  0
VERTEX
  8
0
 10
1.49196798
 20
6.26924769
  0
VERTEX
  8
0
 10
1.64326788
 20
6.25527128
  0
SEQEND
  0
POLYLINE
  8
Default_Layer
 66
   1
 39
0.000000
 70
    1
  0
VERTEX
  8
0
 10
1.86540277
 20
6.72700168
  0
VERTEX
  8
0
 10
1.18942865
 20
7.05190011
  0
VERTEX
  8
0
 10
1.35675356
 20
7.40003139
  0
VERTEX
  8
0
 10
1.37969010
 20
7.44509529
  0
VERTEX
  8
0
 10
1.40195902
 20
7.48345576
  0
VERTEX
  8
0
 10
1.41284312
 20
7.50012221
  0
VERTEX
  8
0
 10
1.42356032
 20
7.51511280
  0
VERTEX
  8
0
 10
1.43411061
 20
7.52842754
  0
VERTEX
  8
0
 10
1.44449399
 20
7.54006642
  0
VERTEX
  8
0
 10
1.45509171
 20
7.55034287
  0
VERTEX
  8
0
 10
1.46628501
 20
7.55957033
  0
VERTEX
  8
0
 10
1.47807389
 20
7.56774878
  0
VERTEX
  8
0
 10
1.49045834
 20
7.57487824
  0
VERTEX
  8
0
 10
1.50343837
 20
7.58095870
  0
VERTEX
  8
0
 10
1.51701398
 20
7.58599017
  0
VERTEX
  8
0
 10
1.53118517
 20
7.58997263
  0
VERTEX
  8
0
 10
1.54595194
 20
7.59290610
  0
VERTEX
  8
0
 10
1.56097555
 20
7.59473165
  0
VERTEX
  8
0
 10
1.57614781
 20
7.59527956
  0
VERTEX
  8
0
 10
1.59146874
 20
7.59454982
  0
VERTEX
  8
0
 10
1.60693832
 20
7.59254244
  0
VERTEX
  8
0
 10
1.62255655
 20
7.58925741
  0
VERTEX
  8
0
 10
1.63832345
 20
7.58469474
  0
VERTEX
  8
0
 10
1.65423900
 20
7.57885443
  0
VERTEX
  8
0
 10
1.67030321
 20
7.57173646
  0
VERTEX
  8
0
 10
1.68394550
 20
7.56470941
  0
VERTEX
  8
0
 10
1.69674523
 20
7.55714720
  0
VERTEX
  8
0
 10
1.70870238
 20
7.54904984
  0
VERTEX
  8
0
 10
1.71981695
 20
7.54041733
  0
VERTEX
  8
0
 10
1.73008896
 20
7.53124967
  0
VERTEX
  8
0
 10
1.73951839
 20
7.52154686
  0
VERTEX
  8
0
 10
1.74810525
 20
7.51130890
  0
VERTEX
  8
0
 10
1.75584954
 20
7.50053578
  0
VERTEX
  8
0
 10
1.76273986
 20
7.48949907
  0
VERTEX
  8
0
 10
1.76888458
 20
7.47812893
  0
VERTEX
  8
0
 10
1.77428368
 20
7.46642538
  0
VERTEX
  8
0
 10
1.77893716
 20
7.45438841
  0
VERTEX
  8
0
 10
1.78284504
 20
7.44201802
  0
VERTEX
  8
0
 10
1.78600730
 20
7.42931421
  0
VERTEX
  8
0
 10
1.78842395
 20
7.41627698
  0
VERTEX
  8
0
 10
1.79009498
 20
7.40290633
  0
VERTEX
  8
0
 10
1.79079577
 20
7.38458302
  0
VERTEX
  8
0
 10
1.78961368
 20
7.36411372
  0
VERTEX
  8
0
 10
1.78654872
 20
7.34149844
  0
VERTEX
  8
0
 10
1.78160088
 20
7.31673717
  0
VERTEX
  8
0
 10
1.79639372
 20
7.33105487
  0
VERTEX
  8
0
 10
1.80991000
 20
7.34286422
  0
VERTEX
  8
0
 10
1.82214972
 20
7.35216522
  0
VERTEX
  8
0
 10
1.83311288
 20
7.35895786
  0
VERTEX
  8
0
 10
1.84153323
 20
7.36282195
  0
VERTEX
  8
0
 10
1.85295388
 20
7.36687588
  0
VERTEX
  8
0
 10
1.88479610
 20
7.37555331
  0
VERTEX
  8
0
 10
1.91758731
 20
7.38207176
  0
VERTEX
  8
0
 10
1.93036040
 20
7.38377279
  0
VERTEX
  8
0
 10
1.94071850
 20
7.38443504
  0
VERTEX
  8
0
 10
2.18498227
 20
7.39190937
  0
VERTEX
  8
0
 10
2.07154277
 20
7.15589048
  0
VERTEX
  8
0
 10
1.81130572
 20
7.14352602
  0
VERTEX
  8
0
 10
1.78804697
 20
7.14200453
  0
VERTEX
  8
0
 10
1.76858114
 20
7.13936953
  0
VERTEX
  8
0
 10
1.75290824
 20
7.13562105
  0
VERTEX
  8
0
 10
1.74102826
 20
7.13075907
  0
VERTEX
  8
0
 10
1.72855957
 20
7.12238408
  0
VERTEX
  8
0
 10
1.71769042
 20
7.11231791
  0
VERTEX
  8
0
 10
1.70842081
 20
7.10056055
  0
VERTEX
  8
0
 10
1.70075074
 20
7.08711201
  0
VERTEX
  8
0
 10
1.69188585
 20
7.06866797
  0
VERTEX
  8
0
 10
1.96624096
 20
6.93680265
  0
VERTEX
  8
0
 10
1.86540277
 20
6.72700168
  0
SEQEND
  0
POLYLINE
  8
Default_Layer
 66
   1
 39
0.000000
 70
    1
  0
VERTEX
  8
0
 10
1.56416086
 20
7.13005738
  0
VERTEX
  8
0
 10
1.60649074
 20
7.21812768
  0
VERTEX
  8
0
 10
1.61015289
 20
7.22722326
  0
VERTEX
  8
0
 10
1.61426905
 20
7.24021588
  0
VERTEX
  8
0
 10
1.62386340
 20
7.27789225
  0
VERTEX
  8
0
 10
1.62573255
 20
7.28916224
  0
VERTEX
  8
0
 10
1.62551690
 20
7.30022807
  0
VERTEX
  8
0
 10
1.62321645
 20
7.31108974
  0
VERTEX
  8
0
 10
1.61883119
 20
7.32174725
  0
VERTEX
  8
0
 10
1.61279565
 20
7.33184985
  0
VERTEX
  8
0
 10
1.60532271
 20
7.34058569
  0
VERTEX
  8
0
 10
1.59641238
 20
7.34795477
  0
VERTEX
  8
0
 10
1.58606465
 20
7.35395709
  0
VERTEX
  8
0
 10
1.57796204
 20
7.35745240
  0
VERTEX
  8
0
 10
1.57002327
 20
7.36007074
  0
VERTEX
  8
0
 10
1.56224837
 20
7.36181211
  0
VERTEX
  8
0
 10
1.55463731
 20
7.36267651
  0
VERTEX
  8
0
 10
1.54719011
 20
7.36266393
  0
VERTEX
  8
0
 10
1.53990676
 20
7.36177439
  0
VERTEX
  8
0
 10
1.53278727
 20
7.36000787
  0
VERTEX
  8
0
 10
1.52583163
 20
7.35736438
  0
VERTEX
  8
0
 10
1.51895813
 20
7.35358165
  0
VERTEX
  8
0
 10
1.51208506
 20
7.34839739
  0
VERTEX
  8
0
 10
1.50521242
 20
7.34181162
  0
VERTEX
  8
0
 10
1.49834020
 20
7.33382433
  0
VERTEX
  8
0
 10
1.49146841
 20
7.32443552
  0
VERTEX
  8
0
 10
1.48459705
 20
7.31364518
  0
VERTEX
  8
0
 10
1.47085561
 20
7.28785996
  0
VERTEX
  8
0
 10
1.42675275
 20
7.19610085
  0
VERTEX
  8
0
 10
1.56416086
 20
7.13005738
  0
SEQEND
  0
POLYLINE
  8
Default_Layer
 66
   1
 39
0.000000
 70
    1
  0
VERTEX
  8
0
 10
2.43413700
 20
7.97000635
  0
VERTEX
  8
0
 10
2.27820399
 20
7.75807950
  0
VERTEX
  8
0
 10
2.35626085
 20
7.65526219
  0
VERTEX
  8
0
 10
2.21602300
 20
7.46466646
  0
VERTEX
  8
0
 10
1.77898812
 20
8.13620365
  0
VERTEX
  8
0
 10
1.92880509
 20
8.33981825
  0
VERTEX
  8
0
 10
2.69992459
 20
8.12233183
  0
VERTEX
  8
0
 10
2.55609576
 20
7.92685564
  0
VERTEX
  8
0
 10
2.43413700
 20
7.97000635
  0
SEQEND
  0
POLYLINE
  8
Default_Layer
 66
   1
 39
0.000000
 70
    1
  0
VERTEX
  8
0
 10
2.27501949
 20
8.02739784
  0
VERTEX
  8
0
 10
2.00879707
 20
8.12050414
  0
VERTEX
  8
0
 10
2.17740917
 20
7.89473672
  0
VERTEX
  8
0
 10
2.27501949
 20
8.02739784
  0
SEQEND
  0
POLYLINE
  8
Default_Layer
 66
   1
 39
0.000000
 70
    1
  0
VERTEX
  8
0
 10
2.07146084
 20
8.53273077
  0
VERTEX
  8
0
 10
2.24516524
 20
8.70160646
  0
VERTEX
  8
0
 10
2.74242999
 20
8.43228343
  0
VERTEX
  8
0
 10
2.48568168
 20
8.93543692
  0
VERTEX
  8
0
 10
2.65433090
 20
9.09939796
  0
VERTEX
  8
0
 10
2.97746018
 20
8.36752304
  0
VERTEX
  8
0
 10
2.79735370
 20
8.19242323
  0
VERTEX
  8
0
 10
2.07146084
 20
8.53273077
  0
SEQEND
  0
POLYLINE
  8
Default_Layer
 66
   1
 39
0.000000
 70
    1
  0
VERTEX
  8
0
 10
2.92458674
 20
8.82043457
  0
VERTEX
  8
0
 10
2.91202990
 20
8.83927762
  0
VERTEX
  8
0
 10
2.90049201
 20
8.85805311
  0
VERTEX
  8
0
 10
2.88997309
 20
8.87676101
  0
VERTEX
  8
0
 10
2.88047313
 20
8.89540135
  0
VERTEX
  8
0
 10
2.87199213
 20
8.91397410
  0
VERTEX
  8
0
 10
2.86453010
 20
8.93247929
  0
VERTEX
  8
0
 10
2.85808702
 20
8.95091689
  0
VERTEX
  8
0
 10
2.85266291
 20
8.96928692
  0
VERTEX
  8
0
 10
2.84825776
 20
8.98758938
  0
VERTEX
  8
0
 10
2.84487157
 20
9.00582426
  0
VERTEX
  8
0
 10
2.84250434
 20
9.02399156
  0
VERTEX
  8
0
 10
2.84115607
 20
9.04209129
  0
VERTEX
  8
0
 10
2.84082676
 20
9.06012344
  0
VERTEX
  8
0
 10
2.84151642
 20
9.07808802
  0
VERTEX
  8
0
 10
2.84322503
 20
9.09598502
  0
VERTEX
  8
0
 10
2.84595261
 20
9.11381445
  0
VERTEX
  8
0
 10
2.84967513
 20
9.13146002
  0
VERTEX
  8
0
 10
2.85436856
 20
9.14880546
  0
VERTEX
  8
0
 10
2.86003290
 20
9.16585077
  0
VERTEX
  8
0
 10
2.86666816
 20
9.18259595
  0
VERTEX
  8
0
 10
2.87427433
 20
9.19904100
  0
VERTEX
  8
0
 10
2.88285142
 20
9.21518591
  0
VERTEX
  8
0
 10
2.89239942
 20
9.23103069
  0
VERTEX
  8
0
 10
2.90291833
 20
9.24657535
  0
VERTEX
  8
0
 10
2.91440816
 20
9.26181987
  0
VERTEX
  8
0
 10
2.92686890
 20
9.27676425
  0
VERTEX
  8
0
 10
2.94030056
 20
9.29140851
  0
VERTEX
  8
0
 10
2.95470313
 20
9.30575263
  0
VERTEX
  8
0
 10
2.97007661
 20
9.31979663
  0
VERTEX
  8
0
 10
2.98642101
 20
9.33354049
  0
VERTEX
  8
0
 10
3.00373632
 20
9.34698422
  0
VERTEX
  8
0
 10
3.02202255
 20
9.36012782
  0
VERTEX
  8
0
 10
3.04121548
 20
9.37293413
  0
VERTEX
  8
0
 10
3.06030443
 20
9.38471087
  0
VERTEX
  8
0
 10
3.07928941
 20
9.39545803
  0
VERTEX
  8
0
 10
3.09817041
 20
9.40517562
  0
VERTEX
  8
0
 10
3.11694743
 20
9.41386363
  0
VERTEX
  8
0
 10
3.13562047
 20
9.42152206
  0
VERTEX
  8
0
 10
3.15418954
 20
9.42815092
  0
VERTEX
  8
0
 10
3.17265463
 20
9.43375021
  0
VERTEX
  8
0
 10
3.19101575
 20
9.43831992
  0
VERTEX
  8
0
 10
3.20927288
 20
9.44186005
  0
VERTEX
  8
0
 10
3.22742604
 20
9.44437061
  0
VERTEX
  8
0
 10
3.24547523
 20
9.44585159
  0
VERTEX
  8
0
 10
3.26342043
 20
9.44630300
  0
VERTEX
  8
0
 10
3.28126166
 20
9.44572483
  0
VERTEX
  8
0
 10
3.29899891
 20
9.44411709
  0
VERTEX
  8
0
 10
3.31663219
 20
9.44147977
  0
VERTEX
  8
0
 10
3.33403143
 20
9.43789542
  0
VERTEX
  8
0
 10
3.35113940
 20
9.43334142
  0
VERTEX
  8
0
 10
3.36795608
 20
9.42781776
  0
VERTEX
  8
0
 10
3.38448147
 20
9.42132446
  0
VERTEX
  8
0
 10
3.40071558
 20
9.41386151
  0
VERTEX
  8
0
 10
3.41665841
 20
9.40542890
  0
VERTEX
  8
0
 10
3.43230995
 20
9.39602665
  0
VERTEX
  8
0
 10
3.44767021
 20
9.38565474
  0
VERTEX
  8
0
 10
3.46273918
 20
9.37431318
  0
VERTEX
  8
0
 10
3.47751687
 20
9.36200198
  0
VERTEX
  8
0
 10
3.49200328
 20
9.34872112
  0
VERTEX
  8
0
 10
3.50619840
 20
9.33447061
  0
VERTEX
  8
0
 10
3.52010224
 20
9.31925045
  0
VERTEX
  8
0
 10
3.53371479
 20
9.30306064
  0
VERTEX
  8
0
 10
3.54703606
 20
9.28590118
  0
VERTEX
  8
0
 10
3.56006605
 20
9.26777207
  0
VERTEX
  8
0
 10
3.57778344
 20
9.24095393
  0
VERTEX
  8
0
 10
3.59352006
 20
9.21455355
  0
VERTEX
  8
0
 10
3.60727590
 20
9.18857092
  0
VERTEX
  8
0
 10
3.61905098
 20
9.16300606
  0
VERTEX
  8
0
 10
3.62884528
 20
9.13785895
  0
VERTEX
  8
0
 10
3.63665881
 20
9.11312960
  0
VERTEX
  8
0
 10
3.64249158
 20
9.08881800
  0
VERTEX
  8
0
 10
3.64634357
 20
9.06492417
  0
VERTEX
  8
0
 10
3.64839730
 20
9.04153553
  0
VERTEX
  8
0
 10
3.64877056
 20
9.01838364
  0
VERTEX
  8
0
 10
3.64746333
 20
8.99546849
  0
VERTEX
  8
0
 10
3.64447563
 20
8.97279008
  0
VERTEX
  8
0
 10
3.63980744
 20
8.95034842
  0
VERTEX
  8
0
 10
3.63345878
 20
8.92814349
  0
VERTEX
  8
0
 10
3.62542963
 20
8.90617530
  0
VERTEX
  8
0
 10
3.61572000
 20
8.88444385
  0
VERTEX
  8
0
 10
3.60425611
 20
8.86323834
  0
VERTEX
  8
0
 10
3.59089942
 20
8.84249203
  0
VERTEX
  8
0
 10
3.57564992
 20
8.82220492
  0
VERTEX
  8
0
 10
3.55850763
 20
8.80237703
  0
VERTEX
  8
0
 10
3.53947253
 20
8.78300834
  0
VERTEX
  8
0
 10
3.51854464
 20
8.76409885
  0
VERTEX
  8
0
 10
3.49572395
 20
8.74564857
  0
VERTEX
  8
0
 10
3.47101046
 20
8.72765750
  0
VERTEX
  8
0
 10
3.44512918
 20
8.71051082
  0
VERTEX
  8
0
 10
3.41964643
 20
8.69517605
  0
VERTEX
  8
0
 10
3.39456222
 20
8.68165320
  0
VERTEX
  8
0
 10
3.36987653
 20
8.66994226
  0
VERTEX
  8
0
 10
3.34558938
 20
8.66004323
  0
VERTEX
  8
0
 10
3.32170076
 20
8.65195612
  0
VERTEX
  8
0
 10
3.29821068
 20
8.64568092
  0
VERTEX
  8
0
 10
3.27511912
 20
8.64121764
  0
VERTEX
  8
0
 10
3.25231438
 20
8.63861532
  0
VERTEX
  8
0
 10
3.22947438
 20
8.63777743
  0
VERTEX
  8
0
 10
3.20659914
 20
8.63870396
  0
VERTEX
  8
0
 10
3.18368865
 20
8.64139491
  0
VERTEX
  8
0
 10
3.16074292
 20
8.64585030
  0
VERTEX
  8
0
 10
3.13776194
 20
8.65207011
  0
VERTEX
  8
0
 10
3.11474571
 20
8.66005434
  0
VERTEX
  8
0
 10
3.09169423
 20
8.66980300
  0
VERTEX
  8
0
 10
3.06889772
 20
8.68145863
  0
VERTEX
  8
0
 10
3.04664637
 20
8.69516379
  0
VERTEX
  8
0
 10
3.02494018
 20
8.71091845
  0
VERTEX
  8
0
 10
3.00377917
 20
8.72872264
  0
VERTEX
  8
0
 10
2.98316331
 20
8.74857634
  0
VERTEX
  8
0
 10
2.96309262
 20
8.77047957
  0
VERTEX
  8
0
 10
2.94356710
 20
8.79443231
  0
VERTEX
  8
0
 10
2.92458674
 20
8.82043457
  0
SEQEND
  0
POLYLINE
  8
Default_Layer
 66
   1
 39
0.000000
 70
    1
  0
VERTEX
  8
0
 10
3.11572533
 20
8.95149399
  0
VERTEX
  8
0
 10
3.13185562
 20
8.92934235
  0
VERTEX
  8
0
 10
3.14792645
 20
8.90958001
  0
VERTEX
  8
0
 10
3.16393781
 20
8.89220699
  0
VERTEX
  8
0
 10
3.17988972
 20
8.87722326
  0
VERTEX
  8
0
 10
3.19578216
 20
8.86462885
  0
VERTEX
  8
0
 10
3.21161513
 20
8.85442374
  0
VERTEX
  8
0
 10
3.22738864
 20
8.84660794
  0
VERTEX
  8
0
 10
3.24310269
 20
8.84118145
  0
VERTEX
  8
0
 10
3.25883866
 20
8.83792838
  0
VERTEX
  8
0
 10
3.27446759
 20
8.83648726
  0
VERTEX
  8
0
 10
3.28998949
 20
8.83685810
  0
VERTEX
  8
0
 10
3.30540435
 20
8.83904090
  0
VERTEX
  8
0
 10
3.32071218
 20
8.84303564
  0
VERTEX
  8
0
 10
3.33591298
 20
8.84884235
  0
VERTEX
  8
0
 10
3.35100675
 20
8.85646101
  0
VERTEX
  8
0
 10
3.36599348
 20
8.86589162
  0
VERTEX
  8
0
 10
3.38048134
 20
8.87684352
  0
VERTEX
  8
0
 10
3.39323719
 20
8.88844370
  0
VERTEX
  8
0
 10
3.40426102
 20
8.90069215
  0
VERTEX
  8
0
 10
3.41355284
 20
8.91358888
  0
VERTEX
  8
0
 10
3.42111265
 20
8.92713388
  0
VERTEX
  8
0
 10
3.42694044
 20
8.94132715
  0
VERTEX
  8
0
 10
3.43103621
 20
8.95616870
  0
VERTEX
  8
0
 10
3.43339997
 20
8.97165853
  0
VERTEX
  8
0
 10
3.43368492
 20
8.98810101
  0
VERTEX
  8
0
 10
3.43154428
 20
9.00580052
  0
VERTEX
  8
0
 10
3.42697803
 20
9.02475706
  0
VERTEX
  8
0
 10
3.41998618
 20
9.04497064
  0
VERTEX
  8
0
 10
3.41056873
 20
9.06644124
  0
VERTEX
  8
0
 10
3.39872568
 20
9.08916888
  0
VERTEX
  8
0
 10
3.38445703
 20
9.11315355
  0
VERTEX
  8
0
 10
3.36776277
 20
9.13839526
  0
VERTEX
  8
0
 10
3.35265209
 20
9.15904579
  0
VERTEX
  8
0
 10
3.33745628
 20
9.17745971
  0
VERTEX
  8
0
 10
3.32217536
 20
9.19363702
  0
VERTEX
  8
0
 10
3.30680933
 20
9.20757771
  0
VERTEX
  8
0
 10
3.29135817
 20
9.21928179
  0
VERTEX
  8
0
 10
3.27582191
 20
9.22874925
  0
VERTEX
  8
0
 10
3.26020052
 20
9.23598010
  0
VERTEX
  8
0
 10
3.24449402
 20
9.24097434
  0
VERTEX
  8
0
 10
3.22881973
 20
9.24412427
  0
VERTEX
  8
0
 10
3.21323022
 20
9.24546629
  0
VERTEX
  8
0
 10
3.19772551
 20
9.24500040
  0
VERTEX
  8
0
 10
3.18230558
 20
9.24272661
  0
VERTEX
  8
0
 10
3.16697044
 20
9.23864490
  0
VERTEX
  8
0
 10
3.15172009
 20
9.23275529
  0
VERTEX
  8
0
 10
3.13655453
 20
9.22505777
  0
VERTEX
  8
0
 10
3.12147375
 20
9.21555234
  0
VERTEX
  8
0
 10
3.10786259
 20
9.20518783
  0
VERTEX
  8
0
 10
3.09584389
 20
9.19403957
  0
VERTEX
  8
0
 10
3.08541766
 20
9.18210756
  0
VERTEX
  8
0
 10
3.07658390
 20
9.16939179
  0
VERTEX
  8
0
 10
3.06934260
 20
9.15589226
  0
VERTEX
  8
0
 10
3.06369378
 20
9.14160898
  0
VERTEX
  8
0
 10
3.05963742
 20
9.12654194
  0
VERTEX
  8
0
 10
3.05717353
 20
9.11069115
  0
VERTEX
  8
0
 10
3.05662920
 20
9.09399136
  0
VERTEX
  8
0
 10
3.05833153
 20
9.07637733
  0
VERTEX
  8
0
 10
3.06228051
 20
9.05784905
  0
VERTEX
  8
0
 10
3.06847616
 20
9.03840652
  0
VERTEX
  8
0
 10
3.07691846
 20
9.01804976
  0
VERTEX
  8
0
 10
3.08760743
 20
8.99677874
  0
VERTEX
  8
0
 10
3.10054305
 20
8.97459349
  0
VERTEX
  8
0
 10
3.11572533
 20
8.95149399
  0
SEQEND
  0
POLYLINE
  8
Default_Layer
 66
   1
 39
0.000000
 70
    1
  0
VERTEX
  8
0
 10
7.01232546
 20
9.45947056
  0
VERTEX
  8
0
 10
6.64626270
 20
9.55995702
  0
VERTEX
  8
0
 10
6.69163057
 20
9.72522795
  0
VERTEX
  8
0
 10
7.17713950
 20
10.05987269
  0
VERTEX
  8
0
 10
7.35227735
 20
10.01179629
  0
VERTEX
  8
0
 10
7.23025808
 20
9.56729151
  0
VERTEX
  8
0
 10
7.32103375
 20
9.54237303
  0
VERTEX
  8
0
 10
7.27823898
 20
9.38647568
  0
VERTEX
  8
0
 10
7.18746330
 20
9.41139416
  0
VERTEX
  8
0
 10
7.15035644
 20
9.27621734
  0
VERTEX
  8
0
 10
6.97521860
 20
9.32429375
  0
VERTEX
  8
0
 10
7.01232546
 20
9.45947056
  0
SEQEND
  0
POLYLINE
  8
Default_Layer
 66
   1
 39
0.000000
 70
    1
  0
VERTEX
  8
0
 10
7.05512023
 20
9.61536791
  0
VERTEX
  8
0
 10
7.11760052
 20
9.84297773
  0
VERTEX
  8
0
 10
6.86169775
 20
9.66846356
  0
VERTEX
  8
0
 10
7.05512023
 20
9.61536791
  0
SEQEND
  0
POLYLINE
  8
Default_Layer
 66
   1
 39
0.000000
 70
    1
  0
VERTEX
  8
0
 10
7.69998017
 20
9.87969724
  0
VERTEX
  8
0
 10
7.97059748
 20
9.73948593
  0
VERTEX
  8
0
 10
7.86502608
 20
9.28022587
  0
VERTEX
  8
0
 10
8.17857846
 20
9.63172754
  0
VERTEX
  8
0
 10
8.44903252
 20
9.49160082
  0
VERTEX
  8
0
 10
8.10400562
 20
8.82567557
  0
VERTEX
  8
0
 10
7.93548020
 20
8.91299138
  0
VERTEX
  8
0
 10
8.19860440
 20
9.42083888
  0
VERTEX
  8
0
 10
7.80562960
 20
8.98026912
  0
VERTEX
  8
0
 10
7.65308798
 20
9.05930346
  0
VERTEX
  8
0
 10
7.78660289
 20
9.63430367
  0
VERTEX
  8
0
 10
7.52347870
 20
9.12645618
  0
VERTEX
  8
0
 10
7.35495328
 20
9.21377199
  0
VERTEX
  8
0
 10
7.69998017
 20
9.87969724
  0
SEQEND
  0
POLYLINE
  8
Default_Layer
 66
   1
 39
0.000000
 70
    1
  0
VERTEX
  8
0
 10
8.65276829
 20
8.53320639
  0
VERTEX
  8
0
 10
8.45061839
 20
8.70162108
  0
VERTEX
  8
0
 10
8.34328623
 20
8.62989884
  0
VERTEX
  8
0
 10
8.16148336
 20
8.78136206
  0
VERTEX
  8
0
 10
8.85812483
 20
9.17715537
  0
VERTEX
  8
0
 10
9.05234596
 20
9.01534628
  0
VERTEX
  8
0
 10
8.78880827
 20
8.25872648
  0
VERTEX
  8
0
 10
8.60235009
 20
8.41406811
  0
VERTEX
  8
0
 10
8.65276829
 20
8.53320639
  0
SEQEND
  0
POLYLINE
  8
Default_Layer
 66
   1
 39
0.000000
 70
    1
  0
VERTEX
  8
0
 10
8.71963956
 20
8.68857820
  0
VERTEX
  8
0
 10
8.82861196
 20
8.94870928
  0
VERTEX
  8
0
 10
8.59309857
 20
8.79400175
  0
VERTEX
  8
0
 10
8.71963956
 20
8.68857820
  0
SEQEND
  0
POLYLINE
  8
Default_Layer
 66
   1
 39
0.000000
 70
    1
  0
VERTEX
  8
0
 10
8.84331373
 20
8.19239838
  0
VERTEX
  8
0
 10
9.43104677
 20
8.65830596
  0
VERTEX
  8
0
 10
9.67099235
 20
8.35561944
  0
VERTEX
  8
0
 10
9.70149378
 20
8.31528951
  0
VERTEX
  8
0
 10
9.72625823
 20
8.27849071
  0
VERTEX
  8
0
 10
9.73648909
 20
8.26141547
  0
VERTEX
  8
0
 10
9.74528571
 20
8.24522301
  0
VERTEX
  8
0
 10
9.75264809
 20
8.22991334
  0
VERTEX
  8
0
 10
9.75857622
 20
8.21548643
  0
VERTEX
  8
0
 10
9.76318532
 20
8.20146241
  0
VERTEX
  8
0
 10
9.76659060
 20
8.18736135
  0
VERTEX
  8
0
 10
9.76879206
 20
8.17318325
  0
VERTEX
  8
0
 10
9.76978971
 20
8.15892813
  0
VERTEX
  8
0
 10
9.76958354
 20
8.14459597
  0
VERTEX
  8
0
 10
9.76817355
 20
8.13018678
  0
VERTEX
  8
0
 10
9.76555975
 20
8.11570056
  0
VERTEX
  8
0
 10
9.76174213
 20
8.10113730
  0
VERTEX
  8
0
 10
9.75681579
 20
8.08682742
  0
VERTEX
  8
0
 10
9.75067539
 20
8.07294242
  0
VERTEX
  8
0
 10
9.74332093
 20
8.05948229
  0
VERTEX
  8
0
 10
9.73475240
 20
8.04644704
  0
VERTEX
  8
0
 10
9.72496980
 20
8.03383666
  0
VERTEX
  8
0
 10
9.71397314
 20
8.02165117
  0
VERTEX
  8
0
 10
9.70176241
 20
8.00989055
  0
VERTEX
  8
0
 10
9.68833762
 20
7.99855480
  0
VERTEX
  8
0
 10
9.67605342
 20
7.98935751
  0
VERTEX
  8
0
 10
9.66365628
 20
7.98115196
  0
VERTEX
  8
0
 10
9.65114622
 20
7.97393816
  0
VERTEX
  8
0
 10
9.63852322
 20
7.96771611
  0
VERTEX
  8
0
 10
9.62578729
 20
7.96248580
  0
VERTEX
  8
0
 10
9.61293842
 20
7.95824724
  0
VERTEX
  8
0
 10
9.59997662
 20
7.95500042
  0
VERTEX
  8
0
 10
9.58690189
 20
7.95274536
  0
VERTEX
  8
0
 10
9.57396343
 20
7.95137356
  0
VERTEX
  8
0
 10
9.56105107
 20
7.95081811
  0
VERTEX
  8
0
 10
9.54816483
 20
7.95107901
  0
VERTEX
  8
0
 10
9.53530469
 20
7.95215626
  0
VERTEX
  8
0
 10
9.52247066
 20
7.95404986
  0
VERTEX
  8
0
 10
9.50966273
 20
7.95675980
  0
VERTEX
  8
0
 10
9.49688092
 20
7.96028610
  0
VERTEX
  8
0
 10
9.48412521
 20
7.96462874
  0
VERTEX
  8
0
 10
9.46733942
 20
7.97200926
  0
VERTEX
  8
0
 10
9.44944677
 20
7.98202138
  0
VERTEX
  8
0
 10
9.43044726
 20
7.99466509
  0
VERTEX
  8
0
 10
9.41034089
 20
8.00994041
  0
VERTEX
  8
0
 10
9.41675049
 20
7.99037663
  0
VERTEX
  8
0
 10
9.42146227
 20
7.97305757
  0
VERTEX
  8
0
 10
9.42447620
 20
7.95798324
  0
VERTEX
  8
0
 10
9.42579231
 20
7.94515364
  0
VERTEX
  8
0
 10
9.42558625
 20
7.93589130
  0
VERTEX
  8
0
 10
9.42423924
 20
7.92384758
  0
VERTEX
  8
0
 10
9.41812233
 20
7.89141599
  0
VERTEX
  8
0
 10
9.40964881
 20
7.85907479
  0
VERTEX
  8
0
 10
9.40559439
 20
7.84684338
  0
VERTEX
  8
0
 10
9.40166153
 20
7.83723811
  0
VERTEX
  8
0
 10
9.30159390
 20
7.61428716
  0
VERTEX
  8
0
 10
9.13892053
 20
7.81949635
  0
VERTEX
  8
0
 10
9.24157350
 20
8.05895108
  0
VERTEX
  8
0
 10
9.25037361
 20
8.08053446
  0
VERTEX
  8
0
 10
9.25651406
 20
8.09919341
  0
VERTEX
  8
0
 10
9.25999483
 20
8.11492794
  0
VERTEX
  8
0
 10
9.26081593
 20
8.12773803
  0
VERTEX
  8
0
 10
9.25873493
 20
8.14261345
  0
VERTEX
  8
0
 10
9.25443361
 20
8.15678967
  0
VERTEX
  8
0
 10
9.24791200
 20
8.17026667
  0
VERTEX
  8
0
 10
9.23917008
 20
8.18304446
  0
VERTEX
  8
0
 10
9.22645773
 20
8.19908083
  0
VERTEX
  8
0
 10
8.98791670
 20
8.00998465
  0
VERTEX
  8
0
 10
8.84331373
 20
8.19239838
  0
SEQEND
  0
POLYLINE
  8
Default_Layer
 66
   1
 39
0.000000
 70
    1
  0
VERTEX
  8
0
 10
9.33750961
 20
8.28711385
  0
VERTEX
  8
0
 10
9.39821108
 20
8.21054017
  0
VERTEX
  8
0
 10
9.40479030
 20
8.20327004
  0
VERTEX
  8
0
 10
9.41467592
 20
8.19388784
  0
VERTEX
  8
0
 10
9.44436631
 20
8.16878723
  0
VERTEX
  8
0
 10
9.45368502
 20
8.16217904
  0
VERTEX
  8
0
 10
9.46373156
 20
8.15753511
  0
VERTEX
  8
0
 10
9.47450595
 20
8.15485545
  0
VERTEX
  8
0
 10
9.48600817
 20
8.15414005
  0
VERTEX
  8
0
 10
9.49773282
 20
8.15515147
  0
VERTEX
  8
0
 10
9.50885666
 20
8.15805317
  0
VERTEX
  8
0
 10
9.51937969
 20
8.16284515
  0
VERTEX
  8
0
 10
9.52930192
 20
8.16952742
  0
VERTEX
  8
0
 10
9.53598788
 20
8.17528655
  0
VERTEX
  8
0
 10
9.54181348
 20
8.18128171
  0
VERTEX
  8
0
 10
9.54677873
 20
8.18751291
  0
VERTEX
  8
0
 10
9.55088363
 20
8.19398015
  0
VERTEX
  8
0
 10
9.55412816
 20
8.20068343
  0
VERTEX
  8
0
 10
9.55651234
 20
8.20762274
  0
VERTEX
  8
0
 10
9.55803617
 20
8.21479810
  0
VERTEX
  8
0
 10
9.55869964
 20
8.22220949
  0
VERTEX
  8
0
 10
9.55830259
 20
8.23004508
  0
VERTEX
  8
0
 10
9.55664488
 20
8.23849301
  0
VERTEX
  8
0
 10
9.55372649
 20
8.24755329
  0
VERTEX
  8
0
 10
9.54954744
 20
8.25722592
  0
VERTEX
  8
0
 10
9.54410771
 20
8.26751089
  0
VERTEX
  8
0
 10
9.53740732
 20
8.27840821
  0
VERTEX
  8
0
 10
9.52022452
 20
8.30203989
  0
VERTEX
  8
0
 10
9.45698058
 20
8.38182085
  0
VERTEX
  8
0
 10
9.33750961
 20
8.28711385
  0
SEQEND
  0
POLYLINE
  8
Default_Layer
 66
   1
 39
0.000000
 70
    1
  0
VERTEX
  8
0
 10
9.99277471
 20
7.91222963
  0
VERTEX
  8
0
 10
10.15337090
 20
7.60767378
  0
VERTEX
  8
0
 10
10.16457368
 20
7.58550329
  0
VERTEX
  8
0
 10
10.17443862
 20
7.56401903
  0
VERTEX
  8
0
 10
10.18296571
 20
7.54322100
  0
VERTEX
  8
0
 10
10.19015494
 20
7.52310920
  0
VERTEX
  8
0
 10
10.19600633
 20
7.50368362
  0
VERTEX
  8
0
 10
10.20051987
 20
7.48494428
  0
VERTEX
  8
0
 10
10.20369556
 20
7.46689116
  0
VERTEX
  8
0
 10
10.20553340
 20
7.44952427
  0
VERTEX
  8
0
 10
10.20626931
 20
7.43251616
  0
VERTEX
  8
0
 10
10.20601991
 20
7.41576566
  0
VERTEX
  8
0
 10
10.20478519
 20
7.39927278
  0
VERTEX
  8
0
 10
10.20256516
 20
7.38303750
  0
VERTEX
  8
0
 10
10.19935981
 20
7.36705983
  0
VERTEX
  8
0
 10
10.19516914
 20
7.35133977
  0
VERTEX
  8
0
 10
10.18999316
 20
7.33587733
  0
VERTEX
  8
0
 10
10.18383187
 20
7.32067249
  0
VERTEX
  8
0
 10
10.17678052
 20
7.30578453
  0
VERTEX
  8
0
 10
10.16893438
 20
7.29127272
  0
VERTEX
  8
0
 10
10.16029345
 20
7.27713706
  0
VERTEX
  8
0
 10
10.15085774
 20
7.26337756
  0
VERTEX
  8
0
 10
10.14062723
 20
7.24999420
  0
VERTEX
  8
0
 10
10.12960194
 20
7.23698700
  0
VERTEX
  8
0
 10
10.11778185
 20
7.22435594
  0
VERTEX
  8
0
 10
10.10516698
 20
7.21210104
  0
VERTEX
  8
0
 10
10.07815300
 20
7.18874696
  0
VERTEX
  8
0
 10
10.04916013
 20
7.16695203
  0
VERTEX
  8
0
 10
10.01818837
 20
7.14671626
  0
VERTEX
  8
0
 10
9.98523771
 20
7.12803963
  0
VERTEX
  8
0
 10
9.95919240
 20
7.11479360
  0
VERTEX
  8
0
 10
9.93422928
 20
7.10309422
  0
VERTEX
  8
0
 10
9.91034835
 20
7.09294148
  0
VERTEX
  8
0
 10
9.88754963
 20
7.08433539
  0
VERTEX
  8
0
 10
9.86583309
 20
7.07727596
  0
VERTEX
  8
0
 10
9.84519876
 20
7.07176317
  0
VERTEX
  8
0
 10
9.82564662
 20
7.06779702
  0
VERTEX
  8
0
 10
9.80717667
 20
7.06537753
  0
VERTEX
  8
0
 10
9.78955392
 20
7.06412773
  0
VERTEX
  8
0
 10
9.77219779
 20
7.06377762
  0
VERTEX
  8
0
 10
9.75510826
 20
7.06432721
  0
VERTEX
  8
0
 10
9.73828534
 20
7.06577649
  0
VERTEX
  8
0
 10
9.72172904
 20
7.06812546
  0
VERTEX
  8
0
 10
9.70543935
 20
7.07137413
  0
VERTEX
  8
0
 10
9.68941627
 20
7.07552248
  0
VERTEX
  8
0
 10
9.67365980
 20
7.08057054
  0
VERTEX
  8
0
 10
9.65850768
 20
7.08644334
  0
VERTEX
  8
0
 10
9.64407138
 20
7.09294664
  0
VERTEX
  8
0
 10
9.63035090
 20
7.10008043
  0
VERTEX
  8
0
 10
9.61734624
 20
7.10784472
  0
VERTEX
  8
0
 10
9.60505740
 20
7.11623951
  0
VERTEX
  8
0
 10
9.59348438
 20
7.12526479
  0
VERTEX
  8
0
 10
9.58262718
 20
7.13492057
  0
VERTEX
  8
0
 10
9.57248580
 20
7.14520684
  0
VERTEX
  8
0
 10
9.54720631
 20
7.17395276
  0
VERTEX
  8
0
 10
9.52502468
 20
7.20230795
  0
VERTEX
  8
0
 10
9.50594092
 20
7.23027240
  0
VERTEX
  8
0
 10
9.48995504
 20
7.25784612
  0
VERTEX
  8
0
 10
9.32935884
 20
7.56240197
  0
VERTEX
  8
0
 10
9.99277471
 20
7.91222963
  0
SEQEND
  0
POLYLINE
  8
Default_Layer
 66
   1
 39
0.000000
 70
    1
  0
VERTEX
  8
0
 10
9.95063137
 20
7.62800714
  0
VERTEX
  8
0
 10
9.58815108
 20
7.43686665
  0
VERTEX
  8
0
 10
9.61463871
 20
7.38663530
  0
VERTEX
  8
0
 10
9.63123507
 20
7.35728692
  0
VERTEX
  8
0
 10
9.64713907
 20
7.33350170
  0
VERTEX
  8
0
 10
9.65483144
 20
7.32369527
  0
VERTEX
  8
0
 10
9.66235072
 20
7.31527964
  0
VERTEX
  8
0
 10
9.66969691
 20
7.30825479
  0
VERTEX
  8
0
 10
9.67687001
 20
7.30262074
  0
VERTEX
  8
0
 10
9.68429801
 20
7.29809709
  0
VERTEX
  8
0
 10
9.69218265
 20
7.29428416
  0
VERTEX
  8
0
 10
9.70052392
 20
7.29118193
  0
VERTEX
  8
0
 10
9.70932183
 20
7.28879042
  0
VERTEX
  8
0
 10
9.71857637
 20
7.28710962
  0
VERTEX
  8
0
 10
9.72828754
 20
7.28613953
  0
VERTEX
  8
0
 10
9.74907979
 20
7.28633148
  0
VERTEX
  8
0
 10
9.76060479
 20
7.28779991
  0
VERTEX
  8
0
 10
9.77324798
 20
7.29047249
  0
VERTEX
  8
0
 10
9.78700939
 20
7.29434922
  0
VERTEX
  8
0
 10
9.80188900
 20
7.29943012
  0
VERTEX
  8
0
 10
9.83500282
 20
7.31320438
  0
VERTEX
  8
0
 10
9.87258947
 20
7.33179527
  0
VERTEX
  8
0
 10
9.89762683
 20
7.34568460
  0
VERTEX
  8
0
 10
9.92001862
 20
7.35955251
  0
VERTEX
  8
0
 10
9.93976484
 20
7.37339899
  0
VERTEX
  8
0
 10
9.95686548
 20
7.38722404
  0
VERTEX
  8
0
 10
9.97132056
 20
7.40102768
  0
VERTEX
  8
0
 10
9.98313006
 20
7.41480988
  0
VERTEX
  8
0
 10
9.99229400
 20
7.42857067
  0
VERTEX
  8
0
 10
9.99881236
 20
7.44231003
  0
VERTEX
  8
0
 10
10.00302699
 20
7.45642510
  0
VERTEX
  8
0
 10
10.00527972
 20
7.47131304
  0
VERTEX
  8
0
 10
10.00557055
 20
7.48697384
  0
VERTEX
  8
0
 10
10.00389949
 20
7.50340749
  0
VERTEX
  8
0
 10
10.00026653
 20
7.52061401
  0
VERTEX
  8
0
 10
9.99467167
 20
7.53859339
  0
VERTEX
  8
0
 10
9.98711491
 20
7.55734562
  0
VERTEX
  8
0
 10
9.97759626
 20
7.57687072
  0
VERTEX
  8
0
 10
9.95063137
 20
7.62800714
  0
SEQEND
  0
POLYLINE
  8
Default_Layer
 66
   1
 39
0.000000
 70
    1
  0
VERTEX
  8
0
 10
10.38430642
 20
7.10004536
  0
VERTEX
  8
0
 10
10.46335222
 20
6.88164518
  0
VERTEX
  8
0
 10
9.75812169
 20
6.62640038
  0
VERTEX
  8
0
 10
9.67907590
 20
6.84480056
  0
VERTEX
  8
0
 10
10.38430642
 20
7.10004536
  0
SEQEND
  0
POLYLINE
  8
Default_Layer
 66
   1
 39
0.000000
 70
    1
  0
VERTEX
  8
0
 10
10.54780173
 20
6.65156823
  0
VERTEX
  8
0
 10
10.59349084
 20
6.41365076
  0
VERTEX
  8
0
 10
10.09527686
 20
6.14608776
  0
VERTEX
  8
0
 10
10.65675338
 20
6.08422294
  0
VERTEX
  8
0
 10
10.70111283
 20
5.85322938
  0
VERTEX
  8
0
 10
9.91205135
 20
5.98527261
  0
VERTEX
  8
0
 10
9.86467831
 20
6.23195881
  0
VERTEX
  8
0
 10
10.54780173
 20
6.65156823
  0
SEQEND
  0
POLYLINE
  8
Default_Layer
 66
   1
 39
0.000000
 70
    1
  0
VERTEX
  8
0
 10
3.74974155
 20
1.78367918
  0
VERTEX
  8
0
 10
4.26334417
 20
1.52965698
  0
VERTEX
  8
0
 10
4.19190043
 20
1.38520624
  0
VERTEX
  8
0
 10
3.88694887
 20
1.53603192
  0
VERTEX
  8
0
 10
3.82888666
 20
1.41863704
  0
VERTEX
  8
0
 10
4.08935656
 20
1.28981150
  0
VERTEX
  8
0
 10
4.02222212
 20
1.15407366
  0
VERTEX
  8
0
 10
3.76175222
 20
1.28289920
  0
VERTEX
  8
0
 10
3.62589570
 20
1.00821352
  0
VERTEX
  8
0
 10
3.41724464
 20
1.11141003
  0
VERTEX
  8
0
 10
3.74974155
 20
1.78367918
  0
SEQEND
  0
POLYLINE
  8
Default_Layer
 66
   1
 39
0.000000
 70
    1
  0
VERTEX
  8
0
 10
4.22445152
 20
0.74110950
  0
VERTEX
  8
0
 10
4.41589498
 20
1.46626424
  0
VERTEX
  8
0
 10
4.78935462
 20
1.36766955
  0
VERTEX
  8
0
 10
4.83793825
 20
1.35365277
  0
VERTEX
  8
0
 10
4.87981296
 20
1.33902611
  0
VERTEX
  8
0
 10
4.89823446
 20
1.33148407
  0
VERTEX
  8
0
 10
4.91497874
 20
1.32378956
  0
VERTEX
  8
0
 10
4.93004578
 20
1.31594259
  0
VERTEX
  8
0
 10
4.94343559
 20
1.30794314
  0
VERTEX
  8
0
 10
4.95552794
 20
1.29947601
  0
VERTEX
  8
0
 10
4.96670258
 20
1.29022597
  0
VERTEX
  8
0
 10
4.97695953
 20
1.28019304
  0
VERTEX
  8
0
 10
4.98629878
 20
1.26937720
  0
VERTEX
  8
0
 10
4.99472032
 20
1.25777845
  0
VERTEX
  8
0
 10
5.00222417
 20
1.24539681
  0
VERTEX
  8
0
 10
5.00881031
 20
1.23223226
  0
VERTEX
  8
0
 10
5.01447876
 20
1.21828481
  0
VERTEX
  8
0
 10
5.01910769
 20
1.20387598
  0
VERTEX
  8
0
 10
5.02251003
 20
1.18907996
  0
VERTEX
  8
0
 10
5.02468575
 20
1.17389677
  0
VERTEX
  8
0
 10
5.02563487
 20
1.15832639
  0
VERTEX
  8
0
 10
5.02535738
 20
1.14236883
  0
VERTEX
  8
0
 10
5.02385328
 20
1.12602409
  0
VERTEX
  8
0
 10
5.02112258
 20
1.10929216
  0
VERTEX
  8
0
 10
5.01716526
 20
1.09217306
  0
VERTEX
  8
0
 10
5.01284000
 20
1.07744947
  0
VERTEX
  8
0
 10
5.00783015
 20
1.06345228
  0
VERTEX
  8
0
 10
5.00213571
 20
1.05018149
  0
VERTEX
  8
0
 10
4.99575667
 20
1.03763709
  0
VERTEX
  8
0
 10
4.98869305
 20
1.02581908
  0
VERTEX
  8
0
 10
4.98094483
 20
1.01472747
  0
VERTEX
  8
0
 10
4.97251202
 20
1.00436226
  0
VERTEX
  8
0
 10
4.96339462
 20
0.99472343
  0
VERTEX
  8
0
 10
4.95385714
 20
0.98587345
  0
VERTEX
  8
0
 10
4.94385147
 20
0.97769273
  0
VERTEX
  8
0
 10
4.93337763
 20
0.97018128
  0
VERTEX
  8
0
 10
4.92243560
 20
0.96333908
  0
VERTEX
  8
0
 10
4.91102539
 20
0.95716615
  0
VERTEX
  8
0
 10
4.89914699
 20
0.95166248
  0
VERTEX
  8
0
 10
4.88680041
 20
0.94682807
  0
VERTEX
  8
0
 10
4.87398565
 20
0.94266292
  0
VERTEX
  8
0
 10
4.85612411
 20
0.93851559
  0
VERTEX
  8
0
 10
4.83579972
 20
0.93581216
  0
VERTEX
  8
0
 10
4.81301247
 20
0.93455261
  0
VERTEX
  8
0
 10
4.78776237
 20
0.93473695
  0
VERTEX
  8
0
 10
4.80461527
 20
0.92291306
  0
VERTEX
  8
0
 10
4.81876393
 20
0.91186923
  0
VERTEX
  8
0
 10
4.83020834
 20
0.90160547
  0
VERTEX
  8
0
 10
4.83894851
 20
0.89212178
  0
VERTEX
  8
0
 10
4.84433273
 20
0.88458233
  0
VERTEX
  8
0
 10
4.85046981
 20
0.87413235
  0
VERTEX
  8
0
 10
4.86500250
 20
0.84450085
  0
VERTEX
  8
0
 10
4.87759418
 20
0.81352985
  0
VERTEX
  8
0
 10
4.88167598
 20
0.80130755
  0
VERTEX
  8
0
 10
4.88428175
 20
0.79126073
  0
VERTEX
  8
0
 10
4.93773470
 20
0.55280017
  0
VERTEX
  8
0
 10
4.68454421
 20
0.61964337
  0
VERTEX
  8
0
 10
4.62327358
 20
0.87286681
  0
VERTEX
  8
0
 10
4.61738857
 20
0.89542011
  0
VERTEX
  8
0
 10
4.61112613
 20
0.91403847
  0
VERTEX
  8
0
 10
4.60448625
 20
0.92872190
  0
VERTEX
  8
0
 10
4.59746895
 20
0.93947039
  0
VERTEX
  8
0
 10
4.58689067
 20
0.95013383
  0
VERTEX
  8
0
 10
4.57495359
 20
0.95890721
  0
VERTEX
  8
0
 10
4.56165769
 20
0.96579054
  0
VERTEX
  8
0
 10
4.54700299
 20
0.97078382
  0
VERTEX
  8
0
 10
4.52721705
 20
0.97600738
  0
VERTEX
  8
0
 10
4.44951660
 20
0.68169151
  0
VERTEX
  8
0
 10
4.22445152
 20
0.74110950
  0
SEQEND
  0
POLYLINE
  8
Default_Layer
 66
   1
 39
0.000000
 70
    1
  0
VERTEX
  8
0
 10
4.56339020
 20
1.11302502
  0
VERTEX
  8
0
 10
4.65786807
 20
1.08808253
  0
VERTEX
  8
0
 10
4.66749146
 20
1.08620332
  0
VERTEX
  8
0
 10
4.68102752
 20
1.08461397
  0
VERTEX
  8
0
 10
4.71983767
 20
1.08230482
  0
VERTEX
  8
0
 10
4.73125788
 20
1.08259687
  0
VERTEX
  8
0
 10
4.74208402
 20
1.08489769
  0
VERTEX
  8
0
 10
4.75231610
 20
1.08920729
  0
VERTEX
  8
0
 10
4.76195411
 20
1.09552566
  0
VERTEX
  8
0
 10
4.77073564
 20
1.10335988
  0
VERTEX
  8
0
 10
4.77790363
 20
1.11234762
  0
VERTEX
  8
0
 10
4.78345807
 20
1.12248890
  0
VERTEX
  8
0
 10
4.78739898
 20
1.13378370
  0
VERTEX
  8
0
 10
4.78930180
 20
1.14240048
  0
VERTEX
  8
0
 10
4.79037435
 20
1.15069079
  0
VERTEX
  8
0
 10
4.79061663
 20
1.15865464
  0
VERTEX
  8
0
 10
4.79002864
 20
1.16629202
  0
VERTEX
  8
0
 10
4.78861039
 20
1.17360294
  0
VERTEX
  8
0
 10
4.78636186
 20
1.18058739
  0
VERTEX
  8
0
 10
4.78328306
 20
1.18724537
  0
VERTEX
  8
0
 10
4.77937400
 20
1.19357689
  0
VERTEX
  8
0
 10
4.77436168
 20
1.19961268
  0
VERTEX
  8
0
 10
4.76797312
 20
1.20538346
  0
VERTEX
  8
0
 10
4.76020832
 20
1.21088924
  0
VERTEX
  8
0
 10
4.75106729
 20
1.21613001
  0
VERTEX
  8
0
 10
4.74055002
 20
1.22110578
  0
VERTEX
  8
0
 10
4.72865651
 20
1.22581655
  0
VERTEX
  8
0
 10
4.70074078
 20
1.23444308
  0
VERTEX
  8
0
 10
4.60230572
 20
1.26043029
  0
VERTEX
  8
0
 10
4.56339020
 20
1.11302502
  0
SEQEND
  0
POLYLINE
  8
Default_Layer
 66
   1
 39
0.000000
 70
    1
  0
VERTEX
  8
0
 10
5.25482991
 20
1.26586026
  0
VERTEX
  8
0
 10
5.87473874
 20
1.22777311
  0
VERTEX
  8
0
 10
5.86491890
 20
1.06794488
  0
VERTEX
  8
0
 10
5.47683759
 20
1.09178857
  0
VERTEX
  8
0
 10
5.46952762
 20
0.97281101
  0
VERTEX
  8
0
 10
5.82952410
 20
0.95069285
  0
VERTEX
  8
0
 10
5.82014349
 20
0.79801350
  0
VERTEX
  8
0
 10
5.46014701
 20
0.82013166
  0
VERTEX
  8
0
 10
5.45108014
 20
0.67255863
  0
VERTEX
  8
0
 10
5.85039538
 20
0.64802473
  0
VERTEX
  8
0
 10
5.83997945
 20
0.47849447
  0
VERTEX
  8
0
 10
5.20883669
 20
0.51727184
  0
VERTEX
  8
0
 10
5.25482991
 20
1.26586026
  0
SEQEND
  0
POLYLINE
  8
Default_Layer
 66
   1
 39
0.000000
 70
    1
  0
VERTEX
  8
0
 10
6.01574012
 20
1.23293327
  0
VERTEX
  8
0
 10
6.63218547
 20
1.30864800
  0
VERTEX
  8
0
 10
6.65170664
 20
1.14971275
  0
VERTEX
  8
0
 10
6.26579358
 20
1.10231308
  0
VERTEX
  8
0
 10
6.28032532
 20
0.98400026
  0
VERTEX
  8
0
 10
6.63831046
 20
1.02796969
  0
VERTEX
  8
0
 10
6.65695849
 20
0.87614336
  0
VERTEX
  8
0
 10
6.29897334
 20
0.83217394
  0
VERTEX
  8
0
 10
6.31699769
 20
0.68542541
  0
VERTEX
  8
0
 10
6.71408192
 20
0.73419717
  0
VERTEX
  8
0
 10
6.73478809
 20
0.56561410
  0
VERTEX
  8
0
 10
6.10717158
 20
0.48852727
  0
VERTEX
  8
0
 10
6.01574012
 20
1.23293327
  0
SEQEND
  0
POLYLINE
  8
Default_Layer
 66
   1
 39
0.000000
 70
    1
  0
VERTEX
  8
0
 10
7.10007074
 20
1.03535118
  0
VERTEX
  8
0
 10
7.09214151
 20
1.05656114
  0
VERTEX
  8
0
 10
7.08518898
 20
1.07747295
  0
VERTEX
  8
0
 10
7.07921315
 20
1.09808661
  0
VERTEX
  8
0
 10
7.07421404
 20
1.11840212
  0
VERTEX
  8
0
 10
7.07019163
 20
1.13841949
  0
VERTEX
  8
0
 10
7.06714592
 20
1.15813870
  0
VERTEX
  8
0
 10
7.06507693
 20
1.17755977
  0
VERTEX
  8
0
 10
7.06398464
 20
1.19668268
  0
VERTEX
  8
0
 10
7.06386905
 20
1.21550745
  0
VERTEX
  8
0
 10
7.06473018
 20
1.23403407
  0
VERTEX
  8
0
 10
7.06656801
 20
1.25226254
  0
VERTEX
  8
0
 10
7.06938255
 20
1.27019286
  0
VERTEX
  8
0
 10
7.07317379
 20
1.28782503
  0
VERTEX
  8
0
 10
7.07794174
 20
1.30515905
  0
VERTEX
  8
0
 10
7.08368640
 20
1.32219492
  0
VERTEX
  8
0
 10
7.09040776
 20
1.33893265
  0
VERTEX
  8
0
 10
7.09805593
 20
1.35526449
  0
VERTEX
  8
0
 10
7.10658099
 20
1.37108270
  0
VERTEX
  8
0
 10
7.11598295
 20
1.38638730
  0
VERTEX
  8
0
 10
7.12626180
 20
1.40117827
  0
VERTEX
  8
0
 10
7.13741754
 20
1.41545562
  0
VERTEX
  8
0
 10
7.14945019
 20
1.42921934
  0
VERTEX
  8
0
 10
7.16235972
 20
1.44246945
  0
VERTEX
  8
0
 10
7.17614616
 20
1.45520593
  0
VERTEX
  8
0
 10
7.19080948
 20
1.46742880
  0
VERTEX
  8
0
 10
7.20634971
 20
1.47913803
  0
VERTEX
  8
0
 10
7.22276683
 20
1.49033365
  0
VERTEX
  8
0
 10
7.24006084
 20
1.50101565
  0
VERTEX
  8
0
 10
7.25823175
 20
1.51118402
  0
VERTEX
  8
0
 10
7.27727955
 20
1.52083877
  0
VERTEX
  8
0
 10
7.29720425
 20
1.52997990
  0
VERTEX
  8
0
 10
7.31800585
 20
1.53860741
  0
VERTEX
  8
0
 10
7.33961335
 20
1.54669976
  0
VERTEX
  8
0
 10
7.36088484
 20
1.55381337
  0
VERTEX
  8
0
 10
7.38182031
 20
1.55994824
  0
VERTEX
  8
0
 10
7.40241978
 20
1.56510437
  0
VERTEX
  8
0
 10
7.42268323
 20
1.56928176
  0
VERTEX
  8
0
 10
7.44261067
 20
1.57248041
  0
VERTEX
  8
0
 10
7.46220210
 20
1.57470032
  0
VERTEX
  8
0
 10
7.48145752
 20
1.57594149
  0
VERTEX
  8
0
 10
7.50037692
 20
1.57620392
  0
VERTEX
  8
0
 10
7.51896031
 20
1.57548761
  0
VERTEX
  8
0
 10
7.53720769
 20
1.57379255
  0
VERTEX
  8
0
 10
7.55511906
 20
1.57111876
  0
VERTEX
  8
0
 10
7.57269442
 20
1.56746623
  0
VERTEX
  8
0
 10
7.58993376
 20
1.56283495
  0
VERTEX
  8
0
 10
7.60683710
 20
1.55722494
  0
VERTEX
  8
0
 10
7.62340442
 20
1.55063619
  0
VERTEX
  8
0
 10
7.63952793
 20
1.54317871
  0
VERTEX
  8
0
 10
7.65514672
 20
1.53484356
  0
VERTEX
  8
0
 10
7.67026078
 20
1.52563073
  0
VERTEX
  8
0
 10
7.68487013
 20
1.51554021
  0
VERTEX
  8
0
 10
7.69897476
 20
1.50457200
  0
VERTEX
  8
0
 10
7.71257467
 20
1.49272612
  0
VERTEX
  8
0
 10
7.72566986
 20
1.48000255
  0
VERTEX
  8
0
 10
7.73826034
 20
1.46640130
  0
VERTEX
  8
0
 10
7.75034609
 20
1.45192237
  0
VERTEX
  8
0
 10
7.76192712
 20
1.43656575
  0
VERTEX
  8
0
 10
7.77300343
 20
1.42033145
  0
VERTEX
  8
0
 10
7.78357502
 20
1.40321947
  0
VERTEX
  8
0
 10
7.79364190
 20
1.38522981
  0
VERTEX
  8
0
 10
7.80320405
 20
1.36636246
  0
VERTEX
  8
0
 10
7.81226148
 20
1.34661743
  0
VERTEX
  8
0
 10
7.82081420
 20
1.32599471
  0
VERTEX
  8
0
 10
7.83194946
 20
1.29584303
  0
VERTEX
  8
0
 10
7.84125140
 20
1.26654976
  0
VERTEX
  8
0
 10
7.84872001
 20
1.23811493
  0
VERTEX
  8
0
 10
7.85435530
 20
1.21053852
  0
VERTEX
  8
0
 10
7.85815727
 20
1.18382054
  0
VERTEX
  8
0
 10
7.86012591
 20
1.15796098
  0
VERTEX
  8
0
 10
7.86026122
 20
1.13295986
  0
VERTEX
  8
0
 10
7.85856322
 20
1.10881715
  0
VERTEX
  8
0
 10
7.85522953
 20
1.08557641
  0
VERTEX
  8
0
 10
7.85031362
 20
1.06294936
  0
VERTEX
  8
0
 10
7.84381549
 20
1.04093602
  0
VERTEX
  8
0
 10
7.83573514
 20
1.01953638
  0
VERTEX
  8
0
 10
7.82607256
 20
0.99875044
  0
VERTEX
  8
0
 10
7.81482777
 20
0.97857821
  0
VERTEX
  8
0
 10
7.80200075
 20
0.95901968
  0
VERTEX
  8
0
 10
7.78759151
 20
0.94007486
  0
VERTEX
  8
0
 10
7.77159414
 20
0.92204214
  0
VERTEX
  8
0
 10
7.75385856
 20
0.90488813
  0
VERTEX
  8
0
 10
7.73438475
 20
0.88861286
  0
VERTEX
  8
0
 10
7.71317273
 20
0.87321631
  0
VERTEX
  8
0
 10
7.69022249
 20
0.85869848
  0
VERTEX
  8
0
 10
7.66553403
 20
0.84505937
  0
VERTEX
  8
0
 10
7.63910735
 20
0.83229899
  0
VERTEX
  8
0
 10
7.61094245
 20
0.82041733
  0
VERTEX
  8
0
 10
7.58183308
 20
0.80962411
  0
VERTEX
  8
0
 10
7.55352491
 20
0.80050418
  0
VERTEX
  8
0
 10
7.52601794
 20
0.79305756
  0
VERTEX
  8
0
 10
7.49931218
 20
0.78728423
  0
VERTEX
  8
0
 10
7.47340762
 20
0.78318421
  0
VERTEX
  8
0
 10
7.44830426
 20
0.78075749
  0
VERTEX
  8
0
 10
7.42400211
 20
0.78000406
  0
VERTEX
  8
0
 10
7.40050116
 20
0.78092394
  0
VERTEX
  8
0
 10
7.37770382
 20
0.78359035
  0
VERTEX
  8
0
 10
7.35527450
 20
0.78798273
  0
VERTEX
  8
0
 10
7.33321321
 20
0.79410110
  0
VERTEX
  8
0
 10
7.31151994
 20
0.80194544
  0
VERTEX
  8
0
 10
7.29019469
 20
0.81151576
  0
VERTEX
  8
0
 10
7.26923747
 20
0.82281206
  0
VERTEX
  8
0
 10
7.24864827
 20
0.83583434
  0
VERTEX
  8
0
 10
7.22842710
 20
0.85058260
  0
VERTEX
  8
0
 10
7.20888901
 20
0.86712944
  0
VERTEX
  8
0
 10
7.19034908
 20
0.88554750
  0
VERTEX
  8
0
 10
7.17280731
 20
0.90583676
  0
VERTEX
  8
0
 10
7.15626369
 20
0.92799723
  0
VERTEX
  8
0
 10
7.14071822
 20
0.95202890
  0
VERTEX
  8
0
 10
7.12617091
 20
0.97793179
  0
VERTEX
  8
0
 10
7.11262175
 20
1.00570588
  0
VERTEX
  8
0
 10
7.10007074
 20
1.03535118
  0
SEQEND
  0
POLYLINE
  8
Default_Layer
 66
   1
 39
0.000000
 70
    1
  0
VERTEX
  8
0
 10
7.31605911
 20
1.11937236
  0
VERTEX
  8
0
 10
7.32671319
 20
1.09412613
  0
VERTEX
  8
0
 10
7.33785421
 20
1.07121982
  0
VERTEX
  8
0
 10
7.34948217
 20
1.05065343
  0
VERTEX
  8
0
 10
7.36159706
 20
1.03242695
  0
VERTEX
  8
0
 10
7.37419889
 20
1.01654039
  0
VERTEX
  8
0
 10
7.38728766
 20
1.00299375
  0
VERTEX
  8
0
 10
7.40086337
 20
0.99178703
  0
VERTEX
  8
0
 10
7.41492601
 20
0.98292022
  0
VERTEX
  8
0
 10
7.42950560
 20
0.97616458
  0
VERTEX
  8
0
 10
7.44439415
 20
0.97119757
  0
VERTEX
  8
0
 10
7.45959168
 20
0.96801918
  0
VERTEX
  8
0
 10
7.47509816
 20
0.96662941
  0
VERTEX
  8
0
 10
7.49091362
 20
0.96702827
  0
VERTEX
  8
0
 10
7.50703804
 20
0.96921575
  0
VERTEX
  8
0
 10
7.52347143
 20
0.97319185
  0
VERTEX
  8
0
 10
7.54021379
 20
0.97895658
  0
VERTEX
  8
0
 10
7.55681732
 20
0.98631627
  0
VERTEX
  8
0
 10
7.57188229
 20
0.99470212
  0
VERTEX
  8
0
 10
7.58540871
 20
1.00411410
  0
VERTEX
  8
0
 10
7.59739657
 20
1.01455224
  0
VERTEX
  8
0
 10
7.60784587
 20
1.02601652
  0
VERTEX
  8
0
 10
7.61675662
 20
1.03850695
  0
VERTEX
  8
0
 10
7.62412881
 20
1.05202352
  0
VERTEX
  8
0
 10
7.62996244
 20
1.06656625
  0
VERTEX
  8
0
 10
7.63398927
 20
1.08251056
  0
VERTEX
  8
0
 10
7.63594104
 20
1.10023189
  0
VERTEX
  8
0
 10
7.63581776
 20
1.11973025
  0
VERTEX
  8
0
 10
7.63361942
 20
1.14100563
  0
VERTEX
  8
0
 10
7.62934603
 20
1.16405804
  0
VERTEX
  8
0
 10
7.62299758
 20
1.18888747
  0
VERTEX
  8
0
 10
7.61457408
 20
1.21549392
  0
VERTEX
  8
0
 10
7.60407552
 20
1.24387740
  0
VERTEX
  8
0
 10
7.59407188
 20
1.26742957
  0
VERTEX
  8
0
 10
7.58347535
 20
1.28882346
  0
VERTEX
  8
0
 10
7.57228594
 20
1.30805907
  0
VERTEX
  8
0
 10
7.56050363
 20
1.32513640
  0
VERTEX
  8
0
 10
7.54812843
 20
1.34005546
  0
VERTEX
  8
0
 10
7.53516035
 20
1.35281623
  0
VERTEX
  8
0
 10
7.52159938
 20
1.36341872
  0
VERTEX
  8
0
 10
7.50744552
 20
1.37186293
  0
VERTEX
  8
0
 10
7.49290246
 20
1.37850409
  0
VERTEX
  8
0
 10
7.47802969
 20
1.38336563
  0
VERTEX
  8
0
 10
7.46282723
 20
1.38644756
  0
VERTEX
  8
0
 10
7.44729506
 20
1.38774988
  0
VERTEX
  8
0
 10
7.43143318
 20
1.38727258
  0
VERTEX
  8
0
 10
7.41524161
 20
1.38501568
  0
VERTEX
  8
0
 10
7.39872033
 20
1.38097916
  0
VERTEX
  8
0
 10
7.38186935
 20
1.37516303
  0
VERTEX
  8
0
 10
7.36625336
 20
1.36817534
  0
VERTEX
  8
0
 10
7.35200917
 20
1.36006142
  0
VERTEX
  8
0
 10
7.33913677
 20
1.35082126
  0
VERTEX
  8
0
 10
7.32763616
 20
1.34045486
  0
VERTEX
  8
0
 10
7.31750735
 20
1.32896223
  0
VERTEX
  8
0
 10
7.30875033
 20
1.31634336
  0
VERTEX
  8
0
 10
7.30136510
 20
1.30259825
  0
VERTEX
  8
0
 10
7.29535166
 20
1.28772690
  0
VERTEX
  8
0
 10
7.29101362
 20
1.27159121
  0
VERTEX
  8
0
 10
7.28865456
 20
1.25405305
  0
VERTEX
  8
0
 10
7.28827451
 20
1.23511242
  0
VERTEX
  8
0
 10
7.28987344
 20
1.21476934
  0
VERTEX
  8
0
 10
7.29345137
 20
1.19302379
  0
VERTEX
  8
0
 10
7.29900829
 20
1.16987577
  0
VERTEX
  8
0
 10
7.30654420
 20
1.14532530
  0
VERTEX
  8
0
 10
7.31605911
 20
1.11937236
  0
SEQEND
  0
POLYLINE
  8
Default_Layer
 66
   1
 39
0.000000
 70
    1
  0
VERTEX
  8
0
 10
8.25173745
 20
1.13221246
  0
VERTEX
  8
0
 10
7.82837530
 20
1.75129605
  0
VERTEX
  8
0
 10
8.14720758
 20
1.96933044
  0
VERTEX
  8
0
 10
8.18958531
 20
1.99691607
  0
VERTEX
  8
0
 10
8.22803670
 20
2.01902763
  0
VERTEX
  8
0
 10
8.24579001
 20
2.02803064
  0
VERTEX
  8
0
 10
8.26256174
 20
2.03566513
  0
VERTEX
  8
0
 10
8.27835187
 20
2.04193110
  0
VERTEX
  8
0
 10
8.29316042
 20
2.04682856
  0
VERTEX
  8
0
 10
8.30747421
 20
2.05043863
  0
VERTEX
  8
0
 10
8.32178007
 20
2.05284245
  0
VERTEX
  8
0
 10
8.33607799
 20
2.05404001
  0
VERTEX
  8
0
 10
8.35036798
 20
2.05403132
  0
VERTEX
  8
0
 10
8.36465004
 20
2.05281638
  0
VERTEX
  8
0
 10
8.37892416
 20
2.05039518
  0
VERTEX
  8
0
 10
8.39319035
 20
2.04676773
  0
VERTEX
  8
0
 10
8.40744861
 20
2.04193403
  0
VERTEX
  8
0
 10
8.42137605
 20
2.03601221
  0
VERTEX
  8
0
 10
8.43479417
 20
2.02890926
  0
VERTEX
  8
0
 10
8.44770297
 20
2.02062517
  0
VERTEX
  8
0
 10
8.46010246
 20
2.01115996
  0
VERTEX
  8
0
 10
8.47199262
 20
2.00051361
  0
VERTEX
  8
0
 10
8.48337347
 20
1.98868614
  0
VERTEX
  8
0
 10
8.49424500
 20
1.97567753
  0
VERTEX
  8
0
 10
8.50460722
 20
1.96148779
  0
VERTEX
  8
0
 10
8.51291661
 20
1.94858641
  0
VERTEX
  8
0
 10
8.52022877
 20
1.93564221
  0
VERTEX
  8
0
 10
8.52654369
 20
1.92265520
  0
VERTEX
  8
0
 10
8.53186137
 20
1.90962537
  0
VERTEX
  8
0
 10
8.53618181
 20
1.89655274
  0
VERTEX
  8
0
 10
8.53950502
 20
1.88343729
  0
VERTEX
  8
0
 10
8.54183099
 20
1.87027902
  0
VERTEX
  8
0
 10
8.54315973
 20
1.85707795
  0
VERTEX
  8
0
 10
8.54361698
 20
1.84407500
  0
VERTEX
  8
0
 10
8.54326175
 20
1.83115559
  0
VERTEX
  8
0
 10
8.54209403
 20
1.81831971
  0
VERTEX
  8
0
 10
8.54011383
 20
1.80556736
  0
VERTEX
  8
0
 10
8.53732115
 20
1.79289854
  0
VERTEX
  8
0
 10
8.53371599
 20
1.78031325
  0
VERTEX
  8
0
 10
8.52929834
 20
1.76781149
  0
VERTEX
  8
0
 10
8.52406821
 20
1.75539327
  0
VERTEX
  8
0
 10
8.51552394
 20
1.73916889
  0
VERTEX
  8
0
 10
8.50427666
 20
1.72202572
  0
VERTEX
  8
0
 10
8.49032637
 20
1.70396376
  0
VERTEX
  8
0
 10
8.47367306
 20
1.68498302
  0
VERTEX
  8
0
 10
8.49363965
 20
1.68999901
  0
VERTEX
  8
0
 10
8.51124752
 20
1.69347946
  0
VERTEX
  8
0
 10
8.52649667
 20
1.69542436
  0
VERTEX
  8
0
 10
8.53938710
 20
1.69583372
  0
VERTEX
  8
0
 10
8.54861193
 20
1.69497592
  0
VERTEX
  8
0
 10
8.56053089
 20
1.69278411
  0
VERTEX
  8
0
 10
8.59245121
 20
1.68439852
  0
VERTEX
  8
0
 10
8.62411540
 20
1.67366854
  0
VERTEX
  8
0
 10
8.63603093
 20
1.66876284
  0
VERTEX
  8
0
 10
8.64533540
 20
1.66416333
  0
VERTEX
  8
0
 10
8.86068597
 20
1.54864371
  0
VERTEX
  8
0
 10
8.64453063
 20
1.40082523
  0
VERTEX
  8
0
 10
8.41289930
 20
1.52008599
  0
VERTEX
  8
0
 10
8.39198921
 20
1.53038419
  0
VERTEX
  8
0
 10
8.37380900
 20
1.53782337
  0
VERTEX
  8
0
 10
8.35835866
 20
1.54240354
  0
VERTEX
  8
0
 10
8.34563819
 20
1.54412470
  0
VERTEX
  8
0
 10
8.33065316
 20
1.54309641
  0
VERTEX
  8
0
 10
8.31620924
 20
1.53980408
  0
VERTEX
  8
0
 10
8.30230643
 20
1.53424772
  0
VERTEX
  8
0
 10
8.28894475
 20
1.52642733
  0
VERTEX
  8
0
 10
8.27205297
 20
1.51487584
  0
VERTEX
  8
0
 10
8.44388140
 20
1.26361067
  0
VERTEX
  8
0
 10
8.25173745
 20
1.13221246
  0
SEQEND
  0
POLYLINE
  8
Default_Layer
 66
   1
 39
0.000000
 70
    1
  0
VERTEX
  8
0
 10
8.19205890
 20
1.63185138
  0
VERTEX
  8
0
 10
8.27271713
 20
1.68700975
  0
VERTEX
  8
0
 10
8.28043252
 20
1.69306068
  0
VERTEX
  8
0
 10
8.29048759
 20
1.70226105
  0
VERTEX
  8
0
 10
8.31761671
 20
1.73011012
  0
VERTEX
  8
0
 10
8.32486473
 20
1.73894033
  0
VERTEX
  8
0
 10
8.33020461
 20
1.74863491
  0
VERTEX
  8
0
 10
8.33363636
 20
1.75919384
  0
VERTEX
  8
0
 10
8.33515999
 20
1.77061713
  0
VERTEX
  8
0
 10
8.33497674
 20
1.78238389
  0
VERTEX
  8
0
 10
8.33286560
 20
1.79368445
  0
VERTEX
  8
0
 10
8.32882655
 20
1.80451882
  0
VERTEX
  8
0
 10
8.32285961
 20
1.81488698
  0
VERTEX
  8
0
 10
8.31758561
 20
1.82196191
  0
VERTEX
  8
0
 10
8.31201558
 20
1.82819524
  0
VERTEX
  8
0
 10
8.30614950
 20
1.83358697
  0
VERTEX
  8
0
 10
8.29998739
 20
1.83813710
  0
VERTEX
  8
0
 10
8.29352924
 20
1.84184563
  0
VERTEX
  8
0
 10
8.28677505
 20
1.84471257
  0
VERTEX
  8
0
 10
8.27972482
 20
1.84673791
  0
VERTEX
  8
0
 10
8.27237854
 20
1.84792165
  0
VERTEX
  8
0
 10
8.26453445
 20
1.84807738
  0
VERTEX
  8
0
 10
8.25599075
 20
1.84701869
  0
VERTEX
  8
0
 10
8.24674745
 20
1.84474558
  0
VERTEX
  8
0
 10
8.23680454
 20
1.84125806
  0
VERTEX
  8
0
 10
8.22616203
 20
1.83655612
  0
VERTEX
  8
0
 10
8.21481992
 20
1.83063976
  0
VERTEX
  8
0
 10
8.19003687
 20
1.81516378
  0
VERTEX
  8
0
 10
8.10600029
 20
1.75769512
  0
VERTEX
  8
0
 10
8.19205890
 20
1.63185138
  0
SEQEND
  0
POLYLINE
  8
Default_Layer
 66
   1
 39
0.000000
 70
    1
  0
VERTEX
  8
0
 10
8.71495533
 20
2.42563201
  0
VERTEX
  8
0
 10
8.93857366
 20
2.68743393
  0
VERTEX
  8
0
 10
8.95503260
 20
2.70603866
  0
VERTEX
  8
0
 10
8.97134847
 20
2.72314664
  0
VERTEX
  8
0
 10
8.98752125
 20
2.73875786
  0
VERTEX
  8
0
 10
9.00355096
 20
2.75287233
  0
VERTEX
  8
0
 10
9.01943759
 20
2.76549004
  0
VERTEX
  8
0
 10
9.03518115
 20
2.77661100
  0
VERTEX
  8
0
 10
9.05078162
 20
2.78623520
  0
VERTEX
  8
0
 10
9.06623902
 20
2.79436264
  0
VERTEX
  8
0
 10
9.08177039
 20
2.80133358
  0
VERTEX
  8
0
 10
9.09742661
 20
2.80729377
  0
VERTEX
  8
0
 10
9.11320771
 20
2.81224321
  0
VERTEX
  8
0
 10
9.12911367
 20
2.81618190
  0
VERTEX
  8
0
 10
9.14514449
 20
2.81910983
  0
VERTEX
  8
0
 10
9.16130018
 20
2.82102702
  0
VERTEX
  8
0
 10
9.17758073
 20
2.82193345
  0
VERTEX
  8
0
 10
9.19398616
 20
2.82182913
  0
VERTEX
  8
0
 10
9.21042615
 20
2.82078066
  0
VERTEX
  8
0
 10
9.22681044
 20
2.81885466
  0
VERTEX
  8
0
 10
9.24313902
 20
2.81605112
  0
VERTEX
  8
0
 10
9.25941190
 20
2.81237003
  0
VERTEX
  8
0
 10
9.27562906
 20
2.80781141
  0
VERTEX
  8
0
 10
9.29179052
 20
2.80237525
  0
VERTEX
  8
0
 10
9.30789626
 20
2.79606155
  0
VERTEX
  8
0
 10
9.32394630
 20
2.78887031
  0
VERTEX
  8
0
 10
9.35563206
 20
2.77240275
  0
VERTEX
  8
0
 10
9.38660062
 20
2.75352012
  0
VERTEX
  8
0
 10
9.41685198
 20
2.73222241
  0
VERTEX
  8
0
 10
9.44638613
 20
2.70850963
  0
VERTEX
  8
0
 10
9.46832174
 20
2.68920562
  0
VERTEX
  8
0
 10
9.48842021
 20
2.67033542
  0
VERTEX
  8
0
 10
9.50668155
 20
2.65189904
  0
VERTEX
  8
0
 10
9.52310574
 20
2.63389647
  0
VERTEX
  8
0
 10
9.53769280
 20
2.61632772
  0
VERTEX
  8
0
 10
9.55044273
 20
2.59919278
  0
VERTEX
  8
0
 10
9.56135551
 20
2.58249166
  0
VERTEX
  8
0
 10
9.57043116
 20
2.56622434
  0
VERTEX
  8
0
 10
9.57810680
 20
2.55031184
  0
VERTEX
  8
0
 10
9.58484791
 20
2.53431448
  0
VERTEX
  8
0
 10
9.59065450
 20
2.51823227
  0
VERTEX
  8
0
 10
9.59552658
 20
2.50206521
  0
VERTEX
  8
0
 10
9.59946413
 20
2.48581330
  0
VERTEX
  8
0
 10
9.60246715
 20
2.46947654
  0
VERTEX
  8
0
 10
9.60453566
 20
2.45305493
  0
VERTEX
  8
0
 10
9.60566965
 20
2.43654847
  0
VERTEX
  8
0
 10
9.60581390
 20
2.42029868
  0
VERTEX
  8
0
 10
9.60510771
 20
2.40448094
  0
VERTEX
  8
0
 10
9.60355107
 20
2.38909525
  0
VERTEX
  8
0
 10
9.60114399
 20
2.37414161
  0
VERTEX
  8
0
 10
9.59788647
 20
2.35962002
  0
VERTEX
  8
0
 10
9.59377850
 20
2.34553048
  0
VERTEX
  8
0
 10
9.58882008
 20
2.33187299
  0
VERTEX
  8
0
 10
9.58301123
 20
2.31864755
  0
VERTEX
  8
0
 10
9.56564615
 20
2.28453253
  0
VERTEX
  8
0
 10
9.54749897
 20
2.25344039
  0
VERTEX
  8
0
 10
9.52856972
 20
2.22537113
  0
VERTEX
  8
0
 10
9.50885837
 20
2.20032475
  0
VERTEX
  8
0
 10
9.28524003
 20
1.93852283
  0
VERTEX
  8
0
 10
8.71495533
 20
2.42563201
  0
SEQEND
  0
POLYLINE
  8
Default_Layer
 66
   1
 39
0.000000
 70
    1
  0
VERTEX
  8
0
 10
8.99462448
 20
2.49153837
  0
VERTEX
  8
0
 10
9.30621933
 20
2.22538936
  0
VERTEX
  8
0
 10
9.34310141
 20
2.26856917
  0
VERTEX
  8
0
 10
9.36423605
 20
2.29483880
  0
VERTEX
  8
0
 10
9.38045752
 20
2.31840866
  0
VERTEX
  8
0
 10
9.38672581
 20
2.32918117
  0
VERTEX
  8
0
 10
9.39176580
 20
2.33927874
  0
VERTEX
  8
0
 10
9.39557750
 20
2.34870136
  0
VERTEX
  8
0
 10
9.39816091
 20
2.35744904
  0
VERTEX
  8
0
 10
9.39961833
 20
2.36602311
  0
VERTEX
  8
0
 10
9.40024658
 20
2.37475874
  0
VERTEX
  8
0
 10
9.40004567
 20
2.38365594
  0
VERTEX
  8
0
 10
9.39901558
 20
2.39271472
  0
VERTEX
  8
0
 10
9.39715633
 20
2.40193507
  0
VERTEX
  8
0
 10
9.39446791
 20
2.41131698
  0
VERTEX
  8
0
 10
9.38660357
 20
2.43056553
  0
VERTEX
  8
0
 10
9.38097887
 20
2.44073138
  0
VERTEX
  8
0
 10
9.37382196
 20
2.45149111
  0
VERTEX
  8
0
 10
9.36513282
 20
2.46284471
  0
VERTEX
  8
0
 10
9.35491148
 20
2.47479219
  0
VERTEX
  8
0
 10
9.32987213
 20
2.50046878
  0
VERTEX
  8
0
 10
9.29870392
 20
2.52852087
  0
VERTEX
  8
0
 10
9.27654317
 20
2.54665052
  0
VERTEX
  8
0
 10
9.25538029
 20
2.56232991
  0
VERTEX
  8
0
 10
9.23521526
 20
2.57555903
  0
VERTEX
  8
0
 10
9.21604809
 20
2.58633790
  0
VERTEX
  8
0
 10
9.19787878
 20
2.59466650
  0
VERTEX
  8
0
 10
9.18070733
 20
2.60054484
  0
VERTEX
  8
0
 10
9.16453373
 20
2.60397292
  0
VERTEX
  8
0
 10
9.14935800
 20
2.60495074
  0
VERTEX
  8
0
 10
9.13468475
 20
2.60364911
  0
VERTEX
  8
0
 10
9.12001861
 20
2.60023886
  0
VERTEX
  8
0
 10
9.10535958
 20
2.59471998
  0
VERTEX
  8
0
 10
9.09070766
 20
2.58709247
  0
VERTEX
  8
0
 10
9.07606286
 20
2.57735634
  0
VERTEX
  8
0
 10
9.06142516
 20
2.56551159
  0
VERTEX
  8
0
 10
9.04679457
 20
2.55155821
  0
VERTEX
  8
0
 10
9.03217110
 20
2.53549620
  0
VERTEX
  8
0
 10
8.99462448
 20
2.49153837
  0
SEQEND
  0
POLYLINE
  8
Default_Layer
 66
   1
 39
0.000000
 70
    1
  0
VERTEX
  8
0
 10
9.23550216
 20
3.08048500
  0
VERTEX
  8
0
 10
9.35869321
 20
3.27738813
  0
VERTEX
  8
0
 10
9.99450814
 20
2.87959500
  0
VERTEX
  8
0
 10
9.87131709
 20
2.68269187
  0
VERTEX
  8
0
 10
9.23550216
 20
3.08048500
  0
SEQEND
  0
POLYLINE
  8
Default_Layer
 66
   1
 39
0.000000
 70
    1
  0
VERTEX
  8
0
 10
9.46574008
 20
3.45277057
  0
VERTEX
  8
0
 10
9.70920105
 20
4.02414115
  0
VERTEX
  8
0
 10
9.85651489
 20
3.96137073
  0
VERTEX
  8
0
 10
9.70410110
 20
3.60367581
  0
VERTEX
  8
0
 10
9.81376283
 20
3.55694895
  0
VERTEX
  8
0
 10
9.95514667
 20
3.88875806
  0
VERTEX
  8
0
 10
10.09587139
 20
3.82879526
  0
VERTEX
  8
0
 10
9.95448754
 20
3.49698615
  0
VERTEX
  8
0
 10
10.09050575
 20
3.43902880
  0
VERTEX
  8
0
 10
10.24733152
 20
3.80707806
  0
VERTEX
  8
0
 10
10.40358772
 20
3.74049730
  0
VERTEX
  8
0
 10
10.15571477
 20
3.15877239
  0
VERTEX
  8
0
 10
9.46574008
 20
3.45277057
  0
SEQEND
  0
POLYLINE
  8
Default_Layer
 66
   1
 39
0.000000
 70
    1
  0
VERTEX
  8
0
 10
9.74896571
 20
4.17016836
  0
VERTEX
  8
0
 10
9.79687030
 20
4.37227671
  0
VERTEX
  8
0
 10
9.91733882
 20
4.34372274
  0
VERTEX
  8
0
 10
10.05763509
 20
4.27681979
  0
VERTEX
  8
0
 10
10.02506941
 20
4.13942594
  0
VERTEX
  8
0
 10
9.86943423
 20
4.14161439
  0
VERTEX
  8
0
 10
9.74896571
 20
4.17016836
  0
SEQEND
  0
POLYLINE
  8
Default_Layer
 66
   1
 39
0.000000
 70
    1
  0
VERTEX
  8
0
 10
9.81043933
 20
4.42952415
  0
VERTEX
  8
0
 10
9.85834392
 20
4.63163249
  0
VERTEX
  8
0
 10
9.97881245
 20
4.60307852
  0
VERTEX
  8
0
 10
10.11910872
 20
4.53617557
  0
VERTEX
  8
0
 10
10.08654303
 20
4.39878172
  0
VERTEX
  8
0
 10
9.93090786
 20
4.40097018
  0
VERTEX
  8
0
 10
9.81043933
 20
4.42952415
  0
SEQEND
  0
POLYLINE
  8
Default_Layer
 66
   1
 39
0.000000
 70
    1
  0
VERTEX
  8
0
 10
1.78920007
 20
4.49664143
  0
VERTEX
  8
0
 10
1.84275114
 20
4.29595532
  0
VERTEX
  8
0
 10
1.72313035
 20
4.26403571
  0
VERTEX
  8
0
 10
1.56788148
 20
4.25649691
  0
VERTEX
  8
0
 10
1.53147730
 20
4.39292392
  0
VERTEX
  8
0
 10
1.66957928
 20
4.46472183
  0
VERTEX
  8
0
 10
1.78920007
 20
4.49664143
  0
SEQEND
  0
POLYLINE
  8
Default_Layer
 66
   1
 39
0.000000
 70
    1
  0
VERTEX
  8
0
 10
1.85791955
 20
4.23911073
  0
VERTEX
  8
0
 10
1.91147062
 20
4.03842461
  0
VERTEX
  8
0
 10
1.79184983
 20
4.00650501
  0
VERTEX
  8
0
 10
1.63660095
 20
3.99896620
  0
VERTEX
  8
0
 10
1.60019678
 20
4.13539322
  0
VERTEX
  8
0
 10
1.73829876
 20
4.20719113
  0
VERTEX
  8
0
 10
1.85791955
 20
4.23911073
  0
SEQEND
  0
POLYLINE
  8
Default_Layer
 66
   1
 39
0.000000
 70
    1
  0
VERTEX
  8
0
 10
1.94375105
 20
3.93866256
  0
VERTEX
  8
0
 10
2.03771430
 20
3.72681262
  0
VERTEX
  8
0
 10
1.52095011
 20
3.49760868
  0
VERTEX
  8
0
 10
1.66759915
 20
3.16697314
  0
VERTEX
  8
0
 10
1.49877392
 20
3.09209294
  0
VERTEX
  8
0
 10
1.25816164
 20
3.63457841
  0
VERTEX
  8
0
 10
1.94375105
 20
3.93866256
  0
SEQEND
  0
POLYLINE
  8
Default_Layer
 66
   1
 39
0.000000
 70
    1
  0
VERTEX
  8
0
 10
2.24027307
 20
3.31653820
  0
VERTEX
  8
0
 10
2.36019293
 20
3.11762591
  0
VERTEX
  8
0
 10
1.71789024
 20
2.73039568
  0
VERTEX
  8
0
 10
1.59797038
 20
2.92930797
  0
VERTEX
  8
0
 10
2.24027307
 20
3.31653820
  0
SEQEND
  0
POLYLINE
  8
Default_Layer
 66
   1
 39
0.000000
 70
    1
  0
VERTEX
  8
0
 10
2.38953224
 20
3.04656097
  0
VERTEX
  8
0
 10
2.54309991
 20
2.85918650
  0
VERTEX
  8
0
 10
2.23265562
 20
2.38650112
  0
VERTEX
  8
0
 10
2.75573441
 20
2.59974208
  0
VERTEX
  8
0
 10
2.90483293
 20
2.41782063
  0
VERTEX
  8
0
 10
2.14823504
 20
2.15779549
  0
VERTEX
  8
0
 10
1.98900745
 20
2.35207586
  0
VERTEX
  8
0
 10
2.38953224
 20
3.04656097
  0
SEQEND
  0
POLYLINE
  8
Default_Layer
 66
   1
 39
0.000000
 70
    1
  0
VERTEX
  8
0
 10
2.94058081
 20
2.39660481
  0
VERTEX
  8
0
 10
3.41568600
 20
1.99658900
  0
VERTEX
  8
0
 10
3.31255178
 20
1.87409483
  0
VERTEX
  8
0
 10
3.01512184
 20
2.12451659
  0
VERTEX
  8
0
 10
2.93834780
 20
2.03333083
  0
VERTEX
  8
0
 10
3.21425320
 20
1.80103170
  0
VERTEX
  8
0
 10
3.11573201
 20
1.68401650
  0
VERTEX
  8
0
 10
2.83982661
 20
1.91631563
  0
VERTEX
  8
0
 10
2.74460044
 20
1.80321398
  0
VERTEX
  8
0
 10
3.05064019
 20
1.54554317
  0
VERTEX
  8
0
 10
2.94124542
 20
1.41561325
  0
VERTEX
  8
0
 10
2.45753042
 20
1.82287811
  0
VERTEX
  8
0
 10
2.94058081
 20
2.39660481
  0
SEQEND
  0
POLYLINE
  8
Default_Layer
 66
   1
 39
0.000000
 70
    1
  0
VERTEX
  8
0
 10
3.28923129
 20
5.48393770
  0
VERTEX
  8
0
 10
3.29808484
 20
5.49868931
  0
VERTEX
  8
0
 10
3.30585694
 20
5.51442232
  0
VERTEX
  8
0
 10
3.32081262
 20
5.54646034
  0
VERTEX
  8
0
 10
3.32932409
 20
5.56157925
  0
VERTEX
  8
0
 10
3.33940993
 20
5.57530736
  0
VERTEX
  8
0
 10
3.34525072
 20
5.58146454
  0
VERTEX
  8
0
 10
3.35173408
 20
5.58705162
  0
VERTEX
  8
0
 10
3.35894301
 20
5.59199448
  0
VERTEX
  8
0
 10
3.36696050
 20
5.59621899
  0
VERTEX
  8
0
 10
3.38444758
 20
5.60707361
  0
VERTEX
  8
0
 10
3.40238929
 20
5.61699474
  0
VERTEX
  8
0
 10
3.42071603
 20
5.62611995
  0
VERTEX
  8
0
 10
3.43935823
 20
5.63458678
  0
VERTEX
  8
0
 10
3.47731067
 20
5.65009550
  0
VERTEX
  8
0
 10
3.51568997
 20
5.66462133
  0
VERTEX
  8
0
 10
3.77777200
 20
5.78559989
  0
VERTEX
  8
0
 10
4.03920683
 20
5.90775494
  0
VERTEX
  8
0
 10
4.30054958
 20
6.03001699
  0
VERTEX
  8
0
 10
4.56235536
 20
6.15131653
  0
VERTEX
  8
0
 10
4.58322169
 20
6.16277413
  0
VERTEX
  8
0
 10
4.60462049
 20
6.17350897
  0
VERTEX
  8
0
 10
4.62652213
 20
6.18326003
  0
VERTEX
  8
0
 10
4.64889693
 20
6.19176631
  0
VERTEX
  8
0
 10
4.67171524
 20
6.19876679
  0
VERTEX
  8
0
 10
4.69494740
 20
6.20400046
  0
VERTEX
  8
0
 10
4.71856375
 20
6.20720629
  0
VERTEX
  8
0
 10
4.74253464
 20
6.20812329
  0
VERTEX
  8
0
 10
4.76237914
 20
6.20697546
  0
VERTEX
  8
0
 10
4.78166185
 20
6.20308192
  0
VERTEX
  8
0
 10
4.80027685
 20
6.19675042
  0
VERTEX
  8
0
 10
4.81811822
 20
6.18828870
  0
VERTEX
  8
0
 10
4.83508005
 20
6.17800450
  0
VERTEX
  8
0
 10
4.85105641
 20
6.16620557
  0
VERTEX
  8
0
 10
4.86594138
 20
6.15319964
  0
VERTEX
  8
0
 10
4.87962906
 20
6.13929447
  0
VERTEX
  8
0
 10
4.90978277
 20
6.08901682
  0
VERTEX
  8
0
 10
4.93887158
 20
6.03809131
  0
VERTEX
  8
0
 10
4.99623907
 20
5.93570425
  0
VERTEX
  8
0
 10
5.01765197
 20
5.95184045
  0
VERTEX
  8
0
 10
5.00046143
 20
5.99316689
  0
VERTEX
  8
0
 10
5.01844943
 20
6.00284202
  0
VERTEX
  8
0
 10
5.03679534
 20
6.01181516
  0
VERTEX
  8
0
 10
5.07443679
 20
6.02772062
  0
VERTEX
  8
0
 10
5.11313759
 20
6.04101351
  0
VERTEX
  8
0
 10
5.15264956
 20
6.05182406
  0
VERTEX
  8
0
 10
5.17785526
 20
6.04348866
  0
VERTEX
  8
0
 10
5.16654096
 20
6.05528252
  0
VERTEX
  8
0
 10
5.15592979
 20
6.06886300
  0
VERTEX
  8
0
 10
5.14684368
 20
6.08374791
  0
VERTEX
  8
0
 10
5.14010455
 20
6.09945509
  0
VERTEX
  8
0
 10
5.13787195
 20
6.10746635
  0
VERTEX
  8
0
 10
5.13653432
 20
6.11550237
  0
VERTEX
  8
0
 10
5.13619439
 20
6.12350287
  0
VERTEX
  8
0
 10
5.13695491
 20
6.13140758
  0
VERTEX
  8
0
 10
5.13891862
 20
6.13915624
  0
VERTEX
  8
0
 10
5.14218825
 20
6.14668856
  0
VERTEX
  8
0
 10
5.14686654
 20
6.15394429
  0
VERTEX
  8
0
 10
5.15305625
 20
6.16086314
  0
VERTEX
  8
0
 10
5.23278708
 20
6.20693109
  0
VERTEX
  8
0
 10
5.31312129
 20
6.25192497
  0
VERTEX
  8
0
 10
5.47491416
 20
6.33989297
  0
VERTEX
  8
0
 10
5.63706351
 20
6.42717208
  0
VERTEX
  8
0
 10
5.71784332
 20
6.47130486
  0
VERTEX
  8
0
 10
5.79819800
 20
6.51616727
  0
VERTEX
  8
0
 10
5.86452987
 20
6.54853625
  0
VERTEX
  8
0
 10
5.92990126
 20
6.58274332
  0
VERTEX
  8
0
 10
5.99457064
 20
6.61829460
  0
VERTEX
  8
0
 10
6.05879650
 20
6.65469625
  0
VERTEX
  8
0
 10
6.18695159
 20
6.72807518
  0
VERTEX
  8
0
 10
6.25139778
 20
6.76406475
  0
VERTEX
  8
0
 10
6.31643439
 20
6.79892923
  0
VERTEX
  8
0
 10
6.44319504
 20
6.86708118
  0
VERTEX
  8
0
 10
6.56946854
 20
6.93618205
  0
VERTEX
  8
0
 10
6.69622085
 20
7.00437697
  0
VERTEX
  8
0
 10
6.76007843
 20
7.03755506
  0
VERTEX
  8
0
 10
6.82441796
 20
7.06981110
  0
VERTEX
  8
0
 10
6.94484766
 20
7.13827914
  0
VERTEX
  8
0
 10
7.06566873
 20
7.20604220
  0
VERTEX
  8
0
 10
7.30833777
 20
7.33967233
  0
VERTEX
  8
0
 10
7.55213063
 20
7.47113935
  0
VERTEX
  8
0
 10
7.79675287
 20
7.60088109
  0
VERTEX
  8
0
 10
7.83926384
 20
7.55823283
  0
VERTEX
  8
0
 10
7.88459882
 20
7.58124183
  0
VERTEX
  8
0
 10
7.87656860
 20
7.59859547
  0
VERTEX
  8
0
 10
7.87071705
 20
7.61650967
  0
VERTEX
  8
0
 10
7.86897257
 20
7.62567376
  0
VERTEX
  8
0
 10
7.86820991
 20
7.63497412
  0
VERTEX
  8
0
 10
7.86857478
 20
7.64440946
  0
VERTEX
  8
0
 10
7.87021292
 20
7.65397849
  0
VERTEX
  8
0
 10
7.90046738
 20
7.88428571
  0
VERTEX
  8
0
 10
7.91546866
 20
7.99947956
  0
VERTEX
  8
0
 10
7.93112000
 20
8.11456311
  0
VERTEX
  8
0
 10
7.93248498
 20
8.12470040
  0
VERTEX
  8
0
 10
7.93478826
 20
8.13452391
  0
VERTEX
  8
0
 10
7.93797655
 20
8.14399912
  0
VERTEX
  8
0
 10
7.94199655
 20
8.15309152
  0
VERTEX
  8
0
 10
7.94679497
 20
8.16176661
  0
VERTEX
  8
0
 10
7.95231851
 20
8.16998988
  0
VERTEX
  8
0
 10
7.95851387
 20
8.17772682
  0
VERTEX
  8
0
 10
7.96532777
 20
8.18494294
  0
VERTEX
  8
0
 10
7.97270690
 20
8.19160372
  0
VERTEX
  8
0
 10
7.98059798
 20
8.19767465
  0
VERTEX
  8
0
 10
7.98894770
 20
8.20312124
  0
VERTEX
  8
0
 10
7.99770277
 20
8.20790897
  0
VERTEX
  8
0
 10
8.00680990
 20
8.21200333
  0
VERTEX
  8
0
 10
8.01621580
 20
8.21536982
  0
VERTEX
  8
0
 10
8.02586716
 20
8.21797394
  0
VERTEX
  8
0
 10
8.03571069
 20
8.21978118
  0
VERTEX
  8
0
 10
8.05315809
 20
8.21913342
  0
VERTEX
  8
0
 10
8.07057335
 20
8.21624503
  0
VERTEX
  8
0
 10
8.08755671
 20
8.21116280
  0
VERTEX
  8
0
 10
8.10370839
 20
8.20393353
  0
VERTEX
  8
0
 10
8.11862863
 20
8.19460400
  0
VERTEX
  8
0
 10
8.13191765
 20
8.18322100
  0
VERTEX
  8
0
 10
8.13782553
 20
8.17677408
  0
VERTEX
  8
0
 10
8.14317569
 20
8.16983133
  0
VERTEX
  8
0
 10
8.14791816
 20
8.16239861
  0
VERTEX
  8
0
 10
8.15200298
 20
8.15448176
  0
VERTEX
  8
0
 10
8.27294190
 20
7.94042926
  0
VERTEX
  8
0
 10
8.39297050
 20
7.72573658
  0
VERTEX
  8
0
 10
8.64994833
 20
7.86926122
  0
VERTEX
  8
0
 10
8.90637565
 20
8.01376262
  0
VERTEX
  8
0
 10
9.16268064
 20
8.15848108
  0
VERTEX
  8
0
 10
9.41929147
 20
8.30265690
  0
VERTEX
  8
0
 10
9.43058309
 20
8.30900543
  0
VERTEX
  8
0
 10
9.44083225
 20
8.31661155
  0
VERTEX
  8
0
 10
9.45028189
 20
8.32518517
  0
VERTEX
  8
0
 10
9.45917495
 20
8.33443620
  0
VERTEX
  8
0
 10
9.47626315
 20
8.35381008
  0
VERTEX
  8
0
 10
9.48494418
 20
8.36335273
  0
VERTEX
  8
0
 10
9.49404042
 20
8.37241241
  0
VERTEX
  8
0
 10
9.52760138
 20
8.32760108
  0
VERTEX
  8
0
 10
9.53314874
 20
8.33533917
  0
VERTEX
  8
0
 10
9.53650117
 20
8.34357806
  0
VERTEX
  8
0
 10
9.53810938
 20
8.35221228
  0
VERTEX
  8
0
 10
9.53842409
 20
8.36113638
  0
VERTEX
  8
0
 10
9.53697587
 20
8.37943232
  0
VERTEX
  8
0
 10
9.53576225
 20
8.39762214
  0
VERTEX
  8
0
 10
9.54989761
 20
8.38636559
  0
VERTEX
  8
0
 10
9.56418009
 20
8.37501717
  0
VERTEX
  8
0
 10
9.57176260
 20
8.37054404
  0
VERTEX
  8
0
 10
9.57984521
 20
8.36753056
  0
VERTEX
  8
0
 10
9.58858238
 20
8.36647094
  0
VERTEX
  8
0
 10
9.59812853
 20
8.36785940
  0
VERTEX
  8
0
 10
9.57734594
 20
8.41495768
  0
VERTEX
  8
0
 10
9.72461667
 20
8.49760091
  0
VERTEX
  8
0
 10
9.87191722
 20
8.58064229
  0
VERTEX
  8
0
 10
9.93252305
 20
8.47344926
  0
VERTEX
  8
0
 10
9.96248229
 20
8.41965905
  0
VERTEX
  8
0
 10
9.99129595
 20
8.36522318
  0
VERTEX
  8
0
 10
9.91892795
 20
8.32380021
  0
VERTEX
  8
0
 10
9.84602829
 20
8.28334874
  0
VERTEX
  8
0
 10
9.77342460
 20
8.24242851
  0
VERTEX
  8
0
 10
9.73749238
 20
8.22134253
  0
VERTEX
  8
0
 10
9.70194452
 20
8.19959927
  0
VERTEX
  8
0
 10
9.67106818
 20
8.23694093
  0
VERTEX
  8
0
 10
9.66457855
 20
8.23015344
  0
VERTEX
  8
0
 10
9.66078351
 20
8.22272570
  0
VERTEX
  8
0
 10
9.65915957
 20
8.21479365
  0
VERTEX
  8
0
 10
9.65918321
 20
8.20649323
  0
VERTEX
  8
0
 10
9.66207921
 20
8.18933107
  0
VERTEX
  8
0
 10
9.66528347
 20
8.17232676
  0
VERTEX
  8
0
 10
9.65814827
 20
8.17673454
  0
VERTEX
  8
0
 10
9.65084716
 20
8.18204986
  0
VERTEX
  8
0
 10
9.63575269
 20
8.19254604
  0
VERTEX
  8
0
 10
9.62796203
 20
8.19629840
  0
VERTEX
  8
0
 10
9.62001090
 20
8.19810127
  0
VERTEX
  8
0
 10
9.61597558
 20
8.19804844
  0
VERTEX
  8
0
 10
9.61190065
 20
8.19724040
  0
VERTEX
  8
0
 10
9.60778628
 20
8.19558785
  0
VERTEX
  8
0
 10
9.60363264
 20
8.19300152
  0
VERTEX
  8
0
 10
9.61519635
 20
8.14782579
  0
VERTEX
  8
0
 10
9.58615272
 20
8.14473993
  0
VERTEX
  8
0
 10
9.55728447
 20
8.14111735
  0
VERTEX
  8
0
 10
9.42895550
 20
8.06724054
  0
VERTEX
  8
0
 10
9.30026031
 20
7.99396767
  0
VERTEX
  8
0
 10
9.04219717
 20
7.84852047
  0
VERTEX
  8
0
 10
8.78394679
 20
7.70334908
  0
VERTEX
  8
0
 10
8.52636093
 20
7.55702685
  0
VERTEX
  8
0
 10
8.54408435
 20
7.55274771
  0
VERTEX
  8
0
 10
8.56004305
 20
7.54601413
  0
VERTEX
  8
0
 10
8.57434606
 20
7.53708021
  0
VERTEX
  8
0
 10
8.58710241
 20
7.52620006
  0
VERTEX
  8
0
 10
8.59842112
 20
7.51362779
  0
VERTEX
  8
0
 10
8.60841122
 20
7.49961750
  0
VERTEX
  8
0
 10
8.61718173
 20
7.48442330
  0
VERTEX
  8
0
 10
8.62484168
 20
7.46829929
  0
VERTEX
  8
0
 10
8.61343208
 20
7.45669906
  0
VERTEX
  8
0
 10
8.60140927
 20
7.44541859
  0
VERTEX
  8
0
 10
8.58933916
 20
7.43412338
  0
VERTEX
  8
0
 10
8.57778765
 20
7.42247893
  0
VERTEX
  8
0
 10
8.56732063
 20
7.41015073
  0
VERTEX
  8
0
 10
8.55850401
 20
7.39680429
  0
VERTEX
  8
0
 10
8.55489144
 20
7.38964469
  0
VERTEX
  8
0
 10
8.55190368
 20
7.38210510
  0
VERTEX
  8
0
 10
8.54961146
 20
7.37414369
  0
VERTEX
  8
0
 10
8.54808554
 20
7.36571866
  0
VERTEX
  8
0
 10
8.48212349
 20
7.32938917
  0
VERTEX
  8
0
 10
8.46328326
 20
7.35924592
  0
VERTEX
  8
0
 10
8.44538053
 20
7.38969463
  0
VERTEX
  8
0
 10
8.42752604
 20
7.42017053
  0
VERTEX
  8
0
 10
8.40883051
 20
7.45010884
  0
VERTEX
  8
0
 10
8.38856428
 20
7.45106168
  0
VERTEX
  8
0
 10
8.36823202
 20
7.45072206
  0
VERTEX
  8
0
 10
8.35827894
 20
7.44945182
  0
VERTEX
  8
0
 10
8.34859472
 20
7.44711958
  0
VERTEX
  8
0
 10
8.33927448
 20
7.44347902
  0
VERTEX
  8
0
 10
8.33041334
 20
7.43828385
  0
VERTEX
  8
0
 10
8.24956627
 20
7.39299297
  0
VERTEX
  8
0
 10
8.20996686
 20
7.36904036
  0
VERTEX
  8
0
 10
8.19065691
 20
7.35632020
  0
VERTEX
  8
0
 10
8.17178155
 20
7.34294524
  0
VERTEX
  8
0
 10
8.19304003
 20
7.27992930
  0
VERTEX
  8
0
 10
8.20226181
 20
7.24805708
  0
VERTEX
  8
0
 10
8.20930491
 20
7.21562428
  0
VERTEX
  8
0
 10
8.22085930
 20
7.18945351
  0
VERTEX
  8
0
 10
8.23428110
 20
7.16412073
  0
VERTEX
  8
0
 10
8.26347521
 20
7.11454955
  0
VERTEX
  8
0
 10
8.27762168
 20
7.08960137
  0
VERTEX
  8
0
 10
8.29038387
 20
7.06407161
  0
VERTEX
  8
0
 10
8.30094885
 20
7.03760537
  0
VERTEX
  8
0
 10
8.30515335
 20
7.02391017
  0
VERTEX
  8
0
 10
8.30850370
 20
7.00984777
  0
VERTEX
  8
0
 10
8.25717008
 20
6.98515272
  0
VERTEX
  8
0
 10
8.23922438
 20
7.00788613
  0
VERTEX
  8
0
 10
8.22326245
 20
7.03182898
  0
VERTEX
  8
0
 10
8.20881949
 20
7.05669943
  0
VERTEX
  8
0
 10
8.19543069
 20
7.08221566
  0
VERTEX
  8
0
 10
8.16995630
 20
7.13405810
  0
VERTEX
  8
0
 10
8.15694110
 20
7.15982064
  0
VERTEX
  8
0
 10
8.14312081
 20
7.18510163
  0
VERTEX
  8
0
 10
8.11326522
 20
7.15891061
  0
VERTEX
  8
0
 10
8.08223801
 20
7.13434730
  0
VERTEX
  8
0
 10
8.08608907
 20
7.11425955
  0
VERTEX
  8
0
 10
8.08873163
 20
7.09391969
  0
VERTEX
  8
0
 10
8.08885429
 20
7.08380610
  0
VERTEX
  8
0
 10
8.08778030
 20
7.07381055
  0
VERTEX
  8
0
 10
8.08521148
 20
7.06399338
  0
VERTEX
  8
0
 10
8.08084965
 20
7.05441495
  0
VERTEX
  8
0
 10
8.00059569
 20
7.00675552
  0
VERTEX
  8
0
 10
7.91972226
 20
6.96013528
  0
VERTEX
  8
0
 10
7.75710053
 20
6.86836602
  0
VERTEX
  8
0
 10
7.67584397
 20
6.82239383
  0
VERTEX
  8
0
 10
7.59495147
 20
6.77581448
  0
VERTEX
  8
0
 10
7.51466890
 20
6.72821639
  0
VERTEX
  8
0
 10
7.43524213
 20
6.67918796
  0
VERTEX
  8
0
 10
7.40091253
 20
6.66099967
  0
VERTEX
  8
0
 10
7.36733413
 20
6.64158427
  0
VERTEX
  8
0
 10
7.30147011
 20
6.60063592
  0
VERTEX
  8
0
 10
7.23572843
 20
6.55947051
  0
VERTEX
  8
0
 10
7.20230295
 20
6.53978379
  0
VERTEX
  8
0
 10
7.16818744
 20
6.52121565
  0
VERTEX
  8
0
 10
6.99498417
 20
6.42256624
  0
VERTEX
  8
0
 10
6.82150072
 20
6.32444216
  0
VERTEX
  8
0
 10
6.64843558
 20
6.22563226
  0
VERTEX
  8
0
 10
6.56227816
 20
6.17559166
  0
VERTEX
  8
0
 10
6.47648725
 20
6.12492542
  0
VERTEX
  8
0
 10
6.42356477
 20
6.09619409
  0
VERTEX
  8
0
 10
6.37147738
 20
6.06612205
  0
VERTEX
  8
0
 10
6.32052258
 20
6.03420962
  0
VERTEX
  8
0
 10
6.29556288
 20
6.01740712
  0
VERTEX
  8
0
 10
6.27099789
 20
5.99995714
  0
VERTEX
  8
0
 10
6.18875911
 20
5.95155940
  0
VERTEX
  8
0
 10
6.10615107
 20
5.90379567
  0
VERTEX
  8
0
 10
5.94021990
 20
5.80950177
  0
VERTEX
  8
0
 10
5.77398967
 20
5.71573845
  0
VERTEX
  8
0
 10
5.60824573
 20
5.62116873
  0
VERTEX
  8
0
 10
5.59036458
 20
5.61047236
  0
VERTEX
  8
0
 10
5.57264085
 20
5.59863330
  0
VERTEX
  8
0
 10
5.55486083
 20
5.58649239
  0
VERTEX
  8
0
 10
5.53681078
 20
5.57489047
  0
VERTEX
  8
0
 10
5.51827699
 20
5.56466840
  0
VERTEX
  8
0
 10
5.49904574
 20
5.55666702
  0
VERTEX
  8
0
 10
5.48910178
 20
5.55376186
  0
VERTEX
  8
0
 10
5.47890330
 20
5.55172718
  0
VERTEX
  8
0
 10
5.46842360
 20
5.55066809
  0
VERTEX
  8
0
 10
5.45763595
 20
5.55068971
  0
VERTEX
  8
0
 10
5.44891259
 20
5.55978186
  0
VERTEX
  8
0
 10
5.44076123
 20
5.56935330
  0
VERTEX
  8
0
 10
5.42579816
 20
5.58958688
  0
VERTEX
  8
0
 10
5.41199405
 20
5.61069611
  0
VERTEX
  8
0
 10
5.39859621
 20
5.63198665
  0
VERTEX
  8
0
 10
5.36374442
 20
5.60774385
  0
VERTEX
  8
0
 10
5.32879068
 20
5.58368193
  0
VERTEX
  8
0
 10
5.29472311
 20
5.55849876
  0
VERTEX
  8
0
 10
5.27833044
 20
5.54507979
  0
VERTEX
  8
0
 10
5.26252985
 20
5.53089222
  0
VERTEX
  8
0
 10
5.25420634
 20
5.54127596
  0
VERTEX
  8
0
 10
5.24632674
 20
5.55236274
  0
VERTEX
  8
0
 10
5.23039749
 20
5.57455963
  0
VERTEX
  8
0
 10
5.22159694
 20
5.58462685
  0
VERTEX
  8
0
 10
5.21173853
 20
5.59331132
  0
VERTEX
  8
0
 10
5.20044681
 20
5.60009159
  0
VERTEX
  8
0
 10
5.19414613
 20
5.60260471
  0
VERTEX
  8
0
 10
5.18734633
 20
5.60444623
  0
VERTEX
  8
0
 10
5.20004371
 20
5.57745388
  0
VERTEX
  8
0
 10
5.21397042
 20
5.55104317
  0
VERTEX
  8
0
 10
5.22791073
 20
5.52460834
  0
VERTEX
  8
0
 10
5.24064889
 20
5.49754363
  0
VERTEX
  8
0
 10
5.23815172
 20
5.48836411
  0
VERTEX
  8
0
 10
5.23470559
 20
5.47952612
  0
VERTEX
  8
0
 10
5.22566283
 20
5.46264166
  0
VERTEX
  8
0
 10
5.21491352
 20
5.44642401
  0
VERTEX
  8
0
 10
5.20385055
 20
5.43040696
  0
VERTEX
  8
0
 10
5.19386683
 20
5.41412427
  0
VERTEX
  8
0
 10
5.18971496
 20
5.40573761
  0
VERTEX
  8
0
 10
5.18635524
 20
5.39710970
  0
VERTEX
  8
0
 10
5.18396178
 20
5.38818228
  0
VERTEX
  8
0
 10
5.18270869
 20
5.37889704
  0
VERTEX
  8
0
 10
5.18277008
 20
5.36919573
  0
VERTEX
  8
0
 10
5.18432007
 20
5.35902006
  0
VERTEX
  8
0
 10
5.18829142
 20
5.34384005
  0
VERTEX
  8
0
 10
5.19302682
 20
5.32896554
  0
VERTEX
  8
0
 10
5.20447278
 20
5.30000997
  0
VERTEX
  8
0
 10
5.21802403
 20
5.27190729
  0
VERTEX
  8
0
 10
5.23304663
 20
5.24441143
  0
VERTEX
  8
0
 10
5.26497018
 20
5.19025592
  0
VERTEX
  8
0
 10
5.28060326
 20
5.16310413
  0
VERTEX
  8
0
 10
5.29517196
 20
5.13557490
  0
VERTEX
  8
0
 10
5.29810540
 20
5.12858754
  0
VERTEX
  8
0
 10
5.30165148
 20
5.12225011
  0
VERTEX
  8
0
 10
5.31034708
 20
5.11127665
  0
VERTEX
  8
0
 10
5.32078990
 20
5.10215788
  0
VERTEX
  8
0
 10
5.33251106
 20
5.09439716
  0
VERTEX
  8
0
 10
5.35791297
 20
5.08096330
  0
VERTEX
  8
0
 10
5.37065596
 20
5.07429688
  0
VERTEX
  8
0
 10
5.38280182
 20
5.06700194
  0
VERTEX
  8
0
 10
5.36484846
 20
5.04126935
  0
VERTEX
  8
0
 10
5.34612862
 20
5.01599457
  0
VERTEX
  8
0
 10
5.37589590
 20
4.96003586
  0
VERTEX
  8
0
 10
5.40658119
 20
4.90456276
  0
VERTEX
  8
0
 10
5.43806235
 20
4.84953823
  0
VERTEX
  8
0
 10
5.47021726
 20
4.79492521
  0
VERTEX
  8
0
 10
5.50386805
 20
4.74965945
  0
VERTEX
  8
0
 10
5.53850041
 20
4.70523739
  0
VERTEX
  8
0
 10
5.57403765
 20
4.66159644
  0
VERTEX
  8
0
 10
5.61040309
 20
4.61867401
  0
VERTEX
  8
0
 10
5.64752002
 20
4.57640752
  0
VERTEX
  8
0
 10
5.68531175
 20
4.53473437
  0
VERTEX
  8
0
 10
5.76261286
 20
4.45291773
  0
VERTEX
  8
0
 10
5.84169287
 20
4.37272338
  0
VERTEX
  8
0
 10
5.92193822
 20
4.29365060
  0
VERTEX
  8
0
 10
6.08347079
 20
4.13686685
  0
VERTEX
  8
0
 10
6.06780257
 20
4.11271349
  0
VERTEX
  8
0
 10
6.05131503
 20
4.08908350
  0
VERTEX
  8
0
 10
6.03340898
 20
4.06656073
  0
VERTEX
  8
0
 10
6.02373677
 20
4.05589702
  0
VERTEX
  8
0
 10
6.01348523
 20
4.04572906
  0
VERTEX
  8
0
 10
5.97850130
 20
4.01557545
  0
VERTEX
  8
0
 10
5.94432637
 20
3.98449742
  0
VERTEX
  8
0
 10
5.91094598
 20
3.95255236
  0
VERTEX
  8
0
 10
5.87834566
 20
3.91979766
  0
VERTEX
  8
0
 10
5.84651093
 20
3.88629071
  0
VERTEX
  8
0
 10
5.81542733
 20
3.85208889
  0
VERTEX
  8
0
 10
5.78508039
 20
3.81724960
  0
VERTEX
  8
0
 10
5.75545564
 20
3.78183022
  0
VERTEX
  8
0
 10
5.71464823
 20
3.74749900
  0
VERTEX
  8
0
 10
5.69415366
 20
3.73028317
  0
VERTEX
  8
0
 10
5.67326662
 20
3.71362274
  0
VERTEX
  8
0
 10
5.65173820
 20
3.69795934
  0
VERTEX
  8
0
 10
5.62931946
 20
3.68373463
  0
VERTEX
  8
0
 10
5.60576149
 20
3.67139027
  0
VERTEX
  8
0
 10
5.59347751
 20
3.66606124
  0
VERTEX
  8
0
 10
5.58081538
 20
3.66136790
  0
VERTEX
  8
0
 10
5.54451064
 20
3.69208462
  0
VERTEX
  8
0
 10
5.50871289
 20
3.72335942
  0
VERTEX
  8
0
 10
5.43854563
 20
3.78746055
  0
VERTEX
  8
0
 10
5.37012821
 20
3.85342580
  0
VERTEX
  8
0
 10
5.30327528
 20
3.92100966
  0
VERTEX
  8
0
 10
5.23780143
 20
3.98996665
  0
VERTEX
  8
0
 10
5.17352130
 20
4.06005126
  0
VERTEX
  8
0
 10
5.11024950
 20
4.13101799
  0
VERTEX
  8
0
 10
5.04780067
 20
4.20262135
  0
VERTEX
  8
0
 10
5.01162216
 20
4.24525330
  0
VERTEX
  8
0
 10
4.97724685
 20
4.28918955
  0
VERTEX
  8
0
 10
4.94428806
 20
4.33415059
  0
VERTEX
  8
0
 10
4.91235913
 20
4.37985692
  0
VERTEX
  8
0
 10
4.85004409
 20
4.47238740
  0
VERTEX
  8
0
 10
4.81888463
 20
4.51865254
  0
VERTEX
  8
0
 10
4.78720833
 20
4.56454495
  0
VERTEX
  8
0
 10
4.76831936
 20
4.55467584
  0
VERTEX
  8
0
 10
4.74877126
 20
4.54639558
  0
VERTEX
  8
0
 10
4.70869079
 20
4.53226154
  0
VERTEX
  8
0
 10
4.68865500
 20
4.52523774
  0
VERTEX
  8
0
 10
4.66895321
 20
4.51746274
  0
VERTEX
  8
0
 10
4.64983372
 20
4.50835152
  0
VERTEX
  8
0
 10
4.63154481
 20
4.49731908
  0
VERTEX
  8
0
 10
4.59639602
 20
4.47628734
  0
VERTEX
  8
0
 10
4.56048415
 20
4.45636282
  0
VERTEX
  8
0
 10
4.48815365
 20
4.41726494
  0
VERTEX
  8
0
 10
4.45262622
 20
4.39680632
  0
VERTEX
  8
0
 10
4.41811816
 20
4.37488443
  0
VERTEX
  8
0
 10
4.40138564
 20
4.36317394
  0
VERTEX
  8
0
 10
4.38507507
 20
4.35085664
  0
VERTEX
  8
0
 10
4.36924214
 20
4.33785221
  0
VERTEX
  8
0
 10
4.35394256
 20
4.32408033
  0
VERTEX
  8
0
 10
4.33914548
 20
4.31401025
  0
VERTEX
  8
0
 10
4.32371903
 20
4.30486653
  0
VERTEX
  8
0
 10
4.29201497
 20
4.28788493
  0
VERTEX
  8
0
 10
4.27625580
 20
4.27931041
  0
VERTEX
  8
0
 10
4.26090417
 20
4.27018901
  0
VERTEX
  8
0
 10
4.24621932
 20
4.26015239
  0
VERTEX
  8
0
 10
4.23246045
 20
4.24883225
  0
VERTEX
  8
0
 10
4.22854986
 20
4.23975203
  0
VERTEX
  8
0
 10
4.22540253
 20
4.23048181
  0
VERTEX
  8
0
 10
4.22113001
 20
4.21145688
  0
VERTEX
  8
0
 10
4.21910755
 20
4.19192845
  0
VERTEX
  8
0
 10
4.21879985
 20
4.17206754
  0
VERTEX
  8
0
 10
4.21967159
 20
4.15204512
  0
VERTEX
  8
0
 10
4.22118745
 20
4.13203220
  0
VERTEX
  8
0
 10
4.22401027
 20
4.09271884
  0
VERTEX
  8
0
 10
4.23503641
 20
4.08255806
  0
VERTEX
  8
0
 10
4.24720581
 20
4.07355803
  0
VERTEX
  8
0
 10
4.27236300
 20
4.05658329
  0
VERTEX
  8
0
 10
4.28404509
 20
4.04738011
  0
VERTEX
  8
0
 10
4.29425905
 20
4.03688074
  0
VERTEX
  8
0
 10
4.29861146
 20
4.03095303
  0
VERTEX
  8
0
 10
4.30235202
 20
4.02447094
  0
VERTEX
  8
0
 10
4.30539913
 20
4.01735768
  0
VERTEX
  8
0
 10
4.30767117
 20
4.00953648
  0
VERTEX
  8
0
 10
4.29389944
 20
4.00306294
  0
VERTEX
  8
0
 10
4.27887661
 20
3.99722691
  0
VERTEX
  8
0
 10
4.26359446
 20
3.99130829
  0
VERTEX
  8
0
 10
4.24904478
 20
3.98458695
  0
VERTEX
  8
0
 10
4.23621934
 20
3.97634281
  0
VERTEX
  8
0
 10
4.23076315
 20
3.97142464
  0
VERTEX
  8
0
 10
4.22610993
 20
3.96585573
  0
VERTEX
  8
0
 10
4.22238366
 20
3.95954606
  0
VERTEX
  8
0
 10
4.21970831
 20
3.95240562
  0
VERTEX
  8
0
 10
4.21820786
 20
3.94434439
  0
VERTEX
  8
0
 10
4.21800628
 20
3.93527236
  0
VERTEX
  8
0
 10
4.21438264
 20
3.86035381
  0
VERTEX
  8
0
 10
4.21297823
 20
3.78530366
  0
VERTEX
  8
0
 10
4.21227549
 20
3.63510335
  0
VERTEX
  8
0
 10
4.21246485
 20
3.62623482
  0
VERTEX
  8
0
 10
4.21438353
 20
3.61814755
  0
VERTEX
  8
0
 10
4.21776000
 20
3.61072550
  0
VERTEX
  8
0
 10
4.22232278
 20
3.60385264
  0
VERTEX
  8
0
 10
4.22780034
 20
3.59741294
  0
VERTEX
  8
0
 10
4.23392119
 20
3.59129038
  0
VERTEX
  8
0
 10
4.24700673
 20
3.57953250
  0
VERTEX
  8
0
 10
4.25940733
 20
3.56765077
  0
VERTEX
  8
0
 10
4.26467201
 20
3.56137337
  0
VERTEX
  8
0
 10
4.26895095
 20
3.55471692
  0
VERTEX
  8
0
 10
4.27197263
 20
3.54756537
  0
VERTEX
  8
0
 10
4.27346554
 20
3.53980270
  0
VERTEX
  8
0
 10
4.27315819
 20
3.53131288
  0
VERTEX
  8
0
 10
4.27077906
 20
3.52197987
  0
VERTEX
  8
0
 10
4.26910395
 20
3.51521672
  0
VERTEX
  8
0
 10
4.26673985
 20
3.50897342
  0
VERTEX
  8
0
 10
4.26374229
 20
3.50322416
  0
VERTEX
  8
0
 10
4.26016676
 20
3.49794313
  0
VERTEX
  8
0
 10
4.25150389
 20
3.48868248
  0
VERTEX
  8
0
 10
4.24119535
 20
3.48098496
  0
VERTEX
  8
0
 10
4.22968525
 20
3.47464405
  0
VERTEX
  8
0
 10
4.21741770
 20
3.46945325
  0
VERTEX
  8
0
 10
4.20483681
 20
3.46520605
  0
VERTEX
  8
0
 10
4.19238668
 20
3.46169592
  0
VERTEX
  8
0
 10
3.96512379
 20
3.40129645
  0
VERTEX
  8
0
 10
3.85145168
 20
3.37147898
  0
VERTEX
  8
0
 10
3.73762414
 20
3.34267027
  0
VERTEX
  8
0
 10
3.72995559
 20
3.34434466
  0
VERTEX
  8
0
 10
3.72326815
 20
3.34690320
  0
VERTEX
  8
0
 10
3.71750151
 20
3.35026574
  0
VERTEX
  8
0
 10
3.71259533
 20
3.35435207
  0
VERTEX
  8
0
 10
3.70848930
 20
3.35908204
  0
VERTEX
  8
0
 10
3.70512308
 20
3.36437545
  0
VERTEX
  8
0
 10
3.70243636
 20
3.37015213
  0
VERTEX
  8
0
 10
3.70036880
 20
3.37633191
  0
VERTEX
  8
0
 10
3.69784988
 20
3.38958002
  0
VERTEX
  8
0
 10
3.69708372
 20
3.40347836
  0
VERTEX
  8
0
 10
3.69758771
 20
3.41738550
  0
VERTEX
  8
0
 10
3.69887926
 20
3.43066001
  0
VERTEX
  8
0
 10
3.78304133
 20
4.23128944
  0
VERTEX
  8
0
 10
3.78442300
 20
4.25220089
  0
VERTEX
  8
0
 10
3.78340744
 20
4.27297478
  0
VERTEX
  8
0
 10
3.78014530
 20
4.29346364
  0
VERTEX
  8
0
 10
3.77478723
 20
4.31351998
  0
VERTEX
  8
0
 10
3.76748387
 20
4.33299635
  0
VERTEX
  8
0
 10
3.75838588
 20
4.35174526
  0
VERTEX
  8
0
 10
3.74764389
 20
4.36961924
  0
VERTEX
  8
0
 10
3.73540857
 20
4.38647082
  0
VERTEX
  8
0
 10
3.72568857
 20
4.39566818
  0
VERTEX
  8
0
 10
3.71525650
 20
4.40408635
  0
VERTEX
  8
0
 10
3.70418894
 20
4.41169649
  0
VERTEX
  8
0
 10
3.69256249
 20
4.41846976
  0
VERTEX
  8
0
 10
3.68045371
 20
4.42437733
  0
VERTEX
  8
0
 10
3.66793920
 20
4.42939036
  0
VERTEX
  8
0
 10
3.65509553
 20
4.43348001
  0
VERTEX
  8
0
 10
3.64199929
 20
4.43661745
  0
VERTEX
  8
0
 10
3.62872705
 20
4.43877385
  0
VERTEX
  8
0
 10
3.61535540
 20
4.43992036
  0
VERTEX
  8
0
 10
3.60196093
 20
4.44002815
  0
VERTEX
  8
0
 10
3.58862020
 20
4.43906839
  0
VERTEX
  8
0
 10
3.57540982
 20
4.43701224
  0
VERTEX
  8
0
 10
3.56240635
 20
4.43383086
  0
VERTEX
  8
0
 10
3.54968638
 20
4.42949542
  0
VERTEX
  8
0
 10
3.53732649
 20
4.42397708
  0
VERTEX
  8
0
 10
3.50874654
 20
4.40992412
  0
VERTEX
  8
0
 10
3.48068026
 20
4.39476242
  0
VERTEX
  8
0
 10
3.46738505
 20
4.38615949
  0
VERTEX
  8
0
 10
3.45487261
 20
4.37655182
  0
VERTEX
  8
0
 10
3.44336108
 20
4.36569688
  0
VERTEX
  8
0
 10
3.43306855
 20
4.35335216
  0
VERTEX
  8
0
 10
3.40962562
 20
4.32767035
  0
VERTEX
  8
0
 10
3.38484721
 20
4.30345240
  0
VERTEX
  8
0
 10
3.35900990
 20
4.28040136
  0
VERTEX
  8
0
 10
3.33239031
 20
4.25822028
  0
VERTEX
  8
0
 10
3.27791068
 20
4.21528021
  0
VERTEX
  8
0
 10
3.22362113
 20
4.17225661
  0
VERTEX
  8
0
 10
3.12155819
 20
4.06361200
  0
VERTEX
  8
0
 10
3.02056446
 20
3.95395130
  0
VERTEX
  8
0
 10
2.82046823
 20
3.73281786
  0
VERTEX
  8
0
 10
2.62069956
 20
3.51132880
  0
VERTEX
  8
0
 10
2.52011527
 20
3.40122357
  0
VERTEX
  8
0
 10
2.41862553
 20
3.29195661
  0
VERTEX
  8
0
 10
2.35201897
 20
3.21621361
  0
VERTEX
  8
0
 10
2.28469170
 20
3.14108330
  0
VERTEX
  8
0
 10
2.14890088
 20
2.99178510
  0
VERTEX
  8
0
 10
2.01330474
 20
2.84231063
  0
VERTEX
  8
0
 10
1.94622083
 20
2.76695997
  0
VERTEX
  8
0
 10
1.87995497
 20
2.69090848
  0
VERTEX
  8
0
 10
1.90998595
 20
2.67791043
  0
VERTEX
  8
0
 10
1.94052750
 20
2.66625479
  0
VERTEX
  8
0
 10
2.00244299
 20
2.64513864
  0
VERTEX
  8
0
 10
2.06430279
 20
2.62389576
  0
VERTEX
  8
0
 10
2.09477472
 20
2.61208172
  0
VERTEX
  8
0
 10
2.12470824
 20
2.59886190
  0
VERTEX
  8
0
 10
2.13202278
 20
2.59465747
  0
VERTEX
  8
0
 10
2.13770486
 20
2.58898678
  0
VERTEX
  8
0
 10
2.14210887
 20
2.58218660
  0
VERTEX
  8
0
 10
2.14558920
 20
2.57459372
  0
VERTEX
  8
0
 10
2.15119639
 20
2.55837701
  0
VERTEX
  8
0
 10
2.15403205
 20
2.55042674
  0
VERTEX
  8
0
 10
2.15736159
 20
2.54303091
  0
VERTEX
  8
0
 10
2.14928051
 20
2.53929264
  0
VERTEX
  8
0
 10
2.14117143
 20
2.53455742
  0
VERTEX
  8
0
 10
2.12470651
 20
2.52462616
  0
VERTEX
  8
0
 10
2.11626931
 20
2.52069512
  0
VERTEX
  8
0
 10
2.10764137
 20
2.51829714
  0
VERTEX
  8
0
 10
2.09878200
 20
2.51806473
  0
VERTEX
  8
0
 10
2.09425282
 20
2.51895827
  0
VERTEX
  8
0
 10
2.08965052
 20
2.52063039
  0
VERTEX
  8
0
 10
2.05558312
 20
2.53325820
  0
VERTEX
  8
0
 10
2.02091356
 20
2.54473429
  0
VERTEX
  8
0
 10
1.95127087
 20
2.56723134
  0
VERTEX
  8
0
 10
1.91704918
 20
2.57975233
  0
VERTEX
  8
0
 10
1.88372822
 20
2.59412164
  0
VERTEX
  8
0
 10
1.86752292
 20
2.60223379
  0
VERTEX
  8
0
 10
1.85168371
 20
2.61108927
  0
VERTEX
  8
0
 10
1.83625754
 20
2.62078185
  0
VERTEX
  8
0
 10
1.82129138
 20
2.63140526
  0
VERTEX
  8
0
 10
1.80422234
 20
2.61343738
  0
VERTEX
  8
0
 10
1.78748559
 20
2.59478038
  0
VERTEX
  8
0
 10
1.75451181
 20
2.55622117
  0
VERTEX
  8
0
 10
1.72137579
 20
2.51737190
  0
VERTEX
  8
0
 10
1.68708326
 20
2.47987684
  0
VERTEX
  8
0
 10
1.66919260
 20
2.46215097
  0
VERTEX
  8
0
 10
1.65063996
 20
2.44538025
  0
VERTEX
  8
0
 10
1.63130108
 20
2.42977021
  0
VERTEX
  8
0
 10
1.61105166
 20
2.41552639
  0
VERTEX
  8
0
 10
1.58976742
 20
2.40285432
  0
VERTEX
  8
0
 10
1.56732408
 20
2.39195954
  0
VERTEX
  8
0
 10
1.54359736
 20
2.38304757
  0
VERTEX
  8
0
 10
1.51846297
 20
2.37632395
  0
VERTEX
  8
0
 10
1.47964386
 20
2.42775826
  0
VERTEX
  8
0
 10
1.44286553
 20
2.48053345
  0
VERTEX
  8
0
 10
1.40822444
 20
2.53470390
  0
VERTEX
  8
0
 10
1.37581708
 20
2.59032396
  0
VERTEX
  8
0
 10
1.34807215
 20
2.62722356
  0
VERTEX
  8
0
 10
1.32228538
 20
2.66539563
  0
VERTEX
  8
0
 10
1.29780897
 20
2.70442143
  0
VERTEX
  8
0
 10
1.27399508
 20
2.74388220
  0
VERTEX
  8
0
 10
1.25019588
 20
2.78335919
  0
VERTEX
  8
0
 10
1.22576354
 20
2.82243366
  0
VERTEX
  8
0
 10
1.20005023
 20
2.86068685
  0
VERTEX
  8
0
 10
1.17240812
 20
2.89770002
  0
VERTEX
  8
0
 10
1.14962935
 20
2.93821856
  0
VERTEX
  8
0
 10
1.12517889
 20
2.97763999
  0
VERTEX
  8
0
 10
1.09962401
 20
3.01633569
  0
VERTEX
  8
0
 10
1.07353199
 20
3.05467700
  0
VERTEX
  8
0
 10
1.04747012
 20
3.09303531
  0
VERTEX
  8
0
 10
1.02200567
 20
3.13178197
  0
VERTEX
  8
0
 10
0.99770594
 20
3.17128836
  0
VERTEX
  8
0
 10
0.97513821
 20
3.21192584
  0
VERTEX
  8
0
 10
0.95112362
 20
3.24459370
  0
VERTEX
  8
0
 10
0.92798413
 20
3.27786204
  0
VERTEX
  8
0
 10
0.90568454
 20
3.31169114
  0
VERTEX
  8
0
 10
0.88418963
 20
3.34604129
  0
VERTEX
  8
0
 10
0.86346417
 20
3.38087279
  0
VERTEX
  8
0
 10
0.84347296
 20
3.41614592
  0
VERTEX
  8
0
 10
0.82418077
 20
3.45182097
  0
VERTEX
  8
0
 10
0.80555238
 20
3.48785823
  0
VERTEX
  8
0
 10
0.81420071
 20
3.50134352
  0
VERTEX
  8
0
 10
0.82447272
 20
3.51306859
  0
VERTEX
  8
0
 10
0.83606759
 20
3.52333459
  0
VERTEX
  8
0
 10
0.84868449
 20
3.53244269
  0
VERTEX
  8
0
 10
0.86202259
 20
3.54069407
  0
VERTEX
  8
0
 10
0.87578105
 20
3.54838990
  0
VERTEX
  8
0
 10
0.90335577
 20
3.56331958
  0
VERTEX
  8
0
 10
3.00024296
 20
4.74480910
  0
VERTEX
  8
0
 10
3.07033860
 20
4.78381261
  0
VERTEX
  8
0
 10
3.10528195
 20
4.80346800
  0
VERTEX
  8
0
 10
3.13985895
 20
4.82366768
  0
VERTEX
  8
0
 10
3.17384707
 20
4.84474305
  0
VERTEX
  8
0
 10
3.20702378
 20
4.86702550
  0
VERTEX
  8
0
 10
3.23916654
 20
4.89084643
  0
VERTEX
  8
0
 10
3.27005284
 20
4.91653724
  0
VERTEX
  8
0
 10
3.25473412
 20
4.94258447
  0
VERTEX
  8
0
 10
3.24729008
 20
4.95599956
  0
VERTEX
  8
0
 10
3.24068727
 20
4.96972988
  0
VERTEX
  8
0
 10
3.23544896
 20
4.98381613
  0
VERTEX
  8
0
 10
3.23209840
 20
4.99829898
  0
VERTEX
  8
0
 10
3.23115886
 20
5.01321914
  0
VERTEX
  8
0
 10
3.23175674
 20
5.02085591
  0
VERTEX
  8
0
 10
3.23315360
 20
5.02861727
  0
VERTEX
  8
0
 10
3.28791922
 20
5.07041561
  0
VERTEX
  8
0
 10
3.34299879
 20
5.11188243
  0
VERTEX
  8
0
 10
3.32727252
 20
5.21346010
  0
VERTEX
  8
0
 10
3.31993372
 20
5.26436173
  0
VERTEX
  8
0
 10
3.31385625
 20
5.31544991
  0
VERTEX
  8
0
 10
3.35869327
 20
5.34716100
  0
VERTEX
  8
0
 10
3.32108310
 20
5.41411728
  0
VERTEX
  8
0
 10
3.30379182
 20
5.44837712
  0
VERTEX
  8
0
 10
3.29608951
 20
5.46595828
  0
VERTEX
  8
0
 10
3.28923129
 20
5.48393770
  0
SEQEND
  0
POLYLINE
  8
Default_Layer
 66
   1
 39
0.000000
 70
    1
  0
VERTEX
  8
0
 10
3.78785514
 20
5.60904063
  0
VERTEX
  8
0
 10
3.78256625
 20
5.59939817
  0
VERTEX
  8
0
 10
3.77821725
 20
5.58953070
  0
VERTEX
  8
0
 10
3.77472236
 20
5.57946138
  0
VERTEX
  8
0
 10
3.77199580
 20
5.56921335
  0
VERTEX
  8
0
 10
3.76850446
 20
5.54827378
  0
VERTEX
  8
0
 10
3.76705690
 20
5.52689718
  0
VERTEX
  8
0
 10
3.76696682
 20
5.50526875
  0
VERTEX
  8
0
 10
3.76754788
 20
5.48357368
  0
VERTEX
  8
0
 10
3.76811375
 20
5.46199718
  0
VERTEX
  8
0
 10
3.76797813
 20
5.44072442
  0
VERTEX
  8
0
 10
3.76778774
 20
5.43058832
  0
VERTEX
  8
0
 10
3.76885257
 20
5.42073068
  0
VERTEX
  8
0
 10
3.77099244
 20
5.41112936
  0
VERTEX
  8
0
 10
3.77402714
 20
5.40176227
  0
VERTEX
  8
0
 10
3.78206028
 20
5.38364229
  0
VERTEX
  8
0
 10
3.79151042
 20
5.36619385
  0
VERTEX
  8
0
 10
3.82007632
 20
5.37765224
  0
VERTEX
  8
0
 10
3.84801733
 20
5.39043079
  0
VERTEX
  8
0
 10
3.87546319
 20
5.40425702
  0
VERTEX
  8
0
 10
3.90254363
 20
5.41885846
  0
VERTEX
  8
0
 10
3.95612721
 20
5.44929709
  0
VERTEX
  8
0
 10
4.00980594
 20
5.47956690
  0
VERTEX
  8
0
 10
4.19633056
 20
5.58502788
  0
VERTEX
  8
0
 10
4.38329169
 20
5.68968619
  0
VERTEX
  8
0
 10
4.57014714
 20
5.79447562
  0
VERTEX
  8
0
 10
4.75635473
 20
5.90032994
  0
VERTEX
  8
0
 10
4.78107799
 20
5.91537119
  0
VERTEX
  8
0
 10
4.79369155
 20
5.92290471
  0
VERTEX
  8
0
 10
4.80592601
 20
5.93089588
  0
VERTEX
  8
0
 10
4.81737109
 20
5.93968151
  0
VERTEX
  8
0
 10
4.82761649
 20
5.94959841
  0
VERTEX
  8
0
 10
4.83625193
 20
5.96098336
  0
VERTEX
  8
0
 10
4.84286713
 20
5.97417316
  0
VERTEX
  8
0
 10
4.84674395
 20
5.98286597
  0
VERTEX
  8
0
 10
4.84966167
 20
5.99172404
  0
VERTEX
  8
0
 10
4.85166306
 20
6.00070669
  0
VERTEX
  8
0
 10
4.85279092
 20
6.00977325
  0
VERTEX
  8
0
 10
4.85308804
 20
6.01888303
  0
VERTEX
  8
0
 10
4.85259721
 20
6.02799534
  0
VERTEX
  8
0
 10
4.84942285
 20
6.04606487
  0
VERTEX
  8
0
 10
4.84361016
 20
6.06365639
  0
VERTEX
  8
0
 10
4.83550148
 20
6.08044443
  0
VERTEX
  8
0
 10
4.82543911
 20
6.09610355
  0
VERTEX
  8
0
 10
4.81376538
 20
6.11030830
  0
VERTEX
  8
0
 10
4.79629094
 20
6.11912744
  0
VERTEX
  8
0
 10
4.77792717
 20
6.12632118
  0
VERTEX
  8
0
 10
4.75895993
 20
6.13156204
  0
VERTEX
  8
0
 10
4.73967510
 20
6.13452254
  0
VERTEX
  8
0
 10
4.72035854
 20
6.13487521
  0
VERTEX
  8
0
 10
4.71077770
 20
6.13397126
  0
VERTEX
  8
0
 10
4.70129612
 20
6.13229255
  0
VERTEX
  8
0
 10
4.69194953
 20
6.12979814
  0
VERTEX
  8
0
 10
4.68277369
 20
6.12644710
  0
VERTEX
  8
0
 10
4.67380430
 20
6.12219849
  0
VERTEX
  8
0
 10
4.66507712
 20
6.11701137
  0
VERTEX
  8
0
 10
4.46556179
 20
6.00563224
  0
VERTEX
  8
0
 10
4.26646038
 20
5.89340592
  0
VERTEX
  8
0
 10
4.06744053
 20
5.78103490
  0
VERTEX
  8
0
 10
3.86816988
 20
5.66922164
  0
VERTEX
  8
0
 10
3.84640665
 20
5.65646043
  0
VERTEX
  8
0
 10
3.82508080
 20
5.64275404
  0
VERTEX
  8
0
 10
3.81490329
 20
5.63527569
  0
VERTEX
  8
0
 10
3.80522081
 20
5.62723620
  0
VERTEX
  8
0
 10
3.79616190
 20
5.61852727
  0
VERTEX
  8
0
 10
3.78785514
 20
5.60904063
  0
SEQEND
  0
POLYLINE
  8
Default_Layer
 66
   1
 39
0.000000
 70
    1
  0
VERTEX
  8
0
 10
8.01109170
 20
7.97116785
  0
VERTEX
  8
0
 10
8.00646800
 20
7.93064706
  0
VERTEX
  8
0
 10
8.00119440
 20
7.89015522
  0
VERTEX
  8
0
 10
7.99034776
 20
7.80916364
  0
VERTEX
  8
0
 10
7.98559986
 20
7.76861654
  0
VERTEX
  8
0
 10
7.98185232
 20
7.72800365
  0
VERTEX
  8
0
 10
7.97951773
 20
7.68730127
  0
VERTEX
  8
0
 10
7.97900864
 20
7.64648573
  0
VERTEX
  8
0
 10
8.05225143
 20
7.68510206
  0
VERTEX
  8
0
 10
8.12487640
 20
7.72492733
  0
VERTEX
  8
0
 10
8.19665861
 20
7.76624788
  0
VERTEX
  8
0
 10
8.26737312
 20
7.80935006
  0
VERTEX
  8
0
 10
8.22974803
 20
7.87610727
  0
VERTEX
  8
0
 10
8.19135118
 20
7.94242950
  0
VERTEX
  8
0
 10
8.15504883
 20
7.93090948
  0
VERTEX
  8
0
 10
8.11837116
 20
7.92095752
  0
VERTEX
  8
0
 10
8.08925553
 20
7.97344359
  0
VERTEX
  8
0
 10
8.07380536
 20
7.99918369
  0
VERTEX
  8
0
 10
8.05763167
 20
8.02451601
  0
VERTEX
  8
0
 10
8.04176668
 20
8.01417342
  0
VERTEX
  8
0
 10
8.03367495
 20
8.00900275
  0
VERTEX
  8
0
 10
8.02612598
 20
8.00343290
  0
VERTEX
  8
0
 10
8.01960647
 20
7.99716418
  0
VERTEX
  8
0
 10
8.01460313
 20
7.98989689
  0
VERTEX
  8
0
 10
8.01160264
 20
7.98133135
  0
VERTEX
  8
0
 10
8.01109170
 20
7.97116785
  0
SEQEND
  0
POLYLINE
  8
Default_Layer
 66
   1
 39
0.000000
 70
    1
  0
VERTEX
  8
0
 10
8.03816997
 20
7.56407091
  0
VERTEX
  8
0
 10
8.05259654
 20
7.53847422
  0
VERTEX
  8
0
 10
8.25852773
 20
7.65453928
  0
VERTEX
  8
0
 10
8.24390003
 20
7.68019211
  0
VERTEX
  8
0
 10
8.14076928
 20
7.62249020
  0
VERTEX
  8
0
 10
8.03816997
 20
7.56407091
  0
SEQEND
  0
POLYLINE
  8
Default_Layer
 66
   1
 39
0.000000
 70
    1
  0
VERTEX
  8
0
 10
9.67740577
 20
8.35169553
  0
VERTEX
  8
0
 10
9.70707045
 20
8.30146799
  0
VERTEX
  8
0
 10
9.88713132
 20
8.40329123
  0
VERTEX
  8
0
 10
9.85861725
 20
8.45298087
  0
VERTEX
  8
0
 10
9.76760986
 20
8.40293807
  0
VERTEX
  8
0
 10
9.67740577
 20
8.35169553
  0
SEQEND
  0
POLYLINE
  8
Default_Layer
 66
   1
 39
0.000000
 70
    1
  0
VERTEX
  8
0
 10
4.44227426
 20
4.44578488
  0
VERTEX
  8
0
 10
4.44189197
 20
4.44578281
  0
VERTEX
  8
0
 10
4.42236491
 20
4.44687431
  0
VERTEX
  8
0
 10
4.40300935
 20
4.45000391
  0
VERTEX
  8
0
 10
4.38397512
 20
4.45505502
  0
VERTEX
  8
0
 10
4.36541207
 20
4.46191107
  0
VERTEX
  8
0
 10
4.34747002
 20
4.47045551
  0
VERTEX
  8
0
 10
4.33029880
 20
4.48057174
  0
VERTEX
  8
0
 10
4.31404826
 20
4.49214321
  0
VERTEX
  8
0
 10
4.29886822
 20
4.50505334
  0
VERTEX
  8
0
 10
4.28490852
 20
4.51918556
  0
VERTEX
  8
0
 10
4.27231898
 20
4.53442329
  0
VERTEX
  8
0
 10
4.26124946
 20
4.55064998
  0
VERTEX
  8
0
 10
4.25184977
 20
4.56774903
  0
VERTEX
  8
0
 10
4.24426975
 20
4.58560390
  0
VERTEX
  8
0
 10
4.23865925
 20
4.60409799
  0
VERTEX
  8
0
 10
4.23516808
 20
4.62311475
  0
VERTEX
  8
0
 10
4.23394608
 20
4.64253759
  0
VERTEX
  8
0
 10
4.22819151
 20
4.62439606
  0
VERTEX
  8
0
 10
4.22168454
 20
4.60589799
  0
VERTEX
  8
0
 10
4.21530483
 20
4.58714592
  0
VERTEX
  8
0
 10
4.20993207
 20
4.56824238
  0
VERTEX
  8
0
 10
4.20644594
 20
4.54928992
  0
VERTEX
  8
0
 10
4.20568525
 20
4.53982738
  0
VERTEX
  8
0
 10
4.20572610
 20
4.53039107
  0
VERTEX
  8
0
 10
4.20667845
 20
4.52099378
  0
VERTEX
  8
0
 10
4.20865225
 20
4.51164835
  0
VERTEX
  8
0
 10
4.21175746
 20
4.50236759
  0
VERTEX
  8
0
 10
4.21610405
 20
4.49316432
  0
VERTEX
  8
0
 10
4.22035621
 20
4.48276024
  0
VERTEX
  8
0
 10
4.22553474
 20
4.47292296
  0
VERTEX
  8
0
 10
4.23156946
 20
4.46366159
  0
VERTEX
  8
0
 10
4.23839018
 20
4.45498523
  0
VERTEX
  8
0
 10
4.24592673
 20
4.44690299
  0
VERTEX
  8
0
 10
4.25410893
 20
4.43942397
  0
VERTEX
  8
0
 10
4.26286660
 20
4.43255729
  0
VERTEX
  8
0
 10
4.27212955
 20
4.42631205
  0
VERTEX
  8
0
 10
4.29189061
 20
4.41572231
  0
VERTEX
  8
0
 10
4.31283067
 20
4.40772762
  0
VERTEX
  8
0
 10
4.33438828
 20
4.40240083
  0
VERTEX
  8
0
 10
4.35600203
 20
4.39981480
  0
VERTEX
  8
0
 10
4.39880680
 20
4.42216641
  0
VERTEX
  8
0
 10
4.44124846
 20
4.44521575
  0
VERTEX
  8
0
 10
4.44227426
 20
4.44578488
  0
SEQEND
  0
POLYLINE
  8
Default_Layer
 66
   1
 39
0.000000
 70
    1
  0
VERTEX
  8
0
 10
4.48240806
 20
4.46827380
  0
VERTEX
  8
0
 10
4.57348803
 20
4.52070005
  0
VERTEX
  8
0
 10
4.66439248
 20
4.57345754
  0
VERTEX
  8
0
 10
4.66946687
 20
4.58642990
  0
VERTEX
  8
0
 10
4.67360046
 20
4.60018387
  0
VERTEX
  8
0
 10
4.67674001
 20
4.61453949
  0
VERTEX
  8
0
 10
4.67883229
 20
4.62931681
  0
VERTEX
  8
0
 10
4.67982404
 20
4.64433586
  0
VERTEX
  8
0
 10
4.67966203
 20
4.65941667
  0
VERTEX
  8
0
 10
4.67829301
 20
4.67437928
  0
VERTEX
  8
0
 10
4.67566374
 20
4.68904373
  0
VERTEX
  8
0
 10
4.67172098
 20
4.70323005
  0
VERTEX
  8
0
 10
4.66641148
 20
4.71675829
  0
VERTEX
  8
0
 10
4.65968200
 20
4.72944847
  0
VERTEX
  8
0
 10
4.65147930
 20
4.74112063
  0
VERTEX
  8
0
 10
4.64175014
 20
4.75159481
  0
VERTEX
  8
0
 10
4.63044126
 20
4.76069105
  0
VERTEX
  8
0
 10
4.61749944
 20
4.76822939
  0
VERTEX
  8
0
 10
4.60287142
 20
4.77402985
  0
VERTEX
  8
0
 10
4.58776318
 20
4.77979121
  0
VERTEX
  8
0
 10
4.57267443
 20
4.78368862
  0
VERTEX
  8
0
 10
4.55762786
 20
4.78585403
  0
VERTEX
  8
0
 10
4.54264616
 20
4.78641941
  0
VERTEX
  8
0
 10
4.52775203
 20
4.78551672
  0
VERTEX
  8
0
 10
4.51296818
 20
4.78327793
  0
VERTEX
  8
0
 10
4.49831731
 20
4.77983499
  0
VERTEX
  8
0
 10
4.48382210
 20
4.77531986
  0
VERTEX
  8
0
 10
4.46950525
 20
4.76986452
  0
VERTEX
  8
0
 10
4.45538947
 20
4.76360093
  0
VERTEX
  8
0
 10
4.42785191
 20
4.74917681
  0
VERTEX
  8
0
 10
4.40139098
 20
4.73310323
  0
VERTEX
  8
0
 10
4.37618827
 20
4.71643587
  0
VERTEX
  8
0
 10
4.36620542
 20
4.69801490
  0
VERTEX
  8
0
 10
4.35788702
 20
4.67866704
  0
VERTEX
  8
0
 10
4.35138475
 20
4.65859891
  0
VERTEX
  8
0
 10
4.34685027
 20
4.63801716
  0
VERTEX
  8
0
 10
4.34443525
 20
4.61712842
  0
VERTEX
  8
0
 10
4.34429135
 20
4.59613933
  0
VERTEX
  8
0
 10
4.34657026
 20
4.57525652
  0
VERTEX
  8
0
 10
4.35142362
 20
4.55468665
  0
VERTEX
  8
0
 10
4.36092815
 20
4.54310987
  0
VERTEX
  8
0
 10
4.37177946
 20
4.53236353
  0
VERTEX
  8
0
 10
4.38428538
 20
4.52214316
  0
VERTEX
  8
0
 10
4.39875374
 20
4.51214426
  0
VERTEX
  8
0
 10
4.41549235
 20
4.50206236
  0
VERTEX
  8
0
 10
4.43480906
 20
4.49159297
  0
VERTEX
  8
0
 10
4.48240806
 20
4.46827380
  0
SEQEND
  0
POLYLINE
  8
Default_Layer
 66
   1
 39
0.000000
 70
    1
  0
VERTEX
  8
0
 10
8.35329463
 20
5.73935926
  0
VERTEX
  8
0
 10
8.34318908
 20
5.75328309
  0
VERTEX
  8
0
 10
8.33407533
 20
5.76827885
  0
VERTEX
  8
0
 10
8.31638427
 20
5.79889148
  0
VERTEX
  8
0
 10
8.30658748
 20
5.81321104
  0
VERTEX
  8
0
 10
8.29534354
 20
5.82600787
  0
VERTEX
  8
0
 10
8.28898835
 20
5.83163256
  0
VERTEX
  8
0
 10
8.28204271
 20
5.83663332
  0
VERTEX
  8
0
 10
8.27443041
 20
5.84092907
  0
VERTEX
  8
0
 10
8.26607524
 20
5.84443873
  0
VERTEX
  8
0
 10
8.24770866
 20
5.85372794
  0
VERTEX
  8
0
 10
8.22897055
 20
5.86204760
  0
VERTEX
  8
0
 10
8.20991823
 20
5.86954081
  0
VERTEX
  8
0
 10
8.19060904
 20
5.87635064
  0
VERTEX
  8
0
 10
8.15144934
 20
5.88849258
  0
VERTEX
  8
0
 10
8.11195008
 20
5.89961816
  0
VERTEX
  8
0
 10
7.84032137
 20
5.99729440
  0
VERTEX
  8
0
 10
7.56923487
 20
6.09619907
  0
VERTEX
  8
0
 10
7.29823077
 20
6.19521835
  0
VERTEX
  8
0
 10
7.02684928
 20
6.29323843
  0
VERTEX
  8
0
 10
7.00506376
 20
6.30283381
  0
VERTEX
  8
0
 10
6.98281078
 20
6.31166277
  0
VERTEX
  8
0
 10
6.96014263
 20
6.31946788
  0
VERTEX
  8
0
 10
6.93711160
 20
6.32599170
  0
VERTEX
  8
0
 10
6.91376999
 20
6.33097679
  0
VERTEX
  8
0
 10
6.89017009
 20
6.33416572
  0
VERTEX
  8
0
 10
6.86636420
 20
6.33530106
  0
VERTEX
  8
0
 10
6.84240461
 20
6.33412537
  0
VERTEX
  8
0
 10
6.82273566
 20
6.33125234
  0
VERTEX
  8
0
 10
6.80386567
 20
6.32569302
  0
VERTEX
  8
0
 10
6.78587333
 20
6.31776321
  0
VERTEX
  8
0
 10
6.76883734
 20
6.30777871
  0
VERTEX
  8
0
 10
6.75283639
 20
6.29605532
  0
VERTEX
  8
0
 10
6.73794917
 20
6.28290886
  0
VERTEX
  8
0
 10
6.72425437
 20
6.26865511
  0
VERTEX
  8
0
 10
6.71183070
 20
6.25360989
  0
VERTEX
  8
0
 10
6.68617372
 20
6.20089549
  0
VERTEX
  8
0
 10
6.66163405
 20
6.14762851
  0
VERTEX
  8
0
 10
6.61340848
 20
6.04063116
  0
VERTEX
  8
0
 10
6.59067070
 20
6.05483970
  0
VERTEX
  8
0
 10
6.60419399
 20
6.09750714
  0
VERTEX
  8
0
 10
6.58543120
 20
6.10557769
  0
VERTEX
  8
0
 10
6.56637304
 20
6.11291774
  0
VERTEX
  8
0
 10
6.52748857
 20
6.12548201
  0
VERTEX
  8
0
 10
6.48777649
 20
6.13535131
  0
VERTEX
  8
0
 10
6.44747267
 20
6.14267703
  0
VERTEX
  8
0
 10
6.42308936
 20
6.13217653
  0
VERTEX
  8
0
 10
6.43333271
 20
6.14491162
  0
VERTEX
  8
0
 10
6.44271988
 20
6.15936524
  0
VERTEX
  8
0
 10
6.45047411
 20
6.17498541
  0
VERTEX
  8
0
 10
6.45581862
 20
6.19122018
  0
VERTEX
  8
0
 10
6.45734450
 20
6.19939554
  0
VERTEX
  8
0
 10
6.45797666
 20
6.20751756
  0
VERTEX
  8
0
 10
6.45761800
 20
6.21551725
  0
VERTEX
  8
0
 10
6.45617143
 20
6.22332560
  0
VERTEX
  8
0
 10
6.45353986
 20
6.23087362
  0
VERTEX
  8
0
 10
6.44962619
 20
6.23809231
  0
VERTEX
  8
0
 10
6.44433331
 20
6.24491268
  0
VERTEX
  8
0
 10
6.43756415
 20
6.25126574
  0
VERTEX
  8
0
 10
6.35412163
 20
6.29020939
  0
VERTEX
  8
0
 10
6.27017164
 20
6.32803046
  0
VERTEX
  8
0
 10
6.10132752
 20
6.40156254
  0
VERTEX
  8
0
 10
5.93218832
 20
6.47437728
  0
VERTEX
  8
0
 10
5.84786948
 20
6.51130169
  0
VERTEX
  8
0
 10
5.76391056
 20
6.54899002
  0
VERTEX
  8
0
 10
5.69500995
 20
6.57545462
  0
VERTEX
  8
0
 10
5.62690598
 20
6.60383403
  0
VERTEX
  8
0
 10
5.55938419
 20
6.63361372
  0
VERTEX
  8
0
 10
5.49223012
 20
6.66427920
  0
VERTEX
  8
0
 10
5.35816730
 20
6.72620945
  0
VERTEX
  8
0
 10
5.29082965
 20
6.75644521
  0
VERTEX
  8
0
 10
5.22300188
 20
6.78550871
  0
VERTEX
  8
0
 10
5.09078377
 20
6.84235340
  0
VERTEX
  8
0
 10
4.95896824
 20
6.90018586
  0
VERTEX
  8
0
 10
4.82675468
 20
6.95707409
  0
VERTEX
  8
0
 10
4.76024843
 20
6.98456037
  0
VERTEX
  8
0
 10
4.69334244
 20
7.01108611
  0
VERTEX
  8
0
 10
4.56740363
 20
7.06879746
  0
VERTEX
  8
0
 10
4.44113637
 20
7.12577241
  0
VERTEX
  8
0
 10
4.18774413
 20
7.23774404
  0
VERTEX
  8
0
 10
3.93342087
 20
7.34746284
  0
VERTEX
  8
0
 10
3.67842175
 20
7.45539064
  0
VERTEX
  8
0
 10
3.63978959
 20
7.40919960
  0
VERTEX
  8
0
 10
3.59262175
 20
7.42816984
  0
VERTEX
  8
0
 10
3.59910895
 20
7.44615732
  0
VERTEX
  8
0
 10
3.60337691
 20
7.46451335
  0
VERTEX
  8
0
 10
3.60431605
 20
7.47379461
  0
VERTEX
  8
0
 10
3.60426523
 20
7.48312605
  0
VERTEX
  8
0
 10
3.60307940
 20
7.49249369
  0
VERTEX
  8
0
 10
3.60061350
 20
7.50188353
  0
VERTEX
  8
0
 10
3.55040157
 20
7.72867751
  0
VERTEX
  8
0
 10
3.52541757
 20
7.84212556
  0
VERTEX
  8
0
 10
3.49979559
 20
7.95540708
  0
VERTEX
  8
0
 10
3.49755228
 20
7.96538683
  0
VERTEX
  8
0
 10
3.49440159
 20
7.97497221
  0
VERTEX
  8
0
 10
3.49039962
 20
7.98413349
  0
VERTEX
  8
0
 10
3.48560246
 20
7.99284092
  0
VERTEX
  8
0
 10
3.48006622
 20
8.00106479
  0
VERTEX
  8
0
 10
3.47384699
 20
8.00877536
  0
VERTEX
  8
0
 10
3.46700088
 20
8.01594291
  0
VERTEX
  8
0
 10
3.45958399
 20
8.02253769
  0
VERTEX
  8
0
 10
3.45165241
 20
8.02852999
  0
VERTEX
  8
0
 10
3.44326225
 20
8.03389007
  0
VERTEX
  8
0
 10
3.43446960
 20
8.03858820
  0
VERTEX
  8
0
 10
3.42533056
 20
8.04259466
  0
VERTEX
  8
0
 10
3.41590124
 20
8.04587970
  0
VERTEX
  8
0
 10
3.40623773
 20
8.04841361
  0
VERTEX
  8
0
 10
3.39639613
 20
8.05016664
  0
VERTEX
  8
0
 10
3.38643254
 20
8.05110908
  0
VERTEX
  8
0
 10
3.36910800
 20
8.04894315
  0
VERTEX
  8
0
 10
3.35201074
 20
8.04454791
  0
VERTEX
  8
0
 10
3.33553496
 20
8.03800483
  0
VERTEX
  8
0
 10
3.32007481
 20
8.02939535
  0
VERTEX
  8
0
 10
3.30602447
 20
8.01880094
  0
VERTEX
  8
0
 10
3.29377811
 20
8.00630304
  0
VERTEX
  8
0
 10
3.28845460
 20
7.99936574
  0
VERTEX
  8
0
 10
3.28372990
 20
7.99198312
  0
VERTEX
  8
0
 10
3.27965327
 20
7.98416535
  0
VERTEX
  8
0
 10
3.27627400
 20
7.97592261
  0
VERTEX
  8
0
 10
3.17445119
 20
7.75214412
  0
VERTEX
  8
0
 10
3.07359104
 20
7.52780723
  0
VERTEX
  8
0
 10
2.80508209
 20
7.64838862
  0
VERTEX
  8
0
 10
2.53703642
 20
7.76999104
  0
VERTEX
  8
0
 10
2.26909371
 20
7.89182035
  0
VERTEX
  8
0
 10
2.00089362
 20
8.01308243
  0
VERTEX
  8
0
 10
1.98909164
 20
8.01842267
  0
VERTEX
  8
0
 10
1.97821857
 20
8.02510657
  0
VERTEX
  8
0
 10
1.96805765
 20
8.03282398
  0
VERTEX
  8
0
 10
1.95839215
 20
8.04126472
  0
VERTEX
  8
0
 10
1.93968043
 20
8.05907554
  0
VERTEX
  8
0
 10
1.93020074
 20
8.06782528
  0
VERTEX
  8
0
 10
1.92034951
 20
8.07605769
  0
VERTEX
  8
0
 10
1.89082182
 20
8.02849186
  0
VERTEX
  8
0
 10
1.88462116
 20
8.03571701
  0
VERTEX
  8
0
 10
1.88056342
 20
8.04363237
  0
VERTEX
  8
0
 10
1.87820881
 20
8.05209358
  0
VERTEX
  8
0
 10
1.87711751
 20
8.06095629
  0
VERTEX
  8
0
 10
1.87696562
 20
8.07930882
  0
VERTEX
  8
0
 10
1.87658927
 20
8.09753520
  0
VERTEX
  8
0
 10
1.86348877
 20
8.08508951
  0
VERTEX
  8
0
 10
1.85024972
 20
8.07253947
  0
VERTEX
  8
0
 10
1.84308593
 20
8.06742250
  0
VERTEX
  8
0
 10
1.83529671
 20
8.06371604
  0
VERTEX
  8
0
 10
1.82668515
 20
8.06189896
  0
VERTEX
  8
0
 10
1.81705431
 20
8.06245014
  0
VERTEX
  8
0
 10
1.83365293
 20
8.11118051
  0
VERTEX
  8
0
 10
1.67973978
 20
8.18067377
  0
VERTEX
  8
0
 10
1.52576222
 20
8.25056107
  0
VERTEX
  8
0
 10
1.47472950
 20
8.13849379
  0
VERTEX
  8
0
 10
1.44957239
 20
8.08229715
  0
VERTEX
  8
0
 10
1.42561277
 20
8.02555715
  0
VERTEX
  8
0
 10
1.50131564
 20
7.99059909
  0
VERTEX
  8
0
 10
1.57746348
 20
7.95665517
  0
VERTEX
  8
0
 10
1.65335732
 20
7.92221849
  0
VERTEX
  8
0
 10
1.69099056
 20
7.90434445
  0
VERTEX
  8
0
 10
1.72829821
 20
7.88578212
  0
VERTEX
  8
0
 10
1.75580252
 20
7.92567274
  0
VERTEX
  8
0
 10
1.76285902
 20
7.91947669
  0
VERTEX
  8
0
 10
1.76728698
 20
7.91240798
  0
VERTEX
  8
0
 10
1.76959607
 20
7.90464764
  0
VERTEX
  8
0
 10
1.77029595
 20
7.89637675
  0
VERTEX
  8
0
 10
1.76890675
 20
7.87902749
  0
VERTEX
  8
0
 10
1.76719670
 20
7.86180861
  0
VERTEX
  8
0
 10
1.77392059
 20
7.86682150
  0
VERTEX
  8
0
 10
1.78073065
 20
7.87275292
  0
VERTEX
  8
0
 10
1.79485289
 20
7.88452473
  0
VERTEX
  8
0
 10
1.80228686
 20
7.88894182
  0
VERTEX
  8
0
 10
1.81005061
 20
7.89143081
  0
VERTEX
  8
0
 10
1.81407517
 20
7.89172989
  0
VERTEX
  8
0
 10
1.81820502
 20
7.89128007
  0
VERTEX
  8
0
 10
1.82244776
 20
7.88999240
  0
VERTEX
  8
0
 10
1.82681101
 20
7.88777793
  0
VERTEX
  8
0
 10
1.81922863
 20
7.84176626
  0
VERTEX
  8
0
 10
1.84843069
 20
7.84122347
  0
VERTEX
  8
0
 10
1.87750481
 20
7.84013070
  0
VERTEX
  8
0
 10
2.01178424
 20
7.77771962
  0
VERTEX
  8
0
 10
2.14637586
 20
7.71594210
  0
VERTEX
  8
0
 10
2.41613356
 20
7.59354006
  0
VERTEX
  8
0
 10
2.68605373
 20
7.47142909
  0
VERTEX
  8
0
 10
2.95541223
 20
7.34811375
  0
VERTEX
  8
0
 10
2.93812920
 20
7.34230620
  0
VERTEX
  8
0
 10
2.92281809
 20
7.33420735
  0
VERTEX
  8
0
 10
2.90934815
 20
7.32406083
  0
VERTEX
  8
0
 10
2.89758861
 20
7.31211030
  0
VERTEX
  8
0
 10
2.88740872
 20
7.29859938
  0
VERTEX
  8
0
 10
2.87867771
 20
7.28377171
  0
VERTEX
  8
0
 10
2.87126484
 20
7.26787092
  0
VERTEX
  8
0
 10
2.86503934
 20
7.25114066
  0
VERTEX
  8
0
 10
2.87741655
 20
7.24057899
  0
VERTEX
  8
0
 10
2.89037676
 20
7.23038930
  0
VERTEX
  8
0
 10
2.90338538
 20
7.22018905
  0
VERTEX
  8
0
 10
2.91590782
 20
7.20959569
  0
VERTEX
  8
0
 10
2.92740948
 20
7.19822666
  0
VERTEX
  8
0
 10
2.93735577
 20
7.18569943
  0
VERTEX
  8
0
 10
2.94157860
 20
7.17888193
  0
VERTEX
  8
0
 10
2.94521211
 20
7.17163143
  0
VERTEX
  8
0
 10
2.94818948
 20
7.16390010
  0
VERTEX
  8
0
 10
2.95044389
 20
7.15564013
  0
VERTEX
  8
0
 10
3.01932125
 20
7.12519784
  0
VERTEX
  8
0
 10
3.03548761
 20
7.15658302
  0
VERTEX
  8
0
 10
3.05066843
 20
7.18847619
  0
VERTEX
  8
0
 10
3.06579883
 20
7.22039223
  0
VERTEX
  8
0
 10
3.08181392
 20
7.25184605
  0
VERTEX
  8
0
 10
3.10191999
 20
7.25456158
  0
VERTEX
  8
0
 10
3.12220447
 20
7.25599532
  0
VERTEX
  8
0
 10
3.13223039
 20
7.25559739
  0
VERTEX
  8
0
 10
3.14208103
 20
7.25411805
  0
VERTEX
  8
0
 10
3.15168310
 20
7.25130366
  0
VERTEX
  8
0
 10
3.16096330
 20
7.24690056
  0
VERTEX
  8
0
 10
3.24545009
 20
7.20882832
  0
VERTEX
  8
0
 10
3.28698642
 20
7.18841817
  0
VERTEX
  8
0
 10
3.30733153
 20
7.17742938
  0
VERTEX
  8
0
 10
3.32730076
 20
7.16575042
  0
VERTEX
  8
0
 10
3.31161538
 20
7.10112147
  0
VERTEX
  8
0
 10
3.30520654
 20
7.06856680
  0
VERTEX
  8
0
 10
3.30101694
 20
7.03564357
  0
VERTEX
  8
0
 10
3.29178745
 20
7.00856536
  0
VERTEX
  8
0
 10
3.28062462
 20
6.98215919
  0
VERTEX
  8
0
 10
3.25586202
 20
6.93023221
  0
VERTEX
  8
0
 10
3.24394375
 20
6.90414602
  0
VERTEX
  8
0
 10
3.23345520
 20
6.87760110
  0
VERTEX
  8
0
 10
3.22523710
 20
6.85031478
  0
VERTEX
  8
0
 10
3.22224222
 20
6.83630525
  0
VERTEX
  8
0
 10
3.22013024
 20
6.82200436
  0
VERTEX
  8
0
 10
3.27342084
 20
6.80187730
  0
VERTEX
  8
0
 10
3.28931690
 20
6.82608827
  0
VERTEX
  8
0
 10
3.30313133
 20
6.85133119
  0
VERTEX
  8
0
 10
3.31535173
 20
6.87736579
  0
VERTEX
  8
0
 10
3.32646570
 20
6.90395183
  0
VERTEX
  8
0
 10
3.34732478
 20
6.95781723
  0
VERTEX
  8
0
 10
3.35804510
 20
6.98461609
  0
VERTEX
  8
0
 10
3.36960942
 20
7.01100539
  0
VERTEX
  8
0
 10
3.40163409
 20
6.98751612
  0
VERTEX
  8
0
 10
3.43468407
 20
6.96575049
  0
VERTEX
  8
0
 10
3.43259843
 20
6.94540353
  0
VERTEX
  8
0
 10
3.43173866
 20
6.92491076
  0
VERTEX
  8
0
 10
3.43249792
 20
6.91482497
  0
VERTEX
  8
0
 10
3.43443900
 20
6.90496105
  0
VERTEX
  8
0
 10
3.43785367
 20
6.89540513
  0
VERTEX
  8
0
 10
3.44303371
 20
6.88624331
  0
VERTEX
  8
0
 10
3.52713607
 20
6.84575983
  0
VERTEX
  8
0
 10
3.61176498
 20
6.80636558
  0
VERTEX
  8
0
 10
3.78176610
 20
6.72911895
  0
VERTEX
  8
0
 10
3.86672019
 20
6.69040367
  0
VERTEX
  8
0
 10
3.95136453
 20
6.65105181
  0
VERTEX
  8
0
 10
4.03549005
 20
6.61063193
  0
VERTEX
  8
0
 10
4.11888769
 20
6.56871257
  0
VERTEX
  8
0
 10
4.15467187
 20
6.55358552
  0
VERTEX
  8
0
 10
4.18981465
 20
6.53717055
  0
VERTEX
  8
0
 10
4.25899692
 20
6.50211844
  0
VERTEX
  8
0
 10
4.32807624
 20
6.46683945
  0
VERTEX
  8
0
 10
4.36309034
 20
6.45014086
  0
VERTEX
  8
0
 10
4.39869435
 20
6.43461674
  0
VERTEX
  8
0
 10
4.57983639
 20
6.35143839
  0
VERTEX
  8
0
 10
4.76121176
 20
6.26880778
  0
VERTEX
  8
0
 10
4.94223018
 20
6.18545750
  0
VERTEX
  8
0
 10
5.03242108
 20
6.14311643
  0
VERTEX
  8
0
 10
5.12230138
 20
6.10012016
  0
VERTEX
  8
0
 10
5.17752657
 20
6.07611066
  0
VERTEX
  8
0
 10
5.23203671
 20
6.05069277
  0
VERTEX
  8
0
 10
5.28557896
 20
6.02334278
  0
VERTEX
  8
0
 10
5.31190811
 20
6.00877960
  0
VERTEX
  8
0
 10
5.33790049
 20
5.99353700
  0
VERTEX
  8
0
 10
5.42404447
 20
5.95249101
  0
VERTEX
  8
0
 10
5.51050104
 20
5.91210880
  0
VERTEX
  8
0
 10
5.68401906
 20
5.83263557
  0
VERTEX
  8
0
 10
5.85778873
 20
5.75371697
  0
VERTEX
  8
0
 10
6.03114427
 20
5.67395266
  0
VERTEX
  8
0
 10
6.04988963
 20
5.66485543
  0
VERTEX
  8
0
 10
6.06857775
 20
5.65460615
  0
VERTEX
  8
0
 10
6.08734827
 20
5.64406107
  0
VERTEX
  8
0
 10
6.10634080
 20
5.63407647
  0
VERTEX
  8
0
 10
6.12569497
 20
5.62550862
  0
VERTEX
  8
0
 10
6.14555041
 20
5.61921380
  0
VERTEX
  8
0
 10
6.15570974
 20
5.61718636
  0
VERTEX
  8
0
 10
6.16604674
 20
5.61604828
  0
VERTEX
  8
0
 10
6.17657887
 20
5.61590659
  0
VERTEX
  8
0
 10
6.18732358
 20
5.61686833
  0
VERTEX
  8
0
 10
6.19522131
 20
5.62668617
  0
VERTEX
  8
0
 10
6.20250745
 20
5.63693163
  0
VERTEX
  8
0
 10
6.21565010
 20
5.65839233
  0
VERTEX
  8
0
 10
6.22756189
 20
5.68062435
  0
VERTEX
  8
0
 10
6.23905316
 20
5.70300157
  0
VERTEX
  8
0
 10
6.27588523
 20
5.68188855
  0
VERTEX
  8
0
 10
6.31280310
 20
5.66096462
  0
VERTEX
  8
0
 10
6.34893588
 20
5.63884646
  0
VERTEX
  8
0
 10
6.36643572
 20
5.62690727
  0
VERTEX
  8
0
 10
6.38341271
 20
5.61415079
  0
VERTEX
  8
0
 10
6.39079954
 20
5.62522046
  0
VERTEX
  8
0
 10
6.39768288
 20
5.63695181
  0
VERTEX
  8
0
 10
6.41161693
 20
5.66045256
  0
VERTEX
  8
0
 10
6.41950657
 20
5.67124848
  0
VERTEX
  8
0
 10
6.42857057
 20
5.68075912
  0
VERTEX
  8
0
 10
6.43922838
 20
5.68849774
  0
VERTEX
  8
0
 10
6.44528605
 20
5.69155043
  0
VERTEX
  8
0
 10
6.45189948
 20
5.69397759
  0
VERTEX
  8
0
 10
6.44160295
 20
5.66598130
  0
VERTEX
  8
0
 10
6.43003108
 20
5.63845730
  0
VERTEX
  8
0
 10
6.41844777
 20
5.61090808
  0
VERTEX
  8
0
 10
6.40811693
 20
5.58283616
  0
VERTEX
  8
0
 10
6.41140464
 20
5.57390921
  0
VERTEX
  8
0
 10
6.41560794
 20
5.56540520
  0
VERTEX
  8
0
 10
6.42608787
 20
5.54937312
  0
VERTEX
  8
0
 10
6.43820973
 20
5.53415405
  0
VERTEX
  8
0
 10
6.45062658
 20
5.51916215
  0
VERTEX
  8
0
 10
6.46199145
 20
5.50381155
  0
VERTEX
  8
0
 10
6.46685846
 20
5.49581867
  0
VERTEX
  8
0
 10
6.47095737
 20
5.48751642
  0
VERTEX
  8
0
 10
6.47411980
 20
5.47883156
  0
VERTEX
  8
0
 10
6.47617738
 20
5.46969088
  0
VERTEX
  8
0
 10
6.47696175
 20
5.46002113
  0
VERTEX
  8
0
 10
6.47630452
 20
5.44974909
  0
VERTEX
  8
0
 10
6.47367131
 20
5.43428072
  0
VERTEX
  8
0
 10
6.47025033
 20
5.41905009
  0
VERTEX
  8
0
 10
6.46137157
 20
5.38920713
  0
VERTEX
  8
0
 10
6.45032119
 20
5.36003032
  0
VERTEX
  8
0
 10
6.43775218
 20
5.33132979
  0
VERTEX
  8
0
 10
6.41067007
 20
5.27459803
  0
VERTEX
  8
0
 10
6.39746292
 20
5.24618705
  0
VERTEX
  8
0
 10
6.38534898
 20
5.21749283
  0
VERTEX
  8
0
 10
6.38303569
 20
5.21027640
  0
VERTEX
  8
0
 10
6.38005546
 20
5.20365401
  0
VERTEX
  8
0
 10
6.37234935
 20
5.19196444
  0
VERTEX
  8
0
 10
6.36274102
 20
5.18197022
  0
VERTEX
  8
0
 10
6.35174084
 20
5.17321746
  0
VERTEX
  8
0
 10
6.32760644
 20
5.15762080
  0
VERTEX
  8
0
 10
6.31549296
 20
5.14986913
  0
VERTEX
  8
0
 10
6.30402911
 20
5.14154337
  0
VERTEX
  8
0
 10
6.32415690
 20
5.11747344
  0
VERTEX
  8
0
 10
6.34500834
 20
5.09392638
  0
VERTEX
  8
0
 10
6.32023146
 20
5.03558621
  0
VERTEX
  8
0
 10
6.29449774
 20
4.97764981
  0
VERTEX
  8
0
 10
6.26793208
 20
4.92009090
  0
VERTEX
  8
0
 10
6.24065936
 20
4.86288322
  0
VERTEX
  8
0
 10
6.21108180
 20
4.81485684
  0
VERTEX
  8
0
 10
6.18045286
 20
4.76758541
  0
VERTEX
  8
0
 10
6.14885441
 20
4.72101325
  0
VERTEX
  8
0
 10
6.11636829
 20
4.67508470
  0
VERTEX
  8
0
 10
6.08307637
 20
4.62974409
  0
VERTEX
  8
0
 10
6.04906050
 20
4.58493575
  0
VERTEX
  8
0
 10
5.97918433
 20
4.49669322
  0
VERTEX
  8
0
 10
5.90739465
 20
4.40991176
  0
VERTEX
  8
0
 10
5.83434630
 20
4.32414603
  0
VERTEX
  8
0
 10
5.68709301
 20
4.15388039
  0
VERTEX
  8
0
 10
5.70480671
 20
4.13118453
  0
VERTEX
  8
0
 10
5.72329100
 20
4.10908143
  0
VERTEX
  8
0
 10
5.74309190
 20
4.08820499
  0
VERTEX
  8
0
 10
5.75365671
 20
4.07842484
  0
VERTEX
  8
0
 10
5.76475544
 20
4.06918906
  0
VERTEX
  8
0
 10
5.80223431
 20
4.04219924
  0
VERTEX
  8
0
 10
5.83898782
 20
4.01421801
  0
VERTEX
  8
0
 10
5.87502538
 20
3.98530381
  0
VERTEX
  8
0
 10
5.91035641
 20
3.95551505
  0
VERTEX
  8
0
 10
5.94499032
 20
3.92491018
  0
VERTEX
  8
0
 10
5.97893652
 20
3.89354763
  0
VERTEX
  8
0
 10
6.01220442
 20
3.86148582
  0
VERTEX
  8
0
 10
6.04480344
 20
3.82878319
  0
VERTEX
  8
0
 10
6.08844773
 20
3.79813921
  0
VERTEX
  8
0
 10
6.11036477
 20
3.78277512
  0
VERTEX
  8
0
 10
6.13262438
 20
3.76799850
  0
VERTEX
  8
0
 10
6.15543604
 20
3.75427104
  0
VERTEX
  8
0
 10
6.17900924
 20
3.74205438
  0
VERTEX
  8
0
 10
6.20355344
 20
3.73181021
  0
VERTEX
  8
0
 10
6.21625513
 20
3.72757207
  0
VERTEX
  8
0
 10
6.22927813
 20
3.72400017
  0
VERTEX
  8
0
 10
6.26276758
 20
3.75776416
  0
VERTEX
  8
0
 10
6.29570334
 20
3.79203994
  0
VERTEX
  8
0
 10
6.36001681
 20
3.86201262
  0
VERTEX
  8
0
 10
6.42242462
 20
3.93368982
  0
VERTEX
  8
0
 10
6.48313284
 20
4.00684313
  0
VERTEX
  8
0
 10
6.54234754
 20
4.08124414
  0
VERTEX
  8
0
 10
6.60027479
 20
4.15666444
  0
VERTEX
  8
0
 10
6.65712066
 20
4.23287562
  0
VERTEX
  8
0
 10
6.71309122
 20
4.30964928
  0
VERTEX
  8
0
 10
6.74541643
 20
4.35527217
  0
VERTEX
  8
0
 10
6.77583164
 20
4.40203723
  0
VERTEX
  8
0
 10
6.80474639
 20
4.44969973
  0
VERTEX
  8
0
 10
6.83257026
 20
4.49801492
  0
VERTEX
  8
0
 10
6.88658361
 20
4.59562441
  0
VERTEX
  8
0
 10
6.91359222
 20
4.64442923
  0
VERTEX
  8
0
 10
6.94114820
 20
4.69290777
  0
VERTEX
  8
0
 10
6.96082544
 20
4.68472250
  0
VERTEX
  8
0
 10
6.98102083
 20
4.67817748
  0
VERTEX
  8
0
 10
7.02218064
 20
4.66759046
  0
VERTEX
  8
0
 10
7.04275236
 20
4.66233963
  0
VERTEX
  8
0
 10
7.06305681
 20
4.65631133
  0
VERTEX
  8
0
 10
7.08289764
 20
4.64890116
  0
VERTEX
  8
0
 10
7.10207849
 20
4.63950468
  0
VERTEX
  8
0
 10
7.13892657
 20
4.62161640
  0
VERTEX
  8
0
 10
7.17643832
 20
4.60489762
  0
VERTEX
  8
0
 10
7.25190119
 20
4.57225253
  0
VERTEX
  8
0
 10
7.28907651
 20
4.55496819
  0
VERTEX
  8
0
 10
7.32536387
 20
4.53613729
  0
VERTEX
  8
0
 10
7.34305335
 20
4.52592970
  0
VERTEX
  8
0
 10
7.36037538
 20
4.51508083
  0
VERTEX
  8
0
 10
7.37728147
 20
4.50350582
  0
VERTEX
  8
0
 10
7.39372314
 20
4.49111979
  0
VERTEX
  8
0
 10
7.40934158
 20
4.48237768
  0
VERTEX
  8
0
 10
7.42550625
 20
4.47461326
  0
VERTEX
  8
0
 10
7.45856971
 20
4.46045947
  0
VERTEX
  8
0
 10
7.47501623
 20
4.45329108
  0
VERTEX
  8
0
 10
7.49110442
 20
4.44554237
  0
VERTEX
  8
0
 10
7.50660815
 20
4.43682381
  0
VERTEX
  8
0
 10
7.52130127
 20
4.42674592
  0
VERTEX
  8
0
 10
7.52598837
 20
4.41804108
  0
VERTEX
  8
0
 10
7.52993168
 20
4.40908044
  0
VERTEX
  8
0
 10
7.53584608
 20
4.39050028
  0
VERTEX
  8
0
 10
7.53956285
 20
4.37122244
  0
VERTEX
  8
0
 10
7.54160037
 20
4.35146391
  0
VERTEX
  8
0
 10
7.54247702
 20
4.33144171
  0
VERTEX
  8
0
 10
7.54271117
 20
4.31137283
  0
VERTEX
  8
0
 10
7.54332548
 20
4.27196305
  0
VERTEX
  8
0
 10
7.53322687
 20
4.26087994
  0
VERTEX
  8
0
 10
7.52188818
 20
4.25085352
  0
VERTEX
  8
0
 10
7.49830617
 20
4.23175078
  0
VERTEX
  8
0
 10
7.48747064
 20
4.22156446
  0
VERTEX
  8
0
 10
7.47821063
 20
4.21021484
  0
VERTEX
  8
0
 10
7.47439141
 20
4.20393035
  0
VERTEX
  8
0
 10
7.47123003
 20
4.19714692
  0
VERTEX
  8
0
 10
7.46881448
 20
4.18979515
  0
VERTEX
  8
0
 10
7.46723275
 20
4.18180569
  0
VERTEX
  8
0
 10
7.48151629
 20
4.17655707
  0
VERTEX
  8
0
 10
7.49699059
 20
4.17205257
  0
VERTEX
  8
0
 10
7.51273042
 20
4.16748840
  0
VERTEX
  8
0
 10
7.52781054
 20
4.16206073
  0
VERTEX
  8
0
 10
7.54130570
 20
4.15496577
  0
VERTEX
  8
0
 10
7.54716978
 20
4.15054186
  0
VERTEX
  8
0
 10
7.55229066
 20
4.14539969
  0
VERTEX
  8
0
 10
7.55655267
 20
4.13943880
  0
VERTEX
  8
0
 10
7.55984017
 20
4.13255870
  0
VERTEX
  8
0
 10
7.56203749
 20
4.12465892
  0
VERTEX
  8
0
 10
7.56302899
 20
4.11563898
  0
VERTEX
  8
0
 10
7.57316842
 20
4.04132133
  0
VERTEX
  8
0
 10
7.58110854
 20
3.96667918
  0
VERTEX
  8
0
 10
7.59489942
 20
3.81711167
  0
VERTEX
  8
0
 10
7.59548372
 20
3.80826039
  0
VERTEX
  8
0
 10
7.59427720
 20
3.80003667
  0
VERTEX
  8
0
 10
7.59156045
 20
3.79234858
  0
VERTEX
  8
0
 10
7.58761404
 20
3.78510420
  0
VERTEX
  8
0
 10
7.58271858
 20
3.77821161
  0
VERTEX
  8
0
 10
7.57715464
 20
3.77157887
  0
VERTEX
  8
0
 10
7.56514367
 20
3.75872526
  0
VERTEX
  8
0
 10
7.55382581
 20
3.74580796
  0
VERTEX
  8
0
 10
7.54912827
 20
3.73909560
  0
VERTEX
  8
0
 10
7.54544577
 20
3.73209154
  0
VERTEX
  8
0
 10
7.54305889
 20
3.72470385
  0
VERTEX
  8
0
 10
7.54224821
 20
3.71684061
  0
VERTEX
  8
0
 10
7.54329434
 20
3.70840988
  0
VERTEX
  8
0
 10
7.54647784
 20
3.69931974
  0
VERTEX
  8
0
 10
7.54873602
 20
3.69272832
  0
VERTEX
  8
0
 10
7.55163526
 20
3.68671482
  0
VERTEX
  8
0
 10
7.55512250
 20
3.68124870
  0
VERTEX
  8
0
 10
7.55914469
 20
3.67629939
  0
VERTEX
  8
0
 10
7.56858172
 20
3.66782900
  0
VERTEX
  8
0
 10
7.57952191
 20
3.66105921
  0
VERTEX
  8
0
 10
7.59154086
 20
3.65574561
  0
VERTEX
  8
0
 10
7.60421414
 20
3.65164375
  0
VERTEX
  8
0
 10
7.61711732
 20
3.64850920
  0
VERTEX
  8
0
 10
7.62982600
 20
3.64609753
  0
VERTEX
  8
0
 10
7.86148825
 20
3.60573517
  0
VERTEX
  8
0
 10
7.97732656
 20
3.58593834
  0
VERTEX
  8
0
 10
8.09323180
 20
3.56715998
  0
VERTEX
  8
0
 10
8.10072524
 20
3.56949635
  0
VERTEX
  8
0
 10
8.10716424
 20
3.57262801
  0
VERTEX
  8
0
 10
8.11261587
 20
3.57648035
  0
VERTEX
  8
0
 10
8.11714723
 20
3.58097874
  0
VERTEX
  8
0
 10
8.12082540
 20
3.58604857
  0
VERTEX
  8
0
 10
8.12371745
 20
3.59161522
  0
VERTEX
  8
0
 10
8.12589048
 20
3.59760409
  0
VERTEX
  8
0
 10
8.12741157
 20
3.60394054
  0
VERTEX
  8
0
 10
8.12876626
 20
3.61735778
  0
VERTEX
  8
0
 10
8.12831818
 20
3.63127001
  0
VERTEX
  8
0
 10
8.12660402
 20
3.64508030
  0
VERTEX
  8
0
 10
8.12416044
 20
3.65819173
  0
VERTEX
  8
0
 10
7.97053917
 20
4.44843932
  0
VERTEX
  8
0
 10
7.96734021
 20
4.46915077
  0
VERTEX
  8
0
 10
7.96654134
 20
4.48993412
  0
VERTEX
  8
0
 10
7.96800535
 20
4.51062933
  0
VERTEX
  8
0
 10
7.97159500
 20
4.53107634
  0
VERTEX
  8
0
 10
7.97717309
 20
4.55111513
  0
VERTEX
  8
0
 10
7.98460239
 20
4.57058563
  0
VERTEX
  8
0
 10
7.99374568
 20
4.58932782
  0
VERTEX
  8
0
 10
8.00446573
 20
4.60718165
  0
VERTEX
  8
0
 10
8.01334714
 20
4.61719117
  0
VERTEX
  8
0
 10
8.02300582
 20
4.62648652
  0
VERTEX
  8
0
 10
8.03336799
 20
4.63503230
  0
VERTEX
  8
0
 10
8.04435988
 20
4.64279311
  0
VERTEX
  8
0
 10
8.05590770
 20
4.64973355
  0
VERTEX
  8
0
 10
8.06793767
 20
4.65581821
  0
VERTEX
  8
0
 10
8.08037603
 20
4.66101170
  0
VERTEX
  8
0
 10
8.09314899
 20
4.66527862
  0
VERTEX
  8
0
 10
8.10618278
 20
4.66858356
  0
VERTEX
  8
0
 10
8.11940362
 20
4.67089112
  0
VERTEX
  8
0
 10
8.13273773
 20
4.67216591
  0
VERTEX
  8
0
 10
8.14611134
 20
4.67237252
  0
VERTEX
  8
0
 10
8.15945066
 20
4.67147556
  0
VERTEX
  8
0
 10
8.17268193
 20
4.66943961
  0
VERTEX
  8
0
 10
8.18573135
 20
4.66622929
  0
VERTEX
  8
0
 10
8.19852516
 20
4.66180918
  0
VERTEX
  8
0
 10
8.22822116
 20
4.65030061
  0
VERTEX
  8
0
 10
8.25750206
 20
4.63764274
  0
VERTEX
  8
0
 10
8.27149647
 20
4.63023130
  0
VERTEX
  8
0
 10
8.28479866
 20
4.62175072
  0
VERTEX
  8
0
 10
8.29721246
 20
4.61194038
  0
VERTEX
  8
0
 10
8.30854173
 20
4.60053969
  0
VERTEX
  8
0
 10
8.33413377
 20
4.57699879
  0
VERTEX
  8
0
 10
8.36092863
 20
4.55503258
  0
VERTEX
  8
0
 10
8.38867665
 20
4.53432113
  0
VERTEX
  8
0
 10
8.41712816
 20
4.51454450
  0
VERTEX
  8
0
 10
8.47514295
 20
4.47651605
  0
VERTEX
  8
0
 10
8.53297566
 20
4.43838780
  0
VERTEX
  8
0
 10
8.64411923
 20
4.33905200
  0
VERTEX
  8
0
 10
8.75428620
 20
4.23861077
  0
VERTEX
  8
0
 10
8.97289405
 20
4.03575835
  0
VERTEX
  8
0
 10
9.19120659
 20
3.83252310
  0
VERTEX
  8
0
 10
9.30100443
 20
3.73160335
  0
VERTEX
  8
0
 10
9.41163121
 20
3.63159761
  0
VERTEX
  8
0
 10
9.48458575
 20
3.56194797
  0
VERTEX
  8
0
 10
9.55820485
 20
3.49297152
  0
VERTEX
  8
0
 10
9.70649115
 20
3.35607640
  0
VERTEX
  8
0
 10
9.85459886
 20
3.21898869
  0
VERTEX
  8
0
 10
9.92799474
 20
3.14977152
  0
VERTEX
  8
0
 10
10.00063676
 20
3.07978488
  0
VERTEX
  8
0
 10
9.97185291
 20
3.06421891
  0
VERTEX
  8
0
 10
9.94244344
 20
3.04994576
  0
VERTEX
  8
0
 10
9.88260395
 20
3.02351367
  0
VERTEX
  8
0
 10
9.82283099
 20
2.99696019
  0
VERTEX
  8
0
 10
9.79350467
 20
2.98253530
  0
VERTEX
  8
0
 10
9.76483724
 20
2.96675691
  0
VERTEX
  8
0
 10
9.75791697
 20
2.96193098
  0
VERTEX
  8
0
 10
9.75275075
 20
2.95578663
  0
VERTEX
  8
0
 10
9.74895618
 20
2.94862850
  0
VERTEX
  8
0
 10
9.74615085
 20
2.94076118
  0
VERTEX
  8
0
 10
9.74197837
 20
2.92411748
  0
VERTEX
  8
0
 10
9.73984642
 20
2.91595032
  0
VERTEX
  8
0
 10
9.73717414
 20
2.90829245
  0
VERTEX
  8
0
 10
9.74555028
 20
2.90527271
  0
VERTEX
  8
0
 10
9.75404121
 20
2.90126227
  0
VERTEX
  8
0
 10
9.77130903
 20
2.89280381
  0
VERTEX
  8
0
 10
9.78005674
 20
2.88962307
  0
VERTEX
  8
0
 10
9.78886085
 20
2.88798620
  0
VERTEX
  8
0
 10
9.79770676
 20
2.88852682
  0
VERTEX
  8
0
 10
9.80214083
 20
2.88981170
  0
VERTEX
  8
0
 10
9.80657988
 20
2.89187858
  0
VERTEX
  8
0
 10
9.83941706
 20
2.90742750
  0
VERTEX
  8
0
 10
9.87295448
 20
2.92188157
  0
VERTEX
  8
0
 10
9.94037141
 20
2.95036278
  0
VERTEX
  8
0
 10
9.97337161
 20
2.96581873
  0
VERTEX
  8
0
 10
10.00531340
 20
2.98303748
  0
VERTEX
  8
0
 10
10.02075001
 20
2.99253114
  0
VERTEX
  8
0
 10
10.03575714
 20
3.00273341
  0
VERTEX
  8
0
 10
10.05027985
 20
3.01373358
  0
VERTEX
  8
0
 10
10.06426317
 20
3.02562095
  0
VERTEX
  8
0
 10
10.08283325
 20
3.00920911
  0
VERTEX
  8
0
 10
10.10113238
 20
2.99208181
  0
VERTEX
  8
0
 10
10.13734134
 20
2.95654319
  0
VERTEX
  8
0
 10
10.17373721
 20
2.92072975
  0
VERTEX
  8
0
 10
10.21116716
 20
2.88636615
  0
VERTEX
  8
0
 10
10.23053465
 20
2.87026701
  0
VERTEX
  8
0
 10
10.25047835
 20
2.85517707
  0
VERTEX
  8
0
 10
10.27110415
 20
2.84131193
  0
VERTEX
  8
0
 10
10.29251795
 20
2.82888717
  0
VERTEX
  8
0
 10
10.31482564
 20
2.81811836
  0
VERTEX
  8
0
 10
10.33813311
 20
2.80922110
  0
VERTEX
  8
0
 10
10.36254628
 20
2.80241097
  0
VERTEX
  8
0
 10
10.38817102
 20
2.79790354
  0
VERTEX
  8
0
 10
10.42235962
 20
2.85252544
  0
VERTEX
  8
0
 10
10.45439834
 20
2.90830525
  0
VERTEX
  8
0
 10
10.48418634
 20
2.96528872
  0
VERTEX
  8
0
 10
10.51162277
 20
3.02352162
  0
VERTEX
  8
0
 10
10.53604612
 20
3.06269894
  0
VERTEX
  8
0
 10
10.55840784
 20
3.10297322
  0
VERTEX
  8
0
 10
10.57938979
 20
3.14398377
  0
VERTEX
  8
0
 10
10.59967383
 20
3.18536990
  0
VERTEX
  8
0
 10
10.61994182
 20
3.22677091
  0
VERTEX
  8
0
 10
10.64087562
 20
3.26782610
  0
VERTEX
  8
0
 10
10.66315710
 20
3.30817480
  0
VERTEX
  8
0
 10
10.68746812
 20
3.34745628
  0
VERTEX
  8
0
 10
10.70662878
 20
3.38980594
  0
VERTEX
  8
0
 10
10.72755039
 20
3.43120836
  0
VERTEX
  8
0
 10
10.74963548
 20
3.47198406
  0
VERTEX
  8
0
 10
10.77228655
 20
3.51245354
  0
VERTEX
  8
0
 10
10.79490610
 20
3.55293732
  0
VERTEX
  8
0
 10
10.81689664
 20
3.59375592
  0
VERTEX
  8
0
 10
10.83766070
 20
3.63522983
  0
VERTEX
  8
0
 10
10.85660077
 20
3.67767958
  0
VERTEX
  8
0
 10
10.87767679
 20
3.71231614
  0
VERTEX
  8
0
 10
10.89782869
 20
3.74747462
  0
VERTEX
  8
0
 10
10.91709502
 20
3.78311853
  0
VERTEX
  8
0
 10
10.93551433
 20
3.81921138
  0
VERTEX
  8
0
 10
10.95312515
 20
3.85571667
  0
VERTEX
  8
0
 10
10.96996604
 20
3.89259793
  0
VERTEX
  8
0
 10
10.98607553
 20
3.92981865
  0
VERTEX
  8
0
 10
11.00149217
 20
3.96734235
  0
VERTEX
  8
0
 10
10.99170144
 20
3.98002258
  0
VERTEX
  8
0
 10
10.98044660
 20
3.99080776
  0
VERTEX
  8
0
 10
10.96800112
 20
4.00002413
  0
VERTEX
  8
0
 10
10.95463841
 20
4.00799794
  0
VERTEX
  8
0
 10
10.94063191
 20
4.01505543
  0
VERTEX
  8
0
 10
10.92625507
 20
4.02152285
  0
VERTEX
  8
0
 10
10.89748407
 20
4.03399241
  0
VERTEX
  8
0
 10
8.70560257
 20
5.02823026
  0
VERTEX
  8
0
 10
8.63237428
 20
5.06097610
  0
VERTEX
  8
0
 10
8.59585082
 20
5.07751119
  0
VERTEX
  8
0
 10
8.55964488
 20
5.09462042
  0
VERTEX
  8
0
 10
8.52394926
 20
5.11265333
  0
VERTEX
  8
0
 10
8.48895676
 20
5.13195945
  0
VERTEX
  8
0
 10
8.45486017
 20
5.15288831
  0
VERTEX
  8
0
 10
8.42185231
 20
5.17578944
  0
VERTEX
  8
0
 10
8.43484257
 20
5.20307266
  0
VERTEX
  8
0
 10
8.44108908
 20
5.21708549
  0
VERTEX
  8
0
 10
8.44647009
 20
5.23133904
  0
VERTEX
  8
0
 10
8.45046077
 20
5.24582823
  0
VERTEX
  8
0
 10
8.45253631
 20
5.26054800
  0
VERTEX
  8
0
 10
8.45217190
 20
5.27549326
  0
VERTEX
  8
0
 10
8.45091071
 20
5.28304887
  0
VERTEX
  8
0
 10
8.44884271
 20
5.29065895
  0
VERTEX
  8
0
 10
8.39064253
 20
5.32752509
  0
VERTEX
  8
0
 10
8.33215848
 20
5.36403362
  0
VERTEX
  8
0
 10
8.33897183
 20
5.46659539
  0
VERTEX
  8
0
 10
8.34184634
 20
5.51794294
  0
VERTEX
  8
0
 10
8.34344805
 20
5.56936640
  0
VERTEX
  8
0
 10
8.29601784
 20
5.59704902
  0
VERTEX
  8
0
 10
8.32764928
 20
5.66702846
  0
VERTEX
  8
0
 10
8.34188882
 20
5.70266496
  0
VERTEX
  8
0
 10
8.34802951
 20
5.72085051
  0
VERTEX
  8
0
 10
8.35329463
 20
5.73935926
  0
SEQEND
  0
POLYLINE
  8
Default_Layer
 66
   1
 39
0.000000
 70
    1
  0
VERTEX
  8
0
 10
7.84566475
 20
5.82052820
  0
VERTEX
  8
0
 10
7.85177392
 20
5.81138339
  0
VERTEX
  8
0
 10
7.85696637
 20
5.80193251
  0
VERTEX
  8
0
 10
7.86132556
 20
5.79220610
  0
VERTEX
  8
0
 10
7.86493492
 20
5.78223471
  0
VERTEX
  8
0
 10
7.87023798
 20
5.76167911
  0
VERTEX
  8
0
 10
7.87354312
 20
5.74051002
  0
VERTEX
  8
0
 10
7.87551790
 20
5.71897174
  0
VERTEX
  8
0
 10
7.87682991
 20
5.69730859
  0
VERTEX
  8
0
 10
7.87814670
 20
5.67576486
  0
VERTEX
  8
0
 10
7.88013585
 20
5.65458488
  0
VERTEX
  8
0
 10
7.88120894
 20
5.64450395
  0
VERTEX
  8
0
 10
7.88100730
 20
5.63459100
  0
VERTEX
  8
0
 10
7.87971239
 20
5.62483972
  0
VERTEX
  8
0
 10
7.87750563
 20
5.61524378
  0
VERTEX
  8
0
 10
7.87108232
 20
5.59649263
  0
VERTEX
  8
0
 10
7.86318887
 20
5.57828694
  0
VERTEX
  8
0
 10
7.83373302
 20
5.58721205
  0
VERTEX
  8
0
 10
7.80478460
 20
5.59750675
  0
VERTEX
  8
0
 10
7.77623815
 20
5.60888830
  0
VERTEX
  8
0
 10
7.74798815
 20
5.62107397
  0
VERTEX
  8
0
 10
7.69195557
 20
5.64672665
  0
VERTEX
  8
0
 10
7.63584292
 20
5.67220286
  0
VERTEX
  8
0
 10
7.44083655
 20
5.76100585
  0
VERTEX
  8
0
 10
7.24546530
 20
5.84897116
  0
VERTEX
  8
0
 10
7.05018789
 20
5.93707631
  0
VERTEX
  8
0
 10
6.85546306
 20
6.02629876
  0
VERTEX
  8
0
 10
6.82952295
 20
6.03912800
  0
VERTEX
  8
0
 10
6.81630080
 20
6.04553351
  0
VERTEX
  8
0
 10
6.80341642
 20
6.05242797
  0
VERTEX
  8
0
 10
6.79124917
 20
6.06018267
  0
VERTEX
  8
0
 10
6.78017844
 20
6.06916888
  0
VERTEX
  8
0
 10
6.77058360
 20
6.07975787
  0
VERTEX
  8
0
 10
6.76284401
 20
6.09232094
  0
VERTEX
  8
0
 10
6.75822431
 20
6.10064277
  0
VERTEX
  8
0
 10
6.75454566
 20
6.10921284
  0
VERTEX
  8
0
 10
6.75176900
 20
6.11798688
  0
VERTEX
  8
0
 10
6.74985523
 20
6.12692064
  0
VERTEX
  8
0
 10
6.74876527
 20
6.13596985
  0
VERTEX
  8
0
 10
6.74846004
 20
6.14509028
  0
VERTEX
  8
0
 10
6.75004746
 20
6.16336771
  0
VERTEX
  8
0
 10
6.75430482
 20
6.18139889
  0
VERTEX
  8
0
 10
6.76091948
 20
6.19882977
  0
VERTEX
  8
0
 10
6.76957877
 20
6.21530629
  0
VERTEX
  8
0
 10
6.77997005
 20
6.23047442
  0
VERTEX
  8
0
 10
6.79660936
 20
6.24078300
  0
VERTEX
  8
0
 10
6.81427628
 20
6.24954988
  0
VERTEX
  8
0
 10
6.83271456
 20
6.25642390
  0
VERTEX
  8
0
 10
6.85166798
 20
6.26105392
  0
VERTEX
  8
0
 10
6.87088030
 20
6.26308879
  0
VERTEX
  8
0
 10
6.88050348
 20
6.26302331
  0
VERTEX
  8
0
 10
6.89009529
 20
6.26217736
  0
VERTEX
  8
0
 10
6.89962370
 20
6.26050705
  0
VERTEX
  8
0
 10
6.90905670
 20
6.25796849
  0
VERTEX
  8
0
 10
6.91836224
 20
6.25451778
  0
VERTEX
  8
0
 10
6.92750830
 20
6.25011102
  0
VERTEX
  8
0
 10
7.13597175
 20
6.15654463
  0
VERTEX
  8
0
 10
7.34409668
 20
6.06209819
  0
VERTEX
  8
0
 10
7.55215298
 20
5.96750050
  0
VERTEX
  8
0
 10
7.76041052
 20
5.87348031
  0
VERTEX
  8
0
 10
7.78320314
 20
5.86266445
  0
VERTEX
  8
0
 10
7.80564243
 20
5.85086889
  0
VERTEX
  8
0
 10
7.81643299
 20
5.84430602
  0
VERTEX
  8
0
 10
7.82677932
 20
5.83714101
  0
VERTEX
  8
0
 10
7.83656278
 20
5.82925476
  0
VERTEX
  8
0
 10
7.84566475
 20
5.82052820
  0
SEQEND
  0
POLYLINE
  8
Default_Layer
 66
   1
 39
0.000000
 70
    1
  0
VERTEX
  8
0
 10
3.43262593
 20
7.80558749
  0
VERTEX
  8
0
 10
3.44076365
 20
7.76562387
  0
VERTEX
  8
0
 10
3.44954628
 20
7.72574574
  0
VERTEX
  8
0
 10
3.46741053
 20
7.64600771
  0
VERTEX
  8
0
 10
3.47567428
 20
7.60602871
  0
VERTEX
  8
0
 10
3.48294720
 20
7.56589698
  0
VERTEX
  8
0
 10
3.48882036
 20
7.52555296
  0
VERTEX
  8
0
 10
3.49288481
 20
7.48493710
  0
VERTEX
  8
0
 10
3.41655511
 20
7.51702296
  0
VERTEX
  8
0
 10
3.34073550
 20
7.55036700
  0
VERTEX
  8
0
 10
3.26562511
 20
7.58527408
  0
VERTEX
  8
0
 10
3.19142309
 20
7.62204907
  0
VERTEX
  8
0
 10
3.22308673
 20
7.69183149
  0
VERTEX
  8
0
 10
3.25555711
 20
7.76124785
  0
VERTEX
  8
0
 10
3.29272535
 20
7.75293562
  0
VERTEX
  8
0
 10
3.33013082
 20
7.74621820
  0
VERTEX
  8
0
 10
3.35456120
 20
7.80104215
  0
VERTEX
  8
0
 10
3.36770917
 20
7.82803087
  0
VERTEX
  8
0
 10
3.38161346
 20
7.85467642
  0
VERTEX
  8
0
 10
3.39831949
 20
7.84575591
  0
VERTEX
  8
0
 10
3.40683109
 20
7.84131016
  0
VERTEX
  8
0
 10
3.41483678
 20
7.83641944
  0
VERTEX
  8
0
 10
3.42187783
 20
7.83074278
  0
VERTEX
  8
0
 10
3.42749552
 20
7.82393922
  0
VERTEX
  8
0
 10
3.43123113
 20
7.81566778
  0
VERTEX
  8
0
 10
3.43262593
 20
7.80558749
  0
SEQEND
  0
POLYLINE
  8
Default_Layer
 66
   1
 39
0.000000
 70
    1
  0
VERTEX
  8
0
 10
3.44113154
 20
7.39767965
  0
VERTEX
  8
0
 10
3.42899076
 20
7.37092300
  0
VERTEX
  8
0
 10
3.21372747
 20
7.46859832
  0
VERTEX
  8
0
 10
3.22606371
 20
7.49542841
  0
VERTEX
  8
0
 10
3.33383108
 20
7.44693452
  0
VERTEX
  8
0
 10
3.44113154
 20
7.39767965
  0
SEQEND
  0
POLYLINE
  8
Default_Layer
 66
   1
 39
0.000000
 70
    1
  0
VERTEX
  8
0
 10
1.73948752
 20
8.03943831
  0
VERTEX
  8
0
 10
1.71431334
 20
7.98681645
  0
VERTEX
  8
0
 10
1.52606317
 20
8.07255889
  0
VERTEX
  8
0
 10
1.55013801
 20
8.12454460
  0
VERTEX
  8
0
 10
1.64516060
 20
8.08262405
  0
VERTEX
  8
0
 10
1.73948752
 20
8.03943831
  0
SEQEND
  0
POLYLINE
  8
Default_Layer
 66
   1
 39
0.000000
 70
    1
  0
VERTEX
  8
0
 10
7.29512031
 20
4.60466260
  0
VERTEX
  8
0
 10
7.29550133
 20
4.60469386
  0
VERTEX
  8
0
 10
7.31485896
 20
4.60748310
  0
VERTEX
  8
0
 10
7.33386810
 20
4.61228774
  0
VERTEX
  8
0
 10
7.35238966
 20
4.61897857
  0
VERTEX
  8
0
 10
7.37028453
 20
4.62742641
  0
VERTEX
  8
0
 10
7.38741361
 20
4.63750208
  0
VERTEX
  8
0
 10
7.40363780
 20
4.64907639
  0
VERTEX
  8
0
 10
7.41881798
 20
4.66202016
  0
VERTEX
  8
0
 10
7.43281507
 20
4.67620419
  0
VERTEX
  8
0
 10
7.44548994
 20
4.69149930
  0
VERTEX
  8
0
 10
7.45670351
 20
4.70777630
  0
VERTEX
  8
0
 10
7.46631667
 20
4.72490601
  0
VERTEX
  8
0
 10
7.47419031
 20
4.74275923
  0
VERTEX
  8
0
 10
7.48018532
 20
4.76120679
  0
VERTEX
  8
0
 10
7.48416262
 20
4.78011950
  0
VERTEX
  8
0
 10
7.48598308
 20
4.79936817
  0
VERTEX
  8
0
 10
7.48550762
 20
4.81882361
  0
VERTEX
  8
0
 10
7.49282142
 20
4.80125265
  0
VERTEX
  8
0
 10
7.50091585
 20
4.78339209
  0
VERTEX
  8
0
 10
7.50890563
 20
4.76526741
  0
VERTEX
  8
0
 10
7.51590549
 20
4.74690407
  0
VERTEX
  8
0
 10
7.52103018
 20
4.72832757
  0
VERTEX
  8
0
 10
7.52261269
 20
4.71896734
  0
VERTEX
  8
0
 10
7.52339442
 20
4.70956337
  0
VERTEX
  8
0
 10
7.52326473
 20
4.70011884
  0
VERTEX
  8
0
 10
7.52211295
 20
4.69063695
  0
VERTEX
  8
0
 10
7.51982842
 20
4.68112086
  0
VERTEX
  8
0
 10
7.51630049
 20
4.67157378
  0
VERTEX
  8
0
 10
7.51297128
 20
4.66083869
  0
VERTEX
  8
0
 10
7.50866983
 20
4.65058751
  0
VERTEX
  8
0
 10
7.50346526
 20
4.64083542
  0
VERTEX
  8
0
 10
7.49742669
 20
4.63159761
  0
VERTEX
  8
0
 10
7.49062323
 20
4.62288927
  0
VERTEX
  8
0
 10
7.48312401
 20
4.61472559
  0
VERTEX
  8
0
 10
7.47499814
 20
4.60712175
  0
VERTEX
  8
0
 10
7.46631474
 20
4.60009296
  0
VERTEX
  8
0
 10
7.44755183
 20
4.58782123
  0
VERTEX
  8
0
 10
7.42738824
 20
4.57803192
  0
VERTEX
  8
0
 10
7.40637692
 20
4.57084653
  0
VERTEX
  8
0
 10
7.38507081
 20
4.56638658
  0
VERTEX
  8
0
 10
7.34048085
 20
4.58492245
  0
VERTEX
  8
0
 10
7.29619181
 20
4.60418504
  0
VERTEX
  8
0
 10
7.29512031
 20
4.60466260
  0
SEQEND
  0
POLYLINE
  8
Default_Layer
 66
   1
 39
0.000000
 70
    1
  0
VERTEX
  8
0
 10
7.25317920
 20
4.62356805
  0
VERTEX
  8
0
 10
7.15787656
 20
4.66785666
  0
VERTEX
  8
0
 10
7.06271991
 20
4.71249055
  0
VERTEX
  8
0
 10
7.05653422
 20
4.72497128
  0
VERTEX
  8
0
 10
7.05121762
 20
4.73831265
  0
VERTEX
  8
0
 10
7.04683884
 20
4.75234002
  0
VERTEX
  8
0
 10
7.04346660
 20
4.76687875
  0
VERTEX
  8
0
 10
7.04116962
 20
4.78175421
  0
VERTEX
  8
0
 10
7.04001664
 20
4.79679175
  0
VERTEX
  8
0
 10
7.04007637
 20
4.81181674
  0
VERTEX
  8
0
 10
7.04141754
 20
4.82665454
  0
VERTEX
  8
0
 10
7.04410888
 20
4.84113052
  0
VERTEX
  8
0
 10
7.04821911
 20
4.85507003
  0
VERTEX
  8
0
 10
7.05381696
 20
4.86829843
  0
VERTEX
  8
0
 10
7.06097115
 20
4.88064109
  0
VERTEX
  8
0
 10
7.06975041
 20
4.89192337
  0
VERTEX
  8
0
 10
7.08022346
 20
4.90197063
  0
VERTEX
  8
0
 10
7.09245903
 20
4.91060823
  0
VERTEX
  8
0
 10
7.10652584
 20
4.91766154
  0
VERTEX
  8
0
 10
7.12107445
 20
4.92471775
  0
VERTEX
  8
0
 10
7.13576611
 20
4.92991539
  0
VERTEX
  8
0
 10
7.15056669
 20
4.93338396
  0
VERTEX
  8
0
 10
7.16544211
 20
4.93525293
  0
VERTEX
  8
0
 10
7.18035823
 20
4.93565178
  0
VERTEX
  8
0
 10
7.19528094
 20
4.93471000
  0
VERTEX
  8
0
 10
7.21017614
 20
4.93255707
  0
VERTEX
  8
0
 10
7.22500971
 20
4.92932247
  0
VERTEX
  8
0
 10
7.23974754
 20
4.92513569
  0
VERTEX
  8
0
 10
7.25435551
 20
4.92012620
  0
VERTEX
  8
0
 10
7.28304544
 20
4.90815703
  0
VERTEX
  8
0
 10
7.31080658
 20
4.89445083
  0
VERTEX
  8
0
 10
7.33736604
 20
4.88004345
  0
VERTEX
  8
0
 10
7.34891640
 20
4.86256265
  0
VERTEX
  8
0
 10
7.35888942
 20
4.84401340
  0
VERTEX
  8
0
 10
7.36711600
 20
4.82458835
  0
VERTEX
  8
0
 10
7.37342704
 20
4.80448013
  0
VERTEX
  8
0
 10
7.37765345
 20
4.78388136
  0
VERTEX
  8
0
 10
7.37962611
 20
4.76298468
  0
VERTEX
  8
0
 10
7.37917594
 20
4.74198272
  0
VERTEX
  8
0
 10
7.37613382
 20
4.72106812
  0
VERTEX
  8
0
 10
7.36767444
 20
4.70870702
  0
VERTEX
  8
0
 10
7.35780103
 20
4.69705582
  0
VERTEX
  8
0
 10
7.34623346
 20
4.68578438
  0
VERTEX
  8
0
 10
7.33269163
 20
4.67456253
  0
VERTEX
  8
0
 10
7.31689540
 20
4.66306013
  0
VERTEX
  8
0
 10
7.29856467
 20
4.65094701
  0
VERTEX
  8
0
 10
7.25317920
 20
4.62356805
  0
SEQEND
  0
POLYLINE
  8
Default_Layer
 66
   1
 39
0.000000
 70
    1
  0
VERTEX
  8
0
 10
5.18828488
 20
3.06171796
  0
VERTEX
  8
0
 10
5.18828488
 20
5.32754085
  0
VERTEX
  8
0
 10
6.20688488
 20
5.32754085
  0
VERTEX
  8
0
 10
6.23208161
 20
5.32709804
  0
VERTEX
  8
0
 10
6.25688153
 20
5.32577888
  0
VERTEX
  8
0
 10
6.28128466
 20
5.32359730
  0
VERTEX
  8
0
 10
6.30529099
 20
5.32056718
  0
VERTEX
  8
0
 10
6.32890053
 20
5.31670245
  0
VERTEX
  8
0
 10
6.35211326
 20
5.31201702
  0
VERTEX
  8
0
 10
6.37492919
 20
5.30652479
  0
VERTEX
  8
0
 10
6.39734833
 20
5.30023968
  0
VERTEX
  8
0
 10
6.41937066
 20
5.29317560
  0
VERTEX
  8
0
 10
6.44099620
 20
5.28534645
  0
VERTEX
  8
0
 10
6.46222494
 20
5.27676615
  0
VERTEX
  8
0
 10
6.48305688
 20
5.26744860
  0
VERTEX
  8
0
 10
6.50349202
 20
5.25740773
  0
VERTEX
  8
0
 10
6.52353036
 20
5.24665743
  0
VERTEX
  8
0
 10
6.54317190
 20
5.23521162
  0
VERTEX
  8
0
 10
6.56241664
 20
5.22308421
  0
VERTEX
  8
0
 10
6.58126459
 20
5.21028910
  0
VERTEX
  8
0
 10
6.59971574
 20
5.19684022
  0
VERTEX
  8
0
 10
6.63542763
 20
5.16803674
  0
VERTEX
  8
0
 10
6.66955233
 20
5.13678506
  0
VERTEX
  8
0
 10
6.70208984
 20
5.10319647
  0
VERTEX
  8
0
 10
6.73304015
 20
5.06738223
  0
VERTEX
  8
0
 10
6.76240326
 20
5.02945364
  0
VERTEX
  8
0
 10
6.79017918
 20
4.98952197
  0
VERTEX
  8
0
 10
6.81636790
 20
4.94769851
  0
VERTEX
  8
0
 10
6.84096943
 20
4.90409454
  0
VERTEX
  8
0
 10
6.86398377
 20
4.85882134
  0
VERTEX
  8
0
 10
6.88541090
 20
4.81199019
  0
VERTEX
  8
0
 10
6.90525085
 20
4.76371237
  0
VERTEX
  8
0
 10
6.92350359
 20
4.71409918
  0
VERTEX
  8
0
 10
6.94016914
 20
4.66326188
  0
VERTEX
  8
0
 10
6.95524750
 20
4.61131176
  0
VERTEX
  8
0
 10
6.96873866
 20
4.55836011
  0
VERTEX
  8
0
 10
6.98064263
 20
4.50451820
  0
VERTEX
  8
0
 10
6.99095940
 20
4.44989732
  0
VERTEX
  8
0
 10
6.99968897
 20
4.39460874
  0
VERTEX
  8
0
 10
7.00683135
 20
4.33876376
  0
VERTEX
  8
0
 10
7.01238653
 20
4.28247364
  0
VERTEX
  8
0
 10
7.01635452
 20
4.22584968
  0
VERTEX
  8
0
 10
7.01873531
 20
4.16900316
  0
VERTEX
  8
0
 10
7.01952891
 20
4.11204536
  0
VERTEX
  8
0
 10
7.01873531
 20
4.05508755
  0
VERTEX
  8
0
 10
7.01635452
 20
3.99824103
  0
VERTEX
  8
0
 10
7.01238653
 20
3.94161707
  0
VERTEX
  8
0
 10
7.00683135
 20
3.88532696
  0
VERTEX
  8
0
 10
6.99968897
 20
3.82948198
  0
VERTEX
  8
0
 10
6.99095940
 20
3.77419340
  0
VERTEX
  8
0
 10
6.98064263
 20
3.71957252
  0
VERTEX
  8
0
 10
6.96873866
 20
3.66573061
  0
VERTEX
  8
0
 10
6.95524750
 20
3.61277895
  0
VERTEX
  8
0
 10
6.94016914
 20
3.56082884
  0
VERTEX
  8
0
 10
6.92350359
 20
3.50999154
  0
VERTEX
  8
0
 10
6.90525085
 20
3.46037834
  0
VERTEX
  8
0
 10
6.88541090
 20
3.41210053
  0
VERTEX
  8
0
 10
6.86398377
 20
3.36526938
  0
VERTEX
  8
0
 10
6.84096943
 20
3.31999618
  0
VERTEX
  8
0
 10
6.81636790
 20
3.27639221
  0
VERTEX
  8
0
 10
6.79017918
 20
3.23456875
  0
VERTEX
  8
0
 10
6.76240326
 20
3.19463708
  0
VERTEX
  8
0
 10
6.73304015
 20
3.15670849
  0
VERTEX
  8
0
 10
6.70208984
 20
3.12089425
  0
VERTEX
  8
0
 10
6.66955233
 20
3.08730565
  0
VERTEX
  8
0
 10
6.63542763
 20
3.05605398
  0
VERTEX
  8
0
 10
6.59971574
 20
3.02725050
  0
VERTEX
  8
0
 10
6.58126459
 20
3.01380162
  0
VERTEX
  8
0
 10
6.56241664
 20
3.00100651
  0
VERTEX
  8
0
 10
6.54317190
 20
2.98887910
  0
VERTEX
  8
0
 10
6.52353036
 20
2.97743329
  0
VERTEX
  8
0
 10
6.50349202
 20
2.96668299
  0
VERTEX
  8
0
 10
6.48305688
 20
2.95664211
  0
VERTEX
  8
0
 10
6.46222494
 20
2.94732457
  0
VERTEX
  8
0
 10
6.44099620
 20
2.93874427
  0
VERTEX
  8
0
 10
6.41937066
 20
2.93091512
  0
VERTEX
  8
0
 10
6.39734833
 20
2.92385104
  0
VERTEX
  8
0
 10
6.37492919
 20
2.91756592
  0
VERTEX
  8
0
 10
6.35211326
 20
2.91207370
  0
VERTEX
  8
0
 10
6.32890053
 20
2.90738826
  0
VERTEX
  8
0
 10
6.30529099
 20
2.90352354
  0
VERTEX
  8
0
 10
6.28128466
 20
2.90049342
  0
VERTEX
  8
0
 10
6.25688153
 20
2.89831183
  0
VERTEX
  8
0
 10
6.23208161
 20
2.89699268
  0
VERTEX
  8
0
 10
6.20688488
 20
2.89654987
  0
VERTEX
  8
0
 10
5.33951341
 20
2.89654987
  0
VERTEX
  8
0
 10
5.32367858
 20
2.89742725
  0
VERTEX
  8
0
 10
5.30838644
 20
2.89999750
  0
VERTEX
  8
0
 10
5.29370309
 20
2.90416771
  0
VERTEX
  8
0
 10
5.27969460
 20
2.90984502
  0
VERTEX
  8
0
 10
5.26642705
 20
2.91693655
  0
VERTEX
  8
0
 10
5.25396651
 20
2.92534941
  0
VERTEX
  8
0
 10
5.24237908
 20
2.93499073
  0
VERTEX
  8
0
 10
5.23173083
 20
2.94576762
  0
VERTEX
  8
0
 10
5.22208784
 20
2.95758721
  0
VERTEX
  8
0
 10
5.21351619
 20
2.97035662
  0
VERTEX
  8
0
 10
5.20608195
 20
2.98398296
  0
VERTEX
  8
0
 10
5.19985122
 20
2.99837337
  0
VERTEX
  8
0
 10
5.19489007
 20
3.01343495
  0
VERTEX
  8
0
 10
5.19126457
 20
3.02907483
  0
VERTEX
  8
0
 10
5.18904082
 20
3.04520012
  0
VERTEX
  8
0
 10
5.18828488
 20
3.06171796
  0
SEQEND
  0
POLYLINE
  8
Default_Layer
 66
   1
 39
0.000000
 70
    1
  0
VERTEX
  8
0
 10
3.85138488
 20
2.89458037
  0
VERTEX
  8
0
 10
3.85138488
 20
2.57428156
  0
VERTEX
  8
0
 10
4.51592122
 20
2.57428156
  0
VERTEX
  8
0
 10
5.45494854
 20
2.57428156
  0
VERTEX
  8
0
 10
6.05174854
 20
2.57428156
  0
VERTEX
  8
0
 10
6.26660265
 20
2.57428156
 42
0.86881995
  0
VERTEX
  8
0
 10
6.66049390
 20
5.53522496
  0
VERTEX
  8
0
 10
6.64143597
 20
5.54007120
  0
VERTEX
  8
0
 10
6.62481147
 20
5.54663943
  0
VERTEX
  8
0
 10
6.61057953
 20
5.55469816
  0
VERTEX
  8
0
 10
6.59869926
 20
5.56401586
  0
VERTEX
  8
0
 10
6.58912978
 20
5.57436101
  0
VERTEX
  8
0
 10
6.58183020
 20
5.58550211
  0
VERTEX
  8
0
 10
6.57675964
 20
5.59720763
  0
VERTEX
  8
0
 10
6.57387723
 20
5.60924607
  0
VERTEX
  8
0
 10
6.57314207
 20
5.62138590
  0
VERTEX
  8
0
 10
6.57451328
 20
5.63339560
  0
VERTEX
  8
0
 10
6.57794997
 20
5.64504367
  0
VERTEX
  8
0
 10
6.58341128
 20
5.65609859
  0
VERTEX
  8
0
 10
6.59085630
 20
5.66632884
  0
VERTEX
  8
0
 10
6.60024417
 20
5.67550290
  0
VERTEX
  8
0
 10
6.61153399
 20
5.68338927
  0
VERTEX
  8
0
 10
6.62468488
 20
5.68975642
 42
0.82348262
  0
VERTEX
  8
0
 10
6.13530292
 20
8.35549987
  0
VERTEX
  8
0
 10
6.05174854
 20
8.35549987
  0
VERTEX
  8
0
 10
5.45494854
 20
8.35549987
  0
VERTEX
  8
0
 10
4.51592122
 20
8.35549987
  0
VERTEX
  8
0
 10
3.85138488
 20
8.35549987
  0
VERTEX
  8
0
 10
3.85138488
 20
7.95551034
  0
VERTEX
  8
0
 10
4.34083681
 20
7.95551034
  0
VERTEX
  8
0
 10
4.35889539
 20
7.95456554
  0
VERTEX
  8
0
 10
4.37639632
 20
7.95179457
  0
VERTEX
  8
0
 10
4.39325581
 20
7.94729257
  0
VERTEX
  8
0
 10
4.40939003
 20
7.94115470
  0
VERTEX
  8
0
 10
4.42471516
 20
7.93347610
  0
VERTEX
  8
0
 10
4.43914740
 20
7.92435192
  0
VERTEX
  8
0
 10
4.45260293
 20
7.91387730
  0
VERTEX
  8
0
 10
4.46499793
 20
7.90214741
  0
VERTEX
  8
0
 10
4.47624859
 20
7.88925738
  0
VERTEX
  8
0
 10
4.48627109
 20
7.87530236
  0
VERTEX
  8
0
 10
4.49498162
 20
7.86037750
  0
VERTEX
  8
0
 10
4.50229637
 20
7.84457795
  0
VERTEX
  8
0
 10
4.50813152
 20
7.82799886
  0
VERTEX
  8
0
 10
4.51240326
 20
7.81073538
  0
VERTEX
  8
0
 10
4.51502776
 20
7.79288264
  0
VERTEX
  8
0
 10
4.51592122
 20
7.77453581
  0
VERTEX
  8
0
 10
4.51592122
 20
7.08025167
  0
VERTEX
  8
0
 10
4.51592122
 20
3.13527851
  0
VERTEX
  8
0
 10
4.51491330
 20
3.11155938
  0
VERTEX
  8
0
 10
4.51194279
 20
3.08832151
  0
VERTEX
  8
0
 10
4.50708958
 20
3.06570964
  0
VERTEX
  8
0
 10
4.50043355
 20
3.04386852
  0
VERTEX
  8
0
 10
4.49205460
 20
3.02294290
  0
VERTEX
  8
0
 10
4.48203260
 20
3.00307751
  0
VERTEX
  8
0
 10
4.47044744
 20
2.98441710
  0
VERTEX
  8
0
 10
4.45737901
 20
2.96710641
  0
VERTEX
  8
0
 10
4.44290719
 20
2.95129020
  0
VERTEX
  8
0
 10
4.42711186
 20
2.93711320
  0
VERTEX
  8
0
 10
4.41007292
 20
2.92472016
  0
VERTEX
  8
0
 10
4.39187025
 20
2.91425582
  0
VERTEX
  8
0
 10
4.37258373
 20
2.90586493
  0
VERTEX
  8
0
 10
4.35229325
 20
2.89969223
  0
VERTEX
  8
0
 10
4.33107869
 20
2.89588246
  0
VERTEX
  8
0
 10
4.30901994
 20
2.89458037
  0
VERTEX
  8
0
 10
3.85138488
 20
2.89458037
  0
SEQEND
  0
POLYLINE
  8
Default_Layer
 66
   1
 39
0.000000
 70
    1
  0
VERTEX
  8
0
 10
5.24322088
 20
7.81084646
  0
VERTEX
  8
0
 10
5.24322088
 20
5.69290929
  0
VERTEX
  8
0
 10
6.06343698
 20
5.69290929
  0
VERTEX
  8
0
 10
6.08532100
 20
5.69332336
  0
VERTEX
  8
0
 10
6.10686724
 20
5.69455688
  0
VERTEX
  8
0
 10
6.12807593
 20
5.69659687
  0
VERTEX
  8
0
 10
6.14894732
 20
5.69943030
  0
VERTEX
  8
0
 10
6.16948165
 20
5.70304416
  0
VERTEX
  8
0
 10
6.18967915
 20
5.70742547
  0
VERTEX
  8
0
 10
6.20954007
 20
5.71256119
  0
VERTEX
  8
0
 10
6.22906463
 20
5.71843834
  0
VERTEX
  8
0
 10
6.24825309
 20
5.72504389
  0
VERTEX
  8
0
 10
6.26710568
 20
5.73236485
  0
VERTEX
  8
0
 10
6.28562263
 20
5.74038820
  0
VERTEX
  8
0
 10
6.30380420
 20
5.74910094
  0
VERTEX
  8
0
 10
6.33916211
 20
5.76854256
  0
VERTEX
  8
0
 10
6.37318133
 20
5.79058564
  0
VERTEX
  8
0
 10
6.40586376
 20
5.81512614
  0
VERTEX
  8
0
 10
6.43721131
 20
5.84205997
  0
VERTEX
  8
0
 10
6.46722591
 20
5.87128310
  0
VERTEX
  8
0
 10
6.49590945
 20
5.90269146
  0
VERTEX
  8
0
 10
6.52326387
 20
5.93618099
  0
VERTEX
  8
0
 10
6.54929105
 20
5.97164764
  0
VERTEX
  8
0
 10
6.57399293
 20
6.00898734
  0
VERTEX
  8
0
 10
6.59737141
 20
6.04809604
  0
VERTEX
  8
0
 10
6.61942840
 20
6.08886967
  0
VERTEX
  8
0
 10
6.64016582
 20
6.13120419
  0
VERTEX
  8
0
 10
6.65958558
 20
6.17499552
  0
VERTEX
  8
0
 10
6.67768959
 20
6.22013962
  0
VERTEX
  8
0
 10
6.69447976
 20
6.26653242
  0
VERTEX
  8
0
 10
6.70995801
 20
6.31406986
  0
VERTEX
  8
0
 10
6.72412624
 20
6.36264789
  0
VERTEX
  8
0
 10
6.73698638
 20
6.41216245
  0
VERTEX
  8
0
 10
6.74854033
 20
6.46250948
  0
VERTEX
  8
0
 10
6.75879001
 20
6.51358492
  0
VERTEX
  8
0
 10
6.76773732
 20
6.56528471
  0
VERTEX
  8
0
 10
6.77538418
 20
6.61750479
  0
VERTEX
  8
0
 10
6.78173251
 20
6.67014111
  0
VERTEX
  8
0
 10
6.78678421
 20
6.72308960
  0
VERTEX
  8
0
 10
6.79054120
 20
6.77624621
  0
VERTEX
  8
0
 10
6.79300539
 20
6.82950688
  0
VERTEX
  8
0
 10
6.79417869
 20
6.88276755
  0
VERTEX
  8
0
 10
6.79406302
 20
6.93592416
  0
VERTEX
  8
0
 10
6.79266028
 20
6.98887265
  0
VERTEX
  8
0
 10
6.78997239
 20
7.04150897
  0
VERTEX
  8
0
 10
6.78600127
 20
7.09372905
  0
VERTEX
  8
0
 10
6.78074882
 20
7.14542884
  0
VERTEX
  8
0
 10
6.77421696
 20
7.19650428
  0
VERTEX
  8
0
 10
6.76640759
 20
7.24685131
  0
VERTEX
  8
0
 10
6.75732264
 20
7.29636587
  0
VERTEX
  8
0
 10
6.74696401
 20
7.34494390
  0
VERTEX
  8
0
 10
6.73533362
 20
7.39248134
  0
VERTEX
  8
0
 10
6.72243338
 20
7.43887414
  0
VERTEX
  8
0
 10
6.70826519
 20
7.48401824
  0
VERTEX
  8
0
 10
6.69283099
 20
7.52780958
  0
VERTEX
  8
0
 10
6.67613266
 20
7.57014409
  0
VERTEX
  8
0
 10
6.65817214
 20
7.61091772
  0
VERTEX
  8
0
 10
6.63895133
 20
7.65002642
  0
VERTEX
  8
0
 10
6.61847214
 20
7.68736612
  0
VERTEX
  8
0
 10
6.59673648
 20
7.72283277
  0
VERTEX
  8
0
 10
6.57374628
 20
7.75632230
  0
VERTEX
  8
0
 10
6.54950343
 20
7.78773066
  0
VERTEX
  8
0
 10
6.52400986
 20
7.81695379
  0
VERTEX
  8
0
 10
6.49726747
 20
7.84388763
  0
VERTEX
  8
0
 10
6.46927818
 20
7.86842812
  0
VERTEX
  8
0
 10
6.44004391
 20
7.89047120
  0
VERTEX
  8
0
 10
6.40956655
 20
7.90991282
  0
VERTEX
  8
0
 10
6.39386231
 20
7.91862556
  0
VERTEX
  8
0
 10
6.37784803
 20
7.92664891
  0
VERTEX
  8
0
 10
6.36152393
 20
7.93396987
  0
VERTEX
  8
0
 10
6.34489025
 20
7.94057542
  0
VERTEX
  8
0
 10
6.32794725
 20
7.94645257
  0
VERTEX
  8
0
 10
6.31069514
 20
7.95158830
  0
VERTEX
  8
0
 10
6.29313418
 20
7.95596960
  0
VERTEX
  8
0
 10
6.27526460
 20
7.95958347
  0
VERTEX
  8
0
 10
6.25708664
 20
7.96241689
  0
VERTEX
  8
0
 10
6.23860054
 20
7.96445688
  0
VERTEX
  8
0
 10
6.21980654
 20
7.96569041
  0
VERTEX
  8
0
 10
6.20070488
 20
7.96610447
  0
VERTEX
  8
0
 10
5.38537570
 20
7.96610447
  0
VERTEX
  8
0
 10
5.37049096
 20
7.96527973
  0
VERTEX
  8
0
 10
5.35611635
 20
7.96286370
  0
VERTEX
  8
0
 10
5.34231400
 20
7.95894370
  0
VERTEX
  8
0
 10
5.32914602
 20
7.95360703
  0
VERTEX
  8
0
 10
5.31667452
 20
7.94694099
  0
VERTEX
  8
0
 10
5.30496162
 20
7.93903290
  0
VERTEX
  8
0
 10
5.29406943
 20
7.92997006
  0
VERTEX
  8
0
 10
5.28406007
 20
7.91983978
  0
VERTEX
  8
0
 10
5.27499566
 20
7.90872937
  0
VERTEX
  8
0
 10
5.26693831
 20
7.89672613
  0
VERTEX
  8
0
 10
5.25995013
 20
7.88391736
  0
VERTEX
  8
0
 10
5.25409324
 20
7.87039038
  0
VERTEX
  8
0
 10
5.24942976
 20
7.85623250
  0
VERTEX
  8
0
 10
5.24602179
 20
7.84153101
  0
VERTEX
  8
0
 10
5.24393146
 20
7.82637323
  0
VERTEX
  8
0
 10
5.24322088
 20
7.81084646
  0
SEQEND
  0
ENDSEC
  0
EOF
