  0
SECTION
  2
HEADER
  9
$ACADVER
  1
AC1021
  9
$ACADMAINTVER
 70
    25
  9
$DWGCODEPAGE
  3
ANSI_1251
  9
$INSBASE
 10
0.0
 20
0.0
 30
0.0
  9
$EXTMIN
 10
1.000000000000000E+20
 20
1.000000000000000E+20
 30
1.000000000000000E+20
  9
$EXTMAX
 10
-1.000000000000000E+20
 20
-1.000000000000000E+20
 30
-1.000000000000000E+20
  9
$LIMMIN
 10
0.0
 20
0.0
  9
$LIMMAX
 10
12.0
 20
9.0
  9
$ORTHOMODE
 70
     0
  9
$REGENMODE
 70
     1
  9
$FILLMODE
 70
     1
  9
$QTEXTMODE
 70
     0
  9
$MIRRTEXT
 70
     1
  9
$LTSCALE
 40
1.0
  9
$ATTMODE
 70
     1
  9
$TEXTSIZE
 40
0.2
  9
$TRACEWID
 40
0.05
  9
$TEXTSTYLE
  7
Standard
  9
$CLAYER
  8
0
  9
$CELTYPE
  6
ByLayer
  9
$CECOLOR
 62
   256
  9
$CELTSCALE
 40
1.0
  9
$DISPSILH
 70
     0
  9
$DIMSCALE
 40
1.0
  9
$DIMASZ
 40
0.18
  9
$DIMEXO
 40
0.0625
  9
$DIMDLI
 40
0.38
  9
$DIMRND
 40
0.0
  9
$DIMDLE
 40
0.0
  9
$DIMEXE
 40
0.18
  9
$DIMTP
 40
0.0
  9
$DIMTM
 40
0.0
  9
$DIMTXT
 40
0.18
  9
$DIMCEN
 40
0.09
  9
$DIMTSZ
 40
0.0
  9
$DIMTOL
 70
     0
  9
$DIMLIM
 70
     0
  9
$DIMTIH
 70
     1
  9
$DIMTOH
 70
     1
  9
$DIMSE1
 70
     0
  9
$DIMSE2
 70
     0
  9
$DIMTAD
 70
     0
  9
$DIMZIN
 70
     0
  9
$DIMBLK
  1

  9
$DIMASO
 70
     1
  9
$DIMSHO
 70
     1
  9
$DIMPOST
  1

  9
$DIMAPOST
  1

  9
$DIMALT
 70
     0
  9
$DIMALTD
 70
     2
  9
$DIMALTF
 40
25.4
  9
$DIMLFAC
 40
1.0
  9
$DIMTOFL
 70
     0
  9
$DIMTVP
 40
0.0
  9
$DIMTIX
 70
     0
  9
$DIMSOXD
 70
     0
  9
$DIMSAH
 70
     0
  9
$DIMBLK1
  1

  9
$DIMBLK2
  1

  9
$DIMSTYLE
  2
Standard
  9
$DIMCLRD
 70
     0
  9
$DIMCLRE
 70
     0
  9
$DIMCLRT
 70
     0
  9
$DIMTFAC
 40
1.0
  9
$DIMGAP
 40
0.09
  9
$DIMJUST
 70
     0
  9
$DIMSD1
 70
     0
  9
$DIMSD2
 70
     0
  9
$DIMTOLJ
 70
     1
  9
$DIMTZIN
 70
     0
  9
$DIMALTZ
 70
     0
  9
$DIMALTTZ
 70
     0
  9
$DIMUPT
 70
     0
  9
$DIMDEC
 70
     4
  9
$DIMTDEC
 70
     4
  9
$DIMALTU
 70
     2
  9
$DIMALTTD
 70
     2
  9
$DIMTXSTY
  7
Standard
  9
$DIMAUNIT
 70
     0
  9
$DIMADEC
 70
     0
  9
$DIMALTRND
 40
0.0
  9
$DIMAZIN
 70
     0
  9
$DIMDSEP
 70
    46
  9
$DIMATFIT
 70
     3
  9
$DIMFRAC
 70
     0
  9
$DIMLDRBLK
  1

  9
$DIMLUNIT
 70
     2
  9
$DIMLWD
 70
    -2
  9
$DIMLWE
 70
    -2
  9
$DIMTMOVE
 70
     0
  9
$DIMFXL
 40
1.0
  9
$DIMFXLON
 70
     0
  9
$DIMJOGANG
 40
0.7853981633974483
  9
$DIMTFILL
 70
     0
  9
$DIMTFILLCLR
 70
     0
  9
$DIMARCSYM
 70
     0
  9
$DIMLTYPE
  6

  9
$DIMLTEX1
  6

  9
$DIMLTEX2
  6

  9
$LUNITS
 70
     2
  9
$LUPREC
 70
     4
  9
$SKETCHINC
 40
0.1
  9
$FILLETRAD
 40
0.5
  9
$AUNITS
 70
     0
  9
$AUPREC
 70
     0
  9
$MENU
  1
.
  9
$ELEVATION
 40
0.0
  9
$PELEVATION
 40
0.0
  9
$THICKNESS
 40
0.0
  9
$LIMCHECK
 70
     0
  9
$CHAMFERA
 40
0.5
  9
$CHAMFERB
 40
0.5
  9
$CHAMFERC
 40
1.0
  9
$CHAMFERD
 40
0.0
  9
$SKPOLY
 70
     0
  9
$TDCREATE
 40
2458562.747669861
  9
$TDUCREATE
 40
2458562.622669861
  9
$TDUPDATE
 40
2458562.747670301
  9
$TDUUPDATE
 40
2458562.622670301
  9
$TDINDWG
 40
0.0000000116
  9
$TDUSRTIMER
 40
0.0000000116
  9
$USRTIMER
 70
     1
  9
$ANGBASE
 50
0.0
  9
$ANGDIR
 70
     0
  9
$PDMODE
 70
     0
  9
$PDSIZE
 40
0.0
  9
$PLINEWID
 40
0.0
  9
$SPLFRAME
 70
     0
  9
$SPLINETYPE
 70
     6
  9
$SPLINESEGS
 70
     8
  9
$HANDSEED
  5
A9
  9
$SURFTAB1
 70
     6
  9
$SURFTAB2
 70
     6
  9
$SURFTYPE
 70
     6
  9
$SURFU
 70
     6
  9
$SURFV
 70
     6
  9
$UCSBASE
  2

  9
$UCSNAME
  2

  9
$UCSORG
 10
0.0
 20
0.0
 30
0.0
  9
$UCSXDIR
 10
1.0
 20
0.0
 30
0.0
  9
$UCSYDIR
 10
0.0
 20
1.0
 30
0.0
  9
$UCSORTHOREF
  2

  9
$UCSORTHOVIEW
 70
     0
  9
$UCSORGTOP
 10
0.0
 20
0.0
 30
0.0
  9
$UCSORGBOTTOM
 10
0.0
 20
0.0
 30
0.0
  9
$UCSORGLEFT
 10
0.0
 20
0.0
 30
0.0
  9
$UCSORGRIGHT
 10
0.0
 20
0.0
 30
0.0
  9
$UCSORGFRONT
 10
0.0
 20
0.0
 30
0.0
  9
$UCSORGBACK
 10
0.0
 20
0.0
 30
0.0
  9
$PUCSBASE
  2

  9
$PUCSNAME
  2

  9
$PUCSORG
 10
0.0
 20
0.0
 30
0.0
  9
$PUCSXDIR
 10
1.0
 20
0.0
 30
0.0
  9
$PUCSYDIR
 10
0.0
 20
1.0
 30
0.0
  9
$PUCSORTHOREF
  2

  9
$PUCSORTHOVIEW
 70
     0
  9
$PUCSORGTOP
 10
0.0
 20
0.0
 30
0.0
  9
$PUCSORGBOTTOM
 10
0.0
 20
0.0
 30
0.0
  9
$PUCSORGLEFT
 10
0.0
 20
0.0
 30
0.0
  9
$PUCSORGRIGHT
 10
0.0
 20
0.0
 30
0.0
  9
$PUCSORGFRONT
 10
0.0
 20
0.0
 30
0.0
  9
$PUCSORGBACK
 10
0.0
 20
0.0
 30
0.0
  9
$USERI1
 70
     0
  9
$USERI2
 70
     0
  9
$USERI3
 70
     0
  9
$USERI4
 70
     0
  9
$USERI5
 70
     0
  9
$USERR1
 40
0.0
  9
$USERR2
 40
0.0
  9
$USERR3
 40
0.0
  9
$USERR4
 40
0.0
  9
$USERR5
 40
0.0
  9
$WORLDVIEW
 70
     1
  9
$SHADEDGE
 70
     3
  9
$SHADEDIF
 70
    70
  9
$TILEMODE
 70
     1
  9
$MAXACTVP
 70
    64
  9
$PINSBASE
 10
0.0
 20
0.0
 30
0.0
  9
$PLIMCHECK
 70
     0
  9
$PEXTMIN
 10
1.000000000000000E+20
 20
1.000000000000000E+20
 30
1.000000000000000E+20
  9
$PEXTMAX
 10
-1.000000000000000E+20
 20
-1.000000000000000E+20
 30
-1.000000000000000E+20
  9
$PLIMMIN
 10
0.0
 20
0.0
  9
$PLIMMAX
 10
12.0
 20
9.0
  9
$UNITMODE
 70
     0
  9
$VISRETAIN
 70
     1
  9
$PLINEGEN
 70
     0
  9
$PSLTSCALE
 70
     1
  9
$TREEDEPTH
 70
  3020
  9
$CMLSTYLE
  2
Standard
  9
$CMLJUST
 70
     0
  9
$CMLSCALE
 40
1.0
  9
$PROXYGRAPHICS
 70
     1
  9
$MEASUREMENT
 70
     0
  9
$CELWEIGHT
370
    -1
  9
$ENDCAPS
280
     0
  9
$JOINSTYLE
280
     0
  9
$LWDISPLAY
290
     1
  9
$INSUNITS
 70
     1
  9
$HYPERLINKBASE
  1

  9
$STYLESHEET
  1

  9
$XEDIT
290
     1
  9
$CEPSNTYPE
380
     0
  9
$PSTYLEMODE
290
     1
  9
$FINGERPRINTGUID
  2
{2BFC8363-B0BD-453F-89F5-028BA457A68B}
  9
$VERSIONGUID
  2
{FAEB1C32-E019-11D5-929B-00C0DF256EC4}
  9
$EXTNAMES
290
     1
  9
$PSVPSCALE
 40
0.0
  9
$OLESTARTUP
290
     0
  9
$SORTENTS
280
   127
  9
$INDEXCTL
280
     0
  9
$HIDETEXT
280
     1
  9
$XCLIPFRAME
290
     0
  9
$HALOGAP
280
     0
  9
$OBSCOLOR
 70
   257
  9
$OBSLTYPE
280
     0
  9
$INTERSECTIONDISPLAY
280
     0
  9
$INTERSECTIONCOLOR
 70
   257
  9
$DIMASSOC
280
     2
  9
$PROJECTNAME
  1

  9
$CAMERADISPLAY
290
     0
  9
$LENSLENGTH
 40
50.0
  9
$CAMERAHEIGHT
 40
0.0
  9
$STEPSPERSEC
 40
2.0
  9
$STEPSIZE
 40
6.0
  9
$3DDWFPREC
 40
2.0
  9
$PSOLWIDTH
 40
0.25
  9
$PSOLHEIGHT
 40
4.0
  9
$LOFTANG1
 40
1.570796326794897
  9
$LOFTANG2
 40
1.570796326794897
  9
$LOFTMAG1
 40
0.0
  9
$LOFTMAG2
 40
0.0
  9
$LOFTPARAM
 70
     7
  9
$LOFTNORMALS
280
     1
  9
$LATITUDE
 40
37.795
  9
$LONGITUDE
 40
-122.394
  9
$NORTHDIRECTION
 40
0.0
  9
$TIMEZONE
 70
 -8000
  9
$LIGHTGLYPHDISPLAY
280
     1
  9
$TILEMODELIGHTSYNCH
280
     1
  9
$CMATERIAL
347
3C
  9
$SOLIDHIST
280
     1
  9
$SHOWHIST
280
     1
  9
$DWFFRAME
280
     2
  9
$DGNFRAME
280
     2
  9
$REALWORLDSCALE
290
     1
  9
$INTERFERECOLOR
 62
   256
  9
$CSHADOW
280
     0
  9
$SHADOWPLANELOCATION
 40
0.0
  0
ENDSEC
  0
SECTION
  2
CLASSES
  0
CLASS
  1
ACDBDICTIONARYWDFLT
  2
AcDbDictionaryWithDefault
  3
ObjectDBX Classes
 90
        0
 91
        4
280
     0
281
     0
  0
CLASS
  1
VISUALSTYLE
  2
AcDbVisualStyle
  3
ObjectDBX Classes
 90
     4095
 91
        4
280
     0
281
     0
  0
CLASS
  1
MATERIAL
  2
AcDbMaterial
  3
ObjectDBX Classes
 90
     1153
 91
        4
280
     0
281
     0
  0
CLASS
  1
SUN
  2
AcDbSun
  3
SCENEOE
 90
     1024
 91
        4
280
     0
281
     0
  0
ENDSEC
  0
SECTION
  2
TABLES
  0
TABLE
  2
VPORT
  5
8
330
0
100
AcDbSymbolTable
 70
     1
  0
VPORT
  5
29
330
8
100
AcDbSymbolTableRecord
100
AcDbViewportTableRecord
  2
*Active
 70
     0
 10
0.0
 20
0.0
 11
1.0
 21
1.0
 12
0.0
 22
0.0
 13
0.0
 23
0.0
 14
0.5
 24
0.5
 15
0.5
 25
0.5
 16
0.0
 26
0.0
 36
1.0
 17
299.9999999249995
 27
299.9999999249995
 37
0.0
 40
599.999999849999
 41
1.0
 42
50.0
 43
0.0
 44
0.0
 50
0.0
 51
0.0
 71
     0
 72
   100
 73
     1
 74
     3
 75
     0
 76
     0
 77
     0
 78
     0
281
     0
 65
     1
110
0.0
120
0.0
130
0.0
111
1.0
121
0.0
131
0.0
112
0.0
122
1.0
132
0.0
 79
     0
146
0.0
 60
     3
 61
     5
292
     1
282
     1
141
0.0
142
0.0
 63
   250
361
3F
  0
ENDTAB
  0
TABLE
  2
LTYPE
  5
5
330
0
100
AcDbSymbolTable
 70
     1
  0
LTYPE
  5
14
330
5
100
AcDbSymbolTableRecord
100
AcDbLinetypeTableRecord
  2
ByBlock
 70
     0
  3

 72
    65
 73
     0
 40
0.0
  0
LTYPE
  5
15
330
5
100
AcDbSymbolTableRecord
100
AcDbLinetypeTableRecord
  2
ByLayer
 70
     0
  3

 72
    65
 73
     0
 40
0.0
  0
LTYPE
  5
16
330
5
100
AcDbSymbolTableRecord
100
AcDbLinetypeTableRecord
  2
Continuous
 70
     0
  3
Solid line
 72
    65
 73
     0
 40
0.0
  0
ENDTAB
  0
TABLE
  2
LAYER
  5
2
330
0
100
AcDbSymbolTable
 70
     2
  0
LAYER
  5
10
330
2
100
AcDbSymbolTableRecord
100
AcDbLayerTableRecord
  2
0
 70
     0
 62
     7
  6
Continuous
370
    -3
390
F
347
3E
  0
LAYER
  5
40
330
2
100
AcDbSymbolTableRecord
100
AcDbLayerTableRecord
  2
_U+0421_U+043B_U+043E_U+0439 1
 70
     0
 62
     7
  6
Continuous
370
    -3
390
F
347
3E
  0
ENDTAB
  0
TABLE
  2
STYLE
  5
3
330
0
100
AcDbSymbolTable
 70
     1
  0
STYLE
  5
11
330
3
100
AcDbSymbolTableRecord
100
AcDbTextStyleTableRecord
  2
Standard
 70
     0
 40
0.0
 41
1.0
 50
0.0
 71
     0
 42
0.2
  3
txt
  4

  0
ENDTAB
  0
TABLE
  2
VIEW
  5
6
330
0
100
AcDbSymbolTable
 70
     0
  0
ENDTAB
  0
TABLE
  2
UCS
  5
7
330
0
100
AcDbSymbolTable
 70
     0
  0
ENDTAB
  0
TABLE
  2
APPID
  5
9
330
0
100
AcDbSymbolTable
 70
     1
  0
APPID
  5
12
330
9
100
AcDbSymbolTableRecord
100
AcDbRegAppTableRecord
  2
ACAD
 70
     0
  0
ENDTAB
  0
TABLE
  2
DIMSTYLE
  5
A
330
0
100
AcDbSymbolTable
 70
     1
100
AcDbDimStyleTable
  0
DIMSTYLE
105
27
330
A
100
AcDbSymbolTableRecord
100
AcDbDimStyleTableRecord
  2
Standard
 70
     0
178
     0
340
11
  0
ENDTAB
  0
TABLE
  2
BLOCK_RECORD
  5
1
330
0
100
AcDbSymbolTable
 70
     1
  0
BLOCK_RECORD
  5
1F
330
1
100
AcDbSymbolTableRecord
100
AcDbBlockTableRecord
  2
*Model_Space
340
22
 70
     0
280
     1
281
     0
  0
BLOCK_RECORD
  5
1B
330
1
100
AcDbSymbolTableRecord
100
AcDbBlockTableRecord
  2
*Paper_Space
340
1E
 70
     0
280
     1
281
     0
  0
BLOCK_RECORD
  5
23
330
1
100
AcDbSymbolTableRecord
100
AcDbBlockTableRecord
  2
*Paper_Space0
340
26
 70
     0
280
     1
281
     0
  0
ENDTAB
  0
ENDSEC
  0
SECTION
  2
BLOCKS
  0
BLOCK
  5
20
330
1F
100
AcDbEntity
  8
0
100
AcDbBlockBegin
  2
*Model_Space
 70
     0
 10
0.0
 20
0.0
 30
0.0
  3
*Model_Space
  1

  0
ENDBLK
  5
21
330
1F
100
AcDbEntity
  8
0
100
AcDbBlockEnd
  0
BLOCK
  5
1C
330
1B
100
AcDbEntity
 67
     1
  8
0
100
AcDbBlockBegin
  2
*Paper_Space
 70
     0
 10
0.0
 20
0.0
 30
0.0
  3
*Paper_Space
  1

  0
ENDBLK
  5
1D
330
1B
100
AcDbEntity
 67
     1
  8
0
100
AcDbBlockEnd
  0
BLOCK
  5
24
330
23
100
AcDbEntity
  8
0
100
AcDbBlockBegin
  2
*Paper_Space0
 70
     0
 10
0.0
 20
0.0
 30
0.0
  3
*Paper_Space0
  1

  0
ENDBLK
  5
25
330
23
100
AcDbEntity
  8
0
100
AcDbBlockEnd
  0
ENDSEC
  0
SECTION
  2
ENTITIES
  0
SPLINE
  5
41
330
1F
100
AcDbEntity
  8
_U+0421_U+043B_U+043E_U+0439 1
 62
     7
370
    35
100
AcDbSpline
210
0.0
220
0.0
230
1.0
 70
    11
 71
     3
 72
   134
 73
   130
 74
     0
 42
0.0000000001
 43
0.0000000001
 12
1.0
 22
0.0
 32
0.0
 13
1.0
 23
0.0
 33
0.0
 40
0.0
 40
0.0
 40
0.0
 40
0.0
 40
1.0
 40
1.0
 40
1.0
 40
2.0
 40
2.0
 40
2.0
 40
3.0
 40
3.0
 40
3.0
 40
4.0
 40
4.0
 40
4.0
 40
5.0
 40
5.0
 40
5.0
 40
6.0
 40
6.0
 40
6.0
 40
7.0
 40
7.0
 40
7.0
 40
8.0
 40
8.0
 40
8.0
 40
9.0
 40
9.0
 40
9.0
 40
10.0
 40
10.0
 40
10.0
 40
11.0
 40
11.0
 40
11.0
 40
12.0
 40
12.0
 40
12.0
 40
13.0
 40
13.0
 40
13.0
 40
14.0
 40
14.0
 40
14.0
 40
15.0
 40
15.0
 40
15.0
 40
16.0
 40
16.0
 40
16.0
 40
17.0
 40
17.0
 40
17.0
 40
18.0
 40
18.0
 40
18.0
 40
19.0
 40
19.0
 40
19.0
 40
20.0
 40
20.0
 40
20.0
 40
21.0
 40
21.0
 40
21.0
 40
22.0
 40
22.0
 40
22.0
 40
23.0
 40
23.0
 40
23.0
 40
24.0
 40
24.0
 40
24.0
 40
25.0
 40
25.0
 40
25.0
 40
26.0
 40
26.0
 40
26.0
 40
27.0
 40
27.0
 40
27.0
 40
28.0
 40
28.0
 40
28.0
 40
29.0
 40
29.0
 40
29.0
 40
30.0
 40
30.0
 40
30.0
 40
31.0
 40
31.0
 40
31.0
 40
32.0
 40
32.0
 40
32.0
 40
33.0
 40
33.0
 40
33.0
 40
34.0
 40
34.0
 40
34.0
 40
35.0
 40
35.0
 40
35.0
 40
36.0
 40
36.0
 40
36.0
 40
37.0
 40
37.0
 40
37.0
 40
38.0
 40
38.0
 40
38.0
 40
39.0
 40
39.0
 40
39.0
 40
40.0
 40
40.0
 40
40.0
 40
41.0
 40
41.0
 40
41.0
 40
42.0
 40
42.0
 40
42.0
 40
43.0
 40
43.0
 40
43.0
 40
43.0
 10
355.9085574513145
 20
369.6229600144477
 30
0.0
 10
342.0773172882141
 20
377.1518070923723
 30
0.0
 10
327.1927822441922
 20
381.1223442346631
 30
0.0
 10
311.5656568683247
 20
382.4885183811857
 30
0.0
 10
291.7275482171424
 20
384.2228009803073
 30
0.0
 10
272.453487824283
 20
381.8246269493313
 30
0.0
 10
253.9460473042787
 20
374.3099047628962
 30
0.0
 10
241.3914734006249
 20
369.2123046326059
 30
0.0
 10
230.2306559392224
 20
362.0316705808529
 30
0.0
 10
221.5029371642776
 20
351.4691585460044
 30
0.0
 10
207.7410726115114
 20
334.8140382091851
 30
0.0
 10
206.2575283681757
 20
314.7059201993467
 30
0.0
 10
217.4295854535988
 20
296.6267911755461
 30
0.0
 10
218.3232432224727
 20
295.1806477500721
 30
0.0
 10
223.1322089466393
 20
288.6418134553744
 30
0.0
 10
225.0929850420693
 20
286.7996347720241
 30
0.0
 10
225.0917792586494
 20
286.7994840490967
 30
0.0
 10
225.0909179847781
 20
286.7991180077014
 30
0.0
 10
225.0903150930682
 20
286.7988165618464
 30
0.0
 10
225.0903150930682
 20
286.7987950299997
 30
0.0
 10
225.0902289656811
 20
286.7987519663061
 30
0.0
 10
225.0902289656811
 20
286.7987304344593
 30
0.0
 10
225.0891954370355
 20
286.7979768198219
 30
0.0
 10
225.0884633542449
 20
286.797373928112
 30
0.0
 10
225.0884633542449
 20
286.797373928112
 30
0.0
 10
226.7618754225114
 20
284.992940572172
 30
0.0
 10
228.8227315417879
 20
283.0061755376752
 30
0.0
 10
231.3135355776235
 20
281.0199057356544
 30
0.0
 10
233.9327555476718
 20
278.9312735340282
 30
0.0
 10
236.4505174556795
 20
277.3031644713927
 30
0.0
 10
238.6738098270855
 20
276.0409460811375
 30
0.0
 10
238.6967197120624
 20
273.8878475302434
 30
0.0
 10
238.7196295970394
 20
271.7347274475026
 30
0.0
 10
238.7425825457098
 20
269.5816504284554
 30
0.0
 10
238.7425825457098
 20
269.5816504284554
 30
0.0
 10
239.4545545914303
 20
253.7888159597474
 30
0.0
 10
239.4545545914303
 20
253.7888159597474
 30
0.0
 10
239.9963389201794
 20
242.9966452471134
 30
0.0
 10
240.5381232489285
 20
232.2044745344794
 30
0.0
 10
241.0799075776776
 20
221.4123038218454
 30
0.0
 10
240.7817776271228
 20
220.9604580171081
 30
0.0
 10
240.6071112860206
 20
220.4198794717788
 30
0.0
 10
240.6071112860206
 20
219.8380028443201
 30
0.0
 10
240.6071112860206
 20
218.2564886981226
 30
0.0
 10
241.8892035708563
 20
216.9743748814401
 30
0.0
 10
243.4707607807474
 20
216.9743748814401
 30
0.0
 10
245.0523179906385
 20
216.9743748814401
 30
0.0
 10
246.3344102754742
 20
218.2564886981226
 30
0.0
 10
246.3344102754742
 20
219.8380028443201
 30
0.0
 10
246.3344102754742
 20
220.4198794717788
 30
0.0
 10
246.159743934372
 20
220.9604580171081
 30
0.0
 10
245.8615709201237
 20
221.4123038218454
 30
0.0
 10
246.4531799423282
 20
232.2044745344794
 30
0.0
 10
247.0447889645327
 20
242.9966452471134
 30
0.0
 10
247.6363549230437
 20
253.7888159597474
 30
0.0
 10
247.6363549230437
 20
253.7888159597474
 30
0.0
 10
277.1400665313362
 20
253.7888159597474
 30
0.0
 10
277.1400665313362
 20
253.7888159597474
 30
0.0
 10
277.6654866565303
 20
243.3231541717279
 30
0.0
 10
278.1908637180309
 20
232.8575139155553
 30
0.0
 10
278.7162407795315
 20
222.3918521275358
 30
0.0
 10
278.4181538926703
 20
221.9399847909518
 30
0.0
 10
278.2434875515681
 20
221.3994277774693
 30
0.0
 10
278.2434875515681
 20
220.8175511500106
 30
0.0
 10
278.2434875515681
 20
219.2360154719663
 30
0.0
 10
279.5255798364038
 20
217.9539016552838
 30
0.0
 10
281.1071370462949
 20
217.9539016552838
 30
0.0
 10
282.6886511924924
 20
217.9539016552838
 30
0.0
 10
283.9707434773281
 20
219.2360154719663
 30
0.0
 10
283.9707434773281
 20
220.8175511500106
 30
0.0
 10
283.9707434773281
 20
221.3994277774693
 30
0.0
 10
283.7961201999195
 20
221.9399847909518
 30
0.0
 10
283.4979471856712
 20
222.3918521275358
 30
0.0
 10
284.0716417113524
 20
232.8575139155553
 30
0.0
 10
284.6453362370336
 20
243.3231541717279
 30
0.0
 10
285.2190307627149
 20
253.7888159597474
 30
0.0
 10
285.2190307627149
 20
253.7888159597474
 30
0.0
 10
314.727264058832
 20
253.7888159597474
 30
0.0
 10
314.727264058832
 20
253.7888159597474
 30
0.0
 10
315.2690483875812
 20
242.9966452471134
 30
0.0
 10
315.8108327163303
 20
232.2044745344794
 30
0.0
 10
316.3526170450793
 20
221.4123038218454
 30
0.0
 10
316.0544870945245
 20
220.9604580171081
 30
0.0
 10
315.8798207534224
 20
220.4198794717788
 30
0.0
 10
315.8798207534224
 20
219.8380028443201
 30
0.0
 10
315.8798207534224
 20
218.2564886981226
 30
0.0
 10
317.1619130382581
 20
216.9743748814401
 30
0.0
 10
318.7434702481492
 20
216.9743748814401
 30
0.0
 10
320.3249843943467
 20
216.9743748814401
 30
0.0
 10
321.6070766791824
 20
218.2564886981226
 30
0.0
 10
321.6070766791824
 20
219.8380028443201
 30
0.0
 10
321.6070766791824
 20
220.4198794717788
 30
0.0
 10
321.4324534017738
 20
220.9604580171081
 30
0.0
 10
321.134323451219
 20
221.4123038218454
 30
0.0
 10
321.72588940973
 20
232.2044745344794
 30
0.0
 10
322.3174984319345
 20
242.9966452471134
 30
0.0
 10
322.9090643904455
 20
253.7888159597474
 30
0.0
 10
322.9090643904455
 20
253.7888159597474
 30
0.0
 10
352.363597260686
 20
253.7888159597474
 30
0.0
 10
352.363597260686
 20
253.7888159597474
 30
0.0
 10
352.9054246531286
 20
242.9966452471134
 30
0.0
 10
353.4471659181842
 20
232.2044745344794
 30
0.0
 10
353.9889933106269
 20
221.4123038218454
 30
0.0
 10
353.6908633600721
 20
220.9604580171081
 30
0.0
 10
353.5161539552763
 20
220.4198794717788
 30
0.0
 10
353.5161539552763
 20
219.8380028443201
 30
0.0
 10
353.5161539552763
 20
218.2564886981226
 30
0.0
 10
354.7982462401121
 20
216.9743748814401
 30
0.0
 10
356.3798465136967
 20
216.9743748814401
 30
0.0
 10
357.9613606598942
 20
216.9743748814401
 30
0.0
 10
359.2434529447299
 20
218.2564886981226
 30
0.0
 10
359.2434529447299
 20
219.8380028443201
 30
0.0
 10
359.2434529447299
 20
220.4198794717788
 30
0.0
 10
359.0688296673213
 20
220.9604580171081
 30
0.0
 10
358.7706781849197
 20
221.4123038218454
 30
0.0
 10
359.3622441434307
 20
232.2044745344794
 30
0.0
 10
359.9538316337884
 20
242.9966452471134
 30
0.0
 10
360.5453975922994
 20
253.7888159597474
 30
0.0
 10
360.5453975922994
 20
253.7888159597474
 30
0.0
 10
361.3636077700462
 20
268.6296198229534
 30
0.0
 10
361.3636077700462
 20
276.050010988633
 30
0.0
 10
368.1420484557431
 20
280.3769647907197
 30
0.0
 10
374.2320944679467
 20
285.6443220010456
 30
0.0
 10
379.4007712244671
 20
292.1585453948707
 30
0.0
 10
392.0035979967612
 20
308.0423088525425
 30
0.0
 10
393.4889293833799
 20
327.6688886409301
 30
0.0
 10
383.205534678377
 20
344.7725388780822
 30
0.0
 10
376.6034828815249
 20
355.7533931640739
 30
0.0
 10
367.0240073115456
 20
363.5723603455502
 30
0.0
 10
355.9085574513145
 20
369.6229600144477
 30
0.0
  0
SPLINE
  5
42
330
1F
100
AcDbEntity
  8
_U+0421_U+043B_U+043E_U+0439 1
 62
     7
370
    35
100
AcDbSpline
210
0.0
220
0.0
230
1.0
 70
    11
 71
     3
 72
    17
 73
    13
 74
     0
 42
0.0000000001
 43
0.0000000001
 12
1.0
 22
0.0
 32
0.0
 13
1.0
 23
0.0
 33
0.0
 40
0.0
 40
0.0
 40
0.0
 40
0.0
 40
1.0
 40
1.0
 40
1.0
 40
2.0
 40
2.0
 40
2.0
 40
3.0
 40
3.0
 40
3.0
 40
4.0
 40
4.0
 40
4.0
 40
4.0
 10
267.8597113768637
 20
362.803458096936
 30
0.0
 10
267.2112582791526
 20
362.5560571774015
 30
0.0
 10
266.6789479629879
 20
362.352968798546
 30
0.0
 10
266.1466376468233
 20
362.1498804196905
 30
0.0
 10
266.3253519751206
 20
362.3701942759723
 30
0.0
 10
266.504152430805
 20
362.5905727277943
 30
0.0
 10
266.6828667591024
 20
362.8109296477696
 30
0.0
 10
263.6472208722745
 20
365.6665262317997
 30
0.0
 10
260.6114888580594
 20
368.5221658795232
 30
0.0
 10
257.6470703203891
 20
371.3107984200587
 30
0.0
 10
259.1771233527757
 20
371.9737209188079
 30
0.0
 10
265.7812852706125
 20
366.7382739054141
 30
0.0
 10
267.8597113768637
 20
362.803458096936
 30
0.0
  0
SPLINE
  5
43
330
1F
100
AcDbEntity
  8
_U+0421_U+043B_U+043E_U+0439 1
 62
     7
370
    35
100
AcDbSpline
210
0.0
220
0.0
230
1.0
 70
    11
 71
     3
 72
    29
 73
    25
 74
     0
 42
0.0000000001
 43
0.0000000001
 12
1.0
 22
0.0
 32
0.0
 13
1.0
 23
0.0
 33
0.0
 40
0.0
 40
0.0
 40
0.0
 40
0.0
 40
1.0
 40
1.0
 40
1.0
 40
2.0
 40
2.0
 40
2.0
 40
3.0
 40
3.0
 40
3.0
 40
4.0
 40
4.0
 40
4.0
 40
5.0
 40
5.0
 40
5.0
 40
6.0
 40
6.0
 40
6.0
 40
7.0
 40
7.0
 40
7.0
 40
8.0
 40
8.0
 40
8.0
 40
8.0
 10
286.4053063293671
 20
362.5123259965856
 30
0.0
 10
285.7850599509414
 20
362.2180933102985
 30
0.0
 10
285.0519436316802
 20
361.1115932359766
 30
0.0
 10
285.1801442474251
 20
360.5582463055051
 30
0.0
 10
285.3367238372297
 20
359.8823831668394
 30
0.0
 10
286.2954508470812
 20
359.0099988625871
 30
0.0
 10
286.9923075363601
 20
358.9257447461259
 30
0.0
 10
288.2293982614197
 20
358.7761845383725
 30
0.0
 10
289.530567762505
 20
359.1563508251698
 30
0.0
 10
290.9240227589015
 20
359.3297037236183
 30
0.0
 10
289.839291381677
 20
357.5819637202574
 30
0.0
 10
288.1449503583376
 20
357.0224586816061
 30
0.0
 10
286.2432576504796
 20
356.9899025292705
 30
0.0
 10
284.5039150673641
 20
356.9601239851698
 30
0.0
 10
282.9039696603205
 20
357.4589953432808
 30
0.0
 10
282.0875250940099
 20
359.1598174525018
 30
0.0
 10
281.815577869143
 20
359.7264064687448
 30
0.0
 10
281.7741936596264
 20
360.5466191082424
 30
0.0
 10
281.9479125994702
 20
361.1600829549315
 30
0.0
 10
282.8038465727805
 20
364.1814532273423
 30
0.0
 10
287.6827477352977
 20
365.4288792388577
 30
0.0
 10
289.9419121634439
 20
363.3183060853598
 30
0.0
 10
288.7281188966032
 20
363.0684505352921
 30
0.0
 10
287.4610558408219
 20
363.013135220907
 30
0.0
 10
286.4053063293671
 20
362.5123259965856
 30
0.0
  0
SPLINE
  5
44
330
1F
100
AcDbEntity
  8
_U+0421_U+043B_U+043E_U+0439 1
 62
     7
370
    35
100
AcDbSpline
210
0.0
220
0.0
230
1.0
 70
    11
 71
     3
 72
    20
 73
    16
 74
     0
 42
0.0000000001
 43
0.0000000001
 12
1.0
 22
0.0
 32
0.0
 13
1.0
 23
0.0
 33
0.0
 40
0.0
 40
0.0
 40
0.0
 40
0.0
 40
1.0
 40
1.0
 40
1.0
 40
2.0
 40
2.0
 40
2.0
 40
3.0
 40
3.0
 40
3.0
 40
4.0
 40
4.0
 40
4.0
 40
5.0
 40
5.0
 40
5.0
 40
5.0
 10
289.3621887206634
 20
360.5860439197017
 30
0.0
 10
288.8322038439513
 20
360.2831123673143
 30
0.0
 10
288.2995490182381
 20
359.7453975576072
 30
0.0
 10
287.7730523007048
 20
359.7512542199321
 30
0.0
 10
287.3496500655676
 20
359.7559696943775
 30
0.0
 10
286.9336547857237
 20
360.4187199383525
 30
0.0
 10
286.5143436014752
 20
360.7894552762589
 30
0.0
 10
286.9840393071955
 20
361.1975268364868
 30
0.0
 10
287.4056328672029
 20
361.8244480874151
 30
0.0
 10
287.9391489667875
 20
361.9416674613007
 30
0.0
 10
288.3379618328987
 20
362.0292374821664
 30
0.0
 10
288.881210327229
 20
361.4591818385915
 30
0.0
 10
289.3601216633723
 20
361.1819593112628
 30
0.0
 10
289.3608106824693
 20
360.9833064928446
 30
0.0
 10
289.3614997015664
 20
360.7846536744264
 30
0.0
 10
289.3621887206634
 20
360.5860439197017
 30
0.0
  0
SPLINE
  5
45
330
1F
100
AcDbEntity
  8
_U+0421_U+043B_U+043E_U+0439 1
 62
     7
370
    35
100
AcDbSpline
210
0.0
220
0.0
230
1.0
 70
    11
 71
     3
 72
    17
 73
    13
 74
     0
 42
0.0000000001
 43
0.0000000001
 12
1.0
 22
0.0
 32
0.0
 13
1.0
 23
0.0
 33
0.0
 40
0.0
 40
0.0
 40
0.0
 40
0.0
 40
1.0
 40
1.0
 40
1.0
 40
2.0
 40
2.0
 40
2.0
 40
3.0
 40
3.0
 40
3.0
 40
4.0
 40
4.0
 40
4.0
 40
4.0
 10
295.0005181192105
 20
362.9606836421441
 30
0.0
 10
294.5995951321145
 20
363.6966421651805
 30
0.0
 10
293.5660664865396
 20
364.0880265441517
 30
0.0
 10
292.9612799741039
 20
364.5220009160593
 30
0.0
 10
295.7284237315502
 20
364.860589206719
 30
0.0
 10
298.5718763539947
 20
365.208565382576
 30
0.0
 10
301.7396416526822
 20
365.596203220207
 30
0.0
 10
299.5442976184
 20
363.7861069885632
 30
0.0
 10
297.3601501444452
 20
361.9852263873424
 30
0.0
 10
295.2329328733841
 20
360.2312421484145
 30
0.0
 10
295.1825914156059
 20
361.1328882324448
 30
0.0
 10
295.4052307113402
 20
362.2176196096693
 30
0.0
 10
295.0005181192105
 20
362.9606836421441
 30
0.0
  0
SPLINE
  5
46
330
1F
100
AcDbEntity
  8
_U+0421_U+043B_U+043E_U+0439 1
 62
     7
370
    35
100
AcDbSpline
210
0.0
220
0.0
230
1.0
 70
    11
 71
     3
 72
   101
 73
    97
 74
     0
 42
0.0000000001
 43
0.0000000001
 12
1.0
 22
0.0
 32
0.0
 13
1.0
 23
0.0
 33
0.0
 40
0.0
 40
0.0
 40
0.0
 40
0.0
 40
1.0
 40
1.0
 40
1.0
 40
2.0
 40
2.0
 40
2.0
 40
3.0
 40
3.0
 40
3.0
 40
4.0
 40
4.0
 40
4.0
 40
5.0
 40
5.0
 40
5.0
 40
6.0
 40
6.0
 40
6.0
 40
7.0
 40
7.0
 40
7.0
 40
8.0
 40
8.0
 40
8.0
 40
9.0
 40
9.0
 40
9.0
 40
10.0
 40
10.0
 40
10.0
 40
11.0
 40
11.0
 40
11.0
 40
12.0
 40
12.0
 40
12.0
 40
13.0
 40
13.0
 40
13.0
 40
14.0
 40
14.0
 40
14.0
 40
15.0
 40
15.0
 40
15.0
 40
16.0
 40
16.0
 40
16.0
 40
17.0
 40
17.0
 40
17.0
 40
18.0
 40
18.0
 40
18.0
 40
19.0
 40
19.0
 40
19.0
 40
20.0
 40
20.0
 40
20.0
 40
21.0
 40
21.0
 40
21.0
 40
22.0
 40
22.0
 40
22.0
 40
23.0
 40
23.0
 40
23.0
 40
24.0
 40
24.0
 40
24.0
 40
25.0
 40
25.0
 40
25.0
 40
26.0
 40
26.0
 40
26.0
 40
27.0
 40
27.0
 40
27.0
 40
28.0
 40
28.0
 40
28.0
 40
29.0
 40
29.0
 40
29.0
 40
30.0
 40
30.0
 40
30.0
 40
31.0
 40
31.0
 40
31.0
 40
32.0
 40
32.0
 40
32.0
 40
32.0
 10
294.1334737129602
 20
348.21972295247
 30
0.0
 10
295.8274271630576
 20
351.44301888401
 30
0.0
 10
297.1131367981528
 20
354.8850137833231
 30
0.0
 10
298.8722456166149
 20
358.068475798315
 30
0.0
 10
300.1300930419732
 20
360.3448657038874
 30
0.0
 10
301.6744432206239
 20
362.5421906680734
 30
0.0
 10
303.464988535389
 20
364.4177437139369
 30
0.0
 10
304.699753820996
 20
365.7111832820272
 30
0.0
 10
306.4732028494155
 20
366.6773603108655
 30
0.0
 10
308.1850277323426
 20
367.2860871512624
 30
0.0
 10
310.9933834445312
 20
368.2848418642831
 30
0.0
 10
312.7758327849058
 20
367.3128727686602
 30
0.0
 10
313.225417745731
 20
364.3577344569532
 30
0.0
 10
313.7213392408327
 20
361.0978128540356
 30
0.0
 10
313.8647413404062
 20
357.7453043099518
 30
0.0
 10
313.7674604566415
 20
354.4447305803082
 30
0.0
 10
313.6650980570359
 20
350.9699426783449
 30
0.0
 10
313.1231845372062
 20
347.5057053813051
 30
0.0
 10
312.7141655757198
 20
344.0438581192583
 30
0.0
 10
312.6044392845147
 20
343.1157278636852
 30
0.0
 10
312.6927198563242
 20
342.4036912224244
 30
0.0
 10
313.5170450785573
 20
341.8146660218338
 30
0.0
 10
314.1207119349602
 20
341.3833615989273
 30
0.0
 10
314.6273993534534
 20
340.8049515988006
 30
0.0
 10
315.1358093196891
 20
340.2538224485478
 30
0.0
 10
316.7595689492745
 20
338.4934432511255
 30
0.0
 10
316.8394951645323
 20
337.6681921594807
 30
0.0
 10
315.327356628669
 20
335.85064590885
 30
0.0
 10
315.0069196848472
 20
335.4655488291394
 30
0.0
 10
314.1932311949247
 20
335.336314684749
 30
0.0
 10
313.6117421407081
 20
335.3473820539953
 30
0.0
 10
309.1392761180633
 20
335.4326051035617
 30
0.0
 10
304.9801845934954
 20
336.8528672492027
 30
0.0
 10
300.8717359725607
 20
338.4569467708286
 30
0.0
 10
300.3726277641351
 20
338.6518315160598
 30
0.0
 10
299.8849744981977
 20
338.8769039104806
 30
0.0
 10
299.3967183405506
 20
339.0984235501821
 30
0.0
 10
297.0093963603532
 20
340.1816476981318
 30
0.0
 10
297.050952824644
 20
340.1795160453003
 30
0.0
 10
297.2582614454689
 20
342.6914428228299
 30
0.0
 10
297.3258283806734
 20
343.5101051693591
 30
0.0
 10
297.1184336324613
 20
344.3514405505507
 30
0.0
 10
297.0367418057673
 20
345.182397581593
 30
0.0
 10
297.0367418057673
 20
345.182397581593
 30
0.0
 10
297.4104485385299
 20
345.559226432139
 30
0.0
 10
297.4104485385299
 20
345.559226432139
 30
0.0
 10
297.8466837543496
 20
344.9962762980024
 30
0.0
 10
298.2829189701694
 20
344.4333261638657
 30
0.0
 10
298.814238821382
 20
343.7477090986075
 30
0.0
 10
300.1493855766906
 20
346.6718630827939
 30
0.0
 10
300.7782016301362
 20
349.7583887235696
 30
0.0
 10
300.5820895696383
 20
353.0642808193686
 30
0.0
 10
301.9621948210294
 20
351.2934802081034
 30
0.0
 10
301.8151753711963
 20
349.2743958715856
 30
0.0
 10
301.6349538136242
 20
347.3122417379616
 30
0.0
 10
301.4552059566813
 20
345.3549753335572
 30
0.0
 10
301.0451104028559
 20
343.4188532026936
 30
0.0
 10
300.7323818601823
 20
341.4508208748978
 30
0.0
 10
302.3822380880684
 20
341.5122081700756
 30
0.0
 10
304.6856719932001
 20
341.435834709537
 30
0.0
 10
307.3194905553672
 20
340.7811589081056
 30
0.0
 10
310.7084740479009
 20
339.9387899982685
 30
0.0
 10
313.5232893141244
 20
338.41765115045
 30
0.0
 10
313.7131571390552
 20
338.7693308039536
 30
0.0
 10
313.8577650220486
 20
339.0372515734721
 30
0.0
 10
312.464223898265
 20
340.3652712874956
 30
0.0
 10
311.8347188257227
 20
340.9154315046432
 30
0.0
 10
311.541541199928
 20
341.1717035450523
 30
0.0
 10
311.2085727212785
 20
341.4353179452142
 30
0.0
 10
311.0148722276204
 20
341.9186648417948
 30
0.0
 10
310.8557518798954
 20
342.3156475009295
 30
0.0
 10
310.840722650841
 20
342.7696680221918
 30
0.0
 10
310.9368408148795
 20
343.3589731367906
 30
0.0
 10
311.9755371036823
 20
349.7233133451604
 30
0.0
 10
312.7356974225027
 20
356.1227289319395
 30
0.0
 10
311.7704677949228
 20
362.570182068891
 30
0.0
 10
311.2557274657329
 20
366.0086457453318
 30
0.0
 10
309.8122755211068
 20
366.7668897297884
 30
0.0
 10
307.0164082800523
 20
364.7326254412887
 30
0.0
 10
305.0276407838047
 20
363.2856422737902
 30
0.0
 10
303.148728769843
 20
361.4028329955609
 30
0.0
 10
301.8813212045131
 20
359.3137916888458
 30
0.0
 10
299.8081488688766
 20
355.8965584133329
 30
0.0
 10
298.2670715309372
 20
352.155830671755
 30
0.0
 10
296.5136901837193
 20
348.5456720490681
 30
0.0
 10
295.9527425113335
 20
347.390811446872
 30
0.0
 10
295.5533698172059
 20
346.1384761742902
 30
0.0
 10
294.867020669157
 20
345.0672237331517
 30
0.0
 10
292.9215752486364
 20
342.0308026998396
 30
0.0
 10
289.7976057263054
 20
342.1290955804032
 30
0.0
 10
287.7586690270539
 20
345.2663502521992
 30
0.0
 10
287.9475463870327
 20
345.3372115599614
 30
0.0
 10
288.0069742841533
 20
345.3834189031573
 30
0.0
 10
288.0421573217964
 20
345.3692940116678
 30
0.0
 10
291.0921434185817
 20
344.1451439265246
 30
0.0
 10
291.9842508944871
 20
344.1303300159381
 30
0.0
 10
294.1334737129602
 20
348.21972295247
 30
0.0
  0
SPLINE
  5
47
330
1F
100
AcDbEntity
  8
_U+0421_U+043B_U+043E_U+0439 1
 62
     7
370
    35
100
AcDbSpline
210
0.0
220
0.0
230
1.0
 70
    11
 71
     3
 72
    14
 73
    10
 74
     0
 42
0.0000000001
 43
0.0000000001
 12
1.0
 22
0.0
 32
0.0
 13
1.0
 23
0.0
 33
0.0
 40
0.0
 40
0.0
 40
0.0
 40
0.0
 40
1.0
 40
1.0
 40
1.0
 40
2.0
 40
2.0
 40
2.0
 40
3.0
 40
3.0
 40
3.0
 40
3.0
 10
316.8440599160502
 20
334.1518047295329
 30
0.0
 10
317.828237568799
 20
334.6213281804789
 30
0.0
 10
318.5765984355824
 20
335.5851797698647
 30
0.0
 10
319.3906744987469
 20
336.2960106277056
 30
0.0
 10
320.0657409590816
 20
334.5344902424038
 30
0.0
 10
318.5567891365422
 20
332.4490016904078
 30
0.0
 10
316.0388119100667
 20
331.9267898103843
 30
0.0
 10
315.5602020197783
 20
332.9415426855646
 30
0.0
 10
315.6480088909586
 20
333.581253853482
 30
0.0
 10
316.8440599160502
 20
334.1518047295329
 30
0.0
  0
SPLINE
  5
48
330
1F
100
AcDbEntity
  8
_U+0421_U+043B_U+043E_U+0439 1
 62
     7
370
    35
100
AcDbSpline
210
0.0
220
0.0
230
1.0
 70
    11
 71
     3
 72
    11
 73
     7
 74
     0
 42
0.0000000001
 43
0.0000000001
 12
1.0
 22
0.0
 32
0.0
 13
1.0
 23
0.0
 33
0.0
 40
0.0
 40
0.0
 40
0.0
 40
0.0
 40
1.0
 40
1.0
 40
1.0
 40
2.0
 40
2.0
 40
2.0
 40
2.0
 10
291.0525678841948
 20
311.4170597943529
 30
0.0
 10
295.4467010482439
 20
310.0945737649526
 30
0.0
 10
298.5176591637956
 20
302.8628877044775
 30
0.0
 10
296.8859327509006
 20
297.6794185692174
 30
0.0
 10
296.9757636156784
 20
303.132401830658
 30
0.0
 10
296.0802971716749
 20
308.1565568315721
 30
0.0
 10
291.0525678841948
 20
311.4170597943529
 30
0.0
  0
SPLINE
  5
49
330
1F
100
AcDbEntity
  8
_U+0421_U+043B_U+043E_U+0439 1
 62
     7
370
    35
100
AcDbSpline
210
0.0
220
0.0
230
1.0
 70
    11
 71
     3
 72
    11
 73
     7
 74
     0
 42
0.0000000001
 43
0.0000000001
 12
1.0
 22
0.0
 32
0.0
 13
1.0
 23
0.0
 33
0.0
 40
0.0
 40
0.0
 40
0.0
 40
0.0
 40
1.0
 40
1.0
 40
1.0
 40
2.0
 40
2.0
 40
2.0
 40
2.0
 10
289.2578023274604
 20
311.7012586400392
 30
0.0
 10
294.4406039754703
 20
308.2464522918904
 30
0.0
 10
296.2358432328339
 20
298.4742020976645
 30
0.0
 10
293.0526611318502
 20
294.1081895255139
 30
0.0
 10
295.1740217405863
 20
300.7080235421473
 30
0.0
 10
293.8936089397997
 20
306.5561161920525
 30
0.0
 10
289.2578023274604
 20
311.7012586400392
 30
0.0
  0
SPLINE
  5
4A
330
1F
100
AcDbEntity
  8
_U+0421_U+043B_U+043E_U+0439 1
 62
     7
370
    35
100
AcDbSpline
210
0.0
220
0.0
230
1.0
 70
    11
 71
     3
 72
    14
 73
    10
 74
     0
 42
0.0000000001
 43
0.0000000001
 12
1.0
 22
0.0
 32
0.0
 13
1.0
 23
0.0
 33
0.0
 40
0.0
 40
0.0
 40
0.0
 40
0.0
 40
1.0
 40
1.0
 40
1.0
 40
2.0
 40
2.0
 40
2.0
 40
3.0
 40
3.0
 40
3.0
 40
3.0
 10
296.6788825122371
 20
308.1771412770964
 30
0.0
 10
295.4669409842197
 20
310.5378498946703
 30
0.0
 10
293.0582594120137
 20
311.6657310928476
 30
0.0
 10
290.1850497773154
 20
312.6410376247218
 30
0.0
 10
294.9904842786096
 20
312.9081186522158
 30
0.0
 10
299.9784227132351
 20
306.7891338379361
 30
0.0
 10
299.362181258311
 20
301.1308659492682
 30
0.0
 10
298.5151184058752
 20
303.4143183005854
 30
0.0
 10
297.8379418245558
 20
305.9194410145316
 30
0.0
 10
296.6788825122371
 20
308.1771412770964
 30
0.0
  0
SPLINE
  5
4B
330
1F
100
AcDbEntity
  8
_U+0421_U+043B_U+043E_U+0439 1
 62
     7
370
    35
100
AcDbSpline
210
0.0
220
0.0
230
1.0
 70
    11
 71
     3
 72
    95
 73
    91
 74
     0
 42
0.0000000001
 43
0.0000000001
 12
1.0
 22
0.0
 32
0.0
 13
1.0
 23
0.0
 33
0.0
 40
0.0
 40
0.0
 40
0.0
 40
0.0
 40
1.0
 40
1.0
 40
1.0
 40
2.0
 40
2.0
 40
2.0
 40
3.0
 40
3.0
 40
3.0
 40
4.0
 40
4.0
 40
4.0
 40
5.0
 40
5.0
 40
5.0
 40
6.0
 40
6.0
 40
6.0
 40
7.0
 40
7.0
 40
7.0
 40
8.0
 40
8.0
 40
8.0
 40
9.0
 40
9.0
 40
9.0
 40
10.0
 40
10.0
 40
10.0
 40
11.0
 40
11.0
 40
11.0
 40
12.0
 40
12.0
 40
12.0
 40
13.0
 40
13.0
 40
13.0
 40
14.0
 40
14.0
 40
14.0
 40
15.0
 40
15.0
 40
15.0
 40
16.0
 40
16.0
 40
16.0
 40
17.0
 40
17.0
 40
17.0
 40
18.0
 40
18.0
 40
18.0
 40
19.0
 40
19.0
 40
19.0
 40
20.0
 40
20.0
 40
20.0
 40
21.0
 40
21.0
 40
21.0
 40
22.0
 40
22.0
 40
22.0
 40
23.0
 40
23.0
 40
23.0
 40
24.0
 40
24.0
 40
24.0
 40
25.0
 40
25.0
 40
25.0
 40
26.0
 40
26.0
 40
26.0
 40
27.0
 40
27.0
 40
27.0
 40
28.0
 40
28.0
 40
28.0
 40
29.0
 40
29.0
 40
29.0
 40
30.0
 40
30.0
 40
30.0
 40
30.0
 10
275.002944610755
 20
317.3647372356286
 30
0.0
 10
276.1135572678124
 20
317.949908235645
 30
0.0
 10
277.2241268611763
 20
318.5350361719679
 30
0.0
 10
278.3346964545401
 20
319.1202071719844
 30
0.0
 10
281.0674753845209
 20
320.2897955573799
 30
0.0
 10
283.3897711874343
 20
320.8129979023554
 30
0.0
 10
285.0543982622135
 20
321.072392060548
 30
0.0
 10
288.5109056262582
 20
321.6110542715136
 30
0.0
 10
291.2231431744083
 20
321.3383749638561
 30
0.0
 10
292.9108093252451
 20
323.3054383585466
 30
0.0
 10
293.3630642350712
 20
323.8325810314834
 30
0.0
 10
293.8507175010083
 20
324.647539900366
 30
0.0
 10
293.6183458105282
 20
324.9507944304551
 30
0.0
 10
293.2784010135212
 20
325.3945011971085
 30
0.0
 10
291.6156256775653
 20
324.4578012665159
 30
0.0
 10
289.1844648573181
 20
323.6391819836802
 30
0.0
 10
288.0707085506304
 20
323.264161808264
 30
0.0
 10
286.6738945861359
 20
322.9911595229047
 30
0.0
 10
283.88767361244
 20
322.4096058731477
 30
0.0
 10
280.8983642598888
 20
321.7856775489222
 30
0.0
 10
277.8728814047424
 20
321.192345978975
 30
0.0
 10
274.8362019892689
 20
320.9863938644975
 30
0.0
 10
272.7084248901915
 20
320.8420658955123
 30
0.0
 10
270.5348280211602
 20
321.3725675365472
 30
0.0
 10
268.2652852428648
 20
321.6140687300632
 30
0.0
 10
268.4010650686772
 20
322.4658039932509
 30
0.0
 10
268.4824554495162
 20
322.9764102078585
 30
0.0
 10
268.5610466902734
 20
323.4694249036445
 30
0.0
 10
271.1354804190135
 20
323.2471947129991
 30
0.0
 10
274.3085856157029
 20
323.1865825643055
 30
0.0
 10
277.9017340794313
 20
323.5940727646702
 30
0.0
 10
281.0098992262238
 20
323.9465490965048
 30
0.0
 10
283.7180026597915
 20
324.5682811723585
 30
0.0
 10
285.9518886998146
 20
325.2298686966072
 30
0.0
 10
285.9497355151364
 20
325.2800594314579
 30
0.0
 10
285.9415964770524
 20
325.3631723600395
 30
0.0
 10
285.907533095442
 20
325.4570727438594
 30
0.0
 10
285.3178188757544
 20
327.0813276059208
 30
0.0
 10
279.536862524118
 20
324.8355344546267
 30
0.0
 10
272.4614976712862
 20
326.2827329405931
 30
0.0
 10
269.2442091249985
 20
326.9407892419694
 30
0.0
 10
265.8706854984547
 20
328.1614081042401
 30
0.0
 10
265.442374002251
 20
328.5440505534175
 30
0.0
 10
264.7264400967226
 20
329.1837186576412
 30
0.0
 10
263.6431728850793
 20
329.4121930838537
 30
0.0
 10
262.5891028576735
 20
329.8913843340051
 30
0.0
 10
262.7501180079154
 20
330.7177981453762
 30
0.0
 10
263.0815361935964
 20
331.7562360520176
 30
0.0
 10
263.8418257034975
 20
332.0242644807701
 30
0.0
 10
264.6415615567047
 20
332.3061809506975
 30
0.0
 10
265.5493011533745
 20
331.6065251213368
 30
0.0
 10
265.9233093319919
 20
331.3391426479878
 30
0.0
 10
266.4772806860201
 20
330.9431504538051
 30
0.0
 10
268.7941504635442
 20
330.3695851192046
 30
0.0
 10
273.4278469548988
 20
329.2224759818503
 30
0.0
 10
274.0775058360297
 20
329.0616546182295
 30
0.0
 10
281.3482506665688
 20
327.2828010962675
 30
0.0
 10
285.4544169117445
 20
327.2982394304108
 30
0.0
 10
285.8683451342973
 20
327.2997897233791
 30
0.0
 10
286.975168186321
 20
327.3222905032672
 30
0.0
 10
288.3407609729804
 20
327.6830996598068
 30
0.0
 10
289.037057834243
 20
327.8670462268723
 30
0.0
 10
290.6373908145287
 20
328.2898455702996
 30
0.0
 10
290.6149115664874
 20
328.6321804022995
 30
0.0
 10
290.5665510386132
 20
329.3683542438039
 30
0.0
 10
283.0519795751056
 20
329.0541400037023
 30
0.0
 10
273.1949585000959
 20
330.8380319778115
 30
0.0
 10
270.8035454690097
 20
331.270822098146
 30
0.0
 10
269.092280414099
 20
331.7080908426113
 30
0.0
 10
267.2180623427359
 20
332.7840156945016
 30
0.0
 10
264.1490851570882
 20
334.5457944619648
 30
0.0
 10
262.3346394923943
 20
337.0490223733941
 30
0.0
 10
261.3456387059662
 20
338.7196353015789
 30
0.0
 10
261.9960727335813
 20
338.446503825139
 30
0.0
 10
262.3688320650854
 20
338.3290045372451
 30
0.0
 10
262.7039967921066
 20
338.143529209058
 30
0.0
 10
271.7549947146485
 20
333.1355661569246
 30
0.0
 10
281.4373494485561
 20
330.4987116043611
 30
0.0
 10
291.793909368927
 20
330.5397082406356
 30
0.0
 10
293.9247870539412
 20
330.5481271927277
 30
0.0
 10
296.0506693505017
 20
331.014937630979
 30
0.0
 10
298.1860256596467
 20
331.17455321118
 30
0.0
 10
298.8579915340447
 20
331.2247870097243
 30
0.0
 10
299.5826243056734
 20
331.0474291877743
 30
0.0
 10
300.2319817409498
 20
330.8248760194272
 30
0.0
 10
301.6711273162193
 20
330.3316460051733
 30
0.0
 10
303.0778889939276
 20
329.743783524309
 30
0.0
 10
304.5229773589091
 20
329.1847737181336
 30
0.0
 10
303.067338389004
 20
324.2083117578434
 30
0.0
 10
282.605710518685
 20
315.821700499632
 30
0.0
 10
275.002944610755
 20
317.3647372356286
 30
0.0
  0
SPLINE
  5
4C
330
1F
100
AcDbEntity
  8
_U+0421_U+043B_U+043E_U+0439 1
 62
     7
370
    35
100
AcDbSpline
210
0.0
220
0.0
230
1.0
 70
    11
 71
     3
 72
    14
 73
    10
 74
     0
 42
0.0000000001
 43
0.0000000001
 12
1.0
 22
0.0
 32
0.0
 13
1.0
 23
0.0
 33
0.0
 40
0.0
 40
0.0
 40
0.0
 40
0.0
 40
1.0
 40
1.0
 40
1.0
 40
2.0
 40
2.0
 40
2.0
 40
3.0
 40
3.0
 40
3.0
 40
3.0
 10
266.1749735571894
 20
303.8943062290678
 30
0.0
 10
263.7426069535223
 20
300.4074604929061
 30
0.0
 10
262.0046854722945
 20
296.436255863365
 30
0.0
 10
260.133481859481
 20
292.9923876933818
 30
0.0
 10
259.9270345125274
 20
297.3531249630707
 30
0.0
 10
269.643883264981
 20
311.4551496313117
 30
0.0
 10
274.4629689571356
 20
313.4960026649269
 30
0.0
 10
271.7384582563193
 20
310.3913041454666
 30
0.0
 10
268.6097947913897
 20
307.3847908473358
 30
0.0
 10
266.1749735571894
 20
303.8943062290678
 30
0.0
  0
SPLINE
  5
4D
330
1F
100
AcDbEntity
  8
_U+0421_U+043B_U+043E_U+0439 1
 62
     7
370
    35
100
AcDbSpline
210
0.0
220
0.0
230
1.0
 70
    11
 71
     3
 72
    23
 73
    19
 74
     0
 42
0.0000000001
 43
0.0000000001
 12
1.0
 22
0.0
 32
0.0
 13
1.0
 23
0.0
 33
0.0
 40
0.0
 40
0.0
 40
0.0
 40
0.0
 40
1.0
 40
1.0
 40
1.0
 40
2.0
 40
2.0
 40
2.0
 40
3.0
 40
3.0
 40
3.0
 40
4.0
 40
4.0
 40
4.0
 40
5.0
 40
5.0
 40
5.0
 40
6.0
 40
6.0
 40
6.0
 40
6.0
 10
266.5006212079326
 20
298.1459706253074
 30
0.0
 10
265.8027309900082
 20
296.0456250990313
 30
0.0
 10
265.388544385294
 20
294.436420997871
 30
0.0
 10
263.9990943123992
 20
293.81641146976
 30
0.0
 10
263.8629699770382
 20
293.7556701299857
 30
0.0
 10
263.2119330577132
 20
293.4651839850388
 30
0.0
 10
262.9407609793304
 20
293.7202071783344
 30
0.0
 10
262.6749718626434
 20
293.9701488557893
 30
0.0
 10
262.8871466808412
 20
294.6376145742096
 30
0.0
 10
264.0952986038248
 20
297.0876372922386
 30
0.0
 10
265.1366217779351
 20
299.1993301017693
 30
0.0
 10
265.6741428010212
 20
300.2803580013471
 30
0.0
 10
266.5006212079326
 20
301.5134007392116
 30
0.0
 10
267.1759460504288
 20
302.5209619775665
 30
0.0
 10
268.3383643308456
 20
304.2552230448413
 30
0.0
 10
268.6172878740701
 20
304.1111103943239
 30
0.0
 10
268.8922064937931
 20
303.9690648010977
 30
0.0
 10
267.8590223577667
 20
302.2341362465727
 30
0.0
 10
266.5006212079326
 20
298.1459706253074
 30
0.0
  0
SPLINE
  5
4E
330
1F
100
AcDbEntity
  8
_U+0421_U+043B_U+043E_U+0439 1
 62
     7
370
    35
100
AcDbSpline
210
0.0
220
0.0
230
1.0
 70
    11
 71
     3
 72
    17
 73
    13
 74
     0
 42
0.0000000001
 43
0.0000000001
 12
1.0
 22
0.0
 32
0.0
 13
1.0
 23
0.0
 33
0.0
 40
0.0
 40
0.0
 40
0.0
 40
0.0
 40
1.0
 40
1.0
 40
1.0
 40
2.0
 40
2.0
 40
2.0
 40
3.0
 40
3.0
 40
3.0
 40
4.0
 40
4.0
 40
4.0
 40
4.0
 10
236.6704437387192
 20
346.6498144716884
 30
0.0
 10
236.7046793751039
 20
346.8655851082989
 30
0.0
 10
236.738871947795
 20
347.0813772767563
 30
0.0
 10
236.7731075841796
 20
347.2971479133668
 30
0.0
 10
238.561241332105
 20
346.9914387527444
 30
0.0
 10
240.3493320163368
 20
346.6857511239689
 30
0.0
 10
242.1374227005686
 20
346.3800634951933
 30
0.0
 10
242.1037468922003
 20
346.1223488210499
 30
0.0
 10
242.0701141475255
 20
345.8646341469064
 30
0.0
 10
242.0364383391572
 20
345.6069194727629
 30
0.0
 10
240.0847056193761
 20
344.9992046291648
 30
0.0
 10
238.5164550907967
 20
346.6381226788853
 30
0.0
 10
236.6704437387192
 20
346.6498144716884
 30
0.0
  0
SPLINE
  5
4F
330
1F
100
AcDbEntity
  8
_U+0421_U+043B_U+043E_U+0439 1
 62
     7
370
    35
100
AcDbSpline
210
0.0
220
0.0
230
1.0
 70
    11
 71
     3
 72
    17
 73
    13
 74
     0
 42
0.0000000001
 43
0.0000000001
 12
1.0
 22
0.0
 32
0.0
 13
1.0
 23
0.0
 33
0.0
 40
0.0
 40
0.0
 40
0.0
 40
0.0
 40
1.0
 40
1.0
 40
1.0
 40
2.0
 40
2.0
 40
2.0
 40
3.0
 40
3.0
 40
3.0
 40
4.0
 40
4.0
 40
4.0
 40
4.0
 10
237.4132924527262
 20
341.8283172126941
 30
0.0
 10
237.4057132426586
 20
341.6254656841532
 30
0.0
 10
237.3981770962847
 20
341.4226572193059
 30
0.0
 10
237.3905978862171
 20
341.219805690765
 30
0.0
 10
236.1005388180717
 20
340.6316848277393
 30
0.0
 10
234.9977637532432
 20
341.6170252002144
 30
0.0
 10
233.7807407093852
 20
341.642238992797
 30
0.0
 10
233.7990858428441
 20
341.8234079516276
 30
0.0
 10
233.8174309763031
 20
342.0045553786114
 30
0.0
 10
233.8357330460685
 20
342.1856812737484
 30
0.0
 10
235.0282528482877
 20
342.0665670973459
 30
0.0
 10
236.2207726505069
 20
341.9474313890966
 30
0.0
 10
237.4132924527262
 20
341.8283172126941
 30
0.0
  0
SPLINE
  5
50
330
1F
100
AcDbEntity
  8
_U+0421_U+043B_U+043E_U+0439 1
 62
     7
370
    35
100
AcDbSpline
210
0.0
220
0.0
230
1.0
 70
    11
 71
     3
 72
    20
 73
    16
 74
     0
 42
0.0000000001
 43
0.0000000001
 12
1.0
 22
0.0
 32
0.0
 13
1.0
 23
0.0
 33
0.0
 40
0.0
 40
0.0
 40
0.0
 40
0.0
 40
1.0
 40
1.0
 40
1.0
 40
2.0
 40
2.0
 40
2.0
 40
3.0
 40
3.0
 40
3.0
 40
4.0
 40
4.0
 40
4.0
 40
5.0
 40
5.0
 40
5.0
 40
5.0
 10
238.9853325863392
 20
351.389189267053
 30
0.0
 10
239.0159078087708
 20
351.5442831594296
 30
0.0
 10
239.0464830312024
 20
351.6993124562658
 30
0.0
 10
239.077058253634
 20
351.8544063486424
 30
0.0
 10
241.5889634993168
 20
351.3352089271685
 30
0.0
 10
244.1009118086932
 20
350.8160330375413
 30
0.0
 10
246.6128601180695
 20
350.2968140842206
 30
0.0
 10
246.6345642196266
 20
350.0578321167782
 30
0.0
 10
246.6562683211837
 20
349.8188070856422
 30
0.0
 10
246.6779724227407
 20
349.579803586353
 30
0.0
 10
246.193161360579
 20
349.3861246245416
 30
0.0
 10
245.6171844591387
 20
348.9183237213383
 30
0.0
 10
245.2386976563905
 20
349.0442419613241
 30
0.0
 10
243.1278015251908
 20
349.746460080452
 30
0.0
 10
241.0647491575425
 20
350.5924032768551
 30
0.0
 10
238.9853325863392
 20
351.389189267053
 30
0.0
  0
SPLINE
  5
51
330
1F
100
AcDbEntity
  8
_U+0421_U+043B_U+043E_U+0439 1
 62
     7
370
    35
100
AcDbSpline
210
0.0
220
0.0
230
1.0
 70
    11
 71
     3
 72
    14
 73
    10
 74
     0
 42
0.0000000001
 43
0.0000000001
 12
1.0
 22
0.0
 32
0.0
 13
1.0
 23
0.0
 33
0.0
 40
0.0
 40
0.0
 40
0.0
 40
0.0
 40
1.0
 40
1.0
 40
1.0
 40
2.0
 40
2.0
 40
2.0
 40
3.0
 40
3.0
 40
3.0
 40
3.0
 10
240.6105563815059
 20
355.1999385743686
 30
0.0
 10
243.9702996261086
 20
355.0746447579394
 30
0.0
 10
247.1800520260223
 20
354.3586247250237
 30
0.0
 10
250.2737908354703
 20
352.7935393779215
 30
0.0
 10
249.5788289487082
 20
351.7144278127074
 30
0.0
 10
248.9287394306416
 20
351.5742339583045
 30
0.0
 10
247.8871148106763
 20
352.0477838645988
 30
0.0
 10
245.4888546523132
 20
353.1380489264465
 30
0.0
 10
243.016740259485
 20
354.0658992680114
 30
0.0
 10
240.6105563815059
 20
355.1999385743686
 30
0.0
  0
SPLINE
  5
52
330
1F
100
AcDbEntity
  8
_U+0421_U+043B_U+043E_U+0439 1
 62
     7
370
    35
100
AcDbSpline
210
0.0
220
0.0
230
1.0
 70
    11
 71
     3
 72
    17
 73
    13
 74
     0
 42
0.0000000001
 43
0.0000000001
 12
1.0
 22
0.0
 32
0.0
 13
1.0
 23
0.0
 33
0.0
 40
0.0
 40
0.0
 40
0.0
 40
0.0
 40
1.0
 40
1.0
 40
1.0
 40
2.0
 40
2.0
 40
2.0
 40
3.0
 40
3.0
 40
3.0
 40
4.0
 40
4.0
 40
4.0
 40
4.0
 10
244.6165564754479
 20
358.7917520635964
 30
0.0
 10
244.4396077585868
 20
358.862484180278
 30
0.0
 10
244.2807888567168
 20
358.9785623662841
 30
0.0
 10
244.1134864072143
 20
359.0735178105963
 30
0.0
 10
248.044383419578
 20
359.1242253097698
 30
0.0
 10
251.6982086275404
 20
358.2370055630841
 30
0.0
 10
255.1358540938033
 20
356.3034026582941
 30
0.0
 10
254.4022210102194
 20
355.2382006661016
 30
0.0
 10
253.7479112501833
 20
355.047019398517
 30
0.0
 10
252.6199008609254
 20
355.5589821194719
 30
0.0
 10
250.0023173112326
 20
356.74695870202
 30
0.0
 10
247.2889601070498
 20
357.7238801224029
 30
0.0
 10
244.6165564754479
 20
358.7917520635964
 30
0.0
  0
SPLINE
  5
53
330
1F
100
AcDbEntity
  8
_U+0421_U+043B_U+043E_U+0439 1
 62
     7
370
    35
100
AcDbSpline
210
0.0
220
0.0
230
1.0
 70
    11
 71
     3
 72
    14
 73
    10
 74
     0
 42
0.0000000001
 43
0.0000000001
 12
1.0
 22
0.0
 32
0.0
 13
1.0
 23
0.0
 33
0.0
 40
0.0
 40
0.0
 40
0.0
 40
0.0
 40
1.0
 40
1.0
 40
1.0
 40
2.0
 40
2.0
 40
2.0
 40
3.0
 40
3.0
 40
3.0
 40
3.0
 10
247.5538018224784
 20
363.917278999164
 30
0.0
 10
252.0406080550806
 20
363.2193241856992
 30
0.0
 10
255.8405053116176
 20
361.5799970308898
 30
0.0
 10
259.4203470940343
 20
359.0730656418139
 30
0.0
 10
258.6688856413142
 20
358.0335296109865
 30
0.0
 10
258.0741760331729
 20
357.7122959888338
 30
0.0
 10
256.8953504855076
 20
358.4543695563566
 30
0.0
 10
253.9390279222276
 20
360.3152809464079
 30
0.0
 10
250.8691033353214
 20
361.9957554604192
 30
0.0
 10
247.5538018224784
 20
363.917278999164
 30
0.0
  0
SPLINE
  5
54
330
1F
100
AcDbEntity
  8
_U+0421_U+043B_U+043E_U+0439 1
 62
     7
370
    35
100
AcDbSpline
210
0.0
220
0.0
230
1.0
 70
    11
 71
     3
 72
    38
 73
    34
 74
     0
 42
0.0000000001
 43
0.0000000001
 12
1.0
 22
0.0
 32
0.0
 13
1.0
 23
0.0
 33
0.0
 40
0.0
 40
0.0
 40
0.0
 40
0.0
 40
1.0
 40
1.0
 40
1.0
 40
2.0
 40
2.0
 40
2.0
 40
3.0
 40
3.0
 40
3.0
 40
4.0
 40
4.0
 40
4.0
 40
5.0
 40
5.0
 40
5.0
 40
6.0
 40
6.0
 40
6.0
 40
7.0
 40
7.0
 40
7.0
 40
8.0
 40
8.0
 40
8.0
 40
9.0
 40
9.0
 40
9.0
 40
10.0
 40
10.0
 40
10.0
 40
11.0
 40
11.0
 40
11.0
 40
11.0
 10
263.5736250199708
 20
348.6815810659613
 30
0.0
 10
265.4487474288987
 20
350.5876016750225
 30
0.0
 10
266.847972960233
 20
352.9618538242228
 30
0.0
 10
268.3541256426906
 20
354.9939649280442
 30
0.0
 10
268.8793735131105
 20
352.8150281610108
 30
0.0
 10
266.5581112388427
 20
349.4050941815573
 30
0.0
 10
261.1518090212273
 20
344.640699380231
 30
0.0
 10
264.006845777241
 20
342.4418887186171
 30
0.0
 10
266.8439680367314
 20
340.1297344155385
 30
0.0
 10
269.8143293641137
 20
338.0038090552843
 30
0.0
 10
273.0003967325664
 20
335.723543417291
 30
0.0
 10
276.8218258358862
 20
335.5101843475201
 30
0.0
 10
280.5512278260563
 20
335.0567236542742
 30
0.0
 10
281.9853349491787
 20
334.8823587590269
 30
0.0
 10
283.4151787666381
 20
334.6425801132535
 30
0.0
 10
284.8290459537846
 20
334.3470339843127
 30
0.0
 10
285.4039462628857
 20
334.2268862792646
 30
0.0
 10
285.9313042542902
 20
333.8790823581818
 30
0.0
 10
286.4802802198648
 20
333.6348466201244
 30
0.0
 10
286.4214552144542
 20
333.5227087620795
 30
0.0
 10
286.3625440816564
 20
333.4105709040346
 30
0.0
 10
286.3037190762458
 20
333.2984330459898
 30
0.0
 10
282.2731296132777
 20
333.7487070259119
 30
0.0
 10
278.2311282715148
 20
334.116901605898
 30
0.0
 10
274.215481910214
 20
334.6748994152745
 30
0.0
 10
270.9398851228385
 20
335.1300611244164
 30
0.0
 10
268.1422522703477
 20
336.6434915710867
 30
0.0
 10
265.7444227489203
 20
338.9601675619897
 30
0.0
 10
263.3301428965508
 20
341.2926263965845
 30
0.0
 10
260.6725531755355
 20
343.2706064375939
 30
0.0
 10
257.1691925128914
 20
343.6957742841673
 30
0.0
 10
259.3847334194555
 20
345.3849261324321
 30
0.0
 10
261.7194746298094
 20
346.7968554533682
 30
0.0
 10
263.5736250199708
 20
348.6815810659613
 30
0.0
  0
SPLINE
  5
55
330
1F
100
AcDbEntity
  8
_U+0421_U+043B_U+043E_U+0439 1
 62
     7
370
    35
100
AcDbSpline
210
0.0
220
0.0
230
1.0
 70
    11
 71
     3
 72
    35
 73
    31
 74
     0
 42
0.0000000001
 43
0.0000000001
 12
1.0
 22
0.0
 32
0.0
 13
1.0
 23
0.0
 33
0.0
 40
0.0
 40
0.0
 40
0.0
 40
0.0
 40
1.0
 40
1.0
 40
1.0
 40
2.0
 40
2.0
 40
2.0
 40
3.0
 40
3.0
 40
3.0
 40
4.0
 40
4.0
 40
4.0
 40
5.0
 40
5.0
 40
5.0
 40
6.0
 40
6.0
 40
6.0
 40
7.0
 40
7.0
 40
7.0
 40
8.0
 40
8.0
 40
8.0
 40
9.0
 40
9.0
 40
9.0
 40
10.0
 40
10.0
 40
10.0
 40
10.0
 10
285.2400458451749
 20
342.6415320019873
 30
0.0
 10
286.8107510042874
 20
340.8096024777057
 30
0.0
 10
289.4342773436923
 20
340.1823151853821
 30
0.0
 10
291.8490739603846
 20
341.0619341901535
 30
0.0
 10
292.3705752894643
 20
341.2519096743183
 30
0.0
 10
292.8913445357534
 20
341.4438230246934
 30
0.0
 10
293.6511172813317
 20
341.7223159309823
 30
0.0
 10
292.1409596753724
 20
339.5032007378522
 30
0.0
 10
289.1688758002473
 20
338.5434617312019
 30
0.0
 10
286.6571858730324
 20
339.2592879774965
 30
0.0
 10
284.2622416190738
 20
339.9418475205116
 30
0.0
 10
282.1810594364344
 20
342.3726638312103
 30
0.0
 10
282.1671929271063
 20
344.5917359606469
 30
0.0
 10
282.1648674876537
 20
344.9540308146145
 30
0.0
 10
282.3733818918985
 20
345.496267312146
 30
0.0
 10
282.6539849191721
 20
345.6543110675319
 30
0.0
 10
285.8062472881757
 20
347.4296548984682
 30
0.0
 10
288.0307885066951
 20
350.0338241076154
 30
0.0
 10
289.6330162894976
 20
353.2274060905952
 30
0.0
 10
289.6889560274394
 20
353.3389195250834
 30
0.0
 10
289.8911831324236
 20
353.3770093620421
 30
0.0
 10
290.3786641435864
 20
353.6399347431071
 30
0.0
 10
289.5507215710937
 20
350.9275895357231
 30
0.0
 10
288.3708624947828
 20
348.7817902808885
 30
0.0
 10
286.7194990376219
 20
346.8825952672573
 30
0.0
 10
286.3338636617417
 20
346.4391038190718
 30
0.0
 10
285.893752713501
 20
346.0385038096776
 30
0.0
 10
285.450110542388
 20
345.6509090357402
 30
0.0
 10
284.0324537502077
 20
344.4123541450993
 30
0.0
 10
284.0035580118251
 20
344.0837350995
 30
0.0
 10
285.2400458451749
 20
342.6415320019873
 30
0.0
  0
SPLINE
  5
56
330
1F
100
AcDbEntity
  8
_U+0421_U+043B_U+043E_U+0439 1
 62
     7
370
    35
100
AcDbSpline
210
0.0
220
0.0
230
1.0
 70
    11
 71
     3
 72
    23
 73
    19
 74
     0
 42
0.0000000001
 43
0.0000000001
 12
1.0
 22
0.0
 32
0.0
 13
1.0
 23
0.0
 33
0.0
 40
0.0
 40
0.0
 40
0.0
 40
0.0
 40
1.0
 40
1.0
 40
1.0
 40
2.0
 40
2.0
 40
2.0
 40
3.0
 40
3.0
 40
3.0
 40
4.0
 40
4.0
 40
4.0
 40
5.0
 40
5.0
 40
5.0
 40
6.0
 40
6.0
 40
6.0
 40
6.0
 10
296.3686516637903
 20
338.1201456234519
 30
0.0
 10
296.4068922236766
 20
338.2484323665839
 30
0.0
 10
296.4451327835628
 20
338.376697577869
 30
0.0
 10
296.4833733434491
 20
338.5050058528478
 30
0.0
 10
296.7483011862648
 20
338.4604133981607
 30
0.0
 10
297.0434597419636
 20
338.4765622832477
 30
0.0
 10
297.2738074388461
 20
338.3622712405246
 30
0.0
 10
302.0964243538734
 20
335.9693940438572
 30
0.0
 10
306.9870388410405
 20
333.8311524672433
 30
0.0
 10
312.4595299556663
 20
333.3509707521398
 30
0.0
 10
313.2029384976897
 20
333.2857507882347
 30
0.0
 10
313.8726650600223
 20
332.380681140566
 30
0.0
 10
314.5764550039652
 20
331.8644335821013
 30
0.0
 10
314.5042802535493
 20
331.6980785338573
 30
0.0
 10
314.4321055031332
 20
331.5317019537665
 30
0.0
 10
314.3599307527173
 20
331.3653253736757
 30
0.0
 10
307.4567776104544
 20
331.212729175526
 30
0.0
 10
301.9360982227286
 20
334.7285137137637
 30
0.0
 10
296.3686516637903
 20
338.1201456234519
 30
0.0
  0
SPLINE
  5
57
330
1F
100
AcDbEntity
  8
_U+0421_U+043B_U+043E_U+0439 1
 62
     7
370
    35
100
AcDbSpline
210
0.0
220
0.0
230
1.0
 70
    11
 71
     3
 72
    20
 73
    16
 74
     0
 42
0.0000000001
 43
0.0000000001
 12
1.0
 22
0.0
 32
0.0
 13
1.0
 23
0.0
 33
0.0
 40
0.0
 40
0.0
 40
0.0
 40
0.0
 40
1.0
 40
1.0
 40
1.0
 40
2.0
 40
2.0
 40
2.0
 40
3.0
 40
3.0
 40
3.0
 40
4.0
 40
4.0
 40
4.0
 40
5.0
 40
5.0
 40
5.0
 40
5.0
 10
303.6952501048843
 20
357.9955043695681
 30
0.0
 10
303.8413221534589
 20
358.0544155023659
 30
0.0
 10
303.9873080746464
 20
358.1133266351636
 30
0.0
 10
304.1333801232209
 20
358.1722377679614
 30
0.0
 10
304.5653950970713
 20
357.5086477819619
 30
0.0
 10
305.1345248712346
 20
356.8966265690073
 30
0.0
 10
305.4069457967307
 20
356.1729627304838
 30
0.0
 10
307.0384138274643
 20
351.8390110781927
 30
0.0
 10
306.0143591944738
 20
347.6141397617034
 30
0.0
 10
304.6331773507436
 20
343.4641992720182
 30
0.0
 10
304.4951151491722
 20
343.0491944571263
 30
0.0
 10
303.3724015942228
 20
342.961882818422
 30
0.0
 10
302.2472334087403
 20
342.5572778855262
 30
0.0
 10
303.935890024529
 20
347.9655610330456
 30
0.0
 10
305.9802958128634
 20
352.7951542664302
 30
0.0
 10
303.6952501048843
 20
357.9955043695681
 30
0.0
  0
SPLINE
  5
58
330
1F
100
AcDbEntity
  8
_U+0421_U+043B_U+043E_U+0439 1
 62
     7
370
    35
100
AcDbSpline
210
0.0
220
0.0
230
1.0
 70
    11
 71
     3
 72
    23
 73
    19
 74
     0
 42
0.0000000001
 43
0.0000000001
 12
1.0
 22
0.0
 32
0.0
 13
1.0
 23
0.0
 33
0.0
 40
0.0
 40
0.0
 40
0.0
 40
0.0
 40
1.0
 40
1.0
 40
1.0
 40
2.0
 40
2.0
 40
2.0
 40
3.0
 40
3.0
 40
3.0
 40
4.0
 40
4.0
 40
4.0
 40
5.0
 40
5.0
 40
5.0
 40
6.0
 40
6.0
 40
6.0
 40
6.0
 10
307.1569681758505
 20
360.3438106433951
 30
0.0
 10
307.3178971987052
 20
360.4095904353165
 30
0.0
 10
307.4788262215599
 20
360.475370227238
 30
0.0
 10
307.6397552444147
 20
360.5411284873128
 30
0.0
 10
308.1949323818627
 20
359.5559173059185
 30
0.0
 10
309.0688239153899
 20
358.6234806809888
 30
0.0
 10
309.2425428552336
 20
357.5750519974401
 30
0.0
 10
309.675935867278
 20
354.9587603585543
 30
0.0
 10
309.9637735950707
 20
352.2904047141476
 30
0.0
 10
309.9729030981065
 20
349.6417291777004
 30
0.0
 10
309.9789320152058
 20
347.9054871805216
 30
0.0
 10
309.3776767256425
 20
346.1704724986094
 30
0.0
 10
309.0849297367834
 20
344.4287614123478
 30
0.0
 10
308.8430840337189
 20
342.9902833243285
 30
0.0
 10
308.1367533318555
 20
342.3499907965481
 30
0.0
 10
306.4618770980078
 20
342.950772385482
 30
0.0
 10
308.0093278625949
 20
348.7171301449997
 30
0.0
 10
309.892460118526
 20
354.4336847429086
 30
0.0
 10
307.1569681758505
 20
360.3438106433951
 30
0.0
  0
SPLINE
  5
59
330
1F
100
AcDbEntity
  8
_U+0421_U+043B_U+043E_U+0439 1
 62
     7
370
    35
100
AcDbSpline
210
0.0
220
0.0
230
1.0
 70
    11
 71
     3
 72
    38
 73
    34
 74
     0
 42
0.0000000001
 43
0.0000000001
 12
1.0
 22
0.0
 32
0.0
 13
1.0
 23
0.0
 33
0.0
 40
0.0
 40
0.0
 40
0.0
 40
0.0
 40
1.0
 40
1.0
 40
1.0
 40
2.0
 40
2.0
 40
2.0
 40
3.0
 40
3.0
 40
3.0
 40
4.0
 40
4.0
 40
4.0
 40
5.0
 40
5.0
 40
5.0
 40
6.0
 40
6.0
 40
6.0
 40
7.0
 40
7.0
 40
7.0
 40
8.0
 40
8.0
 40
8.0
 40
9.0
 40
9.0
 40
9.0
 40
10.0
 40
10.0
 40
10.0
 40
11.0
 40
11.0
 40
11.0
 40
11.0
 10
283.5857971205451
 20
339.9797220390026
 30
0.0
 10
284.1072553859312
 20
339.819568162632
 30
0.0
 10
284.4934936535212
 20
339.2191741469401
 30
0.0
 10
284.755837674723
 20
338.5433110082744
 30
0.0
 10
284.4801439085159
 20
338.6369099462393
 30
0.0
 10
284.1797315822021
 20
338.6879834868082
 30
0.0
 10
283.932589044829
 20
338.8309980131396
 30
0.0
 10
282.2242092573871
 20
339.8197834810999
 30
0.0
 10
280.4266445605709
 20
339.963917663464
 30
0.0
 10
278.4930416557809
 20
339.6675963880389
 30
0.0
 10
276.6534898577382
 20
339.3856583862648
 30
0.0
 10
274.7781521303424
 20
339.2184205323027
 30
0.0
 10
272.9191786065016
 20
339.2233728570628
 30
0.0
 10
271.6607282894335
 20
339.2266887614673
 30
0.0
 10
270.7586731003143
 20
340.040054273688
 30
0.0
 10
270.8663323342284
 20
341.4115037226724
 30
0.0
 10
271.2689778690669
 20
346.5435548078152
 30
0.0
 10
272.9538018161284
 20
351.1349412202416
 30
0.0
 10
276.8047295495406
 20
354.7314055883746
 30
0.0
 10
277.2773966501169
 20
355.1728084474222
 30
0.0
 10
277.9230506077463
 20
355.4289943604441
 30
0.0
 10
278.4255608479636
 20
355.732959441477
 30
0.0
 10
277.0321058515672
 20
352.6640899150633
 30
0.0
 10
275.6903272874495
 20
349.7124828262287
 30
0.0
 10
274.3551374684473
 20
346.7579258743849
 30
0.0
 10
274.2903266096311
 20
346.6145237748113
 30
0.0
 10
274.2878289154042
 20
346.4439269527511
 30
0.0
 10
274.2483825720981
 20
346.28799331835
 30
0.0
 10
273.340384593267
 20
342.7002924118576
 30
0.0
 10
274.0242791107826
 20
341.9030542528772
 30
0.0
 10
277.7511834067259
 20
341.4637615148143
 30
0.0
 10
279.7291849795821
 20
341.23061467785
 30
0.0
 10
281.6670511900351
 20
340.5690917491417
 30
0.0
 10
283.5857971205451
 20
339.9797220390026
 30
0.0
  0
SPLINE
  5
5A
330
1F
100
AcDbEntity
  8
_U+0421_U+043B_U+043E_U+0439 1
 62
     7
370
    35
100
AcDbSpline
210
0.0
220
0.0
230
1.0
 70
    11
 71
     3
 72
    20
 73
    16
 74
     0
 42
0.0000000001
 43
0.0000000001
 12
1.0
 22
0.0
 32
0.0
 13
1.0
 23
0.0
 33
0.0
 40
0.0
 40
0.0
 40
0.0
 40
0.0
 40
1.0
 40
1.0
 40
1.0
 40
2.0
 40
2.0
 40
2.0
 40
3.0
 40
3.0
 40
3.0
 40
4.0
 40
4.0
 40
4.0
 40
5.0
 40
5.0
 40
5.0
 40
5.0
 10
279.886625843258
 20
343.1513200064172
 30
0.0
 10
277.119266767344
 20
342.9547342452901
 30
0.0
 10
275.4113176168378
 20
344.4818589465142
 30
0.0
 10
275.9754089388539
 20
346.5835179154441
 30
0.0
 10
276.1423238151143
 20
347.2056590963866
 30
0.0
 10
276.7673933272193
 20
347.7887415072652
 30
0.0
 10
277.3281687448308
 20
348.1821929435275
 30
0.0
 10
277.5702297663632
 20
348.3520146191036
 30
0.0
 10
278.5065205918669
 20
348.0796582891477
 30
0.0
 10
278.5637522406157
 20
347.8607870666005
 30
0.0
 10
278.7214084227594
 20
347.2579814840689
 30
0.0
 10
278.7325619193929
 20
346.5247575055738
 30
0.0
 10
278.5287414577468
 20
345.9379285533551
 30
0.0
 10
278.0387627523572
 20
344.527291143226
 30
0.0
 10
277.9758036323642
 20
344.5491674995573
 30
0.0
 10
279.886625843258
 20
343.1513200064172
 30
0.0
  0
SPLINE
  5
5B
330
1F
100
AcDbEntity
  8
_U+0421_U+043B_U+043E_U+0439 1
 62
     7
370
    35
100
AcDbSpline
210
0.0
220
0.0
230
1.0
 70
    11
 71
     3
 72
    26
 73
    22
 74
     0
 42
0.0000000001
 43
0.0000000001
 12
1.0
 22
0.0
 32
0.0
 13
1.0
 23
0.0
 33
0.0
 40
0.0
 40
0.0
 40
0.0
 40
0.0
 40
1.0
 40
1.0
 40
1.0
 40
2.0
 40
2.0
 40
2.0
 40
3.0
 40
3.0
 40
3.0
 40
4.0
 40
4.0
 40
4.0
 40
5.0
 40
5.0
 40
5.0
 40
6.0
 40
6.0
 40
6.0
 40
7.0
 40
7.0
 40
7.0
 40
7.0
 10
273.4446417953894
 20
353.7602762347762
 30
0.0
 10
273.2996032754604
 20
353.8167542688875
 30
0.0
 10
273.1545647555313
 20
353.8732538348456
 30
0.0
 10
273.0094831719088
 20
353.9297318689569
 30
0.0
 10
273.0094831719088
 20
354.4071144439786
 30
0.0
 10
273.0041863376002
 20
354.8846046782343
 30
0.0
 10
273.0103875094736
 20
355.3618795940221
 30
0.0
 10
273.0378190822749
 20
357.4757471200778
 30
0.0
 10
271.9790981759641
 20
358.8058123595457
 30
0.0
 10
269.8723361593467
 20
358.4463166456598
 30
0.0
 10
267.2741312717584
 20
358.0030189840953
 30
0.0
 10
264.7731642042413
 20
356.9753039371517
 30
0.0
 10
262.2426123792446
 20
356.1616800427696
 30
0.0
 10
261.7059095663362
 20
355.9891022908054
 30
0.0
 10
261.2226487971428
 20
355.6503632772182
 30
0.0
 10
260.5990865143125
 20
355.3284406359684
 30
0.0
 10
261.7990132718251
 20
359.482493708389
 30
0.0
 10
275.405848527755
 20
363.8856702480869
 30
0.0
 10
280.6234025764722
 20
361.6012489636645
 30
0.0
 10
276.0484018994476
 20
360.748996936154
 30
0.0
 10
274.3363186343591
 20
357.6129049840843
 30
0.0
 10
273.4446417953894
 20
353.7602762347762
 30
0.0
  0
SPLINE
  5
5C
330
1F
100
AcDbEntity
  8
_U+0421_U+043B_U+043E_U+0439 1
 62
     7
370
    35
100
AcDbSpline
210
0.0
220
0.0
230
1.0
 70
    11
 71
     3
 72
    17
 73
    13
 74
     0
 42
0.0000000001
 43
0.0000000001
 12
1.0
 22
0.0
 32
0.0
 13
1.0
 23
0.0
 33
0.0
 40
0.0
 40
0.0
 40
0.0
 40
0.0
 40
1.0
 40
1.0
 40
1.0
 40
2.0
 40
2.0
 40
2.0
 40
3.0
 40
3.0
 40
3.0
 40
4.0
 40
4.0
 40
4.0
 40
4.0
 10
263.8784729067219
 20
361.4093571451361
 30
0.0
 10
262.8789215153702
 20
360.3085199465181
 30
0.0
 10
262.1836581827532
 20
360.309811857325
 30
0.0
 10
261.0936299712201
 20
361.1900552856532
 30
0.0
 10
258.3149020802048
 20
363.4339966981238
 30
0.0
 10
255.3758911217381
 20
365.4793714195634
 30
0.0
 10
252.5056098182022
 20
367.6102491045776
 30
0.0
 10
252.3544131900933
 20
367.7224946218564
 30
0.0
 10
252.2450744721302
 20
367.8911966413997
 30
0.0
 10
252.116314028369
 20
368.033629807868
 30
0.0
 10
256.7084109917392
 20
366.9843613822948
 30
0.0
 10
260.5732913618667
 20
364.7585497848153
 30
0.0
 10
263.8784729067219
 20
361.4093571451361
 30
0.0
  0
SPLINE
  5
5D
330
1F
100
AcDbEntity
  8
_U+0421_U+043B_U+043E_U+0439 1
 62
     7
370
    35
100
AcDbSpline
210
0.0
220
0.0
230
1.0
 70
    11
 71
     3
 72
    20
 73
    16
 74
     0
 42
0.0000000001
 43
0.0000000001
 12
1.0
 22
0.0
 32
0.0
 13
1.0
 23
0.0
 33
0.0
 40
0.0
 40
0.0
 40
0.0
 40
0.0
 40
1.0
 40
1.0
 40
1.0
 40
2.0
 40
2.0
 40
2.0
 40
3.0
 40
3.0
 40
3.0
 40
4.0
 40
4.0
 40
4.0
 40
5.0
 40
5.0
 40
5.0
 40
5.0
 10
249.8355316260529
 20
368.1770319074416
 30
0.0
 10
250.0639845204186
 20
368.2893420202607
 30
0.0
 10
250.4656826539987
 20
368.0493265241727
 30
0.0
 10
250.7871531264661
 20
367.9724793630048
 30
0.0
 10
250.606630123039
 20
367.4190032414527
 30
0.0
 10
250.5672268434264
 20
366.5089812690239
 30
0.0
 10
250.2217268299494
 20
366.3722755737999
 30
0.0
 10
248.4958631829199
 20
365.689199266462
 30
0.0
 10
246.689642683697
 20
365.209060615052
 30
0.0
 10
244.9116719674531
 20
364.6575654234039
 30
0.0
 10
244.8203338734005
 20
364.9309122183117
 30
0.0
 10
244.7289957793478
 20
365.2042590132195
 30
0.0
 10
244.6376576852951
 20
365.4776058081272
 30
0.0
 10
246.3660190265514
 20
366.3860559557409
 30
0.0
 10
248.0839158902712
 20
367.3157580361291
 30
0.0
 10
249.8355316260529
 20
368.1770319074416
 30
0.0
  0
SPLINE
  5
5E
330
1F
100
AcDbEntity
  8
_U+0421_U+043B_U+043E_U+0439 1
 62
     7
370
    35
100
AcDbSpline
210
0.0
220
0.0
230
1.0
 70
    11
 71
     3
 72
    17
 73
    13
 74
     0
 42
0.0000000001
 43
0.0000000001
 12
1.0
 22
0.0
 32
0.0
 13
1.0
 23
0.0
 33
0.0
 40
0.0
 40
0.0
 40
0.0
 40
0.0
 40
1.0
 40
1.0
 40
1.0
 40
2.0
 40
2.0
 40
2.0
 40
3.0
 40
3.0
 40
3.0
 40
4.0
 40
4.0
 40
4.0
 40
4.0
 10
214.5485812903651
 20
314.6896851868724
 30
0.0
 10
214.5485812903651
 20
314.6896851868724
 30
0.0
 10
223.4616462024163
 20
314.6896851868724
 30
0.0
 10
223.4616462024163
 20
314.6896851868724
 30
0.0
 10
223.4616462024163
 20
310.9735252824738
 30
0.0
 10
223.1770813153347
 20
307.2245077798846
 30
0.0
 10
223.5416585450613
 20
303.539762839942
 30
0.0
 10
223.9067094754171
 20
299.8503670210944
 30
0.0
 10
224.9202996308711
 20
296.2251576375064
 30
0.0
 10
225.6321855492045
 20
292.6588593867161
 30
0.0
 10
222.3089172530518
 20
293.8692075580715
 30
0.0
 10
215.1521620193809
 20
307.8625609955996
 30
0.0
 10
214.5485812903651
 20
314.6896851868724
 30
0.0
  0
SPLINE
  5
5F
330
1F
100
AcDbEntity
  8
_U+0421_U+043B_U+043E_U+0439 1
 62
     7
370
    35
100
AcDbSpline
210
0.0
220
0.0
230
1.0
 70
    11
 71
     3
 72
    68
 73
    64
 74
     0
 42
0.0000000001
 43
0.0000000001
 12
1.0
 22
0.0
 32
0.0
 13
1.0
 23
0.0
 33
0.0
 40
0.0
 40
0.0
 40
0.0
 40
0.0
 40
1.0
 40
1.0
 40
1.0
 40
2.0
 40
2.0
 40
2.0
 40
3.0
 40
3.0
 40
3.0
 40
4.0
 40
4.0
 40
4.0
 40
5.0
 40
5.0
 40
5.0
 40
6.0
 40
6.0
 40
6.0
 40
7.0
 40
7.0
 40
7.0
 40
8.0
 40
8.0
 40
8.0
 40
9.0
 40
9.0
 40
9.0
 40
10.0
 40
10.0
 40
10.0
 40
11.0
 40
11.0
 40
11.0
 40
12.0
 40
12.0
 40
12.0
 40
13.0
 40
13.0
 40
13.0
 40
14.0
 40
14.0
 40
14.0
 40
15.0
 40
15.0
 40
15.0
 40
16.0
 40
16.0
 40
16.0
 40
17.0
 40
17.0
 40
17.0
 40
18.0
 40
18.0
 40
18.0
 40
19.0
 40
19.0
 40
19.0
 40
20.0
 40
20.0
 40
20.0
 40
21.0
 40
21.0
 40
21.0
 40
21.0
 10
226.4075042881599
 20
325.7202134433921
 30
0.0
 10
223.7208896376814
 20
327.250137284698
 30
0.0
 10
223.2933532879619
 20
328.2066034506373
 30
0.0
 10
223.9003791124629
 20
330.9446146193864
 30
0.0
 10
223.9874539008526
 20
331.3374201002452
 30
0.0
 10
223.8937903673474
 20
331.9209331480594
 30
0.0
 10
223.6448391548445
 20
332.2115915477806
 30
0.0
 10
222.5622178986048
 20
333.4758769953269
 30
0.0
 10
222.5300923832048
 20
333.448402358832
 30
0.0
 10
222.6579915530947
 20
335.2691568546334
 30
0.0
 10
220.3307003617277
 20
335.2697812781901
 30
0.0
 10
220.899528690036
 20
337.6308344053125
 30
0.0
 10
219.7679009505186
 20
339.0762672798426
 30
0.0
 10
218.3610100817297
 20
337.5576691899445
 30
0.0
 10
218.9660549763267
 20
334.7323679143379
 30
0.0
 10
216.2483052754002
 20
334.4565880207436
 30
0.0
 10
216.406650476641
 20
334.9666990028752
 30
0.0
 10
216.544755741906
 20
335.5653058752841
 30
0.0
 10
216.7738545916751
 20
336.1268564393799
 30
0.0
 10
220.919854753399
 20
346.2909431813592
 30
0.0
 10
228.0193352746276
 20
354.0382093130488
 30
0.0
 10
236.7478291960566
 20
360.4326079795274
 30
0.0
 10
238.4340311813122
 20
361.667825433917
 30
0.0
 10
240.2034322225365
 20
362.7924983869235
 30
0.0
 10
241.9639621428863
 20
363.9222743876177
 30
0.0
 10
242.9241963820125
 20
364.5384943106949
 30
0.0
 10
245.8340962836288
 20
363.681634467973
 30
0.0
 10
246.1132351453212
 20
362.6087240746322
 30
0.0
 10
246.219430213654
 20
362.2005663870173
 30
0.0
 10
245.6613678087371
 20
361.3124638346134
 30
0.0
 10
245.2064429499098
 20
361.1235003472474
 30
0.0
 10
243.8913208121093
 20
360.577194330674
 30
0.0
 10
242.4747836759617
 20
360.2749733292304
 30
0.0
 10
241.0735341510299
 20
359.8698516320118
 30
0.0
 10
242.7528028816213
 20
358.4867749857647
 30
0.0
 10
242.6678812779099
 20
357.8436187223621
 30
0.0
 10
240.6546536037171
 20
356.8716065630457
 30
0.0
 10
239.7992363947295
 20
356.4586472735982
 30
0.0
 10
238.894941893545
 20
356.1468230684895
 30
0.0
 10
237.9990878762993
 20
355.7834946858763
 30
0.0
 10
239.6724568808723
 20
353.8838905671563
 30
0.0
 10
239.5170830744876
 20
353.349663916628
 30
0.0
 10
236.9254238683212
 20
351.9505675763745
 30
0.0
 10
238.0505059264167
 20
350.119520857811
 30
0.0
 10
237.7236955559472
 20
349.6036178088948
 30
0.0
 10
233.9705654706225
 20
347.4230661533527
 30
0.0
 10
236.5609758296754
 20
346.2150649532966
 30
0.0
 10
236.6294040387511
 20
345.1646984035375
 30
0.0
 10
234.2867391087813
 20
343.5144761342561
 30
0.0
 10
233.6332906226165
 20
343.0541467818863
 30
0.0
 10
232.9182610546529
 20
342.6811936637612
 30
0.0
 10
232.2316535244426
 20
342.2682559061605
 30
0.0
 10
233.2671630999216
 20
340.4907373586991
 30
0.0
 10
233.2035149608316
 20
340.3644100136243
 30
0.0
 10
230.2256174870752
 20
338.2738184139408
 30
0.0
 10
231.1299981156468
 20
336.6128732849615
 30
0.0
 10
231.1299981156468
 20
336.6128732849615
 30
0.0
 10
228.7099477283395
 20
334.849048992054
 30
0.0
 10
230.2876722695032
 20
333.918722488109
 30
0.0
 10
229.9058264986569
 20
332.8124162004081
 30
0.0
 10
229.1766289755102
 20
331.4906622537985
 30
0.0
 10
228.1483110368567
 20
329.6267794688912
 30
0.0
 10
227.3219187573324
 20
327.6514909087296
 30
0.0
 10
226.4075042881599
 20
325.7202134433921
 30
0.0
  0
SPLINE
  5
60
330
1F
100
AcDbEntity
  8
_U+0421_U+043B_U+043E_U+0439 1
 62
     7
370
    35
100
AcDbSpline
210
0.0
220
0.0
230
1.0
 70
    11
 71
     3
 72
    17
 73
    13
 74
     0
 42
0.0000000001
 43
0.0000000001
 12
1.0
 22
0.0
 32
0.0
 13
1.0
 23
0.0
 33
0.0
 40
0.0
 40
0.0
 40
0.0
 40
0.0
 40
1.0
 40
1.0
 40
1.0
 40
2.0
 40
2.0
 40
2.0
 40
3.0
 40
3.0
 40
3.0
 40
4.0
 40
4.0
 40
4.0
 40
4.0
 10
231.4952643644704
 20
297.9671486377761
 30
0.0
 10
231.1556210133184
 20
298.2661398622022
 30
0.0
 10
230.4719848779641
 20
298.5981394077464
 30
0.0
 10
230.4787458778539
 20
298.9154972974783
 30
0.0
 10
230.4952392724896
 20
299.6943472593061
 30
0.0
 10
230.829887235188
 20
300.4664362212442
 30
0.0
 10
231.0365499006094
 20
301.2412381958769
 30
0.0
 10
231.1894260127674
 20
301.1993802857311
 30
0.0
 10
231.3423021249254
 20
301.1575223755853
 30
0.0
 10
231.4952643644704
 20
301.1156429335928
 30
0.0
 10
231.4952643644704
 20
301.1156429335928
 30
0.0
 10
231.4952643644704
 20
297.9671486377761
 30
0.0
 10
231.4952643644704
 20
297.9671486377761
 30
0.0
  0
SPLINE
  5
61
330
1F
100
AcDbEntity
  8
_U+0421_U+043B_U+043E_U+0439 1
 62
     7
370
    35
100
AcDbSpline
210
0.0
220
0.0
230
1.0
 70
    11
 71
     3
 72
    17
 73
    13
 74
     0
 42
0.0000000001
 43
0.0000000001
 12
1.0
 22
0.0
 32
0.0
 13
1.0
 23
0.0
 33
0.0
 40
0.0
 40
0.0
 40
0.0
 40
0.0
 40
1.0
 40
1.0
 40
1.0
 40
2.0
 40
2.0
 40
2.0
 40
3.0
 40
3.0
 40
3.0
 40
4.0
 40
4.0
 40
4.0
 40
4.0
 10
231.6753567309619
 20
302.3013802040754
 30
0.0
 10
231.3739970033897
 20
302.5033704587449
 30
0.0
 10
230.6329139008188
 20
302.7782890784679
 30
0.0
 10
230.6382968625146
 20
303.0377047685072
 30
0.0
 10
230.6550917030052
 20
303.8459457011936
 30
0.0
 10
230.9545566280605
 20
304.6483084397083
 30
0.0
 10
231.1444244529913
 20
305.4529750858287
 30
0.0
 10
231.3213731698524
 20
305.3928581696111
 30
0.0
 10
231.4983649504072
 20
305.3327412533935
 30
0.0
 10
231.6753567309619
 20
305.2726674008695
 30
0.0
 10
231.6753567309619
 20
305.2726674008695
 30
0.0
 10
231.6753567309619
 20
302.3013802040754
 30
0.0
 10
231.6753567309619
 20
302.3013802040754
 30
0.0
  0
SPLINE
  5
62
330
1F
100
AcDbEntity
  8
_U+0421_U+043B_U+043E_U+0439 1
 62
     7
370
    35
100
AcDbSpline
210
0.0
220
0.0
230
1.0
 70
    11
 71
     3
 72
    17
 73
    13
 74
     0
 42
0.0000000001
 43
0.0000000001
 12
1.0
 22
0.0
 32
0.0
 13
1.0
 23
0.0
 33
0.0
 40
0.0
 40
0.0
 40
0.0
 40
0.0
 40
1.0
 40
1.0
 40
1.0
 40
2.0
 40
2.0
 40
2.0
 40
3.0
 40
3.0
 40
3.0
 40
4.0
 40
4.0
 40
4.0
 40
4.0
 10
233.3956220978278
 20
299.4448146869402
 30
0.0
 10
233.2944654816422
 20
300.2280140818181
 30
0.0
 10
233.4770555423604
 20
301.0478822117672
 30
0.0
 10
233.5483690189051
 20
301.8533455362186
 30
0.0
 10
233.7098578697762
 20
301.8211338934316
 30
0.0
 10
233.8713897843408
 20
301.7888791869509
 30
0.0
 10
234.0329216989055
 20
301.7566244804702
 30
0.0
 10
234.1585384930364
 20
300.8574545588201
 30
0.0
 10
234.2841552871673
 20
299.9582631053231
 30
0.0
 10
234.4373759088738
 20
298.8612370435856
 30
0.0
 10
234.1742567411879
 20
298.9985456305196
 30
0.0
 10
233.4303744985353
 20
299.1758819206228
 30
0.0
 10
233.3956220978278
 20
299.4448146869402
 30
0.0
  0
SPLINE
  5
63
330
1F
100
AcDbEntity
  8
_U+0421_U+043B_U+043E_U+0439 1
 62
     7
370
    35
100
AcDbSpline
210
0.0
220
0.0
230
1.0
 70
    11
 71
     3
 72
    17
 73
    13
 74
     0
 42
0.0000000001
 43
0.0000000001
 12
1.0
 22
0.0
 32
0.0
 13
1.0
 23
0.0
 33
0.0
 40
0.0
 40
0.0
 40
0.0
 40
0.0
 40
1.0
 40
1.0
 40
1.0
 40
2.0
 40
2.0
 40
2.0
 40
3.0
 40
3.0
 40
3.0
 40
4.0
 40
4.0
 40
4.0
 40
4.0
 10
233.667440131614
 20
295.6056433418713
 30
0.0
 10
233.6586982018202
 20
296.3926108099363
 30
0.0
 10
233.963675279652
 20
297.1830449053332
 30
0.0
 10
234.1437676461434
 20
297.972122494383
 30
0.0
 10
234.2614176569647
 20
297.9335374249482
 30
0.0
 10
234.3789815403988
 20
297.8949308236666
 30
0.0
 10
234.4966315512201
 20
297.8563457542318
 30
0.0
 10
234.5762132569294
 20
296.8998149927522
 30
0.0
 10
234.6557949626387
 20
295.9432842312726
 30
0.0
 10
234.7547553304524
 20
294.7543171837725
 30
0.0
 10
234.3979295655677
 20
295.017974647628
 30
0.0
 10
233.6707560360186
 20
295.3077717734779
 30
0.0
 10
233.667440131614
 20
295.6056433418713
 30
0.0
  0
SPLINE
  5
64
330
1F
100
AcDbEntity
  8
_U+0421_U+043B_U+043E_U+0439 1
 62
     7
370
    35
100
AcDbSpline
210
0.0
220
0.0
230
1.0
 70
    11
 71
     3
 72
    17
 73
    13
 74
     0
 42
0.0000000001
 43
0.0000000001
 12
1.0
 22
0.0
 32
0.0
 13
1.0
 23
0.0
 33
0.0
 40
0.0
 40
0.0
 40
0.0
 40
0.0
 40
1.0
 40
1.0
 40
1.0
 40
2.0
 40
2.0
 40
2.0
 40
3.0
 40
3.0
 40
3.0
 40
4.0
 40
4.0
 40
4.0
 40
4.0
 10
235.4544542235067
 20
289.8672339194778
 30
0.0
 10
235.028123657207
 20
290.3971757324963
 30
0.0
 10
235.0138695746368
 20
291.2586649222766
 30
0.0
 10
234.8235711127703
 20
291.9785391557663
 30
0.0
 10
234.9588341742599
 20
291.9474902327055
 30
0.0
 10
235.0940972357496
 20
291.9164413096447
 30
0.0
 10
235.2293172335456
 20
291.8853923865839
 30
0.0
 10
235.8337592364327
 20
291.1495630546281
 30
0.0
 10
236.4382873667069
 20
290.4137121908255
 30
0.0
 10
237.2254055576994
 20
289.4555665408372
 30
0.0
 10
236.6144178733903
 20
289.5768123700712
 30
0.0
 10
235.7532731931585
 20
289.495831094321
 30
0.0
 10
235.4544542235067
 20
289.8672339194778
 30
0.0
  0
SPLINE
  5
65
330
1F
100
AcDbEntity
  8
_U+0421_U+043B_U+043E_U+0439 1
 62
     7
370
    35
100
AcDbSpline
210
0.0
220
0.0
230
1.0
 70
    11
 71
     3
 72
    17
 73
    13
 74
     0
 42
0.0000000001
 43
0.0000000001
 12
1.0
 22
0.0
 32
0.0
 13
1.0
 23
0.0
 33
0.0
 40
0.0
 40
0.0
 40
0.0
 40
0.0
 40
1.0
 40
1.0
 40
1.0
 40
2.0
 40
2.0
 40
2.0
 40
3.0
 40
3.0
 40
3.0
 40
4.0
 40
4.0
 40
4.0
 40
4.0
 10
236.13481751815
 20
303.4460562427432
 30
0.0
 10
236.8421386849653
 20
302.596065059145
 30
0.0
 10
235.8471089814381
 20
301.1452276910723
 30
0.0
 10
237.9100321580056
 20
301.0018255914988
 30
0.0
 10
237.6974267028721
 20
300.8207642919022
 30
0.0
 10
237.4848212477387
 20
300.6397029923055
 30
0.0
 10
237.2722588562988
 20
300.458620160862
 30
0.0
 10
236.8018310677879
 20
300.7051167428316
 30
0.0
 10
236.0394314369021
 20
300.8579282594493
 30
0.0
 10
235.9237623559848
 20
301.2183067790532
 30
0.0
 10
235.7058600665428
 20
301.897033653341
 30
0.0
 10
235.860889363379
 20
302.6954130002009
 30
0.0
 10
236.13481751815
 20
303.4460562427432
 30
0.0
  0
SPLINE
  5
66
330
1F
100
AcDbEntity
  8
_U+0421_U+043B_U+043E_U+0439 1
 62
     7
370
    35
100
AcDbSpline
210
0.0
220
0.0
230
1.0
 70
    11
 71
     3
 72
    14
 73
    10
 74
     0
 42
0.0000000001
 43
0.0000000001
 12
1.0
 22
0.0
 32
0.0
 13
1.0
 23
0.0
 33
0.0
 40
0.0
 40
0.0
 40
0.0
 40
0.0
 40
1.0
 40
1.0
 40
1.0
 40
2.0
 40
2.0
 40
2.0
 40
3.0
 40
3.0
 40
3.0
 40
3.0
 10
236.7037319738454
 20
293.3001208476018
 30
0.0
 10
236.3223599036283
 20
293.73917673535
 30
0.0
 10
236.4470292965007
 20
294.6177191477823
 30
0.0
 10
236.3253312984843
 20
295.4749880955932
 30
0.0
 10
237.2348365065903
 20
294.4155351064917
 30
0.0
 10
237.8950459926448
 20
293.6464390712565
 30
0.0
 10
238.7968858632961
 20
292.5959217985699
 30
0.0
 10
237.9771253925809
 20
292.8433011862576
 30
0.0
 10
237.090616196839
 20
292.8547345968993
 30
0.0
 10
236.7037319738454
 20
293.3001208476018
 30
0.0
  0
SPLINE
  5
67
330
1F
100
AcDbEntity
  8
_U+0421_U+043B_U+043E_U+0439 1
 62
     7
370
    35
100
AcDbSpline
210
0.0
220
0.0
230
1.0
 70
    11
 71
     3
 72
    14
 73
    10
 74
     0
 42
0.0000000001
 43
0.0000000001
 12
1.0
 22
0.0
 32
0.0
 13
1.0
 23
0.0
 33
0.0
 40
0.0
 40
0.0
 40
0.0
 40
0.0
 40
1.0
 40
1.0
 40
1.0
 40
2.0
 40
2.0
 40
2.0
 40
3.0
 40
3.0
 40
3.0
 40
3.0
 10
237.7410502244541
 20
296.8767543848478
 30
0.0
 10
237.3516683072338
 20
297.3230449731151
 30
0.0
 10
237.4537292609843
 20
298.1981422900622
 30
0.0
 10
237.2919820279518
 20
299.1833104077629
 30
0.0
 10
238.2542833243692
 20
298.0358998245537
 30
0.0
 10
238.9004109826278
 20
297.2655118785115
 30
0.0
 10
239.755569809454
 20
296.2459574014985
 30
0.0
 10
239.0000603695387
 20
296.4559575031713
 30
0.0
 10
238.1173407788306
 20
296.4454499619413
 30
0.0
 10
237.7410502244541
 20
296.8767543848478
 30
0.0
  0
SPLINE
  5
68
330
1F
100
AcDbEntity
  8
_U+0421_U+043B_U+043E_U+0439 1
 62
     7
370
    35
100
AcDbSpline
210
0.0
220
0.0
230
1.0
 70
    11
 71
     3
 72
    17
 73
    13
 74
     0
 42
0.0000000001
 43
0.0000000001
 12
1.0
 22
0.0
 32
0.0
 13
1.0
 23
0.0
 33
0.0
 40
0.0
 40
0.0
 40
0.0
 40
0.0
 40
1.0
 40
1.0
 40
1.0
 40
2.0
 40
2.0
 40
2.0
 40
3.0
 40
3.0
 40
3.0
 40
4.0
 40
4.0
 40
4.0
 40
4.0
 10
241.3215379622743
 20
300.462000660807
 30
0.0
 10
240.6608978392841
 20
300.7380604684093
 30
0.0
 10
239.8107774646051
 20
300.853492699012
 30
0.0
 10
239.3982272802464
 20
301.3399832452229
 30
0.0
 10
239.0554402794641
 20
301.7442006048766
 30
0.0
 10
239.2272213530973
 20
302.5848684988179
 30
0.0
 10
239.1543145198908
 20
303.42506269213
 30
0.0
 10
240.0782891290348
 20
302.3249791081494
 30
0.0
 10
240.7403503539126
 20
301.5366981974306
 30
0.0
 10
241.4024546424841
 20
300.7484172867119
 30
0.0
 10
241.375496770312
 20
300.6529450780769
 30
0.0
 10
241.3485388981399
 20
300.5574513375951
 30
0.0
 10
241.3215379622743
 20
300.462000660807
 30
0.0
  0
SPLINE
  5
69
330
1F
100
AcDbEntity
  8
_U+0421_U+043B_U+043E_U+0439 1
 62
     7
370
    35
100
AcDbSpline
210
0.0
220
0.0
230
1.0
 70
    11
 71
     3
 72
   113
 73
   109
 74
     0
 42
0.0000000001
 43
0.0000000001
 12
1.0
 22
0.0
 32
0.0
 13
1.0
 23
0.0
 33
0.0
 40
0.0
 40
0.0
 40
0.0
 40
0.0
 40
1.0
 40
1.0
 40
1.0
 40
2.0
 40
2.0
 40
2.0
 40
3.0
 40
3.0
 40
3.0
 40
4.0
 40
4.0
 40
4.0
 40
5.0
 40
5.0
 40
5.0
 40
6.0
 40
6.0
 40
6.0
 40
7.0
 40
7.0
 40
7.0
 40
8.0
 40
8.0
 40
8.0
 40
9.0
 40
9.0
 40
9.0
 40
10.0
 40
10.0
 40
10.0
 40
11.0
 40
11.0
 40
11.0
 40
12.0
 40
12.0
 40
12.0
 40
13.0
 40
13.0
 40
13.0
 40
14.0
 40
14.0
 40
14.0
 40
15.0
 40
15.0
 40
15.0
 40
16.0
 40
16.0
 40
16.0
 40
17.0
 40
17.0
 40
17.0
 40
18.0
 40
18.0
 40
18.0
 40
19.0
 40
19.0
 40
19.0
 40
20.0
 40
20.0
 40
20.0
 40
21.0
 40
21.0
 40
21.0
 40
22.0
 40
22.0
 40
22.0
 40
23.0
 40
23.0
 40
23.0
 40
24.0
 40
24.0
 40
24.0
 40
25.0
 40
25.0
 40
25.0
 40
26.0
 40
26.0
 40
26.0
 40
27.0
 40
27.0
 40
27.0
 40
28.0
 40
28.0
 40
28.0
 40
29.0
 40
29.0
 40
29.0
 40
30.0
 40
30.0
 40
30.0
 40
31.0
 40
31.0
 40
31.0
 40
32.0
 40
32.0
 40
32.0
 40
33.0
 40
33.0
 40
33.0
 40
34.0
 40
34.0
 40
34.0
 40
35.0
 40
35.0
 40
35.0
 40
36.0
 40
36.0
 40
36.0
 40
36.0
 10
245.6427212294232
 20
319.754535378206
 30
0.0
 10
244.465962739049
 20
316.7605751467497
 30
0.0
 10
243.3856669222617
 20
313.7264149573498
 30
0.0
 10
242.1265275860965
 20
310.7679607412383
 30
0.0
 10
241.2245585243645
 20
308.64868872164
 30
0.0
 10
239.8548316231227
 20
306.9056641927247
 30
0.0
 10
237.0848456619012
 20
306.4209607897968
 30
0.0
 10
237.2557654616631
 20
310.0742692334364
 30
0.0
 10
238.2195739873553
 20
312.6096011284189
 30
0.0
 10
239.0431671267979
 20
314.2258676753239
 30
0.0
 10
240.7305748954732
 20
317.5374226468267
 30
0.0
 10
243.4934984109501
 20
320.2566580451812
 30
0.0
 10
242.7362233595986
 20
321.2368738381219
 30
0.0
 10
242.541274018827
 20
321.4891840187229
 30
0.0
 10
242.2017598587556
 20
321.5115556075302
 30
0.0
 10
242.1663615026447
 20
321.51336428266
 30
0.0
 10
241.2055243718085
 20
321.5626722117926
 30
0.0
 10
240.5741244967493
 20
319.715971840618
 30
0.0
 10
239.1963877485044
 20
316.9399138986037
 30
0.0
 10
237.8130957837894
 20
314.1525948007219
 30
0.0
 10
237.8113301723532
 20
314.7386701383033
 30
0.0
 10
236.4911695824055
 20
312.0021231351354
 30
0.0
 10
235.6807108695005
 20
310.3220792580598
 30
0.0
 10
235.0298462049496
 20
308.5650159650421
 30
0.0
 10
234.310165758081
 20
306.8447075344826
 30
0.0
 10
233.3296054555917
 20
307.1868701117082
 30
0.0
 10
232.8191714957584
 20
307.4074208183045
 30
0.0
 10
232.6463999571731
 20
307.7825486529547
 30
0.0
 10
232.365150974496
 20
308.393213359562
 30
0.0
 10
232.7499681401984
 20
309.1145948223265
 30
0.0
 10
232.9340654301915
 20
309.4529462626716
 30
0.0
 10
238.7759569082232
 20
320.1888973233557
 30
0.0
 10
242.2915045961464
 20
326.3408904587534
 30
0.0
 10
244.6604383791913
 20
327.5868738365344
 30
0.0
 10
244.8704169490173
 20
327.6973106786834
 30
0.0
 10
245.8508049967323
 20
328.179171877836
 30
0.0
 10
245.8149760036857
 20
328.7414114610287
 30
0.0
 10
245.7969753797752
 20
329.0242107366742
 30
0.0
 10
245.5277842312965
 20
329.2338878606452
 30
0.0
 10
245.3511800239839
 20
329.3478128619731
 30
0.0
 10
239.026501477388
 20
324.0475980534566
 30
0.0
 10
233.9757331138503
 20
317.8112431423637
 30
0.0
 10
231.0998535301509
 20
309.8348566290583
 30
0.0
 10
230.3551961410141
 20
310.6255275747699
 30
0.0
 10
229.8822275945829
 20
311.3680317792284
 30
0.0
 10
229.8049282646326
 20
312.1944886542931
 30
0.0
 10
229.7306003295384
 20
312.9889707368853
 30
0.0
 10
230.0272230508183
 20
313.6190141055971
 30
0.0
 10
230.185783570527
 20
313.9408506194598
 30
0.0
 10
231.5989617385765
 20
316.8088280153899
 30
0.0
 10
238.8107523726242
 20
327.9030259428464
 30
0.0
 10
242.7362233595986
 20
329.7997447940975
 30
0.0
 10
243.0030890686247
 20
329.9286990244798
 30
0.0
 10
244.1012132545481
 20
330.4241252871055
 30
0.0
 10
244.0831695669441
 20
331.0505082418642
 30
0.0
 10
244.075547293183
 20
331.3162542948577
 30
0.0
 10
243.8690568825359
 20
331.5328862053395
 30
0.0
 10
243.669973427182
 20
331.6862360181267
 30
0.0
 10
237.7011732442124
 20
327.2765568607005
 30
0.0
 10
232.8373874381367
 20
322.1534845556662
 30
0.0
 10
228.6064656727013
 20
316.2154964454428
 30
0.0
 10
228.2070068511866
 20
316.7125806602708
 30
0.0
 10
228.0178711090464
 20
317.1677208375658
 30
0.0
 10
227.9965545807314
 20
317.6127195150262
 30
0.0
 10
227.962491199121
 20
318.3231412677783
 30
0.0
 10
228.3270684288476
 20
318.8795672523397
 30
0.0
 10
228.5269270306856
 20
319.160105684073
 30
0.0
 10
233.0401313074436
 20
325.4952487082053
 30
0.0
 10
238.50284696363
 20
329.7035189708251
 30
0.0
 10
238.5028900273236
 20
329.7035405026719
 30
0.0
 10
240.9945984007241
 20
331.623061579666
 30
0.0
 10
243.317238713186
 20
333.3565475004565
 30
0.0
 10
245.4301588379832
 20
334.89900287659
 30
0.0
 10
245.3903679851286
 20
335.2950166026195
 30
0.0
 10
245.283656152473
 20
335.8300829951724
 30
0.0
 10
244.9490943171617
 20
335.957314677812
 30
0.0
 10
244.4217793894506
 20
336.1577977032068
 30
0.0
 10
243.6229478738083
 20
335.2335216482078
 30
0.0
 10
243.4096964632714
 20
334.9952071680157
 30
0.0
 10
241.7822333560393
 20
333.1764120702716
 30
0.0
 10
239.7514356948717
 20
332.7419855295815
 30
0.0
 10
236.6162696122136
 20
330.5287485306231
 30
0.0
 10
234.958532728405
 20
329.3584711261306
 30
0.0
 10
231.8954983324693
 20
326.9167597009597
 30
0.0
 10
227.8433339590249
 20
322.0462990223813
 30
0.0
 10
227.6795627323949
 20
322.1484030398254
 30
0.0
 10
227.5158345694583
 20
322.2505501209631
 30
0.0
 10
227.3521064065219
 20
322.352675670254
 30
0.0
 10
227.6922234583031
 20
323.1014241102795
 30
0.0
 10
227.9181355947484
 20
323.9326825871767
 30
0.0
 10
228.390372058389
 20
324.58587269118
 30
0.0
 10
232.2814351542045
 20
329.967736262697
 30
0.0
 10
237.401708319157
 20
333.964822172071
 30
0.0
 10
243.2808929558166
 20
336.8596282490925
 30
0.0
 10
246.8079817136154
 20
338.5962793513602
 30
0.0
 10
250.6672207398858
 20
339.6657446492156
 30
0.0
 10
254.3992065516698
 20
340.9722325164563
 30
0.0
 10
255.0883117761069
 20
341.2134968596577
 30
0.0
 10
255.8834828777961
 20
341.2266097543484
 30
0.0
 10
256.6283555854007
 20
341.2187290984259
 30
0.0
 10
258.2821736730949
 20
341.2012452388383
 30
0.0
 10
259.2114020528539
 20
340.2395468341308
 30
0.0
 10
259.1927985372336
 20
338.5804103802813
 30
0.0
 10
259.1698886522566
 20
336.5437129930951
 30
0.0
 10
258.2523305334539
 20
334.8480585271019
 30
0.0
 10
256.5647505100043
 20
333.8521675497033
 30
0.0
 10
251.0294725301598
 20
330.5856141379766
 30
0.0
 10
247.9071824918779
 20
325.5158762174232
 30
0.0
 10
245.6427212294232
 20
319.754535378206
 30
0.0
  0
SPLINE
  5
6A
330
1F
100
AcDbEntity
  8
_U+0421_U+043B_U+043E_U+0439 1
 62
     7
370
    35
100
AcDbSpline
210
0.0
220
0.0
230
1.0
 70
    11
 71
     3
 72
    17
 73
    13
 74
     0
 42
0.0000000001
 43
0.0000000001
 12
1.0
 22
0.0
 32
0.0
 13
1.0
 23
0.0
 33
0.0
 40
0.0
 40
0.0
 40
0.0
 40
0.0
 40
1.0
 40
1.0
 40
1.0
 40
2.0
 40
2.0
 40
2.0
 40
3.0
 40
3.0
 40
3.0
 40
4.0
 40
4.0
 40
4.0
 40
4.0
 10
249.8808776953775
 20
285.4347525363086
 30
0.0
 10
247.8617072314726
 20
288.4735851364603
 30
0.0
 10
247.6562072857774
 20
292.2651280364456
 30
0.0
 10
249.3748792959815
 20
295.1634007407991
 30
0.0
 10
251.0922593953785
 20
298.0595417923212
 30
0.0
 10
254.0539649203542
 20
298.9220429789003
 30
0.0
 10
254.7627502527508
 20
299.1080996669505
 30
0.0
 10
253.8127221089996
 20
298.4849034255156
 30
0.0
 10
251.6447235201319
 20
296.8762806842186
 30
0.0
 10
250.336965273931
 20
293.9126372930324
 30
0.0
 10
248.6037377353018
 20
289.9847978029119
 30
0.0
 10
249.5831353180648
 20
286.3996807180334
 30
0.0
 10
249.8808776953775
 20
285.4347525363086
 30
0.0
  0
SPLINE
  5
6B
330
1F
100
AcDbEntity
  8
_U+0421_U+043B_U+043E_U+0439 1
 62
     7
370
    35
100
AcDbSpline
210
0.0
220
0.0
230
1.0
 70
    11
 71
     3
 72
    20
 73
    16
 74
     0
 42
0.0000000001
 43
0.0000000001
 12
1.0
 22
0.0
 32
0.0
 13
1.0
 23
0.0
 33
0.0
 40
0.0
 40
0.0
 40
0.0
 40
0.0
 40
1.0
 40
1.0
 40
1.0
 40
2.0
 40
2.0
 40
2.0
 40
3.0
 40
3.0
 40
3.0
 40
4.0
 40
4.0
 40
4.0
 40
5.0
 40
5.0
 40
5.0
 40
5.0
 10
251.2076700941344
 20
318.6097516803043
 30
0.0
 10
251.007940683377
 20
318.4481767020461
 30
0.0
 10
250.8082112726196
 20
318.2865586600943
 30
0.0
 10
250.6085249255559
 20
318.1249621499893
 30
0.0
 10
250.1440829904506
 20
318.3226460353023
 30
0.0
 10
249.3746209138201
 20
318.4245777979721
 30
0.0
 10
249.2765218198776
 20
318.7372632769521
 30
0.0
 10
249.0482842439798
 20
319.4643722109608
 30
0.0
 10
249.1437133889212
 20
320.2930468662441
 30
0.0
 10
249.1080566506488
 20
321.0805741623255
 30
0.0
 10
249.308991844826
 20
321.0838470030365
 30
0.0
 10
249.5099701026968
 20
321.0871413755942
 30
0.0
 10
249.7109483605676
 20
321.090435748152
 30
0.0
 10
250.0992106217552
 20
320.2177499980447
 30
0.0
 10
249.1351867775952
 20
318.7849993812696
 30
0.0
 10
251.2076700941344
 20
318.6097516803043
 30
0.0
  0
SPLINE
  5
6C
330
1F
100
AcDbEntity
  8
_U+0421_U+043B_U+043E_U+0439 1
 62
     7
370
    35
100
AcDbSpline
210
0.0
220
0.0
230
1.0
 70
    11
 71
     3
 72
    17
 73
    13
 74
     0
 42
0.0000000001
 43
0.0000000001
 12
1.0
 22
0.0
 32
0.0
 13
1.0
 23
0.0
 33
0.0
 40
0.0
 40
0.0
 40
0.0
 40
0.0
 40
1.0
 40
1.0
 40
1.0
 40
2.0
 40
2.0
 40
2.0
 40
3.0
 40
3.0
 40
3.0
 40
4.0
 40
4.0
 40
4.0
 40
4.0
 10
254.6328270892633
 20
317.3063859308472
 30
0.0
 10
254.0285142774569
 20
317.4139805692208
 30
0.0
 10
253.1778340747616
 20
317.3171518542385
 30
0.0
 10
252.8804362069974
 20
317.6772504598343
 30
0.0
 10
252.4472154497273
 20
318.2018093111571
 30
0.0
 10
252.4121185394713
 20
319.0552455902406
 30
0.0
 10
252.2072645491796
 20
319.7684449512277
 30
0.0
 10
252.3448961138153
 20
319.7499490948413
 30
0.0
 10
252.482527678451
 20
319.7314101747613
 30
0.0
 10
252.6201592430868
 20
319.7129143183748
 30
0.0
 10
253.229941143976
 20
318.9838459863088
 30
0.0
 10
253.8396369174781
 20
318.2547776542428
 30
0.0
 10
254.6328270892633
 20
317.3063859308472
 30
0.0
  0
SPLINE
  5
6D
330
1F
100
AcDbEntity
  8
_U+0421_U+043B_U+043E_U+0439 1
 62
     7
370
    35
100
AcDbSpline
210
0.0
220
0.0
230
1.0
 70
    11
 71
     3
 72
    14
 73
    10
 74
     0
 42
0.0000000001
 43
0.0000000001
 12
1.0
 22
0.0
 32
0.0
 13
1.0
 23
0.0
 33
0.0
 40
0.0
 40
0.0
 40
0.0
 40
0.0
 40
1.0
 40
1.0
 40
1.0
 40
2.0
 40
2.0
 40
2.0
 40
3.0
 40
3.0
 40
3.0
 40
3.0
 10
254.0639556972614
 20
325.8031756490463
 30
0.0
 10
254.3419318392275
 20
324.9399639115234
 30
0.0
 10
254.6198218538065
 20
324.0767521740005
 30
0.0
 10
255.0195821211762
 20
322.8352258885035
 30
0.0
 10
254.6259799619864
 20
323.0084926595649
 30
0.0
 10
253.859273961744
 20
323.1279513455159
 30
0.0
 10
253.7857211731339
 20
323.4211505031574
 30
0.0
 10
253.5993415073819
 20
324.1645805770276
 30
0.0
 10
253.7238386454802
 20
324.9859559362515
 30
0.0
 10
254.0639556972614
 20
325.8031756490463
 30
0.0
  0
SPLINE
  5
6E
330
1F
100
AcDbEntity
  8
_U+0421_U+043B_U+043E_U+0439 1
 62
     7
370
    35
100
AcDbSpline
210
0.0
220
0.0
230
1.0
 70
    11
 71
     3
 72
    17
 73
    13
 74
     0
 42
0.0000000001
 43
0.0000000001
 12
1.0
 22
0.0
 32
0.0
 13
1.0
 23
0.0
 33
0.0
 40
0.0
 40
0.0
 40
0.0
 40
0.0
 40
1.0
 40
1.0
 40
1.0
 40
2.0
 40
2.0
 40
2.0
 40
3.0
 40
3.0
 40
3.0
 40
4.0
 40
4.0
 40
4.0
 40
4.0
 10
251.4474487399077
 20
321.7093471520772
 30
0.0
 10
251.2472886922147
 20
322.4114791438178
 30
0.0
 10
251.3873748873837
 20
323.2106551690086
 30
0.0
 10
251.3873748873837
 20
323.9698680865706
 30
0.0
 10
251.5232408405832
 20
323.9622242809627
 30
0.0
 10
251.6590637300892
 20
323.954558943508
 30
0.0
 10
251.7948866195952
 20
323.9469151379001
 30
0.0
 10
252.0934902707792
 20
323.0633342733207
 30
0.0
 10
252.3920939219633
 20
322.179774940588
 30
0.0
 10
252.8219557111353
 20
320.9075657734256
 30
0.0
 10
252.2773291786109
 20
321.2054588736658
 30
0.0
 10
251.545074133221
 20
321.3669477245369
 30
0.0
 10
251.4474487399077
 20
321.7093471520772
 30
0.0
  0
SPLINE
  5
6F
330
1F
100
AcDbEntity
  8
_U+0421_U+043B_U+043E_U+0439 1
 62
     7
370
    35
100
AcDbSpline
210
0.0
220
0.0
230
1.0
 70
    11
 71
     3
 72
    14
 73
    10
 74
     0
 42
0.0000000001
 43
0.0000000001
 12
1.0
 22
0.0
 32
0.0
 13
1.0
 23
0.0
 33
0.0
 40
0.0
 40
0.0
 40
0.0
 40
0.0
 40
1.0
 40
1.0
 40
1.0
 40
2.0
 40
2.0
 40
2.0
 40
3.0
 40
3.0
 40
3.0
 40
3.0
 10
252.7906914696067
 20
314.3956247553596
 30
0.0
 10
251.9490546425601
 20
314.6762708463267
 30
0.0
 10
251.088642045119
 20
314.7129395813978
 30
0.0
 10
250.7155382040664
 20
315.1580889817857
 30
0.0
 10
250.3430372547238
 20
315.6025493630765
 30
0.0
 10
250.4585340808668
 20
316.4560287058536
 30
0.0
 10
250.3052273317732
 20
317.5058569594431
 30
0.0
 10
251.2717058064664
 20
316.296370061959
 30
0.0
 10
251.8967753185715
 20
315.5141611320331
 30
0.0
 10
252.7906914696067
 20
314.3956247553596
 30
0.0
  0
SPLINE
  5
70
330
1F
100
AcDbEntity
  8
_U+0421_U+043B_U+043E_U+0439 1
 62
     7
370
    35
100
AcDbSpline
210
0.0
220
0.0
230
1.0
 70
    11
 71
     3
 72
    17
 73
    13
 74
     0
 42
0.0000000001
 43
0.0000000001
 12
1.0
 22
0.0
 32
0.0
 13
1.0
 23
0.0
 33
0.0
 40
0.0
 40
0.0
 40
0.0
 40
0.0
 40
1.0
 40
1.0
 40
1.0
 40
2.0
 40
2.0
 40
2.0
 40
3.0
 40
3.0
 40
3.0
 40
4.0
 40
4.0
 40
4.0
 40
4.0
 10
250.2248704795797
 20
312.4868480699101
 30
0.0
 10
249.5584167579581
 20
312.6184507174466
 30
0.0
 10
248.7147128736204
 20
312.5375340372368
 30
0.0
 10
248.4063768276906
 20
312.9053625758276
 30
0.0
 10
247.9715196500649
 20
313.4241939559062
 30
0.0
 10
247.9329345806301
 20
314.2751756044565
 30
0.0
 10
247.7249369407082
 20
314.9841547234741
 30
0.0
 10
247.8618364225533
 20
314.9610295200294
 30
0.0
 10
247.9987359043984
 20
314.9378827847379
 30
0.0
 10
248.1356784499371
 20
314.9147575812931
 30
0.0
 10
248.7579488219603
 20
314.1916105070924
 30
0.0
 10
249.3802191939836
 20
313.4684634328917
 30
0.0
 10
250.2248704795797
 20
312.4868480699101
 30
0.0
  0
SPLINE
  5
71
330
1F
100
AcDbEntity
  8
_U+0421_U+043B_U+043E_U+0439 1
 62
     7
370
    35
100
AcDbSpline
210
0.0
220
0.0
230
1.0
 70
    11
 71
     3
 72
    14
 73
    10
 74
     0
 42
0.0000000001
 43
0.0000000001
 12
1.0
 22
0.0
 32
0.0
 13
1.0
 23
0.0
 33
0.0
 40
0.0
 40
0.0
 40
0.0
 40
0.0
 40
1.0
 40
1.0
 40
1.0
 40
2.0
 40
2.0
 40
2.0
 40
3.0
 40
3.0
 40
3.0
 40
3.0
 10
254.7200310687337
 20
321.7602699697185
 30
0.0
 10
255.6329813723249
 20
320.683268525489
 30
0.0
 10
256.2014221273911
 20
320.0127668166723
 30
0.0
 10
257.0913764186183
 20
318.9628739675424
 30
0.0
 10
256.2147718723965
 20
319.2380940331203
 30
0.0
 10
255.4517693498008
 20
319.2550611283851
 30
0.0
 10
255.1276289283323
 20
319.6407826316524
 30
0.0
 10
254.7904832714071
 20
320.0420285964501
 30
0.0
 10
254.8773858050225
 20
320.7995189662694
 30
0.0
 10
254.7200310687337
 20
321.7602699697185
 30
0.0
  0
SPLINE
  5
72
330
1F
100
AcDbEntity
  8
_U+0421_U+043B_U+043E_U+0439 1
 62
     7
370
    35
100
AcDbSpline
210
0.0
220
0.0
230
1.0
 70
    11
 71
     3
 72
    17
 73
    13
 74
     0
 42
0.0000000001
 43
0.0000000001
 12
1.0
 22
0.0
 32
0.0
 13
1.0
 23
0.0
 33
0.0
 40
0.0
 40
0.0
 40
0.0
 40
0.0
 40
1.0
 40
1.0
 40
1.0
 40
2.0
 40
2.0
 40
2.0
 40
3.0
 40
3.0
 40
3.0
 40
4.0
 40
4.0
 40
4.0
 40
4.0
 10
256.0225355443195
 20
325.21432270323
 30
0.0
 10
255.804288745329
 20
325.9619730190695
 30
0.0
 10
255.8800377823109
 20
326.7954923398789
 30
0.0
 10
255.8396440377463
 20
327.5950774701586
 30
0.0
 10
255.991658876033
 20
327.5662893910101
 30
0.0
 10
256.1437167780132
 20
327.5375013118614
 30
0.0
 10
256.2957316162999
 20
327.5087132327128
 30
0.0
 10
256.6018283501643
 20
326.6542218931369
 30
0.0
 10
256.9079250840288
 20
325.7997520854078
 30
0.0
 10
257.2857659313735
 20
324.7452298892196
 30
0.0
 10
256.8860056640038
 20
324.8813326927338
 30
0.0
 10
256.1011698487704
 20
324.9447655133559
 30
0.0
 10
256.0225355443195
 20
325.21432270323
 30
0.0
  0
SPLINE
  5
73
330
1F
100
AcDbEntity
  8
_U+0421_U+043B_U+043E_U+0439 1
 62
     7
370
    35
100
AcDbSpline
210
0.0
220
0.0
230
1.0
 70
    11
 71
     3
 72
    17
 73
    13
 74
     0
 42
0.0000000001
 43
0.0000000001
 12
1.0
 22
0.0
 32
0.0
 13
1.0
 23
0.0
 33
0.0
 40
0.0
 40
0.0
 40
0.0
 40
0.0
 40
1.0
 40
1.0
 40
1.0
 40
2.0
 40
2.0
 40
2.0
 40
3.0
 40
3.0
 40
3.0
 40
4.0
 40
4.0
 40
4.0
 40
4.0
 10
252.2272461029941
 20
260.789056199154
 30
0.0
 10
251.3235114298259
 20
260.789056199154
 30
0.0
 10
250.5909118748875
 20
261.5216772859392
 30
0.0
 10
250.5909118748875
 20
262.4254119591073
 30
0.0
 10
250.5909118748875
 20
263.3291681641223
 30
0.0
 10
251.3235114298259
 20
264.0618107827542
 30
0.0
 10
252.2272461029941
 20
264.0618107827542
 30
0.0
 10
253.1309807761622
 20
264.0618107827542
 30
0.0
 10
253.8636233947942
 20
263.3291681641223
 30
0.0
 10
253.8636233947942
 20
262.4254119591073
 30
0.0
 10
253.8636233947942
 20
261.5216772859392
 30
0.0
 10
253.1309807761622
 20
260.789056199154
 30
0.0
 10
252.2272461029941
 20
260.789056199154
 30
0.0
  0
SPLINE
  5
74
330
1F
100
AcDbEntity
  8
_U+0421_U+043B_U+043E_U+0439 1
 62
     7
370
    35
100
AcDbSpline
210
0.0
220
0.0
230
1.0
 70
    11
 71
     3
 72
    20
 73
    16
 74
     0
 42
0.0000000001
 43
0.0000000001
 12
1.0
 22
0.0
 32
0.0
 13
1.0
 23
0.0
 33
0.0
 40
0.0
 40
0.0
 40
0.0
 40
0.0
 40
1.0
 40
1.0
 40
1.0
 40
2.0
 40
2.0
 40
2.0
 40
3.0
 40
3.0
 40
3.0
 40
4.0
 40
4.0
 40
4.0
 40
5.0
 40
5.0
 40
5.0
 40
5.0
 10
255.0365922801346
 20
268.5279033787514
 30
0.0
 10
251.8419121729688
 20
269.7582761676148
 30
0.0
 10
248.9601759269445
 20
271.0169202713041
 30
0.0
 10
246.4125278156022
 20
272.2234788376257
 30
0.0
 10
246.6570434676678
 20
272.4341033628551
 30
0.0
 10
246.9871697425419
 20
272.5679883861507
 30
0.0
 10
247.3690585770819
 20
272.5738881121691
 30
0.0
 10
248.1576409336556
 20
272.5860320737547
 30
0.0
 10
248.9454481437451
 20
272.6447494199314
 30
0.0
 10
250.0099826486872
 20
272.6960598108148
 30
0.0
 10
250.6338033136789
 20
270.0698850542557
 30
0.0
 10
253.2100457175487
 20
269.9509000689338
 30
0.0
 10
255.8298685793069
 20
269.5490942761198
 30
0.0
 10
255.5223076798613
 20
269.1540494831955
 30
0.0
 10
255.26685384963
 20
268.8243969089507
 30
0.0
 10
255.0365922801346
 20
268.5279033787514
 30
0.0
  0
SPLINE
  5
75
330
1F
100
AcDbEntity
  8
_U+0421_U+043B_U+043E_U+0439 1
 62
     7
370
    35
100
AcDbSpline
210
0.0
220
0.0
230
1.0
 70
    11
 71
     3
 72
    26
 73
    22
 74
     0
 42
0.0000000001
 43
0.0000000001
 12
1.0
 22
0.0
 32
0.0
 13
1.0
 23
0.0
 33
0.0
 40
0.0
 40
0.0
 40
0.0
 40
0.0
 40
1.0
 40
1.0
 40
1.0
 40
2.0
 40
2.0
 40
2.0
 40
3.0
 40
3.0
 40
3.0
 40
4.0
 40
4.0
 40
4.0
 40
5.0
 40
5.0
 40
5.0
 40
6.0
 40
6.0
 40
6.0
 40
7.0
 40
7.0
 40
7.0
 40
7.0
 10
255.1393422529822
 20
277.6230415871981
 30
0.0
 10
255.4112894778491
 20
277.480694548117
 30
0.0
 10
255.3241285620722
 20
276.6521490839144
 30
0.0
 10
255.4015570831033
 20
276.138054710128
 30
0.0
 10
255.2129381052858
 20
276.0856461950586
 30
0.0
 10
255.0242760637748
 20
276.033259211836
 30
0.0
 10
254.8356570859574
 20
275.9808506967667
 30
0.0
 10
254.7321750303192
 20
276.779380766554
 30
0.0
 10
254.9401726702412
 20
277.9108147194504
 30
0.0
 10
253.531128616774
 20
277.2184797179959
 30
0.0
 10
253.531128616774
 20
277.2184797179959
 30
0.0
 10
253.531128616774
 20
280.6477923595539
 30
0.0
 10
253.531128616774
 20
280.6477923595539
 30
0.0
 10
253.6511901944349
 20
280.7021602726805
 30
0.0
 10
253.771337899483
 20
280.7565281858071
 30
0.0
 10
253.891399477144
 20
280.8108960989337
 30
0.0
 10
254.0741617926365
 20
280.3904437268057
 30
0.0
 10
254.5197848936536
 20
279.850015904404
 30
0.0
 10
254.3924886154736
 20
279.5711784885665
 30
0.0
 10
253.9366163553879
 20
278.5730266672558
 30
0.0
 10
254.2223008985022
 20
278.1029218564466
 30
0.0
 10
255.1393422529822
 20
277.6230415871981
 30
0.0
  0
SPLINE
  5
76
330
1F
100
AcDbEntity
  8
_U+0421_U+043B_U+043E_U+0439 1
 62
     7
370
    35
100
AcDbSpline
210
0.0
220
0.0
230
1.0
 70
    11
 71
     3
 72
   242
 73
   238
 74
     0
 42
0.0000000001
 43
0.0000000001
 12
1.0
 22
0.0
 32
0.0
 13
1.0
 23
0.0
 33
0.0
 40
0.0
 40
0.0
 40
0.0
 40
0.0
 40
1.0
 40
1.0
 40
1.0
 40
2.0
 40
2.0
 40
2.0
 40
3.0
 40
3.0
 40
3.0
 40
4.0
 40
4.0
 40
4.0
 40
5.0
 40
5.0
 40
5.0
 40
6.0
 40
6.0
 40
6.0
 40
7.0
 40
7.0
 40
7.0
 40
8.0
 40
8.0
 40
8.0
 40
9.0
 40
9.0
 40
9.0
 40
10.0
 40
10.0
 40
10.0
 40
11.0
 40
11.0
 40
11.0
 40
12.0
 40
12.0
 40
12.0
 40
13.0
 40
13.0
 40
13.0
 40
14.0
 40
14.0
 40
14.0
 40
15.0
 40
15.0
 40
15.0
 40
16.0
 40
16.0
 40
16.0
 40
17.0
 40
17.0
 40
17.0
 40
18.0
 40
18.0
 40
18.0
 40
19.0
 40
19.0
 40
19.0
 40
20.0
 40
20.0
 40
20.0
 40
21.0
 40
21.0
 40
21.0
 40
22.0
 40
22.0
 40
22.0
 40
23.0
 40
23.0
 40
23.0
 40
24.0
 40
24.0
 40
24.0
 40
25.0
 40
25.0
 40
25.0
 40
26.0
 40
26.0
 40
26.0
 40
27.0
 40
27.0
 40
27.0
 40
28.0
 40
28.0
 40
28.0
 40
29.0
 40
29.0
 40
29.0
 40
30.0
 40
30.0
 40
30.0
 40
31.0
 40
31.0
 40
31.0
 40
32.0
 40
32.0
 40
32.0
 40
33.0
 40
33.0
 40
33.0
 40
34.0
 40
34.0
 40
34.0
 40
35.0
 40
35.0
 40
35.0
 40
36.0
 40
36.0
 40
36.0
 40
37.0
 40
37.0
 40
37.0
 40
38.0
 40
38.0
 40
38.0
 40
39.0
 40
39.0
 40
39.0
 40
40.0
 40
40.0
 40
40.0
 40
41.0
 40
41.0
 40
41.0
 40
42.0
 40
42.0
 40
42.0
 40
43.0
 40
43.0
 40
43.0
 40
44.0
 40
44.0
 40
44.0
 40
45.0
 40
45.0
 40
45.0
 40
46.0
 40
46.0
 40
46.0
 40
47.0
 40
47.0
 40
47.0
 40
48.0
 40
48.0
 40
48.0
 40
49.0
 40
49.0
 40
49.0
 40
50.0
 40
50.0
 40
50.0
 40
51.0
 40
51.0
 40
51.0
 40
52.0
 40
52.0
 40
52.0
 40
53.0
 40
53.0
 40
53.0
 40
54.0
 40
54.0
 40
54.0
 40
55.0
 40
55.0
 40
55.0
 40
56.0
 40
56.0
 40
56.0
 40
57.0
 40
57.0
 40
57.0
 40
58.0
 40
58.0
 40
58.0
 40
59.0
 40
59.0
 40
59.0
 40
60.0
 40
60.0
 40
60.0
 40
61.0
 40
61.0
 40
61.0
 40
62.0
 40
62.0
 40
62.0
 40
63.0
 40
63.0
 40
63.0
 40
64.0
 40
64.0
 40
64.0
 40
65.0
 40
65.0
 40
65.0
 40
66.0
 40
66.0
 40
66.0
 40
67.0
 40
67.0
 40
67.0
 40
68.0
 40
68.0
 40
68.0
 40
69.0
 40
69.0
 40
69.0
 40
70.0
 40
70.0
 40
70.0
 40
71.0
 40
71.0
 40
71.0
 40
72.0
 40
72.0
 40
72.0
 40
73.0
 40
73.0
 40
73.0
 40
74.0
 40
74.0
 40
74.0
 40
75.0
 40
75.0
 40
75.0
 40
76.0
 40
76.0
 40
76.0
 40
77.0
 40
77.0
 40
77.0
 40
78.0
 40
78.0
 40
78.0
 40
79.0
 40
79.0
 40
79.0
 40
79.0
 10
300.7040028861226
 20
266.1554383728341
 30
0.0
 10
300.7241136310177
 20
265.428760075761
 30
0.0
 10
300.7913791203673
 20
264.8307991587556
 30
0.0
 10
300.848309323261
 20
264.4236319360926
 30
0.0
 10
300.5373894557172
 20
264.114671466606
 30
0.0
 10
300.0087395535053
 20
263.6814507093358
 30
0.0
 10
299.2743313234371
 20
263.5289837022668
 30
0.0
 10
297.917135957023
 20
263.2471964234201
 30
0.0
 10
297.2546440952094
 20
264.2817370657938
 30
0.0
 10
295.3583774127408
 20
264.3890733220061
 30
0.0
 10
294.750834823917
 20
264.4234596813183
 30
0.0
 10
294.8825666625342
 20
264.2655881807067
 30
0.0
 10
292.3940450024576
 20
263.6710938910333
 30
0.0
 10
291.0492950434838
 20
263.3498387370337
 30
0.0
 10
290.3769415958438
 20
263.189211160034
 30
0.0
 10
289.8801588268707
 20
263.124766342613
 30
0.0
 10
287.2002190488949
 20
262.7771131444578
 30
0.0
 10
286.0743618443153
 20
264.4980890622675
 30
0.0
 10
283.4423088935844
 20
264.8689966549483
 30
0.0
 10
282.2906134728653
 20
265.0312821841503
 30
0.0
 10
280.5657402907879
 20
264.9752347869746
 30
0.0
 10
278.2952070475404
 20
263.8045482773932
 30
0.0
 10
278.4188429117673
 20
264.5060127818836
 30
0.0
 10
278.6602149142026
 20
265.3727772741257
 30
0.0
 10
279.1436479381703
 20
266.2793972147628
 30
0.0
 10
280.5417107497783
 20
268.9012871338121
 30
0.0
 10
282.9734313980419
 20
269.9986146414046
 30
0.0
 10
283.8741516126605
 20
270.3519953108041
 30
0.0
 10
281.9114807147136
 20
270.3578950368225
 30
0.0
 10
280.1024610754089
 20
269.3001430636169
 30
0.0
 10
278.6949673149101
 20
267.3753036204675
 30
0.0
 10
278.0122785808143
 20
266.4416181484244
 30
0.0
 10
278.0197285998011
 20
266.085352211556
 30
0.0
 10
277.3297621014927
 20
265.3899381560116
 30
0.0
 10
277.3297190377992
 20
265.3899166241648
 30
0.0
 10
276.6071533234615
 20
264.6616449704298
 30
0.0
 10
275.52789103532
 20
264.1650559880778
 30
0.0
 10
273.9051649343801
 20
263.4183530734967
 30
0.0
 10
271.5842902333545
 20
263.6170704874552
 30
0.0
 10
263.7123331769457
 20
265.5430080547906
 30
0.0
 10
263.0969529958929
 20
265.693558727496
 30
0.0
 10
261.8726091241287
 20
265.9981697639324
 30
0.0
 10
260.2949276466586
 20
266.5402770703833
 30
0.0
 10
259.2422356574469
 20
266.9020120963345
 30
0.0
 10
258.3955603782532
 20
267.2477489601261
 30
0.0
 10
257.8388760115304
 20
267.486192631399
 30
0.0
 10
257.8388760115304
 20
267.486192631399
 30
0.0
 10
256.9512471597558
 20
267.8078353586406
 30
0.0
 10
256.9512471597558
 20
267.8078353586406
 30
0.0
 10
256.9855689235276
 20
268.5058978313394
 30
0.0
 10
257.1589864175163
 20
269.6353939180253
 30
0.0
 10
257.9858093339763
 20
270.4849759965347
 30
0.0
 10
258.188079502654
 20
270.6928013816824
 30
0.0
 10
258.5329766244211
 20
270.8952653369812
 30
0.0
 10
259.2145026387906
 20
271.2917312317931
 30
0.0
 10
260.7687574669611
 20
272.1958750100501
 30
0.0
 10
260.6633375451125
 20
271.9643430615945
 30
0.0
 10
262.8813761459035
 20
273.0417966746064
 30
0.0
 10
263.1636155935325
 20
273.1789114749193
 30
0.0
 10
263.4975314734403
 20
273.3989023534994
 30
0.0
 10
263.9531453513646
 20
273.343910016816
 30
0.0
 10
264.4251234328439
 20
273.2869367502287
 30
0.0
 10
264.8726413363779
 20
273.0267459137053
 30
0.0
 10
265.3305806537547
 20
272.8535868018779
 30
0.0
 10
265.1092763325209
 20
272.4834543556813
 30
0.0
 10
267.7283671114886
 20
272.5472747495456
 30
0.0
 10
268.5829230466048
 20
273.3847559301631
 30
0.0
 10
270.0837788947539
 20
274.8557255749776
 30
0.0
 10
271.8054653635075
 20
276.1165874588855
 30
0.0
 10
273.516256717789
 20
277.3524939323721
 30
0.0
 10
274.5021138545868
 20
278.0647458921007
 30
0.0
 10
275.6303826260061
 20
278.5917593739568
 30
0.0
 10
276.7306599966078
 20
279.1279023588488
 30
0.0
 10
277.1658616837819
 20
279.3399479859659
 30
0.0
 10
282.8172393814793
 20
281.5312440330526
 30
0.0
 10
279.1293938556001
 20
281.2429756683244
 30
0.0
 10
279.6875854515977
 20
281.8749353713999
 30
0.0
 10
279.9785237653271
 20
282.204264967943
 30
0.0
 10
280.34861314783
 20
282.6232747063365
 30
0.0
 10
277.839205596374
 20
284.3638230728719
 30
0.0
 10
278.3829708550272
 20
286.1436670597858
 30
0.0
 10
280.6906250021282
 20
288.0221269049651
 30
0.0
 10
277.0584177683357
 20
289.3218537723159
 30
0.0
 10
277.0578579403194
 20
291.9927717064898
 30
0.0
 10
277.6766401531638
 20
295.0684668283337
 30
0.0
 10
277.3029764840949
 20
294.6440956600913
 30
0.0
 10
276.9349110951895
 20
294.2146429760081
 30
0.0
 10
276.5547878720858
 20
293.7961500019373
 30
0.0
 10
272.1308546320893
 20
288.9252156227298
 30
0.0
 10
267.2960076280897
 20
284.5303288440433
 30
0.0
 10
261.6370076566312
 20
281.1202226098156
 30
0.0
 10
257.2246585502039
 20
278.4613409779933
 30
0.0
 10
254.7249403298002
 20
279.3930670519791
 30
0.0
 10
252.9100640281706
 20
284.2870405072443
 30
0.0
 10
250.3731818402197
 20
291.1279020167646
 30
0.0
 10
253.1438998842319
 20
297.1982463891619
 30
0.0
 10
259.97199300861
 20
299.7380353764285
 30
0.0
 10
260.349704664874
 20
299.8785306766863
 30
0.0
 10
260.7589820085217
 20
299.934082841386
 30
0.0
 10
261.604106994747
 20
300.1377310482578
 30
0.0
 10
258.8264987597644
 20
296.311435747565
 30
0.0
 10
256.4635077664315
 20
292.720634255136
 30
0.0
 10
255.1795206790789
 20
288.3950584912434
 30
0.0
 10
259.5869174607461
 20
289.8926199668347
 30
0.0
 10
263.8084513409842
 20
291.3270500676588
 30
0.0
 10
267.7955464734509
 20
292.6817908035397
 30
0.0
 10
268.7798963809739
 20
295.9265539863223
 30
0.0
 10
269.6861287483689
 20
299.2198714836001
 30
0.0
 10
270.8173689146442
 20
302.4339948484107
 30
0.0
 10
271.110847986294
 20
303.2677510195347
 30
0.0
 10
271.9989936023914
 20
304.0322392395585
 30
0.0
 10
272.8008826402769
 20
304.5232945372873
 30
0.0
 10
276.7696757029782
 20
306.9537663384374
 30
0.0
 10
280.8011695035112
 20
309.2818757399822
 30
0.0
 10
284.8849426280328
 20
311.6899328886315
 30
0.0
 10
289.9598266599672
 20
307.7285252493766
 30
0.0
 10
291.7182033956387
 20
296.3396855305441
 30
0.0
 10
285.5150505922849
 20
286.3946853295798
 30
0.0
 10
286.0721655959434
 20
286.6868940222694
 30
0.0
 10
286.676952108379
 20
286.9142057287555
 30
0.0
 10
287.1783426925635
 20
287.2823141813545
 30
0.0
 10
289.1956183539516
 20
288.7633822623101
 30
0.0
 10
290.2817708330638
 20
289.3942653730466
 30
0.0
 10
294.5091613756267
 20
292.7580135411509
 30
0.0
 10
294.8040615491641
 20
292.6079365690747
 30
0.0
 10
295.0990478500886
 20
292.4579241925389
 30
0.0
 10
295.393948023626
 20
292.3078687523094
 30
0.0
 10
295.205285982115
 20
291.9810368499931
 30
0.0
 10
294.6822774237605
 20
290.937022195035
 30
0.0
 10
294.7911424410944
 20
290.4877602119116
 30
0.0
 10
294.8556949177492
 20
290.2215619901357
 30
0.0
 10
295.0102505139563
 20
289.9616295357736
 30
0.0
 10
295.2831882037752
 20
289.7163602690706
 30
0.0
 10
295.5680976004054
 20
289.4602604834358
 30
0.0
 10
295.8457722965165
 20
289.3436009375666
 30
0.0
 10
296.1126380055427
 20
289.3291746002221
 30
0.0
 10
296.6559295635666
 20
289.2998482249039
 30
0.0
 10
296.775646631679
 20
289.7739794910614
 30
0.0
 10
297.614656573418
 20
290.245526935605
 30
0.0
 10
298.1095445398742
 20
290.5236322686518
 30
0.0
 10
298.544186399032
 20
290.6277172159999
 30
0.0
 10
299.4051588244895
 20
290.8338415852517
 30
0.0
 10
299.9372968858799
 20
290.9612455226656
 30
0.0
 10
300.2033874484219
 20
291.0249797891428
 30
0.0
 10
300.5596964489842
 20
291.0503227728061
 30
0.0
 10
301.8342956511395
 20
291.1410149114553
 30
0.0
 10
302.0969841818898
 20
290.629289040815
 30
0.0
 10
303.0131211988049
 20
290.8338415852517
 30
0.0
 10
303.7008483850478
 20
290.9874067165068
 30
0.0
 10
303.9165974898116
 20
291.3570439302273
 30
0.0
 10
304.2398335737152
 20
291.1946507417913
 30
0.0
 10
304.4853827544264
 20
291.0712732597258
 30
0.0
 10
304.5403750911097
 20
290.7676957519349
 30
0.0
 10
304.8170593222688
 20
289.967938366881
 30
0.0
 10
303.7860714346142
 20
289.8278737035588
 30
0.0
 10
303.2705559589401
 20
289.7578521378211
 30
0.0
 10
303.1574276359432
 20
289.7514571793266
 30
0.0
 10
301.8258551672006
 20
289.6761818429739
 30
0.0
 10
301.6176422088108
 20
290.0376584867637
 30
0.0
 10
301.064833574509
 20
289.7514571793266
 30
0.0
 10
300.5100870739966
 20
289.4643300024778
 30
0.0
 10
300.6316128172388
 20
289.0548373403623
 30
0.0
 10
300.0545593234591
 20
288.8134007423866
 30
0.0
 10
299.5312493192496
 20
288.5944218606055
 30
0.0
 10
299.2561584447524
 20
288.857971665227
 30
0.0
 10
298.539234074272
 20
288.7412259919706
 30
0.0
 10
297.9337154790458
 20
288.6426531973989
 30
0.0
 10
297.5504916700053
 20
288.3602845586892
 30
0.0
 10
297.2403469489456
 20
288.1639571797235
 30
0.0
 10
295.2600630003305
 20
286.9104161237217
 30
0.0
 10
293.8292717816126
 20
287.6273835578958
 30
0.0
 10
292.9108093252451
 20
286.4321507429819
 30
0.0
 10
292.5769795727243
 20
285.9976380749048
 30
0.0
 10
292.5247433124292
 20
285.0843863254586
 30
0.0
 10
292.4203138555326
 20
283.2579043584131
 30
0.0
 10
292.4065334735916
 20
283.0171352476877
 30
0.0
 10
292.3873270662613
 20
282.5690575161374
 30
0.0
 10
292.6419196226213
 20
282.3990205220935
 30
0.0
 10
292.9465952545981
 20
282.1955876336895
 30
0.0
 10
293.6082258425403
 20
282.4135975823655
 30
0.0
 10
293.6082258425403
 20
282.4136191142123
 30
0.0
 10
293.6082258425403
 20
282.4136191142123
 30
0.0
 10
293.9043748631911
 20
282.171644220067
 30
0.0
 10
294.4544704847984
 20
281.7221669184758
 30
0.0
 10
294.3177863214211
 20
281.4245106685502
 30
0.0
 10
294.1105638279833
 20
280.9867897553025
 30
0.0
 10
293.840339150859
 20
280.4664511459491
 30
0.0
 10
293.1294867611713
 20
279.0975209230382
 30
0.0
 10
292.8879425039617
 20
278.9000308243463
 30
0.0
 10
292.5776685918214
 20
278.2586617042267
 30
0.0
 10
291.7935648593785
 20
276.6379811287313
 30
0.0
 10
291.9286987297874
 20
274.9907302543058
 30
0.0
 10
291.9727959519986
 20
274.4537259955425
 30
0.0
 10
292.0907474086749
 20
273.015570885225
 30
0.0
 10
292.5037712936628
 20
272.9989052358151
 30
0.0
 10
292.4057152634139
 20
271.8560163404302
 30
0.0
 10
292.3061950675837
 20
270.6957727765384
 30
0.0
 10
291.7609656433493
 20
269.3198231715764
 30
0.0
 10
291.7609656433493
 20
269.3198016397296
 30
0.0
 10
291.9897630472635
 20
268.9096845540574
 30
0.0
 10
292.2254075784546
 20
268.7953719794875
 30
0.0
 10
292.3785420727739
 20
268.757841970545
 30
0.0
 10
293.4578043609156
 20
268.4932371054311
 30
0.0
 10
295.3239264578883
 20
270.8451822613644
 30
0.0
 10
296.2301588252832
 20
273.0105539649246
 30
0.0
 10
296.5366861960833
 20
273.743045860629
 30
0.0
 10
296.785465153812
 20
274.5785245794957
 30
0.0
 10
297.601177637332
 20
275.4639571828985
 30
0.0
 10
298.0533464197711
 20
275.9547756303127
 30
0.0
 10
298.5108551002122
 20
276.2776456728209
 30
0.0
 10
298.8278469485488
 20
276.4741883702544
 30
0.0
 10
298.953334551599
 20
275.4352982948305
 30
0.0
 10
298.8278900122423
 20
274.6388352823344
 30
0.0
 10
298.6835835751039
 20
274.0929383708497
 30
0.0
 10
298.311513262697
 20
272.685832183593
 30
0.0
 10
297.6096611849644
 20
272.1719531282744
 30
0.0
 10
297.8176588248864
 20
271.2065727777671
 30
0.0
 10
297.9959425162481
 20
270.3789747148229
 30
0.0
 10
298.690818275623
 20
269.9255140215769
 30
0.0
 10
298.7805630130137
 20
269.8688637326914
 30
0.0
 10
299.5655710830214
 20
269.3730498968235
 30
0.0
 10
300.4507022405696
 20
269.564338823642
 30
0.0
 10
300.7040028861226
 20
269.6190727781639
 30
0.0
 10
301.9877746550073
 20
269.8965106239605
 30
0.0
 10
302.1574456076559
 20
270.797532284434
 30
0.0
 10
303.5182152606361
 20
270.9900915902127
 30
0.0
 10
303.6614020417417
 20
271.0103530580353
 30
0.0
 10
304.5721991606547
 20
271.139264224724
 30
0.0
 10
304.7449276355464
 20
270.7736319345051
 30
0.0
 10
304.8285573284508
 20
270.5965109628697
 30
0.0
 10
304.7113810182587
 20
270.3619430240177
 30
0.0
 10
304.600621198408
 20
270.1963415904111
 30
0.0
 10
304.0525065067047
 20
270.0975965410651
 30
0.0
 10
301.1910963240433
 20
269.5438405055048
 30
0.0
 10
300.7761776365386
 20
267.9594195599916
 30
0.0
 10
300.6657192625427
 20
267.5376968089034
 30
0.0
 10
300.6841505233888
 20
266.8731594216455
 30
0.0
 10
300.7040028861226
 20
266.1554383728341
 30
0.0
  0
SPLINE
  5
77
330
1F
100
AcDbEntity
  8
_U+0421_U+043B_U+043E_U+0439 1
 62
     7
370
    35
100
AcDbSpline
210
0.0
220
0.0
230
1.0
 70
    11
 71
     3
 72
    14
 73
    10
 74
     0
 42
0.0000000001
 43
0.0000000001
 12
1.0
 22
0.0
 32
0.0
 13
1.0
 23
0.0
 33
0.0
 40
0.0
 40
0.0
 40
0.0
 40
0.0
 40
1.0
 40
1.0
 40
1.0
 40
2.0
 40
2.0
 40
2.0
 40
3.0
 40
3.0
 40
3.0
 40
3.0
 10
260.4034050907504
 20
276.2488145299787
 30
0.0
 10
260.1455396936794
 20
276.7487840122756
 30
0.0
 10
259.9594184100888
 20
277.1095716369684
 30
0.0
 10
259.6976772805969
 20
277.6170126700989
 30
0.0
 10
266.0861331573635
 20
280.1108526963309
 30
0.0
 10
271.9610114246665
 20
283.313930223742
 30
0.0
 10
277.0894666913965
 20
287.7776973802866
 30
0.0
 10
272.7817192966402
 20
282.174228041681
 30
0.0
 10
266.7018147842712
 20
279.1517165813906
 30
0.0
 10
260.4034050907504
 20
276.2488145299787
 30
0.0
  0
SPLINE
  5
78
330
1F
100
AcDbEntity
  8
_U+0421_U+043B_U+043E_U+0439 1
 62
     7
370
    35
100
AcDbSpline
210
0.0
220
0.0
230
1.0
 70
    11
 71
     3
 72
    14
 73
    10
 74
     0
 42
0.0000000001
 43
0.0000000001
 12
1.0
 22
0.0
 32
0.0
 13
1.0
 23
0.0
 33
0.0
 40
0.0
 40
0.0
 40
0.0
 40
0.0
 40
1.0
 40
1.0
 40
1.0
 40
2.0
 40
2.0
 40
2.0
 40
3.0
 40
3.0
 40
3.0
 40
3.0
 10
275.1596964553339
 20
282.8241883686669
 30
0.0
 10
275.2912991028704
 20
282.6579625115036
 30
0.0
 10
272.8381327352111
 20
280.4453068724083
 30
0.0
 10
267.7994652695654
 20
276.1855539641308
 30
0.0
 10
267.6070136230206
 20
276.57039266168
 30
0.0
 10
267.4146050401694
 20
276.955252891076
 30
0.0
 10
267.2221964573182
 20
277.3400915886252
 30
0.0
 10
272.3837246407066
 20
281.159927335283
 30
0.0
 10
275.0298594192335
 20
282.9881749137648
 30
0.0
 10
275.1596964553339
 20
282.8241883686669
 30
0.0
  0
SPLINE
  5
79
330
1F
100
AcDbEntity
  8
_U+0421_U+043B_U+043E_U+0439 1
 62
     7
370
    35
100
AcDbSpline
210
0.0
220
0.0
230
1.0
 70
    11
 71
     3
 72
    17
 73
    13
 74
     0
 42
0.0000000001
 43
0.0000000001
 12
1.0
 22
0.0
 32
0.0
 13
1.0
 23
0.0
 33
0.0
 40
0.0
 40
0.0
 40
0.0
 40
0.0
 40
1.0
 40
1.0
 40
1.0
 40
2.0
 40
2.0
 40
2.0
 40
3.0
 40
3.0
 40
3.0
 40
4.0
 40
4.0
 40
4.0
 40
4.0
 10
301.3534464487857
 20
294.2253227720124
 30
0.0
 10
303.6887905508495
 20
293.8354886860096
 30
0.0
 10
304.2473266563956
 20
293.5029723761426
 30
0.0
 10
304.2484463124283
 20
293.2546240553497
 30
0.0
 10
304.2499966053967
 20
292.9098561246633
 30
0.0
 10
303.1777106356126
 20
292.580440400733
 30
0.0
 10
302.3367628276632
 20
292.5703204327451
 30
0.0
 10
301.8914842361946
 20
292.5649374710494
 30
0.0
 10
301.4104627790666
 20
292.5591454042649
 30
0.0
 10
301.1742584198592
 20
292.8939871535844
 30
0.0
 10
300.946752926752
 20
293.2165342183908
 30
0.0
 10
301.0220282631047
 20
293.7477679422164
 30
0.0
 10
301.3534464487857
 20
294.2253227720124
 30
0.0
  0
SPLINE
  5
7A
330
1F
100
AcDbEntity
  8
_U+0421_U+043B_U+043E_U+0439 1
 62
     7
370
    35
100
AcDbSpline
210
0.0
220
0.0
230
1.0
 70
    11
 71
     3
 72
   188
 73
   184
 74
     0
 42
0.0000000001
 43
0.0000000001
 12
1.0
 22
0.0
 32
0.0
 13
1.0
 23
0.0
 33
0.0
 40
0.0
 40
0.0
 40
0.0
 40
0.0
 40
1.0
 40
1.0
 40
1.0
 40
2.0
 40
2.0
 40
2.0
 40
3.0
 40
3.0
 40
3.0
 40
4.0
 40
4.0
 40
4.0
 40
5.0
 40
5.0
 40
5.0
 40
6.0
 40
6.0
 40
6.0
 40
7.0
 40
7.0
 40
7.0
 40
8.0
 40
8.0
 40
8.0
 40
9.0
 40
9.0
 40
9.0
 40
10.0
 40
10.0
 40
10.0
 40
11.0
 40
11.0
 40
11.0
 40
12.0
 40
12.0
 40
12.0
 40
13.0
 40
13.0
 40
13.0
 40
14.0
 40
14.0
 40
14.0
 40
15.0
 40
15.0
 40
15.0
 40
16.0
 40
16.0
 40
16.0
 40
17.0
 40
17.0
 40
17.0
 40
18.0
 40
18.0
 40
18.0
 40
19.0
 40
19.0
 40
19.0
 40
20.0
 40
20.0
 40
20.0
 40
21.0
 40
21.0
 40
21.0
 40
22.0
 40
22.0
 40
22.0
 40
23.0
 40
23.0
 40
23.0
 40
24.0
 40
24.0
 40
24.0
 40
25.0
 40
25.0
 40
25.0
 40
26.0
 40
26.0
 40
26.0
 40
27.0
 40
27.0
 40
27.0
 40
28.0
 40
28.0
 40
28.0
 40
29.0
 40
29.0
 40
29.0
 40
30.0
 40
30.0
 40
30.0
 40
31.0
 40
31.0
 40
31.0
 40
32.0
 40
32.0
 40
32.0
 40
33.0
 40
33.0
 40
33.0
 40
34.0
 40
34.0
 40
34.0
 40
35.0
 40
35.0
 40
35.0
 40
36.0
 40
36.0
 40
36.0
 40
37.0
 40
37.0
 40
37.0
 40
38.0
 40
38.0
 40
38.0
 40
39.0
 40
39.0
 40
39.0
 40
40.0
 40
40.0
 40
40.0
 40
41.0
 40
41.0
 40
41.0
 40
42.0
 40
42.0
 40
42.0
 40
43.0
 40
43.0
 40
43.0
 40
44.0
 40
44.0
 40
44.0
 40
45.0
 40
45.0
 40
45.0
 40
46.0
 40
46.0
 40
46.0
 40
47.0
 40
47.0
 40
47.0
 40
48.0
 40
48.0
 40
48.0
 40
49.0
 40
49.0
 40
49.0
 40
50.0
 40
50.0
 40
50.0
 40
51.0
 40
51.0
 40
51.0
 40
52.0
 40
52.0
 40
52.0
 40
53.0
 40
53.0
 40
53.0
 40
54.0
 40
54.0
 40
54.0
 40
55.0
 40
55.0
 40
55.0
 40
56.0
 40
56.0
 40
56.0
 40
57.0
 40
57.0
 40
57.0
 40
58.0
 40
58.0
 40
58.0
 40
59.0
 40
59.0
 40
59.0
 40
60.0
 40
60.0
 40
60.0
 40
61.0
 40
61.0
 40
61.0
 40
61.0
 10
343.5123718125949
 20
272.4624392732213
 30
0.0
 10
342.9876837701914
 20
271.7210977884891
 30
0.0
 10
342.5509317900489
 20
271.0066495803887
 30
0.0
 10
341.9104885393409
 20
270.7621985238634
 30
0.0
 10
329.5048719517305
 20
266.0269147793875
 30
0.0
 10
316.6180616522179
 20
263.7542283514617
 30
0.0
 10
303.3693440719797
 20
263.4095896118561
 30
0.0
 10
303.2181474438708
 20
263.4056708157416
 30
0.0
 10
303.0649268221643
 20
263.4795250502066
 30
0.0
 10
302.8274305521499
 20
263.5381132053026
 30
0.0
 10
302.7508633049902
 20
263.818737764423
 30
0.0
 10
302.6748128221533
 20
264.121217148028
 30
0.0
 10
302.5857571038596
 20
264.4198423310588
 30
0.0
 10
301.7388665061981
 20
267.2603881541876
 30
0.0
 10
302.6587931281469
 20
268.2546857749243
 30
0.0
 10
305.6693759453196
 20
267.7503668595773
 30
0.0
 10
307.1977064299635
 20
267.4943747331765
 30
0.0
 10
307.9281097365301
 20
268.2574633831593
 30
0.0
 10
307.5936340286059
 20
269.7605800752206
 30
0.0
 10
307.0687737314281
 20
272.1195015495115
 30
0.0
 10
305.1439127564319
 20
273.3175119726603
 30
0.0
 10
302.7250250888508
 20
272.678791269695
 30
0.0
 10
301.6750461123338
 20
272.401504146826
 30
0.0
 10
300.684624224018
 20
271.8986493970602
 30
0.0
 10
299.318170163487
 20
271.3609130555063
 30
0.0
 10
299.6603542725594
 20
272.1851952140458
 30
0.0
 10
299.8716247531923
 20
272.6995264381468
 30
0.0
 10
300.087287730569
 20
273.2120059234246
 30
0.0
 10
300.3781399169115
 20
273.9029844185317
 30
0.0
 10
300.7657992863893
 20
274.5693089490726
 30
0.0
 10
300.9445136146866
 20
275.2878697399086
 30
0.0
 10
301.2552612274561
 20
276.5369321717795
 30
0.0
 10
301.2403611894824
 20
277.8176248865744
 30
0.0
 10
300.0231228271562
 20
278.6113533545292
 30
0.0
 10
298.8275885663874
 20
279.3909784628412
 30
0.0
 10
297.811845226255
 20
278.6309042714079
 30
0.0
 10
297.0172770162757
 20
277.8421927237536
 30
0.0
 10
296.0080362938718
 20
276.8403158929493
 30
0.0
 10
295.1645907916955
 20
275.6713949948041
 30
0.0
 10
294.2659376343681
 20
274.5940275091793
 30
0.0
 10
293.0766906728598
 20
276.4435270204357
 30
0.0
 10
294.1037597643999
 20
279.7738146986396
 30
0.0
 10
296.1488545718314
 20
280.463178305238
 30
0.0
 10
297.9907748730202
 20
281.0840706390672
 30
0.0
 10
298.6976223392063
 20
281.9128529535844
 30
0.0
 10
298.3639648414598
 20
283.0605649826486
 30
0.0
 10
297.9649366568808
 20
284.4332417468996
 30
0.0
 10
296.7048499194571
 20
284.8561272177141
 30
0.0
 10
294.8009609632273
 20
284.2676618451398
 30
0.0
 10
294.7213361938245
 20
284.2430509442671
 30
0.0
 10
294.609758163796
 20
284.321771376105
 30
0.0
 10
294.3928463393059
 20
284.390371839955
 30
0.0
 10
294.8784756116455
 20
285.6734761215895
 30
0.0
 10
295.8259629974763
 20
286.2808033919455
 30
0.0
 10
297.0819586840113
 20
286.0210431923577
 30
0.0
 10
298.7107998294374
 20
285.6841128539003
 30
0.0
 10
299.9265740261821
 20
286.0774996946222
 30
0.0
 10
300.8463714570505
 20
287.4470112773962
 30
0.0
 10
301.4338033009792
 20
288.3216779574075
 30
0.0
 10
302.2253139887154
 20
288.3086727219508
 30
0.0
 10
303.1203497957832
 20
287.9931235073486
 30
0.0
 10
304.7291663237013
 20
287.4259961949361
 30
0.0
 10
306.1143530909332
 20
287.911690062816
 30
0.0
 10
307.1963283917694
 20
289.1220597660182
 30
0.0
 10
308.7838283913726
 20
290.8980926160517
 30
0.0
 10
308.3545694939104
 20
292.5006864402495
 30
0.0
 10
306.0001051119036
 20
293.563606056683
 30
0.0
 10
306.8013481943856
 20
295.2166274660462
 30
0.0
 10
305.3988498223404
 20
295.1542066422228
 30
0.0
 10
304.3766899918667
 20
295.7084579102592
 30
0.0
 10
305.0377607517926
 20
295.8752866591324
 30
0.0
 10
305.7152818426605
 20
295.9949821953981
 30
0.0
 10
306.3563279850784
 20
296.2190641248668
 30
0.0
 10
307.5804565383748
 20
296.646923452288
 30
0.0
 10
309.0381625655712
 20
296.7857823321904
 30
0.0
 10
309.3927490183905
 20
298.4229778341683
 30
0.0
 10
308.1840803310841
 20
298.591830576639
 30
0.0
 10
306.7976447167389
 20
299.2204528434632
 30
0.0
 10
305.8030887138409
 20
298.8357648688415
 30
0.0
 10
303.5987874312973
 20
297.9831683317826
 30
0.0
 10
301.5654920759029
 20
296.6646226303435
 30
0.0
 10
299.5232394722464
 20
295.4352618382789
 30
0.0
 10
299.0659030465795
 20
295.1599341134671
 30
0.0
 10
298.8579915340447
 20
294.4703551884008
 30
0.0
 10
298.4961703807064
 20
294.0022313074957
 30
0.0
 10
297.3134691006201
 20
294.8194294884437
 30
0.0
 10
296.791709389379
 20
295.4098973227688
 30
0.0
 10
297.7673604308017
 20
296.2475507581605
 30
0.0
 10
301.1823113305559
 20
299.1794562071888
 30
0.0
 10
300.7753163626672
 20
302.8640719560506
 30
0.0
 10
299.7306342204585
 20
306.5960147041411
 30
0.0
 10
298.6833682566361
 20
310.3372807418884
 30
0.0
 10
296.1736592593252
 20
312.7523572725889
 30
0.0
 10
292.4817226825572
 20
313.9461259219216
 30
0.0
 10
292.138720363307
 20
314.0570579965466
 30
0.0
 10
291.8059672031254
 20
314.1998356725634
 30
0.0
 10
291.4684339729581
 20
314.3277779061469
 30
0.0
 10
291.4874250618205
 20
314.4477964201143
 30
0.0
 10
291.5063300232958
 20
314.5678149340817
 30
0.0
 10
291.5252780484647
 20
314.6878119162023
 30
0.0
 10
291.5252780484647
 20
314.6878119162023
 30
0.0
 10
316.4666066419476
 20
314.6878119162023
 30
0.0
 10
316.4666066419476
 20
314.6878119162023
 30
0.0
 10
316.4467542792138
 20
314.6364153979317
 30
0.0
 10
315.9885565796756
 20
313.3963963417096
 30
0.0
 10
316.6976433579271
 20
312.5136552191547
 30
0.0
 10
317.3674129839533
 20
311.6798129206435
 30
0.0
 10
318.810305100563
 20
311.4988808121276
 30
0.0
 10
319.9332339739802
 20
312.324368754087
 30
0.0
 10
319.9332339739802
 20
312.324368754087
 30
0.0
 10
319.9332339739802
 20
307.0980943074226
 30
0.0
 10
319.9332339739802
 20
307.0980943074226
 30
0.0
 10
317.8652723452654
 20
307.2276298976681
 30
0.0
 10
315.8193593276562
 20
306.4718190118978
 30
0.0
 10
313.6985154832429
 20
307.4657505912392
 30
0.0
 10
312.7192470915606
 20
307.9247234372615
 30
0.0
 10
311.5188466334189
 20
308.0855663327292
 30
0.0
 10
310.47717894976
 20
306.9895737996373
 30
0.0
 10
310.1176832358742
 20
306.6113669108972
 30
0.0
 10
309.0257602218243
 20
306.9294138197261
 30
0.0
 10
308.2828253804302
 20
307.2378575248899
 30
0.0
 10
307.5377804180513
 20
306.8690815850406
 30
0.0
 10
306.7927354556725
 20
306.5003056451915
 30
0.0
 10
305.8155341212813
 20
306.0165927072156
 30
0.0
 10
307.0128770571799
 20
302.4739794878864
 30
0.0
 10
310.6923251628139
 20
302.2082549667397
 30
0.0
 10
313.4353532518634
 20
300.5251320355741
 30
0.0
 10
313.1379984477927
 20
300.1279340579716
 30
0.0
 10
312.8814680252223
 20
299.7853408438103
 30
0.0
 10
312.3527750593171
 20
299.079203928568
 30
0.0
 10
313.7457994187779
 20
299.1782504237689
 30
0.0
 10
314.8009460385228
 20
299.3929444680404
 30
0.0
 10
315.8225891046737
 20
299.2865125493929
 30
0.0
 10
316.8380309989511
 20
299.180726586149
 30
0.0
 10
317.8197970848601
 20
298.75204904855
 30
0.0
 10
319.090176045046
 20
298.3861153124761
 30
0.0
 10
319.0303605746834
 20
297.5847215070666
 30
0.0
 10
318.9542670281529
 20
296.5652531574408
 30
0.0
 10
318.8780873542353
 20
295.54361009129
 30
0.0
 10
318.2146911548569
 20
295.3916167848502
 30
0.0
 10
317.70916645609
 20
295.2757969810054
 30
0.0
 10
317.2055796235337
 20
295.1604078140963
 30
0.0
 10
317.7447370669752
 20
292.3067921599703
 30
0.0
 10
318.6212985495035
 20
291.4048876937787
 30
0.0
 10
320.4091308515739
 20
291.8310029416105
 30
0.0
 10
320.7200507191177
 20
291.9051370900837
 30
0.0
 10
321.0107737143792
 20
292.062341103445
 30
0.0
 10
321.320703116971
 20
292.143537697663
 30
0.0
 10
321.9930996283047
 20
292.3196682043464
 30
0.0
 10
322.671869566286
 20
292.4714677241652
 30
0.0
 10
323.4023159365461
 20
292.6461986608078
 30
0.0
 10
323.4120483312919
 20
292.7394530892241
 30
0.0
 10
323.4046844396922
 20
292.8916617141318
 30
0.0
 10
323.445551884886
 20
293.0295947246225
 30
0.0
 10
324.0960720398883
 20
295.2234315296296
 30
0.0
 10
324.001719487286
 20
295.467172035211
 30
0.0
 10
321.6419582709706
 20
295.9871015394756
 30
0.0
 10
320.3853596927257
 20
296.2640226209493
 30
0.0
 10
319.9451626170979
 20
296.9306916610387
 30
0.0
 10
320.0609178254023
 20
298.3567458734643
 30
0.0
 10
320.4914686336714
 20
298.2610583463615
 30
0.0
 10
320.8683620797577
 20
298.2120949267774
 30
0.0
 10
321.218297653672
 20
298.087317874671
 30
0.0
 10
321.4518320638783
 20
298.0040326913151
 30
0.0
 10
321.6472981689727
 20
297.6886557314872
 30
0.0
 10
321.8590854139284
 20
297.6894093461246
 30
0.0
 10
323.5720730165818
 20
297.6951583492157
 30
0.0
 10
325.3103820710517
 20
297.9511289437697
 30
0.0
 10
326.9906412665952
 20
297.7364994950387
 30
0.0
 10
328.7221893211753
 20
297.5153028330388
 30
0.0
 10
330.4194586756772
 20
298.0845833301296
 30
0.0
 10
331.9814649686895
 20
297.9458536413079
 30
0.0
 10
334.6077904481762
 20
297.712577613263
 30
0.0
 10
337.2645188953201
 20
297.9915226883343
 30
0.0
 10
339.8511827130328
 20
297.4856534800189
 30
0.0
 10
340.5466183004241
 20
297.3496368038919
 30
0.0
 10
341.2007127419923
 20
297.0151610959677
 30
0.0
 10
341.8637213681287
 20
296.7086552570144
 30
0.0
 10
342.697046902317
 20
292.9836242317412
 30
0.0
 10
343.5006154242516
 20
289.0058954526249
 30
0.0
 10
344.2383826224178
 20
284.7815839641519
 30
0.0
 10
345.1993920080283
 20
279.2791205188045
 30
0.0
 10
345.6730495735565
 20
275.5150737871609
 30
0.0
 10
343.5123718125949
 20
272.4624392732213
 30
0.0
  0
SPLINE
  5
7B
330
1F
100
AcDbEntity
  8
_U+0421_U+043B_U+043E_U+0439 1
 62
     7
370
    35
100
AcDbSpline
210
0.0
220
0.0
230
1.0
 70
    11
 71
     3
 72
    56
 73
    52
 74
     0
 42
0.0000000001
 43
0.0000000001
 12
1.0
 22
0.0
 32
0.0
 13
1.0
 23
0.0
 33
0.0
 40
0.0
 40
0.0
 40
0.0
 40
0.0
 40
1.0
 40
1.0
 40
1.0
 40
2.0
 40
2.0
 40
2.0
 40
3.0
 40
3.0
 40
3.0
 40
4.0
 40
4.0
 40
4.0
 40
5.0
 40
5.0
 40
5.0
 40
6.0
 40
6.0
 40
6.0
 40
7.0
 40
7.0
 40
7.0
 40
8.0
 40
8.0
 40
8.0
 40
9.0
 40
9.0
 40
9.0
 40
10.0
 40
10.0
 40
10.0
 40
11.0
 40
11.0
 40
11.0
 40
12.0
 40
12.0
 40
12.0
 40
13.0
 40
13.0
 40
13.0
 40
14.0
 40
14.0
 40
14.0
 40
15.0
 40
15.0
 40
15.0
 40
16.0
 40
16.0
 40
16.0
 40
17.0
 40
17.0
 40
17.0
 40
17.0
 10
359.3321641534751
 20
301.4471903103545
 30
0.0
 10
359.393336130185
 20
301.4398694824483
 30
0.0
 10
359.5380732042591
 20
301.4302662787832
 30
0.0
 10
359.6704725301266
 20
301.3298202135414
 30
0.0
 10
359.7815983913727
 20
301.2455445652334
 30
0.0
 10
359.8899897080774
 20
301.1112073731555
 30
0.0
 10
359.9925243624571
 20
300.912188513342
 30
0.0
 10
359.1324562745645
 20
300.808684925857
 30
0.0
 10
358.271483849107
 20
300.6092784928014
 30
0.0
 10
357.4125569490939
 20
300.6178696996677
 30
0.0
 10
353.0260891224995
 20
300.6617085397175
 30
0.0
 10
348.6402672513087
 20
300.7988879355708
 30
0.0
 10
344.2537563610207
 20
300.8284942248972
 30
0.0
 10
338.1775122626049
 20
300.8695339248652
 30
0.0
 10
332.1007944635599
 20
300.8545262276576
 30
0.0
 10
326.0243781103698
 20
300.8318962566889
 30
0.0
 10
325.3394931279021
 20
300.8293339669217
 30
0.0
 10
324.6579671135325
 20
300.5502812326164
 30
0.0
 10
323.9703260546767
 20
300.5255626725098
 30
0.0
 10
322.6535244328271
 20
300.4781926095876
 30
0.0
 10
321.3287129639742
 20
300.4557348933931
 30
0.0
 10
320.0164760936426
 20
300.5504750192375
 30
0.0
 10
319.1492163689245
 20
300.6130680978351
 30
0.0
 10
318.2979763382128
 20
300.8979990263121
 30
0.0
 10
317.4396307980628
 20
301.0833666952653
 30
0.0
 10
317.4329128618666
 20
301.2217734063852
 30
0.0
 10
317.4262810530574
 20
301.3602231811987
 30
0.0
 10
317.4195631168612
 20
301.4986083604718
 30
0.0
 10
317.8530853199863
 20
301.71084777421
 30
0.0
 10
318.5392191495674
 20
302.0031425942867
 30
0.0
 10
319.4172878613705
 20
302.1868738428844
 30
0.0
 10
320.9069471491925
 20
302.4985903887592
 30
0.0
 10
321.8982733750731
 20
302.2778889592353
 30
0.0
 10
324.0354383593479
 20
302.0906695514588
 30
0.0
 10
324.6061184264795
 20
302.0406726032291
 30
0.0
 10
326.1337168283329
 20
301.9095867200153
 30
0.0
 10
327.7877502344949
 20
301.8982394367608
 30
0.0
 10
329.6717868279909
 20
301.8852987968443
 30
0.0
 10
329.8706549648769
 20
302.0404357529145
 30
0.0
 10
332.8869652532939
 20
302.1868738428844
 30
0.0
 10
334.089605023501
 20
302.2452466795126
 30
0.0
 10
335.6402425014119
 20
302.317873598711
 30
0.0
 10
337.6013631063904
 20
302.2830996661568
 30
0.0
 10
339.3517299950587
 20
302.252050743096
 30
0.0
 10
340.0726162253472
 20
302.1594853337767
 30
0.0
 10
341.4498362092694
 20
302.0906695514588
 30
0.0
 10
342.261242323433
 20
302.05010355212
 30
0.0
 10
343.137028659477
 20
302.0259448200297
 30
0.0
 10
348.1846964370779
 20
302.1868738428844
 30
0.0
 10
348.1846964370779
 20
302.1868738428844
 30
0.0
 10
352.0988416726445
 20
302.3116508949908
 30
0.0
 10
359.3321641534751
 20
301.4471903103545
 30
0.0
  0
SPLINE
  5
7C
330
1F
100
AcDbEntity
  8
_U+0421_U+043B_U+043E_U+0439 1
 62
     7
370
    35
100
AcDbSpline
210
0.0
220
0.0
230
1.0
 70
    11
 71
     3
 72
    17
 73
    13
 74
     0
 42
0.0000000001
 43
0.0000000001
 12
1.0
 22
0.0
 32
0.0
 13
1.0
 23
0.0
 33
0.0
 40
0.0
 40
0.0
 40
0.0
 40
0.0
 40
1.0
 40
1.0
 40
1.0
 40
2.0
 40
2.0
 40
2.0
 40
3.0
 40
3.0
 40
3.0
 40
4.0
 40
4.0
 40
4.0
 40
4.0
 10
352.1032772330818
 20
308.0842098263819
 30
0.0
 10
352.2955996885458
 20
308.1129979055304
 30
0.0
 10
352.4878360166228
 20
308.1417859846791
 30
0.0
 10
352.6801154083933
 20
308.1705740638277
 30
0.0
 10
352.9915520402599
 20
307.4991464855993
 30
0.0
 10
353.3028594810458
 20
306.8276758436773
 30
0.0
 10
353.8475721409574
 20
305.6531566653685
 30
0.0
 10
352.9555938561326
 20
305.8390841623381
 30
0.0
 10
352.2008164990079
 20
305.854759346796
 30
0.0
 10
352.161843856331
 20
306.0297917292934
 30
0.0
 10
352.0156856803693
 20
306.6864053969353
 30
0.0
 10
352.1032772330818
 20
307.3950615382512
 30
0.0
 10
352.1032772330818
 20
308.0842098263819
 30
0.0
  0
SPLINE
  5
7D
330
1F
100
AcDbEntity
  8
_U+0421_U+043B_U+043E_U+0439 1
 62
     7
370
    35
100
AcDbSpline
210
0.0
220
0.0
230
1.0
 70
    11
 71
     3
 72
    38
 73
    34
 74
     0
 42
0.0000000001
 43
0.0000000001
 12
1.0
 22
0.0
 32
0.0
 13
1.0
 23
0.0
 33
0.0
 40
0.0
 40
0.0
 40
0.0
 40
0.0
 40
1.0
 40
1.0
 40
1.0
 40
2.0
 40
2.0
 40
2.0
 40
3.0
 40
3.0
 40
3.0
 40
4.0
 40
4.0
 40
4.0
 40
5.0
 40
5.0
 40
5.0
 40
6.0
 40
6.0
 40
6.0
 40
7.0
 40
7.0
 40
7.0
 40
8.0
 40
8.0
 40
8.0
 40
9.0
 40
9.0
 40
9.0
 40
10.0
 40
10.0
 40
10.0
 40
11.0
 40
11.0
 40
11.0
 40
11.0
 10
356.9139655049911
 20
315.5084767244824
 30
0.0
 10
356.8696529643121
 20
316.4086801747782
 30
0.0
 10
357.7216896733547
 20
317.3529808472852
 30
0.0
 10
358.2698689605983
 20
318.4929414115076
 30
0.0
 10
358.2698689605983
 20
318.4929414115076
 30
0.0
 10
365.6816689194116
 20
318.4929414115076
 30
0.0
 10
365.6816689194116
 20
318.4929414115076
 30
0.0
 10
365.0983281263717
 20
316.5043246381874
 30
0.0
 10
364.5648335586339
 20
314.6183286466342
 30
0.0
 10
363.9719110937756
 20
312.7511945528627
 30
0.0
 10
363.8991765153433
 20
312.5221602986339
 30
0.0
 10
363.5326829512531
 20
312.3150024007365
 30
0.0
 10
363.2612309588622
 20
312.2317172173805
 30
0.0
 10
360.876255949964
 20
311.4997851496925
 30
0.0
 10
360.1472737452852
 20
309.816446900059
 30
0.0
 10
361.207588008258
 20
307.5945325668471
 30
0.0
 10
361.4808702076254
 20
307.0217854424243
 30
0.0
 10
361.5258932992483
 20
306.3401087051274
 30
0.0
 10
361.6758626120906
 20
305.7084504479068
 30
0.0
 10
360.9712544579698
 20
305.5867093861968
 30
0.0
 10
360.2704359088829
 20
305.4135718062162
 30
0.0
 10
359.5606816433811
 20
305.3613140140743
 30
0.0
 10
359.0896724950071
 20
305.326647740754
 30
0.0
 10
358.596270225979
 20
305.5579859025885
 30
0.0
 10
358.1293521284937
 20
305.51005601165
 30
0.0
 10
355.7840603132163
 20
305.2692007735374
 30
0.0
 10
355.2384433157399
 20
307.1288848483221
 30
0.0
 10
354.5113559135779
 20
308.6686272117609
 30
0.0
 10
354.3210574517114
 20
309.0715741924545
 30
0.0
 10
354.5648410209864
 20
309.8197843363104
 30
0.0
 10
354.8354532713527
 20
310.2749029817587
 30
0.0
 10
355.8078314720645
 20
311.9101390856793
 30
0.0
 10
357.0198375956222
 20
313.3579619952023
 30
0.0
 10
356.9139655049911
 20
315.5084767244824
 30
0.0
  0
SPLINE
  5
7E
330
1F
100
AcDbEntity
  8
_U+0421_U+043B_U+043E_U+0439 1
 62
     7
370
    35
100
AcDbSpline
210
0.0
220
0.0
230
1.0
 70
    11
 71
     3
 72
    17
 73
    13
 74
     0
 42
0.0000000001
 43
0.0000000001
 12
1.0
 22
0.0
 32
0.0
 13
1.0
 23
0.0
 33
0.0
 40
0.0
 40
0.0
 40
0.0
 40
0.0
 40
1.0
 40
1.0
 40
1.0
 40
2.0
 40
2.0
 40
2.0
 40
3.0
 40
3.0
 40
3.0
 40
4.0
 40
4.0
 40
4.0
 40
4.0
 10
347.7672369916528
 20
261.1571215880594
 30
0.0
 10
346.8635023184846
 20
261.1571215880594
 30
0.0
 10
346.1308166361591
 20
261.8897642066913
 30
0.0
 10
346.1308166361591
 20
262.7934988798595
 30
0.0
 10
346.1308166361591
 20
263.6972120211809
 30
0.0
 10
346.8635023184846
 20
264.4298546398128
 30
0.0
 10
347.7672369916528
 20
264.4298546398128
 30
0.0
 10
348.670971664821
 20
264.4298546398128
 30
0.0
 10
349.4035712197593
 20
263.6972120211809
 30
0.0
 10
349.4035712197593
 20
262.7934988798595
 30
0.0
 10
349.4035712197593
 20
261.8897642066913
 30
0.0
 10
348.670971664821
 20
261.1571215880594
 30
0.0
 10
347.7672369916528
 20
261.1571215880594
 30
0.0
  0
SPLINE
  5
7F
330
1F
100
AcDbEntity
  8
_U+0421_U+043B_U+043E_U+0439 1
 62
     7
370
    35
100
AcDbSpline
210
0.0
220
0.0
230
1.0
 70
    11
 71
     3
 72
    20
 73
    16
 74
     0
 42
0.0000000001
 43
0.0000000001
 12
1.0
 22
0.0
 32
0.0
 13
1.0
 23
0.0
 33
0.0
 40
0.0
 40
0.0
 40
0.0
 40
0.0
 40
1.0
 40
1.0
 40
1.0
 40
2.0
 40
2.0
 40
2.0
 40
3.0
 40
3.0
 40
3.0
 40
4.0
 40
4.0
 40
4.0
 40
5.0
 40
5.0
 40
5.0
 40
5.0
 10
345.9882758104569
 20
272.7689235803279
 30
0.0
 10
346.3658582756403
 20
274.8237292506583
 30
0.0
 10
346.7434407408236
 20
276.878513389142
 30
0.0
 10
347.1210232060071
 20
278.9332975276258
 30
0.0
 10
347.2969383942226
 20
278.9333621231661
 30
0.0
 10
347.4728535824382
 20
278.9334267187064
 30
0.0
 10
347.6487257069602
 20
278.9334697824
 30
0.0
 10
347.6970431711408
 20
277.1323307990178
 30
0.0
 10
347.8374308121648
 20
275.3253566851575
 30
0.0
 10
347.7240871707
 20
273.5344453289972
 30
0.0
 10
347.6981628271735
 20
273.1260938547611
 30
0.0
 10
346.7955908737316
 20
272.7732514815312
 30
0.0
 10
346.2964396016125
 20
272.3948508061701
 30
0.0
 10
346.193775756152
 20
272.5195417308893
 30
0.0
 10
346.0910257833045
 20
272.6442541874554
 30
0.0
 10
345.9882758104569
 20
272.7689235803279
 30
0.0
  0
SPLINE
  5
80
330
1F
100
AcDbEntity
  8
_U+0421_U+043B_U+043E_U+0439 1
 62
     7
370
    35
100
AcDbSpline
210
0.0
220
0.0
230
1.0
 70
    11
 71
     3
 72
    71
 73
    67
 74
     0
 42
0.0000000001
 43
0.0000000001
 12
1.0
 22
0.0
 32
0.0
 13
1.0
 23
0.0
 33
0.0
 40
0.0
 40
0.0
 40
0.0
 40
0.0
 40
1.0
 40
1.0
 40
1.0
 40
2.0
 40
2.0
 40
2.0
 40
3.0
 40
3.0
 40
3.0
 40
4.0
 40
4.0
 40
4.0
 40
5.0
 40
5.0
 40
5.0
 40
6.0
 40
6.0
 40
6.0
 40
7.0
 40
7.0
 40
7.0
 40
8.0
 40
8.0
 40
8.0
 40
9.0
 40
9.0
 40
9.0
 40
10.0
 40
10.0
 40
10.0
 40
11.0
 40
11.0
 40
11.0
 40
12.0
 40
12.0
 40
12.0
 40
13.0
 40
13.0
 40
13.0
 40
14.0
 40
14.0
 40
14.0
 40
15.0
 40
15.0
 40
15.0
 40
16.0
 40
16.0
 40
16.0
 40
17.0
 40
17.0
 40
17.0
 40
18.0
 40
18.0
 40
18.0
 40
19.0
 40
19.0
 40
19.0
 40
20.0
 40
20.0
 40
20.0
 40
21.0
 40
21.0
 40
21.0
 40
22.0
 40
22.0
 40
22.0
 40
22.0
 10
354.0657328125608
 20
276.4522474183827
 30
0.0
 10
353.906397146368
 20
279.2075917237919
 30
0.0
 10
353.7511094673703
 20
281.8959073901663
 30
0.0
 10
353.5957356609856
 20
284.5842015246939
 30
0.0
 10
353.4953111275905
 20
284.5769452923281
 30
0.0
 10
353.3949727215826
 20
284.5696675281155
 30
0.0
 10
353.2945481881876
 20
284.562389763903
 30
0.0
 10
352.8614566219982
 20
281.827242330776
 30
0.0
 10
352.4067901453323
 20
279.0952385472793
 30
0.0
 10
352.0051350754458
 20
276.3555048307875
 30
0.0
 10
351.822889524276
 20
275.1131603351129
 30
0.0
 10
351.1371432679371
 20
274.4829877753203
 30
0.0
 10
349.7316304373422
 20
274.2630614922807
 30
0.0
 10
349.835844575771
 20
278.2283663958033
 30
0.0
 10
349.3929344874486
 20
281.4652489226633
 30
0.0
 10
348.9543738321763
 20
283.7141426598941
 30
0.0
 10
348.2041612265696
 20
287.561237724579
 30
0.0
 10
347.3083502730175
 20
291.8910767941346
 30
0.0
 10
343.9998958874514
 20
295.9333149862121
 30
0.0
 10
344.4078382565986
 20
295.8102174181548
 30
0.0
 10
344.8226277530226
 20
295.6892084392354
 30
0.0
 10
345.246805134644
 20
295.5573258776906
 30
0.0
 10
345.4809855002538
 20
298.1657799243476
 30
0.0
 10
346.0203151984697
 20
298.6836854350145
 30
0.0
 10
348.3995412042768
 20
298.6031132643533
 30
0.0
 10
349.5135128294323
 20
298.5654325324833
 30
0.0
 10
350.6419107919324
 20
298.3686314528885
 30
0.0
 10
351.7210008252998
 20
298.0824516772981
 30
0.0
 10
352.4618255457092
 20
297.8859735754049
 30
0.0
 10
353.3432962893039
 20
297.5551582814338
 30
0.0
 10
352.7393710507396
 20
296.4004053384716
 30
0.0
 10
352.6770148224566
 20
296.2810973754481
 30
0.0
 10
353.0763013891971
 20
295.9785103326092
 30
0.0
 10
353.0984361276898
 20
295.7454926867256
 30
0.0
 10
353.1551510121157
 20
295.1472949194056
 30
0.0
 10
353.2464891061684
 20
294.5042463152369
 30
0.0
 10
353.0870242488949
 20
293.9469159931106
 30
0.0
 10
352.9203677547959
 20
293.3647163879502
 30
0.0
 10
352.0810994308955
 20
292.5696960091884
 30
0.0
 10
352.2243292756947
 20
292.3753710919735
 30
0.0
 10
352.7966888268754
 20
291.5990834199129
 30
0.0
 10
353.5977165908896
 20
290.9647336818445
 30
0.0
 10
354.3989596733716
 20
290.398101601908
 30
0.0
 10
354.6867112737771
 20
290.1946471816572
 30
0.0
 10
355.2143707110367
 20
290.3305992622439
 30
0.0
 10
355.4652167260564
 20
290.3192304471426
 30
0.0
 10
355.8941741776636
 20
291.4406951549785
 30
0.0
 10
355.9999386090607
 20
292.7400990446276
 30
0.0
 10
356.7018768141804
 20
293.3288227993633
 30
0.0
 10
357.9611453414263
 20
294.3851106069876
 30
0.0
 10
357.6536275056743
 20
295.8426228475629
 30
0.0
 10
358.2274296905894
 20
297.0288338186748
 30
0.0
 10
358.5414501440699
 20
297.6779328717894
 30
0.0
 10
359.0966488133647
 20
298.2103077834944
 30
0.0
 10
359.5432193156402
 20
298.7952849968898
 30
0.0
 10
359.7732870985146
 20
298.7155095045595
 30
0.0
 10
360.0032902858485
 20
298.6357124803824
 30
0.0
 10
360.2333796005697
 20
298.5559369880521
 30
0.0
 10
360.08018051071
 20
296.293004486719
 30
0.0
 10
360.1793346651448
 20
293.9773835563083
 30
0.0
 10
359.7202326280417
 20
291.778314512533
 30
0.0
 10
357.9834092709998
 20
283.4596146990745
 30
0.0
 10
358.1409793257564
 20
280.8837598684467
 30
0.0
 10
356.5282009380302
 20
278.8185327842734
 30
0.0
 10
355.6438449269666
 20
277.6861729619653
 30
0.0
 10
354.7117743434323
 20
276.9204358948282
 30
0.0
 10
354.0657328125608
 20
276.4522474183827
 30
0.0
  0
SPLINE
  5
81
330
1F
100
AcDbEntity
  8
_U+0421_U+043B_U+043E_U+0439 1
 62
     7
370
    35
100
AcDbSpline
210
0.0
220
0.0
230
1.0
 70
    11
 71
     3
 72
    77
 73
    73
 74
     0
 42
0.0000000001
 43
0.0000000001
 12
1.0
 22
0.0
 32
0.0
 13
1.0
 23
0.0
 33
0.0
 40
0.0
 40
0.0
 40
0.0
 40
0.0
 40
1.0
 40
1.0
 40
1.0
 40
2.0
 40
2.0
 40
2.0
 40
3.0
 40
3.0
 40
3.0
 40
4.0
 40
4.0
 40
4.0
 40
5.0
 40
5.0
 40
5.0
 40
6.0
 40
6.0
 40
6.0
 40
7.0
 40
7.0
 40
7.0
 40
8.0
 40
8.0
 40
8.0
 40
9.0
 40
9.0
 40
9.0
 40
10.0
 40
10.0
 40
10.0
 40
11.0
 40
11.0
 40
11.0
 40
12.0
 40
12.0
 40
12.0
 40
13.0
 40
13.0
 40
13.0
 40
14.0
 40
14.0
 40
14.0
 40
15.0
 40
15.0
 40
15.0
 40
16.0
 40
16.0
 40
16.0
 40
17.0
 40
17.0
 40
17.0
 40
18.0
 40
18.0
 40
18.0
 40
19.0
 40
19.0
 40
19.0
 40
20.0
 40
20.0
 40
20.0
 40
21.0
 40
21.0
 40
21.0
 40
22.0
 40
22.0
 40
22.0
 40
23.0
 40
23.0
 40
23.0
 40
24.0
 40
24.0
 40
24.0
 40
24.0
 10
372.1905739470812
 20
312.1228522000467
 30
0.0
 10
371.9109613847597
 20
305.5311572214971
 30
0.0
 10
371.6561535099319
 20
298.9383641187616
 30
0.0
 10
371.3935080428751
 20
292.3459585892683
 30
0.0
 10
371.3849168360088
 20
292.1318028411664
 30
0.0
 10
371.3266301267677
 20
291.8859306827535
 30
0.0
 10
371.4071807655822
 20
291.706936440448
 30
0.0
 10
372.8446468568027
 20
288.514258795033
 30
0.0
 10
369.7592839357533
 20
287.951545511211
 30
0.0
 10
368.5308920767939
 20
286.3126705251841
 30
0.0
 10
368.3425960766782
 20
286.3217569645265
 30
0.0
 10
368.1543216084093
 20
286.3308649357156
 30
0.0
 10
367.9660256082936
 20
286.3399298432112
 30
0.0
 10
367.4000179519139
 20
289.2373412736934
 30
0.0
 10
366.8338811044534
 20
292.1347311723289
 30
0.0
 10
366.2602727061593
 20
295.0708353314798
 30
0.0
 10
365.4646279038408
 20
292.0164782697976
 30
0.0
 10
365.4059966850513
 20
288.9391467275983
 30
0.0
 10
366.0924965560276
 20
285.8761123316626
 30
0.0
 10
366.3450435869432
 20
284.7494799805988
 30
0.0
 10
366.0741083588751
 20
284.0955147301112
 30
0.0
 10
365.1578852145729
 20
283.4715648740389
 30
0.0
 10
362.9262384866152
 20
281.9518040644145
 30
0.0
 10
360.7447609616614
 20
280.3584689343332
 30
0.0
 10
358.5430650325786
 20
278.7947616254251
 30
0.0
 10
358.3974020890929
 20
278.9051769357274
 30
0.0
 10
358.2517391456072
 20
279.0155922460297
 30
0.0
 10
358.1061623295086
 20
279.1260075563319
 30
0.0
 10
358.659121686738
 20
281.5018961258877
 30
0.0
 10
359.1799555285674
 20
283.885859137987
 30
0.0
 10
359.7753972194993
 20
286.2510463796917
 30
0.0
 10
360.2332288776422
 20
288.0692601175726
 30
0.0
 10
360.7744964420685
 20
289.8668248143889
 30
0.0
 10
361.2981509558265
 20
291.6678992022307
 30
0.0
 10
361.7409749167618
 20
293.1909759162597
 30
0.0
 10
362.1212057990995
 20
294.6625269209374
 30
0.0
 10
363.4439717425079
 20
295.84331186666
 30
0.0
 10
364.2201732871815
 20
296.5361851642841
 30
0.0
 10
364.3966913671069
 20
297.9007228904512
 30
0.0
 10
364.903486444834
 20
299.1072383930792
 30
0.0
 10
365.1477437147382
 20
298.8480164896609
 30
0.0
 10
365.2696354993757
 20
298.7033224792805
 30
0.0
 10
365.407116341084
 20
298.5755309686245
 30
0.0
 10
365.8469258434696
 20
298.166921112227
 30
0.0
 10
366.292419753406
 20
297.7645985550902
 30
0.0
 10
366.7357174149706
 20
297.3598428992669
 30
0.0
 10
367.113988899251
 20
297.9772470739173
 30
0.0
 10
367.7754041687254
 20
298.576865943125
 30
0.0
 10
367.8156471903625
 20
299.2155866460903
 30
0.0
 10
367.9214116217597
 20
300.8958458416338
 30
0.0
 10
367.7245244147776
 20
302.5931582598293
 30
0.0
 10
367.7251057746407
 20
304.2836666144414
 30
0.0
 10
367.7252349657214
 20
304.6669119553286
 30
0.0
 10
367.9435463602524
 20
305.2853711904713
 30
0.0
 10
368.2207688875811
 20
305.3959156918543
 30
0.0
 10
370.3795518460257
 20
306.2567589262311
 30
0.0
 10
370.0198192818253
 20
308.2326503781026
 30
0.0
 10
370.2420064087772
 20
309.9021436502546
 30
0.0
 10
370.3178200412994
 20
310.4718117205875
 30
0.0
 10
370.1212127483255
 20
311.4150788644489
 30
0.0
 10
369.7290532228702
 20
311.6473644275418
 30
0.0
 10
368.477837606321
 20
312.388512125653
 30
0.0
 10
368.8608245650469
 20
313.2889524262634
 30
0.0
 10
369.1662322798143
 20
314.2620196460722
 30
0.0
 10
369.4550820044057
 20
315.1823123094164
 30
0.0
 10
369.8284872913133
 20
316.0896428009972
 30
0.0
 10
369.9919140083948
 20
317.0326084990037
 30
0.0
 10
370.2434705743584
 20
318.4841994817137
 30
0.0
 10
370.9963531289662
 20
318.9181307899277
 30
0.0
 10
372.5586178041398
 20
318.4116371580556
 30
0.0
 10
372.4366398921152
 20
316.3579511437579
 30
0.0
 10
372.2804909392462
 20
314.2418012419432
 30
0.0
 10
372.1905739470812
 20
312.1228522000467
 30
0.0
  0
SPLINE
  5
82
330
1F
100
AcDbEntity
  8
_U+0421_U+043B_U+043E_U+0439 1
 62
     7
370
    35
100
AcDbSpline
210
0.0
220
0.0
230
1.0
 70
    11
 71
     3
 72
    17
 73
    13
 74
     0
 42
0.0000000001
 43
0.0000000001
 12
1.0
 22
0.0
 32
0.0
 13
1.0
 23
0.0
 33
0.0
 40
0.0
 40
0.0
 40
0.0
 40
0.0
 40
1.0
 40
1.0
 40
1.0
 40
2.0
 40
2.0
 40
2.0
 40
3.0
 40
3.0
 40
3.0
 40
4.0
 40
4.0
 40
4.0
 40
4.0
 10
376.0120461140946
 20
294.1129695954996
 30
0.0
 10
375.8274966553191
 20
294.1652489194883
 30
0.0
 10
375.6429256646969
 20
294.2175067116302
 30
0.0
 10
375.4583762059214
 20
294.2697645037721
 30
0.0
 10
375.9022552273491
 20
302.3178951305578
 30
0.0
 10
376.3459835258492
 20
310.3660042254967
 30
0.0
 10
376.8023510184109
 20
318.6401331161148
 30
0.0
 10
376.8023510184109
 20
318.6401331161148
 30
0.0
 10
385.9764034453166
 20
318.6401331161148
 30
0.0
 10
385.9764034453166
 20
318.6401331161148
 30
0.0
 10
385.4204296295376
 20
309.3318296245183
 30
0.0
 10
381.664414276744
 20
301.340758391707
 30
0.0
 10
376.0120461140946
 20
294.1129695954996
 30
0.0
  0
SPLINE
  5
83
330
1F
100
AcDbEntity
  8
_U+0421_U+043B_U+043E_U+0439 1
 62
     7
370
    35
100
AcDbSpline
210
0.0
220
0.0
230
1.0
 70
    11
 71
     3
 72
   359
 73
   355
 74
     0
 42
0.0000000001
 43
0.0000000001
 12
1.0
 22
0.0
 32
0.0
 13
1.0
 23
0.0
 33
0.0
 40
0.0
 40
0.0
 40
0.0
 40
0.0
 40
1.0
 40
1.0
 40
1.0
 40
2.0
 40
2.0
 40
2.0
 40
3.0
 40
3.0
 40
3.0
 40
4.0
 40
4.0
 40
4.0
 40
5.0
 40
5.0
 40
5.0
 40
6.0
 40
6.0
 40
6.0
 40
7.0
 40
7.0
 40
7.0
 40
8.0
 40
8.0
 40
8.0
 40
9.0
 40
9.0
 40
9.0
 40
10.0
 40
10.0
 40
10.0
 40
11.0
 40
11.0
 40
11.0
 40
12.0
 40
12.0
 40
12.0
 40
13.0
 40
13.0
 40
13.0
 40
14.0
 40
14.0
 40
14.0
 40
15.0
 40
15.0
 40
15.0
 40
16.0
 40
16.0
 40
16.0
 40
17.0
 40
17.0
 40
17.0
 40
18.0
 40
18.0
 40
18.0
 40
19.0
 40
19.0
 40
19.0
 40
20.0
 40
20.0
 40
20.0
 40
21.0
 40
21.0
 40
21.0
 40
22.0
 40
22.0
 40
22.0
 40
23.0
 40
23.0
 40
23.0
 40
24.0
 40
24.0
 40
24.0
 40
25.0
 40
25.0
 40
25.0
 40
26.0
 40
26.0
 40
26.0
 40
27.0
 40
27.0
 40
27.0
 40
28.0
 40
28.0
 40
28.0
 40
29.0
 40
29.0
 40
29.0
 40
30.0
 40
30.0
 40
30.0
 40
31.0
 40
31.0
 40
31.0
 40
32.0
 40
32.0
 40
32.0
 40
33.0
 40
33.0
 40
33.0
 40
34.0
 40
34.0
 40
34.0
 40
35.0
 40
35.0
 40
35.0
 40
36.0
 40
36.0
 40
36.0
 40
37.0
 40
37.0
 40
37.0
 40
38.0
 40
38.0
 40
38.0
 40
39.0
 40
39.0
 40
39.0
 40
40.0
 40
40.0
 40
40.0
 40
41.0
 40
41.0
 40
41.0
 40
42.0
 40
42.0
 40
42.0
 40
43.0
 40
43.0
 40
43.0
 40
44.0
 40
44.0
 40
44.0
 40
45.0
 40
45.0
 40
45.0
 40
46.0
 40
46.0
 40
46.0
 40
47.0
 40
47.0
 40
47.0
 40
48.0
 40
48.0
 40
48.0
 40
49.0
 40
49.0
 40
49.0
 40
50.0
 40
50.0
 40
50.0
 40
51.0
 40
51.0
 40
51.0
 40
52.0
 40
52.0
 40
52.0
 40
53.0
 40
53.0
 40
53.0
 40
54.0
 40
54.0
 40
54.0
 40
55.0
 40
55.0
 40
55.0
 40
56.0
 40
56.0
 40
56.0
 40
57.0
 40
57.0
 40
57.0
 40
58.0
 40
58.0
 40
58.0
 40
59.0
 40
59.0
 40
59.0
 40
60.0
 40
60.0
 40
60.0
 40
61.0
 40
61.0
 40
61.0
 40
62.0
 40
62.0
 40
62.0
 40
63.0
 40
63.0
 40
63.0
 40
64.0
 40
64.0
 40
64.0
 40
65.0
 40
65.0
 40
65.0
 40
66.0
 40
66.0
 40
66.0
 40
67.0
 40
67.0
 40
67.0
 40
68.0
 40
68.0
 40
68.0
 40
69.0
 40
69.0
 40
69.0
 40
70.0
 40
70.0
 40
70.0
 40
71.0
 40
71.0
 40
71.0
 40
72.0
 40
72.0
 40
72.0
 40
73.0
 40
73.0
 40
73.0
 40
74.0
 40
74.0
 40
74.0
 40
75.0
 40
75.0
 40
75.0
 40
76.0
 40
76.0
 40
76.0
 40
77.0
 40
77.0
 40
77.0
 40
78.0
 40
78.0
 40
78.0
 40
79.0
 40
79.0
 40
79.0
 40
80.0
 40
80.0
 40
80.0
 40
81.0
 40
81.0
 40
81.0
 40
82.0
 40
82.0
 40
82.0
 40
83.0
 40
83.0
 40
83.0
 40
84.0
 40
84.0
 40
84.0
 40
85.0
 40
85.0
 40
85.0
 40
86.0
 40
86.0
 40
86.0
 40
87.0
 40
87.0
 40
87.0
 40
88.0
 40
88.0
 40
88.0
 40
89.0
 40
89.0
 40
89.0
 40
90.0
 40
90.0
 40
90.0
 40
91.0
 40
91.0
 40
91.0
 40
92.0
 40
92.0
 40
92.0
 40
93.0
 40
93.0
 40
93.0
 40
94.0
 40
94.0
 40
94.0
 40
95.0
 40
95.0
 40
95.0
 40
96.0
 40
96.0
 40
96.0
 40
97.0
 40
97.0
 40
97.0
 40
98.0
 40
98.0
 40
98.0
 40
99.0
 40
99.0
 40
99.0
 40
100.0
 40
100.0
 40
100.0
 40
101.0
 40
101.0
 40
101.0
 40
102.0
 40
102.0
 40
102.0
 40
103.0
 40
103.0
 40
103.0
 40
104.0
 40
104.0
 40
104.0
 40
105.0
 40
105.0
 40
105.0
 40
106.0
 40
106.0
 40
106.0
 40
107.0
 40
107.0
 40
107.0
 40
108.0
 40
108.0
 40
108.0
 40
109.0
 40
109.0
 40
109.0
 40
110.0
 40
110.0
 40
110.0
 40
111.0
 40
111.0
 40
111.0
 40
112.0
 40
112.0
 40
112.0
 40
113.0
 40
113.0
 40
113.0
 40
114.0
 40
114.0
 40
114.0
 40
115.0
 40
115.0
 40
115.0
 40
116.0
 40
116.0
 40
116.0
 40
117.0
 40
117.0
 40
117.0
 40
118.0
 40
118.0
 40
118.0
 40
118.0
 10
385.1842037384835
 20
325.3996903721832
 30
0.0
 10
384.5123024596258
 20
325.2765712722791
 30
0.0
 10
383.738706268413
 20
325.4466943937101
 30
0.0
 10
383.0663743526197
 20
325.6774727275283
 30
0.0
 10
382.5969800927544
 20
325.8385740051572
 30
0.0
 10
382.2320368216325
 20
326.297417660099
 30
0.0
 10
381.8123165322951
 20
326.6125793014589
 30
0.0
 10
381.6008522650412
 20
326.7713551396354
 30
0.0
 10
381.2444356052453
 20
326.8595926477514
 30
0.0
 10
381.1709258803288
 20
327.0596665680573
 30
0.0
 10
380.7177451010909
 20
328.2919987549779
 30
0.0
 10
380.3265114450472
 20
329.5471331676416
 30
0.0
 10
379.9242750152976
 20
330.7656634407744
 30
0.0
 10
377.8219485591174
 20
331.2481275316369
 30
0.0
 10
378.0444801956178
 20
327.8252098485734
 30
0.0
 10
375.8100773912718
 20
328.3749824924789
 30
0.0
 10
375.8100773912718
 20
328.3749824924789
 30
0.0
 10
375.8100773912718
 20
330.7913724658331
 30
0.0
 10
375.8100773912718
 20
330.7913724658331
 30
0.0
 10
375.8019168213411
 20
330.7930304180354
 30
0.0
 10
375.7530825928378
 20
330.8029565994023
 30
0.0
 10
375.7449004910603
 20
330.8046145516045
 30
0.0
 10
375.710729450216
 20
330.8115693381154
 30
0.0
 10
375.6801326959376
 20
330.8177920418356
 30
0.0
 10
375.6796589953083
 20
330.8178781692228
 30
0.0
 10
375.6411815851075
 20
330.8256081022178
 30
0.0
 10
375.3867828153686
 20
330.3045804737673
 30
0.0
 10
374.7377698896411
 20
328.8026910969726
 30
0.0
 10
374.469009378098
 20
328.7786830878098
 30
0.0
 10
373.6744196362719
 20
328.7411100151738
 30
0.0
 10
373.2292056403437
 20
329.2508980196037
 30
0.0
 10
373.0086334019006
 20
329.5034881142128
 30
0.0
 10
372.8937825311611
 20
329.8675916433102
 30
0.0
 10
373.0074276184807
 20
330.902821304781
 30
0.0
 10
373.2137673062005
 20
332.7821639556783
 30
0.0
 10
373.7800548765884
 20
333.2922318741163
 30
0.0
 10
373.8733523686983
 20
334.8956223766451
 30
0.0
 10
373.918095546313
 20
335.664955262195
 30
0.0
 10
373.847901725801
 20
336.5822549988363
 30
0.0
 10
373.6640628179694
 20
336.6062414761524
 30
0.0
 10
373.4526631462557
 20
336.6338453037279
 30
0.0
 10
373.3349700717409
 20
335.4486032657213
 30
0.0
 10
372.6596021655512
 20
333.8836471096998
 30
0.0
 10
371.7913089121876
 20
331.8716898144671
 30
0.0
 10
370.5977125176292
 20
329.9461398203738
 30
0.0
 10
369.895429802961
 20
329.5438387950838
 30
0.0
 10
369.3929195627438
 20
329.2559580035976
 30
0.0
 10
369.0002217411188
 20
328.5845950209095
 30
0.0
 10
368.7962074928517
 20
328.0048715781291
 30
0.0
 10
368.2705935810365
 20
326.5112934941926
 30
0.0
 10
367.2719895909432
 20
325.9329265577595
 30
0.0
 10
365.8104939587132
 20
325.2821480205958
 30
0.0
 10
364.5092167983939
 20
324.7027044918236
 30
0.0
 10
363.3536887089476
 20
323.74358990873
 30
0.0
 10
361.9036695510527
 20
323.1129005846147
 30
0.0
 10
360.0407772310974
 20
322.3026571901775
 30
0.0
 10
360.2669262178573
 20
321.7828353451469
 30
0.0
 10
358.6780051163665
 20
322.2227094430729
 30
0.0
 10
358.2854364858223
 20
324.0562107921697
 30
0.0
 10
357.8740490211899
 20
325.716660688673
 30
0.0
 10
357.6150639680862
 20
327.4005802981695
 30
0.0
 10
357.561449669597
 20
327.7494177478978
 30
0.0
 10
358.0736707727133
 20
328.1852869223223
 30
0.0
 10
358.5644246245872
 20
328.9576988619621
 30
0.0
 10
358.8639756770297
 20
330.1037098751304
 30
0.0
 10
358.5241170074098
 20
331.2566110792693
 30
0.0
 10
357.7097179665435
 20
331.8649288145773
 30
0.0
 10
356.7863677809561
 20
332.5545938670307
 30
0.0
 10
355.3280157983563
 20
332.4883188426332
 30
0.0
 10
354.9573235241435
 20
331.9180694124373
 30
0.0
 10
354.7227986489851
 20
331.5573033195913
 30
0.0
 10
355.0730787324479
 20
331.2248516052647
 30
0.0
 10
354.7832600747512
 20
330.4667152800419
 30
0.0
 10
354.6093258164397
 20
330.0119196122953
 30
0.0
 10
354.3929307562724
 20
329.8951308753453
 30
0.0
 10
354.390389998352
 20
329.507729888029
 30
0.0
 10
354.3883660047545
 20
329.1982741860664
 30
0.0
 10
354.524533403809
 20
328.9928388359116
 30
0.0
 10
354.7271050183417
 20
328.6418266696583
 30
0.0
 10
355.1161424260135
 20
327.9675138239609
 30
0.0
 10
355.3635002818544
 20
327.538728627128
 30
0.0
 10
355.4578097707631
 20
327.2208109093798
 30
0.0
 10
355.739274071908
 20
326.2720746764356
 30
0.0
 10
354.6879170571969
 20
325.8084078878145
 30
0.0
 10
353.3980733075194
 20
323.3728545708236
 30
0.0
 10
353.2512261124606
 20
323.0955674479545
 30
0.0
 10
353.0601094404163
 20
322.9360595269875
 30
0.0
 10
352.8474609215893
 20
322.8983141995772
 30
0.0
 10
352.4450737689122
 20
322.8268930637986
 30
0.0
 10
352.0622375331138
 20
323.2657766967727
 30
0.0
 10
351.8864515359789
 20
323.4706091552175
 30
0.0
 10
350.8597700176809
 20
324.667069285398
 30
0.0
 10
350.7536610767352
 20
326.4658182337873
 30
0.0
 10
350.736823172551
 20
326.9852525055759
 30
0.0
 10
350.7129658863157
 20
327.7243977419362
 30
0.0
 10
350.7707573630807
 20
328.9415715087218
 30
0.0
 10
351.3141350484918
 20
330.3767336923365
 30
0.0
 10
353.749559174402
 20
341.4760131356337
 30
0.0
 10
356.1850263640058
 20
352.5752925789309
 30
0.0
 10
358.6204720217629
 20
363.6745504903814
 30
0.0
 10
358.3447567237089
 20
363.8443721659575
 30
0.0
 10
358.0681801517837
 20
364.0130741855008
 30
0.0
 10
357.7899456276562
 20
364.1795153611319
 30
0.0
 10
357.7390658737085
 20
364.1451935973601
 30
0.0
 10
357.68250171221
 20
364.1101828144912
 30
0.0
 10
357.6226862418474
 20
364.0747629265335
 30
0.0
 10
354.3412112603001
 20
350.1722092868885
 30
0.0
 10
351.0597578105996
 20
336.2696341153967
 30
0.0
 10
347.7783474245927
 20
322.3670804757517
 30
0.0
 10
347.4264309207745
 20
322.042466353654
 30
0.0
 10
346.9002787127897
 20
321.5669139856088
 30
0.0
 10
346.2381313605246
 20
321.0058155902955
 30
0.0
 10
345.9885341926183
 20
320.7943297911948
 30
0.0
 10
345.7898383105065
 20
320.5425148430698
 30
0.0
 10
345.6466945930944
 20
320.5136621683808
 30
0.0
 10
344.464596204718
 20
320.2753476881887
 30
0.0
 10
343.1228176406003
 20
319.6534433575607
 30
0.0
 10
342.1128017717122
 20
319.9911057788088
 30
0.0
 10
340.2362582608966
 20
320.618436134826
 30
0.0
 10
338.928284696228
 20
318.9732307858449
 30
0.0
 10
337.2462598892483
 20
319.242292743243
 30
0.0
 10
337.084986356845
 20
319.2681094275355
 30
0.0
 10
336.8856445193298
 20
319.0558915456442
 30
0.0
 10
336.7158443756005
 20
318.6390780556225
 30
0.0
 10
336.7158443756005
 20
318.6390780556225
 30
0.0
 10
347.4531734744787
 20
318.6390780556225
 30
0.0
 10
347.4531734744787
 20
318.6390780556225
 30
0.0
 10
345.6250766189244
 20
313.8047262840989
 30
0.0
 10
345.37212048292
 20
312.5087244262414
 30
0.0
 10
345.5869652501189
 20
312.4060390489342
 30
0.0
 10
345.632354383137
 20
312.3843564792239
 30
0.0
 10
345.788201890151
 20
312.3730522596629
 30
0.0
 10
346.3220194355904
 20
312.2549070163657
 30
0.0
 10
346.4222286505177
 20
312.2327292141794
 30
0.0
 10
346.5030592033403
 20
312.2140180393251
 30
0.0
 10
346.5512044127467
 20
312.2027784153045
 30
0.0
 10
347.0315368507777
 20
313.8981099035959
 30
0.0
 10
347.5118692888086
 20
315.5934629237341
 30
0.0
 10
347.9922878542267
 20
317.2887944120256
 30
0.0
 10
348.1205745973587
 20
317.7297666341375
 30
0.0
 10
348.2488182767971
 20
318.1707388562496
 30
0.0
 10
348.3771050199292
 20
318.6117110783615
 30
0.0
 10
348.7231648614225
 20
318.6177399954607
 30
0.0
 10
349.0710333780456
 20
318.6223047469787
 30
0.0
 10
349.4207105697984
 20
318.6253622692219
 30
0.0
 10
350.5503143157183
 20
318.6352453868951
 30
0.0
 10
351.6620035651148
 20
318.6290657468685
 30
0.0
 10
352.7551323625846
 20
318.6083521102634
 30
0.0
 10
353.1999803171175
 20
316.9326791980847
 30
0.0
 10
352.8789835452794
 20
315.5851300990292
 30
0.0
 10
352.1378143153214
 20
314.1049448237916
 30
0.0
 10
350.9655775127716
 20
311.7637440594029
 30
0.0
 10
350.1758755001652
 20
309.2288643332029
 30
0.0
 10
349.2558627508292
 20
306.7641138319744
 30
0.0
 10
348.5645182143267
 20
304.9118582443299
 30
0.0
 10
346.9830471318228
 20
305.8445747832677
 30
0.0
 10
345.8004319791236
 20
305.6896316138186
 30
0.0
 10
344.7619079450951
 20
305.553571873998
 30
0.0
 10
344.6664357364601
 20
306.4178602038601
 30
0.0
 10
344.5080044078322
 20
307.3047569728441
 30
0.0
 10
344.3804066837972
 20
308.0189037350896
 30
0.0
 10
343.8567952337328
 20
308.9400361404582
 30
0.0
 10
343.2533436957978
 20
309.2213712505225
 30
0.0
 10
342.491934529864
 20
309.5764529358178
 30
0.0
 10
341.4536688779968
 20
309.4999287523517
 30
0.0
 10
340.5669013000935
 20
309.377563267085
 30
0.0
 10
339.7191494285606
 20
309.2605376798204
 30
0.0
 10
338.9121358111408
 20
308.8471262215904
 30
0.0
 10
338.087982843682
 20
308.5619153791053
 30
0.0
 10
337.5953772529848
 20
308.3914477481258
 30
0.0
 10
336.9826670209331
 20
308.3467045705111
 30
0.0
 10
336.6346262495358
 20
308.0205616872919
 30
0.0
 10
335.4689351284079
 20
306.928229568153
 30
0.0
 10
334.1157016218017
 20
306.7878849908227
 30
0.0
 10
332.6092474934891
 20
306.8135724840346
 30
0.0
 10
328.7526353525262
 20
306.8792661485689
 30
0.0
 10
324.8941284090464
 20
306.8354703722127
 30
0.0
 10
320.8859751304261
 20
306.8354703722127
 30
0.0
 10
320.8859751304261
 20
306.8354703722127
 30
0.0
 10
320.8859751304261
 20
312.2964419488097
 30
0.0
 10
320.8859751304261
 20
312.2964419488097
 30
0.0
 10
321.7312723714256
 20
311.6400866633293
 30
0.0
 10
322.8580769772637
 20
311.8871861370088
 30
0.0
 10
323.2569759707621
 20
312.5265743272244
 30
0.0
 10
323.6694830914272
 20
313.1878388737713
 30
0.0
 10
323.3589077334319
 20
314.3577717687154
 30
0.0
 10
322.3343363361187
 20
314.7915523540019
 30
0.0
 10
323.9966810351388
 20
314.5629918004024
 30
0.0
 10
325.9138766726804
 20
314.3821027555799
 30
0.0
 10
326.0293734988234
 20
314.7915523540019
 30
0.0
 10
326.0424217979738
 20
314.8378673564317
 30
0.0
 10
326.0583123008994
 20
314.9835087680706
 30
0.0
 10
325.346340255179
 20
315.5209006000761
 30
0.0
 10
324.7697173983353
 20
315.9561238190971
 30
0.0
 10
323.8668009353449
 20
316.5342754370623
 30
0.0
 10
322.5874647268974
 20
316.9838819297342
 30
0.0
 10
322.597713885966
 20
317.65050790613
 30
0.0
 10
322.6079630450346
 20
318.3171338825259
 30
0.0
 10
322.6182122041032
 20
318.9837383270749
 30
0.0
 10
318.5572197734779
 20
319.9232158659026
 30
0.0
 10
317.0832356701137
 20
319.6505796219386
 30
0.0
 10
316.729381300085
 20
318.9837383270749
 30
0.0
 10
316.412733961297
 20
318.3870908527232
 30
0.0
 10
317.0352627154816
 20
317.5549711019547
 30
0.0
 10
316.5113067558686
 20
316.9499692710513
 30
0.0
 10
316.0834689602942
 20
316.4559641103132
 30
0.0
 10
315.1184977148757
 20
316.3757579810472
 30
0.0
 10
314.5528130361977
 20
316.73902176812
 30
0.0
 10
314.2434434616223
 20
316.9376961183851
 30
0.0
 10
313.9429880716149
 20
317.3343342679713
 30
0.0
 10
313.6287522996666
 20
318.2440763263918
 30
0.0
 10
313.3161960117673
 20
319.1488445282055
 30
0.0
 10
313.0608283089231
 20
319.8103028613735
 30
0.0
 10
311.8342881887871
 20
319.2974573347005
 30
0.0
 10
310.7286709201833
 20
318.8351470524267
 30
0.0
 10
310.1136783123726
 20
319.4985432518052
 30
0.0
 10
309.99021470292
 20
320.6155293355103
 30
0.0
 10
309.9089965768552
 20
321.3503466706673
 30
0.0
 10
309.8639519533855
 20
322.0891473974792
 30
0.0
 10
309.7768771649959
 20
323.1373176988664
 30
0.0
 10
308.9565999299579
 20
322.6014330961358
 30
0.0
 10
308.3837666781479
 20
322.1439244156946
 30
0.0
 10
307.7410841153746
 20
321.8288489017218
 30
0.0
 10
306.974894879455
 20
321.4532043027488
 30
0.0
 10
306.1488471094793
 20
321.1996452750344
 30
0.0
 10
305.34872368303
 20
320.8932255634682
 30
0.0
 10
305.1771579278645
 20
321.8959636681437
 30
0.0
 10
304.6418331531503
 20
323.014327790043
 30
0.0
 10
304.915589053147
 20
323.8755370658151
 30
0.0
 10
305.3770595933962
 20
325.3273864306865
 30
0.0
 10
306.2462141206311
 20
326.6942926599997
 30
0.0
 10
307.1644612585309
 20
327.9334935060441
 30
0.0
 10
307.5118991382183
 20
328.4023494697398
 30
0.0
 10
308.4577070400001
 20
328.4776032742457
 30
0.0
 10
309.1531426273914
 20
328.6302210042423
 30
0.0
 10
312.1679456865335
 20
329.291808528491
 30
0.0
 10
315.2876519032015
 20
329.6344017426523
 30
0.0
 10
318.1850633336837
 20
330.6292376595586
 30
0.0
 10
321.3368089383645
 20
331.7114067470159
 30
0.0
 10
322.0984764864597
 20
333.6314661201795
 30
0.0
 10
321.3473164795946
 20
337.0632764559643
 30
0.0
 10
322.1983411918384
 20
337.1607511263501
 30
0.0
 10
322.9300794729054
 20
337.2426152078184
 30
0.0
 10
323.6613440533433
 20
337.3286995312561
 30
0.0
 10
325.5091640805506
 20
337.5462788429963
 30
0.0
 10
327.0997646660905
 20
338.2788999297815
 30
0.0
 10
328.1032348535566
 20
339.8892882825148
 30
0.0
 10
328.4619123572647
 20
340.4648991425597
 30
0.0
 10
328.7552191741402
 20
341.0729584957063
 30
0.0
 10
328.6037641638699
 20
341.6561916295123
 30
0.0
 10
328.4712571787684
 20
342.1663672071842
 30
0.0
 10
328.0822197710966
 20
342.316681029575
 30
0.0
 10
327.7761230372321
 20
342.6620087882778
 30
0.0
 10
326.923246586165
 20
343.6242670210016
 30
0.0
 10
327.3779130628308
 20
345.3551475883315
 30
0.0
 10
327.6308261351417
 20
346.3180948401524
 30
0.0
 10
328.4952867197781
 20
349.6091730253648
 30
0.0
 10
330.7857584531464
 20
351.9868487382035
 30
0.0
 10
330.9652479279279
 20
352.1687713116715
 30
0.0
 10
333.8561567406817
 20
355.0988250218765
 30
0.0
 10
337.0843404014416
 20
356.5037780244549
 30
0.0
 10
340.5624226759626
 20
357.8693277474208
 30
0.0
 10
349.1202982434846
 20
361.2292863104914
 30
0.0
 10
355.6898369516947
 20
362.9320893496165
 30
0.0
 10
357.6226862418474
 20
364.0747629265335
 30
0.0
 10
357.6367034741029
 20
364.1342769510412
 30
0.0
 10
357.6507637700522
 20
364.1938340392425
 30
0.0
 10
357.6648240660013
 20
364.253369595597
 30
0.0
 10
357.3534520296751
 20
364.4387803282438
 30
0.0
 10
357.0406158277676
 20
364.6222316628333
 30
0.0
 10
356.7261647373514
 20
364.8034436853574
 30
0.0
 10
343.3221164144221
 20
360.4064898493799
 30
0.0
 10
333.8754062117056
 20
356.2262971149648
 30
0.0
 10
331.3654818959268
 20
354.2319313385537
 30
0.0
 10
330.2875976459793
 20
353.3754160053803
 30
0.0
 10
327.7463229612848
 20
351.3561594140882
 30
0.0
 10
327.7463229612848
 20
348.6809566424046
 30
0.0
 10
327.7463229612848
 20
348.680913578711
 30
0.0
 10
327.7463229612848
 20
348.6808920468642
 30
0.0
 10
327.7463229612848
 20
348.6808920468642
 30
0.0
 10
327.1353783406693
 20
347.2639458056277
 30
0.0
 10
326.6858364435377
 20
345.747780814416
 30
0.0
 10
326.3892137222577
 20
344.2330369250921
 30
0.0
 10
326.0761406700356
 20
342.6340173874601
 30
0.0
 10
325.0925659089968
 20
342.0815963264003
 30
0.0
 10
323.6656934863934
 20
341.7583602424967
 30
0.0
 10
322.1155297091117
 20
341.4071542896223
 30
0.0
 10
320.617516064738
 20
340.8305314327786
 30
0.0
 10
319.0747592427495
 20
340.4390609264203
 30
0.0
 10
318.5787516202607
 20
340.3132072819748
 30
0.0
 10
318.0061767506122
 20
340.4215555349859
 30
0.0
 10
317.4818332177571
 20
340.5052282915839
 30
0.0
 10
317.2405042790153
 20
340.5437272336316
 30
0.0
 10
317.0498613076003
 20
340.8478861012856
 30
0.0
 10
316.8039245536471
 20
340.9176923485554
 30
0.0
 10
313.9844584085186
 20
341.7178803705451
 30
0.0
 10
314.0251966626317
 20
343.6485980078662
 30
0.0
 10
314.3577345043454
 20
346.1026902449372
 30
0.0
 10
315.2083285796536
 20
352.3791805184331
 30
0.0
 10
315.8646192695937
 20
358.7005000969309
 30
0.0
 10
314.6287343279539
 20
365.0132930641027
 30
0.0
 10
313.7470052021978
 20
369.5167649461148
 30
0.0
 10
311.6836513886945
 20
370.7927852501579
 30
0.0
 10
307.2470143590962
 20
369.610342352233
 30
0.0
 10
305.8039069240186
 20
369.2257189731516
 30
0.0
 10
304.3426696739499
 20
368.7580903247225
 30
0.0
 10
303.0304328036182
 20
368.0627839284119
 30
0.0
 10
299.6035963244399
 20
366.2469817573707
 30
0.0
 10
295.99968193732
 20
365.9296238676388
 30
0.0
 10
292.2408243807511
 20
366.3882952678063
 30
0.0
 10
288.3238369414091
 20
366.8662592026911
 30
0.0
 10
284.5301839204391
 20
366.7047272881265
 30
0.0
 10
281.1146301289753
 20
364.3296569287484
 30
0.0
 10
280.6535902256618
 20
364.0090692619992
 30
0.0
 10
279.8848171681283
 20
364.0781218946316
 30
0.0
 10
279.256001114683
 20
364.0605303758101
 30
0.0
 10
276.0630866189535
 20
363.9711516798146
 30
0.0
 10
272.8692677856591
 20
363.9126496521058
 30
0.0
 10
269.2841291689338
 20
363.8348550896794
 30
0.0
 10
267.4161553331378
 20
367.3549459972738
 30
0.0
 10
263.9981038474472
 20
370.0318713167001
 30
0.0
 10
259.8030972024456
 20
372.2691593885149
 30
0.0
 10
260.5190741716676
 20
372.5926753864266
 30
0.0
 10
260.9227532351518
 20
372.827695494061
 30
0.0
 10
261.3573950943096
 20
372.964013616043
 30
0.0
 10
291.4360070117032
 20
382.3964482043424
 30
0.0
 10
321.0186543703017
 20
381.4991084896687
 30
0.0
 10
349.8698648936879
 20
368.3271088795178
 30
0.0
 10
352.2265255240666
 20
367.2512055594742
 30
0.0
 10
354.5141981173532
 20
366.078215142287
 30
0.0
 10
356.7261647373514
 20
364.8034436853574
 30
0.0
 10
357.0611141459048
 20
364.9133422313369
 30
0.0
 10
357.3964080640068
 20
365.0232407773163
 30
0.0
 10
357.7362667336267
 20
365.1333331099169
 30
0.0
 10
358.1102533803973
 20
364.9861414053096
 30
0.0
 10
358.1911054650668
 20
364.83421269441
 30
0.0
 10
358.2061992896615
 20
364.7338312247086
 30
0.0
 10
358.2248243371287
 20
364.6096570643121
 30
0.0
 10
358.1504102746472
 20
364.4794324549697
 30
0.0
 10
357.9989767962238
 20
364.3417362947936
 30
0.0
 10
358.2160824073349
 20
364.1646583868518
 30
0.0
 10
358.4332095502927
 20
363.9875589470631
 30
0.0
 10
358.6502720977102
 20
363.8104379754277
 30
0.0
 10
358.6403459163433
 20
363.7651780334903
 30
0.0
 10
358.6303982031297
 20
363.7198534960124
 30
0.0
 10
358.6204720217629
 20
363.6745504903814
 30
0.0
 10
366.0256832354606
 20
359.1141484054755
 30
0.0
 10
372.5104941265802
 20
353.3319862704193
 30
0.0
 10
377.7418285572385
 20
346.0559015418781
 30
0.0
 10
381.8747588879653
 20
340.3075444062709
 30
0.0
 10
384.6812843931773
 20
333.9757172865431
 30
0.0
 10
385.656354074737
 20
326.9144127296604
 30
0.0
 10
385.7254067073694
 20
326.4138403556536
 30
0.0
 10
385.4359971547617
 20
325.4458331198388
 30
0.0
 10
385.1842037384835
 20
325.3996903721832
 30
0.0
  0
SPLINE
  5
84
330
1F
100
AcDbEntity
  8
_U+0421_U+043B_U+043E_U+0439 1
 62
     7
370
    35
100
AcDbSpline
210
0.0
220
0.0
230
1.0
 70
    11
 71
     3
 72
    14
 73
    10
 74
     0
 42
0.0000000001
 43
0.0000000001
 12
1.0
 22
0.0
 32
0.0
 13
1.0
 23
0.0
 33
0.0
 40
0.0
 40
0.0
 40
0.0
 40
0.0
 40
1.0
 40
1.0
 40
1.0
 40
2.0
 40
2.0
 40
2.0
 40
3.0
 40
3.0
 40
3.0
 40
3.0
 10
348.7718698988452
 20
321.5953144915154
 30
0.0
 10
349.0209072387352
 20
322.7594553196748
 30
0.0
 10
349.2339863944979
 20
323.7554539563073
 30
0.0
 10
349.4470224865671
 20
324.7514741247866
 30
0.0
 10
349.6013197006126
 20
324.7191548227656
 30
0.0
 10
349.7555738509647
 20
324.6868570525914
 30
0.0
 10
349.9099141287039
 20
324.6545162187236
 30
0.0
 10
349.9626240896283
 20
323.595773780566
 30
0.0
 10
351.2629753805358
 20
322.24441354463
 30
0.0
 10
348.7718698988452
 20
321.5953144915154
 30
0.0
  0
SPLINE
  5
85
330
1F
100
AcDbEntity
  8
_U+0421_U+043B_U+043E_U+0439 1
370
     0
100
AcDbSpline
210
0.0
220
0.0
230
1.0
 70
    11
 71
     3
 72
    17
 73
    13
 74
     0
 42
0.0000000001
 43
0.0000000001
 12
1.0
 22
0.0
 32
0.0
 13
1.0
 23
0.0
 33
0.0
 40
0.0
 40
0.0
 40
0.0
 40
0.0
 40
1.0
 40
1.0
 40
1.0
 40
2.0
 40
2.0
 40
2.0
 40
3.0
 40
3.0
 40
3.0
 40
4.0
 40
4.0
 40
4.0
 40
4.0
 10
451.4356894389633
 20
266.1108514557131
 30
0.0
 10
451.4118752164215
 20
266.0099532216889
 30
0.0
 10
451.3880609938797
 20
265.9090765195114
 30
0.0
 10
451.3642467713379
 20
265.8081567536404
 30
0.0
 10
451.4058247674756
 20
265.7833520661466
 30
0.0
 10
451.447811868702
 20
265.7591502703627
 30
0.0
 10
451.4893683329929
 20
265.7343025191753
 30
0.0
 10
451.5713831373886
 20
265.7897039609475
 30
0.0
 10
451.6402635152468
 20
265.843684300832
 30
0.0
 10
451.6983995015604
 20
265.896523452837
 30
0.0
 10
451.6108510125415
 20
265.9679876523092
 30
0.0
 10
451.5232809916758
 20
266.0394303199345
 30
0.0
 10
451.4356894389633
 20
266.1108514557131
 30
0.0
  0
HATCH
  5
86
330
1F
100
AcDbEntity
  8
_U+0421_U+043B_U+043E_U+0439 1
 62
     7
100
AcDbHatch
 10
0.0
 20
0.0
 30
0.0
210
0.0
220
0.0
230
1.0
  2
SOLID
 70
     1
 71
     0
 91
        1
 92
        1
 93
        1
 72
     4
 94
        3
 73
     0
 74
     1
 95
       17
 96
       13
 40
0.0
 40
0.0
 40
0.0
 40
0.0
 40
1.0
 40
1.0
 40
1.0
 40
2.0
 40
2.0
 40
2.0
 40
3.0
 40
3.0
 40
3.0
 40
4.0
 40
4.0
 40
4.0
 40
4.0
 10
451.4356894389633
 20
266.1108514557131
 10
451.4118752164215
 20
266.0099532216889
 10
451.3880609938797
 20
265.9090765195114
 10
451.3642467713379
 20
265.8081567536404
 10
451.4058247674756
 20
265.7833520661466
 10
451.447811868702
 20
265.7591502703627
 10
451.4893683329929
 20
265.7343025191753
 10
451.5713831373886
 20
265.7897039609475
 10
451.6402635152468
 20
265.843684300832
 10
451.6983995015604
 20
265.896523452837
 10
451.6108510125415
 20
265.9679876523092
 10
451.5232809916758
 20
266.0394303199345
 10
451.4356894389633
 20
266.1108514557131
 97
        0
 75
     2
 76
     1
 98
        0
  0
ENDSEC
  0
SECTION
  2
OBJECTS
  0
DICTIONARY
  5
C
330
0
100
AcDbDictionary
281
     1
  3
ACAD_GROUP
350
D
  3
ACAD_LAYOUT
350
1A
  3
ACAD_MATERIAL
350
3B
  3
ACAD_MLEADERSTYLE
350
A8
  3
ACAD_MLINESTYLE
350
17
  3
ACAD_PLOTSETTINGS
350
19
  3
ACAD_PLOTSTYLENAME
350
E
  3
ACAD_TABLESTYLE
350
A7
  3
ACAD_VISUALSTYLE
350
2A
  0
SUN
  5
3F
330
29
100
AcDbSun
 90
        1
290
     0
 63
     7
421
 16777215
 40
1.0
291
     1
 91
  2455826
 92
 54000000
292
     0
 70
     2
 71
   256
280
     1
  0
DICTIONARY
  5
D
102
{ACAD_REACTORS
330
C
102
}
330
C
100
AcDbDictionary
281
     1
  0
DICTIONARY
  5
1A
102
{ACAD_REACTORS
330
C
102
}
330
C
100
AcDbDictionary
281
     1
  3
Layout1
350
1E
  3
Layout2
350
26
  3
Model
350
22
  0
DICTIONARY
  5
3B
102
{ACAD_REACTORS
330
C
102
}
330
C
100
AcDbDictionary
281
     1
  3
ByBlock
350
3D
  3
ByLayer
350
3C
  3
Global
350
3E
  0
DICTIONARY
  5
A8
102
{ACAD_REACTORS
330
C
102
}
330
C
100
AcDbDictionary
281
     1
  0
DICTIONARY
  5
17
102
{ACAD_REACTORS
330
C
102
}
330
C
100
AcDbDictionary
281
     1
  3
Standard
350
18
  0
DICTIONARY
  5
19
102
{ACAD_REACTORS
330
C
102
}
330
C
100
AcDbDictionary
281
     1
  0
ACDBDICTIONARYWDFLT
  5
E
102
{ACAD_REACTORS
330
C
102
}
330
C
100
AcDbDictionary
281
     1
  3
Normal
350
F
100
AcDbDictionaryWithDefault
340
F
  0
DICTIONARY
  5
A7
102
{ACAD_REACTORS
330
C
102
}
330
C
100
AcDbDictionary
281
     1
  0
DICTIONARY
  5
2A
102
{ACAD_REACTORS
330
C
102
}
330
C
100
AcDbDictionary
281
     1
  3
2dWireframe
350
2F
  3
3D Hidden
350
31
  3
3dWireframe
350
30
  3
Basic
350
32
  3
Brighten
350
36
  3
ColorChange
350
3A
  3
Conceptual
350
34
  3
Dim
350
35
  3
Facepattern
350
39
  3
Flat
350
2B
  3
FlatWithEdges
350
2C
  3
Gouraud
350
2D
  3
GouraudWithEdges
350
2E
  3
Linepattern
350
38
  3
Realistic
350
33
  3
Thicken
350
37
  0
LAYOUT
  5
1E
102
{ACAD_REACTORS
330
1A
102
}
330
1A
100
AcDbPlotSettings
  1

  2
none_device
  4

  6

 40
0.0
 41
0.0
 42
0.0
 43
0.0
 44
0.0
 45
0.0
 46
0.0
 47
0.0
 48
0.0
 49
0.0
140
0.0
141
0.0
142
1.0
143
1.0
 70
   688
 72
     0
 73
     0
 74
     5
  7

 75
    16
 76
     0
 77
     2
 78
   300
147
1.0
148
0.0
149
0.0
100
AcDbLayout
  1
Layout1
 70
     1
 71
     1
 10
0.0
 20
0.0
 11
12.0
 21
9.0
 12
0.0
 22
0.0
 32
0.0
 14
1.000000000000000E+20
 24
1.000000000000000E+20
 34
1.000000000000000E+20
 15
-1.000000000000000E+20
 25
-1.000000000000000E+20
 35
-1.000000000000000E+20
146
0.0
 13
0.0
 23
0.0
 33
0.0
 16
1.0
 26
0.0
 36
0.0
 17
0.0
 27
1.0
 37
0.0
 76
     0
330
1B
  0
LAYOUT
  5
26
102
{ACAD_REACTORS
330
1A
102
}
330
1A
100
AcDbPlotSettings
  1

  2
none_device
  4

  6

 40
0.0
 41
0.0
 42
0.0
 43
0.0
 44
0.0
 45
0.0
 46
0.0
 47
0.0
 48
0.0
 49
0.0
140
0.0
141
0.0
142
1.0
143
1.0
 70
   688
 72
     0
 73
     0
 74
     5
  7

 75
    16
 76
     0
 77
     2
 78
   300
147
1.0
148
0.0
149
0.0
100
AcDbLayout
  1
Layout2
 70
     1
 71
     2
 10
0.0
 20
0.0
 11
0.0
 21
0.0
 12
0.0
 22
0.0
 32
0.0
 14
0.0
 24
0.0
 34
0.0
 15
0.0
 25
0.0
 35
0.0
146
0.0
 13
0.0
 23
0.0
 33
0.0
 16
1.0
 26
0.0
 36
0.0
 17
0.0
 27
1.0
 37
0.0
 76
     0
330
23
  0
LAYOUT
  5
22
102
{ACAD_REACTORS
330
1A
102
}
330
1A
100
AcDbPlotSettings
  1

  2
none_device
  4

  6

 40
0.0
 41
0.0
 42
0.0
 43
0.0
 44
0.0
 45
0.0
 46
0.0
 47
0.0
 48
0.0
 49
0.0
140
0.0
141
0.0
142
1.0
143
1.0
 70
  1712
 72
     0
 73
     0
 74
     0
  7

 75
     0
 76
     0
 77
     2
 78
   300
147
1.0
148
0.0
149
0.0
100
AcDbLayout
  1
Model
 70
     1
 71
     0
 10
0.0
 20
0.0
 11
12.0
 21
9.0
 12
0.0
 22
0.0
 32
0.0
 14
1.000000000000000E+20
 24
1.000000000000000E+20
 34
1.000000000000000E+20
 15
-1.000000000000000E+20
 25
-1.000000000000000E+20
 35
-1.000000000000000E+20
146
0.0
 13
0.0
 23
0.0
 33
0.0
 16
1.0
 26
0.0
 36
0.0
 17
0.0
 27
1.0
 37
0.0
 76
     0
330
1F
331
29
  0
MATERIAL
  5
3D
102
{ACAD_REACTORS
330
3B
102
}
330
3B
100
AcDbMaterial
  1
ByBlock
 72
     1
 94
      127
  0
MATERIAL
  5
3C
102
{ACAD_REACTORS
330
3B
102
}
330
3B
100
AcDbMaterial
  1
ByLayer
 72
     1
 94
      127
  0
MATERIAL
  5
3E
102
{ACAD_REACTORS
330
3B
102
}
330
3B
100
AcDbMaterial
  1
Global
 72
     1
 94
      127
  0
MLINESTYLE
  5
18
102
{ACAD_REACTORS
330
17
102
}
330
17
100
AcDbMlineStyle
  2
Standard
 70
     0
  3

 62
   256
 51
90.0
 52
90.0
 71
     2
 49
0.5
 62
   256
  6
BYLAYER
 49
-0.5
 62
   256
  6
BYLAYER
  0
ACDBPLACEHOLDER
  5
F
102
{ACAD_REACTORS
330
E
102
}
330
E
  0
VISUALSTYLE
  5
2F
102
{ACAD_REACTORS
330
2A
102
}
102
{ACAD_XDICTIONARY
360
8F
102
}
330
2A
100
AcDbVisualStyle
  2
2dWireframe
 70
     4
 71
     0
 72
     2
 73
     0
 90
        0
 40
-0.6
 41
-30.0
 62
     5
 63
     7
421
 16777215
 74
     1
 91
        4
 64
     7
 65
   257
 75
     1
175
     1
 42
1.0
 92
        0
 66
   257
 43
1.0
 76
     1
 77
     6
 78
     2
 67
     7
 79
     5
170
     0
171
     0
290
     0
174
     0
 93
        1
 44
0.0
173
     0
291
     0
 45
0.0
  0
VISUALSTYLE
  5
31
102
{ACAD_REACTORS
330
2A
102
}
102
{ACAD_XDICTIONARY
360
93
102
}
330
2A
100
AcDbVisualStyle
  2
3D Hidden
 70
     6
 71
     1
 72
     2
 73
     2
 90
        0
 40
-0.6
 41
-30.0
 62
     5
 63
     7
421
 16777215
 74
     2
 91
        2
 64
     7
 65
   257
 75
     2
175
     1
 42
40.0
 92
        0
 66
   257
 43
1.0
 76
     1
 77
     6
 78
     2
 67
     7
 79
     3
170
     0
171
     0
290
     0
174
     0
 93
        1
 44
0.0
173
     0
291
     0
 45
0.0
  0
VISUALSTYLE
  5
30
102
{ACAD_REACTORS
330
2A
102
}
102
{ACAD_XDICTIONARY
360
91
102
}
330
2A
100
AcDbVisualStyle
  2
3dWireframe
 70
     5
 71
     0
 72
     2
 73
     0
 90
        0
 40
-0.6
 41
-30.0
 62
     5
 63
     7
421
 16777215
 74
     1
 91
        4
 64
     7
 65
   257
 75
     1
175
     1
 42
1.0
 92
        0
 66
   257
 43
1.0
 76
     1
 77
     6
 78
     2
 67
     7
 79
     5
170
     0
171
     0
290
     0
174
     0
 93
        1
 44
0.0
173
     0
291
     0
 45
0.0
  0
VISUALSTYLE
  5
32
102
{ACAD_REACTORS
330
2A
102
}
102
{ACAD_XDICTIONARY
360
95
102
}
330
2A
100
AcDbVisualStyle
  2
Basic
 70
     7
 71
     1
 72
     0
 73
     1
 90
        0
 40
-0.6
 41
-30.0
 62
     5
 63
     7
421
 16777215
 74
     0
 91
        4
 64
     7
 65
   257
 75
     1
175
     1
 42
1.0
 92
        8
 66
     7
 43
1.0
 76
     1
 77
     6
 78
     2
 67
     7
 79
     5
170
     0
171
     0
290
     0
174
     0
 93
        1
 44
0.0
173
     0
291
     1
 45
0.0
  0
VISUALSTYLE
  5
36
102
{ACAD_REACTORS
330
2A
102
}
102
{ACAD_XDICTIONARY
360
9D
102
}
330
2A
100
AcDbVisualStyle
  2
Brighten
 70
    12
 71
     2
 72
     2
 73
     0
 90
        0
 40
-0.6
 41
-30.0
 62
     5
 63
     7
421
 16777215
 74
     1
 91
        4
 64
     7
 65
   257
 75
     1
175
     1
 42
1.0
 92
        8
 66
     7
 43
1.0
 76
     1
 77
     6
 78
     2
 67
     7
 79
     5
170
     0
171
     0
290
     0
174
     0
 93
        1
 44
50.0
173
     0
291
     1
 45
0.0
  0
VISUALSTYLE
  5
3A
102
{ACAD_REACTORS
330
2A
102
}
102
{ACAD_XDICTIONARY
360
A5
102
}
330
2A
100
AcDbVisualStyle
  2
ColorChange
 70
    16
 71
     2
 72
     2
 73
     3
 90
        0
 40
-0.6
 41
-30.0
 62
     5
 63
     8
421
  8421504
 74
     1
 91
        4
 64
     7
 65
   257
 75
     1
175
     1
 42
1.0
 92
        8
 66
     8
424
  8421504
 43
1.0
 76
     1
 77
     6
 78
     2
 67
     7
 79
     5
170
     0
171
     0
290
     0
174
     0
 93
        1
 44
0.0
173
     0
291
     1
 45
0.0
  0
VISUALSTYLE
  5
34
102
{ACAD_REACTORS
330
2A
102
}
102
{ACAD_XDICTIONARY
360
99
102
}
330
2A
100
AcDbVisualStyle
  2
Conceptual
 70
     9
 71
     3
 72
     2
 73
     0
 90
        0
 40
-0.6
 41
-30.0
 62
     5
 63
     7
421
 16777215
 74
     2
 91
        2
 64
     7
 65
   257
 75
     1
175
     1
 42
40.0
 92
        8
 66
     7
 43
1.0
 76
     1
 77
     6
 78
     2
 67
     7
 79
     3
170
     0
171
     0
290
     0
174
     0
 93
        1
 44
0.0
173
     0
291
     0
 45
0.0
  0
VISUALSTYLE
  5
35
102
{ACAD_REACTORS
330
2A
102
}
102
{ACAD_XDICTIONARY
360
9B
102
}
330
2A
100
AcDbVisualStyle
  2
Dim
 70
    11
 71
     2
 72
     2
 73
     0
 90
        0
 40
-0.6
 41
-30.0
 62
     5
 63
     7
421
 16777215
 74
     1
 91
        4
 64
     7
 65
   257
 75
     1
175
     1
 42
1.0
 92
        8
 66
     7
 43
1.0
 76
     1
 77
     6
 78
     2
 67
     7
 79
     5
170
     0
171
     0
290
     0
174
     0
 93
        1
 44
-50.0
173
     0
291
     1
 45
0.0
  0
VISUALSTYLE
  5
39
102
{ACAD_REACTORS
330
2A
102
}
102
{ACAD_XDICTIONARY
360
A3
102
}
330
2A
100
AcDbVisualStyle
  2
Facepattern
 70
    15
 71
     2
 72
     2
 73
     0
 90
        0
 40
-0.6
 41
-30.0
 62
     5
 63
     7
421
 16777215
 74
     1
 91
        4
 64
     7
 65
   257
 75
     1
175
     1
 42
1.0
 92
        8
 66
     7
 43
1.0
 76
     1
 77
     6
 78
     2
 67
     7
 79
     5
170
     0
171
     0
290
     0
174
     0
 93
        1
 44
0.0
173
     0
291
     1
 45
0.0
  0
VISUALSTYLE
  5
2B
102
{ACAD_REACTORS
330
2A
102
}
102
{ACAD_XDICTIONARY
360
87
102
}
330
2A
100
AcDbVisualStyle
  2
Flat
 70
     0
 71
     2
 72
     1
 73
     1
 90
        2
 40
-0.6
 41
30.0
 62
     5
 63
     7
421
 16777215
 74
     0
 91
        4
 64
     7
 65
   257
 75
     1
175
     1
 42
1.0
 92
        8
 66
     7
 43
1.0
 76
     1
 77
     6
 78
     2
 67
     7
 79
     5
170
     0
171
     0
290
     0
174
     0
 93
       13
 44
0.0
173
     0
291
     1
 45
0.0
  0
VISUALSTYLE
  5
2C
102
{ACAD_REACTORS
330
2A
102
}
102
{ACAD_XDICTIONARY
360
89
102
}
330
2A
100
AcDbVisualStyle
  2
FlatWithEdges
 70
     1
 71
     2
 72
     1
 73
     1
 90
        2
 40
-0.6
 41
30.0
 62
     5
 63
     7
421
 16777215
 74
     1
 91
        4
 64
     7
 65
   257
 75
     1
175
     1
 42
1.0
 92
        0
 66
   257
 43
1.0
 76
     1
 77
     6
 78
     2
 67
     7
 79
     5
170
     0
171
     0
290
     0
174
     0
 93
       13
 44
0.0
173
     0
291
     1
 45
0.0
  0
VISUALSTYLE
  5
2D
102
{ACAD_REACTORS
330
2A
102
}
102
{ACAD_XDICTIONARY
360
8B
102
}
330
2A
100
AcDbVisualStyle
  2
Gouraud
 70
     2
 71
     2
 72
     2
 73
     1
 90
        2
 40
-0.6
 41
30.0
 62
     5
 63
     7
421
 16777215
 74
     0
 91
        4
 64
     7
 65
   257
 75
     1
175
     1
 42
1.0
 92
        0
 66
     7
 43
1.0
 76
     1
 77
     6
 78
     2
 67
     7
 79
     5
170
     0
171
     0
290
     0
174
     0
 93
       13
 44
0.0
173
     0
291
     1
 45
0.0
  0
VISUALSTYLE
  5
2E
102
{ACAD_REACTORS
330
2A
102
}
102
{ACAD_XDICTIONARY
360
8D
102
}
330
2A
100
AcDbVisualStyle
  2
GouraudWithEdges
 70
     3
 71
     2
 72
     2
 73
     1
 90
        2
 40
-0.6
 41
30.0
 62
     5
 63
     7
421
 16777215
 74
     1
 91
        4
 64
     7
 65
   257
 75
     1
175
     1
 42
1.0
 92
        0
 66
   257
 43
1.0
 76
     1
 77
     6
 78
     2
 67
     7
 79
     5
170
     0
171
     0
290
     0
174
     0
 93
       13
 44
0.0
173
     0
291
     1
 45
0.0
  0
VISUALSTYLE
  5
38
102
{ACAD_REACTORS
330
2A
102
}
102
{ACAD_XDICTIONARY
360
A1
102
}
330
2A
100
AcDbVisualStyle
  2
Linepattern
 70
    14
 71
     2
 72
     2
 73
     0
 90
        0
 40
-0.6
 41
-30.0
 62
     5
 63
     7
421
 16777215
 74
     1
 91
        4
 64
     7
 65
   257
 75
     7
175
     7
 42
1.0
 92
        8
 66
     7
 43
1.0
 76
     1
 77
     6
 78
     2
 67
     7
 79
     5
170
     0
171
     0
290
     0
174
     0
 93
        1
 44
0.0
173
     0
291
     1
 45
0.0
  0
VISUALSTYLE
  5
33
102
{ACAD_REACTORS
330
2A
102
}
102
{ACAD_XDICTIONARY
360
97
102
}
330
2A
100
AcDbVisualStyle
  2
Realistic
 70
     8
 71
     2
 72
     2
 73
     0
 90
        0
 40
-0.6
 41
-30.0
 62
     5
 63
     7
421
 16777215
 74
     1
 91
        0
 64
     7
 65
   257
 75
     1
175
     1
 42
1.0
 92
        8
 66
     8
424
  7895160
 43
1.0
 76
     1
 77
     6
 78
     2
 67
     7
 79
     5
170
     0
171
     0
290
     0
174
     0
 93
       13
 44
0.0
173
     0
291
     0
 45
0.0
  0
VISUALSTYLE
  5
37
102
{ACAD_REACTORS
330
2A
102
}
102
{ACAD_XDICTIONARY
360
9F
102
}
330
2A
100
AcDbVisualStyle
  2
Thicken
 70
    13
 71
     2
 72
     2
 73
     0
 90
        0
 40
-0.6
 41
-30.0
 62
     5
 63
     7
421
 16777215
 74
     1
 91
        4
 64
     7
 65
   257
 75
     1
175
     1
 42
1.0
 92
       12
 66
     7
 43
1.0
 76
     1
 77
     6
 78
     2
 67
     7
 79
     5
170
     0
171
     0
290
     0
174
     0
 93
        1
 44
0.0
173
     0
291
     1
 45
0.0
  0
DICTIONARY
  5
8F
330
2F
100
AcDbDictionary
280
     1
281
     1
  3
ACAD_XREC_ROUNDTRIP
360
90
  0
DICTIONARY
  5
93
330
31
100
AcDbDictionary
280
     1
281
     1
  3
ACAD_XREC_ROUNDTRIP
360
94
  0
DICTIONARY
  5
91
330
30
100
AcDbDictionary
280
     1
281
     1
  3
ACAD_XREC_ROUNDTRIP
360
92
  0
DICTIONARY
  5
95
330
32
100
AcDbDictionary
280
     1
281
     1
  3
ACAD_XREC_ROUNDTRIP
360
96
  0
DICTIONARY
  5
9D
330
36
100
AcDbDictionary
280
     1
281
     1
  3
ACAD_XREC_ROUNDTRIP
360
9E
  0
DICTIONARY
  5
A5
330
3A
100
AcDbDictionary
280
     1
281
     1
  3
ACAD_XREC_ROUNDTRIP
360
A6
  0
DICTIONARY
  5
99
330
34
100
AcDbDictionary
280
     1
281
     1
  3
ACAD_XREC_ROUNDTRIP
360
9A
  0
DICTIONARY
  5
9B
330
35
100
AcDbDictionary
280
     1
281
     1
  3
ACAD_XREC_ROUNDTRIP
360
9C
  0
DICTIONARY
  5
A3
330
39
100
AcDbDictionary
280
     1
281
     1
  3
ACAD_XREC_ROUNDTRIP
360
A4
  0
DICTIONARY
  5
87
330
2B
100
AcDbDictionary
280
     1
281
     1
  3
ACAD_XREC_ROUNDTRIP
360
88
  0
DICTIONARY
  5
89
330
2C
100
AcDbDictionary
280
     1
281
     1
  3
ACAD_XREC_ROUNDTRIP
360
8A
  0
DICTIONARY
  5
8B
330
2D
100
AcDbDictionary
280
     1
281
     1
  3
ACAD_XREC_ROUNDTRIP
360
8C
  0
DICTIONARY
  5
8D
330
2E
100
AcDbDictionary
280
     1
281
     1
  3
ACAD_XREC_ROUNDTRIP
360
8E
  0
DICTIONARY
  5
A1
330
38
100
AcDbDictionary
280
     1
281
     1
  3
ACAD_XREC_ROUNDTRIP
360
A2
  0
DICTIONARY
  5
97
330
33
100
AcDbDictionary
280
     1
281
     1
  3
ACAD_XREC_ROUNDTRIP
360
98
  0
DICTIONARY
  5
9F
330
37
100
AcDbDictionary
280
     1
281
     1
  3
ACAD_XREC_ROUNDTRIP
360
A0
  0
XRECORD
  5
90
102
{ACAD_REACTORS
330
8F
102
}
330
8F
100
AcDbXrecord
280
     1
102
RTVSPropertyOp0
 70
     1
102
RTVSPropertyOp1
 70
     1
102
RTVSPropertyOp2
 70
     1
102
RTVSPropertyOp3
 70
     1
102
RTVSPropertyOp4
 70
     1
102
RTVSPropertyOp5
 70
     1
102
RTVSPropertyOp6
 70
     1
102
RTVSPropertyOp7
 70
     1
102
RTVSPropertyOp8
 70
     1
102
RTVSPropertyOp9
 70
     1
102
RTVSPropertyOp10
 70
     1
102
RTVSPropertyOp11
 70
     1
102
RTVSPropertyOp12
 70
     1
102
RTVSPropertyOp13
 70
     1
102
RTVSPropertyOp14
 70
     1
102
RTVSPropertyOp15
 70
     1
102
RTVSPropertyOp16
 70
     1
102
RTVSPropertyOp17
 70
     1
102
RTVSPropertyOp18
 70
     1
102
RTVSPropertyOp19
 70
     1
102
RTVSPropertyOp20
 70
     1
102
RTVSPropertyOp21
 70
     1
102
RTVSPropertyOp22
 70
     1
102
RTVSPropertyOp23
 70
     1
102
RTVSPropertyOp24
 70
     1
102
RTVSPropertyOp25
 70
     1
102
RTVSPropertyOp26
 70
     1
102
RTVSPropertyOp27
 70
     1
102
RTVSPropertyOp28
 70
     1
102
RTVSPropertyOp29
 70
     1
102
RTVSPropertyOp30
 70
     1
102
RTVSPropertyOp31
 70
     1
102
RTVSPropertyOp32
 70
     1
  0
XRECORD
  5
94
102
{ACAD_REACTORS
330
93
102
}
330
93
100
AcDbXrecord
280
     1
102
RTVSPropertyOp0
 70
     1
102
RTVSPropertyOp1
 70
     1
102
RTVSPropertyOp2
 70
     1
102
RTVSPropertyOp3
 70
     1
102
RTVSPropertyOp4
 70
     1
102
RTVSPropertyOp5
 70
     1
102
RTVSPropertyOp6
 70
     1
102
RTVSPropertyOp7
 70
     1
102
RTVSPropertyOp8
 70
     1
102
RTVSPropertyOp9
 70
     1
102
RTVSPropertyOp10
 70
     1
102
RTVSPropertyOp11
 70
     1
102
RTVSPropertyOp12
 70
     1
102
RTVSPropertyOp13
 70
     1
102
RTVSPropertyOp14
 70
     1
102
RTVSPropertyOp15
 70
     1
102
RTVSPropertyOp16
 70
     1
102
RTVSPropertyOp17
 70
     1
102
RTVSPropertyOp18
 70
     1
102
RTVSPropertyOp19
 70
     1
102
RTVSPropertyOp20
 70
     1
102
RTVSPropertyOp21
 70
     1
102
RTVSPropertyOp22
 70
     1
102
RTVSPropertyOp23
 70
     1
102
RTVSPropertyOp24
 70
     1
102
RTVSPropertyOp25
 70
     1
102
RTVSPropertyOp26
 70
     1
102
RTVSPropertyOp27
 70
     1
102
RTVSPropertyOp28
 70
     1
102
RTVSPropertyOp29
 70
     1
102
RTVSPropertyOp30
 70
     1
102
RTVSPropertyOp31
 70
     1
102
RTVSPropertyOp32
 70
     1
  0
XRECORD
  5
92
102
{ACAD_REACTORS
330
91
102
}
330
91
100
AcDbXrecord
280
     1
102
RTVSPropertyOp0
 70
     1
102
RTVSPropertyOp1
 70
     1
102
RTVSPropertyOp2
 70
     1
102
RTVSPropertyOp3
 70
     1
102
RTVSPropertyOp4
 70
     1
102
RTVSPropertyOp5
 70
     1
102
RTVSPropertyOp6
 70
     1
102
RTVSPropertyOp7
 70
     1
102
RTVSPropertyOp8
 70
     1
102
RTVSPropertyOp9
 70
     1
102
RTVSPropertyOp10
 70
     1
102
RTVSPropertyOp11
 70
     1
102
RTVSPropertyOp12
 70
     1
102
RTVSPropertyOp13
 70
     1
102
RTVSPropertyOp14
 70
     1
102
RTVSPropertyOp15
 70
     1
102
RTVSPropertyOp16
 70
     1
102
RTVSPropertyOp17
 70
     1
102
RTVSPropertyOp18
 70
     1
102
RTVSPropertyOp19
 70
     1
102
RTVSPropertyOp20
 70
     1
102
RTVSPropertyOp21
 70
     1
102
RTVSPropertyOp22
 70
     1
102
RTVSPropertyOp23
 70
     1
102
RTVSPropertyOp24
 70
     1
102
RTVSPropertyOp25
 70
     1
102
RTVSPropertyOp26
 70
     1
102
RTVSPropertyOp27
 70
     1
102
RTVSPropertyOp28
 70
     1
102
RTVSPropertyOp29
 70
     1
102
RTVSPropertyOp30
 70
     1
102
RTVSPropertyOp31
 70
     1
102
RTVSPropertyOp32
 70
     1
  0
XRECORD
  5
96
102
{ACAD_REACTORS
330
95
102
}
330
95
100
AcDbXrecord
280
     1
102
RTVSPropertyOp0
 70
     1
102
RTVSPropertyOp1
 70
     1
102
RTVSPropertyOp2
 70
     1
102
RTVSPropertyOp3
 70
     1
102
RTVSPropertyOp4
 70
     1
102
RTVSPropertyOp5
 70
     1
102
RTVSPropertyOp6
 70
     1
102
RTVSPropertyOp7
 70
     1
102
RTVSPropertyOp8
 70
     1
102
RTVSPropertyOp9
 70
     1
102
RTVSPropertyOp10
 70
     1
102
RTVSPropertyOp11
 70
     1
102
RTVSPropertyOp12
 70
     1
102
RTVSPropertyOp13
 70
     1
102
RTVSPropertyOp14
 70
     1
102
RTVSPropertyOp15
 70
     1
102
RTVSPropertyOp16
 70
     1
102
RTVSPropertyOp17
 70
     1
102
RTVSPropertyOp18
 70
     1
102
RTVSPropertyOp19
 70
     1
102
RTVSPropertyOp20
 70
     1
102
RTVSPropertyOp21
 70
     1
102
RTVSPropertyOp22
 70
     1
102
RTVSPropertyOp23
 70
     1
102
RTVSPropertyOp24
 70
     1
102
RTVSPropertyOp25
 70
     1
102
RTVSPropertyOp26
 70
     1
102
RTVSPropertyOp27
 70
     1
102
RTVSPropertyOp28
 70
     1
102
RTVSPropertyOp29
 70
     1
102
RTVSPropertyOp30
 70
     1
102
RTVSPropertyOp31
 70
     1
102
RTVSPropertyOp32
 70
     1
  0
XRECORD
  5
9E
102
{ACAD_REACTORS
330
9D
102
}
330
9D
100
AcDbXrecord
280
     1
102
RTVSPropertyOp0
 70
     1
102
RTVSPropertyOp1
 70
     1
102
RTVSPropertyOp2
 70
     1
102
RTVSPropertyOp3
 70
     1
102
RTVSPropertyOp4
 70
     1
102
RTVSPropertyOp5
 70
     1
102
RTVSPropertyOp6
 70
     1
102
RTVSPropertyOp7
 70
     1
102
RTVSPropertyOp8
 70
     1
102
RTVSPropertyOp9
 70
     1
102
RTVSPropertyOp10
 70
     1
102
RTVSPropertyOp11
 70
     1
102
RTVSPropertyOp12
 70
     1
102
RTVSPropertyOp13
 70
     1
102
RTVSPropertyOp14
 70
     1
102
RTVSPropertyOp15
 70
     1
102
RTVSPropertyOp16
 70
     1
102
RTVSPropertyOp17
 70
     1
102
RTVSPropertyOp18
 70
     1
102
RTVSPropertyOp19
 70
     1
102
RTVSPropertyOp20
 70
     1
102
RTVSPropertyOp21
 70
     1
102
RTVSPropertyOp22
 70
     1
102
RTVSPropertyOp23
 70
     1
102
RTVSPropertyOp24
 70
     1
102
RTVSPropertyOp25
 70
     1
102
RTVSPropertyOp26
 70
     1
102
RTVSPropertyOp27
 70
     1
102
RTVSPropertyOp28
 70
     1
102
RTVSPropertyOp29
 70
     1
102
RTVSPropertyOp30
 70
     1
102
RTVSPropertyOp31
 70
     1
102
RTVSPropertyOp32
 70
     1
  0
XRECORD
  5
A6
102
{ACAD_REACTORS
330
A5
102
}
330
A5
100
AcDbXrecord
280
     1
102
RTVSPropertyOp0
 70
     1
102
RTVSPropertyOp1
 70
     1
102
RTVSPropertyOp2
 70
     1
102
RTVSPropertyOp3
 70
     1
102
RTVSPropertyOp4
 70
     1
102
RTVSPropertyOp5
 70
     1
102
RTVSPropertyOp6
 70
     1
102
RTVSPropertyOp7
 70
     1
102
RTVSPropertyOp8
 70
     1
102
RTVSPropertyOp9
 70
     1
102
RTVSPropertyOp10
 70
     1
102
RTVSPropertyOp11
 70
     1
102
RTVSPropertyOp12
 70
     1
102
RTVSPropertyOp13
 70
     1
102
RTVSPropertyOp14
 70
     1
102
RTVSPropertyOp15
 70
     1
102
RTVSPropertyOp16
 70
     1
102
RTVSPropertyOp17
 70
     1
102
RTVSPropertyOp18
 70
     1
102
RTVSPropertyOp19
 70
     1
102
RTVSPropertyOp20
 70
     1
102
RTVSPropertyOp21
 70
     1
102
RTVSPropertyOp22
 70
     1
102
RTVSPropertyOp23
 70
     1
102
RTVSPropertyOp24
 70
     1
102
RTVSPropertyOp25
 70
     1
102
RTVSPropertyOp26
 70
     1
102
RTVSPropertyOp27
 70
     1
102
RTVSPropertyOp28
 70
     1
102
RTVSPropertyOp29
 70
     1
102
RTVSPropertyOp30
 70
     1
102
RTVSPropertyOp31
 70
     1
102
RTVSPropertyOp32
 70
     1
  0
XRECORD
  5
9A
102
{ACAD_REACTORS
330
99
102
}
330
99
100
AcDbXrecord
280
     1
102
RTVSPropertyOp0
 70
     1
102
RTVSPropertyOp1
 70
     1
102
RTVSPropertyOp2
 70
     1
102
RTVSPropertyOp3
 70
     1
102
RTVSPropertyOp4
 70
     1
102
RTVSPropertyOp5
 70
     1
102
RTVSPropertyOp6
 70
     1
102
RTVSPropertyOp7
 70
     1
102
RTVSPropertyOp8
 70
     1
102
RTVSPropertyOp9
 70
     1
102
RTVSPropertyOp10
 70
     1
102
RTVSPropertyOp11
 70
     1
102
RTVSPropertyOp12
 70
     1
102
RTVSPropertyOp13
 70
     1
102
RTVSPropertyOp14
 70
     1
102
RTVSPropertyOp15
 70
     1
102
RTVSPropertyOp16
 70
     1
102
RTVSPropertyOp17
 70
     1
102
RTVSPropertyOp18
 70
     1
102
RTVSPropertyOp19
 70
     1
102
RTVSPropertyOp20
 70
     1
102
RTVSPropertyOp21
 70
     1
102
RTVSPropertyOp22
 70
     1
102
RTVSPropertyOp23
 70
     1
102
RTVSPropertyOp24
 70
     1
102
RTVSPropertyOp25
 70
     1
102
RTVSPropertyOp26
 70
     1
102
RTVSPropertyOp27
 70
     1
102
RTVSPropertyOp28
 70
     1
102
RTVSPropertyOp29
 70
     1
102
RTVSPropertyOp30
 70
     1
102
RTVSPropertyOp31
 70
     1
102
RTVSPropertyOp32
 70
     1
  0
XRECORD
  5
9C
102
{ACAD_REACTORS
330
9B
102
}
330
9B
100
AcDbXrecord
280
     1
102
RTVSPropertyOp0
 70
     1
102
RTVSPropertyOp1
 70
     1
102
RTVSPropertyOp2
 70
     1
102
RTVSPropertyOp3
 70
     1
102
RTVSPropertyOp4
 70
     1
102
RTVSPropertyOp5
 70
     1
102
RTVSPropertyOp6
 70
     1
102
RTVSPropertyOp7
 70
     1
102
RTVSPropertyOp8
 70
     1
102
RTVSPropertyOp9
 70
     1
102
RTVSPropertyOp10
 70
     1
102
RTVSPropertyOp11
 70
     1
102
RTVSPropertyOp12
 70
     1
102
RTVSPropertyOp13
 70
     1
102
RTVSPropertyOp14
 70
     1
102
RTVSPropertyOp15
 70
     1
102
RTVSPropertyOp16
 70
     1
102
RTVSPropertyOp17
 70
     1
102
RTVSPropertyOp18
 70
     1
102
RTVSPropertyOp19
 70
     1
102
RTVSPropertyOp20
 70
     1
102
RTVSPropertyOp21
 70
     1
102
RTVSPropertyOp22
 70
     1
102
RTVSPropertyOp23
 70
     1
102
RTVSPropertyOp24
 70
     1
102
RTVSPropertyOp25
 70
     1
102
RTVSPropertyOp26
 70
     1
102
RTVSPropertyOp27
 70
     1
102
RTVSPropertyOp28
 70
     1
102
RTVSPropertyOp29
 70
     1
102
RTVSPropertyOp30
 70
     1
102
RTVSPropertyOp31
 70
     1
102
RTVSPropertyOp32
 70
     1
  0
XRECORD
  5
A4
102
{ACAD_REACTORS
330
A3
102
}
330
A3
100
AcDbXrecord
280
     1
102
RTVSPropertyOp0
 70
     1
102
RTVSPropertyOp1
 70
     1
102
RTVSPropertyOp2
 70
     1
102
RTVSPropertyOp3
 70
     1
102
RTVSPropertyOp4
 70
     1
102
RTVSPropertyOp5
 70
     1
102
RTVSPropertyOp6
 70
     1
102
RTVSPropertyOp7
 70
     1
102
RTVSPropertyOp8
 70
     1
102
RTVSPropertyOp9
 70
     1
102
RTVSPropertyOp10
 70
     1
102
RTVSPropertyOp11
 70
     1
102
RTVSPropertyOp12
 70
     1
102
RTVSPropertyOp13
 70
     1
102
RTVSPropertyOp14
 70
     1
102
RTVSPropertyOp15
 70
     1
102
RTVSPropertyOp16
 70
     1
102
RTVSPropertyOp17
 70
     1
102
RTVSPropertyOp18
 70
     1
102
RTVSPropertyOp19
 70
     1
102
RTVSPropertyOp20
 70
     1
102
RTVSPropertyOp21
 70
     1
102
RTVSPropertyOp22
 70
     1
102
RTVSPropertyOp23
 70
     1
102
RTVSPropertyOp24
 70
     1
102
RTVSPropertyOp25
 70
     1
102
RTVSPropertyOp26
 70
     1
102
RTVSPropertyOp27
 70
     1
102
RTVSPropertyOp28
 70
     1
102
RTVSPropertyOp29
 70
     1
102
RTVSPropertyOp30
 70
     1
102
RTVSPropertyOp31
 70
     1
102
RTVSPropertyOp32
 70
     1
  0
XRECORD
  5
88
102
{ACAD_REACTORS
330
87
102
}
330
87
100
AcDbXrecord
280
     1
102
RTVSPropertyOp0
 70
     1
102
RTVSPropertyOp1
 70
     1
102
RTVSPropertyOp2
 70
     1
102
RTVSPropertyOp3
 70
     1
102
RTVSPropertyOp4
 70
     1
102
RTVSPropertyOp5
 70
     1
102
RTVSPropertyOp6
 70
     1
102
RTVSPropertyOp7
 70
     1
102
RTVSPropertyOp8
 70
     1
102
RTVSPropertyOp9
 70
     1
102
RTVSPropertyOp10
 70
     1
102
RTVSPropertyOp11
 70
     1
102
RTVSPropertyOp12
 70
     1
102
RTVSPropertyOp13
 70
     1
102
RTVSPropertyOp14
 70
     1
102
RTVSPropertyOp15
 70
     1
102
RTVSPropertyOp16
 70
     1
102
RTVSPropertyOp17
 70
     1
102
RTVSPropertyOp18
 70
     1
102
RTVSPropertyOp19
 70
     1
102
RTVSPropertyOp20
 70
     1
102
RTVSPropertyOp21
 70
     1
102
RTVSPropertyOp22
 70
     1
102
RTVSPropertyOp23
 70
     1
102
RTVSPropertyOp24
 70
     1
102
RTVSPropertyOp25
 70
     1
102
RTVSPropertyOp26
 70
     1
102
RTVSPropertyOp27
 70
     1
102
RTVSPropertyOp28
 70
     1
102
RTVSPropertyOp29
 70
     1
102
RTVSPropertyOp30
 70
     1
102
RTVSPropertyOp31
 70
     1
102
RTVSPropertyOp32
 70
     1
  0
XRECORD
  5
8A
102
{ACAD_REACTORS
330
89
102
}
330
89
100
AcDbXrecord
280
     1
102
RTVSPropertyOp0
 70
     1
102
RTVSPropertyOp1
 70
     1
102
RTVSPropertyOp2
 70
     1
102
RTVSPropertyOp3
 70
     1
102
RTVSPropertyOp4
 70
     1
102
RTVSPropertyOp5
 70
     1
102
RTVSPropertyOp6
 70
     1
102
RTVSPropertyOp7
 70
     1
102
RTVSPropertyOp8
 70
     1
102
RTVSPropertyOp9
 70
     1
102
RTVSPropertyOp10
 70
     1
102
RTVSPropertyOp11
 70
     1
102
RTVSPropertyOp12
 70
     1
102
RTVSPropertyOp13
 70
     1
102
RTVSPropertyOp14
 70
     1
102
RTVSPropertyOp15
 70
     1
102
RTVSPropertyOp16
 70
     1
102
RTVSPropertyOp17
 70
     1
102
RTVSPropertyOp18
 70
     1
102
RTVSPropertyOp19
 70
     1
102
RTVSPropertyOp20
 70
     1
102
RTVSPropertyOp21
 70
     1
102
RTVSPropertyOp22
 70
     1
102
RTVSPropertyOp23
 70
     1
102
RTVSPropertyOp24
 70
     1
102
RTVSPropertyOp25
 70
     1
102
RTVSPropertyOp26
 70
     1
102
RTVSPropertyOp27
 70
     1
102
RTVSPropertyOp28
 70
     1
102
RTVSPropertyOp29
 70
     1
102
RTVSPropertyOp30
 70
     1
102
RTVSPropertyOp31
 70
     1
102
RTVSPropertyOp32
 70
     1
  0
XRECORD
  5
8C
102
{ACAD_REACTORS
330
8B
102
}
330
8B
100
AcDbXrecord
280
     1
102
RTVSPropertyOp0
 70
     1
102
RTVSPropertyOp1
 70
     1
102
RTVSPropertyOp2
 70
     1
102
RTVSPropertyOp3
 70
     1
102
RTVSPropertyOp4
 70
     1
102
RTVSPropertyOp5
 70
     1
102
RTVSPropertyOp6
 70
     1
102
RTVSPropertyOp7
 70
     1
102
RTVSPropertyOp8
 70
     1
102
RTVSPropertyOp9
 70
     1
102
RTVSPropertyOp10
 70
     1
102
RTVSPropertyOp11
 70
     1
102
RTVSPropertyOp12
 70
     1
102
RTVSPropertyOp13
 70
     1
102
RTVSPropertyOp14
 70
     1
102
RTVSPropertyOp15
 70
     1
102
RTVSPropertyOp16
 70
     1
102
RTVSPropertyOp17
 70
     1
102
RTVSPropertyOp18
 70
     1
102
RTVSPropertyOp19
 70
     1
102
RTVSPropertyOp20
 70
     1
102
RTVSPropertyOp21
 70
     1
102
RTVSPropertyOp22
 70
     1
102
RTVSPropertyOp23
 70
     1
102
RTVSPropertyOp24
 70
     1
102
RTVSPropertyOp25
 70
     1
102
RTVSPropertyOp26
 70
     1
102
RTVSPropertyOp27
 70
     1
102
RTVSPropertyOp28
 70
     1
102
RTVSPropertyOp29
 70
     1
102
RTVSPropertyOp30
 70
     1
102
RTVSPropertyOp31
 70
     1
102
RTVSPropertyOp32
 70
     1
  0
XRECORD
  5
8E
102
{ACAD_REACTORS
330
8D
102
}
330
8D
100
AcDbXrecord
280
     1
102
RTVSPropertyOp0
 70
     1
102
RTVSPropertyOp1
 70
     1
102
RTVSPropertyOp2
 70
     1
102
RTVSPropertyOp3
 70
     1
102
RTVSPropertyOp4
 70
     1
102
RTVSPropertyOp5
 70
     1
102
RTVSPropertyOp6
 70
     1
102
RTVSPropertyOp7
 70
     1
102
RTVSPropertyOp8
 70
     1
102
RTVSPropertyOp9
 70
     1
102
RTVSPropertyOp10
 70
     1
102
RTVSPropertyOp11
 70
     1
102
RTVSPropertyOp12
 70
     1
102
RTVSPropertyOp13
 70
     1
102
RTVSPropertyOp14
 70
     1
102
RTVSPropertyOp15
 70
     1
102
RTVSPropertyOp16
 70
     1
102
RTVSPropertyOp17
 70
     1
102
RTVSPropertyOp18
 70
     1
102
RTVSPropertyOp19
 70
     1
102
RTVSPropertyOp20
 70
     1
102
RTVSPropertyOp21
 70
     1
102
RTVSPropertyOp22
 70
     1
102
RTVSPropertyOp23
 70
     1
102
RTVSPropertyOp24
 70
     1
102
RTVSPropertyOp25
 70
     1
102
RTVSPropertyOp26
 70
     1
102
RTVSPropertyOp27
 70
     1
102
RTVSPropertyOp28
 70
     1
102
RTVSPropertyOp29
 70
     1
102
RTVSPropertyOp30
 70
     1
102
RTVSPropertyOp31
 70
     1
102
RTVSPropertyOp32
 70
     1
  0
XRECORD
  5
A2
102
{ACAD_REACTORS
330
A1
102
}
330
A1
100
AcDbXrecord
280
     1
102
RTVSPropertyOp0
 70
     1
102
RTVSPropertyOp1
 70
     1
102
RTVSPropertyOp2
 70
     1
102
RTVSPropertyOp3
 70
     1
102
RTVSPropertyOp4
 70
     1
102
RTVSPropertyOp5
 70
     1
102
RTVSPropertyOp6
 70
     1
102
RTVSPropertyOp7
 70
     1
102
RTVSPropertyOp8
 70
     1
102
RTVSPropertyOp9
 70
     1
102
RTVSPropertyOp10
 70
     1
102
RTVSPropertyOp11
 70
     1
102
RTVSPropertyOp12
 70
     1
102
RTVSPropertyOp13
 70
     1
102
RTVSPropertyOp14
 70
     1
102
RTVSPropertyOp15
 70
     1
102
RTVSPropertyOp16
 70
     1
102
RTVSPropertyOp17
 70
     1
102
RTVSPropertyOp18
 70
     1
102
RTVSPropertyOp19
 70
     1
102
RTVSPropertyOp20
 70
     1
102
RTVSPropertyOp21
 70
     1
102
RTVSPropertyOp22
 70
     1
102
RTVSPropertyOp23
 70
     1
102
RTVSPropertyOp24
 70
     1
102
RTVSPropertyOp25
 70
     1
102
RTVSPropertyOp26
 70
     1
102
RTVSPropertyOp27
 70
     1
102
RTVSPropertyOp28
 70
     1
102
RTVSPropertyOp29
 70
     1
102
RTVSPropertyOp30
 70
     1
102
RTVSPropertyOp31
 70
     1
102
RTVSPropertyOp32
 70
     1
  0
XRECORD
  5
98
102
{ACAD_REACTORS
330
97
102
}
330
97
100
AcDbXrecord
280
     1
102
RTVSPropertyOp0
 70
     1
102
RTVSPropertyOp1
 70
     1
102
RTVSPropertyOp2
 70
     1
102
RTVSPropertyOp3
 70
     1
102
RTVSPropertyOp4
 70
     1
102
RTVSPropertyOp5
 70
     1
102
RTVSPropertyOp6
 70
     1
102
RTVSPropertyOp7
 70
     1
102
RTVSPropertyOp8
 70
     1
102
RTVSPropertyOp9
 70
     1
102
RTVSPropertyOp10
 70
     1
102
RTVSPropertyOp11
 70
     1
102
RTVSPropertyOp12
 70
     1
102
RTVSPropertyOp13
 70
     1
102
RTVSPropertyOp14
 70
     1
102
RTVSPropertyOp15
 70
     1
102
RTVSPropertyOp16
 70
     1
102
RTVSPropertyOp17
 70
     1
102
RTVSPropertyOp18
 70
     1
102
RTVSPropertyOp19
 70
     1
102
RTVSPropertyOp20
 70
     1
102
RTVSPropertyOp21
 70
     1
102
RTVSPropertyOp22
 70
     1
102
RTVSPropertyOp23
 70
     1
102
RTVSPropertyOp24
 70
     1
102
RTVSPropertyOp25
 70
     1
102
RTVSPropertyOp26
 70
     1
102
RTVSPropertyOp27
 70
     1
102
RTVSPropertyOp28
 70
     1
102
RTVSPropertyOp29
 70
     1
102
RTVSPropertyOp30
 70
     1
102
RTVSPropertyOp31
 70
     1
102
RTVSPropertyOp32
 70
     1
  0
XRECORD
  5
A0
102
{ACAD_REACTORS
330
9F
102
}
330
9F
100
AcDbXrecord
280
     1
102
RTVSPropertyOp0
 70
     1
102
RTVSPropertyOp1
 70
     1
102
RTVSPropertyOp2
 70
     1
102
RTVSPropertyOp3
 70
     1
102
RTVSPropertyOp4
 70
     1
102
RTVSPropertyOp5
 70
     1
102
RTVSPropertyOp6
 70
     1
102
RTVSPropertyOp7
 70
     1
102
RTVSPropertyOp8
 70
     1
102
RTVSPropertyOp9
 70
     1
102
RTVSPropertyOp10
 70
     1
102
RTVSPropertyOp11
 70
     1
102
RTVSPropertyOp12
 70
     1
102
RTVSPropertyOp13
 70
     1
102
RTVSPropertyOp14
 70
     1
102
RTVSPropertyOp15
 70
     1
102
RTVSPropertyOp16
 70
     1
102
RTVSPropertyOp17
 70
     1
102
RTVSPropertyOp18
 70
     1
102
RTVSPropertyOp19
 70
     1
102
RTVSPropertyOp20
 70
     1
102
RTVSPropertyOp21
 70
     1
102
RTVSPropertyOp22
 70
     1
102
RTVSPropertyOp23
 70
     1
102
RTVSPropertyOp24
 70
     1
102
RTVSPropertyOp25
 70
     1
102
RTVSPropertyOp26
 70
     1
102
RTVSPropertyOp27
 70
     1
102
RTVSPropertyOp28
 70
     1
102
RTVSPropertyOp29
 70
     1
102
RTVSPropertyOp30
 70
     1
102
RTVSPropertyOp31
 70
     1
102
RTVSPropertyOp32
 70
     1
  0
ENDSEC
  0
EOF
