  0
SECTION
  2
HEADER
  9
$ACADVER
  1
AC1015
  9
$ACADMAINTVER
 70
     6
  9
$DWGCODEPAGE
  3
ANSI_1252
  9
$INSBASE
 10
0.0
 20
0.0
 30
0.0
  9
$EXTMIN
 10
1.000000000000000E+20
 20
1.000000000000000E+20
 30
1.000000000000000E+20
  9
$EXTMAX
 10
-1.000000000000000E+20
 20
-1.000000000000000E+20
 30
-1.000000000000000E+20
  9
$LIMMIN
 10
0.0
 20
0.0
  9
$LIMMAX
 10
12.0
 20
9.0
  9
$ORTHOMODE
 70
     0
  9
$REGENMODE
 70
     1
  9
$FILLMODE
 70
     1
  9
$QTEXTMODE
 70
     0
  9
$MIRRTEXT
 70
     1
  9
$LTSCALE
 40
1.0
  9
$ATTMODE
 70
     1
  9
$TEXTSIZE
 40
0.2
  9
$TRACEWID
 40
0.05
  9
$TEXTSTYLE
  7
Standard
  9
$CLAYER
  8
0
  9
$CELTYPE
  6
ByLayer
  9
$CECOLOR
 62
   256
  9
$CELTSCALE
 40
1.0
  9
$DISPSILH
 70
     0
  9
$DIMSCALE
 40
1.0
  9
$DIMASZ
 40
0.18
  9
$DIMEXO
 40
0.0625
  9
$DIMDLI
 40
0.38
  9
$DIMRND
 40
0.0
  9
$DIMDLE
 40
0.0
  9
$DIMEXE
 40
0.18
  9
$DIMTP
 40
0.0
  9
$DIMTM
 40
0.0
  9
$DIMTXT
 40
0.18
  9
$DIMCEN
 40
0.09
  9
$DIMTSZ
 40
0.0
  9
$DIMTOL
 70
     0
  9
$DIMLIM
 70
     0
  9
$DIMTIH
 70
     1
  9
$DIMTOH
 70
     1
  9
$DIMSE1
 70
     0
  9
$DIMSE2
 70
     0
  9
$DIMTAD
 70
     0
  9
$DIMZIN
 70
     0
  9
$DIMBLK
  1

  9
$DIMASO
 70
     1
  9
$DIMSHO
 70
     1
  9
$DIMPOST
  1

  9
$DIMAPOST
  1

  9
$DIMALT
 70
     0
  9
$DIMALTD
 70
     2
  9
$DIMALTF
 40
25.4
  9
$DIMLFAC
 40
1.0
  9
$DIMTOFL
 70
     0
  9
$DIMTVP
 40
0.0
  9
$DIMTIX
 70
     0
  9
$DIMSOXD
 70
     0
  9
$DIMSAH
 70
     0
  9
$DIMBLK1
  1

  9
$DIMBLK2
  1

  9
$DIMSTYLE
  2
Standard
  9
$DIMCLRD
 70
     0
  9
$DIMCLRE
 70
     0
  9
$DIMCLRT
 70
     0
  9
$DIMTFAC
 40
1.0
  9
$DIMGAP
 40
0.09
  9
$DIMJUST
 70
     0
  9
$DIMSD1
 70
     0
  9
$DIMSD2
 70
     0
  9
$DIMTOLJ
 70
     1
  9
$DIMTZIN
 70
     0
  9
$DIMALTZ
 70
     0
  9
$DIMALTTZ
 70
     0
  9
$DIMUPT
 70
     0
  9
$DIMDEC
 70
     4
  9
$DIMTDEC
 70
     4
  9
$DIMALTU
 70
     2
  9
$DIMALTTD
 70
     2
  9
$DIMTXSTY
  7
Standard
  9
$DIMAUNIT
 70
     0
  9
$DIMADEC
 70
     0
  9
$DIMALTRND
 40
0.0
  9
$DIMAZIN
 70
     0
  9
$DIMDSEP
 70
    46
  9
$DIMATFIT
 70
     3
  9
$DIMFRAC
 70
     0
  9
$DIMLDRBLK
  1

  9
$DIMLUNIT
 70
     2
  9
$DIMLWD
 70
    -2
  9
$DIMLWE
 70
    -2
  9
$DIMTMOVE
 70
     0
  9
$LUNITS
 70
     2
  9
$LUPREC
 70
     4
  9
$SKETCHINC
 40
0.1
  9
$FILLETRAD
 40
0.5
  9
$AUNITS
 70
     0
  9
$AUPREC
 70
     0
  9
$MENU
  1
.
  9
$ELEVATION
 40
0.0
  9
$PELEVATION
 40
0.0
  9
$THICKNESS
 40
0.0
  9
$LIMCHECK
 70
     0
  9
$CHAMFERA
 40
0.5
  9
$CHAMFERB
 40
0.5
  9
$CHAMFERC
 40
1.0
  9
$CHAMFERD
 40
0.0
  9
$SKPOLY
 70
     0
  9
$TDCREATE
 40
2458449.495824294
  9
$TDUCREATE
 40
2458449.704157627
  9
$TDUPDATE
 40
2458449.495824305
  9
$TDUUPDATE
 40
2458449.704157639
  9
$TDINDWG
 40
0.0000000116
  9
$TDUSRTIMER
 40
0.0000000116
  9
$USRTIMER
 70
     1
  9
$ANGBASE
 50
0.0
  9
$ANGDIR
 70
     0
  9
$PDMODE
 70
     0
  9
$PDSIZE
 40
0.0
  9
$PLINEWID
 40
0.0
  9
$SPLFRAME
 70
     0
  9
$SPLINETYPE
 70
     6
  9
$SPLINESEGS
 70
     8
  9
$HANDSEED
  5
6D
  9
$SURFTAB1
 70
     6
  9
$SURFTAB2
 70
     6
  9
$SURFTYPE
 70
     6
  9
$SURFU
 70
     6
  9
$SURFV
 70
     6
  9
$UCSBASE
  2

  9
$UCSNAME
  2

  9
$UCSORG
 10
0.0
 20
0.0
 30
0.0
  9
$UCSXDIR
 10
1.0
 20
0.0
 30
0.0
  9
$UCSYDIR
 10
0.0
 20
1.0
 30
0.0
  9
$UCSORTHOREF
  2

  9
$UCSORTHOVIEW
 70
     0
  9
$UCSORGTOP
 10
0.0
 20
0.0
 30
0.0
  9
$UCSORGBOTTOM
 10
0.0
 20
0.0
 30
0.0
  9
$UCSORGLEFT
 10
0.0
 20
0.0
 30
0.0
  9
$UCSORGRIGHT
 10
0.0
 20
0.0
 30
0.0
  9
$UCSORGFRONT
 10
0.0
 20
0.0
 30
0.0
  9
$UCSORGBACK
 10
0.0
 20
0.0
 30
0.0
  9
$PUCSBASE
  2

  9
$PUCSNAME
  2

  9
$PUCSORG
 10
0.0
 20
0.0
 30
0.0
  9
$PUCSXDIR
 10
1.0
 20
0.0
 30
0.0
  9
$PUCSYDIR
 10
0.0
 20
1.0
 30
0.0
  9
$PUCSORTHOREF
  2

  9
$PUCSORTHOVIEW
 70
     0
  9
$PUCSORGTOP
 10
0.0
 20
0.0
 30
0.0
  9
$PUCSORGBOTTOM
 10
0.0
 20
0.0
 30
0.0
  9
$PUCSORGLEFT
 10
0.0
 20
0.0
 30
0.0
  9
$PUCSORGRIGHT
 10
0.0
 20
0.0
 30
0.0
  9
$PUCSORGFRONT
 10
0.0
 20
0.0
 30
0.0
  9
$PUCSORGBACK
 10
0.0
 20
0.0
 30
0.0
  9
$USERI1
 70
     0
  9
$USERI2
 70
     0
  9
$USERI3
 70
     0
  9
$USERI4
 70
     0
  9
$USERI5
 70
     0
  9
$USERR1
 40
0.0
  9
$USERR2
 40
0.0
  9
$USERR3
 40
0.0
  9
$USERR4
 40
0.0
  9
$USERR5
 40
0.0
  9
$WORLDVIEW
 70
     1
  9
$SHADEDGE
 70
     3
  9
$SHADEDIF
 70
    70
  9
$TILEMODE
 70
     1
  9
$MAXACTVP
 70
    64
  9
$PINSBASE
 10
0.0
 20
0.0
 30
0.0
  9
$PLIMCHECK
 70
     0
  9
$PEXTMIN
 10
1.000000000000000E+20
 20
1.000000000000000E+20
 30
1.000000000000000E+20
  9
$PEXTMAX
 10
-1.000000000000000E+20
 20
-1.000000000000000E+20
 30
-1.000000000000000E+20
  9
$PLIMMIN
 10
0.0
 20
0.0
  9
$PLIMMAX
 10
12.0
 20
9.0
  9
$UNITMODE
 70
     0
  9
$VISRETAIN
 70
     1
  9
$PLINEGEN
 70
     0
  9
$PSLTSCALE
 70
     1
  9
$TREEDEPTH
 70
  3020
  9
$CMLSTYLE
  2
Standard
  9
$CMLJUST
 70
     0
  9
$CMLSCALE
 40
1.0
  9
$PROXYGRAPHICS
 70
     1
  9
$MEASUREMENT
 70
     0
  9
$CELWEIGHT
370
    -1
  9
$ENDCAPS
280
     0
  9
$JOINSTYLE
280
     0
  9
$LWDISPLAY
290
     1
  9
$INSUNITS
 70
     1
  9
$HYPERLINKBASE
  1

  9
$STYLESHEET
  1

  9
$XEDIT
290
     1
  9
$CEPSNTYPE
380
     0
  9
$PSTYLEMODE
290
     1
  9
$FINGERPRINTGUID
  2
{5037CEE1-9AA2-4C43-A942-E763B24904D1}
  9
$VERSIONGUID
  2
{FAEB1C32-E019-11D5-929B-00C0DF256EC4}
  9
$EXTNAMES
290
     1
  9
$PSVPSCALE
 40
0.0
  9
$OLESTARTUP
290
     0
  0
ENDSEC
  0
SECTION
  2
CLASSES
  0
CLASS
  1
ACDBDICTIONARYWDFLT
  2
AcDbDictionaryWithDefault
  3
ObjectDBX Classes
 90
        0
280
     0
281
     0
  0
CLASS
  1
VISUALSTYLE
  2
AcDbVisualStyle
  3
ObjectDBX Classes
 90
     4095
280
     0
281
     0
  0
CLASS
  1
ACDBPLACEHOLDER
  2
AcDbPlaceHolder
  3
ObjectDBX Classes
 90
        0
280
     0
281
     0
  0
CLASS
  1
LAYOUT
  2
AcDbLayout
  3
ObjectDBX Classes
 90
        0
280
     0
281
     0
  0
ENDSEC
  0
SECTION
  2
TABLES
  0
TABLE
  2
VPORT
  5
8
330
0
100
AcDbSymbolTable
 70
     1
  0
VPORT
  5
29
330
8
100
AcDbSymbolTableRecord
100
AcDbViewportTableRecord
  2
*Active
 70
     0
 10
0.0
 20
0.0
 11
1.0
 21
1.0
 12
0.0
 22
0.0
 13
0.0
 23
0.0
 14
0.5
 24
0.5
 15
0.5
 25
0.5
 16
0.0
 26
0.0
 36
1.0
 17
500.0
 27
-500.0
 37
0.0
 40
1000.0
 41
1.0
 42
50.0
 43
0.0
 44
0.0
 50
0.0
 51
0.0
 71
     0
 72
   100
 73
     1
 74
     3
 75
     0
 76
     0
 77
     0
 78
     0
281
     0
 65
     1
110
0.0
120
0.0
130
0.0
111
1.0
121
0.0
131
0.0
112
0.0
122
1.0
132
0.0
 79
     0
146
0.0
  0
ENDTAB
  0
TABLE
  2
LTYPE
  5
5
330
0
100
AcDbSymbolTable
 70
     1
  0
LTYPE
  5
14
330
5
100
AcDbSymbolTableRecord
100
AcDbLinetypeTableRecord
  2
ByBlock
 70
     0
  3

 72
    65
 73
     0
 40
0.0
  0
LTYPE
  5
15
330
5
100
AcDbSymbolTableRecord
100
AcDbLinetypeTableRecord
  2
ByLayer
 70
     0
  3

 72
    65
 73
     0
 40
0.0
  0
LTYPE
  5
16
330
5
100
AcDbSymbolTableRecord
100
AcDbLinetypeTableRecord
  2
Continuous
 70
     0
  3
Solid line
 72
    65
 73
     0
 40
0.0
  0
ENDTAB
  0
TABLE
  2
LAYER
  5
2
330
0
100
AcDbSymbolTable
 70
     2
  0
LAYER
  5
10
330
2
100
AcDbSymbolTableRecord
100
AcDbLayerTableRecord
  2
0
 70
     0
 62
     7
  6
Continuous
370
    -3
390
F
  0
LAYER
  5
3B
330
2
100
AcDbSymbolTableRecord
100
AcDbLayerTableRecord
  2
Layer 1
 70
     0
 62
     7
  6
Continuous
370
    -3
390
F
  0
ENDTAB
  0
TABLE
  2
STYLE
  5
3
330
0
100
AcDbSymbolTable
 70
     1
  0
STYLE
  5
11
330
3
100
AcDbSymbolTableRecord
100
AcDbTextStyleTableRecord
  2
Standard
 70
     0
 40
0.0
 41
1.0
 50
0.0
 71
     0
 42
0.2
  3
txt
  4

  0
ENDTAB
  0
TABLE
  2
VIEW
  5
6
330
0
100
AcDbSymbolTable
 70
     0
  0
ENDTAB
  0
TABLE
  2
UCS
  5
7
330
0
100
AcDbSymbolTable
 70
     0
  0
ENDTAB
  0
TABLE
  2
APPID
  5
9
330
0
100
AcDbSymbolTable
 70
     1
  0
APPID
  5
12
330
9
100
AcDbSymbolTableRecord
100
AcDbRegAppTableRecord
  2
ACAD
 70
     0
  0
ENDTAB
  0
TABLE
  2
DIMSTYLE
  5
A
330
0
100
AcDbSymbolTable
 70
     1
100
AcDbDimStyleTable
  0
DIMSTYLE
105
27
330
A
100
AcDbSymbolTableRecord
100
AcDbDimStyleTableRecord
  2
Standard
 70
     0
340
11
  0
ENDTAB
  0
TABLE
  2
BLOCK_RECORD
  5
1
330
0
100
AcDbSymbolTable
 70
     2
  0
BLOCK_RECORD
  5
1F
330
1
100
AcDbSymbolTableRecord
100
AcDbBlockTableRecord
  2
*Model_Space
340
22
  0
BLOCK_RECORD
  5
1B
330
1
100
AcDbSymbolTableRecord
100
AcDbBlockTableRecord
  2
*Paper_Space
340
1E
  0
BLOCK_RECORD
  5
23
330
1
100
AcDbSymbolTableRecord
100
AcDbBlockTableRecord
  2
*Paper_Space0
340
26
  0
BLOCK_RECORD
  5
3C
330
1
100
AcDbSymbolTableRecord
100
AcDbBlockTableRecord
  2
block 2
340
0
102
{BLKREFS
331
3D
102
}
  0
ENDTAB
  0
ENDSEC
  0
SECTION
  2
BLOCKS
  0
BLOCK
  5
20
330
1F
100
AcDbEntity
  8
0
100
AcDbBlockBegin
  2
*Model_Space
 70
     0
 71
     0
 10
0.0
 20
0.0
 30
0.0
  3
*Model_Space
  1

  0
ENDBLK
  5
21
330
1F
100
AcDbEntity
  8
0
100
AcDbBlockEnd
  0
BLOCK
  5
1C
330
1B
100
AcDbEntity
 67
     1
  8
0
100
AcDbBlockBegin
  2
*Paper_Space
 70
     0
 71
     0
 10
0.0
 20
0.0
 30
0.0
  3
*Paper_Space
  1

  0
ENDBLK
  5
1D
330
1B
100
AcDbEntity
 67
     1
  8
0
100
AcDbBlockEnd
  0
BLOCK
  5
24
330
23
100
AcDbEntity
  8
0
100
AcDbBlockBegin
  2
*Paper_Space0
 70
     0
 71
     0
 10
0.0
 20
0.0
 30
0.0
  3
*Paper_Space0
  1

  0
ENDBLK
  5
25
330
23
100
AcDbEntity
  8
0
100
AcDbBlockEnd
  0
BLOCK
  5
3E
330
3C
100
AcDbEntity
  8
0
100
AcDbBlockBegin
  2
block 2
 70
     0
 71
     0
 10
0.0
 20
0.0
 30
0.0
  3
block 2
  1

  0
SPLINE
  5
40
330
3C
100
AcDbEntity
  8
Layer 1
370
     0
100
AcDbSpline
210
0.0
220
0.0
230
1.0
 70
    11
 71
     3
 72
    29
 73
    25
 74
     0
 42
0.0000000001
 43
0.0000000001
 40
0.0
 40
0.0
 40
0.0
 40
0.0
 40
1.0
 40
1.0
 40
1.0
 40
2.0
 40
2.0
 40
2.0
 40
3.0
 40
3.0
 40
3.0
 40
4.0
 40
4.0
 40
4.0
 40
5.0
 40
5.0
 40
5.0
 40
6.0
 40
6.0
 40
6.0
 40
7.0
 40
7.0
 40
7.0
 40
8.0
 40
8.0
 40
8.0
 40
8.0
 10
458.56201171875
 20
-756.205078125
 30
0.0
 10
461.853515625
 20
-757.404296875
 30
0.0
 10
465.10400390625
 20
-758.6943359375
 30
0.0
 10
468.2490234375
 20
-760.046875
 30
0.0
 10
473.24658203125
 20
-757.4638671875
 30
0.0
 10
477.8349609375
 20
-754.5927734375
 30
0.0
 10
481.94384765625
 20
-751.4736328125
 30
0.0
 10
473.03662109375
 20
-749.2314453125
 30
0.0
 10
464.7666015625
 20
-745.5126953125
 30
0.0
 10
457.28369140625
 20
-740.369140625
 30
0.0
 10
439.95263671875
 20
-728.470703125
 30
0.0
 10
427.94482421875
 20
-703.1201171875
 30
0.0
 10
437.849609375
 20
-681.3095703125
 30
0.0
 10
438.83203125
 20
-679.142578125
 30
0.0
 10
440.0087890625
 20
-677.095703125
 30
0.0
 10
441.37353515625
 20
-675.17578125
 30
0.0
 10
441.37353515625
 20
-675.17578125
 30
0.0
 10
387.72119140625
 20
-675.17578125
 30
0.0
 10
387.72119140625
 20
-675.17578125
 30
0.0
 10
388.2236328125
 20
-700.451171875
 30
0.0
 10
389.271484375
 20
-722.216796875
 30
0.0
 10
390.8779296875
 20
-740.41796875
 30
0.0
 10
413.40869140625
 20
-743.716796875
 30
0.0
 10
436.23193359375
 20
-748.04296875
 30
0.0
 10
458.56201171875
 20
-756.205078125
 30
0.0
  0
SPLINE
  5
41
330
3C
100
AcDbEntity
  8
Layer 1
370
     0
100
AcDbSpline
210
0.0
220
0.0
230
1.0
 70
    11
 71
     3
 72
    20
 73
    16
 74
     0
 42
0.0000000001
 43
0.0000000001
 40
0.0
 40
0.0
 40
0.0
 40
0.0
 40
1.0
 40
1.0
 40
1.0
 40
2.0
 40
2.0
 40
2.0
 40
3.0
 40
3.0
 40
3.0
 40
4.0
 40
4.0
 40
4.0
 40
5.0
 40
5.0
 40
5.0
 40
5.0
 10
521.703125
 20
-725.1005859375
 30
0.0
 10
520.9677734375
 20
-727.94921875
 30
0.0
 10
520.03125
 20
-730.7568359375
 30
0.0
 10
518.8916015625
 20
-733.5048828125
 30
0.0
 10
541.8798828125
 20
-730.0595703125
 30
0.0
 10
562.5810546875
 20
-721.2158203125
 30
0.0
 10
580.23046875
 20
-712.5078125
 30
0.0
 10
575.109375
 20
-699.37109375
 30
0.0
 10
572.095703125
 20
-686.8427734375
 30
0.0
 10
571.248046875
 20
-675.17578125
 30
0.0
 10
571.248046875
 20
-675.17578125
 30
0.0
 10
511.74609375
 20
-675.17578125
 30
0.0
 10
511.74609375
 20
-675.17578125
 30
0.0
 10
522.294921875
 20
-688.296875
 30
0.0
 10
526.2919921875
 20
-707.248046875
 30
0.0
 10
521.703125
 20
-725.1005859375
 30
0.0
  0
SPLINE
  5
42
330
3C
100
AcDbEntity
  8
Layer 1
370
     0
100
AcDbSpline
210
0.0
220
0.0
230
1.0
 70
    11
 71
     3
 72
    23
 73
    19
 74
     0
 42
0.0000000001
 43
0.0000000001
 40
0.0
 40
0.0
 40
0.0
 40
0.0
 40
1.0
 40
1.0
 40
1.0
 40
2.0
 40
2.0
 40
2.0
 40
3.0
 40
3.0
 40
3.0
 40
4.0
 40
4.0
 40
4.0
 40
5.0
 40
5.0
 40
5.0
 40
6.0
 40
6.0
 40
6.0
 40
6.0
 10
497.65185546875
 20
-734.794921875
 30
0.0
 10
502.6513671875
 20
-726.9931640625
 30
0.0
 10
507.3974609375
 20
-715.3271484375
 30
0.0
 10
504.4208984375
 20
-701.4560546875
 30
0.0
 10
501.4140625
 20
-687.4052734375
 30
0.0
 10
488.69189453125
 20
-676.3984375
 30
0.0
 10
475.451171875
 20
-676.3984375
 30
0.0
 10
471.072265625
 20
-676.3984375
 30
0.0
 10
466.84716796875
 20
-677.59375
 30
0.0
 10
462.8994140625
 20
-679.9443359375
 30
0.0
 10
457.12646484375
 20
-683.3857421875
 30
0.0
 10
453.7861328125
 20
-688.435546875
 30
0.0
 10
452.96484375
 20
-694.962890625
 30
0.0
 10
451.84423828125
 20
-703.8779296875
 30
0.0
 10
455.904296875
 20
-714.7001953125
 30
0.0
 10
463.064453125
 20
-721.890625
 30
0.0
 10
470.9375
 20
-729.8046875
 30
0.0
 10
482.56640625
 20
-734.138671875
 30
0.0
 10
497.65185546875
 20
-734.794921875
 30
0.0
  0
SPLINE
  5
43
330
3C
100
AcDbEntity
  8
Layer 1
370
     0
100
AcDbSpline
210
0.0
220
0.0
230
1.0
 70
    11
 71
     3
 72
    14
 73
    10
 74
     0
 42
0.0000000001
 43
0.0000000001
 40
0.0
 40
0.0
 40
0.0
 40
0.0
 40
1.0
 40
1.0
 40
1.0
 40
2.0
 40
2.0
 40
2.0
 40
3.0
 40
3.0
 40
3.0
 40
3.0
 10
440.74365234375
 20
-770.1171875
 30
0.0
 10
426.0439453125
 20
-763.7919921875
 30
0.0
 10
409.85107421875
 20
-758.798828125
 30
0.0
 10
392.388671875
 20
-755.1025390625
 30
0.0
 10
393.1328125
 20
-761.3779296875
 30
0.0
 10
393.9609375
 20
-767.1103515625
 30
0.0
 10
394.8701171875
 20
-772.3212890625
 30
0.0
 10
409.03564453125
 20
-774.521484375
 30
0.0
 10
425.24951171875
 20
-773.7978515625
 30
0.0
 10
440.74365234375
 20
-770.1171875
 30
0.0
  0
SPLINE
  5
44
330
3C
100
AcDbEntity
  8
Layer 1
370
     0
100
AcDbSpline
210
0.0
220
0.0
230
1.0
 70
    11
 71
     3
 72
    65
 73
    61
 74
     0
 42
0.0000000001
 43
0.0000000001
 40
0.0
 40
0.0
 40
0.0
 40
0.0
 40
1.0
 40
1.0
 40
1.0
 40
2.0
 40
2.0
 40
2.0
 40
3.0
 40
3.0
 40
3.0
 40
4.0
 40
4.0
 40
4.0
 40
5.0
 40
5.0
 40
5.0
 40
6.0
 40
6.0
 40
6.0
 40
7.0
 40
7.0
 40
7.0
 40
8.0
 40
8.0
 40
8.0
 40
9.0
 40
9.0
 40
9.0
 40
10.0
 40
10.0
 40
10.0
 40
11.0
 40
11.0
 40
11.0
 40
12.0
 40
12.0
 40
12.0
 40
13.0
 40
13.0
 40
13.0
 40
14.0
 40
14.0
 40
14.0
 40
15.0
 40
15.0
 40
15.0
 40
16.0
 40
16.0
 40
16.0
 40
17.0
 40
17.0
 40
17.0
 40
18.0
 40
18.0
 40
18.0
 40
19.0
 40
19.0
 40
19.0
 40
20.0
 40
20.0
 40
20.0
 40
20.0
 10
219.32275390625
 20
-826.0732421875
 30
0.0
 10
221.34912109375
 20
-824.2509765625
 30
0.0
 10
223.79150390625
 20
-823.212890625
 30
0.0
 10
226.39306640625
 20
-823.212890625
 30
0.0
 10
227.1953125
 20
-823.212890625
 30
0.0
 10
227.984375
 20
-823.3701171875
 30
0.0
 10
228.76806640625
 20
-823.5458984375
 30
0.0
 10
236.16650390625
 20
-821.146484375
 30
0.0
 10
241.91552734375
 20
-818.125
 30
0.0
 10
245.93408203125
 20
-814.447265625
 30
0.0
 10
248.9462890625
 20
-811.6884765625
 30
0.0
 10
251.65673828125
 20
-808.7265625
 30
0.0
 10
254.09765625
 20
-805.5849609375
 30
0.0
 10
253.4677734375
 20
-804.6103515625
 30
0.0
 10
252.91845703125
 20
-803.568359375
 30
0.0
 10
252.5380859375
 20
-802.4287109375
 30
0.0
 10
250.5283203125
 20
-796.4228515625
 30
0.0
 10
252.6767578125
 20
-790.1318359375
 30
0.0
 10
258.142578125
 20
-786.015625
 30
0.0
 10
260.6240234375
 20
-784.15234375
 30
0.0
 10
263.3251953125
 20
-782.7470703125
 30
0.0
 10
266.13330078125
 20
-781.6826171875
 30
0.0
 10
266.84375
 20
-779.23828125
 30
0.0
 10
267.48828125
 20
-776.7490234375
 30
0.0
 10
267.98876953125
 20
-774.162109375
 30
0.0
 10
269.87109375
 20
-764.3994140625
 30
0.0
 10
271.18310546875
 20
-745.490234375
 30
0.0
 10
271.9365234375
 20
-717.568359375
 30
0.0
 10
265.033203125
 20
-710.09375
 30
0.0
 10
258.787109375
 20
-700.59375
 30
0.0
 10
256.1552734375
 20
-690.2392578125
 30
0.0
 10
252.328125
 20
-693.1630859375
 30
0.0
 10
249.119140625
 20
-696.1923828125
 30
0.0
 10
246.42333984375
 20
-699.4091796875
 30
0.0
 10
232.6689453125
 20
-715.859375
 30
0.0
 10
237.06640625
 20
-729.6591796875
 30
0.0
 10
243.158203125
 20
-748.751953125
 30
0.0
 10
244.28662109375
 20
-752.283203125
 30
0.0
 10
243.7841796875
 20
-755.7626953125
 30
0.0
 10
241.75244140625
 20
-758.5400390625
 30
0.0
 10
239.54052734375
 20
-761.5732421875
 30
0.0
 10
235.802734375
 20
-763.3798828125
 30
0.0
 10
231.7578125
 20
-763.3798828125
 30
0.0
 10
228.81103515625
 20
-763.3798828125
 30
0.0
 10
225.9921875
 20
-762.375
 30
0.0
 10
223.8173828125
 20
-760.5458984375
 30
0.0
 10
206.6962890625
 20
-746.1728515625
 30
0.0
 10
210.0966796875
 20
-719.705078125
 30
0.0
 10
221.984375
 20
-702.1005859375
 30
0.0
 10
222.16064453125
 20
-701.837890625
 30
0.0
 10
222.3408203125
 20
-701.576171875
 30
0.0
 10
222.5166015625
 20
-701.3212890625
 30
0.0
 10
194.0361328125
 20
-721.107421875
 30
0.0
 10
175.60693359375
 20
-748.7294921875
 30
0.0
 10
170.6884765625
 20
-780.0625
 30
0.0
 10
168.01171875
 20
-797.1123046875
 30
0.0
 10
170.4765625
 20
-814.9345703125
 30
0.0
 10
177.39892578125
 20
-830.2412109375
 30
0.0
 10
194.1640625
 20
-829.904296875
 30
0.0
 10
208.12841796875
 20
-828.513671875
 30
0.0
 10
219.32275390625
 20
-826.0732421875
 30
0.0
  0
SPLINE
  5
45
330
3C
100
AcDbEntity
  8
Layer 1
370
     0
100
AcDbSpline
210
0.0
220
0.0
230
1.0
 70
    11
 71
     3
 72
    14
 73
    10
 74
     0
 42
0.0000000001
 43
0.0000000001
 40
0.0
 40
0.0
 40
0.0
 40
0.0
 40
1.0
 40
1.0
 40
1.0
 40
2.0
 40
2.0
 40
2.0
 40
3.0
 40
3.0
 40
3.0
 40
3.0
 10
272.56640625
 20
-680.125
 30
0.0
 10
271.0986328125
 20
-680.8896484375
 30
0.0
 10
269.6328125
 20
-681.6396484375
 30
0.0
 10
268.15576171875
 20
-682.4677734375
 30
0.0
 10
269.20166015625
 20
-687.0
 30
0.0
 10
270.59814453125
 20
-691.1083984375
 30
0.0
 10
272.4013671875
 20
-694.8955078125
 30
0.0
 10
272.46875
 20
-690.1826171875
 30
0.0
 10
272.521484375
 20
-685.2158203125
 30
0.0
 10
272.56640625
 20
-680.125
 30
0.0
  0
SPLINE
  5
46
330
3C
100
AcDbEntity
  8
Layer 1
370
     0
100
AcDbSpline
210
0.0
220
0.0
230
1.0
 70
    11
 71
     3
 72
    20
 73
    16
 74
     0
 42
0.0000000001
 43
0.0000000001
 40
0.0
 40
0.0
 40
0.0
 40
0.0
 40
1.0
 40
1.0
 40
1.0
 40
2.0
 40
2.0
 40
2.0
 40
3.0
 40
3.0
 40
3.0
 40
4.0
 40
4.0
 40
4.0
 40
5.0
 40
5.0
 40
5.0
 40
5.0
 10
598.67578125
 20
-703.015625
 30
0.0
 10
601.501953125
 20
-701.515625
 30
0.0
 10
604.3212890625
 20
-700.0048828125
 30
0.0
 10
607.1474609375
 20
-698.494140625
 30
0.0
 10
622.4580078125
 20
-690.306640625
 30
0.0
 10
638.1435546875
 20
-681.9169921875
 30
0.0
 10
654.443359375
 20
-675.17578125
 30
0.0
 10
654.443359375
 20
-675.17578125
 30
0.0
 10
590.375
 20
-675.17578125
 30
0.0
 10
590.375
 20
-675.17578125
 30
0.0
 10
590.375
 20
-675.17578125
 30
0.0
 10
590.8251953125
 20
-676.7353515625
 30
0.0
 10
590.8251953125
 20
-676.7353515625
 30
0.0
 10
593.2919921875
 20
-685.376953125
 30
0.0
 10
595.826171875
 20
-694.265625
 30
0.0
 10
598.67578125
 20
-703.015625
 30
0.0
  0
SPLINE
  5
47
330
3C
100
AcDbEntity
  8
Layer 1
370
     0
100
AcDbSpline
210
0.0
220
0.0
230
1.0
 70
    11
 71
     3
 72
    20
 73
    16
 74
     0
 42
0.0000000001
 43
0.0000000001
 40
0.0
 40
0.0
 40
0.0
 40
0.0
 40
1.0
 40
1.0
 40
1.0
 40
2.0
 40
2.0
 40
2.0
 40
3.0
 40
3.0
 40
3.0
 40
4.0
 40
4.0
 40
4.0
 40
5.0
 40
5.0
 40
5.0
 40
5.0
 10
387.3759765625
 20
-461.322265625
 30
0.0
 10
388.0380859375
 20
-460.98681640625
 30
0.0
 10
388.6826171875
 20
-460.66259765625
 30
0.0
 10
389.35009765625
 20
-460.3251953125
 30
0.0
 10
391.74169921875
 20
-459.1123046875
 30
0.0
 10
394.16748046875
 20
-457.8828125
 30
0.0
 10
396.623046875
 20
-456.6474609375
 30
0.0
 10
395.6611328125
 20
-454.27978515625
 30
0.0
 10
394.67529296875
 20
-452.02294921875
 30
0.0
 10
393.67626953125
 20
-449.81689453125
 30
0.0
 10
393.67626953125
 20
-449.81689453125
 30
0.0
 10
387.3759765625
 20
-449.81689453125
 30
0.0
 10
387.3759765625
 20
-449.81689453125
 30
0.0
 10
387.3759765625
 20
-449.81689453125
 30
0.0
 10
387.3759765625
 20
-461.322265625
 30
0.0
 10
387.3759765625
 20
-461.322265625
 30
0.0
  0
SPLINE
  5
48
330
3C
100
AcDbEntity
  8
Layer 1
370
     0
100
AcDbSpline
210
0.0
220
0.0
230
1.0
 70
    11
 71
     3
 72
    14
 73
    10
 74
     0
 42
0.0000000001
 43
0.0000000001
 40
0.0
 40
0.0
 40
0.0
 40
0.0
 40
1.0
 40
1.0
 40
1.0
 40
2.0
 40
2.0
 40
2.0
 40
3.0
 40
3.0
 40
3.0
 40
3.0
 10
561.61328125
 20
-407.4375
 30
0.0
 10
561.43359375
 20
-407.478515625
 30
0.0
 10
561.24609375
 20
-407.5068359375
 30
0.0
 10
561.06640625
 20
-407.5498046875
 30
0.0
 10
561.1337890625
 20
-407.580078125
 30
0.0
 10
561.208984375
 20
-407.6064453125
 30
0.0
 10
561.2763671875
 20
-407.63427734375
 30
0.0
 10
561.388671875
 20
-407.56884765625
 30
0.0
 10
561.5009765625
 20
-407.5029296875
 30
0.0
 10
561.61328125
 20
-407.4375
 30
0.0
  0
SPLINE
  5
49
330
3C
100
AcDbEntity
  8
Layer 1
370
     0
100
AcDbSpline
210
0.0
220
0.0
230
1.0
 70
    11
 71
     3
 72
    20
 73
    16
 74
     0
 42
0.0000000001
 43
0.0000000001
 40
0.0
 40
0.0
 40
0.0
 40
0.0
 40
1.0
 40
1.0
 40
1.0
 40
2.0
 40
2.0
 40
2.0
 40
3.0
 40
3.0
 40
3.0
 40
4.0
 40
4.0
 40
4.0
 40
5.0
 40
5.0
 40
5.0
 40
5.0
 10
565.587890625
 20
-466.5595703125
 30
0.0
 10
568.421875
 20
-476.1923828125
 30
0.0
 10
568.3837890625
 20
-486.62353515625
 30
0.0
 10
563.9677734375
 20
-496.357421875
 30
0.0
 10
562.978515625
 20
-498.5244140625
 30
0.0
 10
561.80078125
 20
-500.5732421875
 30
0.0
 10
560.4443359375
 20
-502.4921875
 30
0.0
 10
560.4443359375
 20
-502.4921875
 30
0.0
 10
585.7265625
 20
-502.4921875
 30
0.0
 10
585.7265625
 20
-502.4921875
 30
0.0
 10
584.2080078125
 20
-495.8193359375
 30
0.0
 10
582.3974609375
 20
-490.2880859375
 30
0.0
 10
580.275390625
 20
-485.986328125
 30
0.0
 10
576.3466796875
 20
-478.025390625
 30
0.0
 10
571.427734375
 20
-471.5771484375
 30
0.0
 10
565.587890625
 20
-466.5595703125
 30
0.0
  0
SPLINE
  5
4A
330
3C
100
AcDbEntity
  8
Layer 1
370
     0
100
AcDbSpline
210
0.0
220
0.0
230
1.0
 70
    11
 71
     3
 72
    35
 73
    31
 74
     0
 42
0.0000000001
 43
0.0000000001
 40
0.0
 40
0.0
 40
0.0
 40
0.0
 40
1.0
 40
1.0
 40
1.0
 40
2.0
 40
2.0
 40
2.0
 40
3.0
 40
3.0
 40
3.0
 40
4.0
 40
4.0
 40
4.0
 40
5.0
 40
5.0
 40
5.0
 40
6.0
 40
6.0
 40
6.0
 40
7.0
 40
7.0
 40
7.0
 40
8.0
 40
8.0
 40
8.0
 40
9.0
 40
9.0
 40
9.0
 40
10.0
 40
10.0
 40
10.0
 40
10.0
 10
236.69140625
 20
-500.25830078125
 30
0.0
 10
218.68896484375
 20
-484.9365234375
 30
0.0
 10
212.1171875
 20
-458.951171875
 30
0.0
 10
220.3388671875
 20
-435.59716796875
 30
0.0
 10
227.9677734375
 20
-413.955078125
 30
0.0
 10
248.52294921875
 20
-398.2470703125
 30
0.0
 10
269.216796875
 20
-398.2470703125
 30
0.0
 10
270.375
 20
-398.2470703125
 30
0.0
 10
271.53515625
 20
-398.33154296875
 30
0.0
 10
272.69384765625
 20
-398.42529296875
 30
0.0
 10
272.69384765625
 20
-398.42529296875
 30
0.0
 10
272.69384765625
 20
-389.02099609375
 30
0.0
 10
272.69384765625
 20
-389.02099609375
 30
0.0
 10
253.7373046875
 20
-394.880859375
 30
0.0
 10
236.7998046875
 20
-407.0234375
 30
0.0
 10
222.7041015625
 20
-424.96728515625
 30
0.0
 10
216.48095703125
 20
-432.888671875
 30
0.0
 10
210.6591796875
 20
-441.44384765625
 30
0.0
 10
205.0283203125
 20
-449.7177734375
 30
0.0
 10
193.0693359375
 20
-467.2939453125
 30
0.0
 10
180.705078125
 20
-485.46875
 30
0.0
 10
163.5390625
 20
-499.0830078125
 30
0.0
 10
162.046875
 20
-500.263671875
 30
0.0
 10
160.52880859375
 20
-501.3994140625
 30
0.0
 10
158.99169921875
 20
-502.4921875
 30
0.0
 10
158.99169921875
 20
-502.4921875
 30
0.0
 10
239.48046875
 20
-502.4921875
 30
0.0
 10
239.48046875
 20
-502.4921875
 30
0.0
 10
238.5283203125
 20
-501.7724609375
 30
0.0
 10
237.5986328125
 20
-501.0283203125
 30
0.0
 10
236.69140625
 20
-500.25830078125
 30
0.0
  0
SPLINE
  5
4B
330
3C
100
AcDbEntity
  8
Layer 1
370
     0
100
AcDbSpline
210
0.0
220
0.0
230
1.0
 70
    11
 71
     3
 72
    20
 73
    16
 74
     0
 42
0.0000000001
 43
0.0000000001
 40
0.0
 40
0.0
 40
0.0
 40
0.0
 40
1.0
 40
1.0
 40
1.0
 40
2.0
 40
2.0
 40
2.0
 40
3.0
 40
3.0
 40
3.0
 40
4.0
 40
4.0
 40
4.0
 40
5.0
 40
5.0
 40
5.0
 40
5.0
 10
261.54638671875
 20
-425.4267578125
 30
0.0
 10
253.54638671875
 20
-428.3466796875
 30
0.0
 10
247.345703125
 20
-434.9091796875
 30
0.0
 10
244.083984375
 20
-443.90478515625
 30
0.0
 10
238.00341796875
 20
-460.65869140625
 30
0.0
 10
244.4814453125
 20
-478.2880859375
 30
0.0
 10
259.8369140625
 20
-486.779296875
 30
0.0
 10
263.80712890625
 20
-488.97412109375
 30
0.0
 10
268.11083984375
 20
-490.64794921875
 30
0.0
 10
272.69384765625
 20
-491.84375
 30
0.0
 10
272.69384765625
 20
-491.84375
 30
0.0
 10
272.69384765625
 20
-423.8330078125
 30
0.0
 10
272.69384765625
 20
-423.8330078125
 30
0.0
 10
269.7451171875
 20
-423.25048828125
 30
0.0
 10
266.1162109375
 20
-423.75634765625
 30
0.0
 10
261.54638671875
 20
-425.4267578125
 30
0.0
  0
SPLINE
  5
4C
330
3C
100
AcDbEntity
  8
Layer 1
370
     0
100
AcDbSpline
210
0.0
220
0.0
230
1.0
 70
    11
 71
     3
 72
    26
 73
    22
 74
     0
 42
0.0000000001
 43
0.0000000001
 40
0.0
 40
0.0
 40
0.0
 40
0.0
 40
1.0
 40
1.0
 40
1.0
 40
2.0
 40
2.0
 40
2.0
 40
3.0
 40
3.0
 40
3.0
 40
4.0
 40
4.0
 40
4.0
 40
5.0
 40
5.0
 40
5.0
 40
6.0
 40
6.0
 40
6.0
 40
7.0
 40
7.0
 40
7.0
 40
7.0
 10
536.6982421875
 20
-453.93701171875
 30
0.0
 10
527.130859375
 20
-452.1376953125
 30
0.0
 10
514.9775390625
 20
-450.9248046875
 30
0.0
 10
500.2197265625
 20
-450.30615234375
 30
0.0
 10
497.14013671875
 20
-457.3935546875
 30
0.0
 10
495.25244140625
 20
-466.21630859375
 30
0.0
 10
497.39306640625
 20
-476.21484375
 30
0.0
 10
500.39599609375
 20
-490.26171875
 30
0.0
 10
513.125
 20
-501.2646484375
 30
0.0
 10
526.3662109375
 20
-501.2646484375
 30
0.0
 10
530.7451171875
 20
-501.2646484375
 30
0.0
 10
534.9736328125
 20
-500.07275390625
 30
0.0
 10
538.92578125
 20
-497.72021484375
 30
0.0
 10
544.69140625
 20
-494.2822265625
 30
0.0
 10
548.03515625
 20
-489.23095703125
 30
0.0
 10
548.8525390625
 20
-482.7041015625
 30
0.0
 10
549.9697265625
 20
-473.787109375
 30
0.0
 10
545.9130859375
 20
-462.9658203125
 30
0.0
 10
538.7529296875
 20
-455.77587890625
 30
0.0
 10
538.1083984375
 20
-455.125
 30
0.0
 10
537.3955078125
 20
-454.53857421875
 30
0.0
 10
536.6982421875
 20
-453.93701171875
 30
0.0
  0
SPLINE
  5
4D
330
3C
100
AcDbEntity
  8
Layer 1
370
     0
100
AcDbSpline
210
0.0
220
0.0
230
1.0
 70
    11
 71
     3
 72
    56
 73
    52
 74
     0
 42
0.0000000001
 43
0.0000000001
 40
0.0
 40
0.0
 40
0.0
 40
0.0
 40
1.0
 40
1.0
 40
1.0
 40
2.0
 40
2.0
 40
2.0
 40
3.0
 40
3.0
 40
3.0
 40
4.0
 40
4.0
 40
4.0
 40
5.0
 40
5.0
 40
5.0
 40
6.0
 40
6.0
 40
6.0
 40
7.0
 40
7.0
 40
7.0
 40
8.0
 40
8.0
 40
8.0
 40
9.0
 40
9.0
 40
9.0
 40
10.0
 40
10.0
 40
10.0
 40
11.0
 40
11.0
 40
11.0
 40
12.0
 40
12.0
 40
12.0
 40
13.0
 40
13.0
 40
13.0
 40
14.0
 40
14.0
 40
14.0
 40
15.0
 40
15.0
 40
15.0
 40
16.0
 40
16.0
 40
16.0
 40
17.0
 40
17.0
 40
17.0
 40
17.0
 10
633.712890625
 20
-787.3203125
 30
0.0
 10
616.89453125
 20
-774.431640625
 30
0.0
 10
599.96484375
 20
-753.0146484375
 30
0.0
 10
587.923828125
 20
-729.5205078125
 30
0.0
 10
562.65625
 20
-741.587890625
 30
0.0
 10
533.556640625
 20
-753.4228515625
 30
0.0
 10
505.5751953125
 20
-754.015625
 30
0.0
 10
500.35498046875
 20
-759.6201171875
 30
0.0
 10
493.873046875
 20
-764.69921875
 30
0.0
 10
486.244140625
 20
-769.17578125
 30
0.0
 10
497.4345703125
 20
-775.8486328125
 30
0.0
 10
506.6474609375
 20
-783.5341796875
 30
0.0
 10
513.6953125
 20
-792.0966796875
 30
0.0
 10
514.91015625
 20
-792.763671875
 30
0.0
 10
516.109375
 20
-793.46875
 30
0.0
 10
517.3095703125
 20
-794.1806640625
 30
0.0
 10
519.048828125
 20
-795.2080078125
 30
0.0
 10
520.6904296875
 20
-796.1826171875
 30
0.0
 10
522.36328125
 20
-796.9921875
 30
0.0
 10
526.8017578125
 20
-799.1220703125
 30
0.0
 10
531.4052734375
 20
-799.8193359375
 30
0.0
 10
536.5263671875
 20
-800.44140625
 30
0.0
 10
541.384765625
 20
-801.041015625
 30
0.0
 10
544.5634765625
 20
-805.0224609375
 30
0.0
 10
544.2490234375
 20
-810.1142578125
 30
0.0
 10
543.8740234375
 20
-816.232421875
 30
0.0
 10
538.5732421875
 20
-820.4384765625
 30
0.0
 10
533.0625
 20
-818.7509765625
 30
0.0
 10
531.142578125
 20
-818.1591796875
 30
0.0
 10
529.193359375
 20
-817.4765625
 30
0.0
 10
527.28125
 20
-816.7265625
 30
0.0
 10
527.9560546875
 20
-818.833984375
 30
0.0
 10
528.533203125
 20
-820.970703125
 30
0.0
 10
529.013671875
 20
-823.1298828125
 30
0.0
 10
529.4482421875
 20
-825.1171875
 30
0.0
 10
529.79296875
 20
-827.1708984375
 30
0.0
 10
530.041015625
 20
-829.255859375
 30
0.0
 10
530.5087890625
 20
-829.6005859375
 30
0.0
 10
530.966796875
 20
-829.9716796875
 30
0.0
 10
531.427734375
 20
-830.328125
 30
0.0
 10
531.427734375
 20
-830.328125
 30
0.0
 10
563.2216796875
 20
-830.328125
 30
0.0
 10
563.2216796875
 20
-830.328125
 30
0.0
 10
605.171875
 20
-830.328125
 30
0.0
 10
639.6767578125
 20
-824.9443359375
 30
0.0
 10
666.732421875
 20
-814.1552734375
 30
0.0
 10
671.06640625
 20
-812.4267578125
 30
0.0
 10
675.3701171875
 20
-810.3720703125
 30
0.0
 10
679.6435546875
 20
-808.0595703125
 30
0.0
 10
662.9990234375
 20
-804.6669921875
 30
0.0
 10
647.1787109375
 20
-797.6484375
 30
0.0
 10
633.712890625
 20
-787.3203125
 30
0.0
  0
SPLINE
  5
4E
330
3C
100
AcDbEntity
  8
Layer 1
370
     0
100
AcDbSpline
210
0.0
220
0.0
230
1.0
 70
    11
 71
     3
 72
    26
 73
    22
 74
     0
 42
0.0000000001
 43
0.0000000001
 40
0.0
 40
0.0
 40
0.0
 40
0.0
 40
1.0
 40
1.0
 40
1.0
 40
2.0
 40
2.0
 40
2.0
 40
3.0
 40
3.0
 40
3.0
 40
4.0
 40
4.0
 40
4.0
 40
5.0
 40
5.0
 40
5.0
 40
6.0
 40
6.0
 40
6.0
 40
7.0
 40
7.0
 40
7.0
 40
7.0
 10
480.11083984375
 20
-452.56640625
 30
0.0
 10
480.34716796875
 20
-451.65185546875
 30
0.0
 10
480.6376953125
 20
-450.74853515625
 30
0.0
 10
480.9169921875
 20
-449.84130859375
 30
0.0
 10
478.978515625
 20
-449.826171875
 30
0.0
 10
477.01220703125
 20
-449.81689453125
 30
0.0
 10
475.0048828125
 20
-449.81689453125
 30
0.0
 10
475.0048828125
 20
-449.81689453125
 30
0.0
 10
458.77392578125
 20
-449.81689453125
 30
0.0
 10
458.77392578125
 20
-449.81689453125
 30
0.0
 10
445.28173828125
 20
-454.0400390625
 30
0.0
 10
432.81103515625
 20
-459.6201171875
 30
0.0
 10
421.5830078125
 20
-465.1572265625
 30
0.0
 10
426.7041015625
 20
-478.28955078125
 30
0.0
 10
429.71826171875
 20
-490.81640625
 30
0.0
 10
430.5654296875
 20
-502.4921875
 30
0.0
 10
430.5654296875
 20
-502.4921875
 30
0.0
 10
490.07177734375
 20
-502.4921875
 30
0.0
 10
490.07177734375
 20
-502.4921875
 30
0.0
 10
479.5224609375
 20
-489.37158203125
 30
0.0
 10
475.52587890625
 20
-470.4228515625
 30
0.0
 10
480.11083984375
 20
-452.56640625
 30
0.0
  0
SPLINE
  5
4F
330
3C
100
AcDbEntity
  8
Layer 1
370
     0
100
AcDbSpline
210
0.0
220
0.0
230
1.0
 70
    11
 71
     3
 72
    23
 73
    19
 74
     0
 42
0.0000000001
 43
0.0000000001
 40
0.0
 40
0.0
 40
0.0
 40
0.0
 40
1.0
 40
1.0
 40
1.0
 40
2.0
 40
2.0
 40
2.0
 40
3.0
 40
3.0
 40
3.0
 40
4.0
 40
4.0
 40
4.0
 40
5.0
 40
5.0
 40
5.0
 40
6.0
 40
6.0
 40
6.0
 40
6.0
 10
403.14208984375
 20
-474.6513671875
 30
0.0
 10
400.3193359375
 20
-476.15087890625
 30
0.0
 10
397.49658203125
 20
-477.66015625
 30
0.0
 10
394.67333984375
 20
-479.1689453125
 30
0.0
 10
392.25537109375
 20
-480.4619140625
 30
0.0
 10
389.81298828125
 20
-481.755859375
 30
0.0
 10
387.3759765625
 20
-483.052734375
 30
0.0
 10
387.3759765625
 20
-483.052734375
 30
0.0
 10
387.3759765625
 20
-502.4921875
 30
0.0
 10
387.3759765625
 20
-502.4921875
 30
0.0
 10
387.3759765625
 20
-502.4921875
 30
0.0
 10
411.4423828125
 20
-502.4921875
 30
0.0
 10
411.4423828125
 20
-502.4921875
 30
0.0
 10
411.4423828125
 20
-502.4921875
 30
0.0
 10
410.951171875
 20
-500.783203125
 30
0.0
 10
410.951171875
 20
-500.783203125
 30
0.0
 10
408.49951171875
 20
-492.1923828125
 30
0.0
 10
405.97265625
 20
-483.3505859375
 30
0.0
 10
403.14208984375
 20
-474.6513671875
 30
0.0
  0
SPLINE
  5
50
330
3C
100
AcDbEntity
  8
Layer 1
370
     0
100
AcDbSpline
210
0.0
220
0.0
230
1.0
 70
    11
 71
     3
 72
   272
 73
   268
 74
     0
 42
0.0000000001
 43
0.0000000001
 40
0.0
 40
0.0
 40
0.0
 40
0.0
 40
1.0
 40
1.0
 40
1.0
 40
2.0
 40
2.0
 40
2.0
 40
3.0
 40
3.0
 40
3.0
 40
4.0
 40
4.0
 40
4.0
 40
5.0
 40
5.0
 40
5.0
 40
6.0
 40
6.0
 40
6.0
 40
7.0
 40
7.0
 40
7.0
 40
8.0
 40
8.0
 40
8.0
 40
9.0
 40
9.0
 40
9.0
 40
10.0
 40
10.0
 40
10.0
 40
11.0
 40
11.0
 40
11.0
 40
12.0
 40
12.0
 40
12.0
 40
13.0
 40
13.0
 40
13.0
 40
14.0
 40
14.0
 40
14.0
 40
15.0
 40
15.0
 40
15.0
 40
16.0
 40
16.0
 40
16.0
 40
17.0
 40
17.0
 40
17.0
 40
18.0
 40
18.0
 40
18.0
 40
19.0
 40
19.0
 40
19.0
 40
20.0
 40
20.0
 40
20.0
 40
21.0
 40
21.0
 40
21.0
 40
22.0
 40
22.0
 40
22.0
 40
23.0
 40
23.0
 40
23.0
 40
24.0
 40
24.0
 40
24.0
 40
25.0
 40
25.0
 40
25.0
 40
26.0
 40
26.0
 40
26.0
 40
27.0
 40
27.0
 40
27.0
 40
28.0
 40
28.0
 40
28.0
 40
29.0
 40
29.0
 40
29.0
 40
30.0
 40
30.0
 40
30.0
 40
31.0
 40
31.0
 40
31.0
 40
32.0
 40
32.0
 40
32.0
 40
33.0
 40
33.0
 40
33.0
 40
34.0
 40
34.0
 40
34.0
 40
35.0
 40
35.0
 40
35.0
 40
36.0
 40
36.0
 40
36.0
 40
37.0
 40
37.0
 40
37.0
 40
38.0
 40
38.0
 40
38.0
 40
39.0
 40
39.0
 40
39.0
 40
40.0
 40
40.0
 40
40.0
 40
41.0
 40
41.0
 40
41.0
 40
42.0
 40
42.0
 40
42.0
 40
43.0
 40
43.0
 40
43.0
 40
44.0
 40
44.0
 40
44.0
 40
45.0
 40
45.0
 40
45.0
 40
46.0
 40
46.0
 40
46.0
 40
47.0
 40
47.0
 40
47.0
 40
48.0
 40
48.0
 40
48.0
 40
49.0
 40
49.0
 40
49.0
 40
50.0
 40
50.0
 40
50.0
 40
51.0
 40
51.0
 40
51.0
 40
52.0
 40
52.0
 40
52.0
 40
53.0
 40
53.0
 40
53.0
 40
54.0
 40
54.0
 40
54.0
 40
55.0
 40
55.0
 40
55.0
 40
56.0
 40
56.0
 40
56.0
 40
57.0
 40
57.0
 40
57.0
 40
58.0
 40
58.0
 40
58.0
 40
59.0
 40
59.0
 40
59.0
 40
60.0
 40
60.0
 40
60.0
 40
61.0
 40
61.0
 40
61.0
 40
62.0
 40
62.0
 40
62.0
 40
63.0
 40
63.0
 40
63.0
 40
64.0
 40
64.0
 40
64.0
 40
65.0
 40
65.0
 40
65.0
 40
66.0
 40
66.0
 40
66.0
 40
67.0
 40
67.0
 40
67.0
 40
68.0
 40
68.0
 40
68.0
 40
69.0
 40
69.0
 40
69.0
 40
70.0
 40
70.0
 40
70.0
 40
71.0
 40
71.0
 40
71.0
 40
72.0
 40
72.0
 40
72.0
 40
73.0
 40
73.0
 40
73.0
 40
74.0
 40
74.0
 40
74.0
 40
75.0
 40
75.0
 40
75.0
 40
76.0
 40
76.0
 40
76.0
 40
77.0
 40
77.0
 40
77.0
 40
78.0
 40
78.0
 40
78.0
 40
79.0
 40
79.0
 40
79.0
 40
80.0
 40
80.0
 40
80.0
 40
81.0
 40
81.0
 40
81.0
 40
82.0
 40
82.0
 40
82.0
 40
83.0
 40
83.0
 40
83.0
 40
84.0
 40
84.0
 40
84.0
 40
85.0
 40
85.0
 40
85.0
 40
86.0
 40
86.0
 40
86.0
 40
87.0
 40
87.0
 40
87.0
 40
88.0
 40
88.0
 40
88.0
 40
89.0
 40
89.0
 40
89.0
 40
89.0
 10
97.599609375
 20
-658.021484375
 30
0.0
 10
97.599609375
 20
-658.021484375
 30
0.0
 10
97.599609375
 20
-675.17578125
 30
0.0
 10
97.599609375
 20
-675.17578125
 30
0.0
 10
97.599609375
 20
-675.17578125
 30
0.0
 10
240.2529296875
 20
-675.17578125
 30
0.0
 10
240.2529296875
 20
-675.17578125
 30
0.0
 10
230.21337890625
 20
-680.1474609375
 30
0.0
 10
220.62744140625
 20
-686.115234375
 30
0.0
 10
211.60009765625
 20
-693.0283203125
 30
0.0
 10
203.00390625
 20
-697.009765625
 30
0.0
 10
195.77197265625
 20
-700.03125
 30
0.0
 10
188.015625
 20
-700.03125
 30
0.0
 10
184.33056640625
 20
-700.03515625
 30
0.0
 10
180.74267578125
 20
-699.3486328125
 30
0.0
 10
177.0537109375
 20
-697.939453125
 30
0.0
 10
172.607421875
 20
-696.2373046875
 30
0.0
 10
166.83056640625
 20
-693.890625
 30
0.0
 10
161.6083984375
 20
-690.8125
 30
0.0
 10
161.6083984375
 20
-690.8125
 30
0.0
 10
159.681640625
 20
-689.654296875
 30
0.0
 10
159.681640625
 20
-689.654296875
 30
0.0
 10
155.857421875
 20
-687.318359375
 30
0.0
 10
152.24365234375
 20
-685.1142578125
 30
0.0
 10
146.23046875
 20
-684.94921875
 30
0.0
 10
143.42626953125
 20
-684.94921875
 30
0.0
 10
140.79443359375
 20
-686.2431640625
 30
0.0
 10
139.01025390625
 20
-688.4921875
 30
0.0
 10
137.1279296875
 20
-690.873046875
 30
0.0
 10
136.41943359375
 20
-694.033203125
 30
0.0
 10
137.11328125
 20
-696.94921875
 30
0.0
 10
141.5146484375
 20
-715.37890625
 30
0.0
 10
166.44091796875
 20
-716.8115234375
 30
0.0
 10
173.97607421875
 20
-716.8115234375
 30
0.0
 10
176.4541015625
 20
-716.8115234375
 30
0.0
 10
178.86083984375
 20
-716.68359375
 30
0.0
 10
181.1328125
 20
-716.4326171875
 30
0.0
 10
182.984375
 20
-716.2265625
 30
0.0
 10
185.21875
 20
-715.9111328125
 30
0.0
 10
187.70068359375
 20
-715.423828125
 30
0.0
 10
186.6474609375
 20
-716.654296875
 30
0.0
 10
185.60888671875
 20
-717.90625
 30
0.0
 10
184.5966796875
 20
-719.1806640625
 30
0.0
 10
183.775390625
 20
-719.48046875
 30
0.0
 10
183.0556640625
 20
-720.0087890625
 30
0.0
 10
182.51220703125
 20
-720.7255859375
 30
0.0
 10
179.72314453125
 20
-724.421875
 30
0.0
 10
176.85888671875
 20
-728.42578125
 30
0.0
 10
173.8896484375
 20
-732.564453125
 30
0.0
 10
155.31787109375
 20
-758.4951171875
 30
0.0
 10
134.26416015625
 20
-788.0400390625
 30
0.0
 10
102.4658203125
 20
-785.6630859375
 30
0.0
 10
95.44775390625
 20
-785.1162109375
 30
0.0
 10
90.431640625
 20
-789.8173828125
 30
0.0
 10
90.1171875
 20
-796.677734375
 30
0.0
 10
89.83203125
 20
-802.86328125
 30
0.0
 10
93.87353515625
 20
-809.84375
 30
0.0
 10
101.92578125
 20
-810.5859375
 30
0.0
 10
122.7548828125
 20
-812.5205078125
 30
0.0
 10
137.3828125
 20
-799.474609375
 30
0.0
 10
148.73486328125
 20
-786.7509765625
 30
0.0
 10
151.29150390625
 20
-783.88671875
 30
0.0
 10
153.912109375
 20
-780.939453125
 30
0.0
 10
156.5400390625
 20
-777.91796875
 30
0.0
 10
152.8642578125
 20
-796.126953125
 30
0.0
 10
153.728515625
 20
-813.9677734375
 30
0.0
 10
158.92431640625
 20
-830.328125
 30
0.0
 10
158.92431640625
 20
-830.328125
 30
0.0
 10
152.7177734375
 20
-830.328125
 30
0.0
 10
152.7177734375
 20
-830.328125
 30
0.0
 10
152.7177734375
 20
-830.328125
 30
0.0
 10
152.7177734375
 20
-857.3798828125
 30
0.0
 10
152.7177734375
 20
-857.3798828125
 30
0.0
 10
152.7177734375
 20
-857.3798828125
 30
0.0
 10
172.64892578125
 20
-857.3798828125
 30
0.0
 10
172.64892578125
 20
-857.3798828125
 30
0.0
 10
174.388671875
 20
-859.7080078125
 30
0.0
 10
176.23828125
 20
-861.9794921875
 30
0.0
 10
178.2275390625
 20
-864.158203125
 30
0.0
 10
178.3583984375
 20
-866.8046875
 30
0.0
 10
178.6884765625
 20
-869.40625
 30
0.0
 10
179.0068359375
 20
-871.9404296875
 30
0.0
 10
179.400390625
 20
-875.07421875
 30
0.0
 10
179.775390625
 20
-878.0283203125
 30
0.0
 10
179.783203125
 20
-880.9599609375
 30
0.0
 10
179.81298828125
 20
-890.1376953125
 30
0.0
 10
177.6611328125
 20
-898.1005859375
 30
0.0
 10
172.802734375
 20
-906.783203125
 30
0.0
 10
172.51025390625
 20
-907.3154296875
 30
0.0
 10
172.0751953125
 20
-908.02734375
 30
0.0
 10
171.55810546875
 20
-908.8896484375
 30
0.0
 10
165.8447265625
 20
-918.3671875
 30
0.0
 10
160.0712890625
 20
-929.05078125
 30
0.0
 10
163.8955078125
 20
-935.814453125
 30
0.0
 10
165.10986328125
 20
-937.9658203125
 30
0.0
 10
167.779296875
 20
-940.5224609375
 30
0.0
 10
173.62353515625
 20
-940.5224609375
 30
0.0
 10
173.9794921875
 20
-940.5224609375
 30
0.0
 10
174.34716796875
 20
-940.515625
 30
0.0
 10
174.7255859375
 20
-940.4931640625
 30
0.0
 10
192.716796875
 20
-939.6083984375
 30
0.0
 10
195.5322265625
 20
-910.1640625
 30
0.0
 10
196.59326171875
 20
-899.0830078125
 30
0.0
 10
197.08056640625
 20
-894.029296875
 30
0.0
 10
197.748046875
 20
-887.1240234375
 30
0.0
 10
197.4892578125
 20
-880.0830078125
 30
0.0
 10
211.0302734375
 20
-888.3828125
 30
0.0
 10
226.494140625
 20
-892.8896484375
 30
0.0
 10
241.8046875
 20
-892.8896484375
 30
0.0
 10
255.05712890625
 20
-892.8896484375
 30
0.0
 10
267.9873046875
 20
-889.462890625
 30
0.0
 10
279.263671875
 20
-882.9697265625
 30
0.0
 10
284.8798828125
 20
-882.580078125
 30
0.0
 10
290.25537109375
 20
-883.052734375
 30
0.0
 10
295.1142578125
 20
-884.4697265625
 30
0.0
 10
298.2216796875
 20
-885.369140625
 30
0.0
 10
301.314453125
 20
-887.828125
 30
0.0
 10
304.59130859375
 20
-890.4375
 30
0.0
 10
309.47607421875
 20
-894.3212890625
 30
0.0
 10
314.52587890625
 20
-898.3330078125
 30
0.0
 10
320.99658203125
 20
-898.3330078125
 30
0.0
 10
322.353515625
 20
-898.3330078125
 30
0.0
 10
323.71826171875
 20
-898.1455078125
 30
0.0
 10
325.060546875
 20
-897.7783203125
 30
0.0
 10
329.20654296875
 20
-896.638671875
 30
0.0
 10
332.07421875
 20
-892.9189453125
 30
0.0
 10
332.18701171875
 20
-888.525390625
 30
0.0
 10
332.64794921875
 20
-871.1162109375
 30
0.0
 10
309.15380859375
 20
-869.5859375
 30
0.0
 10
297.86572265625
 20
-868.8515625
 30
0.0
 10
297.86572265625
 20
-868.8515625
 30
0.0
 10
297.05615234375
 20
-868.7919921875
 30
0.0
 10
297.05615234375
 20
-868.7919921875
 30
0.0
 10
300.21630859375
 20
-865.369140625
 30
0.0
 10
303.14794921875
 20
-861.5185546875
 30
0.0
 10
305.74609375
 20
-857.3798828125
 30
0.0
 10
305.74609375
 20
-857.3798828125
 30
0.0
 10
497.3447265625
 20
-857.3798828125
 30
0.0
 10
497.3447265625
 20
-857.3798828125
 30
0.0
 10
493.6591796875
 20
-861.916015625
 30
0.0
 10
488.7333984375
 20
-865.369140625
 30
0.0
 10
482.888671875
 20
-867.08984375
 30
0.0
 10
476.560546875
 20
-868.94921875
 30
0.0
 10
472.94677734375
 20
-874.6171875
 30
0.0
 10
473.8916015625
 20
-881.185546875
 30
0.0
 10
474.7275390625
 20
-886.958984375
 30
0.0
 10
479.31982421875
 20
-892.7998046875
 30
0.0
 10
486.48046875
 20
-892.7998046875
 30
0.0
 10
487.76220703125
 20
-892.7998046875
 30
0.0
 10
489.07421875
 20
-892.6044921875
 30
0.0
 10
490.3828125
 20
-892.21484375
 30
0.0
 10
507.509765625
 20
-887.1689453125
 30
0.0
 10
520.7509765625
 20
-874.16015625
 30
0.0
 10
526.82421875
 20
-857.3798828125
 30
0.0
 10
526.82421875
 20
-857.3798828125
 30
0.0
 10
540.6875
 20
-857.3798828125
 30
0.0
 10
540.6875
 20
-857.3798828125
 30
0.0
 10
546.767578125
 20
-861.181640625
 30
0.0
 10
553.8232421875
 20
-864.3828125
 30
0.0
 10
561.5087890625
 20
-864.6455078125
 30
0.0
 10
565.849609375
 20
-864.6455078125
 30
0.0
 10
569.388671875
 20
-861.7470703125
 30
0.0
 10
570.56640625
 20
-857.3798828125
 30
0.0
 10
570.56640625
 20
-857.3798828125
 30
0.0
 10
813.171875
 20
-857.3798828125
 30
0.0
 10
813.171875
 20
-857.3798828125
 30
0.0
 10
813.171875
 20
-857.3798828125
 30
0.0
 10
819.283203125
 20
-768.486328125
 30
0.0
 10
819.283203125
 20
-768.486328125
 30
0.0
 10
822.5517578125
 20
-768.05859375
 30
0.0
 10
825.6337890625
 20
-766.3642578125
 30
0.0
 10
827.3955078125
 20
-763.7998046875
 30
0.0
 10
829.2021484375
 20
-761.1611328125
 30
0.0
 10
829.5322265625
 20
-757.9814453125
 30
0.0
 10
828.3173828125
 20
-754.84765625
 30
0.0
 10
826.0537109375
 20
-748.9697265625
 30
0.0
 10
824.1484375
 20
-743.6162109375
 30
0.0
 10
823.8935546875
 20
-737.572265625
 30
0.0
 10
823.8037109375
 20
-735.30859375
 30
0.0
 10
823.9013671875
 20
-732.9990234375
 30
0.0
 10
824.013671875
 20
-730.5546875
 30
0.0
 10
824.15625
 20
-727.3232421875
 30
0.0
 10
824.306640625
 20
-724.001953125
 30
0.0
 10
823.9765625
 20
-720.642578125
 30
0.0
 10
827.185546875
 20
-716.60546875
 30
0.0
 10
830.2294921875
 20
-713.017578125
 30
0.0
 10
833.220703125
 20
-709.763671875
 30
0.0
 10
833.1689453125
 20
-717.703125
 30
0.0
 10
835.275390625
 20
-725.53125
 30
0.0
 10
839.3095703125
 20
-731.259765625
 30
0.0
 10
841.333984375
 20
-734.146484375
 30
0.0
 10
845.337890625
 20
-735.4580078125
 30
0.0
 10
848.4267578125
 20
-734.2060546875
 30
0.0
 10
849.73828125
 20
-733.673828125
 30
0.0
 10
850.5859375
 20
-732.9912109375
 30
0.0
 10
851.3203125
 20
-732.32421875
 30
0.0
 10
853.419921875
 20
-730.3935546875
 30
0.0
 10
854.169921875
 20
-726.8955078125
 30
0.0
 10
853.060546875
 20
-724.1962890625
 30
0.0
 10
853.060546875
 20
-724.1962890625
 30
0.0
 10
852.857421875
 20
-723.708984375
 30
0.0
 10
852.857421875
 20
-723.708984375
 30
0.0
 10
850.68359375
 20
-718.408203125
 30
0.0
 10
848.8017578125
 20
-713.8271484375
 30
0.0
 10
848.876953125
 20
-708.3837890625
 30
0.0
 10
848.951171875
 20
-702.681640625
 30
0.0
 10
851.103515625
 20
-697.3095703125
 30
0.0
 10
853.240234375
 20
-692.1064453125
 30
0.0
 10
854.58984375
 20
-691.1767578125
 30
0.0
 10
855.9697265625
 20
-690.2763671875
 30
0.0
 10
857.38671875
 20
-689.421875
 30
0.0
 10
867.3056640625
 20
-683.4462890625
 30
0.0
 10
879.384765625
 20
-680.015625
 30
0.0
 10
890.51171875
 20
-680.015625
 30
0.0
 10
901.6611328125
 20
-680.015625
 30
0.0
 10
921.41015625
 20
-683.4423828125
 30
0.0
 10
928.3681640625
 20
-706.396484375
 30
0.0
 10
932.529296875
 20
-720.1328125
 30
0.0
 10
927.5283203125
 20
-735.5107421875
 30
0.0
 10
916.484375
 20
-742.9560546875
 30
0.0
 10
909.720703125
 20
-747.5107421875
 30
0.0
 10
902.193359375
 20
-747.9345703125
 30
0.0
 10
896.09765625
 20
-744.0810546875
 30
0.0
 10
892.9033203125
 20
-742.0185546875
 30
0.0
 10
890.466796875
 20
-739.296875
 30
0.0
 10
888.5927734375
 20
-735.66796875
 30
0.0
 10
888.4052734375
 20
-735.3271484375
 30
0.0
 10
888.240234375
 20
-734.9892578125
 30
0.0
 10
888.08203125
 20
-734.65234375
 30
0.0
 10
888.1201171875
 20
-734.65234375
 30
0.0
 10
888.150390625
 20
-734.65234375
 30
0.0
 10
888.1875
 20
-734.65234375
 30
0.0
 10
893.728515625
 20
-734.65234375
 30
0.0
 10
898.9619140625
 20
-732.13671875
 30
0.0
 10
902.1787109375
 20
-727.9228515625
 30
0.0
 10
905.4619140625
 20
-723.630859375
 30
0.0
 10
906.3544921875
 20
-717.90625
 30
0.0
 10
904.6904296875
 20
-711.802734375
 30
0.0
 10
902.60546875
 20
-704.1474609375
 30
0.0
 10
896.150390625
 20
-699.2060546875
 30
0.0
 10
888.240234375
 20
-699.2060546875
 30
0.0
 10
885.4287109375
 20
-699.2060546875
 30
0.0
 10
882.548828125
 20
-699.84765625
 30
0.0
 10
879.90234375
 20
-701.06640625
 30
0.0
 10
868.025390625
 20
-706.546875
 30
0.0
 10
864.6064453125
 20
-720.6728515625
 30
0.0
 10
865.28125
 20
-731.1025390625
 30
0.0
 10
866.646484375
 20
-752.095703125
 30
0.0
 10
884.2880859375
 20
-769.16796875
 30
0.0
 10
904.599609375
 20
-769.16796875
 30
0.0
 10
906.939453125
 20
-769.16796875
 30
0.0
 10
909.2783203125
 20
-768.939453125
 30
0.0
 10
911.5732421875
 20
-768.482421875
 30
0.0
 10
933.0390625
 20
-764.197265625
 30
0.0
 10
950.314453125
 20
-741.8837890625
 30
0.0
 10
950.8916015625
 20
-717.6845703125
 30
0.0
 10
951.4765625
 20
-693.5009765625
 30
0.0
 10
936.3310546875
 20
-670.7001953125
 30
0.0
 10
914.0546875
 20
-662.2421875
 30
0.0
 10
910.0810546875
 20
-660.7353515625
 30
0.0
 10
905.9267578125
 20
-659.640625
 30
0.0
 10
901.6611328125
 20
-658.9775390625
 30
0.0
 10
901.6611328125
 20
-658.9775390625
 30
0.0
 10
901.6611328125
 20
-658.021484375
 30
0.0
 10
901.6611328125
 20
-658.021484375
 30
0.0
 10
901.6611328125
 20
-658.021484375
 30
0.0
 10
97.599609375
 20
-658.021484375
 30
0.0
 10
97.599609375
 20
-658.021484375
 30
0.0
  0
SPLINE
  5
51
330
3C
100
AcDbEntity
  8
Layer 1
370
     0
100
AcDbSpline
210
0.0
220
0.0
230
1.0
 70
    11
 71
     3
 72
    17
 73
    13
 74
     0
 42
0.0000000001
 43
0.0000000001
 40
0.0
 40
0.0
 40
0.0
 40
0.0
 40
1.0
 40
1.0
 40
1.0
 40
2.0
 40
2.0
 40
2.0
 40
3.0
 40
3.0
 40
3.0
 40
4.0
 40
4.0
 40
4.0
 40
4.0
 10
781.9814453125
 20
-675.17578125
 30
0.0
 10
780.046875
 20
-680.2705078125
 30
0.0
 10
778.0595703125
 20
-685.23828125
 30
0.0
 10
776.005859375
 20
-690.0556640625
 30
0.0
 10
773.05859375
 20
-685.3583984375
 30
0.0
 10
769.4296875
 20
-681.0693359375
 30
0.0
 10
765.1259765625
 20
-677.41015625
 30
0.0
 10
764.21875
 20
-676.6376953125
 30
0.0
 10
763.2890625
 20
-675.8955078125
 30
0.0
 10
762.3369140625
 20
-675.17578125
 30
0.0
 10
762.3369140625
 20
-675.17578125
 30
0.0
 10
781.9814453125
 20
-675.17578125
 30
0.0
 10
781.9814453125
 20
-675.17578125
 30
0.0
  0
SPLINE
  5
52
330
3C
100
AcDbEntity
  8
Layer 1
370
     0
100
AcDbSpline
210
0.0
220
0.0
230
1.0
 70
    11
 71
     3
 72
    65
 73
    61
 74
     0
 42
0.0000000001
 43
0.0000000001
 40
0.0
 40
0.0
 40
0.0
 40
0.0
 40
1.0
 40
1.0
 40
1.0
 40
2.0
 40
2.0
 40
2.0
 40
3.0
 40
3.0
 40
3.0
 40
4.0
 40
4.0
 40
4.0
 40
5.0
 40
5.0
 40
5.0
 40
6.0
 40
6.0
 40
6.0
 40
7.0
 40
7.0
 40
7.0
 40
8.0
 40
8.0
 40
8.0
 40
9.0
 40
9.0
 40
9.0
 40
10.0
 40
10.0
 40
10.0
 40
11.0
 40
11.0
 40
11.0
 40
12.0
 40
12.0
 40
12.0
 40
13.0
 40
13.0
 40
13.0
 40
14.0
 40
14.0
 40
14.0
 40
15.0
 40
15.0
 40
15.0
 40
16.0
 40
16.0
 40
16.0
 40
17.0
 40
17.0
 40
17.0
 40
18.0
 40
18.0
 40
18.0
 40
19.0
 40
19.0
 40
19.0
 40
20.0
 40
20.0
 40
20.0
 40
20.0
 10
741.98046875
 20
-690.8837890625
 30
0.0
 10
754.029296875
 20
-697.5458984375
 30
0.0
 10
760.5751953125
 20
-709.837890625
 30
0.0
 10
759.9189453125
 20
-722.9111328125
 30
0.0
 10
754.8994140625
 20
-731.814453125
 30
0.0
 10
749.62109375
 20
-740.099609375
 30
0.0
 10
744.068359375
 20
-747.6982421875
 30
0.0
 10
743.0
 20
-749.1572265625
 30
0.0
 10
741.927734375
 20
-750.56640625
 30
0.0
 10
740.85546875
 20
-751.9833984375
 30
0.0
 10
740.6572265625
 20
-752.0654296875
 30
0.0
 10
740.4697265625
 20
-752.1669921875
 30
0.0
 10
740.271484375
 20
-752.23828125
 30
0.0
 10
734.35546875
 20
-754.3974609375
 30
0.0
 10
729.9765625
 20
-754.66015625
 30
0.0
 10
726.669921875
 20
-753.0517578125
 30
0.0
 10
724.248046875
 20
-751.875
 30
0.0
 10
721.31640625
 20
-748.7822265625
 30
0.0
 10
720.806640625
 20
-745.8388671875
 30
0.0
 10
720.5517578125
 20
-744.373046875
 30
0.0
 10
720.94921875
 20
-743.162109375
 30
0.0
 10
722.05859375
 20
-742.0263671875
 30
0.0
 10
726.4228515625
 20
-737.5654296875
 30
0.0
 10
727.64453125
 20
-731.9716796875
 30
0.0
 10
725.41796875
 20
-726.6787109375
 30
0.0
 10
723.0859375
 20
-721.1298828125
 30
0.0
 10
717.41015625
 20
-717.25390625
 30
0.0
 10
711.6142578125
 20
-717.25390625
 30
0.0
 10
707.0859375
 20
-717.25390625
 30
0.0
 10
703.1640625
 20
-719.5634765625
 30
0.0
 10
700.578125
 20
-723.76171875
 30
0.0
 10
694.2568359375
 20
-734.01171875
 30
0.0
 10
693.2900390625
 20
-746.65625
 30
0.0
 10
697.998046875
 20
-757.583984375
 30
0.0
 10
702.05859375
 20
-767.0087890625
 30
0.0
 10
709.6796875
 20
-773.982421875
 30
0.0
 10
719.2734375
 20
-777.2587890625
 30
0.0
 10
713.728515625
 20
-782.94140625
 30
0.0
 10
708.1279296875
 20
-788.0888671875
 30
0.0
 10
702.4599609375
 20
-792.681640625
 30
0.0
 10
702.384765625
 20
-792.681640625
 30
0.0
 10
702.3056640625
 20
-792.6884765625
 30
0.0
 10
702.2275390625
 20
-792.6884765625
 30
0.0
 10
673.0537109375
 20
-792.6884765625
 30
0.0
 10
645.8515625
 20
-779.7705078125
 30
0.0
 10
625.615234375
 20
-756.3017578125
 30
0.0
 10
617.869140625
 20
-747.3349609375
 30
0.0
 10
611.173828125
 20
-735.765625
 30
0.0
 10
605.1904296875
 20
-721.021484375
 30
0.0
 10
607.642578125
 20
-719.7880859375
 30
0.0
 10
610.064453125
 20
-718.55859375
 30
0.0
 10
612.44921875
 20
-717.3515625
 30
0.0
 10
622.0380859375
 20
-712.4921875
 30
0.0
 10
631.087890625
 20
-707.9072265625
 30
0.0
 10
639.328125
 20
-704.1884765625
 30
0.0
 10
662.931640625
 20
-693.5302734375
 30
0.0
 10
688.041015625
 20
-683.6708984375
 30
0.0
 10
711.697265625
 20
-683.6708984375
 30
0.0
 10
723.130859375
 20
-683.6708984375
 30
0.0
 10
733.3203125
 20
-686.1005859375
 30
0.0
 10
741.98046875
 20
-690.8837890625
 30
0.0
  0
SPLINE
  5
53
330
3C
100
AcDbEntity
  8
Layer 1
370
     0
100
AcDbSpline
210
0.0
220
0.0
230
1.0
 70
    11
 71
     3
 72
    20
 73
    16
 74
     0
 42
0.0000000001
 43
0.0000000001
 40
0.0
 40
0.0
 40
0.0
 40
0.0
 40
1.0
 40
1.0
 40
1.0
 40
2.0
 40
2.0
 40
2.0
 40
3.0
 40
3.0
 40
3.0
 40
4.0
 40
4.0
 40
4.0
 40
5.0
 40
5.0
 40
5.0
 40
5.0
 10
654.443359375
 20
-675.17578125
 30
0.0
 10
638.1435546875
 20
-681.9169921875
 30
0.0
 10
622.4580078125
 20
-690.306640625
 30
0.0
 10
607.1474609375
 20
-698.494140625
 30
0.0
 10
604.3212890625
 20
-700.0048828125
 30
0.0
 10
601.501953125
 20
-701.515625
 30
0.0
 10
598.67578125
 20
-703.015625
 30
0.0
 10
595.826171875
 20
-694.265625
 30
0.0
 10
593.2919921875
 20
-685.376953125
 30
0.0
 10
590.8251953125
 20
-676.7353515625
 30
0.0
 10
590.8251953125
 20
-676.7353515625
 30
0.0
 10
590.375
 20
-675.17578125
 30
0.0
 10
590.375
 20
-675.17578125
 30
0.0
 10
590.375
 20
-675.17578125
 30
0.0
 10
654.443359375
 20
-675.17578125
 30
0.0
 10
654.443359375
 20
-675.17578125
 30
0.0
  0
SPLINE
  5
54
330
3C
100
AcDbEntity
  8
Layer 1
370
     0
100
AcDbSpline
210
0.0
220
0.0
230
1.0
 70
    11
 71
     3
 72
    20
 73
    16
 74
     0
 42
0.0000000001
 43
0.0000000001
 40
0.0
 40
0.0
 40
0.0
 40
0.0
 40
1.0
 40
1.0
 40
1.0
 40
2.0
 40
2.0
 40
2.0
 40
3.0
 40
3.0
 40
3.0
 40
4.0
 40
4.0
 40
4.0
 40
5.0
 40
5.0
 40
5.0
 40
5.0
 10
571.248046875
 20
-675.17578125
 30
0.0
 10
572.095703125
 20
-686.8427734375
 30
0.0
 10
575.109375
 20
-699.37109375
 30
0.0
 10
580.23046875
 20
-712.5078125
 30
0.0
 10
562.5810546875
 20
-721.2158203125
 30
0.0
 10
541.8798828125
 20
-730.0595703125
 30
0.0
 10
518.8916015625
 20
-733.5048828125
 30
0.0
 10
520.03125
 20
-730.7568359375
 30
0.0
 10
520.9677734375
 20
-727.94921875
 30
0.0
 10
521.703125
 20
-725.1005859375
 30
0.0
 10
526.2919921875
 20
-707.248046875
 30
0.0
 10
522.294921875
 20
-688.296875
 30
0.0
 10
511.74609375
 20
-675.17578125
 30
0.0
 10
511.74609375
 20
-675.17578125
 30
0.0
 10
571.248046875
 20
-675.17578125
 30
0.0
 10
571.248046875
 20
-675.17578125
 30
0.0
  0
SPLINE
  5
55
330
3C
100
AcDbEntity
  8
Layer 1
370
     0
100
AcDbSpline
210
0.0
220
0.0
230
1.0
 70
    11
 71
     3
 72
    23
 73
    19
 74
     0
 42
0.0000000001
 43
0.0000000001
 40
0.0
 40
0.0
 40
0.0
 40
0.0
 40
1.0
 40
1.0
 40
1.0
 40
2.0
 40
2.0
 40
2.0
 40
3.0
 40
3.0
 40
3.0
 40
4.0
 40
4.0
 40
4.0
 40
5.0
 40
5.0
 40
5.0
 40
6.0
 40
6.0
 40
6.0
 40
6.0
 10
452.96484375
 20
-694.962890625
 30
0.0
 10
453.7861328125
 20
-688.435546875
 30
0.0
 10
457.12646484375
 20
-683.3857421875
 30
0.0
 10
462.8994140625
 20
-679.9443359375
 30
0.0
 10
466.84716796875
 20
-677.59375
 30
0.0
 10
471.072265625
 20
-676.3984375
 30
0.0
 10
475.451171875
 20
-676.3984375
 30
0.0
 10
488.69189453125
 20
-676.3984375
 30
0.0
 10
501.4140625
 20
-687.4052734375
 30
0.0
 10
504.4208984375
 20
-701.4560546875
 30
0.0
 10
507.3974609375
 20
-715.3271484375
 30
0.0
 10
502.6513671875
 20
-726.9931640625
 30
0.0
 10
497.65185546875
 20
-734.794921875
 30
0.0
 10
482.56640625
 20
-734.138671875
 30
0.0
 10
470.9375
 20
-729.8046875
 30
0.0
 10
463.064453125
 20
-721.890625
 30
0.0
 10
455.904296875
 20
-714.7001953125
 30
0.0
 10
451.84423828125
 20
-703.8779296875
 30
0.0
 10
452.96484375
 20
-694.962890625
 30
0.0
  0
SPLINE
  5
56
330
3C
100
AcDbEntity
  8
Layer 1
370
     0
100
AcDbSpline
210
0.0
220
0.0
230
1.0
 70
    11
 71
     3
 72
    29
 73
    25
 74
     0
 42
0.0000000001
 43
0.0000000001
 40
0.0
 40
0.0
 40
0.0
 40
0.0
 40
1.0
 40
1.0
 40
1.0
 40
2.0
 40
2.0
 40
2.0
 40
3.0
 40
3.0
 40
3.0
 40
4.0
 40
4.0
 40
4.0
 40
5.0
 40
5.0
 40
5.0
 40
6.0
 40
6.0
 40
6.0
 40
7.0
 40
7.0
 40
7.0
 40
8.0
 40
8.0
 40
8.0
 40
8.0
 10
441.37353515625
 20
-675.17578125
 30
0.0
 10
440.0087890625
 20
-677.095703125
 30
0.0
 10
438.83203125
 20
-679.142578125
 30
0.0
 10
437.849609375
 20
-681.3095703125
 30
0.0
 10
427.94482421875
 20
-703.1201171875
 30
0.0
 10
439.95263671875
 20
-728.470703125
 30
0.0
 10
457.28369140625
 20
-740.369140625
 30
0.0
 10
464.7666015625
 20
-745.5126953125
 30
0.0
 10
473.03662109375
 20
-749.2314453125
 30
0.0
 10
481.94384765625
 20
-751.4736328125
 30
0.0
 10
477.8349609375
 20
-754.5927734375
 30
0.0
 10
473.24658203125
 20
-757.4638671875
 30
0.0
 10
468.2490234375
 20
-760.046875
 30
0.0
 10
465.10400390625
 20
-758.6943359375
 30
0.0
 10
461.853515625
 20
-757.404296875
 30
0.0
 10
458.56201171875
 20
-756.205078125
 30
0.0
 10
436.23193359375
 20
-748.04296875
 30
0.0
 10
413.40869140625
 20
-743.716796875
 30
0.0
 10
390.8779296875
 20
-740.41796875
 30
0.0
 10
389.271484375
 20
-722.216796875
 30
0.0
 10
388.2236328125
 20
-700.451171875
 30
0.0
 10
387.72119140625
 20
-675.17578125
 30
0.0
 10
387.72119140625
 20
-675.17578125
 30
0.0
 10
441.37353515625
 20
-675.17578125
 30
0.0
 10
441.37353515625
 20
-675.17578125
 30
0.0
  0
SPLINE
  5
57
330
3C
100
AcDbEntity
  8
Layer 1
370
     0
100
AcDbSpline
210
0.0
220
0.0
230
1.0
 70
    11
 71
     3
 72
    14
 73
    10
 74
     0
 42
0.0000000001
 43
0.0000000001
 40
0.0
 40
0.0
 40
0.0
 40
0.0
 40
1.0
 40
1.0
 40
1.0
 40
2.0
 40
2.0
 40
2.0
 40
3.0
 40
3.0
 40
3.0
 40
3.0
 10
392.388671875
 20
-755.1025390625
 30
0.0
 10
409.85107421875
 20
-758.798828125
 30
0.0
 10
426.0439453125
 20
-763.7919921875
 30
0.0
 10
440.74365234375
 20
-770.1171875
 30
0.0
 10
425.24951171875
 20
-773.7978515625
 30
0.0
 10
409.03564453125
 20
-774.521484375
 30
0.0
 10
394.8701171875
 20
-772.3212890625
 30
0.0
 10
393.9609375
 20
-767.1103515625
 30
0.0
 10
393.1328125
 20
-761.3779296875
 30
0.0
 10
392.388671875
 20
-755.1025390625
 30
0.0
  0
SPLINE
  5
58
330
3C
100
AcDbEntity
  8
Layer 1
370
     0
100
AcDbSpline
210
0.0
220
0.0
230
1.0
 70
    11
 71
     3
 72
    14
 73
    10
 74
     0
 42
0.0000000001
 43
0.0000000001
 40
0.0
 40
0.0
 40
0.0
 40
0.0
 40
1.0
 40
1.0
 40
1.0
 40
2.0
 40
2.0
 40
2.0
 40
3.0
 40
3.0
 40
3.0
 40
3.0
 10
272.56640625
 20
-680.125
 30
0.0
 10
272.521484375
 20
-685.2158203125
 30
0.0
 10
272.46875
 20
-690.1826171875
 30
0.0
 10
272.4013671875
 20
-694.8955078125
 30
0.0
 10
270.59814453125
 20
-691.1083984375
 30
0.0
 10
269.20166015625
 20
-687.0
 30
0.0
 10
268.15576171875
 20
-682.4677734375
 30
0.0
 10
269.6328125
 20
-681.6396484375
 30
0.0
 10
271.0986328125
 20
-680.8896484375
 30
0.0
 10
272.56640625
 20
-680.125
 30
0.0
  0
SPLINE
  5
59
330
3C
100
AcDbEntity
  8
Layer 1
370
     0
100
AcDbSpline
210
0.0
220
0.0
230
1.0
 70
    11
 71
     3
 72
    65
 73
    61
 74
     0
 42
0.0000000001
 43
0.0000000001
 40
0.0
 40
0.0
 40
0.0
 40
0.0
 40
1.0
 40
1.0
 40
1.0
 40
2.0
 40
2.0
 40
2.0
 40
3.0
 40
3.0
 40
3.0
 40
4.0
 40
4.0
 40
4.0
 40
5.0
 40
5.0
 40
5.0
 40
6.0
 40
6.0
 40
6.0
 40
7.0
 40
7.0
 40
7.0
 40
8.0
 40
8.0
 40
8.0
 40
9.0
 40
9.0
 40
9.0
 40
10.0
 40
10.0
 40
10.0
 40
11.0
 40
11.0
 40
11.0
 40
12.0
 40
12.0
 40
12.0
 40
13.0
 40
13.0
 40
13.0
 40
14.0
 40
14.0
 40
14.0
 40
15.0
 40
15.0
 40
15.0
 40
16.0
 40
16.0
 40
16.0
 40
17.0
 40
17.0
 40
17.0
 40
18.0
 40
18.0
 40
18.0
 40
19.0
 40
19.0
 40
19.0
 40
20.0
 40
20.0
 40
20.0
 40
20.0
 10
170.6884765625
 20
-780.0625
 30
0.0
 10
175.60693359375
 20
-748.7294921875
 30
0.0
 10
194.0361328125
 20
-721.107421875
 30
0.0
 10
222.5166015625
 20
-701.3212890625
 30
0.0
 10
222.3408203125
 20
-701.576171875
 30
0.0
 10
222.16064453125
 20
-701.837890625
 30
0.0
 10
221.984375
 20
-702.1005859375
 30
0.0
 10
210.0966796875
 20
-719.705078125
 30
0.0
 10
206.6962890625
 20
-746.1728515625
 30
0.0
 10
223.8173828125
 20
-760.5458984375
 30
0.0
 10
225.9921875
 20
-762.375
 30
0.0
 10
228.81103515625
 20
-763.3798828125
 30
0.0
 10
231.7578125
 20
-763.3798828125
 30
0.0
 10
235.802734375
 20
-763.3798828125
 30
0.0
 10
239.54052734375
 20
-761.5732421875
 30
0.0
 10
241.75244140625
 20
-758.5400390625
 30
0.0
 10
243.7841796875
 20
-755.7626953125
 30
0.0
 10
244.28662109375
 20
-752.283203125
 30
0.0
 10
243.158203125
 20
-748.751953125
 30
0.0
 10
237.06640625
 20
-729.6591796875
 30
0.0
 10
232.6689453125
 20
-715.859375
 30
0.0
 10
246.42333984375
 20
-699.4091796875
 30
0.0
 10
249.119140625
 20
-696.1923828125
 30
0.0
 10
252.328125
 20
-693.1630859375
 30
0.0
 10
256.1552734375
 20
-690.2392578125
 30
0.0
 10
258.787109375
 20
-700.59375
 30
0.0
 10
265.033203125
 20
-710.09375
 30
0.0
 10
271.9365234375
 20
-717.568359375
 30
0.0
 10
271.18310546875
 20
-745.490234375
 30
0.0
 10
269.87109375
 20
-764.3994140625
 30
0.0
 10
267.98876953125
 20
-774.162109375
 30
0.0
 10
267.48828125
 20
-776.7490234375
 30
0.0
 10
266.84375
 20
-779.23828125
 30
0.0
 10
266.13330078125
 20
-781.6826171875
 30
0.0
 10
263.3251953125
 20
-782.7470703125
 30
0.0
 10
260.6240234375
 20
-784.15234375
 30
0.0
 10
258.142578125
 20
-786.015625
 30
0.0
 10
252.6767578125
 20
-790.1318359375
 30
0.0
 10
250.5283203125
 20
-796.4228515625
 30
0.0
 10
252.5380859375
 20
-802.4287109375
 30
0.0
 10
252.91845703125
 20
-803.568359375
 30
0.0
 10
253.4677734375
 20
-804.6103515625
 30
0.0
 10
254.09765625
 20
-805.5849609375
 30
0.0
 10
251.65673828125
 20
-808.7265625
 30
0.0
 10
248.9462890625
 20
-811.6884765625
 30
0.0
 10
245.93408203125
 20
-814.447265625
 30
0.0
 10
241.91552734375
 20
-818.125
 30
0.0
 10
236.16650390625
 20
-821.146484375
 30
0.0
 10
228.76806640625
 20
-823.5458984375
 30
0.0
 10
227.984375
 20
-823.3701171875
 30
0.0
 10
227.1953125
 20
-823.212890625
 30
0.0
 10
226.39306640625
 20
-823.212890625
 30
0.0
 10
223.79150390625
 20
-823.212890625
 30
0.0
 10
221.34912109375
 20
-824.2509765625
 30
0.0
 10
219.32275390625
 20
-826.0732421875
 30
0.0
 10
208.12841796875
 20
-828.513671875
 30
0.0
 10
194.1640625
 20
-829.904296875
 30
0.0
 10
177.39892578125
 20
-830.2412109375
 30
0.0
 10
170.4765625
 20
-814.9345703125
 30
0.0
 10
168.01171875
 20
-797.1123046875
 30
0.0
 10
170.6884765625
 20
-780.0625
 30
0.0
  0
SPLINE
  5
5A
330
3C
100
AcDbEntity
  8
Layer 1
370
     0
100
AcDbSpline
210
0.0
220
0.0
230
1.0
 70
    11
 71
     3
 72
    20
 73
    16
 74
     0
 42
0.0000000001
 43
0.0000000001
 40
0.0
 40
0.0
 40
0.0
 40
0.0
 40
1.0
 40
1.0
 40
1.0
 40
2.0
 40
2.0
 40
2.0
 40
3.0
 40
3.0
 40
3.0
 40
4.0
 40
4.0
 40
4.0
 40
5.0
 40
5.0
 40
5.0
 40
5.0
 10
236.69140625
 20
-871.880859375
 30
0.0
 10
231.9453125
 20
-871.880859375
 30
0.0
 10
227.2705078125
 20
-871.265625
 30
0.0
 10
222.783203125
 20
-870.05859375
 30
0.0
 10
214.9853515625
 20
-867.966796875
 30
0.0
 10
207.82861328125
 20
-864.6005859375
 30
0.0
 10
201.3955078125
 20
-860.01171875
 30
0.0
 10
207.52490234375
 20
-860.2177734375
 30
0.0
 10
213.29443359375
 20
-859.2802734375
 30
0.0
 10
218.43798828125
 20
-857.3798828125
 30
0.0
 10
218.43798828125
 20
-857.3798828125
 30
0.0
 10
273.9833984375
 20
-857.3798828125
 30
0.0
 10
273.9833984375
 20
-857.3798828125
 30
0.0
 10
264.15771484375
 20
-866.5869140625
 30
0.0
 10
250.6220703125
 20
-871.880859375
 30
0.0
 10
236.69140625
 20
-871.880859375
 30
0.0
  0
SPLINE
  5
5B
330
3C
100
AcDbEntity
  8
Layer 1
370
     0
100
AcDbSpline
210
0.0
220
0.0
230
1.0
 70
    11
 71
     3
 72
    29
 73
    25
 74
     0
 42
0.0000000001
 43
0.0000000001
 40
0.0
 40
0.0
 40
0.0
 40
0.0
 40
1.0
 40
1.0
 40
1.0
 40
2.0
 40
2.0
 40
2.0
 40
3.0
 40
3.0
 40
3.0
 40
4.0
 40
4.0
 40
4.0
 40
5.0
 40
5.0
 40
5.0
 40
6.0
 40
6.0
 40
6.0
 40
7.0
 40
7.0
 40
7.0
 40
8.0
 40
8.0
 40
8.0
 40
8.0
 10
405.607421875
 20
-805.330078125
 30
0.0
 10
402.716796875
 20
-801.37109375
 30
0.0
 10
400.1728515625
 20
-795.181640625
 30
0.0
 10
397.970703125
 20
-786.818359375
 30
0.0
 10
403.9443359375
 20
-787.70703125
 30
0.0
 10
409.9970703125
 20
-788.1982421875
 30
0.0
 10
416.10205078125
 20
-788.1982421875
 30
0.0
 10
430.9365234375
 20
-788.1982421875
 30
0.0
 10
446.04443359375
 20
-785.603515625
 30
0.0
 10
460.9951171875
 20
-780.482421875
 30
0.0
 10
460.9951171875
 20
-780.482421875
 30
0.0
 10
461.294921875
 20
-780.3779296875
 30
0.0
 10
461.294921875
 20
-780.3779296875
 30
0.0
 10
465.91357421875
 20
-783.0322265625
 30
0.0
 10
470.08251953125
 20
-785.6708984375
 30
0.0
 10
473.99609375
 20
-788.4150390625
 30
0.0
 10
490.60205078125
 20
-800.0595703125
 30
0.0
 10
501.3876953125
 20
-815.2568359375
 30
0.0
 10
503.9482421875
 20
-830.328125
 30
0.0
 10
503.9482421875
 20
-830.328125
 30
0.0
 10
503.8203125
 20
-830.328125
 30
0.0
 10
503.8203125
 20
-830.328125
 30
0.0
 10
450.498046875
 20
-830.328125
 30
0.0
 10
417.75537109375
 20
-822.0048828125
 30
0.0
 10
405.607421875
 20
-805.330078125
 30
0.0
  0
SPLINE
  5
5C
330
3C
100
AcDbEntity
  8
Layer 1
370
     0
100
AcDbSpline
210
0.0
220
0.0
230
1.0
 70
    11
 71
     3
 72
    56
 73
    52
 74
     0
 42
0.0000000001
 43
0.0000000001
 40
0.0
 40
0.0
 40
0.0
 40
0.0
 40
1.0
 40
1.0
 40
1.0
 40
2.0
 40
2.0
 40
2.0
 40
3.0
 40
3.0
 40
3.0
 40
4.0
 40
4.0
 40
4.0
 40
5.0
 40
5.0
 40
5.0
 40
6.0
 40
6.0
 40
6.0
 40
7.0
 40
7.0
 40
7.0
 40
8.0
 40
8.0
 40
8.0
 40
9.0
 40
9.0
 40
9.0
 40
10.0
 40
10.0
 40
10.0
 40
11.0
 40
11.0
 40
11.0
 40
12.0
 40
12.0
 40
12.0
 40
13.0
 40
13.0
 40
13.0
 40
14.0
 40
14.0
 40
14.0
 40
15.0
 40
15.0
 40
15.0
 40
16.0
 40
16.0
 40
16.0
 40
17.0
 40
17.0
 40
17.0
 40
17.0
 10
563.2216796875
 20
-830.328125
 30
0.0
 10
563.2216796875
 20
-830.328125
 30
0.0
 10
531.427734375
 20
-830.328125
 30
0.0
 10
531.427734375
 20
-830.328125
 30
0.0
 10
530.966796875
 20
-829.9716796875
 30
0.0
 10
530.5087890625
 20
-829.6005859375
 30
0.0
 10
530.041015625
 20
-829.255859375
 30
0.0
 10
529.79296875
 20
-827.1708984375
 30
0.0
 10
529.4482421875
 20
-825.1171875
 30
0.0
 10
529.013671875
 20
-823.1298828125
 30
0.0
 10
528.533203125
 20
-820.970703125
 30
0.0
 10
527.9560546875
 20
-818.833984375
 30
0.0
 10
527.28125
 20
-816.7265625
 30
0.0
 10
529.193359375
 20
-817.4765625
 30
0.0
 10
531.142578125
 20
-818.1591796875
 30
0.0
 10
533.0625
 20
-818.7509765625
 30
0.0
 10
538.5732421875
 20
-820.4384765625
 30
0.0
 10
543.8740234375
 20
-816.232421875
 30
0.0
 10
544.2490234375
 20
-810.1142578125
 30
0.0
 10
544.5634765625
 20
-805.0224609375
 30
0.0
 10
541.384765625
 20
-801.041015625
 30
0.0
 10
536.5263671875
 20
-800.44140625
 30
0.0
 10
531.4052734375
 20
-799.8193359375
 30
0.0
 10
526.8017578125
 20
-799.1220703125
 30
0.0
 10
522.36328125
 20
-796.9921875
 30
0.0
 10
520.6904296875
 20
-796.1826171875
 30
0.0
 10
519.048828125
 20
-795.2080078125
 30
0.0
 10
517.3095703125
 20
-794.1806640625
 30
0.0
 10
516.109375
 20
-793.46875
 30
0.0
 10
514.91015625
 20
-792.763671875
 30
0.0
 10
513.6953125
 20
-792.0966796875
 30
0.0
 10
506.6474609375
 20
-783.5341796875
 30
0.0
 10
497.4345703125
 20
-775.8486328125
 30
0.0
 10
486.244140625
 20
-769.17578125
 30
0.0
 10
493.873046875
 20
-764.69921875
 30
0.0
 10
500.35498046875
 20
-759.6201171875
 30
0.0
 10
505.5751953125
 20
-754.015625
 30
0.0
 10
533.556640625
 20
-753.4228515625
 30
0.0
 10
562.65625
 20
-741.587890625
 30
0.0
 10
587.923828125
 20
-729.5205078125
 30
0.0
 10
599.96484375
 20
-753.0146484375
 30
0.0
 10
616.89453125
 20
-774.431640625
 30
0.0
 10
633.712890625
 20
-787.3203125
 30
0.0
 10
647.1787109375
 20
-797.6484375
 30
0.0
 10
662.9990234375
 20
-804.6669921875
 30
0.0
 10
679.6435546875
 20
-808.0595703125
 30
0.0
 10
675.3701171875
 20
-810.3720703125
 30
0.0
 10
671.06640625
 20
-812.4267578125
 30
0.0
 10
666.732421875
 20
-814.1552734375
 30
0.0
 10
639.6767578125
 20
-824.9443359375
 30
0.0
 10
605.171875
 20
-830.328125
 30
0.0
 10
563.2216796875
 20
-830.328125
 30
0.0
  0
SPLINE
  5
5D
330
3C
100
AcDbEntity
  8
Layer 1
370
     0
100
AcDbSpline
210
0.0
220
0.0
230
1.0
 70
    11
 71
     3
 72
    17
 73
    13
 74
     0
 42
0.0000000001
 43
0.0000000001
 40
0.0
 40
0.0
 40
0.0
 40
0.0
 40
1.0
 40
1.0
 40
1.0
 40
2.0
 40
2.0
 40
2.0
 40
3.0
 40
3.0
 40
3.0
 40
4.0
 40
4.0
 40
4.0
 40
4.0
 10
838.2744140625
 20
-678.587890625
 30
0.0
 10
833.3369140625
 20
-682.5009765625
 30
0.0
 10
828.8271484375
 20
-686.828125
 30
0.0
 10
824.580078125
 20
-691.37890625
 30
0.0
 10
824.580078125
 20
-691.37890625
 30
0.0
 10
825.693359375
 20
-675.17578125
 30
0.0
 10
825.693359375
 20
-675.17578125
 30
0.0
 10
825.693359375
 20
-675.17578125
 30
0.0
 10
842.826171875
 20
-675.17578125
 30
0.0
 10
842.826171875
 20
-675.17578125
 30
0.0
 10
841.28125
 20
-676.2666015625
 30
0.0
 10
839.7666015625
 20
-677.4033203125
 30
0.0
 10
838.2744140625
 20
-678.587890625
 30
0.0
  0
HATCH
  5
5E
330
3C
100
AcDbEntity
  8
Layer 1
 62
     7
100
AcDbHatch
 10
0.0
 20
0.0
 30
0.0
210
0.0
220
0.0
230
1.0
  2
SOLID
 70
     1
 71
     0
 91
       14
 92
        1
 93
        1
 72
     4
 94
        3
 73
     0
 74
     1
 95
      272
 96
      268
 40
0.0
 40
0.0
 40
0.0
 40
0.0
 40
1.0
 40
1.0
 40
1.0
 40
2.0
 40
2.0
 40
2.0
 40
3.0
 40
3.0
 40
3.0
 40
4.0
 40
4.0
 40
4.0
 40
5.0
 40
5.0
 40
5.0
 40
6.0
 40
6.0
 40
6.0
 40
7.0
 40
7.0
 40
7.0
 40
8.0
 40
8.0
 40
8.0
 40
9.0
 40
9.0
 40
9.0
 40
10.0
 40
10.0
 40
10.0
 40
11.0
 40
11.0
 40
11.0
 40
12.0
 40
12.0
 40
12.0
 40
13.0
 40
13.0
 40
13.0
 40
14.0
 40
14.0
 40
14.0
 40
15.0
 40
15.0
 40
15.0
 40
16.0
 40
16.0
 40
16.0
 40
17.0
 40
17.0
 40
17.0
 40
18.0
 40
18.0
 40
18.0
 40
19.0
 40
19.0
 40
19.0
 40
20.0
 40
20.0
 40
20.0
 40
21.0
 40
21.0
 40
21.0
 40
22.0
 40
22.0
 40
22.0
 40
23.0
 40
23.0
 40
23.0
 40
24.0
 40
24.0
 40
24.0
 40
25.0
 40
25.0
 40
25.0
 40
26.0
 40
26.0
 40
26.0
 40
27.0
 40
27.0
 40
27.0
 40
28.0
 40
28.0
 40
28.0
 40
29.0
 40
29.0
 40
29.0
 40
30.0
 40
30.0
 40
30.0
 40
31.0
 40
31.0
 40
31.0
 40
32.0
 40
32.0
 40
32.0
 40
33.0
 40
33.0
 40
33.0
 40
34.0
 40
34.0
 40
34.0
 40
35.0
 40
35.0
 40
35.0
 40
36.0
 40
36.0
 40
36.0
 40
37.0
 40
37.0
 40
37.0
 40
38.0
 40
38.0
 40
38.0
 40
39.0
 40
39.0
 40
39.0
 40
40.0
 40
40.0
 40
40.0
 40
41.0
 40
41.0
 40
41.0
 40
42.0
 40
42.0
 40
42.0
 40
43.0
 40
43.0
 40
43.0
 40
44.0
 40
44.0
 40
44.0
 40
45.0
 40
45.0
 40
45.0
 40
46.0
 40
46.0
 40
46.0
 40
47.0
 40
47.0
 40
47.0
 40
48.0
 40
48.0
 40
48.0
 40
49.0
 40
49.0
 40
49.0
 40
50.0
 40
50.0
 40
50.0
 40
51.0
 40
51.0
 40
51.0
 40
52.0
 40
52.0
 40
52.0
 40
53.0
 40
53.0
 40
53.0
 40
54.0
 40
54.0
 40
54.0
 40
55.0
 40
55.0
 40
55.0
 40
56.0
 40
56.0
 40
56.0
 40
57.0
 40
57.0
 40
57.0
 40
58.0
 40
58.0
 40
58.0
 40
59.0
 40
59.0
 40
59.0
 40
60.0
 40
60.0
 40
60.0
 40
61.0
 40
61.0
 40
61.0
 40
62.0
 40
62.0
 40
62.0
 40
63.0
 40
63.0
 40
63.0
 40
64.0
 40
64.0
 40
64.0
 40
65.0
 40
65.0
 40
65.0
 40
66.0
 40
66.0
 40
66.0
 40
67.0
 40
67.0
 40
67.0
 40
68.0
 40
68.0
 40
68.0
 40
69.0
 40
69.0
 40
69.0
 40
70.0
 40
70.0
 40
70.0
 40
71.0
 40
71.0
 40
71.0
 40
72.0
 40
72.0
 40
72.0
 40
73.0
 40
73.0
 40
73.0
 40
74.0
 40
74.0
 40
74.0
 40
75.0
 40
75.0
 40
75.0
 40
76.0
 40
76.0
 40
76.0
 40
77.0
 40
77.0
 40
77.0
 40
78.0
 40
78.0
 40
78.0
 40
79.0
 40
79.0
 40
79.0
 40
80.0
 40
80.0
 40
80.0
 40
81.0
 40
81.0
 40
81.0
 40
82.0
 40
82.0
 40
82.0
 40
83.0
 40
83.0
 40
83.0
 40
84.0
 40
84.0
 40
84.0
 40
85.0
 40
85.0
 40
85.0
 40
86.0
 40
86.0
 40
86.0
 40
87.0
 40
87.0
 40
87.0
 40
88.0
 40
88.0
 40
88.0
 40
89.0
 40
89.0
 40
89.0
 40
89.0
 10
97.599609375
 20
-658.021484375
 10
97.599609375
 20
-658.021484375
 10
97.599609375
 20
-675.17578125
 10
97.599609375
 20
-675.17578125
 10
97.599609375
 20
-675.17578125
 10
240.2529296875
 20
-675.17578125
 10
240.2529296875
 20
-675.17578125
 10
230.21337890625
 20
-680.1474609375
 10
220.62744140625
 20
-686.115234375
 10
211.60009765625
 20
-693.0283203125
 10
203.00390625
 20
-697.009765625
 10
195.77197265625
 20
-700.03125
 10
188.015625
 20
-700.03125
 10
184.33056640625
 20
-700.03515625
 10
180.74267578125
 20
-699.3486328125
 10
177.0537109375
 20
-697.939453125
 10
172.607421875
 20
-696.2373046875
 10
166.83056640625
 20
-693.890625
 10
161.6083984375
 20
-690.8125
 10
161.6083984375
 20
-690.8125
 10
159.681640625
 20
-689.654296875
 10
159.681640625
 20
-689.654296875
 10
155.857421875
 20
-687.318359375
 10
152.24365234375
 20
-685.1142578125
 10
146.23046875
 20
-684.94921875
 10
143.42626953125
 20
-684.94921875
 10
140.79443359375
 20
-686.2431640625
 10
139.01025390625
 20
-688.4921875
 10
137.1279296875
 20
-690.873046875
 10
136.41943359375
 20
-694.033203125
 10
137.11328125
 20
-696.94921875
 10
141.5146484375
 20
-715.37890625
 10
166.44091796875
 20
-716.8115234375
 10
173.97607421875
 20
-716.8115234375
 10
176.4541015625
 20
-716.8115234375
 10
178.86083984375
 20
-716.68359375
 10
181.1328125
 20
-716.4326171875
 10
182.984375
 20
-716.2265625
 10
185.21875
 20
-715.9111328125
 10
187.70068359375
 20
-715.423828125
 10
186.6474609375
 20
-716.654296875
 10
185.60888671875
 20
-717.90625
 10
184.5966796875
 20
-719.1806640625
 10
183.775390625
 20
-719.48046875
 10
183.0556640625
 20
-720.0087890625
 10
182.51220703125
 20
-720.7255859375
 10
179.72314453125
 20
-724.421875
 10
176.85888671875
 20
-728.42578125
 10
173.8896484375
 20
-732.564453125
 10
155.31787109375
 20
-758.4951171875
 10
134.26416015625
 20
-788.0400390625
 10
102.4658203125
 20
-785.6630859375
 10
95.44775390625
 20
-785.1162109375
 10
90.431640625
 20
-789.8173828125
 10
90.1171875
 20
-796.677734375
 10
89.83203125
 20
-802.86328125
 10
93.87353515625
 20
-809.84375
 10
101.92578125
 20
-810.5859375
 10
122.7548828125
 20
-812.5205078125
 10
137.3828125
 20
-799.474609375
 10
148.73486328125
 20
-786.7509765625
 10
151.29150390625
 20
-783.88671875
 10
153.912109375
 20
-780.939453125
 10
156.5400390625
 20
-777.91796875
 10
152.8642578125
 20
-796.126953125
 10
153.728515625
 20
-813.9677734375
 10
158.92431640625
 20
-830.328125
 10
158.92431640625
 20
-830.328125
 10
152.7177734375
 20
-830.328125
 10
152.7177734375
 20
-830.328125
 10
152.7177734375
 20
-830.328125
 10
152.7177734375
 20
-857.3798828125
 10
152.7177734375
 20
-857.3798828125
 10
152.7177734375
 20
-857.3798828125
 10
172.64892578125
 20
-857.3798828125
 10
172.64892578125
 20
-857.3798828125
 10
174.388671875
 20
-859.7080078125
 10
176.23828125
 20
-861.9794921875
 10
178.2275390625
 20
-864.158203125
 10
178.3583984375
 20
-866.8046875
 10
178.6884765625
 20
-869.40625
 10
179.0068359375
 20
-871.9404296875
 10
179.400390625
 20
-875.07421875
 10
179.775390625
 20
-878.0283203125
 10
179.783203125
 20
-880.9599609375
 10
179.81298828125
 20
-890.1376953125
 10
177.6611328125
 20
-898.1005859375
 10
172.802734375
 20
-906.783203125
 10
172.51025390625
 20
-907.3154296875
 10
172.0751953125
 20
-908.02734375
 10
171.55810546875
 20
-908.8896484375
 10
165.8447265625
 20
-918.3671875
 10
160.0712890625
 20
-929.05078125
 10
163.8955078125
 20
-935.814453125
 10
165.10986328125
 20
-937.9658203125
 10
167.779296875
 20
-940.5224609375
 10
173.62353515625
 20
-940.5224609375
 10
173.9794921875
 20
-940.5224609375
 10
174.34716796875
 20
-940.515625
 10
174.7255859375
 20
-940.4931640625
 10
192.716796875
 20
-939.6083984375
 10
195.5322265625
 20
-910.1640625
 10
196.59326171875
 20
-899.0830078125
 10
197.08056640625
 20
-894.029296875
 10
197.748046875
 20
-887.1240234375
 10
197.4892578125
 20
-880.0830078125
 10
211.0302734375
 20
-888.3828125
 10
226.494140625
 20
-892.8896484375
 10
241.8046875
 20
-892.8896484375
 10
255.05712890625
 20
-892.8896484375
 10
267.9873046875
 20
-889.462890625
 10
279.263671875
 20
-882.9697265625
 10
284.8798828125
 20
-882.580078125
 10
290.25537109375
 20
-883.052734375
 10
295.1142578125
 20
-884.4697265625
 10
298.2216796875
 20
-885.369140625
 10
301.314453125
 20
-887.828125
 10
304.59130859375
 20
-890.4375
 10
309.47607421875
 20
-894.3212890625
 10
314.52587890625
 20
-898.3330078125
 10
320.99658203125
 20
-898.3330078125
 10
322.353515625
 20
-898.3330078125
 10
323.71826171875
 20
-898.1455078125
 10
325.060546875
 20
-897.7783203125
 10
329.20654296875
 20
-896.638671875
 10
332.07421875
 20
-892.9189453125
 10
332.18701171875
 20
-888.525390625
 10
332.64794921875
 20
-871.1162109375
 10
309.15380859375
 20
-869.5859375
 10
297.86572265625
 20
-868.8515625
 10
297.86572265625
 20
-868.8515625
 10
297.05615234375
 20
-868.7919921875
 10
297.05615234375
 20
-868.7919921875
 10
300.21630859375
 20
-865.369140625
 10
303.14794921875
 20
-861.5185546875
 10
305.74609375
 20
-857.3798828125
 10
305.74609375
 20
-857.3798828125
 10
497.3447265625
 20
-857.3798828125
 10
497.3447265625
 20
-857.3798828125
 10
493.6591796875
 20
-861.916015625
 10
488.7333984375
 20
-865.369140625
 10
482.888671875
 20
-867.08984375
 10
476.560546875
 20
-868.94921875
 10
472.94677734375
 20
-874.6171875
 10
473.8916015625
 20
-881.185546875
 10
474.7275390625
 20
-886.958984375
 10
479.31982421875
 20
-892.7998046875
 10
486.48046875
 20
-892.7998046875
 10
487.76220703125
 20
-892.7998046875
 10
489.07421875
 20
-892.6044921875
 10
490.3828125
 20
-892.21484375
 10
507.509765625
 20
-887.1689453125
 10
520.7509765625
 20
-874.16015625
 10
526.82421875
 20
-857.3798828125
 10
526.82421875
 20
-857.3798828125
 10
540.6875
 20
-857.3798828125
 10
540.6875
 20
-857.3798828125
 10
546.767578125
 20
-861.181640625
 10
553.8232421875
 20
-864.3828125
 10
561.5087890625
 20
-864.6455078125
 10
565.849609375
 20
-864.6455078125
 10
569.388671875
 20
-861.7470703125
 10
570.56640625
 20
-857.3798828125
 10
570.56640625
 20
-857.3798828125
 10
813.171875
 20
-857.3798828125
 10
813.171875
 20
-857.3798828125
 10
813.171875
 20
-857.3798828125
 10
819.283203125
 20
-768.486328125
 10
819.283203125
 20
-768.486328125
 10
822.5517578125
 20
-768.05859375
 10
825.6337890625
 20
-766.3642578125
 10
827.3955078125
 20
-763.7998046875
 10
829.2021484375
 20
-761.1611328125
 10
829.5322265625
 20
-757.9814453125
 10
828.3173828125
 20
-754.84765625
 10
826.0537109375
 20
-748.9697265625
 10
824.1484375
 20
-743.6162109375
 10
823.8935546875
 20
-737.572265625
 10
823.8037109375
 20
-735.30859375
 10
823.9013671875
 20
-732.9990234375
 10
824.013671875
 20
-730.5546875
 10
824.15625
 20
-727.3232421875
 10
824.306640625
 20
-724.001953125
 10
823.9765625
 20
-720.642578125
 10
827.185546875
 20
-716.60546875
 10
830.2294921875
 20
-713.017578125
 10
833.220703125
 20
-709.763671875
 10
833.1689453125
 20
-717.703125
 10
835.275390625
 20
-725.53125
 10
839.3095703125
 20
-731.259765625
 10
841.333984375
 20
-734.146484375
 10
845.337890625
 20
-735.4580078125
 10
848.4267578125
 20
-734.2060546875
 10
849.73828125
 20
-733.673828125
 10
850.5859375
 20
-732.9912109375
 10
851.3203125
 20
-732.32421875
 10
853.419921875
 20
-730.3935546875
 10
854.169921875
 20
-726.8955078125
 10
853.060546875
 20
-724.1962890625
 10
853.060546875
 20
-724.1962890625
 10
852.857421875
 20
-723.708984375
 10
852.857421875
 20
-723.708984375
 10
850.68359375
 20
-718.408203125
 10
848.8017578125
 20
-713.8271484375
 10
848.876953125
 20
-708.3837890625
 10
848.951171875
 20
-702.681640625
 10
851.103515625
 20
-697.3095703125
 10
853.240234375
 20
-692.1064453125
 10
854.58984375
 20
-691.1767578125
 10
855.9697265625
 20
-690.2763671875
 10
857.38671875
 20
-689.421875
 10
867.3056640625
 20
-683.4462890625
 10
879.384765625
 20
-680.015625
 10
890.51171875
 20
-680.015625
 10
901.6611328125
 20
-680.015625
 10
921.41015625
 20
-683.4423828125
 10
928.3681640625
 20
-706.396484375
 10
932.529296875
 20
-720.1328125
 10
927.5283203125
 20
-735.5107421875
 10
916.484375
 20
-742.9560546875
 10
909.720703125
 20
-747.5107421875
 10
902.193359375
 20
-747.9345703125
 10
896.09765625
 20
-744.0810546875
 10
892.9033203125
 20
-742.0185546875
 10
890.466796875
 20
-739.296875
 10
888.5927734375
 20
-735.66796875
 10
888.4052734375
 20
-735.3271484375
 10
888.240234375
 20
-734.9892578125
 10
888.08203125
 20
-734.65234375
 10
888.1201171875
 20
-734.65234375
 10
888.150390625
 20
-734.65234375
 10
888.1875
 20
-734.65234375
 10
893.728515625
 20
-734.65234375
 10
898.9619140625
 20
-732.13671875
 10
902.1787109375
 20
-727.9228515625
 10
905.4619140625
 20
-723.630859375
 10
906.3544921875
 20
-717.90625
 10
904.6904296875
 20
-711.802734375
 10
902.60546875
 20
-704.1474609375
 10
896.150390625
 20
-699.2060546875
 10
888.240234375
 20
-699.2060546875
 10
885.4287109375
 20
-699.2060546875
 10
882.548828125
 20
-699.84765625
 10
879.90234375
 20
-701.06640625
 10
868.025390625
 20
-706.546875
 10
864.6064453125
 20
-720.6728515625
 10
865.28125
 20
-731.1025390625
 10
866.646484375
 20
-752.095703125
 10
884.2880859375
 20
-769.16796875
 10
904.599609375
 20
-769.16796875
 10
906.939453125
 20
-769.16796875
 10
909.2783203125
 20
-768.939453125
 10
911.5732421875
 20
-768.482421875
 10
933.0390625
 20
-764.197265625
 10
950.314453125
 20
-741.8837890625
 10
950.8916015625
 20
-717.6845703125
 10
951.4765625
 20
-693.5009765625
 10
936.3310546875
 20
-670.7001953125
 10
914.0546875
 20
-662.2421875
 10
910.0810546875
 20
-660.7353515625
 10
905.9267578125
 20
-659.640625
 10
901.6611328125
 20
-658.9775390625
 10
901.6611328125
 20
-658.9775390625
 10
901.6611328125
 20
-658.021484375
 10
901.6611328125
 20
-658.021484375
 10
901.6611328125
 20
-658.021484375
 10
97.599609375
 20
-658.021484375
 10
97.599609375
 20
-658.021484375
 97
        0
 92
        1
 93
        1
 72
     4
 94
        3
 73
     0
 74
     1
 95
       17
 96
       13
 40
0.0
 40
0.0
 40
0.0
 40
0.0
 40
1.0
 40
1.0
 40
1.0
 40
2.0
 40
2.0
 40
2.0
 40
3.0
 40
3.0
 40
3.0
 40
4.0
 40
4.0
 40
4.0
 40
4.0
 10
781.9814453125
 20
-675.17578125
 10
780.046875
 20
-680.2705078125
 10
778.0595703125
 20
-685.23828125
 10
776.005859375
 20
-690.0556640625
 10
773.05859375
 20
-685.3583984375
 10
769.4296875
 20
-681.0693359375
 10
765.1259765625
 20
-677.41015625
 10
764.21875
 20
-676.6376953125
 10
763.2890625
 20
-675.8955078125
 10
762.3369140625
 20
-675.17578125
 10
762.3369140625
 20
-675.17578125
 10
781.9814453125
 20
-675.17578125
 10
781.9814453125
 20
-675.17578125
 97
        0
 92
        1
 93
        1
 72
     4
 94
        3
 73
     0
 74
     1
 95
       65
 96
       61
 40
0.0
 40
0.0
 40
0.0
 40
0.0
 40
1.0
 40
1.0
 40
1.0
 40
2.0
 40
2.0
 40
2.0
 40
3.0
 40
3.0
 40
3.0
 40
4.0
 40
4.0
 40
4.0
 40
5.0
 40
5.0
 40
5.0
 40
6.0
 40
6.0
 40
6.0
 40
7.0
 40
7.0
 40
7.0
 40
8.0
 40
8.0
 40
8.0
 40
9.0
 40
9.0
 40
9.0
 40
10.0
 40
10.0
 40
10.0
 40
11.0
 40
11.0
 40
11.0
 40
12.0
 40
12.0
 40
12.0
 40
13.0
 40
13.0
 40
13.0
 40
14.0
 40
14.0
 40
14.0
 40
15.0
 40
15.0
 40
15.0
 40
16.0
 40
16.0
 40
16.0
 40
17.0
 40
17.0
 40
17.0
 40
18.0
 40
18.0
 40
18.0
 40
19.0
 40
19.0
 40
19.0
 40
20.0
 40
20.0
 40
20.0
 40
20.0
 10
741.98046875
 20
-690.8837890625
 10
754.029296875
 20
-697.5458984375
 10
760.5751953125
 20
-709.837890625
 10
759.9189453125
 20
-722.9111328125
 10
754.8994140625
 20
-731.814453125
 10
749.62109375
 20
-740.099609375
 10
744.068359375
 20
-747.6982421875
 10
743.0
 20
-749.1572265625
 10
741.927734375
 20
-750.56640625
 10
740.85546875
 20
-751.9833984375
 10
740.6572265625
 20
-752.0654296875
 10
740.4697265625
 20
-752.1669921875
 10
740.271484375
 20
-752.23828125
 10
734.35546875
 20
-754.3974609375
 10
729.9765625
 20
-754.66015625
 10
726.669921875
 20
-753.0517578125
 10
724.248046875
 20
-751.875
 10
721.31640625
 20
-748.7822265625
 10
720.806640625
 20
-745.8388671875
 10
720.5517578125
 20
-744.373046875
 10
720.94921875
 20
-743.162109375
 10
722.05859375
 20
-742.0263671875
 10
726.4228515625
 20
-737.5654296875
 10
727.64453125
 20
-731.9716796875
 10
725.41796875
 20
-726.6787109375
 10
723.0859375
 20
-721.1298828125
 10
717.41015625
 20
-717.25390625
 10
711.6142578125
 20
-717.25390625
 10
707.0859375
 20
-717.25390625
 10
703.1640625
 20
-719.5634765625
 10
700.578125
 20
-723.76171875
 10
694.2568359375
 20
-734.01171875
 10
693.2900390625
 20
-746.65625
 10
697.998046875
 20
-757.583984375
 10
702.05859375
 20
-767.0087890625
 10
709.6796875
 20
-773.982421875
 10
719.2734375
 20
-777.2587890625
 10
713.728515625
 20
-782.94140625
 10
708.1279296875
 20
-788.0888671875
 10
702.4599609375
 20
-792.681640625
 10
702.384765625
 20
-792.681640625
 10
702.3056640625
 20
-792.6884765625
 10
702.2275390625
 20
-792.6884765625
 10
673.0537109375
 20
-792.6884765625
 10
645.8515625
 20
-779.7705078125
 10
625.615234375
 20
-756.3017578125
 10
617.869140625
 20
-747.3349609375
 10
611.173828125
 20
-735.765625
 10
605.1904296875
 20
-721.021484375
 10
607.642578125
 20
-719.7880859375
 10
610.064453125
 20
-718.55859375
 10
612.44921875
 20
-717.3515625
 10
622.0380859375
 20
-712.4921875
 10
631.087890625
 20
-707.9072265625
 10
639.328125
 20
-704.1884765625
 10
662.931640625
 20
-693.5302734375
 10
688.041015625
 20
-683.6708984375
 10
711.697265625
 20
-683.6708984375
 10
723.130859375
 20
-683.6708984375
 10
733.3203125
 20
-686.1005859375
 10
741.98046875
 20
-690.8837890625
 97
        0
 92
        1
 93
        1
 72
     4
 94
        3
 73
     0
 74
     1
 95
       20
 96
       16
 40
0.0
 40
0.0
 40
0.0
 40
0.0
 40
1.0
 40
1.0
 40
1.0
 40
2.0
 40
2.0
 40
2.0
 40
3.0
 40
3.0
 40
3.0
 40
4.0
 40
4.0
 40
4.0
 40
5.0
 40
5.0
 40
5.0
 40
5.0
 10
654.443359375
 20
-675.17578125
 10
638.1435546875
 20
-681.9169921875
 10
622.4580078125
 20
-690.306640625
 10
607.1474609375
 20
-698.494140625
 10
604.3212890625
 20
-700.0048828125
 10
601.501953125
 20
-701.515625
 10
598.67578125
 20
-703.015625
 10
595.826171875
 20
-694.265625
 10
593.2919921875
 20
-685.376953125
 10
590.8251953125
 20
-676.7353515625
 10
590.8251953125
 20
-676.7353515625
 10
590.375
 20
-675.17578125
 10
590.375
 20
-675.17578125
 10
590.375
 20
-675.17578125
 10
654.443359375
 20
-675.17578125
 10
654.443359375
 20
-675.17578125
 97
        0
 92
        1
 93
        1
 72
     4
 94
        3
 73
     0
 74
     1
 95
       20
 96
       16
 40
0.0
 40
0.0
 40
0.0
 40
0.0
 40
1.0
 40
1.0
 40
1.0
 40
2.0
 40
2.0
 40
2.0
 40
3.0
 40
3.0
 40
3.0
 40
4.0
 40
4.0
 40
4.0
 40
5.0
 40
5.0
 40
5.0
 40
5.0
 10
571.248046875
 20
-675.17578125
 10
572.095703125
 20
-686.8427734375
 10
575.109375
 20
-699.37109375
 10
580.23046875
 20
-712.5078125
 10
562.5810546875
 20
-721.2158203125
 10
541.8798828125
 20
-730.0595703125
 10
518.8916015625
 20
-733.5048828125
 10
520.03125
 20
-730.7568359375
 10
520.9677734375
 20
-727.94921875
 10
521.703125
 20
-725.1005859375
 10
526.2919921875
 20
-707.248046875
 10
522.294921875
 20
-688.296875
 10
511.74609375
 20
-675.17578125
 10
511.74609375
 20
-675.17578125
 10
571.248046875
 20
-675.17578125
 10
571.248046875
 20
-675.17578125
 97
        0
 92
        1
 93
        1
 72
     4
 94
        3
 73
     0
 74
     1
 95
       23
 96
       19
 40
0.0
 40
0.0
 40
0.0
 40
0.0
 40
1.0
 40
1.0
 40
1.0
 40
2.0
 40
2.0
 40
2.0
 40
3.0
 40
3.0
 40
3.0
 40
4.0
 40
4.0
 40
4.0
 40
5.0
 40
5.0
 40
5.0
 40
6.0
 40
6.0
 40
6.0
 40
6.0
 10
452.96484375
 20
-694.962890625
 10
453.7861328125
 20
-688.435546875
 10
457.12646484375
 20
-683.3857421875
 10
462.8994140625
 20
-679.9443359375
 10
466.84716796875
 20
-677.59375
 10
471.072265625
 20
-676.3984375
 10
475.451171875
 20
-676.3984375
 10
488.69189453125
 20
-676.3984375
 10
501.4140625
 20
-687.4052734375
 10
504.4208984375
 20
-701.4560546875
 10
507.3974609375
 20
-715.3271484375
 10
502.6513671875
 20
-726.9931640625
 10
497.65185546875
 20
-734.794921875
 10
482.56640625
 20
-734.138671875
 10
470.9375
 20
-729.8046875
 10
463.064453125
 20
-721.890625
 10
455.904296875
 20
-714.7001953125
 10
451.84423828125
 20
-703.8779296875
 10
452.96484375
 20
-694.962890625
 97
        0
 92
        1
 93
        1
 72
     4
 94
        3
 73
     0
 74
     1
 95
       29
 96
       25
 40
0.0
 40
0.0
 40
0.0
 40
0.0
 40
1.0
 40
1.0
 40
1.0
 40
2.0
 40
2.0
 40
2.0
 40
3.0
 40
3.0
 40
3.0
 40
4.0
 40
4.0
 40
4.0
 40
5.0
 40
5.0
 40
5.0
 40
6.0
 40
6.0
 40
6.0
 40
7.0
 40
7.0
 40
7.0
 40
8.0
 40
8.0
 40
8.0
 40
8.0
 10
441.37353515625
 20
-675.17578125
 10
440.0087890625
 20
-677.095703125
 10
438.83203125
 20
-679.142578125
 10
437.849609375
 20
-681.3095703125
 10
427.94482421875
 20
-703.1201171875
 10
439.95263671875
 20
-728.470703125
 10
457.28369140625
 20
-740.369140625
 10
464.7666015625
 20
-745.5126953125
 10
473.03662109375
 20
-749.2314453125
 10
481.94384765625
 20
-751.4736328125
 10
477.8349609375
 20
-754.5927734375
 10
473.24658203125
 20
-757.4638671875
 10
468.2490234375
 20
-760.046875
 10
465.10400390625
 20
-758.6943359375
 10
461.853515625
 20
-757.404296875
 10
458.56201171875
 20
-756.205078125
 10
436.23193359375
 20
-748.04296875
 10
413.40869140625
 20
-743.716796875
 10
390.8779296875
 20
-740.41796875
 10
389.271484375
 20
-722.216796875
 10
388.2236328125
 20
-700.451171875
 10
387.72119140625
 20
-675.17578125
 10
387.72119140625
 20
-675.17578125
 10
441.37353515625
 20
-675.17578125
 10
441.37353515625
 20
-675.17578125
 97
        0
 92
        1
 93
        1
 72
     4
 94
        3
 73
     0
 74
     1
 95
       14
 96
       10
 40
0.0
 40
0.0
 40
0.0
 40
0.0
 40
1.0
 40
1.0
 40
1.0
 40
2.0
 40
2.0
 40
2.0
 40
3.0
 40
3.0
 40
3.0
 40
3.0
 10
392.388671875
 20
-755.1025390625
 10
409.85107421875
 20
-758.798828125
 10
426.0439453125
 20
-763.7919921875
 10
440.74365234375
 20
-770.1171875
 10
425.24951171875
 20
-773.7978515625
 10
409.03564453125
 20
-774.521484375
 10
394.8701171875
 20
-772.3212890625
 10
393.9609375
 20
-767.1103515625
 10
393.1328125
 20
-761.3779296875
 10
392.388671875
 20
-755.1025390625
 97
        0
 92
        1
 93
        1
 72
     4
 94
        3
 73
     0
 74
     1
 95
       14
 96
       10
 40
0.0
 40
0.0
 40
0.0
 40
0.0
 40
1.0
 40
1.0
 40
1.0
 40
2.0
 40
2.0
 40
2.0
 40
3.0
 40
3.0
 40
3.0
 40
3.0
 10
272.56640625
 20
-680.125
 10
272.521484375
 20
-685.2158203125
 10
272.46875
 20
-690.1826171875
 10
272.4013671875
 20
-694.8955078125
 10
270.59814453125
 20
-691.1083984375
 10
269.20166015625
 20
-687.0
 10
268.15576171875
 20
-682.4677734375
 10
269.6328125
 20
-681.6396484375
 10
271.0986328125
 20
-680.8896484375
 10
272.56640625
 20
-680.125
 97
        0
 92
        1
 93
        1
 72
     4
 94
        3
 73
     0
 74
     1
 95
       65
 96
       61
 40
0.0
 40
0.0
 40
0.0
 40
0.0
 40
1.0
 40
1.0
 40
1.0
 40
2.0
 40
2.0
 40
2.0
 40
3.0
 40
3.0
 40
3.0
 40
4.0
 40
4.0
 40
4.0
 40
5.0
 40
5.0
 40
5.0
 40
6.0
 40
6.0
 40
6.0
 40
7.0
 40
7.0
 40
7.0
 40
8.0
 40
8.0
 40
8.0
 40
9.0
 40
9.0
 40
9.0
 40
10.0
 40
10.0
 40
10.0
 40
11.0
 40
11.0
 40
11.0
 40
12.0
 40
12.0
 40
12.0
 40
13.0
 40
13.0
 40
13.0
 40
14.0
 40
14.0
 40
14.0
 40
15.0
 40
15.0
 40
15.0
 40
16.0
 40
16.0
 40
16.0
 40
17.0
 40
17.0
 40
17.0
 40
18.0
 40
18.0
 40
18.0
 40
19.0
 40
19.0
 40
19.0
 40
20.0
 40
20.0
 40
20.0
 40
20.0
 10
170.6884765625
 20
-780.0625
 10
175.60693359375
 20
-748.7294921875
 10
194.0361328125
 20
-721.107421875
 10
222.5166015625
 20
-701.3212890625
 10
222.3408203125
 20
-701.576171875
 10
222.16064453125
 20
-701.837890625
 10
221.984375
 20
-702.1005859375
 10
210.0966796875
 20
-719.705078125
 10
206.6962890625
 20
-746.1728515625
 10
223.8173828125
 20
-760.5458984375
 10
225.9921875
 20
-762.375
 10
228.81103515625
 20
-763.3798828125
 10
231.7578125
 20
-763.3798828125
 10
235.802734375
 20
-763.3798828125
 10
239.54052734375
 20
-761.5732421875
 10
241.75244140625
 20
-758.5400390625
 10
243.7841796875
 20
-755.7626953125
 10
244.28662109375
 20
-752.283203125
 10
243.158203125
 20
-748.751953125
 10
237.06640625
 20
-729.6591796875
 10
232.6689453125
 20
-715.859375
 10
246.42333984375
 20
-699.4091796875
 10
249.119140625
 20
-696.1923828125
 10
252.328125
 20
-693.1630859375
 10
256.1552734375
 20
-690.2392578125
 10
258.787109375
 20
-700.59375
 10
265.033203125
 20
-710.09375
 10
271.9365234375
 20
-717.568359375
 10
271.18310546875
 20
-745.490234375
 10
269.87109375
 20
-764.3994140625
 10
267.98876953125
 20
-774.162109375
 10
267.48828125
 20
-776.7490234375
 10
266.84375
 20
-779.23828125
 10
266.13330078125
 20
-781.6826171875
 10
263.3251953125
 20
-782.7470703125
 10
260.6240234375
 20
-784.15234375
 10
258.142578125
 20
-786.015625
 10
252.6767578125
 20
-790.1318359375
 10
250.5283203125
 20
-796.4228515625
 10
252.5380859375
 20
-802.4287109375
 10
252.91845703125
 20
-803.568359375
 10
253.4677734375
 20
-804.6103515625
 10
254.09765625
 20
-805.5849609375
 10
251.65673828125
 20
-808.7265625
 10
248.9462890625
 20
-811.6884765625
 10
245.93408203125
 20
-814.447265625
 10
241.91552734375
 20
-818.125
 10
236.16650390625
 20
-821.146484375
 10
228.76806640625
 20
-823.5458984375
 10
227.984375
 20
-823.3701171875
 10
227.1953125
 20
-823.212890625
 10
226.39306640625
 20
-823.212890625
 10
223.79150390625
 20
-823.212890625
 10
221.34912109375
 20
-824.2509765625
 10
219.32275390625
 20
-826.0732421875
 10
208.12841796875
 20
-828.513671875
 10
194.1640625
 20
-829.904296875
 10
177.39892578125
 20
-830.2412109375
 10
170.4765625
 20
-814.9345703125
 10
168.01171875
 20
-797.1123046875
 10
170.6884765625
 20
-780.0625
 97
        0
 92
        1
 93
        1
 72
     4
 94
        3
 73
     0
 74
     1
 95
       20
 96
       16
 40
0.0
 40
0.0
 40
0.0
 40
0.0
 40
1.0
 40
1.0
 40
1.0
 40
2.0
 40
2.0
 40
2.0
 40
3.0
 40
3.0
 40
3.0
 40
4.0
 40
4.0
 40
4.0
 40
5.0
 40
5.0
 40
5.0
 40
5.0
 10
236.69140625
 20
-871.880859375
 10
231.9453125
 20
-871.880859375
 10
227.2705078125
 20
-871.265625
 10
222.783203125
 20
-870.05859375
 10
214.9853515625
 20
-867.966796875
 10
207.82861328125
 20
-864.6005859375
 10
201.3955078125
 20
-860.01171875
 10
207.52490234375
 20
-860.2177734375
 10
213.29443359375
 20
-859.2802734375
 10
218.43798828125
 20
-857.3798828125
 10
218.43798828125
 20
-857.3798828125
 10
273.9833984375
 20
-857.3798828125
 10
273.9833984375
 20
-857.3798828125
 10
264.15771484375
 20
-866.5869140625
 10
250.6220703125
 20
-871.880859375
 10
236.69140625
 20
-871.880859375
 97
        0
 92
        1
 93
        1
 72
     4
 94
        3
 73
     0
 74
     1
 95
       29
 96
       25
 40
0.0
 40
0.0
 40
0.0
 40
0.0
 40
1.0
 40
1.0
 40
1.0
 40
2.0
 40
2.0
 40
2.0
 40
3.0
 40
3.0
 40
3.0
 40
4.0
 40
4.0
 40
4.0
 40
5.0
 40
5.0
 40
5.0
 40
6.0
 40
6.0
 40
6.0
 40
7.0
 40
7.0
 40
7.0
 40
8.0
 40
8.0
 40
8.0
 40
8.0
 10
405.607421875
 20
-805.330078125
 10
402.716796875
 20
-801.37109375
 10
400.1728515625
 20
-795.181640625
 10
397.970703125
 20
-786.818359375
 10
403.9443359375
 20
-787.70703125
 10
409.9970703125
 20
-788.1982421875
 10
416.10205078125
 20
-788.1982421875
 10
430.9365234375
 20
-788.1982421875
 10
446.04443359375
 20
-785.603515625
 10
460.9951171875
 20
-780.482421875
 10
460.9951171875
 20
-780.482421875
 10
461.294921875
 20
-780.3779296875
 10
461.294921875
 20
-780.3779296875
 10
465.91357421875
 20
-783.0322265625
 10
470.08251953125
 20
-785.6708984375
 10
473.99609375
 20
-788.4150390625
 10
490.60205078125
 20
-800.0595703125
 10
501.3876953125
 20
-815.2568359375
 10
503.9482421875
 20
-830.328125
 10
503.9482421875
 20
-830.328125
 10
503.8203125
 20
-830.328125
 10
503.8203125
 20
-830.328125
 10
450.498046875
 20
-830.328125
 10
417.75537109375
 20
-822.0048828125
 10
405.607421875
 20
-805.330078125
 97
        0
 92
        1
 93
        1
 72
     4
 94
        3
 73
     0
 74
     1
 95
       56
 96
       52
 40
0.0
 40
0.0
 40
0.0
 40
0.0
 40
1.0
 40
1.0
 40
1.0
 40
2.0
 40
2.0
 40
2.0
 40
3.0
 40
3.0
 40
3.0
 40
4.0
 40
4.0
 40
4.0
 40
5.0
 40
5.0
 40
5.0
 40
6.0
 40
6.0
 40
6.0
 40
7.0
 40
7.0
 40
7.0
 40
8.0
 40
8.0
 40
8.0
 40
9.0
 40
9.0
 40
9.0
 40
10.0
 40
10.0
 40
10.0
 40
11.0
 40
11.0
 40
11.0
 40
12.0
 40
12.0
 40
12.0
 40
13.0
 40
13.0
 40
13.0
 40
14.0
 40
14.0
 40
14.0
 40
15.0
 40
15.0
 40
15.0
 40
16.0
 40
16.0
 40
16.0
 40
17.0
 40
17.0
 40
17.0
 40
17.0
 10
563.2216796875
 20
-830.328125
 10
563.2216796875
 20
-830.328125
 10
531.427734375
 20
-830.328125
 10
531.427734375
 20
-830.328125
 10
530.966796875
 20
-829.9716796875
 10
530.5087890625
 20
-829.6005859375
 10
530.041015625
 20
-829.255859375
 10
529.79296875
 20
-827.1708984375
 10
529.4482421875
 20
-825.1171875
 10
529.013671875
 20
-823.1298828125
 10
528.533203125
 20
-820.970703125
 10
527.9560546875
 20
-818.833984375
 10
527.28125
 20
-816.7265625
 10
529.193359375
 20
-817.4765625
 10
531.142578125
 20
-818.1591796875
 10
533.0625
 20
-818.7509765625
 10
538.5732421875
 20
-820.4384765625
 10
543.8740234375
 20
-816.232421875
 10
544.2490234375
 20
-810.1142578125
 10
544.5634765625
 20
-805.0224609375
 10
541.384765625
 20
-801.041015625
 10
536.5263671875
 20
-800.44140625
 10
531.4052734375
 20
-799.8193359375
 10
526.8017578125
 20
-799.1220703125
 10
522.36328125
 20
-796.9921875
 10
520.6904296875
 20
-796.1826171875
 10
519.048828125
 20
-795.2080078125
 10
517.3095703125
 20
-794.1806640625
 10
516.109375
 20
-793.46875
 10
514.91015625
 20
-792.763671875
 10
513.6953125
 20
-792.0966796875
 10
506.6474609375
 20
-783.5341796875
 10
497.4345703125
 20
-775.8486328125
 10
486.244140625
 20
-769.17578125
 10
493.873046875
 20
-764.69921875
 10
500.35498046875
 20
-759.6201171875
 10
505.5751953125
 20
-754.015625
 10
533.556640625
 20
-753.4228515625
 10
562.65625
 20
-741.587890625
 10
587.923828125
 20
-729.5205078125
 10
599.96484375
 20
-753.0146484375
 10
616.89453125
 20
-774.431640625
 10
633.712890625
 20
-787.3203125
 10
647.1787109375
 20
-797.6484375
 10
662.9990234375
 20
-804.6669921875
 10
679.6435546875
 20
-808.0595703125
 10
675.3701171875
 20
-810.3720703125
 10
671.06640625
 20
-812.4267578125
 10
666.732421875
 20
-814.1552734375
 10
639.6767578125
 20
-824.9443359375
 10
605.171875
 20
-830.328125
 10
563.2216796875
 20
-830.328125
 97
        0
 92
        1
 93
        1
 72
     4
 94
        3
 73
     0
 74
     1
 95
       17
 96
       13
 40
0.0
 40
0.0
 40
0.0
 40
0.0
 40
1.0
 40
1.0
 40
1.0
 40
2.0
 40
2.0
 40
2.0
 40
3.0
 40
3.0
 40
3.0
 40
4.0
 40
4.0
 40
4.0
 40
4.0
 10
838.2744140625
 20
-678.587890625
 10
833.3369140625
 20
-682.5009765625
 10
828.8271484375
 20
-686.828125
 10
824.580078125
 20
-691.37890625
 10
824.580078125
 20
-691.37890625
 10
825.693359375
 20
-675.17578125
 10
825.693359375
 20
-675.17578125
 10
825.693359375
 20
-675.17578125
 10
842.826171875
 20
-675.17578125
 10
842.826171875
 20
-675.17578125
 10
841.28125
 20
-676.2666015625
 10
839.7666015625
 20
-677.4033203125
 10
838.2744140625
 20
-678.587890625
 97
        0
 75
     2
 76
     1
 98
        0
  0
SPLINE
  5
5F
330
3C
100
AcDbEntity
  8
Layer 1
370
     0
100
AcDbSpline
210
0.0
220
0.0
230
1.0
 70
    11
 71
     3
 72
   500
 73
   496
 74
     0
 42
0.0000000001
 43
0.0000000001
 40
0.0
 40
0.0
 40
0.0
 40
0.0
 40
1.0
 40
1.0
 40
1.0
 40
2.0
 40
2.0
 40
2.0
 40
3.0
 40
3.0
 40
3.0
 40
4.0
 40
4.0
 40
4.0
 40
5.0
 40
5.0
 40
5.0
 40
6.0
 40
6.0
 40
6.0
 40
7.0
 40
7.0
 40
7.0
 40
8.0
 40
8.0
 40
8.0
 40
9.0
 40
9.0
 40
9.0
 40
10.0
 40
10.0
 40
10.0
 40
11.0
 40
11.0
 40
11.0
 40
12.0
 40
12.0
 40
12.0
 40
13.0
 40
13.0
 40
13.0
 40
14.0
 40
14.0
 40
14.0
 40
15.0
 40
15.0
 40
15.0
 40
16.0
 40
16.0
 40
16.0
 40
17.0
 40
17.0
 40
17.0
 40
18.0
 40
18.0
 40
18.0
 40
19.0
 40
19.0
 40
19.0
 40
20.0
 40
20.0
 40
20.0
 40
21.0
 40
21.0
 40
21.0
 40
22.0
 40
22.0
 40
22.0
 40
23.0
 40
23.0
 40
23.0
 40
24.0
 40
24.0
 40
24.0
 40
25.0
 40
25.0
 40
25.0
 40
26.0
 40
26.0
 40
26.0
 40
27.0
 40
27.0
 40
27.0
 40
28.0
 40
28.0
 40
28.0
 40
29.0
 40
29.0
 40
29.0
 40
30.0
 40
30.0
 40
30.0
 40
31.0
 40
31.0
 40
31.0
 40
32.0
 40
32.0
 40
32.0
 40
33.0
 40
33.0
 40
33.0
 40
34.0
 40
34.0
 40
34.0
 40
35.0
 40
35.0
 40
35.0
 40
36.0
 40
36.0
 40
36.0
 40
37.0
 40
37.0
 40
37.0
 40
38.0
 40
38.0
 40
38.0
 40
39.0
 40
39.0
 40
39.0
 40
40.0
 40
40.0
 40
40.0
 40
41.0
 40
41.0
 40
41.0
 40
42.0
 40
42.0
 40
42.0
 40
43.0
 40
43.0
 40
43.0
 40
44.0
 40
44.0
 40
44.0
 40
45.0
 40
45.0
 40
45.0
 40
46.0
 40
46.0
 40
46.0
 40
47.0
 40
47.0
 40
47.0
 40
48.0
 40
48.0
 40
48.0
 40
49.0
 40
49.0
 40
49.0
 40
50.0
 40
50.0
 40
50.0
 40
51.0
 40
51.0
 40
51.0
 40
52.0
 40
52.0
 40
52.0
 40
53.0
 40
53.0
 40
53.0
 40
54.0
 40
54.0
 40
54.0
 40
55.0
 40
55.0
 40
55.0
 40
56.0
 40
56.0
 40
56.0
 40
57.0
 40
57.0
 40
57.0
 40
58.0
 40
58.0
 40
58.0
 40
59.0
 40
59.0
 40
59.0
 40
60.0
 40
60.0
 40
60.0
 40
61.0
 40
61.0
 40
61.0
 40
62.0
 40
62.0
 40
62.0
 40
63.0
 40
63.0
 40
63.0
 40
64.0
 40
64.0
 40
64.0
 40
65.0
 40
65.0
 40
65.0
 40
66.0
 40
66.0
 40
66.0
 40
67.0
 40
67.0
 40
67.0
 40
68.0
 40
68.0
 40
68.0
 40
69.0
 40
69.0
 40
69.0
 40
70.0
 40
70.0
 40
70.0
 40
71.0
 40
71.0
 40
71.0
 40
72.0
 40
72.0
 40
72.0
 40
73.0
 40
73.0
 40
73.0
 40
74.0
 40
74.0
 40
74.0
 40
75.0
 40
75.0
 40
75.0
 40
76.0
 40
76.0
 40
76.0
 40
77.0
 40
77.0
 40
77.0
 40
78.0
 40
78.0
 40
78.0
 40
79.0
 40
79.0
 40
79.0
 40
80.0
 40
80.0
 40
80.0
 40
81.0
 40
81.0
 40
81.0
 40
82.0
 40
82.0
 40
82.0
 40
83.0
 40
83.0
 40
83.0
 40
84.0
 40
84.0
 40
84.0
 40
85.0
 40
85.0
 40
85.0
 40
86.0
 40
86.0
 40
86.0
 40
87.0
 40
87.0
 40
87.0
 40
88.0
 40
88.0
 40
88.0
 40
89.0
 40
89.0
 40
89.0
 40
90.0
 40
90.0
 40
90.0
 40
91.0
 40
91.0
 40
91.0
 40
92.0
 40
92.0
 40
92.0
 40
93.0
 40
93.0
 40
93.0
 40
94.0
 40
94.0
 40
94.0
 40
95.0
 40
95.0
 40
95.0
 40
96.0
 40
96.0
 40
96.0
 40
97.0
 40
97.0
 40
97.0
 40
98.0
 40
98.0
 40
98.0
 40
99.0
 40
99.0
 40
99.0
 40
100.0
 40
100.0
 40
100.0
 40
101.0
 40
101.0
 40
101.0
 40
102.0
 40
102.0
 40
102.0
 40
103.0
 40
103.0
 40
103.0
 40
104.0
 40
104.0
 40
104.0
 40
105.0
 40
105.0
 40
105.0
 40
106.0
 40
106.0
 40
106.0
 40
107.0
 40
107.0
 40
107.0
 40
108.0
 40
108.0
 40
108.0
 40
109.0
 40
109.0
 40
109.0
 40
110.0
 40
110.0
 40
110.0
 40
111.0
 40
111.0
 40
111.0
 40
112.0
 40
112.0
 40
112.0
 40
113.0
 40
113.0
 40
113.0
 40
114.0
 40
114.0
 40
114.0
 40
115.0
 40
115.0
 40
115.0
 40
116.0
 40
116.0
 40
116.0
 40
117.0
 40
117.0
 40
117.0
 40
118.0
 40
118.0
 40
118.0
 40
119.0
 40
119.0
 40
119.0
 40
120.0
 40
120.0
 40
120.0
 40
121.0
 40
121.0
 40
121.0
 40
122.0
 40
122.0
 40
122.0
 40
123.0
 40
123.0
 40
123.0
 40
124.0
 40
124.0
 40
124.0
 40
125.0
 40
125.0
 40
125.0
 40
126.0
 40
126.0
 40
126.0
 40
127.0
 40
127.0
 40
127.0
 40
128.0
 40
128.0
 40
128.0
 40
129.0
 40
129.0
 40
129.0
 40
130.0
 40
130.0
 40
130.0
 40
131.0
 40
131.0
 40
131.0
 40
132.0
 40
132.0
 40
132.0
 40
133.0
 40
133.0
 40
133.0
 40
134.0
 40
134.0
 40
134.0
 40
135.0
 40
135.0
 40
135.0
 40
136.0
 40
136.0
 40
136.0
 40
137.0
 40
137.0
 40
137.0
 40
138.0
 40
138.0
 40
138.0
 40
139.0
 40
139.0
 40
139.0
 40
140.0
 40
140.0
 40
140.0
 40
141.0
 40
141.0
 40
141.0
 40
142.0
 40
142.0
 40
142.0
 40
143.0
 40
143.0
 40
143.0
 40
144.0
 40
144.0
 40
144.0
 40
145.0
 40
145.0
 40
145.0
 40
146.0
 40
146.0
 40
146.0
 40
147.0
 40
147.0
 40
147.0
 40
148.0
 40
148.0
 40
148.0
 40
149.0
 40
149.0
 40
149.0
 40
150.0
 40
150.0
 40
150.0
 40
151.0
 40
151.0
 40
151.0
 40
152.0
 40
152.0
 40
152.0
 40
153.0
 40
153.0
 40
153.0
 40
154.0
 40
154.0
 40
154.0
 40
155.0
 40
155.0
 40
155.0
 40
156.0
 40
156.0
 40
156.0
 40
157.0
 40
157.0
 40
157.0
 40
158.0
 40
158.0
 40
158.0
 40
159.0
 40
159.0
 40
159.0
 40
160.0
 40
160.0
 40
160.0
 40
161.0
 40
161.0
 40
161.0
 40
162.0
 40
162.0
 40
162.0
 40
163.0
 40
163.0
 40
163.0
 40
164.0
 40
164.0
 40
164.0
 40
165.0
 40
165.0
 40
165.0
 40
165.0
 10
87.7626953125
 20
-515.427734375
 30
0.0
 10
91.72900390625
 20
-516.935546875
 30
0.0
 10
95.8828125
 20
-518.0263671875
 30
0.0
 10
100.14892578125
 20
-518.689453125
 30
0.0
 10
100.14892578125
 20
-518.689453125
 30
0.0
 10
100.14892578125
 20
-519.6494140625
 30
0.0
 10
100.14892578125
 20
-519.6494140625
 30
0.0
 10
100.14892578125
 20
-519.6494140625
 30
0.0
 10
904.2177734375
 20
-519.6494140625
 30
0.0
 10
904.2177734375
 20
-519.6494140625
 30
0.0
 10
904.2177734375
 20
-519.6494140625
 30
0.0
 10
904.2177734375
 20
-502.4921875
 30
0.0
 10
904.2177734375
 20
-502.4921875
 30
0.0
 10
904.2177734375
 20
-502.4921875
 30
0.0
 10
761.564453125
 20
-502.4921875
 30
0.0
 10
761.564453125
 20
-502.4921875
 30
0.0
 10
771.6044921875
 20
-497.521484375
 30
0.0
 10
781.1865234375
 20
-491.55126953125
 30
0.0
 10
790.2138671875
 20
-484.638671875
 30
0.0
 10
798.8134765625
 20
-480.6552734375
 30
0.0
 10
806.048828125
 20
-477.6337890625
 30
0.0
 10
813.8017578125
 20
-477.6337890625
 30
0.0
 10
817.4912109375
 20
-477.6337890625
 30
0.0
 10
821.07421875
 20
-478.31982421875
 30
0.0
 10
824.763671875
 20
-479.7314453125
 30
0.0
 10
829.2177734375
 20
-481.43115234375
 30
0.0
 10
834.990234375
 20
-483.7783203125
 30
0.0
 10
840.208984375
 20
-486.85400390625
 30
0.0
 10
840.208984375
 20
-486.85400390625
 30
0.0
 10
842.12890625
 20
-488.0126953125
 30
0.0
 10
842.12890625
 20
-488.0126953125
 30
0.0
 10
845.9599609375
 20
-490.34814453125
 30
0.0
 10
849.57421875
 20
-492.55419921875
 30
0.0
 10
855.5869140625
 20
-492.71728515625
 30
0.0
 10
858.3916015625
 20
-492.71728515625
 30
0.0
 10
861.0302734375
 20
-491.423828125
 30
0.0
 10
862.814453125
 20
-489.1669921875
 30
0.0
 10
864.689453125
 20
-486.78857421875
 30
0.0
 10
865.4013671875
 20
-483.6298828125
 30
0.0
 10
864.7041015625
 20
-480.71728515625
 30
0.0
 10
860.302734375
 20
-462.28955078125
 30
0.0
 10
835.373046875
 20
-460.857421875
 30
0.0
 10
827.837890625
 20
-460.857421875
 30
0.0
 10
825.36328125
 20
-460.857421875
 30
0.0
 10
822.95703125
 20
-460.98486328125
 30
0.0
 10
820.6845703125
 20
-461.234375
 30
0.0
 10
818.8251953125
 20
-461.4384765625
 30
0.0
 10
816.5986328125
 20
-461.75537109375
 30
0.0
 10
814.1171875
 20
-462.24267578125
 30
0.0
 10
815.166015625
 20
-461.01123046875
 30
0.0
 10
816.208984375
 20
-459.7587890625
 30
0.0
 10
817.220703125
 20
-458.48828125
 30
0.0
 10
818.0380859375
 20
-458.18798828125
 30
0.0
 10
818.7578125
 20
-457.65771484375
 30
0.0
 10
819.3056640625
 20
-456.93994140625
 30
0.0
 10
822.0947265625
 20
-453.2431640625
 30
0.0
 10
824.958984375
 20
-449.2431640625
 30
0.0
 10
827.927734375
 20
-445.1005859375
 30
0.0
 10
846.5
 20
-419.169921875
 30
0.0
 10
867.62890625
 20
-389.67138671875
 30
0.0
 10
899.3515625
 20
-391.99560546875
 30
0.0
 10
899.7119140625
 20
-392.02392578125
 30
0.0
 10
900.0712890625
 20
-392.037109375
 30
0.0
 10
900.416015625
 20
-392.037109375
 30
0.0
 10
900.416015625
 20
-392.037109375
 30
0.0
 10
900.416015625
 20
-392.037109375
 30
0.0
 10
900.416015625
 20
-392.037109375
 30
0.0
 10
906.759765625
 20
-392.037109375
 30
0.0
 10
911.400390625
 20
-387.4951171875
 30
0.0
 10
911.7001953125
 20
-380.99267578125
 30
0.0
 10
911.9853515625
 20
-374.8017578125
 30
0.0
 10
907.9443359375
 20
-367.8193359375
 30
0.0
 10
899.8916015625
 20
-367.0732421875
 30
0.0
 10
879.0400390625
 20
-365.13671875
 30
0.0
 10
864.4345703125
 20
-378.1923828125
 30
0.0
 10
853.0830078125
 20
-390.91064453125
 30
0.0
 10
850.5263671875
 20
-393.7744140625
 30
0.0
 10
847.9091796875
 20
-396.71923828125
 30
0.0
 10
845.27734375
 20
-399.74462890625
 30
0.0
 10
850.3681640625
 20
-374.52392578125
 30
0.0
 10
846.8818359375
 20
-349.96142578125
 30
0.0
 10
835.005859375
 20
-329.1416015625
 30
0.0
 10
831.841796875
 20
-323.59716796875
 30
0.0
 10
828.0029296875
 20
-318.34130859375
 30
0.0
 10
823.5869140625
 20
-313.5048828125
 30
0.0
 10
823.458984375
 20
-310.8623046875
 30
0.0
 10
823.12890625
 20
-308.2587890625
 30
0.0
 10
822.806640625
 20
-305.72607421875
 30
0.0
 10
822.4169921875
 20
-302.59228515625
 30
0.0
 10
822.0419921875
 20
-299.63232421875
 30
0.0
 10
822.0341796875
 20
-296.70068359375
 30
0.0
 10
822.0048828125
 20
-287.52734375
 30
0.0
 10
824.15625
 20
-279.5625
 30
0.0
 10
829.0146484375
 20
-270.87646484375
 30
0.0
 10
829.314453125
 20
-270.34619140625
 30
0.0
 10
829.7421875
 20
-269.6279296875
 30
0.0
 10
830.2666015625
 20
-268.765625
 30
0.0
 10
835.97265625
 20
-259.28857421875
 30
0.0
 10
841.73828125
 20
-248.60986328125
 30
0.0
 10
837.921875
 20
-241.84521484375
 30
0.0
 10
836.6328125
 20
-239.5712890625
 30
0.0
 10
833.7236328125
 20
-236.8271484375
 30
0.0
 10
827.095703125
 20
-237.169921875
 30
0.0
 10
809.115234375
 20
-238.052734375
 30
0.0
 10
806.2890625
 20
-267.4951171875
 30
0.0
 10
805.224609375
 20
-278.57470703125
 30
0.0
 10
804.7373046875
 20
-283.6357421875
 30
0.0
 10
804.0693359375
 20
-290.54296875
 30
0.0
 10
804.32421875
 20
-297.578125
 30
0.0
 10
790.783203125
 20
-289.27587890625
 30
0.0
 10
775.3232421875
 20
-284.771484375
 30
0.0
 10
760.0126953125
 20
-284.771484375
 30
0.0
 10
746.7568359375
 20
-284.771484375
 30
0.0
 10
733.8232421875
 20
-288.2001953125
 30
0.0
 10
722.5458984375
 20
-294.693359375
 30
0.0
 10
716.9453125
 20
-295.0869140625
 30
0.0
 10
711.5693359375
 20
-294.6142578125
 30
0.0
 10
706.703125
 20
-293.1953125
 30
0.0
 10
703.599609375
 20
-292.2939453125
 30
0.0
 10
700.5029296875
 20
-289.83447265625
 30
0.0
 10
697.2333984375
 20
-287.23291015625
 30
0.0
 10
692.3447265625
 20
-283.34716796875
 30
0.0
 10
687.2919921875
 20
-279.330078125
 30
0.0
 10
680.8212890625
 20
-279.330078125
 30
0.0
 10
679.4638671875
 20
-279.330078125
 30
0.0
 10
678.099609375
 20
-279.517578125
 30
0.0
 10
676.7568359375
 20
-279.88671875
 30
0.0
 10
672.6708984375
 20
-281.009765625
 30
0.0
 10
669.7392578125
 20
-284.81689453125
 30
0.0
 10
669.634765625
 20
-289.13720703125
 30
0.0
 10
669.169921875
 20
-306.55078125
 30
0.0
 10
692.66796875
 20
-308.07861328125
 30
0.0
 10
703.958984375
 20
-308.8134765625
 30
0.0
 10
703.958984375
 20
-308.8134765625
 30
0.0
 10
704.7685546875
 20
-308.86767578125
 30
0.0
 10
704.7685546875
 20
-308.86767578125
 30
0.0
 10
690.890625
 20
-323.904296875
 30
0.0
 10
681.03125
 20
-346.79541015625
 30
0.0
 10
687.4794921875
 20
-369.09765625
 30
0.0
 10
692.2548828125
 20
-385.62841796875
 30
0.0
 10
708.2177734375
 20
-398.09326171875
 30
0.0
 10
724.6005859375
 20
-398.09326171875
 30
0.0
 10
731.4765625
 20
-398.09326171875
 30
0.0
 10
738.07421875
 20
-395.86279296875
 30
0.0
 10
743.6748046875
 20
-391.6455078125
 30
0.0
 10
749.140625
 20
-387.53076171875
 30
0.0
 10
751.29296875
 20
-381.2421875
 30
0.0
 10
749.283203125
 20
-375.234375
 30
0.0
 10
747.37109375
 20
-369.5302734375
 30
0.0
 10
742.0703125
 20
-365.697265625
 30
0.0
 10
736.0947265625
 20
-365.697265625
 30
0.0
 10
733.9130859375
 20
-365.697265625
 30
0.0
 10
731.701171875
 20
-366.1826171875
 30
0.0
 10
729.51953125
 20
-367.13671875
 30
0.0
 10
724.6904296875
 20
-369.24365234375
 30
0.0
 10
721.001953125
 20
-368.77685546875
 30
0.0
 10
718.1455078125
 20
-365.466796875
 30
0.0
 10
713.96875
 20
-360.62890625
 30
0.0
 10
712.6943359375
 20
-351.40478515625
 30
0.0
 10
713.6083984375
 20
-345.181640625
 30
0.0
 10
715.2060546875
 20
-334.36962890625
 30
0.0
 10
721.931640625
 20
-325.9306640625
 30
0.0
 10
727.2998046875
 20
-320.75537109375
 30
0.0
 10
737.1591796875
 20
-311.24267578125
 30
0.0
 10
750.9482421875
 20
-305.7861328125
 30
0.0
 10
765.1259765625
 20
-305.7861328125
 30
0.0
 10
769.865234375
 20
-305.7861328125
 30
0.0
 10
774.55078125
 20
-306.3974609375
 30
0.0
 10
779.0341796875
 20
-307.6044921875
 30
0.0
 10
786.83203125
 20
-309.7021484375
 30
0.0
 10
793.9853515625
 20
-313.06640625
 30
0.0
 10
800.41796875
 20
-317.6513671875
 30
0.0
 10
784.2529296875
 20
-317.12109375
 30
0.0
 10
770.63671875
 20
-324.3603515625
 30
0.0
 10
764.5341796875
 20
-336.6904296875
 30
0.0
 10
762.6669921875
 20
-340.46142578125
 30
0.0
 10
762.9072265625
 20
-344.74267578125
 30
0.0
 10
765.201171875
 20
-348.435546875
 30
0.0
 10
767.5107421875
 20
-352.14697265625
 30
0.0
 10
771.4248046875
 20
-354.45263671875
 30
0.0
 10
775.4208984375
 20
-354.45263671875
 30
0.0
 10
778.517578125
 20
-354.45263671875
 30
0.0
 10
781.44140625
 20
-353.046875
 30
0.0
 10
783.630859375
 20
-350.4990234375
 30
0.0
 10
790.1689453125
 20
-342.9189453125
 30
0.0
 10
796.2568359375
 20
-336.50634765625
 30
0.0
 10
804.51953125
 20
-334.8046875
 30
0.0
 10
809.865234375
 20
-333.69091796875
 30
0.0
 10
815.0390625
 20
-335.37451171875
 30
0.0
 10
820.6552734375
 20
-340.0419921875
 30
0.0
 10
830.431640625
 20
-356.7880859375
 30
0.0
 10
834.248046875
 20
-377.7275390625
 30
0.0
 10
831.12890625
 20
-397.60595703125
 30
0.0
 10
826.203125
 20
-428.94140625
 30
0.0
 10
807.78125
 20
-456.5576171875
 30
0.0
 10
779.3046875
 20
-476.34375
 30
0.0
 10
779.4765625
 20
-476.08740234375
 30
0.0
 10
779.6572265625
 20
-475.83056640625
 30
0.0
 10
779.8291015625
 20
-475.56982421875
 30
0.0
 10
791.720703125
 20
-457.96875
 30
0.0
 10
795.125
 20
-431.50146484375
 30
0.0
 10
778.0
 20
-417.1171875
 30
0.0
 10
775.8251953125
 20
-415.29150390625
 30
0.0
 10
773.0068359375
 20
-414.28466796875
 30
0.0
 10
770.0673828125
 20
-414.28466796875
 30
0.0
 10
766.0185546875
 20
-414.28466796875
 30
0.0
 10
762.2841796875
 20
-416.09375
 30
0.0
 10
760.0654296875
 20
-419.12451171875
 30
0.0
 10
758.033203125
 20
-421.904296875
 30
0.0
 10
757.53125
 20
-425.3798828125
 30
0.0
 10
758.6552734375
 20
-428.9150390625
 30
0.0
 10
764.744140625
 20
-448.009765625
 30
0.0
 10
769.15234375
 20
-461.8056640625
 30
0.0
 10
755.38671875
 20
-478.259765625
 30
0.0
 10
752.6953125
 20
-481.4765625
 30
0.0
 10
749.4853515625
 20
-484.50341796875
 30
0.0
 10
745.662109375
 20
-487.4296875
 30
0.0
 10
741.935546875
 20
-472.767578125
 30
0.0
 10
731.00390625
 20
-459.744140625
 30
0.0
 10
721.14453125
 20
-451.8974609375
 30
0.0
 10
710.5947265625
 20
-443.494140625
 30
0.0
 10
697.9833984375
 20
-437.7529296875
 30
0.0
 10
681.5478515625
 20
-433.87841796875
 30
0.0
 10
664.685546875
 20
-414.4404296875
 30
0.0
 10
642.919921875
 20
-400.72314453125
 30
0.0
 10
619.091796875
 20
-394.0576171875
 30
0.0
 10
619.091796875
 20
-394.0576171875
 30
0.0
 10
619.091796875
 20
-302.2001953125
 30
0.0
 10
619.091796875
 20
-302.2001953125
 30
0.0
 10
619.091796875
 20
-302.2001953125
 30
0.0
 10
591.455078125
 20
-302.2001953125
 30
0.0
 10
591.455078125
 20
-302.2001953125
 30
0.0
 10
591.455078125
 20
-341.412109375
 30
0.0
 10
588.9990234375
 20
-367.77587890625
 30
0.0
 10
584.099609375
 20
-381.3017578125
 30
0.0
 10
583.03515625
 20
-384.2353515625
 30
0.0
 10
581.677734375
 20
-386.97607421875
 30
0.0
 10
580.1181640625
 20
-389.5849609375
 30
0.0
 10
567.0869140625
 20
-390.1552734375
 30
0.0
 10
553.89453125
 20
-392.7041015625
 30
0.0
 10
540.814453125
 20
-397.1826171875
 30
0.0
 10
540.814453125
 20
-397.1826171875
 30
0.0
 10
540.5224609375
 20
-397.28564453125
 30
0.0
 10
540.5224609375
 20
-397.28564453125
 30
0.0
 10
535.9033203125
 20
-394.63330078125
 30
0.0
 10
531.7353515625
 20
-391.99560546875
 30
0.0
 10
527.8212890625
 20
-389.248046875
 30
0.0
 10
510.666015625
 20
-377.2216796875
 30
0.0
 10
499.642578125
 20
-361.40478515625
 30
0.0
 10
497.5732421875
 20
-345.8525390625
 30
0.0
 10
495.4140625
 20
-329.69091796875
 30
0.0
 10
504.3984375
 20
-314.8564453125
 30
0.0
 10
518.9287109375
 20
-310.5771484375
 30
0.0
 10
525.2568359375
 20
-308.7119140625
 30
0.0
 10
528.87109375
 20
-303.0439453125
 30
0.0
 10
527.92578125
 20
-296.4755859375
 30
0.0
 10
527.09375
 20
-290.7041015625
 30
0.0
 10
522.498046875
 20
-284.86376953125
 30
0.0
 10
515.3369140625
 20
-284.86376953125
 30
0.0
 10
514.0546875
 20
-284.86376953125
 30
0.0
 10
512.7431640625
 20
-285.05859375
 30
0.0
 10
511.4306640625
 20
-285.44482421875
 30
0.0
 10
491.57861328125
 20
-291.296875
 30
0.0
 10
476.927734375
 20
-307.8310546875
 30
0.0
 10
472.6357421875
 20
-328.55859375
 30
0.0
 10
471.63818359375
 20
-327.775390625
 30
0.0
 10
470.65234375
 20
-327.02734375
 30
0.0
 10
469.71142578125
 20
-326.3154296875
 30
0.0
 10
469.71142578125
 20
-326.3154296875
 30
0.0
 10
468.7177734375
 20
-325.5576171875
 30
0.0
 10
468.7177734375
 20
-325.5576171875
 30
0.0
 10
461.3251953125
 20
-319.92138671875
 30
0.0
 10
451.4541015625
 20
-313.40380859375
 30
0.0
 10
440.29736328125
 20
-313.017578125
 30
0.0
 10
435.7275390625
 20
-313.017578125
 30
0.0
 10
432.0126953125
 20
-316.2177734375
 30
0.0
 10
431.052734375
 20
-320.982421875
 30
0.0
 10
430.01416015625
 20
-326.1240234375
 30
0.0
 10
432.46240234375
 20
-331.20166015625
 30
0.0
 10
436.87841796875
 20
-333.0576171875
 30
0.0
 10
440.68359375
 20
-334.65087890625
 30
0.0
 10
444.56396484375
 20
-335.55224609375
 30
0.0
 10
448.3203125
 20
-336.42578125
 30
0.0
 10
452.39892578125
 20
-337.37255859375
 30
0.0
 10
456.2451171875
 20
-338.2666015625
 30
0.0
 10
459.859375
 20
-339.96875
 30
0.0
 10
462.73828125
 20
-341.32568359375
 30
0.0
 10
465.34765625
 20
-343.39306640625
 30
0.0
 10
468.1142578125
 20
-345.58447265625
 30
0.0
 10
469.3291015625
 20
-346.5458984375
 30
0.0
 10
470.5400390625
 20
-347.505859375
 30
0.0
 10
471.78076171875
 20
-348.4111328125
 30
0.0
 10
472.0205078125
 20
-350.474609375
 30
0.0
 10
472.36572265625
 20
-352.525390625
 30
0.0
 10
472.80810546875
 20
-354.53125
 30
0.0
 10
473.2802734375
 20
-356.6923828125
 30
0.0
 10
473.857421875
 20
-358.8310546875
 30
0.0
 10
474.5322265625
 20
-360.94189453125
 30
0.0
 10
472.62060546875
 20
-360.1884765625
 30
0.0
 10
470.6787109375
 20
-359.505859375
 30
0.0
 10
468.751953125
 20
-358.91552734375
 30
0.0
 10
463.24462890625
 20
-357.232421875
 30
0.0
 10
457.93994140625
 20
-361.4326171875
 30
0.0
 10
457.56494140625
 20
-367.54541015625
 30
0.0
 10
457.25390625
 20
-372.64208984375
 30
0.0
 10
460.42919921875
 20
-376.61962890625
 30
0.0
 10
465.28759765625
 20
-377.2197265625
 30
0.0
 10
470.416015625
 20
-377.849609375
 30
0.0
 10
475.0234375
 20
-378.544921875
 30
0.0
 10
479.447265625
 20
-380.673828125
 30
0.0
 10
481.115234375
 20
-381.478515625
 30
0.0
 10
482.75390625
 20
-382.447265625
 30
0.0
 10
484.48583984375
 20
-383.47265625
 30
0.0
 10
485.69287109375
 20
-384.18701171875
 30
0.0
 10
486.89990234375
 20
-384.8994140625
 30
0.0
 10
488.1259765625
 20
-385.564453125
 30
0.0
 10
495.169921875
 20
-394.126953125
 30
0.0
 10
504.3828125
 20
-401.81591796875
 30
0.0
 10
515.5693359375
 20
-408.4892578125
 30
0.0
 10
509.189453125
 20
-412.234375
 30
0.0
 10
503.6708984375
 20
-416.423828125
 30
0.0
 10
498.95654296875
 20
-420.96533203125
 30
0.0
 10
490.72021484375
 20
-421.3798828125
 30
0.0
 10
481.7568359375
 20
-421.587890625
 30
0.0
 10
472.06396484375
 20
-421.587890625
 30
0.0
 10
472.06396484375
 20
-421.587890625
 30
0.0
 10
397.53759765625
 20
-421.587890625
 30
0.0
 10
397.53759765625
 20
-421.587890625
 30
0.0
 10
394.2646484375
 20
-417.0849609375
 30
0.0
 10
390.8681640625
 20
-412.7890625
 30
0.0
 10
387.3759765625
 20
-408.78515625
 30
0.0
 10
387.3759765625
 20
-408.78515625
 30
0.0
 10
387.3759765625
 20
-86.9501953125
 30
0.0
 10
387.3759765625
 20
-86.9501953125
 30
0.0
 10
387.3759765625
 20
-86.9501953125
 30
0.0
 10
497.9423828125
 20
-86.9501953125
 30
0.0
 10
497.9423828125
 20
-86.9501953125
 30
0.0
 10
553.609375
 20
-86.9501953125
 30
0.0
 10
593.99609375
 20
-89.9921875
 30
0.0
 10
619.091796875
 20
-96.0654296875
 30
0.0
 10
644.1796875
 20
-102.14990234375
 30
0.0
 10
665.84765625
 20
-116.85302734375
 30
0.0
 10
684.0830078125
 20
-140.1748046875
 30
0.0
 10
702.3095703125
 20
-163.50634765625
 30
0.0
 10
717.6953125
 20
-203.01220703125
 30
0.0
 10
730.24609375
 20
-258.6796875
 30
0.0
 10
730.24609375
 20
-258.6796875
 30
0.0
 10
757.890625
 20
-258.6796875
 30
0.0
 10
757.890625
 20
-258.6796875
 30
0.0
 10
757.890625
 20
-258.6796875
 30
0.0
 10
739.0712890625
 20
-59.89599609375
 30
0.0
 10
739.0712890625
 20
-59.89599609375
 30
0.0
 10
739.0712890625
 20
-59.89599609375
 30
0.0
 10
169.18505859375
 20
-59.89599609375
 30
0.0
 10
169.18505859375
 20
-59.89599609375
 30
0.0
 10
169.18505859375
 20
-59.89599609375
 30
0.0
 10
169.18505859375
 20
-86.9501953125
 30
0.0
 10
169.18505859375
 20
-86.9501953125
 30
0.0
 10
207.60546875
 20
-86.9501953125
 30
0.0
 10
232.79443359375
 20
-90.77392578125
 30
0.0
 10
244.7587890625
 20
-98.41796875
 30
0.0
 10
256.7138671875
 20
-106.06396484375
 30
0.0
 10
264.3583984375
 20
-119.498046875
 30
0.0
 10
267.69482421875
 20
-138.70361328125
 30
0.0
 10
271.02197265625
 20
-157.91845703125
 30
0.0
 10
272.69384765625
 20
-197.91162109375
 30
0.0
 10
272.69384765625
 20
-258.6796875
 30
0.0
 10
272.69384765625
 20
-258.6796875
 30
0.0
 10
272.69384765625
 20
-370.64208984375
 30
0.0
 10
272.69384765625
 20
-370.64208984375
 30
0.0
 10
265.208984375
 20
-372.52783203125
 30
0.0
 10
257.9287109375
 20
-375.15380859375
 30
0.0
 10
251.05322265625
 20
-378.55224609375
 30
0.0
 10
243.56689453125
 20
-382.25244140625
 30
0.0
 10
236.4365234375
 20
-387.07177734375
 30
0.0
 10
229.46337890625
 20
-393.16552734375
 30
0.0
 10
230.83935546875
 20
-382.95361328125
 30
0.0
 10
231.25537109375
 20
-370.8837890625
 30
0.0
 10
226.310546875
 20
-360.7919921875
 30
0.0
 10
224.4921875
 20
-357.083984375
 30
0.0
 10
221.0732421875
 20
-354.95849609375
 30
0.0
 10
216.919921875
 20
-354.95849609375
 30
0.0
 10
213.3466796875
 20
-354.95849609375
 30
0.0
 10
209.744140625
 20
-356.572265625
 30
0.0
 10
207.28515625
 20
-359.275390625
 30
0.0
 10
205.1103515625
 20
-361.6669921875
 30
0.0
 10
204.068359375
 20
-364.669921875
 30
0.0
 10
204.35693359375
 20
-367.7275390625
 30
0.0
 10
204.814453125
 20
-372.61767578125
 30
0.0
 10
206.05517578125
 20
-377.23046875
 30
0.0
 10
207.2548828125
 20
-381.69189453125
 30
0.0
 10
208.57080078125
 20
-386.59912109375
 30
0.0
 10
209.8154296875
 20
-391.23486328125
 30
0.0
 10
210.06298828125
 20
-396.11962890625
 30
0.0
 10
210.26171875
 20
-400.0556640625
 30
0.0
 10
209.5341796875
 20
-404.0576171875
 30
0.0
 10
208.76953125
 20
-408.2958984375
 30
0.0
 10
208.251953125
 20
-411.1318359375
 30
0.0
 10
207.7197265625
 20
-414.05224609375
 30
0.0
 10
207.47607421875
 20
-417.017578125
 30
0.0
 10
203.2509765625
 20
-422.43310546875
 30
0.0
 10
199.14990234375
 20
-428.0732421875
 30
0.0
 10
195.1611328125
 20
-433.6162109375
 30
0.0
 10
195.1083984375
 20
-426.29638671875
 30
0.0
 10
194.0625
 20
-419.8447265625
 30
0.0
 10
193.4140625
 20
-416.5341796875
 30
0.0
 10
192.51416015625
 20
-411.955078125
 30
0.0
 10
188.8369140625
 20
-408.9951171875
 30
0.0
 10
184.0419921875
 20
-408.9951171875
 30
0.0
 10
180.2294921875
 20
-408.9951171875
 30
0.0
 10
176.4541015625
 20
-410.9072265625
 30
0.0
 10
174.421875
 20
-413.86669921875
 30
0.0
 10
172.615234375
 20
-416.505859375
 30
0.0
 10
172.28515625
 20
-419.68505859375
 30
0.0
 10
173.4921875
 20
-422.8212890625
 30
0.0
 10
175.76416015625
 20
-428.6953125
 30
0.0
 10
177.6650390625
 20
-434.048828125
 30
0.0
 10
177.923828125
 20
-440.09033203125
 30
0.0
 10
178.013671875
 20
-442.35107421875
 30
0.0
 10
177.912109375
 20
-444.65478515625
 30
0.0
 10
177.8037109375
 20
-447.09326171875
 30
0.0
 10
177.6611328125
 20
-450.32861328125
 30
0.0
 10
177.51123046875
 20
-453.65966796875
 30
0.0
 10
177.84130859375
 20
-457.0205078125
 30
0.0
 10
174.6318359375
 20
-461.0615234375
 30
0.0
 10
171.583984375
 20
-464.6513671875
 30
0.0
 10
168.59619140625
 20
-467.9033203125
 30
0.0
 10
168.64892578125
 20
-459.966796875
 30
0.0
 10
166.5380859375
 20
-452.14111328125
 30
0.0
 10
162.50830078125
 20
-446.4130859375
 30
0.0
 10
160.48388671875
 20
-443.5185546875
 30
0.0
 10
156.5361328125
 20
-442.18603515625
 30
0.0
 10
153.3720703125
 20
-443.4697265625
 30
0.0
 10
152.0263671875
 20
-444.015625
 30
0.0
 10
151.15625
 20
-444.7275390625
 30
0.0
 10
150.50390625
 20
-445.3349609375
 30
0.0
 10
148.3896484375
 20
-447.267578125
 30
0.0
 10
147.6435546875
 20
-450.77294921875
 30
0.0
 10
148.7607421875
 20
-453.4736328125
 30
0.0
 10
148.7607421875
 20
-453.4736328125
 30
0.0
 10
148.94091796875
 20
-453.91064453125
 30
0.0
 10
148.94091796875
 20
-453.91064453125
 30
0.0
 10
151.123046875
 20
-459.228515625
 30
0.0
 10
153.00830078125
 20
-463.81884765625
 30
0.0
 10
152.93359375
 20
-469.28515625
 30
0.0
 10
152.8623046875
 20
-474.9609375
 30
0.0
 10
150.72900390625
 20
-480.31787109375
 30
0.0
 10
148.5771484375
 20
-485.560546875
 30
0.0
 10
147.22021484375
 20
-486.48828125
 30
0.0
 10
145.84814453125
 20
-487.39208984375
 30
0.0
 10
144.43115234375
 20
-488.2470703125
 30
0.0
 10
134.51171875
 20
-494.224609375
 30
0.0
 10
122.4326171875
 20
-497.65283203125
 30
0.0
 10
111.3056640625
 20
-497.65283203125
 30
0.0
 10
100.15625
 20
-497.65283203125
 30
0.0
 10
80.4072265625
 20
-494.224609375
 30
0.0
 10
73.44921875
 20
-471.26611328125
 30
0.0
 10
69.28076171875
 20
-457.5322265625
 30
0.0
 10
74.28173828125
 20
-442.15966796875
 30
0.0
 10
85.33349609375
 20
-434.7109375
 30
0.0
 10
92.0927734375
 20
-430.15380859375
 30
0.0
 10
99.6240234375
 20
-429.73046875
 30
0.0
 10
105.71240234375
 20
-433.583984375
 30
0.0
 10
108.9140625
 20
-435.64990234375
 30
0.0
 10
111.3544921875
 20
-438.37158203125
 30
0.0
 10
113.2216796875
 20
-442.00048828125
 30
0.0
 10
113.4052734375
 20
-442.33984375
 30
0.0
 10
113.57763671875
 20
-442.67724609375
 30
0.0
 10
113.7314453125
 20
-443.0146484375
 30
0.0
 10
108.25390625
 20
-442.99951171875
 30
0.0
 10
102.87451171875
 20
-445.50390625
 30
0.0
 10
99.6318359375
 20
-449.74365234375
 30
0.0
 10
96.35498046875
 20
-454.0361328125
 30
0.0
 10
95.462890625
 20
-459.7607421875
 30
0.0
 10
97.12744140625
 20
-465.8642578125
 30
0.0
 10
99.2119140625
 20
-473.517578125
 30
0.0
 10
105.66748046875
 20
-478.4619140625
 30
0.0
 10
113.57373046875
 20
-478.4619140625
 30
0.0
 10
116.3818359375
 20
-478.4619140625
 30
0.0
 10
119.2685546875
 20
-477.8193359375
 30
0.0
 10
121.9111328125
 20
-476.59912109375
 30
0.0
 10
133.798828125
 20
-471.1201171875
 30
0.0
 10
137.21435546875
 20
-456.994140625
 30
0.0
 10
136.5283203125
 20
-446.564453125
 30
0.0
 10
135.16357421875
 20
-425.57275390625
 30
0.0
 10
117.52880859375
 20
-408.49462890625
 30
0.0
 10
97.21728515625
 20
-408.49462890625
 30
0.0
 10
94.8779296875
 20
-408.49462890625
 30
0.0
 10
92.53515625
 20
-408.72705078125
 30
0.0
 10
90.248046875
 20
-409.1845703125
 30
0.0
 10
68.7783203125
 20
-413.4697265625
 30
0.0
 10
51.50341796875
 20
-435.78271484375
 30
0.0
 10
50.92578125
 20
-459.97998046875
 30
0.0
 10
50.34130859375
 20
-484.169921875
 30
0.0
 10
65.48681640625
 20
-506.970703125
 30
0.0
 10
87.7626953125
 20
-515.427734375
 30
0.0
  0
SPLINE
  5
60
330
3C
100
AcDbEntity
  8
Layer 1
370
     0
100
AcDbSpline
210
0.0
220
0.0
230
1.0
 70
    11
 71
     3
 72
    20
 73
    16
 74
     0
 42
0.0000000001
 43
0.0000000001
 40
0.0
 40
0.0
 40
0.0
 40
0.0
 40
1.0
 40
1.0
 40
1.0
 40
2.0
 40
2.0
 40
2.0
 40
3.0
 40
3.0
 40
3.0
 40
4.0
 40
4.0
 40
4.0
 40
5.0
 40
5.0
 40
5.0
 40
5.0
 10
259.8369140625
 20
-486.779296875
 30
0.0
 10
244.4814453125
 20
-478.2880859375
 30
0.0
 10
238.00341796875
 20
-460.65869140625
 30
0.0
 10
244.083984375
 20
-443.90478515625
 30
0.0
 10
247.345703125
 20
-434.9091796875
 30
0.0
 10
253.54638671875
 20
-428.3466796875
 30
0.0
 10
261.54638671875
 20
-425.4267578125
 30
0.0
 10
266.1162109375
 20
-423.75634765625
 30
0.0
 10
269.7451171875
 20
-423.25048828125
 30
0.0
 10
272.69384765625
 20
-423.8330078125
 30
0.0
 10
272.69384765625
 20
-423.8330078125
 30
0.0
 10
272.69384765625
 20
-491.84375
 30
0.0
 10
272.69384765625
 20
-491.84375
 30
0.0
 10
268.11083984375
 20
-490.64794921875
 30
0.0
 10
263.80712890625
 20
-488.97412109375
 30
0.0
 10
259.8369140625
 20
-486.779296875
 30
0.0
  0
SPLINE
  5
61
330
3C
100
AcDbEntity
  8
Layer 1
370
     0
100
AcDbSpline
210
0.0
220
0.0
230
1.0
 70
    11
 71
     3
 72
    20
 73
    16
 74
     0
 42
0.0000000001
 43
0.0000000001
 40
0.0
 40
0.0
 40
0.0
 40
0.0
 40
1.0
 40
1.0
 40
1.0
 40
2.0
 40
2.0
 40
2.0
 40
3.0
 40
3.0
 40
3.0
 40
4.0
 40
4.0
 40
4.0
 40
5.0
 40
5.0
 40
5.0
 40
5.0
 10
396.623046875
 20
-456.6474609375
 30
0.0
 10
394.16748046875
 20
-457.8828125
 30
0.0
 10
391.74169921875
 20
-459.1123046875
 30
0.0
 10
389.35009765625
 20
-460.3251953125
 30
0.0
 10
388.6826171875
 20
-460.66259765625
 30
0.0
 10
388.0380859375
 20
-460.98681640625
 30
0.0
 10
387.3759765625
 20
-461.322265625
 30
0.0
 10
387.3759765625
 20
-461.322265625
 30
0.0
 10
387.3759765625
 20
-449.81689453125
 30
0.0
 10
387.3759765625
 20
-449.81689453125
 30
0.0
 10
387.3759765625
 20
-449.81689453125
 30
0.0
 10
393.67626953125
 20
-449.81689453125
 30
0.0
 10
393.67626953125
 20
-449.81689453125
 30
0.0
 10
394.67529296875
 20
-452.02294921875
 30
0.0
 10
395.6611328125
 20
-454.27978515625
 30
0.0
 10
396.623046875
 20
-456.6474609375
 30
0.0
  0
SPLINE
  5
62
330
3C
100
AcDbEntity
  8
Layer 1
370
     0
100
AcDbSpline
210
0.0
220
0.0
230
1.0
 70
    11
 71
     3
 72
    23
 73
    19
 74
     0
 42
0.0000000001
 43
0.0000000001
 40
0.0
 40
0.0
 40
0.0
 40
0.0
 40
1.0
 40
1.0
 40
1.0
 40
2.0
 40
2.0
 40
2.0
 40
3.0
 40
3.0
 40
3.0
 40
4.0
 40
4.0
 40
4.0
 40
5.0
 40
5.0
 40
5.0
 40
6.0
 40
6.0
 40
6.0
 40
6.0
 10
387.3759765625
 20
-502.4921875
 30
0.0
 10
387.3759765625
 20
-502.4921875
 30
0.0
 10
387.3759765625
 20
-483.052734375
 30
0.0
 10
387.3759765625
 20
-483.052734375
 30
0.0
 10
389.81298828125
 20
-481.755859375
 30
0.0
 10
392.25537109375
 20
-480.4619140625
 30
0.0
 10
394.67333984375
 20
-479.1689453125
 30
0.0
 10
397.49658203125
 20
-477.66015625
 30
0.0
 10
400.3193359375
 20
-476.15087890625
 30
0.0
 10
403.14208984375
 20
-474.6513671875
 30
0.0
 10
405.97265625
 20
-483.3505859375
 30
0.0
 10
408.49951171875
 20
-492.1923828125
 30
0.0
 10
410.951171875
 20
-500.783203125
 30
0.0
 10
410.951171875
 20
-500.783203125
 30
0.0
 10
411.4423828125
 20
-502.4921875
 30
0.0
 10
411.4423828125
 20
-502.4921875
 30
0.0
 10
411.4423828125
 20
-502.4921875
 30
0.0
 10
387.3759765625
 20
-502.4921875
 30
0.0
 10
387.3759765625
 20
-502.4921875
 30
0.0
  0
SPLINE
  5
63
330
3C
100
AcDbEntity
  8
Layer 1
370
     0
100
AcDbSpline
210
0.0
220
0.0
230
1.0
 70
    11
 71
     3
 72
    26
 73
    22
 74
     0
 42
0.0000000001
 43
0.0000000001
 40
0.0
 40
0.0
 40
0.0
 40
0.0
 40
1.0
 40
1.0
 40
1.0
 40
2.0
 40
2.0
 40
2.0
 40
3.0
 40
3.0
 40
3.0
 40
4.0
 40
4.0
 40
4.0
 40
5.0
 40
5.0
 40
5.0
 40
6.0
 40
6.0
 40
6.0
 40
7.0
 40
7.0
 40
7.0
 40
7.0
 10
430.5654296875
 20
-502.4921875
 30
0.0
 10
429.71826171875
 20
-490.81640625
 30
0.0
 10
426.7041015625
 20
-478.28955078125
 30
0.0
 10
421.5830078125
 20
-465.1572265625
 30
0.0
 10
432.81103515625
 20
-459.6201171875
 30
0.0
 10
445.28173828125
 20
-454.0400390625
 30
0.0
 10
458.77392578125
 20
-449.81689453125
 30
0.0
 10
458.77392578125
 20
-449.81689453125
 30
0.0
 10
475.0048828125
 20
-449.81689453125
 30
0.0
 10
475.0048828125
 20
-449.81689453125
 30
0.0
 10
477.01220703125
 20
-449.81689453125
 30
0.0
 10
478.978515625
 20
-449.826171875
 30
0.0
 10
480.9169921875
 20
-449.84130859375
 30
0.0
 10
480.6376953125
 20
-450.74853515625
 30
0.0
 10
480.34716796875
 20
-451.65185546875
 30
0.0
 10
480.11083984375
 20
-452.56640625
 30
0.0
 10
475.52587890625
 20
-470.4228515625
 30
0.0
 10
479.5224609375
 20
-489.37158203125
 30
0.0
 10
490.07177734375
 20
-502.4921875
 30
0.0
 10
490.07177734375
 20
-502.4921875
 30
0.0
 10
430.5654296875
 20
-502.4921875
 30
0.0
 10
430.5654296875
 20
-502.4921875
 30
0.0
  0
SPLINE
  5
64
330
3C
100
AcDbEntity
  8
Layer 1
370
     0
100
AcDbSpline
210
0.0
220
0.0
230
1.0
 70
    11
 71
     3
 72
    26
 73
    22
 74
     0
 42
0.0000000001
 43
0.0000000001
 40
0.0
 40
0.0
 40
0.0
 40
0.0
 40
1.0
 40
1.0
 40
1.0
 40
2.0
 40
2.0
 40
2.0
 40
3.0
 40
3.0
 40
3.0
 40
4.0
 40
4.0
 40
4.0
 40
5.0
 40
5.0
 40
5.0
 40
6.0
 40
6.0
 40
6.0
 40
7.0
 40
7.0
 40
7.0
 40
7.0
 10
548.8525390625
 20
-482.7041015625
 30
0.0
 10
548.03515625
 20
-489.23095703125
 30
0.0
 10
544.69140625
 20
-494.2822265625
 30
0.0
 10
538.92578125
 20
-497.72021484375
 30
0.0
 10
534.9736328125
 20
-500.07275390625
 30
0.0
 10
530.7451171875
 20
-501.2646484375
 30
0.0
 10
526.3662109375
 20
-501.2646484375
 30
0.0
 10
513.125
 20
-501.2646484375
 30
0.0
 10
500.39599609375
 20
-490.26171875
 30
0.0
 10
497.39306640625
 20
-476.21484375
 30
0.0
 10
495.25244140625
 20
-466.21630859375
 30
0.0
 10
497.14013671875
 20
-457.3935546875
 30
0.0
 10
500.2197265625
 20
-450.30615234375
 30
0.0
 10
514.9775390625
 20
-450.9248046875
 30
0.0
 10
527.130859375
 20
-452.1376953125
 30
0.0
 10
536.6982421875
 20
-453.93701171875
 30
0.0
 10
537.3955078125
 20
-454.53857421875
 30
0.0
 10
538.1083984375
 20
-455.125
 30
0.0
 10
538.7529296875
 20
-455.77587890625
 30
0.0
 10
545.9130859375
 20
-462.9658203125
 30
0.0
 10
549.9697265625
 20
-473.787109375
 30
0.0
 10
548.8525390625
 20
-482.7041015625
 30
0.0
  0
SPLINE
  5
65
330
3C
100
AcDbEntity
  8
Layer 1
370
     0
100
AcDbSpline
210
0.0
220
0.0
230
1.0
 70
    11
 71
     3
 72
    20
 73
    16
 74
     0
 42
0.0000000001
 43
0.0000000001
 40
0.0
 40
0.0
 40
0.0
 40
0.0
 40
1.0
 40
1.0
 40
1.0
 40
2.0
 40
2.0
 40
2.0
 40
3.0
 40
3.0
 40
3.0
 40
4.0
 40
4.0
 40
4.0
 40
5.0
 40
5.0
 40
5.0
 40
5.0
 10
560.4443359375
 20
-502.4921875
 30
0.0
 10
561.80078125
 20
-500.5732421875
 30
0.0
 10
562.978515625
 20
-498.5244140625
 30
0.0
 10
563.9677734375
 20
-496.357421875
 30
0.0
 10
568.3837890625
 20
-486.62353515625
 30
0.0
 10
568.421875
 20
-476.1923828125
 30
0.0
 10
565.587890625
 20
-466.5595703125
 30
0.0
 10
571.427734375
 20
-471.5771484375
 30
0.0
 10
576.3466796875
 20
-478.025390625
 30
0.0
 10
580.275390625
 20
-485.986328125
 30
0.0
 10
582.3974609375
 20
-490.2880859375
 30
0.0
 10
584.2080078125
 20
-495.8193359375
 30
0.0
 10
585.7265625
 20
-502.4921875
 30
0.0
 10
585.7265625
 20
-502.4921875
 30
0.0
 10
560.4443359375
 20
-502.4921875
 30
0.0
 10
560.4443359375
 20
-502.4921875
 30
0.0
  0
SPLINE
  5
66
330
3C
100
AcDbEntity
  8
Layer 1
370
     0
100
AcDbSpline
210
0.0
220
0.0
230
1.0
 70
    11
 71
     3
 72
    23
 73
    19
 74
     0
 42
0.0000000001
 43
0.0000000001
 40
0.0
 40
0.0
 40
0.0
 40
0.0
 40
1.0
 40
1.0
 40
1.0
 40
2.0
 40
2.0
 40
2.0
 40
3.0
 40
3.0
 40
3.0
 40
4.0
 40
4.0
 40
4.0
 40
5.0
 40
5.0
 40
5.0
 40
6.0
 40
6.0
 40
6.0
 40
6.0
 10
716.7275390625
 20
-466.0400390625
 30
0.0
 10
725.5751953125
 20
-474.01416015625
 30
0.0
 10
730.861328125
 20
-483.09033203125
 30
0.0
 10
733.6650390625
 20
-495.19921875
 30
0.0
 10
729.234375
 20
-497.6806640625
 30
0.0
 10
724.7734375
 20
-499.88330078125
 30
0.0
 10
720.84375
 20
-501.767578125
 30
0.0
 10
719.734375
 20
-502.0205078125
 30
0.0
 10
718.6328125
 20
-502.259765625
 30
0.0
 10
717.5224609375
 20
-502.4921875
 30
0.0
 10
717.5224609375
 20
-502.4921875
 30
0.0
 10
713.0390625
 20
-502.4921875
 30
0.0
 10
713.0390625
 20
-502.4921875
 30
0.0
 10
710.5498046875
 20
-485.0244140625
 30
0.0
 10
704.46875
 20
-468.068359375
 30
0.0
 10
695.2470703125
 20
-452.75390625
 30
0.0
 10
703.63671875
 20
-456.2294921875
 30
0.0
 10
710.72265625
 20
-460.619140625
 30
0.0
 10
716.7275390625
 20
-466.0400390625
 30
0.0
  0
SPLINE
  5
67
330
3C
100
AcDbEntity
  8
Layer 1
370
     0
100
AcDbSpline
210
0.0
220
0.0
230
1.0
 70
    11
 71
     3
 72
    23
 73
    19
 74
     0
 42
0.0000000001
 43
0.0000000001
 40
0.0
 40
0.0
 40
0.0
 40
0.0
 40
1.0
 40
1.0
 40
1.0
 40
2.0
 40
2.0
 40
2.0
 40
3.0
 40
3.0
 40
3.0
 40
4.0
 40
4.0
 40
4.0
 40
5.0
 40
5.0
 40
5.0
 40
6.0
 40
6.0
 40
6.0
 40
6.0
 10
670.13671875
 20
-445.62548828125
 30
0.0
 10
687.171875
 20
-465.21923828125
 30
0.0
 10
696.4765625
 20
-485.66552734375
 30
0.0
 10
696.1162109375
 20
-502.4921875
 30
0.0
 10
696.1162109375
 20
-502.4921875
 30
0.0
 10
619.091796875
 20
-502.4921875
 30
0.0
 10
619.091796875
 20
-502.4921875
 30
0.0
 10
619.091796875
 20
-502.4921875
 30
0.0
 10
619.091796875
 20
-438.3974609375
 30
0.0
 10
619.091796875
 20
-438.3974609375
 30
0.0
 10
624.08203125
 20
-439.083984375
 30
0.0
 10
629.056640625
 20
-439.7509765625
 30
0.0
 10
633.9970703125
 20
-440.3994140625
 30
0.0
 10
643.8720703125
 20
-441.69677734375
 30
0.0
 10
654.091796875
 20
-443.0390625
 30
0.0
 10
664.1982421875
 20
-444.61328125
 30
0.0
 10
666.185546875
 20
-444.9248046875
 30
0.0
 10
668.1650390625
 20
-445.25830078125
 30
0.0
 10
670.13671875
 20
-445.62548828125
 30
0.0
  0
SPLINE
  5
68
330
3C
100
AcDbEntity
  8
Layer 1
370
     0
100
AcDbSpline
210
0.0
220
0.0
230
1.0
 70
    11
 71
     3
 72
    20
 73
    16
 74
     0
 42
0.0000000001
 43
0.0000000001
 40
0.0
 40
0.0
 40
0.0
 40
0.0
 40
1.0
 40
1.0
 40
1.0
 40
2.0
 40
2.0
 40
2.0
 40
3.0
 40
3.0
 40
3.0
 40
4.0
 40
4.0
 40
4.0
 40
5.0
 40
5.0
 40
5.0
 40
5.0
 10
653.619140625
 20
-429.1982421875
 30
0.0
 10
650.9873046875
 20
-428.8701171875
 30
0.0
 10
648.3701171875
 20
-428.55859375
 30
0.0
 10
645.791015625
 20
-428.25146484375
 30
0.0
 10
642.1103515625
 20
-427.814453125
 30
0.0
 10
638.451171875
 20
-427.3798828125
 30
0.0
 10
634.8369140625
 20
-426.9091796875
 30
0.0
 10
629.4765625
 20
-426.2119140625
 30
0.0
 10
624.25
 20
-425.3681640625
 30
0.0
 10
619.091796875
 20
-424.4462890625
 30
0.0
 10
619.091796875
 20
-424.4462890625
 30
0.0
 10
619.091796875
 20
-408.142578125
 30
0.0
 10
619.091796875
 20
-408.142578125
 30
0.0
 10
629.55078125
 20
-411.56689453125
 30
0.0
 10
641.8583984375
 20
-419.08544921875
 30
0.0
 10
653.619140625
 20
-429.1982421875
 30
0.0
  0
SPLINE
  5
69
330
3C
100
AcDbEntity
  8
Layer 1
370
     0
100
AcDbSpline
210
0.0
220
0.0
230
1.0
 70
    11
 71
     3
 72
    14
 73
    10
 74
     0
 42
0.0000000001
 43
0.0000000001
 40
0.0
 40
0.0
 40
0.0
 40
0.0
 40
1.0
 40
1.0
 40
1.0
 40
2.0
 40
2.0
 40
2.0
 40
3.0
 40
3.0
 40
3.0
 40
3.0
 10
561.61328125
 20
-407.4375
 30
0.0
 10
561.5009765625
 20
-407.5029296875
 30
0.0
 10
561.388671875
 20
-407.56884765625
 30
0.0
 10
561.2763671875
 20
-407.63427734375
 30
0.0
 10
561.208984375
 20
-407.6064453125
 30
0.0
 10
561.1337890625
 20
-407.580078125
 30
0.0
 10
561.06640625
 20
-407.5498046875
 30
0.0
 10
561.24609375
 20
-407.5068359375
 30
0.0
 10
561.43359375
 20
-407.478515625
 30
0.0
 10
561.61328125
 20
-407.4375
 30
0.0
  0
SPLINE
  5
6A
330
3C
100
AcDbEntity
  8
Layer 1
370
     0
100
AcDbSpline
210
0.0
220
0.0
230
1.0
 70
    11
 71
     3
 72
    35
 73
    31
 74
     0
 42
0.0000000001
 43
0.0000000001
 40
0.0
 40
0.0
 40
0.0
 40
0.0
 40
1.0
 40
1.0
 40
1.0
 40
2.0
 40
2.0
 40
2.0
 40
3.0
 40
3.0
 40
3.0
 40
4.0
 40
4.0
 40
4.0
 40
5.0
 40
5.0
 40
5.0
 40
6.0
 40
6.0
 40
6.0
 40
7.0
 40
7.0
 40
7.0
 40
8.0
 40
8.0
 40
8.0
 40
9.0
 40
9.0
 40
9.0
 40
10.0
 40
10.0
 40
10.0
 40
10.0
 10
163.5390625
 20
-499.0830078125
 30
0.0
 10
180.705078125
 20
-485.46875
 30
0.0
 10
193.0693359375
 20
-467.2939453125
 30
0.0
 10
205.0283203125
 20
-449.7177734375
 30
0.0
 10
210.6591796875
 20
-441.44384765625
 30
0.0
 10
216.48095703125
 20
-432.888671875
 30
0.0
 10
222.7041015625
 20
-424.96728515625
 30
0.0
 10
236.7998046875
 20
-407.0234375
 30
0.0
 10
253.7373046875
 20
-394.880859375
 30
0.0
 10
272.69384765625
 20
-389.02099609375
 30
0.0
 10
272.69384765625
 20
-389.02099609375
 30
0.0
 10
272.69384765625
 20
-398.42529296875
 30
0.0
 10
272.69384765625
 20
-398.42529296875
 30
0.0
 10
271.53515625
 20
-398.33154296875
 30
0.0
 10
270.375
 20
-398.2470703125
 30
0.0
 10
269.216796875
 20
-398.2470703125
 30
0.0
 10
248.52294921875
 20
-398.2470703125
 30
0.0
 10
227.9677734375
 20
-413.955078125
 30
0.0
 10
220.3388671875
 20
-435.59716796875
 30
0.0
 10
212.1171875
 20
-458.951171875
 30
0.0
 10
218.68896484375
 20
-484.9365234375
 30
0.0
 10
236.69140625
 20
-500.25830078125
 30
0.0
 10
237.5986328125
 20
-501.0283203125
 30
0.0
 10
238.5283203125
 20
-501.7724609375
 30
0.0
 10
239.48046875
 20
-502.4921875
 30
0.0
 10
239.48046875
 20
-502.4921875
 30
0.0
 10
158.99169921875
 20
-502.4921875
 30
0.0
 10
158.99169921875
 20
-502.4921875
 30
0.0
 10
160.52880859375
 20
-501.3994140625
 30
0.0
 10
162.046875
 20
-500.263671875
 30
0.0
 10
163.5390625
 20
-499.0830078125
 30
0.0
  0
HATCH
  5
6B
330
3C
100
AcDbEntity
  8
Layer 1
 62
     7
100
AcDbHatch
 10
0.0
 20
0.0
 30
0.0
210
0.0
220
0.0
230
1.0
  2
SOLID
 70
     1
 71
     0
 91
       12
 92
        1
 93
        1
 72
     4
 94
        3
 73
     0
 74
     1
 95
      500
 96
      496
 40
0.0
 40
0.0
 40
0.0
 40
0.0
 40
1.0
 40
1.0
 40
1.0
 40
2.0
 40
2.0
 40
2.0
 40
3.0
 40
3.0
 40
3.0
 40
4.0
 40
4.0
 40
4.0
 40
5.0
 40
5.0
 40
5.0
 40
6.0
 40
6.0
 40
6.0
 40
7.0
 40
7.0
 40
7.0
 40
8.0
 40
8.0
 40
8.0
 40
9.0
 40
9.0
 40
9.0
 40
10.0
 40
10.0
 40
10.0
 40
11.0
 40
11.0
 40
11.0
 40
12.0
 40
12.0
 40
12.0
 40
13.0
 40
13.0
 40
13.0
 40
14.0
 40
14.0
 40
14.0
 40
15.0
 40
15.0
 40
15.0
 40
16.0
 40
16.0
 40
16.0
 40
17.0
 40
17.0
 40
17.0
 40
18.0
 40
18.0
 40
18.0
 40
19.0
 40
19.0
 40
19.0
 40
20.0
 40
20.0
 40
20.0
 40
21.0
 40
21.0
 40
21.0
 40
22.0
 40
22.0
 40
22.0
 40
23.0
 40
23.0
 40
23.0
 40
24.0
 40
24.0
 40
24.0
 40
25.0
 40
25.0
 40
25.0
 40
26.0
 40
26.0
 40
26.0
 40
27.0
 40
27.0
 40
27.0
 40
28.0
 40
28.0
 40
28.0
 40
29.0
 40
29.0
 40
29.0
 40
30.0
 40
30.0
 40
30.0
 40
31.0
 40
31.0
 40
31.0
 40
32.0
 40
32.0
 40
32.0
 40
33.0
 40
33.0
 40
33.0
 40
34.0
 40
34.0
 40
34.0
 40
35.0
 40
35.0
 40
35.0
 40
36.0
 40
36.0
 40
36.0
 40
37.0
 40
37.0
 40
37.0
 40
38.0
 40
38.0
 40
38.0
 40
39.0
 40
39.0
 40
39.0
 40
40.0
 40
40.0
 40
40.0
 40
41.0
 40
41.0
 40
41.0
 40
42.0
 40
42.0
 40
42.0
 40
43.0
 40
43.0
 40
43.0
 40
44.0
 40
44.0
 40
44.0
 40
45.0
 40
45.0
 40
45.0
 40
46.0
 40
46.0
 40
46.0
 40
47.0
 40
47.0
 40
47.0
 40
48.0
 40
48.0
 40
48.0
 40
49.0
 40
49.0
 40
49.0
 40
50.0
 40
50.0
 40
50.0
 40
51.0
 40
51.0
 40
51.0
 40
52.0
 40
52.0
 40
52.0
 40
53.0
 40
53.0
 40
53.0
 40
54.0
 40
54.0
 40
54.0
 40
55.0
 40
55.0
 40
55.0
 40
56.0
 40
56.0
 40
56.0
 40
57.0
 40
57.0
 40
57.0
 40
58.0
 40
58.0
 40
58.0
 40
59.0
 40
59.0
 40
59.0
 40
60.0
 40
60.0
 40
60.0
 40
61.0
 40
61.0
 40
61.0
 40
62.0
 40
62.0
 40
62.0
 40
63.0
 40
63.0
 40
63.0
 40
64.0
 40
64.0
 40
64.0
 40
65.0
 40
65.0
 40
65.0
 40
66.0
 40
66.0
 40
66.0
 40
67.0
 40
67.0
 40
67.0
 40
68.0
 40
68.0
 40
68.0
 40
69.0
 40
69.0
 40
69.0
 40
70.0
 40
70.0
 40
70.0
 40
71.0
 40
71.0
 40
71.0
 40
72.0
 40
72.0
 40
72.0
 40
73.0
 40
73.0
 40
73.0
 40
74.0
 40
74.0
 40
74.0
 40
75.0
 40
75.0
 40
75.0
 40
76.0
 40
76.0
 40
76.0
 40
77.0
 40
77.0
 40
77.0
 40
78.0
 40
78.0
 40
78.0
 40
79.0
 40
79.0
 40
79.0
 40
80.0
 40
80.0
 40
80.0
 40
81.0
 40
81.0
 40
81.0
 40
82.0
 40
82.0
 40
82.0
 40
83.0
 40
83.0
 40
83.0
 40
84.0
 40
84.0
 40
84.0
 40
85.0
 40
85.0
 40
85.0
 40
86.0
 40
86.0
 40
86.0
 40
87.0
 40
87.0
 40
87.0
 40
88.0
 40
88.0
 40
88.0
 40
89.0
 40
89.0
 40
89.0
 40
90.0
 40
90.0
 40
90.0
 40
91.0
 40
91.0
 40
91.0
 40
92.0
 40
92.0
 40
92.0
 40
93.0
 40
93.0
 40
93.0
 40
94.0
 40
94.0
 40
94.0
 40
95.0
 40
95.0
 40
95.0
 40
96.0
 40
96.0
 40
96.0
 40
97.0
 40
97.0
 40
97.0
 40
98.0
 40
98.0
 40
98.0
 40
99.0
 40
99.0
 40
99.0
 40
100.0
 40
100.0
 40
100.0
 40
101.0
 40
101.0
 40
101.0
 40
102.0
 40
102.0
 40
102.0
 40
103.0
 40
103.0
 40
103.0
 40
104.0
 40
104.0
 40
104.0
 40
105.0
 40
105.0
 40
105.0
 40
106.0
 40
106.0
 40
106.0
 40
107.0
 40
107.0
 40
107.0
 40
108.0
 40
108.0
 40
108.0
 40
109.0
 40
109.0
 40
109.0
 40
110.0
 40
110.0
 40
110.0
 40
111.0
 40
111.0
 40
111.0
 40
112.0
 40
112.0
 40
112.0
 40
113.0
 40
113.0
 40
113.0
 40
114.0
 40
114.0
 40
114.0
 40
115.0
 40
115.0
 40
115.0
 40
116.0
 40
116.0
 40
116.0
 40
117.0
 40
117.0
 40
117.0
 40
118.0
 40
118.0
 40
118.0
 40
119.0
 40
119.0
 40
119.0
 40
120.0
 40
120.0
 40
120.0
 40
121.0
 40
121.0
 40
121.0
 40
122.0
 40
122.0
 40
122.0
 40
123.0
 40
123.0
 40
123.0
 40
124.0
 40
124.0
 40
124.0
 40
125.0
 40
125.0
 40
125.0
 40
126.0
 40
126.0
 40
126.0
 40
127.0
 40
127.0
 40
127.0
 40
128.0
 40
128.0
 40
128.0
 40
129.0
 40
129.0
 40
129.0
 40
130.0
 40
130.0
 40
130.0
 40
131.0
 40
131.0
 40
131.0
 40
132.0
 40
132.0
 40
132.0
 40
133.0
 40
133.0
 40
133.0
 40
134.0
 40
134.0
 40
134.0
 40
135.0
 40
135.0
 40
135.0
 40
136.0
 40
136.0
 40
136.0
 40
137.0
 40
137.0
 40
137.0
 40
138.0
 40
138.0
 40
138.0
 40
139.0
 40
139.0
 40
139.0
 40
140.0
 40
140.0
 40
140.0
 40
141.0
 40
141.0
 40
141.0
 40
142.0
 40
142.0
 40
142.0
 40
143.0
 40
143.0
 40
143.0
 40
144.0
 40
144.0
 40
144.0
 40
145.0
 40
145.0
 40
145.0
 40
146.0
 40
146.0
 40
146.0
 40
147.0
 40
147.0
 40
147.0
 40
148.0
 40
148.0
 40
148.0
 40
149.0
 40
149.0
 40
149.0
 40
150.0
 40
150.0
 40
150.0
 40
151.0
 40
151.0
 40
151.0
 40
152.0
 40
152.0
 40
152.0
 40
153.0
 40
153.0
 40
153.0
 40
154.0
 40
154.0
 40
154.0
 40
155.0
 40
155.0
 40
155.0
 40
156.0
 40
156.0
 40
156.0
 40
157.0
 40
157.0
 40
157.0
 40
158.0
 40
158.0
 40
158.0
 40
159.0
 40
159.0
 40
159.0
 40
160.0
 40
160.0
 40
160.0
 40
161.0
 40
161.0
 40
161.0
 40
162.0
 40
162.0
 40
162.0
 40
163.0
 40
163.0
 40
163.0
 40
164.0
 40
164.0
 40
164.0
 40
165.0
 40
165.0
 40
165.0
 40
165.0
 10
87.7626953125
 20
-515.427734375
 10
91.72900390625
 20
-516.935546875
 10
95.8828125
 20
-518.0263671875
 10
100.14892578125
 20
-518.689453125
 10
100.14892578125
 20
-518.689453125
 10
100.14892578125
 20
-519.6494140625
 10
100.14892578125
 20
-519.6494140625
 10
100.14892578125
 20
-519.6494140625
 10
904.2177734375
 20
-519.6494140625
 10
904.2177734375
 20
-519.6494140625
 10
904.2177734375
 20
-519.6494140625
 10
904.2177734375
 20
-502.4921875
 10
904.2177734375
 20
-502.4921875
 10
904.2177734375
 20
-502.4921875
 10
761.564453125
 20
-502.4921875
 10
761.564453125
 20
-502.4921875
 10
771.6044921875
 20
-497.521484375
 10
781.1865234375
 20
-491.55126953125
 10
790.2138671875
 20
-484.638671875
 10
798.8134765625
 20
-480.6552734375
 10
806.048828125
 20
-477.6337890625
 10
813.8017578125
 20
-477.6337890625
 10
817.4912109375
 20
-477.6337890625
 10
821.07421875
 20
-478.31982421875
 10
824.763671875
 20
-479.7314453125
 10
829.2177734375
 20
-481.43115234375
 10
834.990234375
 20
-483.7783203125
 10
840.208984375
 20
-486.85400390625
 10
840.208984375
 20
-486.85400390625
 10
842.12890625
 20
-488.0126953125
 10
842.12890625
 20
-488.0126953125
 10
845.9599609375
 20
-490.34814453125
 10
849.57421875
 20
-492.55419921875
 10
855.5869140625
 20
-492.71728515625
 10
858.3916015625
 20
-492.71728515625
 10
861.0302734375
 20
-491.423828125
 10
862.814453125
 20
-489.1669921875
 10
864.689453125
 20
-486.78857421875
 10
865.4013671875
 20
-483.6298828125
 10
864.7041015625
 20
-480.71728515625
 10
860.302734375
 20
-462.28955078125
 10
835.373046875
 20
-460.857421875
 10
827.837890625
 20
-460.857421875
 10
825.36328125
 20
-460.857421875
 10
822.95703125
 20
-460.98486328125
 10
820.6845703125
 20
-461.234375
 10
818.8251953125
 20
-461.4384765625
 10
816.5986328125
 20
-461.75537109375
 10
814.1171875
 20
-462.24267578125
 10
815.166015625
 20
-461.01123046875
 10
816.208984375
 20
-459.7587890625
 10
817.220703125
 20
-458.48828125
 10
818.0380859375
 20
-458.18798828125
 10
818.7578125
 20
-457.65771484375
 10
819.3056640625
 20
-456.93994140625
 10
822.0947265625
 20
-453.2431640625
 10
824.958984375
 20
-449.2431640625
 10
827.927734375
 20
-445.1005859375
 10
846.5
 20
-419.169921875
 10
867.62890625
 20
-389.67138671875
 10
899.3515625
 20
-391.99560546875
 10
899.7119140625
 20
-392.02392578125
 10
900.0712890625
 20
-392.037109375
 10
900.416015625
 20
-392.037109375
 10
900.416015625
 20
-392.037109375
 10
900.416015625
 20
-392.037109375
 10
900.416015625
 20
-392.037109375
 10
906.759765625
 20
-392.037109375
 10
911.400390625
 20
-387.4951171875
 10
911.7001953125
 20
-380.99267578125
 10
911.9853515625
 20
-374.8017578125
 10
907.9443359375
 20
-367.8193359375
 10
899.8916015625
 20
-367.0732421875
 10
879.0400390625
 20
-365.13671875
 10
864.4345703125
 20
-378.1923828125
 10
853.0830078125
 20
-390.91064453125
 10
850.5263671875
 20
-393.7744140625
 10
847.9091796875
 20
-396.71923828125
 10
845.27734375
 20
-399.74462890625
 10
850.3681640625
 20
-374.52392578125
 10
846.8818359375
 20
-349.96142578125
 10
835.005859375
 20
-329.1416015625
 10
831.841796875
 20
-323.59716796875
 10
828.0029296875
 20
-318.34130859375
 10
823.5869140625
 20
-313.5048828125
 10
823.458984375
 20
-310.8623046875
 10
823.12890625
 20
-308.2587890625
 10
822.806640625
 20
-305.72607421875
 10
822.4169921875
 20
-302.59228515625
 10
822.0419921875
 20
-299.63232421875
 10
822.0341796875
 20
-296.70068359375
 10
822.0048828125
 20
-287.52734375
 10
824.15625
 20
-279.5625
 10
829.0146484375
 20
-270.87646484375
 10
829.314453125
 20
-270.34619140625
 10
829.7421875
 20
-269.6279296875
 10
830.2666015625
 20
-268.765625
 10
835.97265625
 20
-259.28857421875
 10
841.73828125
 20
-248.60986328125
 10
837.921875
 20
-241.84521484375
 10
836.6328125
 20
-239.5712890625
 10
833.7236328125
 20
-236.8271484375
 10
827.095703125
 20
-237.169921875
 10
809.115234375
 20
-238.052734375
 10
806.2890625
 20
-267.4951171875
 10
805.224609375
 20
-278.57470703125
 10
804.7373046875
 20
-283.6357421875
 10
804.0693359375
 20
-290.54296875
 10
804.32421875
 20
-297.578125
 10
790.783203125
 20
-289.27587890625
 10
775.3232421875
 20
-284.771484375
 10
760.0126953125
 20
-284.771484375
 10
746.7568359375
 20
-284.771484375
 10
733.8232421875
 20
-288.2001953125
 10
722.5458984375
 20
-294.693359375
 10
716.9453125
 20
-295.0869140625
 10
711.5693359375
 20
-294.6142578125
 10
706.703125
 20
-293.1953125
 10
703.599609375
 20
-292.2939453125
 10
700.5029296875
 20
-289.83447265625
 10
697.2333984375
 20
-287.23291015625
 10
692.3447265625
 20
-283.34716796875
 10
687.2919921875
 20
-279.330078125
 10
680.8212890625
 20
-279.330078125
 10
679.4638671875
 20
-279.330078125
 10
678.099609375
 20
-279.517578125
 10
676.7568359375
 20
-279.88671875
 10
672.6708984375
 20
-281.009765625
 10
669.7392578125
 20
-284.81689453125
 10
669.634765625
 20
-289.13720703125
 10
669.169921875
 20
-306.55078125
 10
692.66796875
 20
-308.07861328125
 10
703.958984375
 20
-308.8134765625
 10
703.958984375
 20
-308.8134765625
 10
704.7685546875
 20
-308.86767578125
 10
704.7685546875
 20
-308.86767578125
 10
690.890625
 20
-323.904296875
 10
681.03125
 20
-346.79541015625
 10
687.4794921875
 20
-369.09765625
 10
692.2548828125
 20
-385.62841796875
 10
708.2177734375
 20
-398.09326171875
 10
724.6005859375
 20
-398.09326171875
 10
731.4765625
 20
-398.09326171875
 10
738.07421875
 20
-395.86279296875
 10
743.6748046875
 20
-391.6455078125
 10
749.140625
 20
-387.53076171875
 10
751.29296875
 20
-381.2421875
 10
749.283203125
 20
-375.234375
 10
747.37109375
 20
-369.5302734375
 10
742.0703125
 20
-365.697265625
 10
736.0947265625
 20
-365.697265625
 10
733.9130859375
 20
-365.697265625
 10
731.701171875
 20
-366.1826171875
 10
729.51953125
 20
-367.13671875
 10
724.6904296875
 20
-369.24365234375
 10
721.001953125
 20
-368.77685546875
 10
718.1455078125
 20
-365.466796875
 10
713.96875
 20
-360.62890625
 10
712.6943359375
 20
-351.40478515625
 10
713.6083984375
 20
-345.181640625
 10
715.2060546875
 20
-334.36962890625
 10
721.931640625
 20
-325.9306640625
 10
727.2998046875
 20
-320.75537109375
 10
737.1591796875
 20
-311.24267578125
 10
750.9482421875
 20
-305.7861328125
 10
765.1259765625
 20
-305.7861328125
 10
769.865234375
 20
-305.7861328125
 10
774.55078125
 20
-306.3974609375
 10
779.0341796875
 20
-307.6044921875
 10
786.83203125
 20
-309.7021484375
 10
793.9853515625
 20
-313.06640625
 10
800.41796875
 20
-317.6513671875
 10
784.2529296875
 20
-317.12109375
 10
770.63671875
 20
-324.3603515625
 10
764.5341796875
 20
-336.6904296875
 10
762.6669921875
 20
-340.46142578125
 10
762.9072265625
 20
-344.74267578125
 10
765.201171875
 20
-348.435546875
 10
767.5107421875
 20
-352.14697265625
 10
771.4248046875
 20
-354.45263671875
 10
775.4208984375
 20
-354.45263671875
 10
778.517578125
 20
-354.45263671875
 10
781.44140625
 20
-353.046875
 10
783.630859375
 20
-350.4990234375
 10
790.1689453125
 20
-342.9189453125
 10
796.2568359375
 20
-336.50634765625
 10
804.51953125
 20
-334.8046875
 10
809.865234375
 20
-333.69091796875
 10
815.0390625
 20
-335.37451171875
 10
820.6552734375
 20
-340.0419921875
 10
830.431640625
 20
-356.7880859375
 10
834.248046875
 20
-377.7275390625
 10
831.12890625
 20
-397.60595703125
 10
826.203125
 20
-428.94140625
 10
807.78125
 20
-456.5576171875
 10
779.3046875
 20
-476.34375
 10
779.4765625
 20
-476.08740234375
 10
779.6572265625
 20
-475.83056640625
 10
779.8291015625
 20
-475.56982421875
 10
791.720703125
 20
-457.96875
 10
795.125
 20
-431.50146484375
 10
778.0
 20
-417.1171875
 10
775.8251953125
 20
-415.29150390625
 10
773.0068359375
 20
-414.28466796875
 10
770.0673828125
 20
-414.28466796875
 10
766.0185546875
 20
-414.28466796875
 10
762.2841796875
 20
-416.09375
 10
760.0654296875
 20
-419.12451171875
 10
758.033203125
 20
-421.904296875
 10
757.53125
 20
-425.3798828125
 10
758.6552734375
 20
-428.9150390625
 10
764.744140625
 20
-448.009765625
 10
769.15234375
 20
-461.8056640625
 10
755.38671875
 20
-478.259765625
 10
752.6953125
 20
-481.4765625
 10
749.4853515625
 20
-484.50341796875
 10
745.662109375
 20
-487.4296875
 10
741.935546875
 20
-472.767578125
 10
731.00390625
 20
-459.744140625
 10
721.14453125
 20
-451.8974609375
 10
710.5947265625
 20
-443.494140625
 10
697.9833984375
 20
-437.7529296875
 10
681.5478515625
 20
-433.87841796875
 10
664.685546875
 20
-414.4404296875
 10
642.919921875
 20
-400.72314453125
 10
619.091796875
 20
-394.0576171875
 10
619.091796875
 20
-394.0576171875
 10
619.091796875
 20
-302.2001953125
 10
619.091796875
 20
-302.2001953125
 10
619.091796875
 20
-302.2001953125
 10
591.455078125
 20
-302.2001953125
 10
591.455078125
 20
-302.2001953125
 10
591.455078125
 20
-341.412109375
 10
588.9990234375
 20
-367.77587890625
 10
584.099609375
 20
-381.3017578125
 10
583.03515625
 20
-384.2353515625
 10
581.677734375
 20
-386.97607421875
 10
580.1181640625
 20
-389.5849609375
 10
567.0869140625
 20
-390.1552734375
 10
553.89453125
 20
-392.7041015625
 10
540.814453125
 20
-397.1826171875
 10
540.814453125
 20
-397.1826171875
 10
540.5224609375
 20
-397.28564453125
 10
540.5224609375
 20
-397.28564453125
 10
535.9033203125
 20
-394.63330078125
 10
531.7353515625
 20
-391.99560546875
 10
527.8212890625
 20
-389.248046875
 10
510.666015625
 20
-377.2216796875
 10
499.642578125
 20
-361.40478515625
 10
497.5732421875
 20
-345.8525390625
 10
495.4140625
 20
-329.69091796875
 10
504.3984375
 20
-314.8564453125
 10
518.9287109375
 20
-310.5771484375
 10
525.2568359375
 20
-308.7119140625
 10
528.87109375
 20
-303.0439453125
 10
527.92578125
 20
-296.4755859375
 10
527.09375
 20
-290.7041015625
 10
522.498046875
 20
-284.86376953125
 10
515.3369140625
 20
-284.86376953125
 10
514.0546875
 20
-284.86376953125
 10
512.7431640625
 20
-285.05859375
 10
511.4306640625
 20
-285.44482421875
 10
491.57861328125
 20
-291.296875
 10
476.927734375
 20
-307.8310546875
 10
472.6357421875
 20
-328.55859375
 10
471.63818359375
 20
-327.775390625
 10
470.65234375
 20
-327.02734375
 10
469.71142578125
 20
-326.3154296875
 10
469.71142578125
 20
-326.3154296875
 10
468.7177734375
 20
-325.5576171875
 10
468.7177734375
 20
-325.5576171875
 10
461.3251953125
 20
-319.92138671875
 10
451.4541015625
 20
-313.40380859375
 10
440.29736328125
 20
-313.017578125
 10
435.7275390625
 20
-313.017578125
 10
432.0126953125
 20
-316.2177734375
 10
431.052734375
 20
-320.982421875
 10
430.01416015625
 20
-326.1240234375
 10
432.46240234375
 20
-331.20166015625
 10
436.87841796875
 20
-333.0576171875
 10
440.68359375
 20
-334.65087890625
 10
444.56396484375
 20
-335.55224609375
 10
448.3203125
 20
-336.42578125
 10
452.39892578125
 20
-337.37255859375
 10
456.2451171875
 20
-338.2666015625
 10
459.859375
 20
-339.96875
 10
462.73828125
 20
-341.32568359375
 10
465.34765625
 20
-343.39306640625
 10
468.1142578125
 20
-345.58447265625
 10
469.3291015625
 20
-346.5458984375
 10
470.5400390625
 20
-347.505859375
 10
471.78076171875
 20
-348.4111328125
 10
472.0205078125
 20
-350.474609375
 10
472.36572265625
 20
-352.525390625
 10
472.80810546875
 20
-354.53125
 10
473.2802734375
 20
-356.6923828125
 10
473.857421875
 20
-358.8310546875
 10
474.5322265625
 20
-360.94189453125
 10
472.62060546875
 20
-360.1884765625
 10
470.6787109375
 20
-359.505859375
 10
468.751953125
 20
-358.91552734375
 10
463.24462890625
 20
-357.232421875
 10
457.93994140625
 20
-361.4326171875
 10
457.56494140625
 20
-367.54541015625
 10
457.25390625
 20
-372.64208984375
 10
460.42919921875
 20
-376.61962890625
 10
465.28759765625
 20
-377.2197265625
 10
470.416015625
 20
-377.849609375
 10
475.0234375
 20
-378.544921875
 10
479.447265625
 20
-380.673828125
 10
481.115234375
 20
-381.478515625
 10
482.75390625
 20
-382.447265625
 10
484.48583984375
 20
-383.47265625
 10
485.69287109375
 20
-384.18701171875
 10
486.89990234375
 20
-384.8994140625
 10
488.1259765625
 20
-385.564453125
 10
495.169921875
 20
-394.126953125
 10
504.3828125
 20
-401.81591796875
 10
515.5693359375
 20
-408.4892578125
 10
509.189453125
 20
-412.234375
 10
503.6708984375
 20
-416.423828125
 10
498.95654296875
 20
-420.96533203125
 10
490.72021484375
 20
-421.3798828125
 10
481.7568359375
 20
-421.587890625
 10
472.06396484375
 20
-421.587890625
 10
472.06396484375
 20
-421.587890625
 10
397.53759765625
 20
-421.587890625
 10
397.53759765625
 20
-421.587890625
 10
394.2646484375
 20
-417.0849609375
 10
390.8681640625
 20
-412.7890625
 10
387.3759765625
 20
-408.78515625
 10
387.3759765625
 20
-408.78515625
 10
387.3759765625
 20
-86.9501953125
 10
387.3759765625
 20
-86.9501953125
 10
387.3759765625
 20
-86.9501953125
 10
497.9423828125
 20
-86.9501953125
 10
497.9423828125
 20
-86.9501953125
 10
553.609375
 20
-86.9501953125
 10
593.99609375
 20
-89.9921875
 10
619.091796875
 20
-96.0654296875
 10
644.1796875
 20
-102.14990234375
 10
665.84765625
 20
-116.85302734375
 10
684.0830078125
 20
-140.1748046875
 10
702.3095703125
 20
-163.50634765625
 10
717.6953125
 20
-203.01220703125
 10
730.24609375
 20
-258.6796875
 10
730.24609375
 20
-258.6796875
 10
757.890625
 20
-258.6796875
 10
757.890625
 20
-258.6796875
 10
757.890625
 20
-258.6796875
 10
739.0712890625
 20
-59.89599609375
 10
739.0712890625
 20
-59.89599609375
 10
739.0712890625
 20
-59.89599609375
 10
169.18505859375
 20
-59.89599609375
 10
169.18505859375
 20
-59.89599609375
 10
169.18505859375
 20
-59.89599609375
 10
169.18505859375
 20
-86.9501953125
 10
169.18505859375
 20
-86.9501953125
 10
207.60546875
 20
-86.9501953125
 10
232.79443359375
 20
-90.77392578125
 10
244.7587890625
 20
-98.41796875
 10
256.7138671875
 20
-106.06396484375
 10
264.3583984375
 20
-119.498046875
 10
267.69482421875
 20
-138.70361328125
 10
271.02197265625
 20
-157.91845703125
 10
272.69384765625
 20
-197.91162109375
 10
272.69384765625
 20
-258.6796875
 10
272.69384765625
 20
-258.6796875
 10
272.69384765625
 20
-370.64208984375
 10
272.69384765625
 20
-370.64208984375
 10
265.208984375
 20
-372.52783203125
 10
257.9287109375
 20
-375.15380859375
 10
251.05322265625
 20
-378.55224609375
 10
243.56689453125
 20
-382.25244140625
 10
236.4365234375
 20
-387.07177734375
 10
229.46337890625
 20
-393.16552734375
 10
230.83935546875
 20
-382.95361328125
 10
231.25537109375
 20
-370.8837890625
 10
226.310546875
 20
-360.7919921875
 10
224.4921875
 20
-357.083984375
 10
221.0732421875
 20
-354.95849609375
 10
216.919921875
 20
-354.95849609375
 10
213.3466796875
 20
-354.95849609375
 10
209.744140625
 20
-356.572265625
 10
207.28515625
 20
-359.275390625
 10
205.1103515625
 20
-361.6669921875
 10
204.068359375
 20
-364.669921875
 10
204.35693359375
 20
-367.7275390625
 10
204.814453125
 20
-372.61767578125
 10
206.05517578125
 20
-377.23046875
 10
207.2548828125
 20
-381.69189453125
 10
208.57080078125
 20
-386.59912109375
 10
209.8154296875
 20
-391.23486328125
 10
210.06298828125
 20
-396.11962890625
 10
210.26171875
 20
-400.0556640625
 10
209.5341796875
 20
-404.0576171875
 10
208.76953125
 20
-408.2958984375
 10
208.251953125
 20
-411.1318359375
 10
207.7197265625
 20
-414.05224609375
 10
207.47607421875
 20
-417.017578125
 10
203.2509765625
 20
-422.43310546875
 10
199.14990234375
 20
-428.0732421875
 10
195.1611328125
 20
-433.6162109375
 10
195.1083984375
 20
-426.29638671875
 10
194.0625
 20
-419.8447265625
 10
193.4140625
 20
-416.5341796875
 10
192.51416015625
 20
-411.955078125
 10
188.8369140625
 20
-408.9951171875
 10
184.0419921875
 20
-408.9951171875
 10
180.2294921875
 20
-408.9951171875
 10
176.4541015625
 20
-410.9072265625
 10
174.421875
 20
-413.86669921875
 10
172.615234375
 20
-416.505859375
 10
172.28515625
 20
-419.68505859375
 10
173.4921875
 20
-422.8212890625
 10
175.76416015625
 20
-428.6953125
 10
177.6650390625
 20
-434.048828125
 10
177.923828125
 20
-440.09033203125
 10
178.013671875
 20
-442.35107421875
 10
177.912109375
 20
-444.65478515625
 10
177.8037109375
 20
-447.09326171875
 10
177.6611328125
 20
-450.32861328125
 10
177.51123046875
 20
-453.65966796875
 10
177.84130859375
 20
-457.0205078125
 10
174.6318359375
 20
-461.0615234375
 10
171.583984375
 20
-464.6513671875
 10
168.59619140625
 20
-467.9033203125
 10
168.64892578125
 20
-459.966796875
 10
166.5380859375
 20
-452.14111328125
 10
162.50830078125
 20
-446.4130859375
 10
160.48388671875
 20
-443.5185546875
 10
156.5361328125
 20
-442.18603515625
 10
153.3720703125
 20
-443.4697265625
 10
152.0263671875
 20
-444.015625
 10
151.15625
 20
-444.7275390625
 10
150.50390625
 20
-445.3349609375
 10
148.3896484375
 20
-447.267578125
 10
147.6435546875
 20
-450.77294921875
 10
148.7607421875
 20
-453.4736328125
 10
148.7607421875
 20
-453.4736328125
 10
148.94091796875
 20
-453.91064453125
 10
148.94091796875
 20
-453.91064453125
 10
151.123046875
 20
-459.228515625
 10
153.00830078125
 20
-463.81884765625
 10
152.93359375
 20
-469.28515625
 10
152.8623046875
 20
-474.9609375
 10
150.72900390625
 20
-480.31787109375
 10
148.5771484375
 20
-485.560546875
 10
147.22021484375
 20
-486.48828125
 10
145.84814453125
 20
-487.39208984375
 10
144.43115234375
 20
-488.2470703125
 10
134.51171875
 20
-494.224609375
 10
122.4326171875
 20
-497.65283203125
 10
111.3056640625
 20
-497.65283203125
 10
100.15625
 20
-497.65283203125
 10
80.4072265625
 20
-494.224609375
 10
73.44921875
 20
-471.26611328125
 10
69.28076171875
 20
-457.5322265625
 10
74.28173828125
 20
-442.15966796875
 10
85.33349609375
 20
-434.7109375
 10
92.0927734375
 20
-430.15380859375
 10
99.6240234375
 20
-429.73046875
 10
105.71240234375
 20
-433.583984375
 10
108.9140625
 20
-435.64990234375
 10
111.3544921875
 20
-438.37158203125
 10
113.2216796875
 20
-442.00048828125
 10
113.4052734375
 20
-442.33984375
 10
113.57763671875
 20
-442.67724609375
 10
113.7314453125
 20
-443.0146484375
 10
108.25390625
 20
-442.99951171875
 10
102.87451171875
 20
-445.50390625
 10
99.6318359375
 20
-449.74365234375
 10
96.35498046875
 20
-454.0361328125
 10
95.462890625
 20
-459.7607421875
 10
97.12744140625
 20
-465.8642578125
 10
99.2119140625
 20
-473.517578125
 10
105.66748046875
 20
-478.4619140625
 10
113.57373046875
 20
-478.4619140625
 10
116.3818359375
 20
-478.4619140625
 10
119.2685546875
 20
-477.8193359375
 10
121.9111328125
 20
-476.59912109375
 10
133.798828125
 20
-471.1201171875
 10
137.21435546875
 20
-456.994140625
 10
136.5283203125
 20
-446.564453125
 10
135.16357421875
 20
-425.57275390625
 10
117.52880859375
 20
-408.49462890625
 10
97.21728515625
 20
-408.49462890625
 10
94.8779296875
 20
-408.49462890625
 10
92.53515625
 20
-408.72705078125
 10
90.248046875
 20
-409.1845703125
 10
68.7783203125
 20
-413.4697265625
 10
51.50341796875
 20
-435.78271484375
 10
50.92578125
 20
-459.97998046875
 10
50.34130859375
 20
-484.169921875
 10
65.48681640625
 20
-506.970703125
 10
87.7626953125
 20
-515.427734375
 97
        0
 92
        1
 93
        1
 72
     4
 94
        3
 73
     0
 74
     1
 95
       20
 96
       16
 40
0.0
 40
0.0
 40
0.0
 40
0.0
 40
1.0
 40
1.0
 40
1.0
 40
2.0
 40
2.0
 40
2.0
 40
3.0
 40
3.0
 40
3.0
 40
4.0
 40
4.0
 40
4.0
 40
5.0
 40
5.0
 40
5.0
 40
5.0
 10
259.8369140625
 20
-486.779296875
 10
244.4814453125
 20
-478.2880859375
 10
238.00341796875
 20
-460.65869140625
 10
244.083984375
 20
-443.90478515625
 10
247.345703125
 20
-434.9091796875
 10
253.54638671875
 20
-428.3466796875
 10
261.54638671875
 20
-425.4267578125
 10
266.1162109375
 20
-423.75634765625
 10
269.7451171875
 20
-423.25048828125
 10
272.69384765625
 20
-423.8330078125
 10
272.69384765625
 20
-423.8330078125
 10
272.69384765625
 20
-491.84375
 10
272.69384765625
 20
-491.84375
 10
268.11083984375
 20
-490.64794921875
 10
263.80712890625
 20
-488.97412109375
 10
259.8369140625
 20
-486.779296875
 97
        0
 92
        1
 93
        1
 72
     4
 94
        3
 73
     0
 74
     1
 95
       20
 96
       16
 40
0.0
 40
0.0
 40
0.0
 40
0.0
 40
1.0
 40
1.0
 40
1.0
 40
2.0
 40
2.0
 40
2.0
 40
3.0
 40
3.0
 40
3.0
 40
4.0
 40
4.0
 40
4.0
 40
5.0
 40
5.0
 40
5.0
 40
5.0
 10
396.623046875
 20
-456.6474609375
 10
394.16748046875
 20
-457.8828125
 10
391.74169921875
 20
-459.1123046875
 10
389.35009765625
 20
-460.3251953125
 10
388.6826171875
 20
-460.66259765625
 10
388.0380859375
 20
-460.98681640625
 10
387.3759765625
 20
-461.322265625
 10
387.3759765625
 20
-461.322265625
 10
387.3759765625
 20
-449.81689453125
 10
387.3759765625
 20
-449.81689453125
 10
387.3759765625
 20
-449.81689453125
 10
393.67626953125
 20
-449.81689453125
 10
393.67626953125
 20
-449.81689453125
 10
394.67529296875
 20
-452.02294921875
 10
395.6611328125
 20
-454.27978515625
 10
396.623046875
 20
-456.6474609375
 97
        0
 92
        1
 93
        1
 72
     4
 94
        3
 73
     0
 74
     1
 95
       23
 96
       19
 40
0.0
 40
0.0
 40
0.0
 40
0.0
 40
1.0
 40
1.0
 40
1.0
 40
2.0
 40
2.0
 40
2.0
 40
3.0
 40
3.0
 40
3.0
 40
4.0
 40
4.0
 40
4.0
 40
5.0
 40
5.0
 40
5.0
 40
6.0
 40
6.0
 40
6.0
 40
6.0
 10
387.3759765625
 20
-502.4921875
 10
387.3759765625
 20
-502.4921875
 10
387.3759765625
 20
-483.052734375
 10
387.3759765625
 20
-483.052734375
 10
389.81298828125
 20
-481.755859375
 10
392.25537109375
 20
-480.4619140625
 10
394.67333984375
 20
-479.1689453125
 10
397.49658203125
 20
-477.66015625
 10
400.3193359375
 20
-476.15087890625
 10
403.14208984375
 20
-474.6513671875
 10
405.97265625
 20
-483.3505859375
 10
408.49951171875
 20
-492.1923828125
 10
410.951171875
 20
-500.783203125
 10
410.951171875
 20
-500.783203125
 10
411.4423828125
 20
-502.4921875
 10
411.4423828125
 20
-502.4921875
 10
411.4423828125
 20
-502.4921875
 10
387.3759765625
 20
-502.4921875
 10
387.3759765625
 20
-502.4921875
 97
        0
 92
        1
 93
        1
 72
     4
 94
        3
 73
     0
 74
     1
 95
       26
 96
       22
 40
0.0
 40
0.0
 40
0.0
 40
0.0
 40
1.0
 40
1.0
 40
1.0
 40
2.0
 40
2.0
 40
2.0
 40
3.0
 40
3.0
 40
3.0
 40
4.0
 40
4.0
 40
4.0
 40
5.0
 40
5.0
 40
5.0
 40
6.0
 40
6.0
 40
6.0
 40
7.0
 40
7.0
 40
7.0
 40
7.0
 10
430.5654296875
 20
-502.4921875
 10
429.71826171875
 20
-490.81640625
 10
426.7041015625
 20
-478.28955078125
 10
421.5830078125
 20
-465.1572265625
 10
432.81103515625
 20
-459.6201171875
 10
445.28173828125
 20
-454.0400390625
 10
458.77392578125
 20
-449.81689453125
 10
458.77392578125
 20
-449.81689453125
 10
475.0048828125
 20
-449.81689453125
 10
475.0048828125
 20
-449.81689453125
 10
477.01220703125
 20
-449.81689453125
 10
478.978515625
 20
-449.826171875
 10
480.9169921875
 20
-449.84130859375
 10
480.6376953125
 20
-450.74853515625
 10
480.34716796875
 20
-451.65185546875
 10
480.11083984375
 20
-452.56640625
 10
475.52587890625
 20
-470.4228515625
 10
479.5224609375
 20
-489.37158203125
 10
490.07177734375
 20
-502.4921875
 10
490.07177734375
 20
-502.4921875
 10
430.5654296875
 20
-502.4921875
 10
430.5654296875
 20
-502.4921875
 97
        0
 92
        1
 93
        1
 72
     4
 94
        3
 73
     0
 74
     1
 95
       26
 96
       22
 40
0.0
 40
0.0
 40
0.0
 40
0.0
 40
1.0
 40
1.0
 40
1.0
 40
2.0
 40
2.0
 40
2.0
 40
3.0
 40
3.0
 40
3.0
 40
4.0
 40
4.0
 40
4.0
 40
5.0
 40
5.0
 40
5.0
 40
6.0
 40
6.0
 40
6.0
 40
7.0
 40
7.0
 40
7.0
 40
7.0
 10
548.8525390625
 20
-482.7041015625
 10
548.03515625
 20
-489.23095703125
 10
544.69140625
 20
-494.2822265625
 10
538.92578125
 20
-497.72021484375
 10
534.9736328125
 20
-500.07275390625
 10
530.7451171875
 20
-501.2646484375
 10
526.3662109375
 20
-501.2646484375
 10
513.125
 20
-501.2646484375
 10
500.39599609375
 20
-490.26171875
 10
497.39306640625
 20
-476.21484375
 10
495.25244140625
 20
-466.21630859375
 10
497.14013671875
 20
-457.3935546875
 10
500.2197265625
 20
-450.30615234375
 10
514.9775390625
 20
-450.9248046875
 10
527.130859375
 20
-452.1376953125
 10
536.6982421875
 20
-453.93701171875
 10
537.3955078125
 20
-454.53857421875
 10
538.1083984375
 20
-455.125
 10
538.7529296875
 20
-455.77587890625
 10
545.9130859375
 20
-462.9658203125
 10
549.9697265625
 20
-473.787109375
 10
548.8525390625
 20
-482.7041015625
 97
        0
 92
        1
 93
        1
 72
     4
 94
        3
 73
     0
 74
     1
 95
       20
 96
       16
 40
0.0
 40
0.0
 40
0.0
 40
0.0
 40
1.0
 40
1.0
 40
1.0
 40
2.0
 40
2.0
 40
2.0
 40
3.0
 40
3.0
 40
3.0
 40
4.0
 40
4.0
 40
4.0
 40
5.0
 40
5.0
 40
5.0
 40
5.0
 10
560.4443359375
 20
-502.4921875
 10
561.80078125
 20
-500.5732421875
 10
562.978515625
 20
-498.5244140625
 10
563.9677734375
 20
-496.357421875
 10
568.3837890625
 20
-486.62353515625
 10
568.421875
 20
-476.1923828125
 10
565.587890625
 20
-466.5595703125
 10
571.427734375
 20
-471.5771484375
 10
576.3466796875
 20
-478.025390625
 10
580.275390625
 20
-485.986328125
 10
582.3974609375
 20
-490.2880859375
 10
584.2080078125
 20
-495.8193359375
 10
585.7265625
 20
-502.4921875
 10
585.7265625
 20
-502.4921875
 10
560.4443359375
 20
-502.4921875
 10
560.4443359375
 20
-502.4921875
 97
        0
 92
        1
 93
        1
 72
     4
 94
        3
 73
     0
 74
     1
 95
       23
 96
       19
 40
0.0
 40
0.0
 40
0.0
 40
0.0
 40
1.0
 40
1.0
 40
1.0
 40
2.0
 40
2.0
 40
2.0
 40
3.0
 40
3.0
 40
3.0
 40
4.0
 40
4.0
 40
4.0
 40
5.0
 40
5.0
 40
5.0
 40
6.0
 40
6.0
 40
6.0
 40
6.0
 10
716.7275390625
 20
-466.0400390625
 10
725.5751953125
 20
-474.01416015625
 10
730.861328125
 20
-483.09033203125
 10
733.6650390625
 20
-495.19921875
 10
729.234375
 20
-497.6806640625
 10
724.7734375
 20
-499.88330078125
 10
720.84375
 20
-501.767578125
 10
719.734375
 20
-502.0205078125
 10
718.6328125
 20
-502.259765625
 10
717.5224609375
 20
-502.4921875
 10
717.5224609375
 20
-502.4921875
 10
713.0390625
 20
-502.4921875
 10
713.0390625
 20
-502.4921875
 10
710.5498046875
 20
-485.0244140625
 10
704.46875
 20
-468.068359375
 10
695.2470703125
 20
-452.75390625
 10
703.63671875
 20
-456.2294921875
 10
710.72265625
 20
-460.619140625
 10
716.7275390625
 20
-466.0400390625
 97
        0
 92
        1
 93
        1
 72
     4
 94
        3
 73
     0
 74
     1
 95
       23
 96
       19
 40
0.0
 40
0.0
 40
0.0
 40
0.0
 40
1.0
 40
1.0
 40
1.0
 40
2.0
 40
2.0
 40
2.0
 40
3.0
 40
3.0
 40
3.0
 40
4.0
 40
4.0
 40
4.0
 40
5.0
 40
5.0
 40
5.0
 40
6.0
 40
6.0
 40
6.0
 40
6.0
 10
670.13671875
 20
-445.62548828125
 10
687.171875
 20
-465.21923828125
 10
696.4765625
 20
-485.66552734375
 10
696.1162109375
 20
-502.4921875
 10
696.1162109375
 20
-502.4921875
 10
619.091796875
 20
-502.4921875
 10
619.091796875
 20
-502.4921875
 10
619.091796875
 20
-502.4921875
 10
619.091796875
 20
-438.3974609375
 10
619.091796875
 20
-438.3974609375
 10
624.08203125
 20
-439.083984375
 10
629.056640625
 20
-439.7509765625
 10
633.9970703125
 20
-440.3994140625
 10
643.8720703125
 20
-441.69677734375
 10
654.091796875
 20
-443.0390625
 10
664.1982421875
 20
-444.61328125
 10
666.185546875
 20
-444.9248046875
 10
668.1650390625
 20
-445.25830078125
 10
670.13671875
 20
-445.62548828125
 97
        0
 92
        1
 93
        1
 72
     4
 94
        3
 73
     0
 74
     1
 95
       20
 96
       16
 40
0.0
 40
0.0
 40
0.0
 40
0.0
 40
1.0
 40
1.0
 40
1.0
 40
2.0
 40
2.0
 40
2.0
 40
3.0
 40
3.0
 40
3.0
 40
4.0
 40
4.0
 40
4.0
 40
5.0
 40
5.0
 40
5.0
 40
5.0
 10
653.619140625
 20
-429.1982421875
 10
650.9873046875
 20
-428.8701171875
 10
648.3701171875
 20
-428.55859375
 10
645.791015625
 20
-428.25146484375
 10
642.1103515625
 20
-427.814453125
 10
638.451171875
 20
-427.3798828125
 10
634.8369140625
 20
-426.9091796875
 10
629.4765625
 20
-426.2119140625
 10
624.25
 20
-425.3681640625
 10
619.091796875
 20
-424.4462890625
 10
619.091796875
 20
-424.4462890625
 10
619.091796875
 20
-408.142578125
 10
619.091796875
 20
-408.142578125
 10
629.55078125
 20
-411.56689453125
 10
641.8583984375
 20
-419.08544921875
 10
653.619140625
 20
-429.1982421875
 97
        0
 92
        1
 93
        1
 72
     4
 94
        3
 73
     0
 74
     1
 95
       14
 96
       10
 40
0.0
 40
0.0
 40
0.0
 40
0.0
 40
1.0
 40
1.0
 40
1.0
 40
2.0
 40
2.0
 40
2.0
 40
3.0
 40
3.0
 40
3.0
 40
3.0
 10
561.61328125
 20
-407.4375
 10
561.5009765625
 20
-407.5029296875
 10
561.388671875
 20
-407.56884765625
 10
561.2763671875
 20
-407.63427734375
 10
561.208984375
 20
-407.6064453125
 10
561.1337890625
 20
-407.580078125
 10
561.06640625
 20
-407.5498046875
 10
561.24609375
 20
-407.5068359375
 10
561.43359375
 20
-407.478515625
 10
561.61328125
 20
-407.4375
 97
        0
 92
        1
 93
        1
 72
     4
 94
        3
 73
     0
 74
     1
 95
       35
 96
       31
 40
0.0
 40
0.0
 40
0.0
 40
0.0
 40
1.0
 40
1.0
 40
1.0
 40
2.0
 40
2.0
 40
2.0
 40
3.0
 40
3.0
 40
3.0
 40
4.0
 40
4.0
 40
4.0
 40
5.0
 40
5.0
 40
5.0
 40
6.0
 40
6.0
 40
6.0
 40
7.0
 40
7.0
 40
7.0
 40
8.0
 40
8.0
 40
8.0
 40
9.0
 40
9.0
 40
9.0
 40
10.0
 40
10.0
 40
10.0
 40
10.0
 10
163.5390625
 20
-499.0830078125
 10
180.705078125
 20
-485.46875
 10
193.0693359375
 20
-467.2939453125
 10
205.0283203125
 20
-449.7177734375
 10
210.6591796875
 20
-441.44384765625
 10
216.48095703125
 20
-432.888671875
 10
222.7041015625
 20
-424.96728515625
 10
236.7998046875
 20
-407.0234375
 10
253.7373046875
 20
-394.880859375
 10
272.69384765625
 20
-389.02099609375
 10
272.69384765625
 20
-389.02099609375
 10
272.69384765625
 20
-398.42529296875
 10
272.69384765625
 20
-398.42529296875
 10
271.53515625
 20
-398.33154296875
 10
270.375
 20
-398.2470703125
 10
269.216796875
 20
-398.2470703125
 10
248.52294921875
 20
-398.2470703125
 10
227.9677734375
 20
-413.955078125
 10
220.3388671875
 20
-435.59716796875
 10
212.1171875
 20
-458.951171875
 10
218.68896484375
 20
-484.9365234375
 10
236.69140625
 20
-500.25830078125
 10
237.5986328125
 20
-501.0283203125
 10
238.5283203125
 20
-501.7724609375
 10
239.48046875
 20
-502.4921875
 10
239.48046875
 20
-502.4921875
 10
158.99169921875
 20
-502.4921875
 10
158.99169921875
 20
-502.4921875
 10
160.52880859375
 20
-501.3994140625
 10
162.046875
 20
-500.263671875
 10
163.5390625
 20
-499.0830078125
 97
        0
 75
     2
 76
     1
 98
        0
  0
ENDBLK
  5
3F
330
3C
100
AcDbEntity
  8
0
100
AcDbBlockEnd
  0
ENDSEC
  0
SECTION
  2
ENTITIES
  0
INSERT
  5
3D
330
1F
100
AcDbEntity
  8
Layer 1
100
AcDbBlockReference
  2
block 2
 10
0.0
 20
0.0
 30
0.0
  0
ENDSEC
  0
SECTION
  2
OBJECTS
  0
DICTIONARY
  5
C
330
0
100
AcDbDictionary
281
     1
  3
ACAD_GROUP
350
D
  3
ACAD_LAYOUT
350
1A
  3
ACAD_MLINESTYLE
350
17
  3
ACAD_PLOTSETTINGS
350
19
  3
ACAD_PLOTSTYLENAME
350
E
  3
ACAD_TABLESTYLE
350
6C
  3
ACAD_VISUALSTYLE
350
2A
  0
DICTIONARY
  5
D
102
{ACAD_REACTORS
330
C
102
}
330
C
100
AcDbDictionary
281
     1
  0
DICTIONARY
  5
1A
102
{ACAD_REACTORS
330
C
102
}
330
C
100
AcDbDictionary
281
     1
  3
Layout1
350
1E
  3
Layout2
350
26
  3
Model
350
22
  0
DICTIONARY
  5
17
102
{ACAD_REACTORS
330
C
102
}
330
C
100
AcDbDictionary
281
     1
  3
Standard
350
18
  0
DICTIONARY
  5
19
102
{ACAD_REACTORS
330
C
102
}
330
C
100
AcDbDictionary
281
     1
  0
ACDBDICTIONARYWDFLT
  5
E
102
{ACAD_REACTORS
330
C
102
}
330
C
100
AcDbDictionary
281
     1
  3
Normal
350
F
100
AcDbDictionaryWithDefault
340
F
  0
DICTIONARY
  5
6C
102
{ACAD_REACTORS
330
C
102
}
330
C
100
AcDbDictionary
281
     1
  0
DICTIONARY
  5
2A
102
{ACAD_REACTORS
330
C
102
}
330
C
100
AcDbDictionary
281
     1
  3
2dWireframe
350
2F
  3
3D Hidden
350
31
  3
3dWireframe
350
30
  3
Basic
350
32
  3
Brighten
350
36
  3
ColorChange
350
3A
  3
Conceptual
350
34
  3
Dim
350
35
  3
Facepattern
350
39
  3
Flat
350
2B
  3
FlatWithEdges
350
2C
  3
Gouraud
350
2D
  3
GouraudWithEdges
350
2E
  3
Linepattern
350
38
  3
Realistic
350
33
  3
Thicken
350
37
  0
LAYOUT
  5
1E
102
{ACAD_REACTORS
330
1A
102
}
330
1A
100
AcDbPlotSettings
  1

  2
none_device
  4

  6

 40
0.0
 41
0.0
 42
0.0
 43
0.0
 44
0.0
 45
0.0
 46
0.0
 47
0.0
 48
0.0
 49
0.0
140
0.0
141
0.0
142
1.0
143
1.0
 70
   688
 72
     0
 73
     0
 74
     5
  7

 75
    16
147
1.0
148
0.0
149
0.0
100
AcDbLayout
  1
Layout1
 70
     1
 71
     1
 10
0.0
 20
0.0
 11
12.0
 21
9.0
 12
0.0
 22
0.0
 32
0.0
 14
1.000000000000000E+20
 24
1.000000000000000E+20
 34
1.000000000000000E+20
 15
-1.000000000000000E+20
 25
-1.000000000000000E+20
 35
-1.000000000000000E+20
146
0.0
 13
0.0
 23
0.0
 33
0.0
 16
1.0
 26
0.0
 36
0.0
 17
0.0
 27
1.0
 37
0.0
 76
     0
330
1B
  0
LAYOUT
  5
26
102
{ACAD_REACTORS
330
1A
102
}
330
1A
100
AcDbPlotSettings
  1

  2
none_device
  4

  6

 40
0.0
 41
0.0
 42
0.0
 43
0.0
 44
0.0
 45
0.0
 46
0.0
 47
0.0
 48
0.0
 49
0.0
140
0.0
141
0.0
142
1.0
143
1.0
 70
   688
 72
     0
 73
     0
 74
     5
  7

 75
    16
147
1.0
148
0.0
149
0.0
100
AcDbLayout
  1
Layout2
 70
     1
 71
     2
 10
0.0
 20
0.0
 11
0.0
 21
0.0
 12
0.0
 22
0.0
 32
0.0
 14
0.0
 24
0.0
 34
0.0
 15
0.0
 25
0.0
 35
0.0
146
0.0
 13
0.0
 23
0.0
 33
0.0
 16
1.0
 26
0.0
 36
0.0
 17
0.0
 27
1.0
 37
0.0
 76
     0
330
23
  0
LAYOUT
  5
22
102
{ACAD_REACTORS
330
1A
102
}
330
1A
100
AcDbPlotSettings
  1

  2
none_device
  4

  6

 40
0.0
 41
0.0
 42
0.0
 43
0.0
 44
0.0
 45
0.0
 46
0.0
 47
0.0
 48
0.0
 49
0.0
140
0.0
141
0.0
142
1.0
143
1.0
 70
  1712
 72
     0
 73
     0
 74
     0
  7

 75
     0
147
1.0
148
0.0
149
0.0
100
AcDbLayout
  1
Model
 70
     1
 71
     0
 10
0.0
 20
0.0
 11
12.0
 21
9.0
 12
0.0
 22
0.0
 32
0.0
 14
1.000000000000000E+20
 24
1.000000000000000E+20
 34
1.000000000000000E+20
 15
-1.000000000000000E+20
 25
-1.000000000000000E+20
 35
-1.000000000000000E+20
146
0.0
 13
0.0
 23
0.0
 33
0.0
 16
1.0
 26
0.0
 36
0.0
 17
0.0
 27
1.0
 37
0.0
 76
     0
330
1F
331
29
  0
MLINESTYLE
  5
18
102
{ACAD_REACTORS
330
17
102
}
330
17
100
AcDbMlineStyle
  2
Standard
 70
     0
  3

 62
   256
 51
90.0
 52
90.0
 71
     2
 49
0.5
 62
   256
  6
BYLAYER
 49
-0.5
 62
   256
  6
BYLAYER
  0
ACDBPLACEHOLDER
  5
F
102
{ACAD_REACTORS
330
E
102
}
330
E
  0
VISUALSTYLE
  5
2F
102
{ACAD_REACTORS
330
2A
102
}
330
2A
100
AcDbVisualStyle
  2
2dWireframe
 70
     4
 71
     0
 72
     2
 73
     0
 90
        0
 40
-0.6
 41
-30.0
 62
     5
 63
     7
 74
     1
 91
        4
 64
     7
 65
   257
 75
     1
175
     1
 42
1.0
 92
        0
 66
   257
 43
1.0
 76
     1
 77
     6
 78
     2
 67
     7
 79
     5
170
     0
171
     0
290
     0
174
     0
 93
        1
 44
0.0
173
     0
291
     0
 45
0.0
1001
ACAD
1000
AcDbSavedByObjectVersion
1070
     0
  0
VISUALSTYLE
  5
31
102
{ACAD_REACTORS
330
2A
102
}
330
2A
100
AcDbVisualStyle
  2
3D Hidden
 70
     6
 71
     1
 72
     2
 73
     2
 90
        0
 40
-0.6
 41
-30.0
 62
     5
 63
     7
 74
     2
 91
        2
 64
     7
 65
   257
 75
     2
175
     1
 42
40.0
 92
        0
 66
   257
 43
1.0
 76
     1
 77
     6
 78
     2
 67
     7
 79
     3
170
     0
171
     0
290
     0
174
     0
 93
        1
 44
0.0
173
     0
291
     0
 45
0.0
1001
ACAD
1000
AcDbSavedByObjectVersion
1070
     0
  0
VISUALSTYLE
  5
30
102
{ACAD_REACTORS
330
2A
102
}
330
2A
100
AcDbVisualStyle
  2
3dWireframe
 70
     5
 71
     0
 72
     2
 73
     0
 90
        0
 40
-0.6
 41
-30.0
 62
     5
 63
     7
 74
     1
 91
        4
 64
     7
 65
   257
 75
     1
175
     1
 42
1.0
 92
        0
 66
   257
 43
1.0
 76
     1
 77
     6
 78
     2
 67
     7
 79
     5
170
     0
171
     0
290
     0
174
     0
 93
        1
 44
0.0
173
     0
291
     0
 45
0.0
1001
ACAD
1000
AcDbSavedByObjectVersion
1070
     0
  0
VISUALSTYLE
  5
32
102
{ACAD_REACTORS
330
2A
102
}
330
2A
100
AcDbVisualStyle
  2
Basic
 70
     7
 71
     1
 72
     0
 73
     1
 90
        0
 40
-0.6
 41
-30.0
 62
     5
 63
     7
 74
     0
 91
        4
 64
     7
 65
   257
 75
     1
175
     1
 42
1.0
 92
        8
 66
     7
 43
1.0
 76
     1
 77
     6
 78
     2
 67
     7
 79
     5
170
     0
171
     0
290
     0
174
     0
 93
        1
 44
0.0
173
     0
291
     1
 45
0.0
1001
ACAD
1000
AcDbSavedByObjectVersion
1070
     0
  0
VISUALSTYLE
  5
36
102
{ACAD_REACTORS
330
2A
102
}
330
2A
100
AcDbVisualStyle
  2
Brighten
 70
    12
 71
     2
 72
     2
 73
     0
 90
        0
 40
-0.6
 41
-30.0
 62
     5
 63
     7
 74
     1
 91
        4
 64
     7
 65
   257
 75
     1
175
     1
 42
1.0
 92
        8
 66
     7
 43
1.0
 76
     1
 77
     6
 78
     2
 67
     7
 79
     5
170
     0
171
     0
290
     0
174
     0
 93
        1
 44
50.0
173
     0
291
     1
 45
0.0
1001
ACAD
1000
AcDbSavedByObjectVersion
1070
     0
  0
VISUALSTYLE
  5
3A
102
{ACAD_REACTORS
330
2A
102
}
330
2A
100
AcDbVisualStyle
  2
ColorChange
 70
    16
 71
     2
 72
     2
 73
     3
 90
        0
 40
-0.6
 41
-30.0
 62
     5
 63
     8
 74
     1
 91
        4
 64
     7
 65
   257
 75
     1
175
     1
 42
1.0
 92
        8
 66
     8
 43
1.0
 76
     1
 77
     6
 78
     2
 67
     7
 79
     5
170
     0
171
     0
290
     0
174
     0
 93
        1
 44
0.0
173
     0
291
     1
 45
0.0
1001
ACAD
1000
AcDbSavedByObjectVersion
1070
     0
  0
VISUALSTYLE
  5
34
102
{ACAD_REACTORS
330
2A
102
}
330
2A
100
AcDbVisualStyle
  2
Conceptual
 70
     9
 71
     3
 72
     2
 73
     0
 90
        0
 40
-0.6
 41
-30.0
 62
     5
 63
     7
 74
     2
 91
        2
 64
     7
 65
   257
 75
     1
175
     1
 42
40.0
 92
        8
 66
     7
 43
1.0
 76
     1
 77
     6
 78
     2
 67
     7
 79
     3
170
     0
171
     0
290
     0
174
     0
 93
        1
 44
0.0
173
     0
291
     0
 45
0.0
1001
ACAD
1000
AcDbSavedByObjectVersion
1070
     0
  0
VISUALSTYLE
  5
35
102
{ACAD_REACTORS
330
2A
102
}
330
2A
100
AcDbVisualStyle
  2
Dim
 70
    11
 71
     2
 72
     2
 73
     0
 90
        0
 40
-0.6
 41
-30.0
 62
     5
 63
     7
 74
     1
 91
        4
 64
     7
 65
   257
 75
     1
175
     1
 42
1.0
 92
        8
 66
     7
 43
1.0
 76
     1
 77
     6
 78
     2
 67
     7
 79
     5
170
     0
171
     0
290
     0
174
     0
 93
        1
 44
-50.0
173
     0
291
     1
 45
0.0
1001
ACAD
1000
AcDbSavedByObjectVersion
1070
     0
  0
VISUALSTYLE
  5
39
102
{ACAD_REACTORS
330
2A
102
}
330
2A
100
AcDbVisualStyle
  2
Facepattern
 70
    15
 71
     2
 72
     2
 73
     0
 90
        0
 40
-0.6
 41
-30.0
 62
     5
 63
     7
 74
     1
 91
        4
 64
     7
 65
   257
 75
     1
175
     1
 42
1.0
 92
        8
 66
     7
 43
1.0
 76
     1
 77
     6
 78
     2
 67
     7
 79
     5
170
     0
171
     0
290
     0
174
     0
 93
        1
 44
0.0
173
     0
291
     1
 45
0.0
1001
ACAD
1000
AcDbSavedByObjectVersion
1070
     0
  0
VISUALSTYLE
  5
2B
102
{ACAD_REACTORS
330
2A
102
}
330
2A
100
AcDbVisualStyle
  2
Flat
 70
     0
 71
     2
 72
     1
 73
     1
 90
        2
 40
-0.6
 41
30.0
 62
     5
 63
     7
 74
     0
 91
        4
 64
     7
 65
   257
 75
     1
175
     1
 42
1.0
 92
        8
 66
     7
 43
1.0
 76
     1
 77
     6
 78
     2
 67
     7
 79
     5
170
     0
171
     0
290
     0
174
     0
 93
       13
 44
0.0
173
     0
291
     1
 45
0.0
1001
ACAD
1000
AcDbSavedByObjectVersion
1070
     0
  0
VISUALSTYLE
  5
2C
102
{ACAD_REACTORS
330
2A
102
}
330
2A
100
AcDbVisualStyle
  2
FlatWithEdges
 70
     1
 71
     2
 72
     1
 73
     1
 90
        2
 40
-0.6
 41
30.0
 62
     5
 63
     7
 74
     1
 91
        4
 64
     7
 65
   257
 75
     1
175
     1
 42
1.0
 92
        0
 66
   257
 43
1.0
 76
     1
 77
     6
 78
     2
 67
     7
 79
     5
170
     0
171
     0
290
     0
174
     0
 93
       13
 44
0.0
173
     0
291
     1
 45
0.0
1001
ACAD
1000
AcDbSavedByObjectVersion
1070
     0
  0
VISUALSTYLE
  5
2D
102
{ACAD_REACTORS
330
2A
102
}
330
2A
100
AcDbVisualStyle
  2
Gouraud
 70
     2
 71
     2
 72
     2
 73
     1
 90
        2
 40
-0.6
 41
30.0
 62
     5
 63
     7
 74
     0
 91
        4
 64
     7
 65
   257
 75
     1
175
     1
 42
1.0
 92
        0
 66
     7
 43
1.0
 76
     1
 77
     6
 78
     2
 67
     7
 79
     5
170
     0
171
     0
290
     0
174
     0
 93
       13
 44
0.0
173
     0
291
     1
 45
0.0
1001
ACAD
1000
AcDbSavedByObjectVersion
1070
     0
  0
VISUALSTYLE
  5
2E
102
{ACAD_REACTORS
330
2A
102
}
330
2A
100
AcDbVisualStyle
  2
GouraudWithEdges
 70
     3
 71
     2
 72
     2
 73
     1
 90
        2
 40
-0.6
 41
30.0
 62
     5
 63
     7
 74
     1
 91
        4
 64
     7
 65
   257
 75
     1
175
     1
 42
1.0
 92
        0
 66
   257
 43
1.0
 76
     1
 77
     6
 78
     2
 67
     7
 79
     5
170
     0
171
     0
290
     0
174
     0
 93
       13
 44
0.0
173
     0
291
     1
 45
0.0
1001
ACAD
1000
AcDbSavedByObjectVersion
1070
     0
  0
VISUALSTYLE
  5
38
102
{ACAD_REACTORS
330
2A
102
}
330
2A
100
AcDbVisualStyle
  2
Linepattern
 70
    14
 71
     2
 72
     2
 73
     0
 90
        0
 40
-0.6
 41
-30.0
 62
     5
 63
     7
 74
     1
 91
        4
 64
     7
 65
   257
 75
     7
175
     7
 42
1.0
 92
        8
 66
     7
 43
1.0
 76
     1
 77
     6
 78
     2
 67
     7
 79
     5
170
     0
171
     0
290
     0
174
     0
 93
        1
 44
0.0
173
     0
291
     1
 45
0.0
1001
ACAD
1000
AcDbSavedByObjectVersion
1070
     0
  0
VISUALSTYLE
  5
33
102
{ACAD_REACTORS
330
2A
102
}
330
2A
100
AcDbVisualStyle
  2
Realistic
 70
     8
 71
     2
 72
     2
 73
     0
 90
        0
 40
-0.6
 41
-30.0
 62
     5
 63
     7
 74
     1
 91
        0
 64
     7
 65
   257
 75
     1
175
     1
 42
1.0
 92
        8
 66
     8
 43
1.0
 76
     1
 77
     6
 78
     2
 67
     7
 79
     5
170
     0
171
     0
290
     0
174
     0
 93
       13
 44
0.0
173
     0
291
     0
 45
0.0
1001
ACAD
1000
AcDbSavedByObjectVersion
1070
     0
  0
VISUALSTYLE
  5
37
102
{ACAD_REACTORS
330
2A
102
}
330
2A
100
AcDbVisualStyle
  2
Thicken
 70
    13
 71
     2
 72
     2
 73
     0
 90
        0
 40
-0.6
 41
-30.0
 62
     5
 63
     7
 74
     1
 91
        4
 64
     7
 65
   257
 75
     1
175
     1
 42
1.0
 92
       12
 66
     7
 43
1.0
 76
     1
 77
     6
 78
     2
 67
     7
 79
     5
170
     0
171
     0
290
     0
174
     0
 93
        1
 44
0.0
173
     0
291
     1
 45
0.0
1001
ACAD
1000
AcDbSavedByObjectVersion
1070
     0
  0
ENDSEC
  0
EOF
