  0
SECTION
  2
HEADER
  9
$ACADVER
  1
AC1009
  9
$EXTMIN
 10
0.00095137
 20
-0.00000000
 30
0.0
  9
$EXTMAX
 10
1063.41866614
 20
607.53908008
 30
0.0
  0
ENDSEC
  0
SECTION
  2
TABLES
  0
TABLE
  2
LAYER
 70
2
 0
LAYER
 2
0
 70
0
 62
1
 6
CONTINUOUS
 0
LAYER
 2
CYAN
 70
0
 62
1
 6
CONTINUOUS
 0
ENDTAB
 0
ENDSEC
  0
SECTION
  2
ENTITIES
  0
POLYLINE
  8
0
 66
   1
 39
0.000000
 70
    1
  0
VERTEX
  8
0
 10
567.62702400
 20
591.26278902
 42
-0.41421356
  0
VERTEX
  8
0
 10
571.66702400
 20
587.22278902
 42
-0.41421356
  0
VERTEX
  8
0
 10
567.62702400
 20
583.18278902
 42
-0.41421356
  0
VERTEX
  8
0
 10
563.58702400
 20
587.22278902
 42
-0.41421356
  0
VERTEX
  8
0
 10
567.62702400
 20
591.26278902
  0
SEQEND
  0
POLYLINE
  8
0
 66
   1
 39
0.000000
 70
    1
  0
VERTEX
  8
0
 10
974.88585364
 20
31.57681170
 42
-0.41421356
  0
VERTEX
  8
0
 10
978.92585364
 20
27.53681170
 42
-0.41421356
  0
VERTEX
  8
0
 10
974.88585364
 20
23.49681170
 42
-0.41421356
  0
VERTEX
  8
0
 10
970.84585364
 20
27.53681170
 42
-0.41421356
  0
VERTEX
  8
0
 10
974.88585364
 20
31.57681170
  0
SEQEND
  0
POLYLINE
  8
CYAN
 66
   1
 39
0.000000
 70
    1
  0
VERTEX
  8
0
 10
635.50662728
 20
70.91065368
 42
-0.29909755
  0
VERTEX
  8
0
 10
628.05948305
 20
75.28949263
 42
-0.29909755
  0
VERTEX
  8
0
 10
629.12163958
 20
83.86305730
  0
VERTEX
  8
0
 10
661.94366614
 20
83.87339768
  0
VERTEX
  8
0
 10
661.94366614
 20
89.92945262
  0
VERTEX
  8
0
 10
629.11866614
 20
89.92156250
 42
-0.26921430
  0
VERTEX
  8
0
 10
627.46719106
 20
99.12294652
 42
-0.26921430
  0
VERTEX
  8
0
 10
634.63847168
 20
105.12007684
 42
0.23698397
  0
VERTEX
  8
0
 10
641.06920569
 20
109.87548576
 42
0.23698397
  0
VERTEX
  8
0
 10
641.09556732
 20
117.87345794
 42
-0.27014451
  0
VERTEX
  8
0
 10
641.83481436
 20
129.07984665
 42
-0.27014451
  0
VERTEX
  8
0
 10
651.94975654
 20
133.96017234
 42
-0.25687314
  0
VERTEX
  8
0
 10
714.66695692
 20
92.79076444
 42
-0.30407376
  0
VERTEX
  8
0
 10
712.33540934
 20
70.27465178
 42
-0.30407376
  0
VERTEX
  8
0
 10
690.62385844
 20
63.86996590
 42
0.08841985
  0
VERTEX
  8
0
 10
635.50662728
 20
70.91065368
  0
SEQEND
  0
POLYLINE
  8
CYAN
 66
   1
 39
0.000000
 70
    1
  0
VERTEX
  8
0
 10
3.92866614
 20
288.61933518
 42
-0.20657308
  0
VERTEX
  8
0
 10
1.12730051
 20
289.71245324
 42
-0.20657308
  0
VERTEX
  8
0
 10
0.00095137
 20
292.50062363
 42
-0.20657308
  0
VERTEX
  8
0
 10
1.25698556
 20
295.23282688
 42
-0.20657308
  0
VERTEX
  8
0
 10
4.10659178
 20
296.19319186
  0
VERTEX
  8
0
 10
22.62944638
 20
297.90265524
 42
0.20331418
  0
VERTEX
  8
0
 10
35.85828296
 20
309.67233068
 42
0.01943269
  0
VERTEX
  8
0
 10
46.29270608
 20
587.35961170
 42
-0.34217724
  0
VERTEX
  8
0
 10
53.15766396
 20
598.01147498
 42
-0.34217724
  0
VERTEX
  8
0
 10
65.18497626
 20
594.01978400
 42
0.01872872
  0
VERTEX
  8
0
 10
207.86876504
 20
397.76910396
 42
0.28144130
  0
VERTEX
  8
0
 10
227.13229910
 20
385.43062278
  0
VERTEX
  8
0
 10
245.91835364
 20
385.54777268
 42
-0.41427701
  0
VERTEX
  8
0
 10
252.01768708
 20
379.51797572
  0
VERTEX
  8
0
 10
252.04147864
 20
375.10847530
  0
VERTEX
  8
0
 10
231.02085364
 20
375.10847530
  0
VERTEX
  8
0
 10
231.06819638
 20
369.04847530
  0
VERTEX
  8
0
 10
252.08093126
 20
369.05242238
  0
VERTEX
  8
0
 10
252.12827602
 20
361.78910030
 42
-0.41417905
  0
VERTEX
  8
0
 10
246.11638838
 20
355.68978100
  0
VERTEX
  8
0
 10
220.73147864
 20
357.74515524
 42
0.37593968
  0
VERTEX
  8
0
 10
211.99011246
 20
350.13217722
 42
-0.36172621
  0
VERTEX
  8
0
 10
196.12199911
 20
340.32144873
 42
-0.36172621
  0
VERTEX
  8
0
 10
183.59480278
 20
354.14594752
 42
0.12232122
  0
VERTEX
  8
0
 10
167.50730462
 20
408.95841724
 42
0.02028634
  0
VERTEX
  8
0
 10
66.99752225
 20
565.97975193
 42
0.31971173
  0
VERTEX
  8
0
 10
61.61216446
 20
569.26295277
 42
0.31971173
  0
VERTEX
  8
0
 10
56.74883612
 20
565.24679492
 42
-0.04750893
  0
VERTEX
  8
0
 10
43.81285510
 20
304.20030218
 42
-0.25428573
  0
VERTEX
  8
0
 10
22.94507138
 20
289.27820262
  0
VERTEX
  8
0
 10
3.92866614
 20
288.61933518
  0
SEQEND
  0
POLYLINE
  8
CYAN
 66
   1
 39
0.000000
 70
    1
  0
VERTEX
  8
0
 10
151.68953302
 20
524.77825430
 42
0.30791890
  0
VERTEX
  8
0
 10
142.80215922
 20
553.12438102
 42
-0.31701403
  0
VERTEX
  8
0
 10
139.63902075
 20
563.84354917
 42
-0.31701403
  0
VERTEX
  8
0
 10
148.67111974
 20
570.42588908
  0
VERTEX
  8
0
 10
159.08202602
 20
560.48292994
  0
VERTEX
  8
0
 10
163.26405626
 20
564.87011744
  0
VERTEX
  8
0
 10
150.92311876
 20
576.65082006
 42
-0.34971787
  0
VERTEX
  8
0
 10
148.35771325
 20
595.44655108
 42
-0.34971787
  0
VERTEX
  8
0
 10
166.10663662
 20
602.14255952
  0
VERTEX
  8
0
 10
170.29460364
 20
581.31812500
  0
VERTEX
  8
0
 10
176.24413388
 20
582.51355494
  0
VERTEX
  8
0
 10
172.05421352
 20
603.34085988
 42
-0.27258739
  0
VERTEX
  8
0
 10
181.87990829
 20
606.10536414
 42
-0.27258739
  0
VERTEX
  8
0
 10
189.06257514
 20
598.85305012
  0
VERTEX
  8
0
 10
195.13429114
 20
571.02085988
 42
0.38938998
  0
VERTEX
  8
0
 10
217.04813590
 20
555.59387142
 42
0.38946808
  0
VERTEX
  8
0
 10
238.97396734
 20
571.01997916
  0
VERTEX
  8
0
 10
245.05038388
 20
598.85109274
 42
-0.27258527
  0
VERTEX
  8
0
 10
252.23660440
 20
606.09867584
 42
-0.27258527
  0
VERTEX
  8
0
 10
262.05990700
 20
603.32884694
  0
VERTEX
  8
0
 10
257.86475888
 20
582.51355494
  0
VERTEX
  8
0
 10
263.80640102
 20
581.31417994
  0
VERTEX
  8
0
 10
267.99632138
 20
602.14148488
 42
-0.34967111
  0
VERTEX
  8
0
 10
285.74543207
 20
595.44095207
 42
-0.34967111
  0
VERTEX
  8
0
 10
283.17879086
 20
576.64360058
  0
VERTEX
  8
0
 10
270.83694638
 20
564.86222530
  0
VERTEX
  8
0
 10
275.02686876
 20
560.47898488
  0
VERTEX
  8
0
 10
285.44249376
 20
570.41722530
 42
-0.31695137
  0
VERTEX
  8
0
 10
294.46928274
 20
563.83478713
 42
-0.31695137
  0
VERTEX
  8
0
 10
291.30670728
 20
553.11986632
 42
0.30797680
  0
VERTEX
  8
0
 10
282.40568838
 20
524.77002078
 42
-0.21506633
  0
VERTEX
  8
0
 10
281.10903096
 20
514.81179145
 42
-0.21506633
  0
VERTEX
  8
0
 10
272.78665442
 20
509.19167574
  0
VERTEX
  8
0
 10
265.34507138
 20
524.31625000
  0
VERTEX
  8
0
 10
259.90843126
 20
521.64132762
  0
VERTEX
  8
0
 10
267.01788388
 20
507.16992238
 42
-0.21392435
  0
VERTEX
  8
0
 10
256.56491221
 20
505.29609499
 42
-0.21392435
  0
VERTEX
  8
0
 10
248.21218888
 20
511.85413270
 42
0.33711001
  0
VERTEX
  8
0
 10
241.35295045
 20
515.06140649
 42
0.33711001
  0
VERTEX
  8
0
 10
236.43107014
 20
509.30720358
  0
VERTEX
  8
0
 10
236.41804114
 20
477.17765524
 42
-0.41419372
  0
VERTEX
  8
0
 10
228.33858856
 20
469.09765524
  0
VERTEX
  8
0
 10
220.07655626
 20
469.10949244
  0
VERTEX
  8
0
 10
220.07655626
 20
500.94816280
  0
VERTEX
  8
0
 10
214.02444638
 20
500.94816280
  0
VERTEX
  8
0
 10
214.02444638
 20
469.10554738
  0
VERTEX
  8
0
 10
205.75507138
 20
469.10160030
 42
-0.41419375
  0
VERTEX
  8
0
 10
197.67507138
 20
477.18499996
  0
VERTEX
  8
0
 10
197.67507138
 20
509.30828024
 42
0.33706098
  0
VERTEX
  8
0
 10
192.75403855
 20
515.06139528
 42
0.33706098
  0
VERTEX
  8
0
 10
185.89551006
 20
511.85585576
 42
-0.21402272
  0
VERTEX
  8
0
 10
177.53459972
 20
505.29490157
 42
-0.21402272
  0
VERTEX
  8
0
 10
167.07471152
 20
507.17683684
  0
VERTEX
  8
0
 10
174.19257138
 20
521.64921774
  0
VERTEX
  8
0
 10
168.74804114
 20
524.32414012
  0
VERTEX
  8
0
 10
161.31507138
 20
509.20175756
 42
-0.21502226
  0
VERTEX
  8
0
 10
152.99064895
 20
514.81997029
 42
-0.21502226
  0
VERTEX
  8
0
 10
151.68953302
 20
524.77825430
  0
SEQEND
  0
POLYLINE
  8
CYAN
 66
   1
 39
0.000000
 70
    1
  0
VERTEX
  8
0
 10
14.85436336
 20
26.10061190
 42
0.29019024
  0
VERTEX
  8
0
 10
16.57569685
 20
7.23496708
 42
0.29019024
  0
VERTEX
  8
0
 10
34.37069638
 20
0.73777268
  0
VERTEX
  8
0
 10
36.95882138
 20
22.07796774
  0
VERTEX
  8
0
 10
42.97936876
 20
21.35203024
  0
VERTEX
  8
0
 10
40.39124376
 20
0.00789012
  0
VERTEX
  8
0
 10
56.64593126
 20
0.00394506
  0
VERTEX
  8
0
 10
58.87897864
 20
20.79968750
  0
VERTEX
  8
0
 10
64.91530626
 20
20.14476512
  0
VERTEX
  8
0
 10
62.73749376
 20
0.01183518
  0
VERTEX
  8
0
 10
92.84811876
 20
-0.00000000
  0
VERTEX
  8
0
 10
90.67819638
 20
20.14476512
  0
VERTEX
  8
0
 10
96.69874376
 20
20.79574244
  0
VERTEX
  8
0
 10
98.93968126
 20
0.00394506
  0
VERTEX
  8
0
 10
115.18647864
 20
-0.00000000
  0
VERTEX
  8
0
 10
112.60624376
 20
21.34414012
  0
VERTEX
  8
0
 10
118.62679114
 20
22.07402268
  0
VERTEX
  8
0
 10
121.20606450
 20
0.72459420
 42
0.29022636
  0
VERTEX
  8
0
 10
139.00911271
 20
7.21380379
 42
0.29022636
  0
VERTEX
  8
0
 10
140.73858782
 20
26.08354896
 42
-0.20884013
  0
VERTEX
  8
0
 10
119.81123026
 20
75.11054274
 42
0.23778537
  0
VERTEX
  8
0
 10
114.81613056
 20
85.22593247
 42
0.23778537
  0
VERTEX
  8
0
 10
103.71350888
 20
87.22691280
  0
VERTEX
  8
0
 10
107.28796352
 20
62.18207006
  0
VERTEX
  8
0
 10
101.28319638
 20
61.32593750
  0
VERTEX
  8
0
 10
94.92756332
 20
105.95558116
 42
0.38894185
  0
VERTEX
  8
0
 10
80.83858852
 20
117.52691280
  0
VERTEX
  8
0
 10
80.83858852
 20
80.59089768
  0
VERTEX
  8
0
 10
74.77069638
 20
80.59089768
  0
VERTEX
  8
0
 10
74.77880062
 20
117.51920044
 42
0.38899289
  0
VERTEX
  8
0
 10
60.67015102
 20
105.95925756
  0
VERTEX
  8
0
 10
54.30241614
 20
61.33777268
  0
VERTEX
  8
0
 10
48.31343126
 20
62.18996018
  0
VERTEX
  8
0
 10
51.88922920
 20
87.23191432
 42
0.23785940
  0
VERTEX
  8
0
 10
40.78385232
 20
85.23669100
 42
0.23785940
  0
VERTEX
  8
0
 10
35.78532056
 20
75.12110936
 42
-0.20883078
  0
VERTEX
  8
0
 10
14.85436336
 20
26.10061190
  0
SEQEND
  0
POLYLINE
  8
CYAN
 66
   1
 39
0.000000
 70
    1
  0
VERTEX
  8
0
 10
742.74115124
 20
231.14494582
 42
0.25349903
  0
VERTEX
  8
0
 10
748.09635931
 20
221.26811284
 42
0.25349903
  0
VERTEX
  8
0
 10
759.29484250
 20
220.36033664
 42
0.25349903
  0
VERTEX
  8
0
 10
766.17095718
 20
229.24566895
 42
0.25349903
  0
VERTEX
  8
0
 10
762.48277486
 20
239.85827440
 42
-0.33163565
  0
VERTEX
  8
0
 10
760.43072260
 20
250.47068437
 42
-0.33163565
  0
VERTEX
  8
0
 10
770.01366614
 20
255.47082006
  0
VERTEX
  8
0
 10
770.01366614
 20
292.34371018
  0
VERTEX
  8
0
 10
776.06577602
 20
292.33976512
  0
VERTEX
  8
0
 10
776.07366614
 20
255.46687500
 42
-0.33170033
  0
VERTEX
  8
0
 10
785.66229061
 20
250.47466012
 42
-0.33170033
  0
VERTEX
  8
0
 10
783.61697840
 20
239.85954700
 42
0.25356206
  0
VERTEX
  8
0
 10
779.92610645
 20
229.24761147
 42
0.25356206
  0
VERTEX
  8
0
 10
786.80229606
 20
220.36202045
 42
0.25356206
  0
VERTEX
  8
0
 10
798.00082157
 20
221.27237083
 42
0.25356206
  0
VERTEX
  8
0
 10
803.35155626
 20
231.15191280
  0
VERTEX
  8
0
 10
803.33699408
 20
331.49764288
 42
0.20957463
  0
VERTEX
  8
0
 10
801.18911089
 20
336.39696810
 42
0.20957463
  0
VERTEX
  8
0
 10
796.13052692
 20
338.13694454
 42
-0.21770925
  0
VERTEX
  8
0
 10
789.24306846
 20
340.64315344
 42
-0.21770925
  0
VERTEX
  8
0
 10
786.63132138
 20
347.49128780
  0
VERTEX
  8
0
 10
786.62538258
 20
393.26866718
 42
0.41421453
  0
VERTEX
  8
0
 10
773.02101083
 20
406.87316673
 42
0.41421453
  0
VERTEX
  8
0
 10
759.41655626
 20
393.26875000
  0
VERTEX
  8
0
 10
759.42964586
 20
347.49058484
 42
-0.21787927
  0
VERTEX
  8
0
 10
756.82075253
 20
340.63643624
 42
-0.21787927
  0
VERTEX
  8
0
 10
749.92898390
 20
338.12860800
 42
0.20935299
  0
VERTEX
  8
0
 10
744.87866474
 20
336.38380160
 42
0.20935299
  0
VERTEX
  8
0
 10
742.73577602
 20
331.48910030
  0
VERTEX
  8
0
 10
742.74115124
 20
231.14494582
  0
SEQEND
  0
POLYLINE
  8
CYAN
 66
   1
 39
0.000000
 70
    1
  0
VERTEX
  8
0
 10
363.41662284
 20
20.06316722
 42
-0.39014270
  0
VERTEX
  8
0
 10
361.95949457
 20
15.49515039
 42
-0.39014270
  0
VERTEX
  8
0
 10
357.28653288
 20
16.56912878
 42
-0.27693675
  0
VERTEX
  8
0
 10
352.71024914
 20
91.56560818
 42
-0.27978399
  0
VERTEX
  8
0
 10
374.25653505
 20
104.64959475
 42
-0.27978399
  0
VERTEX
  8
0
 10
395.80587450
 20
91.57063798
 42
-0.27689872
  0
VERTEX
  8
0
 10
391.23904436
 20
16.57429998
 42
-0.38980408
  0
VERTEX
  8
0
 10
386.56550465
 20
15.50101765
 42
-0.38980408
  0
VERTEX
  8
0
 10
385.10365190
 20
20.06795260
 42
0.16010494
  0
VERTEX
  8
0
 10
388.36500654
 20
47.56597424
 42
0.32250196
  0
VERTEX
  8
0
 10
377.28147864
 20
57.84222530
  0
VERTEX
  8
0
 10
377.28147864
 20
69.73734274
  0
VERTEX
  8
0
 10
371.22147864
 20
69.73734274
  0
VERTEX
  8
0
 10
371.21981820
 20
57.84202734
 42
0.32240061
  0
VERTEX
  8
0
 10
360.14857998
 20
47.56402292
 42
0.16011681
  0
VERTEX
  8
0
 10
363.41662284
 20
20.06316722
  0
SEQEND
  0
POLYLINE
  8
CYAN
 66
   1
 39
0.000000
 70
    1
  0
VERTEX
  8
0
 10
535.40420418
 20
131.99623340
 42
-0.33322060
  0
VERTEX
  8
0
 10
546.17137786
 20
154.16140656
 42
0.20671308
  0
VERTEX
  8
0
 10
629.00081192
 20
218.29837467
 42
0.20671308
  0
VERTEX
  8
0
 10
639.09840544
 20
322.56871768
 42
0.31529522
  0
VERTEX
  8
0
 10
609.64545211
 20
344.90599926
 42
0.31529522
  0
VERTEX
  8
0
 10
578.58151026
 20
324.86947950
 42
-0.32553655
  0
VERTEX
  8
0
 10
559.49195476
 20
313.04957676
  0
VERTEX
  8
0
 10
559.49179114
 20
344.62304738
  0
VERTEX
  8
0
 10
553.43968126
 20
344.62304738
  0
VERTEX
  8
0
 10
553.43968126
 20
311.65207006
 42
-0.23001061
  0
VERTEX
  8
0
 10
544.33772110
 20
313.66881323
 42
-0.23001061
  0
VERTEX
  8
0
 10
540.29582406
 20
322.06976556
  0
VERTEX
  8
0
 10
540.47538388
 20
375.19527268
 42
-0.26942457
  0
VERTEX
  8
0
 10
544.36622708
 20
381.98969216
 42
0.23500625
  0
VERTEX
  8
0
 10
548.98086170
 20
388.97890752
 42
0.23500625
  0
VERTEX
  8
0
 10
546.19002081
 20
396.87543784
 42
0.23500625
  0
VERTEX
  8
0
 10
538.20843705
 20
399.41281930
 42
0.23500625
  0
VERTEX
  8
0
 10
531.37007026
 20
394.57745750
 42
-0.22916659
  0
VERTEX
  8
0
 10
521.00583562
 20
387.08443422
 42
-0.22916659
  0
VERTEX
  8
0
 10
508.69767540
 20
390.55890533
 42
-0.22916659
  0
VERTEX
  8
0
 10
503.78151186
 20
402.36543291
 42
-0.22916659
  0
VERTEX
  8
0
 10
509.98632804
 20
413.54859050
  0
VERTEX
  8
0
 10
545.36757138
 20
438.39128780
 42
-0.22915260
  0
VERTEX
  8
0
 10
553.97262428
 20
439.79288927
 42
-0.22915260
  0
VERTEX
  8
0
 10
560.41333534
 20
433.91677974
  0
VERTEX
  8
0
 10
543.16608852
 20
420.96484274
  0
VERTEX
  8
0
 10
546.80366614
 20
416.11605494
  0
VERTEX
  8
0
 10
564.05257138
 20
429.06851512
 42
0.22889575
  0
VERTEX
  8
0
 10
578.29719315
 20
415.20836199
 42
0.22889575
  0
VERTEX
  8
0
 10
598.00862594
 20
417.75247512
  0
VERTEX
  8
0
 10
626.94085364
 20
436.64351512
  0
VERTEX
  8
0
 10
645.34179114
 20
404.83246018
  0
VERTEX
  8
0
 10
650.58116614
 20
407.86246018
  0
VERTEX
  8
0
 10
632.18811876
 20
439.67351512
 42
-0.22302807
  0
VERTEX
  8
0
 10
637.21615303
 20
442.54143299
 42
-0.22302807
  0
VERTEX
  8
0
 10
642.63478712
 20
440.50563190
 42
-0.10449776
  0
VERTEX
  8
0
 10
686.09735154
 20
371.87498252
 42
-0.28468385
  0
VERTEX
  8
0
 10
680.57849136
 20
344.41587214
 42
0.25667000
  0
VERTEX
  8
0
 10
675.52086586
 20
324.64457674
 42
-0.03251027
  0
VERTEX
  8
0
 10
679.65862982
 20
302.81135018
  0
VERTEX
  8
0
 10
665.31296352
 20
306.42453024
  0
VERTEX
  8
0
 10
663.83741614
 20
300.54996018
  0
VERTEX
  8
0
 10
680.32882138
 20
296.39554738
 42
-0.02473056
  0
VERTEX
  8
0
 10
680.91536676
 20
279.49362360
  0
VERTEX
  8
0
 10
668.38241614
 20
282.92625000
  0
VERTEX
  8
0
 10
666.78061876
 20
277.07929738
  0
VERTEX
  8
0
 10
680.71546352
 20
273.26812500
 42
-0.02807231
  0
VERTEX
  8
0
 10
678.66201636
 20
254.18438710
  0
VERTEX
  8
0
 10
666.25194638
 20
258.72964768
  0
VERTEX
  8
0
 10
664.16882138
 20
253.03656250
  0
VERTEX
  8
0
 10
677.55921352
 20
248.13253780
 42
-0.02648409
  0
VERTEX
  8
0
 10
673.03765764
 20
230.59643906
  0
VERTEX
  8
0
 10
660.05780626
 20
235.44835988
  0
VERTEX
  8
0
 10
657.92733852
 20
229.77500000
  0
VERTEX
  8
0
 10
671.11257138
 20
224.83941280
 42
-0.02826579
  0
VERTEX
  8
0
 10
663.63969450
 20
207.01688816
  0
VERTEX
  8
0
 10
651.64640102
 20
213.84777268
  0
VERTEX
  8
0
 10
648.64796352
 20
208.58078024
  0
VERTEX
  8
0
 10
660.88632138
 20
201.61730494
 42
-0.02737932
  0
VERTEX
  8
0
 10
651.20359480
 20
185.59538406
  0
VERTEX
  8
0
 10
639.93671352
 20
193.88054738
  0
VERTEX
  8
0
 10
636.33858852
 20
189.00019506
  0
VERTEX
  8
0
 10
647.70108852
 20
180.64007762
 42
-0.02603185
  0
VERTEX
  8
0
 10
636.42129136
 20
166.86924272
  0
VERTEX
  8
0
 10
624.70780626
 20
175.88597530
  0
VERTEX
  8
0
 10
621.00710364
 20
171.08847530
  0
VERTEX
  8
0
 10
632.24335364
 20
162.43246018
 42
-0.02803605
  0
VERTEX
  8
0
 10
618.09958432
 20
149.49380468
  0
VERTEX
  8
0
 10
608.16116614
 20
160.23097530
  0
VERTEX
  8
0
 10
603.71874376
 20
156.11601512
  0
VERTEX
  8
0
 10
613.32952602
 20
145.73589768
 42
-0.02760362
  0
VERTEX
  8
0
 10
597.69224344
 20
135.16739504
  0
VERTEX
  8
0
 10
588.96327602
 20
147.17593750
  0
VERTEX
  8
0
 10
584.06319638
 20
143.61332006
  0
VERTEX
  8
0
 10
592.40358852
 20
132.13246018
 42
-0.02402184
  0
VERTEX
  8
0
 10
577.65147600
 20
124.90451032
  0
VERTEX
  8
0
 10
567.68225888
 20
137.66773488
  0
VERTEX
  8
0
 10
562.90843126
 20
133.93546774
  0
VERTEX
  8
0
 10
571.82483852
 20
122.51378780
  0
VERTEX
  8
0
 10
566.67739372
 20
120.61049734
 42
0.39285082
  0
VERTEX
  8
0
 10
560.93572552
 20
104.72545974
 42
0.24326134
  0
VERTEX
  8
0
 10
669.26297858
 20
14.95623756
 42
-0.37087902
  0
VERTEX
  8
0
 10
673.51263859
 20
9.31169936
 42
-0.37087902
  0
VERTEX
  8
0
 10
668.56747642
 20
4.26533504
 42
-0.31760300
  0
VERTEX
  8
0
 10
535.40420418
 20
131.99623340
  0
SEQEND
  0
POLYLINE
  8
CYAN
 66
   1
 39
0.000000
 70
    1
  0
VERTEX
  8
0
 10
468.19942230
 20
208.69672218
 42
-0.38864221
  0
VERTEX
  8
0
 10
467.08206305
 20
203.75054241
 42
-0.38864221
  0
VERTEX
  8
0
 10
462.05676188
 20
204.42843188
 42
-0.35971181
  0
VERTEX
  8
0
 10
461.37788634
 20
315.63008838
 42
-0.22538000
  0
VERTEX
  8
0
 10
485.06733032
 20
326.86440995
 42
-0.22538000
  0
VERTEX
  8
0
 10
508.74486028
 20
315.60499998
 42
-0.35970568
  0
VERTEX
  8
0
 10
507.94914592
 20
204.40499180
 42
-0.38856544
  0
VERTEX
  8
0
 10
502.92487677
 20
203.73739051
 42
-0.38856544
  0
VERTEX
  8
0
 10
501.81653702
 20
208.68315182
 42
0.19004816
  0
VERTEX
  8
0
 10
510.33820800
 20
266.73819018
 42
0.37981467
  0
VERTEX
  8
0
 10
488.07374376
 20
282.48042994
  0
VERTEX
  8
0
 10
488.08163388
 20
294.58859274
  0
VERTEX
  8
0
 10
482.01374376
 20
294.59253780
  0
VERTEX
  8
0
 10
482.01751914
 20
282.47334176
 42
0.37993043
  0
VERTEX
  8
0
 10
459.72863310
 20
266.76655502
 42
0.19006215
  0
VERTEX
  8
0
 10
468.19942230
 20
208.69672218
  0
SEQEND
  0
POLYLINE
  8
CYAN
 66
   1
 39
0.000000
 70
    1
  0
VERTEX
  8
0
 10
129.84114838
 20
151.81387770
 42
-0.38844641
  0
VERTEX
  8
0
 10
128.72781333
 20
146.87573279
 42
-0.38844641
  0
VERTEX
  8
0
 10
123.71041202
 20
147.54690646
 42
-0.35968769
  0
VERTEX
  8
0
 10
123.00023456
 20
258.74564204
 42
-0.22539890
  0
VERTEX
  8
0
 10
146.69128666
 20
269.98846789
 42
-0.22539890
  0
VERTEX
  8
0
 10
170.37561372
 20
258.73148184
 42
-0.35972537
  0
VERTEX
  8
0
 10
169.59964486
 20
147.52601764
 42
-0.38853525
  0
VERTEX
  8
0
 10
164.57068503
 20
146.85599522
 42
-0.38853525
  0
VERTEX
  8
0
 10
163.45900040
 20
151.80609868
 42
0.19005226
  0
VERTEX
  8
0
 10
171.97934828
 20
209.86670214
 42
0.37987681
  0
VERTEX
  8
0
 10
149.70796352
 20
225.59691280
  0
VERTEX
  8
0
 10
149.70796352
 20
237.71296774
  0
VERTEX
  8
0
 10
143.64796352
 20
237.70902268
  0
VERTEX
  8
0
 10
143.64752720
 20
225.59029932
 42
0.37994092
  0
VERTEX
  8
0
 10
121.35907546
 20
209.87879992
 42
0.19005213
  0
VERTEX
  8
0
 10
129.84114838
 20
151.81387770
  0
SEQEND
  0
POLYLINE
  8
CYAN
 66
   1
 39
0.000000
 70
    1
  0
VERTEX
  8
0
 10
341.27593208
 20
487.35350624
 42
0.22542561
  0
VERTEX
  8
0
 10
364.96329965
 20
476.09910110
 42
0.22542561
  0
VERTEX
  8
0
 10
388.65312924
 20
487.34832292
 42
0.35972524
  0
VERTEX
  8
0
 10
387.92305074
 20
598.55109850
 42
0.38826038
  0
VERTEX
  8
0
 10
382.89903290
 20
599.21779289
 42
0.38826038
  0
VERTEX
  8
0
 10
381.78637558
 20
594.27337884
 42
-0.19003376
  0
VERTEX
  8
0
 10
390.28035438
 20
536.21512868
 42
-0.38003874
  0
VERTEX
  8
0
 10
367.99421352
 20
520.49324244
  0
VERTEX
  8
0
 10
367.99421352
 20
508.37324244
  0
VERTEX
  8
0
 10
361.94210364
 20
508.37324244
  0
VERTEX
  8
0
 10
361.93810606
 20
520.49462412
 42
-0.37992870
  0
VERTEX
  8
0
 10
339.66749698
 20
536.21984336
 42
-0.19004256
  0
VERTEX
  8
0
 10
348.17280798
 20
594.28079022
 42
0.38842429
  0
VERTEX
  8
0
 10
347.06402588
 20
599.22596699
 42
0.38842429
  0
VERTEX
  8
0
 10
342.03997284
 20
598.56033798
 42
0.35971045
  0
VERTEX
  8
0
 10
341.27593208
 20
487.35350624
  0
SEQEND
  0
POLYLINE
  8
CYAN
 66
   1
 39
0.000000
 70
    1
  0
VERTEX
  8
0
 10
455.49802994
 20
507.68710904
 42
0.40674349
  0
VERTEX
  8
0
 10
460.87822867
 20
505.63718806
 42
0.40674349
  0
VERTEX
  8
0
 10
463.06504488
 20
510.96321372
 42
-0.20385363
  0
VERTEX
  8
0
 10
463.42238086
 20
530.02034418
 42
-0.34718214
  0
VERTEX
  8
0
 10
469.64815418
 20
533.26772042
  0
VERTEX
  8
0
 10
469.65702602
 20
543.82976512
  0
VERTEX
  8
0
 10
475.70913388
 20
543.82976512
  0
VERTEX
  8
0
 10
475.70839052
 20
533.26888596
 42
-0.34735662
  0
VERTEX
  8
0
 10
481.93393154
 20
530.01225812
 42
-0.20386251
  0
VERTEX
  8
0
 10
482.28965556
 20
510.95672548
 42
0.40656537
  0
VERTEX
  8
0
 10
484.47373154
 20
505.63334664
 42
0.40656537
  0
VERTEX
  8
0
 10
489.85246486
 20
507.67730800
 42
0.19478852
  0
VERTEX
  8
0
 10
492.61027592
 20
562.68108182
 42
0.31917306
  0
VERTEX
  8
0
 10
472.68656830
 20
576.84792433
 42
0.31917306
  0
VERTEX
  8
0
 10
452.75715658
 20
562.68910728
 42
0.19480753
  0
VERTEX
  8
0
 10
455.49802994
 20
507.68710904
  0
SEQEND
  0
POLYLINE
  8
CYAN
 66
   1
 39
0.000000
 70
    1
  0
VERTEX
  8
0
 10
230.80213006
 20
11.44235262
 42
0.38847276
  0
VERTEX
  8
0
 10
235.83154432
 20
10.77511276
 42
0.38847276
  0
VERTEX
  8
0
 10
236.94157262
 20
15.72567374
 42
-0.19004689
  0
VERTEX
  8
0
 10
228.41970368
 20
73.78031416
 42
-0.37982831
  0
VERTEX
  8
0
 10
250.68429114
 20
89.51914012
  0
VERTEX
  8
0
 10
250.67640102
 20
101.63125000
  0
VERTEX
  8
0
 10
256.74429114
 20
101.63519506
  0
VERTEX
  8
0
 10
256.74024104
 20
89.51596670
 42
-0.38004745
  0
VERTEX
  8
0
 10
279.03785954
 20
73.80285534
 42
-0.19005999
  0
VERTEX
  8
0
 10
270.55796418
 20
15.73824218
 42
0.38827031
  0
VERTEX
  8
0
 10
271.67252055
 20
10.79928906
 42
0.38827031
  0
VERTEX
  8
0
 10
276.69124574
 20
11.46853586
 42
0.35968235
  0
VERTEX
  8
0
 10
277.38959610
 20
122.67083674
 42
0.22540699
  0
VERTEX
  8
0
 10
253.69646245
 20
133.91012340
 42
0.22540699
  0
VERTEX
  8
0
 10
230.01390990
 20
122.64855816
 42
0.35970853
  0
VERTEX
  8
0
 10
230.80213006
 20
11.44235262
  0
SEQEND
  0
POLYLINE
  8
CYAN
 66
   1
 39
0.000000
 70
    1
  0
VERTEX
  8
0
 10
855.27080422
 20
400.05990112
  0
VERTEX
  8
0
 10
873.79691910
 20
401.66112684
 42
0.20322830
  0
VERTEX
  8
0
 10
887.10576384
 20
413.32872158
 42
0.04799328
  0
VERTEX
  8
0
 10
953.16035974
 20
601.81898178
 42
-0.30118277
  0
VERTEX
  8
0
 10
963.32516134
 20
607.51056253
 42
-0.30118277
  0
VERTEX
  8
0
 10
972.53031548
 20
600.37036504
 42
0.03004040
  0
VERTEX
  8
0
 10
1013.16123986
 20
500.34478072
 42
0.28139243
  0
VERTEX
  8
0
 10
1032.33749376
 20
487.87734274
  0
VERTEX
  8
0
 10
1051.12507138
 20
487.88128780
 42
-0.41421381
  0
VERTEX
  8
0
 10
1057.19296352
 20
481.82128780
  0
VERTEX
  8
0
 10
1057.18507138
 20
477.41042994
  0
VERTEX
  8
0
 10
1042.31124376
 20
477.41042994
  0
VERTEX
  8
0
 10
1042.31913388
 20
471.35042994
  0
VERTEX
  8
0
 10
1057.19296352
 20
471.35042994
  0
VERTEX
  8
0
 10
1057.19296150
 20
464.08629380
 42
-0.41436490
  0
VERTEX
  8
0
 10
1051.13296352
 20
458.02316280
  0
VERTEX
  8
0
 10
1042.29961462
 20
458.01888646
 42
0.37574244
  0
VERTEX
  8
0
 10
1033.50863926
 20
450.46413292
 42
-0.40696102
  0
VERTEX
  8
0
 10
1023.74085856
 20
442.94172766
 42
-0.25744243
  0
VERTEX
  8
0
 10
1010.75127886
 20
452.22831608
 42
-0.05307772
  0
VERTEX
  8
0
 10
967.91737884
 20
573.30238524
 42
0.31965766
  0
VERTEX
  8
0
 10
962.55614963
 20
576.62306191
 42
0.31965766
  0
VERTEX
  8
0
 10
957.66451130
 20
572.64291786
 42
-0.04750895
  0
VERTEX
  8
0
 10
895.02646260
 20
407.81935338
 42
-0.25434008
  0
VERTEX
  8
0
 10
874.05944638
 20
393.02808518
  0
VERTEX
  8
0
 10
855.03908396
 20
392.49241754
 42
-0.20655187
  0
VERTEX
  8
0
 10
852.24781428
 20
393.60496538
 42
-0.20655187
  0
VERTEX
  8
0
 10
851.14230076
 20
396.39902854
 42
-0.20655187
  0
VERTEX
  8
0
 10
852.41669416
 20
399.12021773
 42
-0.20655187
  0
VERTEX
  8
0
 10
855.27080422
 20
400.05990112
  0
SEQEND
  0
POLYLINE
  8
CYAN
 66
   1
 39
0.000000
 70
    1
  0
VERTEX
  8
0
 10
349.58906028
 20
163.19635146
 42
0.35222541
  0
VERTEX
  8
0
 10
354.61499448
 20
162.33650900
 42
0.35222541
  0
VERTEX
  8
0
 10
356.53285068
 20
167.06103768
 42
-0.07618236
  0
VERTEX
  8
0
 10
350.39418380
 20
204.70246508
 42
-0.40059893
  0
VERTEX
  8
0
 10
365.46132138
 20
222.96539012
  0
VERTEX
  8
0
 10
365.48499376
 20
234.25687500
  0
VERTEX
  8
0
 10
371.53710364
 20
234.24109274
  0
VERTEX
  8
0
 10
371.51559266
 20
222.95788986
 42
-0.40085440
  0
VERTEX
  8
0
 10
386.53063242
 20
204.63385578
 42
-0.07616564
  0
VERTEX
  8
0
 10
380.25851424
 20
167.02240720
 42
0.37759604
  0
VERTEX
  8
0
 10
382.48998623
 20
162.12759456
 42
0.37759604
  0
VERTEX
  8
0
 10
387.62740354
 20
163.72308868
 42
0.28461681
  0
VERTEX
  8
0
 10
394.67252320
 20
251.41135938
 42
0.26880657
  0
VERTEX
  8
0
 10
368.56903927
 20
266.59867509
 42
0.26880657
  0
VERTEX
  8
0
 10
342.41285676
 20
251.50229978
 42
0.28700731
  0
VERTEX
  8
0
 10
349.58906028
 20
163.19635146
  0
SEQEND
  0
POLYLINE
  8
CYAN
 66
   1
 39
0.000000
 70
    1
  0
VERTEX
  8
0
 10
277.77390918
 20
250.99157510
 42
-0.39624439
  0
VERTEX
  8
0
 10
276.47689480
 20
245.83977168
 42
-0.39624439
  0
VERTEX
  8
0
 10
271.25488236
 20
246.81645528
 42
-0.28475814
  0
VERTEX
  8
0
 10
264.08969390
 20
337.99359322
 42
-0.26871163
  0
VERTEX
  8
0
 10
290.13947893
 20
353.27555302
 42
-0.26871163
  0
VERTEX
  8
0
 10
316.35638792
 20
338.28211184
 42
-0.28579114
  0
VERTEX
  8
0
 10
309.34308326
 20
246.81075686
 42
-0.39626555
  0
VERTEX
  8
0
 10
304.12256025
 20
245.84305036
 42
-0.39626555
  0
VERTEX
  8
0
 10
302.83497454
 20
250.99401526
 42
0.20154400
  0
VERTEX
  8
0
 10
308.23763624
 20
300.07095758
 42
0.37378187
  0
VERTEX
  8
0
 10
293.32522864
 20
309.57289012
  0
VERTEX
  8
0
 10
293.32522864
 20
320.91566280
  0
VERTEX
  8
0
 10
287.27311876
 20
320.91566280
  0
VERTEX
  8
0
 10
287.27311876
 20
309.56894506
 42
0.37384529
  0
VERTEX
  8
0
 10
272.35454006
 20
300.06571164
 42
0.20154593
  0
VERTEX
  8
0
 10
277.77390918
 20
250.99157510
  0
SEQEND
  0
POLYLINE
  8
CYAN
 66
   1
 39
0.000000
 70
    1
  0
VERTEX
  8
0
 10
533.42116614
 20
524.32019506
 42
-0.23543174
  0
VERTEX
  8
0
 10
528.79044637
 20
529.93220881
 42
-0.23543174
  0
VERTEX
  8
0
 10
530.48457094
 20
537.00809786
 42
0.13903727
  0
VERTEX
  8
0
 10
552.64311446
 20
581.70208256
 42
-0.38816868
  0
VERTEX
  8
0
 10
565.85158675
 20
596.61512440
 42
-0.38816868
  0
VERTEX
  8
0
 10
581.88828864
 20
584.79620948
 42
0.28974691
  0
VERTEX
  8
0
 10
588.56775495
 20
574.99733189
 42
0.28974691
  0
VERTEX
  8
0
 10
600.28336006
 20
576.83522990
 42
-0.20397662
  0
VERTEX
  8
0
 10
715.43830358
 20
590.32163342
 42
-0.20397662
  0
VERTEX
  8
0
 10
804.98483130
 20
516.67407086
 42
-0.11584844
  0
VERTEX
  8
0
 10
822.40130564
 20
448.29569726
 42
-0.02333196
  0
VERTEX
  8
0
 10
829.32986726
 20
203.43826222
 42
-0.40539600
  0
VERTEX
  8
0
 10
825.13302353
 20
199.70003837
 42
-0.40539600
  0
VERTEX
  8
0
 10
821.26978446
 20
203.78209652
 42
0.02674077
  0
VERTEX
  8
0
 10
810.94787534
 20
454.23732930
 42
0.26775470
  0
VERTEX
  8
0
 10
739.47617761
 20
566.01047009
 42
0.26775470
  0
VERTEX
  8
0
 10
606.93762184
 20
560.09694228
 42
0.24379626
  0
VERTEX
  8
0
 10
600.34937366
 20
548.71122238
 42
-0.24005534
  0
VERTEX
  8
0
 10
595.80621792
 20
540.74436460
  0
VERTEX
  8
0
 10
557.41655626
 20
515.50636744
 42
-0.40289637
  0
VERTEX
  8
0
 10
536.88515102
 20
519.34910030
  0
VERTEX
  8
0
 10
557.06936876
 20
533.40625000
  0
VERTEX
  8
0
 10
553.60538388
 20
538.37734274
  0
VERTEX
  8
0
 10
533.42116614
 20
524.32019506
  0
SEQEND
  0
POLYLINE
  8
CYAN
 66
   1
 39
0.000000
 70
    1
  0
VERTEX
  8
0
 10
737.52805240
 20
83.94056672
 42
-0.11584845
  0
VERTEX
  8
0
 10
720.11157402
 20
152.31894031
 42
-0.02333199
  0
VERTEX
  8
0
 10
713.18301442
 20
397.17661574
 42
-0.40524589
  0
VERTEX
  8
0
 10
717.38179460
 20
400.91073308
 42
-0.40524589
  0
VERTEX
  8
0
 10
721.24309318
 20
396.82860610
 42
0.02674039
  0
VERTEX
  8
0
 10
731.56503664
 20
146.37696689
 42
0.26775435
  0
VERTEX
  8
0
 10
803.03687066
 20
34.60409915
 42
0.26775435
  0
VERTEX
  8
0
 10
935.57526590
 20
40.51771146
 42
0.24375678
  0
VERTEX
  8
0
 10
942.16350398
 20
51.89948226
 42
-0.24015826
  0
VERTEX
  8
0
 10
946.70665568
 20
59.87028106
  0
VERTEX
  8
0
 10
985.09632138
 20
85.10433518
 42
-0.40293817
  0
VERTEX
  8
0
 10
1005.62772864
 20
81.26554738
  0
VERTEX
  8
0
 10
985.44350888
 20
67.20839768
  0
VERTEX
  8
0
 10
988.90749376
 20
62.23335988
  0
VERTEX
  8
0
 10
1009.09171352
 20
76.29445262
 42
-0.23545765
  0
VERTEX
  8
0
 10
1013.72380503
 20
70.68055734
 42
-0.23545765
  0
VERTEX
  8
0
 10
1012.02830872
 20
63.60260678
 42
0.13902917
  0
VERTEX
  8
0
 10
989.86976116
 20
18.91255098
 42
-0.38820820
  0
VERTEX
  8
0
 10
976.66722681
 20
3.99930736
 42
-0.38820820
  0
VERTEX
  8
0
 10
960.63247912
 20
15.81449314
 42
0.28976605
  0
VERTEX
  8
0
 10
953.95205940
 20
25.61853708
 42
0.28976605
  0
VERTEX
  8
0
 10
942.23150728
 20
23.78116306
 42
-0.20397889
  0
VERTEX
  8
0
 10
827.07579061
 20
10.29293250
 42
-0.20397889
  0
VERTEX
  8
0
 10
737.52805240
 20
83.94056672
  0
SEQEND
  0
POLYLINE
  8
CYAN
 66
   1
 39
0.000000
 70
    1
  0
VERTEX
  8
0
 10
415.66085446
 20
350.92065594
 42
0.22540417
  0
VERTEX
  8
0
 10
439.34427609
 20
339.66930959
 42
0.22540417
  0
VERTEX
  8
0
 10
463.03015948
 20
350.91547262
 42
0.35972523
  0
VERTEX
  8
0
 10
462.30008300
 20
462.11824618
 42
0.38841082
  0
VERTEX
  8
0
 10
457.27898312
 20
462.78280675
 42
0.38841082
  0
VERTEX
  8
0
 10
456.17129594
 20
457.84052854
 42
-0.19003960
  0
VERTEX
  8
0
 10
464.65738462
 20
399.78227636
 42
-0.37992948
  0
VERTEX
  8
0
 10
442.37913388
 20
384.06039012
  0
VERTEX
  8
0
 10
442.37913388
 20
371.94039012
  0
VERTEX
  8
0
 10
436.31913388
 20
371.94039012
  0
VERTEX
  8
0
 10
436.31513832
 20
384.06177382
 42
-0.37992868
  0
VERTEX
  8
0
 10
414.04452924
 20
399.78699104
 42
-0.19004420
  0
VERTEX
  8
0
 10
422.55773036
 20
457.84399284
 42
0.38861844
  0
VERTEX
  8
0
 10
421.44632964
 20
462.79468423
 42
0.38861844
  0
VERTEX
  8
0
 10
416.41700308
 20
462.12354262
 42
0.35971668
  0
VERTEX
  8
0
 10
415.66085446
 20
350.92065594
  0
SEQEND
  0
POLYLINE
  8
CYAN
 66
   1
 39
0.000000
 70
    1
  0
VERTEX
  8
0
 10
682.76640184
 20
438.24620130
 42
0.22542559
  0
VERTEX
  8
0
 10
706.45376888
 20
426.99179834
 42
0.22542559
  0
VERTEX
  8
0
 10
730.14359698
 20
438.24102000
 42
0.35972523
  0
VERTEX
  8
0
 10
729.41352050
 20
549.44379356
 42
0.38841076
  0
VERTEX
  8
0
 10
724.39242010
 20
550.10835254
 42
0.38841076
  0
VERTEX
  8
0
 10
723.28473344
 20
545.16607390
 42
-0.19003959
  0
VERTEX
  8
0
 10
731.77082212
 20
487.10782374
 42
-0.37992951
  0
VERTEX
  8
0
 10
709.49257138
 20
471.38593750
  0
VERTEX
  8
0
 10
709.49257138
 20
459.26593750
  0
VERTEX
  8
0
 10
703.43257138
 20
459.26593750
  0
VERTEX
  8
0
 10
703.42857582
 20
471.38732120
 42
-0.37992871
  0
VERTEX
  8
0
 10
681.15796674
 20
487.11253842
 42
-0.19005528
  0
VERTEX
  8
0
 10
689.67116786
 20
545.17348528
 42
0.38861844
  0
VERTEX
  8
0
 10
688.55976714
 20
550.12417667
 42
0.38861844
  0
VERTEX
  8
0
 10
683.53044058
 20
549.45303506
 42
0.35971045
  0
VERTEX
  8
0
 10
682.76640184
 20
438.24620130
  0
SEQEND
  0
POLYLINE
  8
CYAN
 66
   1
 39
0.000000
 70
    1
  0
VERTEX
  8
0
 10
861.49650684
 20
284.95935374
  0
VERTEX
  8
0
 10
880.02262172
 20
286.56452654
 42
0.20322829
  0
VERTEX
  8
0
 10
893.33146646
 20
298.23211926
 42
0.04799236
  0
VERTEX
  8
0
 10
959.38606438
 20
486.71843440
 42
-0.30118281
  0
VERTEX
  8
0
 10
969.55086503
 20
492.41001540
 42
-0.30118281
  0
VERTEX
  8
0
 10
978.75601810
 20
485.26981766
 42
0.03003940
  0
VERTEX
  8
0
 10
1019.38694248
 20
385.24818042
 42
0.28139244
  0
VERTEX
  8
0
 10
1038.56319638
 20
372.78074244
  0
VERTEX
  8
0
 10
1057.35077400
 20
372.78468750
 42
-0.41421391
  0
VERTEX
  8
0
 10
1063.41866614
 20
366.72468750
  0
VERTEX
  8
0
 10
1063.41077602
 20
362.30988256
  0
VERTEX
  8
0
 10
1048.53694638
 20
362.30988256
  0
VERTEX
  8
0
 10
1048.54483852
 20
356.24988256
  0
VERTEX
  8
0
 10
1063.41866614
 20
356.24988256
  0
VERTEX
  8
0
 10
1063.41866412
 20
348.98969350
 42
-0.41436496
  0
VERTEX
  8
0
 10
1057.35866614
 20
342.92261744
  0
VERTEX
  8
0
 10
1048.52531724
 20
342.92228414
 42
0.37574239
  0
VERTEX
  8
0
 10
1039.73434188
 20
335.36753060
 42
-0.40696095
  0
VERTEX
  8
0
 10
1029.96656320
 20
327.84512736
 42
-0.25744246
  0
VERTEX
  8
0
 10
1016.97698148
 20
337.13171376
 42
-0.05307772
  0
VERTEX
  8
0
 10
974.14308348
 20
458.20578494
 42
0.31975407
  0
VERTEX
  8
0
 10
968.78036149
 20
461.52583977
 42
0.31975407
  0
VERTEX
  8
0
 10
963.89021594
 20
457.54237048
 42
-0.04750800
  0
VERTEX
  8
0
 10
901.25216522
 20
292.72275106
 42
-0.25434004
  0
VERTEX
  8
0
 10
880.28515102
 20
277.93148488
  0
VERTEX
  8
0
 10
861.26478658
 20
277.39187016
 42
-0.20655180
  0
VERTEX
  8
0
 10
858.47351825
 20
278.50441871
 42
-0.20655180
  0
VERTEX
  8
0
 10
857.36800545
 20
281.29848110
 42
-0.20655180
  0
VERTEX
  8
0
 10
858.64239808
 20
284.01966955
 42
-0.20655180
  0
VERTEX
  8
0
 10
861.49650684
 20
284.95935374
  0
SEQEND
  0
POLYLINE
  8
CYAN
 66
   1
 39
0.000000
 70
    1
  0
VERTEX
  8
0
 10
861.48072660
 20
178.94486130
 42
0.20655187
  0
VERTEX
  8
0
 10
858.62661650
 20
178.00517793
 42
0.20655187
  0
VERTEX
  8
0
 10
857.35222307
 20
175.28398873
 42
0.20655187
  0
VERTEX
  8
0
 10
858.45773662
 20
172.48992554
 42
0.20655187
  0
VERTEX
  8
0
 10
861.24900634
 20
171.37737772
  0
VERTEX
  8
0
 10
880.27725888
 20
171.91699244
 42
0.25426238
  0
VERTEX
  8
0
 10
901.23638296
 20
186.70826064
 42
0.04750894
  0
VERTEX
  8
0
 10
963.88232380
 20
351.52787804
 42
-0.31970103
  0
VERTEX
  8
0
 10
968.76857242
 20
355.50779395
 42
-0.31970103
  0
VERTEX
  8
0
 10
974.12730122
 20
352.19129250
 42
0.05307772
  0
VERTEX
  8
0
 10
1016.96120124
 20
231.11722334
 42
0.25744245
  0
VERTEX
  8
0
 10
1029.95078094
 20
221.83063492
 42
0.40721960
  0
VERTEX
  8
0
 10
1039.72645176
 20
229.35303816
 42
-0.37570625
  0
VERTEX
  8
0
 10
1048.50953700
 20
236.90779170
  0
VERTEX
  8
0
 10
1057.34288388
 20
236.90812500
 42
0.41436496
  0
VERTEX
  8
0
 10
1063.40288388
 20
242.97520106
  0
VERTEX
  8
0
 10
1063.40288388
 20
250.23539012
  0
VERTEX
  8
0
 10
1048.53694638
 20
250.23539012
  0
VERTEX
  8
0
 10
1048.52905626
 20
256.29539012
  0
VERTEX
  8
0
 10
1063.39499376
 20
256.29539012
  0
VERTEX
  8
0
 10
1063.40288388
 20
260.71019506
 42
0.41421356
  0
VERTEX
  8
0
 10
1057.34288388
 20
266.77019506
  0
VERTEX
  8
0
 10
1038.54741614
 20
266.76625000
 42
-0.28139246
  0
VERTEX
  8
0
 10
1019.37116224
 20
279.23368798
 42
-0.03003940
  0
VERTEX
  8
0
 10
978.74023786
 20
379.25532724
 42
0.30123110
  0
VERTEX
  8
0
 10
969.53648238
 20
386.39873125
 42
0.30123110
  0
VERTEX
  8
0
 10
959.37028212
 20
380.70788702
 42
-0.04799328
  0
VERTEX
  8
0
 10
893.31568622
 20
192.21762682
 42
-0.20318886
  0
VERTEX
  8
0
 10
880.01473160
 20
180.55003410
  0
VERTEX
  8
0
 10
861.48072660
 20
178.94486130
  0
SEQEND
  0
POLYLINE
  8
CYAN
 66
   1
 39
0.000000
 70
    1
  0
VERTEX
  8
0
 10
859.57119434
 20
74.73337844
 42
0.20655180
  0
VERTEX
  8
0
 10
856.71708562
 20
73.79369423
 42
0.20655180
  0
VERTEX
  8
0
 10
855.44269301
 20
71.07250580
 42
0.20655180
  0
VERTEX
  8
0
 10
856.54820579
 20
68.27844344
 42
0.20655180
  0
VERTEX
  8
0
 10
859.33947408
 20
67.16589486
  0
VERTEX
  8
0
 10
878.35983852
 20
67.70156250
 42
0.25426693
  0
VERTEX
  8
0
 10
899.31896260
 20
82.49677576
 42
0.04750894
  0
VERTEX
  8
0
 10
961.96490344
 20
247.31639316
 42
-0.31970102
  0
VERTEX
  8
0
 10
966.85115106
 20
251.29630816
 42
-0.31970102
  0
VERTEX
  8
0
 10
972.20987884
 20
247.97980762
 42
0.05307848
  0
VERTEX
  8
0
 10
1015.05166898
 20
126.90573846
 42
0.25738754
  0
VERTEX
  8
0
 10
1028.03335856
 20
117.61915004
 42
0.40723494
  0
VERTEX
  8
0
 10
1037.80902938
 20
125.13760822
 42
-0.37570625
  0
VERTEX
  8
0
 10
1046.59211462
 20
132.69236176
  0
VERTEX
  8
0
 10
1055.43335364
 20
132.69664012
 42
0.41436496
  0
VERTEX
  8
0
 10
1061.49335162
 20
138.76371618
  0
VERTEX
  8
0
 10
1061.48546352
 20
146.02390524
  0
VERTEX
  8
0
 10
1046.61952602
 20
146.02390524
  0
VERTEX
  8
0
 10
1046.61163388
 20
152.08390524
  0
VERTEX
  8
0
 10
1061.47757138
 20
152.08390524
  0
VERTEX
  8
0
 10
1061.48546352
 20
156.49476512
 42
0.41421366
  0
VERTEX
  8
0
 10
1055.42546150
 20
162.55476512
  0
VERTEX
  8
0
 10
1036.63788388
 20
162.55082006
 42
-0.28139379
  0
VERTEX
  8
0
 10
1017.46162998
 20
175.02220310
 42
-0.03004035
  0
VERTEX
  8
0
 10
976.82281548
 20
275.04384236
 42
0.30118280
  0
VERTEX
  8
0
 10
967.61766071
 20
282.18403943
 42
0.30118280
  0
VERTEX
  8
0
 10
957.45285974
 20
276.49245708
 42
-0.04799236
  0
VERTEX
  8
0
 10
891.39826384
 20
88.00614396
 42
-0.20322968
  0
VERTEX
  8
0
 10
878.09730922
 20
76.33460416
  0
VERTEX
  8
0
 10
859.57119434
 20
74.73337844
  0
SEQEND
  0
POLYLINE
  8
CYAN
 66
   1
 39
0.000000
 70
    1
  0
VERTEX
  8
0
 10
36.32757138
 20
132.83472530
  0
VERTEX
  8
0
 10
55.34397864
 20
133.49359274
 42
0.25428573
  0
VERTEX
  8
0
 10
76.21176236
 20
148.41569230
 42
0.04750893
  0
VERTEX
  8
0
 10
89.14774338
 20
409.46218504
 42
-0.31971172
  0
VERTEX
  8
0
 10
94.01107072
 20
413.47834199
 42
-0.31971172
  0
VERTEX
  8
0
 10
99.39642750
 20
410.19514204
 42
-0.02028597
  0
VERTEX
  8
0
 10
199.90621188
 20
253.17775242
 42
-0.12232966
  0
VERTEX
  8
0
 10
215.99370802
 20
198.36133764
 42
0.36172621
  0
VERTEX
  8
0
 10
228.52090435
 20
184.53683885
 42
0.36172621
  0
VERTEX
  8
0
 10
244.38901770
 20
194.34756734
 42
-0.37593962
  0
VERTEX
  8
0
 10
253.13038388
 20
201.96054738
  0
VERTEX
  8
0
 10
278.51529564
 20
199.90517314
 42
0.41436997
  0
VERTEX
  8
0
 10
284.52718126
 20
206.00843750
  0
VERTEX
  8
0
 10
284.47983852
 20
213.26781250
  0
VERTEX
  8
0
 10
263.46710364
 20
213.26386744
  0
VERTEX
  8
0
 10
263.41975888
 20
219.32386744
  0
VERTEX
  8
0
 10
284.44827602
 20
219.32386744
  0
VERTEX
  8
0
 10
284.41659232
 20
223.73336786
 42
0.41427701
  0
VERTEX
  8
0
 10
278.31725888
 20
229.76316280
  0
VERTEX
  8
0
 10
259.53120434
 20
229.64995998
 42
-0.28144128
  0
VERTEX
  8
0
 10
240.26767028
 20
241.98843914
 42
-0.01872847
  0
VERTEX
  8
0
 10
97.58388149
 20
438.23517413
 42
0.34217722
  0
VERTEX
  8
0
 10
85.55657024
 20
442.22686537
 42
0.34217722
  0
VERTEX
  8
0
 10
78.69161132
 20
431.57500384
 42
-0.01943269
  0
VERTEX
  8
0
 10
68.25718820
 20
153.88772080
 42
-0.20331415
  0
VERTEX
  8
0
 10
55.02835364
 20
142.11804738
  0
VERTEX
  8
0
 10
36.50549904
 20
140.41252704
 42
0.20657072
  0
VERTEX
  8
0
 10
33.65446683
 20
139.45160038
 42
0.20657072
  0
VERTEX
  8
0
 10
32.39783834
 20
136.71798564
 42
0.20657072
  0
VERTEX
  8
0
 10
33.52478155
 20
133.92840436
 42
0.20657072
  0
VERTEX
  8
0
 10
36.32757138
 20
132.83472530
  0
SEQEND
  0
POLYLINE
  8
CYAN
 66
   1
 39
0.000000
 70
    1
  0
VERTEX
  8
0
 10
427.55360042
 20
103.39766122
 42
-0.33504001
  0
VERTEX
  8
0
 10
416.11792050
 20
117.87684297
 42
-0.33504001
  0
VERTEX
  8
0
 10
426.90805488
 20
132.84328808
 42
0.35760066
  0
VERTEX
  8
0
 10
434.39286128
 20
144.17495870
 42
0.35760066
  0
VERTEX
  8
0
 10
424.74608726
 20
153.73366348
 42
-0.38768911
  0
VERTEX
  8
0
 10
411.37759195
 20
168.46289450
 42
-0.38768911
  0
VERTEX
  8
0
 10
424.82513996
 20
183.11998718
 42
-0.00783144
  0
VERTEX
  8
0
 10
466.79364774
 20
186.20158606
 42
-0.26371546
  0
VERTEX
  8
0
 10
475.18073443
 20
182.06331667
 42
-0.26371546
  0
VERTEX
  8
0
 10
475.93796352
 20
172.74156250
  0
VERTEX
  8
0
 10
452.60538388
 20
172.74156250
  0
VERTEX
  8
0
 10
452.60538388
 20
166.67761744
  0
VERTEX
  8
0
 10
475.92981888
 20
166.68087368
 42
0.20324040
  0
VERTEX
  8
0
 10
479.86732393
 20
151.11326166
 42
0.20324040
  0
VERTEX
  8
0
 10
493.79444638
 20
143.12015524
  0
VERTEX
  8
0
 10
502.61497636
 20
142.76222942
 42
-0.34740920
  0
VERTEX
  8
0
 10
518.66121400
 20
127.19021708
 42
-0.10435703
  0
VERTEX
  8
0
 10
524.57974330
 20
50.39119270
 42
0.14445554
  0
VERTEX
  8
0
 10
527.69088266
 20
31.57311914
 42
-0.22551388
  0
VERTEX
  8
0
 10
527.80152809
 20
15.75048227
 42
-0.22551388
  0
VERTEX
  8
0
 10
515.60387805
 20
5.67152332
 42
-0.22551388
  0
VERTEX
  8
0
 10
500.08578333
 20
8.76293341
 42
-0.22551388
  0
VERTEX
  8
0
 10
492.68176776
 20
22.74680388
 42
0.32911256
  0
VERTEX
  8
0
 10
427.55360042
 20
103.39766122
  0
SEQEND
  0
POLYLINE
  8
CYAN
 66
   1
 39
0.000000
 70
    1
  0
VERTEX
  8
0
 10
271.54016292
 20
402.34977110
 42
-0.32908832
  0
VERTEX
  8
0
 10
336.66043812
 20
321.69891376
 42
0.22549983
  0
VERTEX
  8
0
 10
344.06667420
 20
307.71714302
 42
0.22549983
  0
VERTEX
  8
0
 10
359.58437827
 20
304.62795122
 42
0.22549983
  0
VERTEX
  8
0
 10
371.78060050
 20
314.70735641
 42
0.22549983
  0
VERTEX
  8
0
 10
371.66955302
 20
330.52917408
 42
-0.14442951
  0
VERTEX
  8
0
 10
368.56630580
 20
349.34724764
 42
0.10435173
  0
VERTEX
  8
0
 10
362.64777650
 20
426.14232696
 42
0.34746994
  0
VERTEX
  8
0
 10
346.60153886
 20
441.71828436
  0
VERTEX
  8
0
 10
337.77311876
 20
442.07621018
 42
-0.20318783
  0
VERTEX
  8
0
 10
323.85218061
 20
450.07008020
 42
-0.20318783
  0
VERTEX
  8
0
 10
319.91638138
 20
465.63298356
  0
VERTEX
  8
0
 10
296.59194638
 20
465.62972530
  0
VERTEX
  8
0
 10
296.59194638
 20
471.69367238
  0
VERTEX
  8
0
 10
319.91663388
 20
471.69367238
 42
0.26392394
  0
VERTEX
  8
0
 10
319.16399125
 20
481.01975466
 42
0.26392394
  0
VERTEX
  8
0
 10
310.77231809
 20
485.15764100
 42
0.00783144
  0
VERTEX
  8
0
 10
268.80381234
 20
482.07604212
 42
0.38768915
  0
VERTEX
  8
0
 10
255.35626249
 20
467.41894945
 42
0.38768915
  0
VERTEX
  8
0
 10
268.72475964
 20
452.68971842
 42
-0.35760066
  0
VERTEX
  8
0
 10
278.37153366
 20
443.13101364
 42
-0.35760066
  0
VERTEX
  8
0
 10
270.88672726
 20
431.79934302
 42
0.33498214
  0
VERTEX
  8
0
 10
260.10145422
 20
416.82800098
 42
0.33498214
  0
VERTEX
  8
0
 10
271.54016292
 20
402.34977110
  0
SEQEND
  0
POLYLINE
  8
CYAN
 66
   1
 39
0.000000
 70
    1
  0
VERTEX
  8
0
 10
784.18178454
 20
111.25541880
 42
-0.29909755
  0
VERTEX
  8
0
 10
776.73463919
 20
115.63425703
 42
-0.29909755
  0
VERTEX
  8
0
 10
777.79679482
 20
124.20782242
  0
VERTEX
  8
0
 10
810.61882138
 20
124.21816280
  0
VERTEX
  8
0
 10
810.61882138
 20
130.27816280
  0
VERTEX
  8
0
 10
777.79382138
 20
130.27027268
 42
-0.26921430
  0
VERTEX
  8
0
 10
776.14234562
 20
139.47165774
 42
-0.26921430
  0
VERTEX
  8
0
 10
783.31362692
 20
145.46878904
 42
0.23697399
  0
VERTEX
  8
0
 10
789.74322002
 20
150.22230032
 42
0.23697399
  0
VERTEX
  8
0
 10
789.77072458
 20
158.21822306
 42
-0.27018700
  0
VERTEX
  8
0
 10
790.50796739
 20
169.42715951
 42
-0.27018700
  0
VERTEX
  8
0
 10
800.62491178
 20
174.30888252
 42
-0.25687314
  0
VERTEX
  8
0
 10
863.34211216
 20
133.13947664
 42
-0.30406585
  0
VERTEX
  8
0
 10
861.01158388
 20
110.62164244
 42
-0.30406585
  0
VERTEX
  8
0
 10
839.29901368
 20
104.21473102
 42
0.08841984
  0
VERTEX
  8
0
 10
784.18178454
 20
111.25541880
  0
SEQEND
  0
ENDSEC
  0
EOF
