  0
SECTION
  2
HEADER
  9
$ACADVER
  1
AC1009
  9
$DWGCODEPAGE
  3
ansi_1252
  9
$INSBASE
 10
0.0
 20
0.0
 30
0.0
  9
$EXTMIN
 10
0.282222
 20
3.048706
 30
0.0
  9
$EXTMAX
 10
90.37563
 20
52.524882
 30
0.0
  9
$LIMMIN
 10
0.0
 20
0.0
  9
$LIMMAX
 10
12.0
 20
9.0
  9
$ORTHOMODE
 70
     0
  9
$REGENMODE
 70
     1
  9
$FILLMODE
 70
     1
  9
$QTEXTMODE
 70
     0
  9
$MIRRTEXT
 70
     1
  9
$DRAGMODE
 70
     2
  9
$LTSCALE
 40
1.0
  9
$OSMODE
 70
    37
  9
$ATTMODE
 70
     1
  9
$TEXTSIZE
 40
0.2
  9
$TRACEWID
 40
0.05
  9
$TEXTSTYLE
  7
STANDARD
  9
$CLAYER
  8
0
  9
$CELTYPE
  6
BYBLOCK
  9
$CECOLOR
 62
   256
  9
$DIMSCALE
 40
1.0
  9
$DIMASZ
 40
0.18
  9
$DIMEXO
 40
0.0625
  9
$DIMDLI
 40
0.38
  9
$DIMRND
 40
0.0
  9
$DIMDLE
 40
0.0
  9
$DIMEXE
 40
0.18
  9
$DIMTP
 40
0.0
  9
$DIMTM
 40
0.0
  9
$DIMTXT
 40
0.18
  9
$DIMCEN
 40
0.09
  9
$DIMTSZ
 40
0.0
  9
$DIMTOL
 70
     0
  9
$DIMLIM
 70
     0
  9
$DIMTIH
 70
     1
  9
$DIMTOH
 70
     1
  9
$DIMSE1
 70
     0
  9
$DIMSE2
 70
     0
  9
$DIMTAD
 70
     0
  9
$DIMZIN
 70
     0
  9
$DIMBLK
  1

  9
$DIMASO
 70
     1
  9
$DIMSHO
 70
     1
  9
$DIMPOST
  1

  9
$DIMAPOST
  1

  9
$DIMALT
 70
     0
  9
$DIMALTD
 70
     2
  9
$DIMALTF
 40
25.4
  9
$DIMLFAC
 40
1.0
  9
$DIMTOFL
 70
     0
  9
$DIMTVP
 40
0.0
  9
$DIMTIX
 70
     0
  9
$DIMSOXD
 70
     0
  9
$DIMSAH
 70
     0
  9
$DIMBLK1
  1

  9
$DIMBLK2
  1

  9
$DIMSTYLE
  2
STANDARD
  9
$DIMCLRD
 70
     0
  9
$DIMCLRE
 70
     0
  9
$DIMCLRT
 70
     0
  9
$DIMTFAC
 40
1.0
  9
$DIMGAP
 40
0.09
  9
$LUNITS
 70
     2
  9
$LUPREC
 70
     4
  9
$SKETCHINC
 40
0.1
  9
$FILLETRAD
 40
0.5
  9
$AUNITS
 70
     0
  9
$AUPREC
 70
     0
  9
$MENU
  1
.
  9
$ELEVATION
 40
0.0
  9
$PELEVATION
 40
0.0
  9
$THICKNESS
 40
0.0
  9
$LIMCHECK
 70
     0
  9
$CHAMFERA
 40
0.5
  9
$CHAMFERB
 40
0.5
  9
$SKPOLY
 70
     0
  9
$TDCREATE
 40
2453353.508792488
  9
$TDUPDATE
 40
4910283.861524444
  9
$TDINDWG
 40
4895786.051922963
  9
$TDUSRTIMER
 40
4895786.051922963
  9
$USRTIMER
 70
     1
  9
$ANGBASE
 50
0.0
  9
$ANGDIR
 70
     0
  9
$PDMODE
 70
     0
  9
$PDSIZE
 40
0.0
  9
$PLINEWID
 40
0.0
  9
$COORDS
 70
     1
  9
$SPLFRAME
 70
     0
  9
$SPLINETYPE
 70
     6
  9
$SPLINESEGS
 70
     8
  9
$ATTDIA
 70
     0
  9
$ATTREQ
 70
     1
  9
$HANDLING
 70
     1
  9
$HANDSEED
  5
41D
  9
$SURFTAB1
 70
     6
  9
$SURFTAB2
 70
     6
  9
$SURFTYPE
 70
     6
  9
$SURFU
 70
     6
  9
$SURFV
 70
     6
  9
$UCSNAME
  2

  9
$UCSORG
 10
0.0
 20
0.0
 30
0.0
  9
$UCSXDIR
 10
1.0
 20
0.0
 30
0.0
  9
$UCSYDIR
 10
0.0
 20
1.0
 30
0.0
  9
$PUCSNAME
  2

  9
$PUCSORG
 10
0.0
 20
0.0
 30
0.0
  9
$PUCSXDIR
 10
1.0
 20
0.0
 30
0.0
  9
$PUCSYDIR
 10
0.0
 20
1.0
 30
0.0
  9
$USERI1
 70
     0
  9
$USERI2
 70
     0
  9
$USERI3
 70
     0
  9
$USERI4
 70
     0
  9
$USERI5
 70
     0
  9
$USERR1
 40
0.0
  9
$USERR2
 40
0.0
  9
$USERR3
 40
0.0
  9
$USERR4
 40
0.0
  9
$USERR5
 40
0.0
  9
$WORLDVIEW
 70
     1
  9
$SHADEDGE
 70
     3
  9
$SHADEDIF
 70
    70
  9
$TILEMODE
 70
     1
  9
$MAXACTVP
 70
    64
  9
$PLIMCHECK
 70
     0
  9
$PEXTMIN
 10
0.0
 20
0.0
 30
0.0
  9
$PEXTMAX
 10
0.0
 20
0.0
 30
0.0
  9
$PLIMMIN
 10
0.0
 20
0.0
  9
$PLIMMAX
 10
0.0
 20
0.0
  9
$UNITMODE
 70
     0
  9
$VISRETAIN
 70
     1
  9
$PLINEGEN
 70
     0
  9
$PSLTSCALE
 70
     1
  0
ENDSEC
  0
SECTION
  2
TABLES
  0
TABLE
  2
VPORT
 70
     1
  0
VPORT
  2
*ACTIVE
 70
     0
 10
0.0
 20
0.0
 11
1.0
 21
1.0
 12
43.05089568783317
 22
27.70827564014915
 13
0.0
 23
0.0
 14
0.5
 24
0.5
 15
0.5
 25
0.5
 16
0.0
 26
0.0
 36
1.0
 17
0.0
 27
0.0
 37
0.0
 40
66.46786672901588
 41
1.972972972850329
 42
50.0
 43
0.0
 44
0.0
 50
0.0
 51
0.0
 71
    16
 72
   100
 73
     1
 74
     1
 75
     0
 76
     0
 77
     0
 78
     0
  0
ENDTAB
  0
TABLE
  2
LTYPE
 70
     1
  0
LTYPE
  2
CONTINUOUS
 70
     0
  3
Solid line
 72
    65
 73
     0
 40
0.0
  0
ENDTAB
  0
TABLE
  2
LAYER
 70
     2
  0
LAYER
  2
0
 70
     0
 62
     7
  6
CONTINUOUS
  0
LAYER
  2
LAYER_1
 70
     0
 62
     7
  6
CONTINUOUS
  0
ENDTAB
  0
TABLE
  2
STYLE
 70
     1
  0
STYLE
  2
STANDARD
 70
     0
 40
0.0
 41
1.0
 50
0.0
 71
     0
 42
0.2
  3
txt
  4

  0
ENDTAB
  0
TABLE
  2
VIEW
 70
     0
  0
ENDTAB
  0
TABLE
  2
UCS
 70
     0
  0
ENDTAB
  0
TABLE
  2
APPID
 70
     1
  0
APPID
  2
ACAD
 70
     0
  0
ENDTAB
  0
TABLE
  2
DIMSTYLE
 70
     1
  0
DIMSTYLE
  2
STANDARD
 70
     0
  3

  4

  5

  6

  7

 40
1.0
 41
0.18
 42
0.0625
 43
0.38
 44
0.18
 45
0.0
 46
0.0
 47
0.0
 48
0.0
140
0.18
141
0.09
142
0.0
143
25.4
144
1.0
145
0.0
146
1.0
147
0.09
 71
     0
 72
     0
 73
     1
 74
     1
 75
     0
 76
     0
 77
     0
 78
     0
170
     0
171
     2
172
     0
173
     0
174
     0
175
     0
176
     0
177
     0
178
     0
  0
ENDTAB
  0
ENDSEC
  0
SECTION
  2
BLOCKS
  0
BLOCK
  8
0
  2
$MODEL_SPACE
 70
     0
 10
0.0
 20
0.0
 30
0.0
  3
$MODEL_SPACE
  1

  0
ENDBLK
  5
21
  8
0
  0
BLOCK
 67
     1
  8
0
  2
$PAPER_SPACE
 70
     0
 10
0.0
 20
0.0
 30
0.0
  3
$PAPER_SPACE
  1

  0
ENDBLK
  5
76
 67
     1
  8
0
  0
ENDSEC
  0
SECTION
  2
ENTITIES
  0
LINE
  5
406
  8
LAYER_1
 10
14.570087
 20
3.343377
 30
0.0
 11
11.863517
 21
3.726129
 31
0.0
  0
LINE
  5
407
  8
LAYER_1
 10
11.863517
 20
3.726129
 30
0.0
 11
11.082788
 21
3.912001
 31
0.0
  0
LINE
  5
23
  8
LAYER_1
 10
11.082788
 20
3.912001
 30
0.0
 11
10.589403
 21
4.175962
 31
0.0
  0
LINE
  5
24
  8
LAYER_1
 10
10.589403
 20
4.175962
 30
0.0
 11
10.312591
 21
4.579332
 31
0.0
  0
LINE
  5
25
  8
LAYER_1
 10
10.312591
 20
4.579332
 30
0.0
 11
10.181579
 21
5.183429
 31
0.0
  0
LINE
  5
26
  8
LAYER_1
 10
10.181579
 20
5.183429
 30
0.0
 11
10.073877
 21
7.239079
 31
0.0
  0
LINE
  5
408
  8
LAYER_1
 10
10.073877
 20
7.239079
 30
0.0
 11
9.482856999999999
 21
12.571668
 31
0.0
  0
LINE
  5
28
  8
LAYER_1
 10
9.482856999999999
 20
12.571668
 30
0.0
 11
8.303124
 21
19.456282
 31
0.0
  0
LINE
  5
29
  8
LAYER_1
 10
8.303124
 20
19.456282
 30
0.0
 11
6.756969
 21
26.737704
 31
0.0
  0
LINE
  5
2A
  8
LAYER_1
 10
6.756969
 20
26.737704
 30
0.0
 11
5.066683
 21
33.26072
 31
0.0
  0
LINE
  5
2B
  8
LAYER_1
 10
5.066683
 20
33.26072
 30
0.0
 11
4.079534
 21
36.4199
 31
0.0
  0
LINE
  5
2C
  8
LAYER_1
 10
4.079534
 20
36.4199
 30
0.0
 11
3.152712
 21
38.928987
 31
0.0
  0
LINE
  5
2D
  8
LAYER_1
 10
3.152712
 20
38.928987
 30
0.0
 11
2.242823
 21
40.89368
 31
0.0
  0
LINE
  5
2E
  8
LAYER_1
 10
2.242823
 20
40.89368
 30
0.0
 11
1.306471
 21
42.419679
 31
0.0
  0
LINE
  5
2F
  8
LAYER_1
 10
1.306471
 20
42.419679
 30
0.0
 11
0.282222
 21
43.93522
 31
0.0
  0
LINE
  5
30
  8
LAYER_1
 10
0.282222
 20
43.93522
 30
0.0
 11
1.763889
 21
43.814059
 31
0.0
  0
LINE
  5
31
  8
LAYER_1
 10
1.763889
 20
43.814059
 30
0.0
 11
6.265118
 21
43.582433
 31
0.0
  0
LINE
  5
32
  8
LAYER_1
 10
6.265118
 20
43.582433
 30
0.0
 11
9.895517999999999
 21
43.771839
 31
0.0
  0
LINE
  5
33
  8
LAYER_1
 10
9.895517999999999
 20
43.771839
 30
0.0
 11
13.929414
 21
44.497833
 31
0.0
  0
LINE
  5
34
  8
LAYER_1
 10
13.929414
 20
44.497833
 30
0.0
 11
19.055993
 21
45.9222
 31
0.0
  0
LINE
  5
35
  8
LAYER_1
 10
19.055993
 20
45.9222
 30
0.0
 11
25.964444
 21
48.206722
 31
0.0
  0
LINE
  5
36
  8
LAYER_1
 10
25.964444
 20
48.206722
 30
0.0
 11
30.318944
 21
49.649117
 31
0.0
  0
LINE
  5
37
  8
LAYER_1
 10
30.318944
 20
49.649117
 30
0.0
 11
34.058798
 21
50.730603
 31
0.0
  0
LINE
  5
38
  8
LAYER_1
 10
34.058798
 20
50.730603
 30
0.0
 11
37.359394
 21
51.465443
 31
0.0
  0
LINE
  5
39
  8
LAYER_1
 10
37.359394
 20
51.465443
 30
0.0
 11
40.396122
 21
51.867906
 31
0.0
  0
LINE
  5
3A
  8
LAYER_1
 10
40.396122
 20
51.867906
 30
0.0
 11
43.344373
 21
51.952256
 31
0.0
  0
LINE
  5
3B
  8
LAYER_1
 10
43.344373
 20
51.952256
 30
0.0
 11
46.379536
 21
51.73276
 31
0.0
  0
LINE
  5
3C
  8
LAYER_1
 10
46.379536
 20
51.73276
 30
0.0
 11
49.677001
 21
51.223683
 31
0.0
  0
LINE
  5
3D
  8
LAYER_1
 10
49.677001
 20
51.223683
 30
0.0
 11
53.412159
 21
50.439292
 31
0.0
  0
LINE
  5
3E
  8
LAYER_1
 10
53.412159
 20
50.439292
 30
0.0
 11
61.530744
 21
48.649654
 31
0.0
  0
LINE
  5
3F
  8
LAYER_1
 10
61.530744
 20
48.649654
 30
0.0
 11
65.46701
 21
48.118032
 31
0.0
  0
LINE
  5
40
  8
LAYER_1
 10
65.46701
 20
48.118032
 30
0.0
 11
67.948204
 21
48.01981
 31
0.0
  0
LINE
  5
41
  8
LAYER_1
 10
67.948204
 20
48.01981
 30
0.0
 11
69.91653100000001
 21
48.132513
 31
0.0
  0
LINE
  5
42
  8
LAYER_1
 10
69.91653100000001
 20
48.132513
 30
0.0
 11
72.02488700000001
 21
48.650301
 31
0.0
  0
LINE
  5
43
  8
LAYER_1
 10
72.02488700000001
 20
48.650301
 30
0.0
 11
75.092117
 21
49.605218
 31
0.0
  0
LINE
  5
44
  8
LAYER_1
 10
75.092117
 20
49.605218
 30
0.0
 11
80.971763
 21
51.790344
 31
0.0
  0
LINE
  5
45
  8
LAYER_1
 10
80.971763
 20
51.790344
 30
0.0
 11
82.853135
 21
52.524882
 31
0.0
  0
LINE
  5
46
  8
LAYER_1
 10
82.853135
 20
52.524882
 30
0.0
 11
83.53917800000001
 21
50.899608
 31
0.0
  0
LINE
  5
47
  8
LAYER_1
 10
83.53917800000001
 20
50.899608
 30
0.0
 11
84.24975600000001
 21
48.775659
 31
0.0
  0
LINE
  5
48
  8
LAYER_1
 10
84.24975600000001
 20
48.775659
 30
0.0
 11
85.052561
 21
45.813863
 31
0.0
  0
LINE
  5
49
  8
LAYER_1
 10
85.052561
 20
45.813863
 30
0.0
 11
86.819183
 21
37.942712
 31
0.0
  0
LINE
  5
4A
  8
LAYER_1
 10
86.819183
 20
37.942712
 30
0.0
 11
88.60770599999999
 21
28.418124
 31
0.0
  0
LINE
  5
4B
  8
LAYER_1
 10
88.60770599999999
 20
28.418124
 30
0.0
 11
90.18678900000001
 21
18.372066
 31
0.0
  0
LINE
  5
4C
  8
LAYER_1
 10
90.18678900000001
 20
18.372066
 30
0.0
 11
90.37563
 21
17.030076
 31
0.0
  0
LINE
  5
4D
  8
LAYER_1
 10
90.37563
 20
17.030076
 30
0.0
 11
88.037458
 21
14.634594
 31
0.0
  0
LINE
  5
4E
  8
LAYER_1
 10
88.037458
 20
14.634594
 30
0.0
 11
86.002521
 21
12.718554
 31
0.0
  0
LINE
  5
4F
  8
LAYER_1
 10
86.002521
 20
12.718554
 30
0.0
 11
83.857263
 21
11.017648
 31
0.0
  0
LINE
  5
50
  8
LAYER_1
 10
83.857263
 20
11.017648
 30
0.0
 11
81.627563
 21
9.544309999999999
 31
0.0
  0
LINE
  5
51
  8
LAYER_1
 10
81.627563
 20
9.544309999999999
 30
0.0
 11
79.339303
 21
8.310972
 31
0.0
  0
LINE
  5
52
  8
LAYER_1
 10
79.339303
 20
8.310972
 30
0.0
 11
77.018362
 21
7.330067
 31
0.0
  0
LINE
  5
53
  8
LAYER_1
 10
77.018362
 20
7.330067
 30
0.0
 11
74.69062
 21
6.614028
 31
0.0
  0
LINE
  5
54
  8
LAYER_1
 10
74.69062
 20
6.614028
 30
0.0
 11
72.381958
 21
6.175287
 31
0.0
  0
LINE
  5
55
  8
LAYER_1
 10
72.381958
 20
6.175287
 30
0.0
 11
70.11825500000001
 21
6.026277
 31
0.0
  0
LINE
  5
56
  8
LAYER_1
 10
70.11825500000001
 20
6.026277
 30
0.0
 11
68.037001
 21
6.122044
 31
0.0
  0
LINE
  5
57
  8
LAYER_1
 10
68.037001
 20
6.122044
 30
0.0
 11
65.619849
 21
6.457488
 31
0.0
  0
LINE
  5
58
  8
LAYER_1
 10
65.619849
 20
6.457488
 30
0.0
 11
58.137778
 21
8.136246999999999
 31
0.0
  0
LINE
  5
409
  8
LAYER_1
 10
58.137778
 20
8.136246999999999
 30
0.0
 11
51.358118
 21
9.637777
 31
0.0
  0
LINE
  5
40A
  8
LAYER_1
 10
51.358118
 20
9.637777
 30
0.0
 11
49.016081
 21
9.94087
 31
0.0
  0
LINE
  5
5B
  8
LAYER_1
 10
49.016081
 20
9.94087
 30
0.0
 11
46.77178
 21
10.046487
 31
0.0
  0
LINE
  5
5C
  8
LAYER_1
 10
46.77178
 20
10.046487
 30
0.0
 11
44.347367
 21
10.079688
 31
0.0
  0
LINE
  5
5D
  8
LAYER_1
 10
44.347367
 20
10.079688
 30
0.0
 11
38.472017
 21
7.219338
 31
0.0
  0
LINE
  5
40B
  8
LAYER_1
 10
38.472017
 20
7.219338
 30
0.0
 11
33.748616
 21
5.010537
 31
0.0
  0
LINE
  5
5F
  8
LAYER_1
 10
33.748616
 20
5.010537
 30
0.0
 11
30.316655
 21
3.782499
 31
0.0
  0
LINE
  5
60
  8
LAYER_1
 10
30.316655
 20
3.782499
 30
0.0
 11
28.724952
 21
3.440953
 31
0.0
  0
LINE
  5
61
  8
LAYER_1
 10
28.724952
 20
3.440953
 30
0.0
 11
27.024093
 21
3.230223
 31
0.0
  0
LINE
  5
62
  8
LAYER_1
 10
27.024093
 20
3.230223
 30
0.0
 11
22.718889
 21
3.048706
 31
0.0
  0
LINE
  5
63
  8
LAYER_1
 10
22.718889
 20
3.048706
 30
0.0
 11
17.995295
 21
3.070884
 31
0.0
  0
LINE
  5
64
  8
LAYER_1
 10
17.995295
 20
3.070884
 30
0.0
 11
14.570087
 21
3.343377
 31
0.0
  0
LINE
  5
65
  8
LAYER_1
 10
14.570087
 20
3.343377
 30
0.0
 11
14.570087
 21
3.343377
 31
0.0
  0
LINE
  5
66
  8
LAYER_1
 10
24.151539
 20
6.6183
 30
0.0
 11
27.560991
 21
7.08621
 31
0.0
  0
LINE
  5
67
  8
LAYER_1
 10
27.560991
 20
7.08621
 30
0.0
 11
30.636856
 21
7.835454
 31
0.0
  0
LINE
  5
68
  8
LAYER_1
 10
30.636856
 20
7.835454
 30
0.0
 11
33.848402
 21
9.009585
 31
0.0
  0
LINE
  5
69
  8
LAYER_1
 10
33.848402
 20
9.009585
 30
0.0
 11
37.664901
 21
10.752156
 31
0.0
  0
LINE
  5
6A
  8
LAYER_1
 10
37.664901
 20
10.752156
 30
0.0
 11
42.756667
 21
13.222944
 31
0.0
  0
LINE
  5
40C
  8
LAYER_1
 10
42.756667
 20
13.222944
 30
0.0
 11
47.554444
 21
13.196745
 31
0.0
  0
LINE
  5
40D
  8
LAYER_1
 10
47.554444
 20
13.196745
 30
0.0
 11
52.11945
 21
13.039954
 31
0.0
  0
LINE
  5
6D
  8
LAYER_1
 10
52.11945
 20
13.039954
 30
0.0
 11
53.692705
 21
12.767576
 31
0.0
  0
LINE
  5
6E
  8
LAYER_1
 10
53.692705
 20
12.767576
 30
0.0
 11
55.597778
 21
12.273517
 31
0.0
  0
LINE
  5
6F
  8
LAYER_1
 10
55.597778
 20
12.273517
 30
0.0
 11
64.241794
 21
10.142194
 31
0.0
  0
LINE
  5
70
  8
LAYER_1
 10
64.241794
 20
10.142194
 30
0.0
 11
67.40289799999999
 21
9.584196
 31
0.0
  0
LINE
  5
71
  8
LAYER_1
 10
67.40289799999999
 20
9.584196
 30
0.0
 11
69.708889
 21
9.381278
 31
0.0
  0
LINE
  5
72
  8
LAYER_1
 10
69.708889
 20
9.381278
 30
0.0
 11
71.47886200000001
 21
9.466982
 31
0.0
  0
LINE
  5
40E
  8
LAYER_1
 10
71.47886200000001
 20
9.466982
 30
0.0
 11
73.269513
 21
9.779518
 31
0.0
  0
LINE
  5
40F
  8
LAYER_1
 10
73.269513
 20
9.779518
 30
0.0
 11
75.12759
 21
10.341206
 31
0.0
  0
LINE
  5
410
  8
LAYER_1
 10
75.12759
 20
10.341206
 30
0.0
 11
77.099841
 21
11.174366
 31
0.0
  0
LINE
  5
411
  8
LAYER_1
 10
77.099841
 20
11.174366
 30
0.0
 11
79.233015
 21
12.301317
 31
0.0
  0
LINE
  5
77
  8
LAYER_1
 10
79.233015
 20
12.301317
 30
0.0
 11
81.57386
 21
13.74438
 31
0.0
  0
LINE
  5
78
  8
LAYER_1
 10
81.57386
 20
13.74438
 30
0.0
 11
87.065556
 21
17.668116
 31
0.0
  0
LINE
  5
79
  8
LAYER_1
 10
87.065556
 20
17.668116
 30
0.0
 11
89.041111
 21
19.171141
 31
0.0
  0
LINE
  5
7A
  8
LAYER_1
 10
89.041111
 20
19.171141
 30
0.0
 11
88.963173
 21
20.837573
 31
0.0
  0
LINE
  5
7B
  8
LAYER_1
 10
88.963173
 20
20.837573
 30
0.0
 11
88.74412599999999
 21
22.645116
 31
0.0
  0
LINE
  5
7C
  8
LAYER_1
 10
88.74412599999999
 20
22.645116
 30
0.0
 11
88.169945
 21
22.283346
 31
0.0
  0
LINE
  5
7D
  8
LAYER_1
 10
88.169945
 20
22.283346
 30
0.0
 11
86.98762000000001
 21
21.215406
 31
0.0
  0
LINE
  5
7E
  8
LAYER_1
 10
86.98762000000001
 20
21.215406
 30
0.0
 11
84.44798900000001
 21
19.079248
 31
0.0
  0
LINE
  5
7F
  8
LAYER_1
 10
84.44798900000001
 20
19.079248
 30
0.0
 11
81.38699800000001
 21
17.035597
 31
0.0
  0
LINE
  5
80
  8
LAYER_1
 10
81.38699800000001
 20
17.035597
 30
0.0
 11
78.07663599999999
 21
15.248004
 31
0.0
  0
LINE
  5
81
  8
LAYER_1
 10
78.07663599999999
 20
15.248004
 30
0.0
 11
74.788889
 21
13.880025
 31
0.0
  0
LINE
  5
82
  8
LAYER_1
 10
74.788889
 20
13.880025
 30
0.0
 11
73.223444
 21
13.369767
 31
0.0
  0
LINE
  5
83
  8
LAYER_1
 10
73.223444
 20
13.369767
 30
0.0
 11
71.95907699999999
 21
13.091203
 31
0.0
  0
LINE
  5
84
  8
LAYER_1
 10
71.95907699999999
 20
13.091203
 30
0.0
 11
68.438889
 21
12.952372
 31
0.0
  0
LINE
  5
85
  8
LAYER_1
 10
68.438889
 20
12.952372
 30
0.0
 11
65.60638899999999
 21
13.042891
 31
0.0
  0
LINE
  5
86
  8
LAYER_1
 10
65.60638899999999
 20
13.042891
 30
0.0
 11
62.985741
 21
13.371121
 31
0.0
  0
LINE
  5
87
  8
LAYER_1
 10
62.985741
 20
13.371121
 30
0.0
 11
60.082115
 21
14.025039
 31
0.0
  0
LINE
  5
88
  8
LAYER_1
 10
60.082115
 20
14.025039
 30
0.0
 11
56.40068
 21
15.092618
 31
0.0
  0
LINE
  5
89
  8
LAYER_1
 10
56.40068
 20
15.092618
 30
0.0
 11
52.013968
 21
16.252556
 31
0.0
  0
LINE
  5
8A
  8
LAYER_1
 10
52.013968
 20
16.252556
 30
0.0
 11
48.134886
 21
16.868135
 31
0.0
  0
LINE
  5
8B
  8
LAYER_1
 10
48.134886
 20
16.868135
 30
0.0
 11
44.712215
 21
16.944208
 31
0.0
  0
LINE
  5
8C
  8
LAYER_1
 10
44.712215
 20
16.944208
 30
0.0
 11
41.694732
 21
16.485624
 31
0.0
  0
LINE
  5
8D
  8
LAYER_1
 10
41.694732
 20
16.485624
 30
0.0
 11
40.264861
 21
16.089314
 31
0.0
  0
LINE
  5
8E
  8
LAYER_1
 10
40.264861
 20
16.089314
 30
0.0
 11
38.983589
 21
15.603502
 31
0.0
  0
LINE
  5
8F
  8
LAYER_1
 10
38.983589
 20
15.603502
 30
0.0
 11
34.703227
 21
13.412284
 31
0.0
  0
LINE
  5
90
  8
LAYER_1
 10
34.703227
 20
13.412284
 30
0.0
 11
30.266543
 21
11.335774
 31
0.0
  0
LINE
  5
91
  8
LAYER_1
 10
30.266543
 20
11.335774
 30
0.0
 11
28.196068
 21
10.612539
 31
0.0
  0
LINE
  5
412
  8
LAYER_1
 10
28.196068
 20
10.612539
 30
0.0
 11
26.138132
 21
10.065698
 31
0.0
  0
LINE
  5
413
  8
LAYER_1
 10
26.138132
 20
10.065698
 30
0.0
 11
23.600829
 21
9.731947
 31
0.0
  0
LINE
  5
94
  8
LAYER_1
 10
23.600829
 20
9.731947
 30
0.0
 11
20.307365
 21
9.623621
 31
0.0
  0
LINE
  5
95
  8
LAYER_1
 10
20.307365
 20
9.623621
 30
0.0
 11
16.787211
 21
9.740086
 31
0.0
  0
LINE
  5
96
  8
LAYER_1
 10
16.787211
 20
9.740086
 30
0.0
 11
13.569838
 21
10.08071
 31
0.0
  0
LINE
  5
414
  8
LAYER_1
 10
13.569838
 20
10.08071
 30
0.0
 11
10.542857
 21
10.454318
 31
0.0
  0
LINE
  5
415
  8
LAYER_1
 10
10.542857
 20
10.454318
 30
0.0
 11
10.62658
 21
8.927543999999999
 31
0.0
  0
LINE
  5
99
  8
LAYER_1
 10
10.62658
 20
8.927543999999999
 30
0.0
 11
10.797121
 21
7.487587
 31
0.0
  0
LINE
  5
9A
  8
LAYER_1
 10
10.797121
 20
7.487587
 30
0.0
 11
12.524672
 21
7.162713
 31
0.0
  0
LINE
  5
9B
  8
LAYER_1
 10
12.524672
 20
7.162713
 30
0.0
 11
15.62103
 21
6.663581
 31
0.0
  0
LINE
  5
9C
  8
LAYER_1
 10
15.62103
 20
6.663581
 30
0.0
 11
18.407117
 21
6.415077
 31
0.0
  0
LINE
  5
9D
  8
LAYER_1
 10
18.407117
 20
6.415077
 30
0.0
 11
21.158699
 21
6.404287
 31
0.0
  0
LINE
  5
9E
  8
LAYER_1
 10
21.158699
 20
6.404287
 30
0.0
 11
24.151539
 21
6.6183
 31
0.0
  0
LINE
  5
9F
  8
LAYER_1
 10
24.151539
 20
6.6183
 30
0.0
 11
24.151539
 21
6.6183
 31
0.0
  0
LINE
  5
A0
  8
LAYER_1
 10
23.668017
 20
12.813044
 30
0.0
 11
26.155574
 21
13.363537
 31
0.0
  0
LINE
  5
A1
  8
LAYER_1
 10
26.155574
 20
13.363537
 30
0.0
 11
28.953916
 21
14.256054
 31
0.0
  0
LINE
  5
A2
  8
LAYER_1
 10
28.953916
 20
14.256054
 30
0.0
 11
32.047027
 21
15.484829
 31
0.0
  0
LINE
  5
A3
  8
LAYER_1
 10
32.047027
 20
15.484829
 30
0.0
 11
35.418889
 21
17.044094
 31
0.0
  0
LINE
  5
A4
  8
LAYER_1
 10
35.418889
 20
17.044094
 30
0.0
 11
38.879263
 21
18.666097
 31
0.0
  0
LINE
  5
A5
  8
LAYER_1
 10
38.879263
 20
18.666097
 30
0.0
 11
41.446668
 21
19.602897
 31
0.0
  0
LINE
  5
A6
  8
LAYER_1
 10
41.446668
 20
19.602897
 30
0.0
 11
43.760467
 21
20.033619
 31
0.0
  0
LINE
  5
A7
  8
LAYER_1
 10
43.760467
 20
20.033619
 30
0.0
 11
46.460023
 21
20.137388
 31
0.0
  0
LINE
  5
A8
  8
LAYER_1
 10
46.460023
 20
20.137388
 30
0.0
 11
49.137837
 21
20.042756
 31
0.0
  0
LINE
  5
A9
  8
LAYER_1
 10
49.137837
 20
20.042756
 30
0.0
 11
51.706806
 21
19.706285
 31
0.0
  0
LINE
  5
AA
  8
LAYER_1
 10
51.706806
 20
19.706285
 30
0.0
 11
54.600491
 21
19.04911
 31
0.0
  0
LINE
  5
AB
  8
LAYER_1
 10
54.600491
 20
19.04911
 30
0.0
 11
58.25245
 21
17.992369
 31
0.0
  0
LINE
  5
AC
  8
LAYER_1
 10
58.25245
 20
17.992369
 30
0.0
 11
61.611148
 21
17.021293
 31
0.0
  0
LINE
  5
AD
  8
LAYER_1
 10
61.611148
 20
17.021293
 30
0.0
 11
64.34252600000001
 21
16.382013
 31
0.0
  0
LINE
  5
AE
  8
LAYER_1
 10
64.34252600000001
 20
16.382013
 30
0.0
 11
66.682728
 21
16.028295
 31
0.0
  0
LINE
  5
AF
  8
LAYER_1
 10
66.682728
 20
16.028295
 30
0.0
 11
68.867895
 21
15.913902
 31
0.0
  0
LINE
  5
B0
  8
LAYER_1
 10
68.867895
 20
15.913902
 30
0.0
 11
70.76642699999999
 21
16.035803
 31
0.0
  0
LINE
  5
B1
  8
LAYER_1
 10
70.76642699999999
 20
16.035803
 30
0.0
 11
72.74307899999999
 21
16.42004
 31
0.0
  0
LINE
  5
B2
  8
LAYER_1
 10
72.74307899999999
 20
16.42004
 30
0.0
 11
74.80181399999999
 21
17.068511
 31
0.0
  0
LINE
  5
B3
  8
LAYER_1
 10
74.80181399999999
 20
17.068511
 30
0.0
 11
76.946596
 21
17.983113
 31
0.0
  0
LINE
  5
B4
  8
LAYER_1
 10
76.946596
 20
17.983113
 30
0.0
 11
79.181389
 21
19.165745
 31
0.0
  0
LINE
  5
B5
  8
LAYER_1
 10
79.181389
 20
19.165745
 30
0.0
 11
81.510158
 21
20.618305
 31
0.0
  0
LINE
  5
B6
  8
LAYER_1
 10
81.510158
 20
20.618305
 30
0.0
 11
83.93686700000001
 21
22.342692
 31
0.0
  0
LINE
  5
B7
  8
LAYER_1
 10
83.93686700000001
 20
22.342692
 30
0.0
 11
86.465481
 21
24.340803
 31
0.0
  0
LINE
  5
B8
  8
LAYER_1
 10
86.465481
 20
24.340803
 30
0.0
 11
87.993478
 21
25.761964
 31
0.0
  0
LINE
  5
B9
  8
LAYER_1
 10
87.993478
 20
25.761964
 30
0.0
 11
88.18584
 21
26.222267
 31
0.0
  0
LINE
  5
BA
  8
LAYER_1
 10
88.18584
 20
26.222267
 30
0.0
 11
88.15483999999999
 21
26.739691
 31
0.0
  0
LINE
  5
BB
  8
LAYER_1
 10
88.15483999999999
 20
26.739691
 30
0.0
 11
87.955181
 21
27.67825
 31
0.0
  0
LINE
  5
BC
  8
LAYER_1
 10
87.955181
 20
27.67825
 30
0.0
 11
87.827383
 21
27.915532
 31
0.0
  0
LINE
  5
BD
  8
LAYER_1
 10
87.827383
 20
27.915532
 30
0.0
 11
87.646292
 21
27.999325
 31
0.0
  0
LINE
  5
BE
  8
LAYER_1
 10
87.646292
 20
27.999325
 30
0.0
 11
87.020295
 21
27.709969
 31
0.0
  0
LINE
  5
BF
  8
LAYER_1
 10
87.020295
 20
27.709969
 30
0.0
 11
85.869309
 21
26.817234
 31
0.0
  0
LINE
  5
C0
  8
LAYER_1
 10
85.869309
 20
26.817234
 30
0.0
 11
82.482282
 21
24.371148
 31
0.0
  0
LINE
  5
C1
  8
LAYER_1
 10
82.482282
 20
24.371148
 30
0.0
 11
78.88974
 21
22.25042
 31
0.0
  0
LINE
  5
C2
  8
LAYER_1
 10
78.88974
 20
22.25042
 30
0.0
 11
75.43777
 21
20.638432
 31
0.0
  0
LINE
  5
C3
  8
LAYER_1
 10
75.43777
 20
20.638432
 30
0.0
 11
72.472454
 21
19.718568
 31
0.0
  0
LINE
  5
C4
  8
LAYER_1
 10
72.472454
 20
19.718568
 30
0.0
 11
69.267918
 21
19.308466
 31
0.0
  0
LINE
  5
C5
  8
LAYER_1
 10
69.267918
 20
19.308466
 30
0.0
 11
66.041426
 21
19.421135
 31
0.0
  0
LINE
  5
C6
  8
LAYER_1
 10
66.041426
 20
19.421135
 30
0.0
 11
62.376223
 21
20.104725
 31
0.0
  0
LINE
  5
C7
  8
LAYER_1
 10
62.376223
 20
20.104725
 30
0.0
 11
57.855556
 21
21.407388
 31
0.0
  0
LINE
  5
C8
  8
LAYER_1
 10
57.855556
 20
21.407388
 30
0.0
 11
53.926477
 21
22.634671
 31
0.0
  0
LINE
  5
C9
  8
LAYER_1
 10
53.926477
 20
22.634671
 30
0.0
 11
51.358131
 21
23.302821
 31
0.0
  0
LINE
  5
CA
  8
LAYER_1
 10
51.358131
 20
23.302821
 30
0.0
 11
49.322109
 21
23.582342
 31
0.0
  0
LINE
  5
CB
  8
LAYER_1
 10
49.322109
 20
23.582342
 30
0.0
 11
46.99
 21
23.64374
 31
0.0
  0
LINE
  5
CC
  8
LAYER_1
 10
46.99
 20
23.64374
 30
0.0
 11
44.338253
 21
23.555157
 31
0.0
  0
LINE
  5
CD
  8
LAYER_1
 10
44.338253
 20
23.555157
 30
0.0
 11
41.89169
 21
23.101106
 31
0.0
  0
LINE
  5
CE
  8
LAYER_1
 10
41.89169
 20
23.101106
 30
0.0
 11
38.72315
 21
22.029701
 31
0.0
  0
LINE
  5
CF
  8
LAYER_1
 10
38.72315
 20
22.029701
 30
0.0
 11
33.905467
 21
20.08906
 31
0.0
  0
LINE
  5
D0
  8
LAYER_1
 10
33.905467
 20
20.08906
 30
0.0
 11
29.112249
 21
18.200498
 31
0.0
  0
LINE
  5
D1
  8
LAYER_1
 10
29.112249
 20
18.200498
 30
0.0
 11
25.486274
 21
17.073384
 31
0.0
  0
LINE
  5
D2
  8
LAYER_1
 10
25.486274
 20
17.073384
 30
0.0
 11
22.17964
 21
16.499703
 31
0.0
  0
LINE
  5
D3
  8
LAYER_1
 10
22.17964
 20
16.499703
 30
0.0
 11
18.344444
 21
16.271435
 31
0.0
  0
LINE
  5
D4
  8
LAYER_1
 10
18.344444
 20
16.271435
 30
0.0
 11
14.446832
 21
16.253532
 31
0.0
  0
LINE
  5
D5
  8
LAYER_1
 10
14.446832
 20
16.253532
 30
0.0
 11
11.615126
 21
16.396871
 31
0.0
  0
LINE
  5
D6
  8
LAYER_1
 10
11.615126
 20
16.396871
 30
0.0
 11
9.542474
 21
16.655034
 31
0.0
  0
LINE
  5
D7
  8
LAYER_1
 10
9.542474
 20
16.655034
 30
0.0
 11
9.737361
 21
15.080101
 31
0.0
  0
LINE
  5
D8
  8
LAYER_1
 10
9.737361
 20
15.080101
 30
0.0
 11
10.006196
 21
13.427501
 31
0.0
  0
LINE
  5
D9
  8
LAYER_1
 10
10.006196
 20
13.427501
 30
0.0
 11
12.730627
 21
12.963937
 31
0.0
  0
LINE
  5
DA
  8
LAYER_1
 10
12.730627
 20
12.963937
 30
0.0
 11
15.464909
 21
12.68612
 31
0.0
  0
LINE
  5
DB
  8
LAYER_1
 10
15.464909
 20
12.68612
 30
0.0
 11
18.504617
 21
12.564152
 31
0.0
  0
LINE
  5
DC
  8
LAYER_1
 10
18.504617
 20
12.564152
 30
0.0
 11
21.391677
 21
12.604353
 31
0.0
  0
LINE
  5
DD
  8
LAYER_1
 10
21.391677
 20
12.604353
 30
0.0
 11
23.668017
 21
12.813044
 31
0.0
  0
LINE
  5
DE
  8
LAYER_1
 10
23.668017
 20
12.813044
 30
0.0
 11
23.668017
 21
12.813044
 31
0.0
  0
LINE
  5
DF
  8
LAYER_1
 10
23.142222
 20
19.697601
 30
0.0
 11
25.262276
 21
20.230888
 31
0.0
  0
LINE
  5
E0
  8
LAYER_1
 10
25.262276
 20
20.230888
 30
0.0
 11
27.542813
 21
20.961665
 31
0.0
  0
LINE
  5
E1
  8
LAYER_1
 10
27.542813
 20
20.961665
 30
0.0
 11
34.768451
 21
23.782782
 31
0.0
  0
LINE
  5
E2
  8
LAYER_1
 10
34.768451
 20
23.782782
 30
0.0
 11
38.456636
 21
25.181054
 31
0.0
  0
LINE
  5
E3
  8
LAYER_1
 10
38.456636
 20
25.181054
 30
0.0
 11
41.53377
 21
26.08661
 31
0.0
  0
LINE
  5
E4
  8
LAYER_1
 10
41.53377
 20
26.08661
 30
0.0
 11
44.318908
 21
26.575336
 31
0.0
  0
LINE
  5
E5
  8
LAYER_1
 10
44.318908
 20
26.575336
 30
0.0
 11
47.131111
 21
26.723116
 31
0.0
  0
LINE
  5
E6
  8
LAYER_1
 10
47.131111
 20
26.723116
 30
0.0
 11
49.603161
 21
26.625709
 31
0.0
  0
LINE
  5
E7
  8
LAYER_1
 10
49.603161
 20
26.625709
 30
0.0
 11
52.151409
 21
26.2542
 31
0.0
  0
LINE
  5
E8
  8
LAYER_1
 10
52.151409
 20
26.2542
 30
0.0
 11
55.34516
 21
25.496645
 31
0.0
  0
LINE
  5
E9
  8
LAYER_1
 10
55.34516
 20
25.496645
 30
0.0
 11
59.75372
 21
24.2411
 31
0.0
  0
LINE
  5
EA
  8
LAYER_1
 10
59.75372
 20
24.2411
 30
0.0
 11
63.698955
 21
23.143046
 31
0.0
  0
LINE
  5
EB
  8
LAYER_1
 10
63.698955
 20
23.143046
 30
0.0
 11
66.990607
 21
22.439793
 31
0.0
  0
LINE
  5
EC
  8
LAYER_1
 10
66.990607
 20
22.439793
 30
0.0
 11
69.822186
 21
22.164464
 31
0.0
  0
LINE
  5
ED
  8
LAYER_1
 10
69.822186
 20
22.164464
 30
0.0
 11
72.38720499999999
 21
22.350181
 31
0.0
  0
LINE
  5
EE
  8
LAYER_1
 10
72.38720499999999
 20
22.350181
 30
0.0
 11
74.879175
 21
23.030068
 31
0.0
  0
LINE
  5
EF
  8
LAYER_1
 10
74.879175
 20
23.030068
 30
0.0
 11
77.49160500000001
 21
24.237249
 31
0.0
  0
LINE
  5
F0
  8
LAYER_1
 10
77.49160500000001
 20
24.237249
 30
0.0
 11
80.418009
 21
26.004847
 31
0.0
  0
LINE
  5
F1
  8
LAYER_1
 10
80.418009
 20
26.004847
 30
0.0
 11
83.85189699999999
 21
28.365985
 31
0.0
  0
LINE
  5
F2
  8
LAYER_1
 10
83.85189699999999
 20
28.365985
 30
0.0
 11
86.95293700000001
 21
30.706467
 31
0.0
  0
LINE
  5
F3
  8
LAYER_1
 10
86.95293700000001
 20
30.706467
 30
0.0
 11
87.318203
 21
31.265017
 31
0.0
  0
LINE
  5
F4
  8
LAYER_1
 10
87.318203
 20
31.265017
 30
0.0
 11
87.291009
 21
31.81458
 31
0.0
  0
LINE
  5
F5
  8
LAYER_1
 10
87.291009
 20
31.81458
 30
0.0
 11
87.034829
 21
32.917199
 31
0.0
  0
LINE
  5
F6
  8
LAYER_1
 10
87.034829
 20
32.917199
 30
0.0
 11
86.86250699999999
 21
33.179035
 31
0.0
  0
LINE
  5
F7
  8
LAYER_1
 10
86.86250699999999
 20
33.179035
 30
0.0
 11
86.602744
 21
33.240491
 31
0.0
  0
LINE
  5
F8
  8
LAYER_1
 10
86.602744
 20
33.240491
 30
0.0
 11
85.64704
 21
32.740078
 31
0.0
  0
LINE
  5
F9
  8
LAYER_1
 10
85.64704
 20
32.740078
 30
0.0
 11
83.81999999999999
 21
31.371581
 31
0.0
  0
LINE
  5
FA
  8
LAYER_1
 10
83.81999999999999
 20
31.371581
 30
0.0
 11
80.276179
 21
28.926527
 31
0.0
  0
LINE
  5
FB
  8
LAYER_1
 10
80.276179
 20
28.926527
 30
0.0
 11
76.927154
 21
27.177528
 31
0.0
  0
LINE
  5
FC
  8
LAYER_1
 10
76.927154
 20
27.177528
 30
0.0
 11
73.673164
 21
26.081601
 31
0.0
  0
LINE
  5
FD
  8
LAYER_1
 10
73.673164
 20
26.081601
 30
0.0
 11
70.414444
 21
25.595762
 31
0.0
  0
LINE
  5
FE
  8
LAYER_1
 10
70.414444
 20
25.595762
 30
0.0
 11
68.52763400000001
 21
25.556578
 31
0.0
  0
LINE
  5
FF
  8
LAYER_1
 10
68.52763400000001
 20
25.556578
 30
0.0
 11
66.435011
 21
25.817482
 31
0.0
  0
LINE
  5
100
  8
LAYER_1
 10
66.435011
 20
25.817482
 30
0.0
 11
57.562445
 21
28.00134
 31
0.0
  0
LINE
  5
101
  8
LAYER_1
 10
57.562445
 20
28.00134
 30
0.0
 11
53.91742
 21
28.904033
 31
0.0
  0
LINE
  5
102
  8
LAYER_1
 10
53.91742
 20
28.904033
 30
0.0
 11
50.828597
 21
29.514028
 31
0.0
  0
LINE
  5
103
  8
LAYER_1
 10
50.828597
 20
29.514028
 30
0.0
 11
48.096066
 21
29.816994
 31
0.0
  0
LINE
  5
104
  8
LAYER_1
 10
48.096066
 20
29.816994
 30
0.0
 11
45.519916
 21
29.798599
 31
0.0
  0
LINE
  5
105
  8
LAYER_1
 10
45.519916
 20
29.798599
 30
0.0
 11
42.900238
 21
29.444513
 31
0.0
  0
LINE
  5
106
  8
LAYER_1
 10
42.900238
 20
29.444513
 30
0.0
 11
40.037123
 21
28.740405
 31
0.0
  0
LINE
  5
107
  8
LAYER_1
 10
40.037123
 20
28.740405
 30
0.0
 11
36.730659
 21
27.671943
 31
0.0
  0
LINE
  5
108
  8
LAYER_1
 10
36.730659
 20
27.671943
 30
0.0
 11
32.780938
 21
26.224796
 31
0.0
  0
LINE
  5
109
  8
LAYER_1
 10
32.780938
 20
26.224796
 30
0.0
 11
27.077281
 21
24.269664
 31
0.0
  0
LINE
  5
10A
  8
LAYER_1
 10
27.077281
 20
24.269664
 30
0.0
 11
21.819702
 21
22.900152
 31
0.0
  0
LINE
  5
10B
  8
LAYER_1
 10
21.819702
 20
22.900152
 30
0.0
 11
16.90619
 21
22.094443
 31
0.0
  0
LINE
  5
10C
  8
LAYER_1
 10
16.90619
 20
22.094443
 30
0.0
 11
12.234734
 21
21.830721
 31
0.0
  0
LINE
  5
10D
  8
LAYER_1
 10
12.234734
 20
21.830721
 30
0.0
 11
8.455913000000001
 21
21.830721
 31
0.0
  0
LINE
  5
10E
  8
LAYER_1
 10
8.455913000000001
 20
21.830721
 30
0.0
 11
8.625973
 21
21.05461
 31
0.0
  0
LINE
  5
10F
  8
LAYER_1
 10
8.625973
 20
21.05461
 30
0.0
 11
9.11832881161522
 21
19.00041790129071
 31
0.0
  0
LINE
  5
110
  8
LAYER_1
 10
9.11832881161522
 20
19.00041790129071
 30
0.0
 11
9.564196904780188
 21
18.97165221786071
 31
0.0
  0
LINE
  5
111
  8
LAYER_1
 10
9.564196904780188
 20
18.97165221786071
 30
0.0
 11
10.74358992541011
 21
18.91412085100071
 31
0.0
  0
LINE
  5
112
  8
LAYER_1
 10
10.74358992541011
 20
18.91412085100071
 30
0.0
 11
14.28176898729987
 21
18.82782380071072
 31
0.0
  0
LINE
  5
113
  8
LAYER_1
 10
14.28176898729987
 20
18.82782380071072
 30
0.0
 11
16.394629
 21
18.887839
 31
0.0
  0
LINE
  5
114
  8
LAYER_1
 10
16.394629
 20
18.887839
 30
0.0
 11
18.636364
 21
19.005951
 31
0.0
  0
LINE
  5
115
  8
LAYER_1
 10
18.636364
 20
19.005951
 30
0.0
 11
20.908528
 21
19.277856
 31
0.0
  0
LINE
  5
116
  8
LAYER_1
 10
20.908528
 20
19.277856
 30
0.0
 11
23.142222
 21
19.697601
 31
0.0
  0
LINE
  5
117
  8
LAYER_1
 10
23.142222
 20
19.697601
 30
0.0
 11
23.142222
 21
19.697601
 31
0.0
  0
LINE
  5
118
  8
LAYER_1
 10
12.417778
 20
23.782759
 30
0.0
 11
12.323293
 21
24.186063
 31
0.0
  0
LINE
  5
119
  8
LAYER_1
 10
12.323293
 20
24.186063
 30
0.0
 11
12.081079
 21
24.417855
 31
0.0
  0
LINE
  5
11A
  8
LAYER_1
 10
12.081079
 20
24.417855
 30
0.0
 11
11.752999
 21
24.449554
 31
0.0
  0
LINE
  5
11B
  8
LAYER_1
 10
11.752999
 20
24.449554
 30
0.0
 11
11.400917
 21
24.252578
 31
0.0
  0
LINE
  5
11C
  8
LAYER_1
 10
11.400917
 20
24.252578
 30
0.0
 11
11.19695
 21
23.918553
 31
0.0
  0
LINE
  5
11D
  8
LAYER_1
 10
11.19695
 20
23.918553
 30
0.0
 11
11.232353
 21
23.590675
 31
0.0
  0
LINE
  5
11E
  8
LAYER_1
 10
11.232353
 20
23.590675
 30
0.0
 11
11.472691
 21
23.341063
 31
0.0
  0
LINE
  5
11F
  8
LAYER_1
 10
11.472691
 20
23.341063
 30
0.0
 11
11.883528
 21
23.241833
 31
0.0
  0
LINE
  5
120
  8
LAYER_1
 10
11.883528
 20
23.241833
 30
0.0
 11
12.277537
 21
23.383826
 31
0.0
  0
LINE
  5
121
  8
LAYER_1
 10
12.277537
 20
23.383826
 30
0.0
 11
12.417778
 21
23.782759
 31
0.0
  0
LINE
  5
122
  8
LAYER_1
 10
12.417778
 20
23.782759
 30
0.0
 11
12.417778
 21
23.782759
 31
0.0
  0
LINE
  5
123
  8
LAYER_1
 10
17.460802
 20
23.524055
 30
0.0
 11
17.659867
 21
23.69598
 31
0.0
  0
LINE
  5
124
  8
LAYER_1
 10
17.659867
 20
23.69598
 30
0.0
 11
17.693097
 21
24.085717
 31
0.0
  0
LINE
  5
125
  8
LAYER_1
 10
17.693097
 20
24.085717
 30
0.0
 11
17.579332
 21
24.504207
 31
0.0
  0
LINE
  5
126
  8
LAYER_1
 10
17.579332
 20
24.504207
 30
0.0
 11
17.337409
 21
24.762392
 31
0.0
  0
LINE
  5
127
  8
LAYER_1
 10
17.337409
 20
24.762392
 30
0.0
 11
16.744286
 21
24.827095
 31
0.0
  0
LINE
  5
128
  8
LAYER_1
 10
16.744286
 20
24.827095
 30
0.0
 11
16.289983
 21
24.63095
 31
0.0
  0
LINE
  5
129
  8
LAYER_1
 10
16.289983
 20
24.63095
 30
0.0
 11
16.118414
 21
24.296064
 31
0.0
  0
LINE
  5
12A
  8
LAYER_1
 10
16.118414
 20
24.296064
 30
0.0
 11
16.373492
 21
23.944543
 31
0.0
  0
LINE
  5
12B
  8
LAYER_1
 10
16.373492
 20
23.944543
 30
0.0
 11
16.51966
 21
23.728086
 31
0.0
  0
LINE
  5
12C
  8
LAYER_1
 10
16.51966
 20
23.728086
 30
0.0
 11
16.468306
 21
23.456592
 31
0.0
  0
LINE
  5
12D
  8
LAYER_1
 10
16.468306
 20
23.456592
 30
0.0
 11
16.451013
 21
23.273431
 31
0.0
  0
LINE
  5
12E
  8
LAYER_1
 10
16.451013
 20
23.273431
 30
0.0
 11
16.769007
 21
23.334983
 31
0.0
  0
LINE
  5
12F
  8
LAYER_1
 10
16.769007
 20
23.334983
 30
0.0
 11
17.460802
 21
23.524055
 31
0.0
  0
LINE
  5
130
  8
LAYER_1
 10
17.460802
 20
23.524055
 30
0.0
 11
17.460802
 21
23.524055
 31
0.0
  0
LINE
  5
131
  8
LAYER_1
 10
22.471917
 20
24.888294
 30
0.0
 11
22.294851
 21
25.301912
 31
0.0
  0
LINE
  5
132
  8
LAYER_1
 10
22.294851
 20
25.301912
 30
0.0
 11
21.916071
 21
25.559738
 31
0.0
  0
LINE
  5
133
  8
LAYER_1
 10
21.916071
 20
25.559738
 30
0.0
 11
21.457076
 21
25.616192
 31
0.0
  0
LINE
  5
134
  8
LAYER_1
 10
21.457076
 20
25.616192
 30
0.0
 11
21.039366
 21
25.425695
 31
0.0
  0
LINE
  5
135
  8
LAYER_1
 10
21.039366
 20
25.425695
 30
0.0
 11
20.819194
 21
25.057828
 31
0.0
  0
LINE
  5
136
  8
LAYER_1
 10
20.819194
 20
25.057828
 30
0.0
 11
21.125428
 21
24.628625
 31
0.0
  0
LINE
  5
137
  8
LAYER_1
 10
21.125428
 20
24.628625
 30
0.0
 11
21.581464
 21
24.348297
 31
0.0
  0
LINE
  5
138
  8
LAYER_1
 10
21.581464
 20
24.348297
 30
0.0
 11
22.029121
 21
24.311869
 31
0.0
  0
LINE
  5
139
  8
LAYER_1
 10
22.029121
 20
24.311869
 30
0.0
 11
22.361554
 21
24.498737
 31
0.0
  0
LINE
  5
13A
  8
LAYER_1
 10
22.361554
 20
24.498737
 30
0.0
 11
22.471917
 21
24.888294
 31
0.0
  0
LINE
  5
13B
  8
LAYER_1
 10
22.471917
 20
24.888294
 30
0.0
 11
22.471917
 21
24.888294
 31
0.0
  0
LINE
  5
13C
  8
LAYER_1
 10
14.475565
 20
26.348025
 30
0.0
 11
14.44522
 21
26.762594
 31
0.0
  0
LINE
  5
13D
  8
LAYER_1
 10
14.44522
 20
26.762594
 30
0.0
 11
14.109565
 21
26.992898
 31
0.0
  0
LINE
  5
13E
  8
LAYER_1
 10
14.109565
 20
26.992898
 30
0.0
 11
13.627948
 21
27.038097
 31
0.0
  0
LINE
  5
13F
  8
LAYER_1
 10
13.627948
 20
27.038097
 30
0.0
 11
13.293687
 21
26.900566
 31
0.0
  0
LINE
  5
140
  8
LAYER_1
 10
13.293687
 20
26.900566
 30
0.0
 11
13.129546
 21
26.600302
 31
0.0
  0
LINE
  5
141
  8
LAYER_1
 10
13.129546
 20
26.600302
 30
0.0
 11
13.158287
 21
26.157297
 31
0.0
  0
LINE
  5
142
  8
LAYER_1
 10
13.158287
 20
26.157297
 30
0.0
 11
13.414868
 21
25.775062
 31
0.0
  0
LINE
  5
143
  8
LAYER_1
 10
13.414868
 20
25.775062
 30
0.0
 11
13.811381
 21
25.692678
 31
0.0
  0
LINE
  5
144
  8
LAYER_1
 10
13.811381
 20
25.692678
 30
0.0
 11
14.210667
 21
25.890286
 31
0.0
  0
LINE
  5
145
  8
LAYER_1
 10
14.210667
 20
25.890286
 30
0.0
 11
14.475565
 21
26.348025
 31
0.0
  0
LINE
  5
146
  8
LAYER_1
 10
14.475565
 20
26.348025
 30
0.0
 11
14.475565
 21
26.348025
 31
0.0
  0
LINE
  5
147
  8
LAYER_1
 10
26.952222
 20
26.251697
 30
0.0
 11
26.819848
 21
26.714825
 31
0.0
  0
LINE
  5
148
  8
LAYER_1
 10
26.819848
 20
26.714825
 30
0.0
 11
26.387777
 21
26.837935
 31
0.0
  0
LINE
  5
149
  8
LAYER_1
 10
26.387777
 20
26.837935
 30
0.0
 11
25.812641
 21
26.740104
 31
0.0
  0
LINE
  5
14A
  8
LAYER_1
 10
25.812641
 20
26.740104
 30
0.0
 11
25.447044
 21
26.533664
 31
0.0
  0
LINE
  5
14B
  8
LAYER_1
 10
25.447044
 20
26.533664
 30
0.0
 11
25.325382
 21
26.253
 31
0.0
  0
LINE
  5
14C
  8
LAYER_1
 10
25.325382
 20
26.253
 30
0.0
 11
25.48205
 21
25.932495
 31
0.0
  0
LINE
  5
14D
  8
LAYER_1
 10
25.48205
 20
25.932495
 30
0.0
 11
25.943252
 21
25.635209
 31
0.0
  0
LINE
  5
14E
  8
LAYER_1
 10
25.943252
 20
25.635209
 30
0.0
 11
26.422902
 21
25.606875
 31
0.0
  0
LINE
  5
14F
  8
LAYER_1
 10
26.422902
 20
25.606875
 30
0.0
 11
26.79967
 21
25.821153
 31
0.0
  0
LINE
  5
150
  8
LAYER_1
 10
26.79967
 20
25.821153
 30
0.0
 11
26.952222
 21
26.251697
 31
0.0
  0
LINE
  5
151
  8
LAYER_1
 10
26.952222
 20
26.251697
 30
0.0
 11
26.952222
 21
26.251697
 31
0.0
  0
LINE
  5
152
  8
LAYER_1
 10
19.394222
 20
26.759528
 30
0.0
 11
19.292573
 21
27.234691
 31
0.0
  0
LINE
  5
153
  8
LAYER_1
 10
19.292573
 20
27.234691
 30
0.0
 11
19.069136
 21
27.506819
 31
0.0
  0
LINE
  5
154
  8
LAYER_1
 10
19.069136
 20
27.506819
 30
0.0
 11
18.741666
 21
27.565256
 31
0.0
  0
LINE
  5
155
  8
LAYER_1
 10
18.741666
 20
27.565256
 30
0.0
 11
18.327922
 21
27.399348
 31
0.0
  0
LINE
  5
156
  8
LAYER_1
 10
18.327922
 20
27.399348
 30
0.0
 11
18.00819
 21
27.060523
 31
0.0
  0
LINE
  5
157
  8
LAYER_1
 10
18.00819
 20
27.060523
 30
0.0
 11
18.121122
 21
26.639059
 31
0.0
  0
LINE
  5
158
  8
LAYER_1
 10
18.121122
 20
26.639059
 30
0.0
 11
18.502009
 21
26.277239
 31
0.0
  0
LINE
  5
159
  8
LAYER_1
 10
18.502009
 20
26.277239
 30
0.0
 11
18.930105
 21
26.185128
 31
0.0
  0
LINE
  5
15A
  8
LAYER_1
 10
18.930105
 20
26.185128
 30
0.0
 11
19.271985
 21
26.3501
 31
0.0
  0
LINE
  5
15B
  8
LAYER_1
 10
19.271985
 20
26.3501
 30
0.0
 11
19.394222
 21
26.759528
 31
0.0
  0
LINE
  5
15C
  8
LAYER_1
 10
19.394222
 20
26.759528
 30
0.0
 11
19.394222
 21
26.759528
 31
0.0
  0
LINE
  5
15D
  8
LAYER_1
 10
31.503027
 20
27.710512
 30
0.0
 11
31.353298
 21
28.111214
 31
0.0
  0
LINE
  5
15E
  8
LAYER_1
 10
31.353298
 20
28.111214
 30
0.0
 11
31.035879
 21
28.337376
 31
0.0
  0
LINE
  5
15F
  8
LAYER_1
 10
31.035879
 20
28.337376
 30
0.0
 11
30.641022
 21
28.357759
 31
0.0
  0
LINE
  5
160
  8
LAYER_1
 10
30.641022
 20
28.357759
 30
0.0
 11
30.258978
 21
28.141124
 31
0.0
  0
LINE
  5
161
  8
LAYER_1
 10
30.258978
 20
28.141124
 30
0.0
 11
30.028335
 21
27.764589
 31
0.0
  0
LINE
  5
162
  8
LAYER_1
 10
30.028335
 20
27.764589
 30
0.0
 11
30.244511
 21
27.381416
 31
0.0
  0
LINE
  5
163
  8
LAYER_1
 10
30.244511
 20
27.381416
 30
0.0
 11
30.64393
 21
27.137118
 31
0.0
  0
LINE
  5
164
  8
LAYER_1
 10
30.64393
 20
27.137118
 30
0.0
 11
31.065411
 21
27.131086
 31
0.0
  0
LINE
  5
165
  8
LAYER_1
 10
31.065411
 20
27.131086
 30
0.0
 11
31.391071
 21
27.332493
 31
0.0
  0
LINE
  5
166
  8
LAYER_1
 10
31.391071
 20
27.332493
 30
0.0
 11
31.503027
 21
27.710512
 31
0.0
  0
LINE
  5
167
  8
LAYER_1
 10
31.503027
 20
27.710512
 30
0.0
 11
31.503027
 21
27.710512
 31
0.0
  0
LINE
  5
168
  8
LAYER_1
 10
24.267772
 20
27.475164
 30
0.0
 11
24.41897
 21
27.646067
 31
0.0
  0
LINE
  5
169
  8
LAYER_1
 10
24.41897
 20
27.646067
 30
0.0
 11
24.346218
 21
28.034858
 31
0.0
  0
LINE
  5
16A
  8
LAYER_1
 10
24.346218
 20
28.034858
 30
0.0
 11
24.118501
 21
28.455661
 31
0.0
  0
LINE
  5
16B
  8
LAYER_1
 10
24.118501
 20
28.455661
 30
0.0
 11
23.804803
 21
28.722601
 31
0.0
  0
LINE
  5
16C
  8
LAYER_1
 10
23.804803
 20
28.722601
 30
0.0
 11
23.406242
 21
28.732537
 31
0.0
  0
LINE
  5
16D
  8
LAYER_1
 10
23.406242
 20
28.732537
 30
0.0
 11
23.024708
 21
28.535118
 31
0.0
  0
LINE
  5
16E
  8
LAYER_1
 10
23.024708
 20
28.535118
 30
0.0
 11
22.847906
 21
28.133675
 31
0.0
  0
LINE
  5
16F
  8
LAYER_1
 10
22.847906
 20
28.133675
 30
0.0
 11
22.952959
 21
27.688288
 31
0.0
  0
LINE
  5
170
  8
LAYER_1
 10
22.952959
 20
27.688288
 30
0.0
 11
23.252363
 21
27.365214
 31
0.0
  0
LINE
  5
171
  8
LAYER_1
 10
23.252363
 20
27.365214
 30
0.0
 11
23.658613
 21
27.330709
 31
0.0
  0
LINE
  5
172
  8
LAYER_1
 10
23.658613
 20
27.330709
 30
0.0
 11
24.267772
 21
27.475164
 31
0.0
  0
LINE
  5
173
  8
LAYER_1
 10
24.267772
 20
27.475164
 30
0.0
 11
24.267772
 21
27.475164
 31
0.0
  0
LINE
  5
174
  8
LAYER_1
 10
11.378197
 20
28.35064
 30
0.0
 11
11.362936
 21
28.717234
 31
0.0
  0
LINE
  5
175
  8
LAYER_1
 10
11.362936
 20
28.717234
 30
0.0
 11
11.141246
 21
28.970311
 31
0.0
  0
LINE
  5
176
  8
LAYER_1
 10
11.141246
 20
28.970311
 30
0.0
 11
10.772081
 21
29.074251
 31
0.0
  0
LINE
  5
177
  8
LAYER_1
 10
10.772081
 20
29.074251
 30
0.0
 11
10.314393
 21
28.99343
 31
0.0
  0
LINE
  5
178
  8
LAYER_1
 10
10.314393
 20
28.99343
 30
0.0
 11
10.056519
 21
28.765036
 31
0.0
  0
LINE
  5
179
  8
LAYER_1
 10
10.056519
 20
28.765036
 30
0.0
 11
10.211795
 21
28.343768
 31
0.0
  0
LINE
  5
17A
  8
LAYER_1
 10
10.211795
 20
28.343768
 30
0.0
 11
10.537888
 21
27.987148
 31
0.0
  0
LINE
  5
17B
  8
LAYER_1
 10
10.537888
 20
27.987148
 30
0.0
 11
10.88112
 21
27.869656
 31
0.0
  0
LINE
  5
17C
  8
LAYER_1
 10
10.88112
 20
27.869656
 30
0.0
 11
11.18129
 21
27.990938
 31
0.0
  0
LINE
  5
17D
  8
LAYER_1
 10
11.18129
 20
27.990938
 30
0.0
 11
11.378197
 21
28.35064
 31
0.0
  0
LINE
  5
17E
  8
LAYER_1
 10
11.378197
 20
28.35064
 30
0.0
 11
11.378197
 21
28.35064
 31
0.0
  0
LINE
  5
17F
  8
LAYER_1
 10
16.651111
 20
28.492392
 30
0.0
 11
16.543281
 21
28.980403
 31
0.0
  0
LINE
  5
180
  8
LAYER_1
 10
16.543281
 20
28.980403
 30
0.0
 11
16.266398
 21
29.322776
 31
0.0
  0
LINE
  5
181
  8
LAYER_1
 10
16.266398
 20
29.322776
 30
0.0
 11
15.89037
 21
29.46737
 31
0.0
  0
LINE
  5
182
  8
LAYER_1
 10
15.89037
 20
29.46737
 30
0.0
 11
15.485107
 21
29.362043
 31
0.0
  0
LINE
  5
183
  8
LAYER_1
 10
15.485107
 20
29.362043
 30
0.0
 11
15.182256
 21
29.032527
 31
0.0
  0
LINE
  5
184
  8
LAYER_1
 10
15.182256
 20
29.032527
 30
0.0
 11
15.300661
 21
28.611795
 31
0.0
  0
LINE
  5
185
  8
LAYER_1
 10
15.300661
 20
28.611795
 30
0.0
 11
15.665725
 21
28.268767
 31
0.0
  0
LINE
  5
186
  8
LAYER_1
 10
15.665725
 20
28.268767
 30
0.0
 11
16.112825
 21
28.125653
 31
0.0
  0
LINE
  5
187
  8
LAYER_1
 10
16.112825
 20
28.125653
 30
0.0
 11
16.491455
 21
28.195759
 31
0.0
  0
LINE
  5
188
  8
LAYER_1
 10
16.491455
 20
28.195759
 30
0.0
 11
16.651111
 21
28.492392
 31
0.0
  0
LINE
  5
189
  8
LAYER_1
 10
16.651111
 20
28.492392
 30
0.0
 11
16.651111
 21
28.492392
 31
0.0
  0
LINE
  5
18A
  8
LAYER_1
 10
35.780698
 20
28.500966
 30
0.0
 11
35.972694
 21
28.572255
 31
0.0
  0
LINE
  5
18B
  8
LAYER_1
 10
35.972694
 20
28.572255
 30
0.0
 11
36.023917
 21
29.021802
 31
0.0
  0
LINE
  5
18C
  8
LAYER_1
 10
36.023917
 20
29.021802
 30
0.0
 11
35.862265
 21
29.5607
 31
0.0
  0
LINE
  5
18D
  8
LAYER_1
 10
35.862265
 20
29.5607
 30
0.0
 11
35.313707
 21
29.596787
 31
0.0
  0
LINE
  5
18E
  8
LAYER_1
 10
35.313707
 20
29.596787
 30
0.0
 11
34.534786
 21
29.310278
 31
0.0
  0
LINE
  5
18F
  8
LAYER_1
 10
34.534786
 20
29.310278
 30
0.0
 11
34.536514
 21
29.052567
 31
0.0
  0
LINE
  5
190
  8
LAYER_1
 10
34.536514
 20
29.052567
 30
0.0
 11
34.754637
 21
28.642791
 31
0.0
  0
LINE
  5
191
  8
LAYER_1
 10
34.754637
 20
28.642791
 30
0.0
 11
35.071817
 21
28.295612
 31
0.0
  0
LINE
  5
192
  8
LAYER_1
 10
35.071817
 20
28.295612
 30
0.0
 11
35.307081
 21
28.369244
 31
0.0
  0
LINE
  5
193
  8
LAYER_1
 10
35.307081
 20
28.369244
 30
0.0
 11
35.524504
 21
28.534625
 31
0.0
  0
LINE
  5
194
  8
LAYER_1
 10
35.524504
 20
28.534625
 30
0.0
 11
35.780698
 21
28.500966
 31
0.0
  0
LINE
  5
195
  8
LAYER_1
 10
35.780698
 20
28.500966
 30
0.0
 11
35.780698
 21
28.500966
 31
0.0
  0
LINE
  5
196
  8
LAYER_1
 10
73.716972
 20
29.060147
 30
0.0
 11
76.539194
 21
30.017888
 31
0.0
  0
LINE
  5
197
  8
LAYER_1
 10
76.539194
 20
30.017888
 30
0.0
 11
80.54807700000001
 21
32.337762
 31
0.0
  0
LINE
  5
198
  8
LAYER_1
 10
80.54807700000001
 20
32.337762
 30
0.0
 11
85.009798
 21
35.280986
 31
0.0
  0
LINE
  5
199
  8
LAYER_1
 10
85.009798
 20
35.280986
 30
0.0
 11
86.15813
 21
36.280009
 31
0.0
  0
LINE
  5
19A
  8
LAYER_1
 10
86.15813
 20
36.280009
 30
0.0
 11
86.293791
 21
36.669522
 31
0.0
  0
LINE
  5
19B
  8
LAYER_1
 10
86.293791
 20
36.669522
 30
0.0
 11
86.245457
 21
37.149537
 31
0.0
  0
LINE
  5
19C
  8
LAYER_1
 10
86.245457
 20
37.149537
 30
0.0
 11
86.077778
 21
38.375997
 31
0.0
  0
LINE
  5
19D
  8
LAYER_1
 10
86.077778
 20
38.375997
 30
0.0
 11
86.002144
 21
38.684969
 31
0.0
  0
LINE
  5
19E
  8
LAYER_1
 10
86.002144
 20
38.684969
 30
0.0
 11
85.71196999999999
 21
38.685409
 31
0.0
  0
LINE
  5
19F
  8
LAYER_1
 10
85.71196999999999
 20
38.685409
 30
0.0
 11
84.108355
 21
37.613757
 31
0.0
  0
LINE
  5
1A0
  8
LAYER_1
 10
84.108355
 20
37.613757
 30
0.0
 11
81.68037099999999
 21
35.997119
 31
0.0
  0
LINE
  5
1A1
  8
LAYER_1
 10
81.68037099999999
 20
35.997119
 30
0.0
 11
78.9388
 21
34.522851
 31
0.0
  0
LINE
  5
1A2
  8
LAYER_1
 10
78.9388
 20
34.522851
 30
0.0
 11
76.093705
 21
33.292644
 31
0.0
  0
LINE
  5
1A3
  8
LAYER_1
 10
76.093705
 20
33.292644
 30
0.0
 11
73.355149
 21
32.408189
 31
0.0
  0
LINE
  5
1A4
  8
LAYER_1
 10
73.355149
 20
32.408189
 30
0.0
 11
70.632599
 21
32.005948
 31
0.0
  0
LINE
  5
1A5
  8
LAYER_1
 10
70.632599
 20
32.005948
 30
0.0
 11
67.397059
 21
32.101262
 31
0.0
  0
LINE
  5
1A6
  8
LAYER_1
 10
67.397059
 20
32.101262
 30
0.0
 11
63.547888
 21
32.704047
 31
0.0
  0
LINE
  5
1A7
  8
LAYER_1
 10
63.547888
 20
32.704047
 30
0.0
 11
58.984444
 21
33.824219
 31
0.0
  0
LINE
  5
1A8
  8
LAYER_1
 10
58.984444
 20
33.824219
 30
0.0
 11
55.176498
 21
34.788037
 31
0.0
  0
LINE
  5
1A9
  8
LAYER_1
 10
55.176498
 20
34.788037
 30
0.0
 11
51.412931
 21
35.567136
 31
0.0
  0
LINE
  5
1AA
  8
LAYER_1
 10
51.412931
 20
35.567136
 30
0.0
 11
48.083732
 21
36.089933
 31
0.0
  0
LINE
  5
1AB
  8
LAYER_1
 10
48.083732
 20
36.089933
 30
0.0
 11
45.578889
 21
36.284843
 31
0.0
  0
LINE
  5
1AC
  8
LAYER_1
 10
45.578889
 20
36.284843
 30
0.0
 11
43.677182
 21
36.201322
 31
0.0
  0
LINE
  5
1AD
  8
LAYER_1
 10
43.677182
 20
36.201322
 30
0.0
 11
41.696474
 21
35.959889
 31
0.0
  0
LINE
  5
1AE
  8
LAYER_1
 10
41.696474
 20
35.959889
 30
0.0
 11
39.845893
 21
35.593711
 31
0.0
  0
LINE
  5
1AF
  8
LAYER_1
 10
39.845893
 20
35.593711
 30
0.0
 11
38.334566
 21
35.135954
 31
0.0
  0
LINE
  5
1B0
  8
LAYER_1
 10
38.334566
 20
35.135954
 30
0.0
 11
37.581352
 21
34.844323
 31
0.0
  0
LINE
  5
1B1
  8
LAYER_1
 10
37.581352
 20
34.844323
 30
0.0
 11
37.984232
 21
33.488075
 31
0.0
  0
LINE
  5
1B2
  8
LAYER_1
 10
37.984232
 20
33.488075
 30
0.0
 11
38.503905
 21
31.812971
 31
0.0
  0
LINE
  5
1B3
  8
LAYER_1
 10
38.503905
 20
31.812971
 30
0.0
 11
38.717111
 21
31.707866
 31
0.0
  0
LINE
  5
1B4
  8
LAYER_1
 10
38.717111
 20
31.707866
 30
0.0
 11
39.252031
 21
31.729359
 31
0.0
  0
LINE
  5
1B5
  8
LAYER_1
 10
39.252031
 20
31.729359
 30
0.0
 11
41.394236
 21
32.165204
 31
0.0
  0
LINE
  5
1B6
  8
LAYER_1
 10
41.394236
 20
32.165204
 30
0.0
 11
44.059332
 21
32.633679
 31
0.0
  0
LINE
  5
1B7
  8
LAYER_1
 10
44.059332
 20
32.633679
 30
0.0
 11
46.971714
 21
32.834718
 31
0.0
  0
LINE
  5
1B8
  8
LAYER_1
 10
46.971714
 20
32.834718
 30
0.0
 11
49.957465
 21
32.764466
 31
0.0
  0
LINE
  5
1B9
  8
LAYER_1
 10
49.957465
 20
32.764466
 30
0.0
 11
52.842662
 21
32.419066
 31
0.0
  0
LINE
  5
1BA
  8
LAYER_1
 10
52.842662
 20
32.419066
 30
0.0
 11
56.019234
 21
31.66235
 31
0.0
  0
LINE
  5
1BB
  8
LAYER_1
 10
56.019234
 20
31.66235
 30
0.0
 11
60.287964
 21
30.43044
 31
0.0
  0
LINE
  5
1BC
  8
LAYER_1
 10
60.287964
 20
30.43044
 30
0.0
 11
64.69023
 21
29.179006
 31
0.0
  0
LINE
  5
1BD
  8
LAYER_1
 10
64.69023
 20
29.179006
 30
0.0
 11
68.031695
 21
28.570635
 31
0.0
  0
LINE
  5
1BE
  8
LAYER_1
 10
68.031695
 20
28.570635
 30
0.0
 11
70.858547
 21
28.549593
 31
0.0
  0
LINE
  5
1BF
  8
LAYER_1
 10
70.858547
 20
28.549593
 30
0.0
 11
73.716972
 21
29.060147
 31
0.0
  0
LINE
  5
1C0
  8
LAYER_1
 10
73.716972
 20
29.060147
 30
0.0
 11
73.716972
 21
29.060147
 31
0.0
  0
LINE
  5
1C1
  8
LAYER_1
 10
21.227911
 20
29.013177
 30
0.0
 11
21.334147
 21
29.103035
 31
0.0
  0
LINE
  5
1C2
  8
LAYER_1
 10
21.334147
 20
29.103035
 30
0.0
 11
21.378333
 21
29.530307
 31
0.0
  0
LINE
  5
1C3
  8
LAYER_1
 10
21.378333
 20
29.530307
 30
0.0
 11
21.282713
 21
29.938915
 31
0.0
  0
LINE
  5
1C4
  8
LAYER_1
 10
21.282713
 20
29.938915
 30
0.0
 11
21.01758
 21
30.1464
 31
0.0
  0
LINE
  5
1C5
  8
LAYER_1
 10
21.01758
 20
30.1464
 30
0.0
 11
20.615528
 21
30.142803
 31
0.0
  0
LINE
  5
1C6
  8
LAYER_1
 10
20.615528
 20
30.142803
 30
0.0
 11
20.109151
 21
29.918162
 31
0.0
  0
LINE
  5
1C7
  8
LAYER_1
 10
20.109151
 20
29.918162
 30
0.0
 11
19.908876
 21
29.63863
 31
0.0
  0
LINE
  5
1C8
  8
LAYER_1
 10
19.908876
 20
29.63863
 30
0.0
 11
20.102484
 21
29.169762
 31
0.0
  0
LINE
  5
1C9
  8
LAYER_1
 10
20.102484
 20
29.169762
 30
0.0
 11
20.433954
 21
28.83397
 31
0.0
  0
LINE
  5
1CA
  8
LAYER_1
 10
20.433954
 20
28.83397
 30
0.0
 11
20.757672
 21
28.898174
 31
0.0
  0
LINE
  5
1CB
  8
LAYER_1
 10
20.757672
 20
28.898174
 30
0.0
 11
21.02773
 21
29.041445
 31
0.0
  0
LINE
  5
1CC
  8
LAYER_1
 10
21.02773
 20
29.041445
 30
0.0
 11
21.227911
 21
29.013177
 31
0.0
  0
LINE
  5
1CD
  8
LAYER_1
 10
21.227911
 20
29.013177
 30
0.0
 11
21.227911
 21
29.013177
 31
0.0
  0
LINE
  5
1CE
  8
LAYER_1
 10
28.849625
 20
29.341596
 30
0.0
 11
28.691882
 21
29.770819
 31
0.0
  0
LINE
  5
1CF
  8
LAYER_1
 10
28.691882
 20
29.770819
 30
0.0
 11
28.491674
 21
29.86616
 31
0.0
  0
LINE
  5
1D0
  8
LAYER_1
 10
28.491674
 20
29.86616
 30
0.0
 11
28.27378
 21
29.854787
 31
0.0
  0
LINE
  5
1D1
  8
LAYER_1
 10
28.27378
 20
29.854787
 30
0.0
 11
28.073519
 21
30.027447
 31
0.0
  0
LINE
  5
1D2
  8
LAYER_1
 10
28.073519
 20
30.027447
 30
0.0
 11
27.841607
 21
30.126431
 31
0.0
  0
LINE
  5
1D3
  8
LAYER_1
 10
27.841607
 20
30.126431
 30
0.0
 11
27.526389
 21
29.839619
 31
0.0
  0
LINE
  5
1D4
  8
LAYER_1
 10
27.526389
 20
29.839619
 30
0.0
 11
27.350726
 21
29.403655
 31
0.0
  0
LINE
  5
1D5
  8
LAYER_1
 10
27.350726
 20
29.403655
 30
0.0
 11
27.459735
 21
29.031397
 31
0.0
  0
LINE
  5
1D6
  8
LAYER_1
 10
27.459735
 20
29.031397
 30
0.0
 11
27.817124
 21
28.771998
 31
0.0
  0
LINE
  5
1D7
  8
LAYER_1
 10
27.817124
 20
28.771998
 30
0.0
 11
28.386603
 21
28.674609
 31
0.0
  0
LINE
  5
1D8
  8
LAYER_1
 10
28.386603
 20
28.674609
 30
0.0
 11
28.831784
 21
28.809622
 31
0.0
  0
LINE
  5
1D9
  8
LAYER_1
 10
28.831784
 20
28.809622
 30
0.0
 11
28.849625
 21
29.341596
 31
0.0
  0
LINE
  5
1DA
  8
LAYER_1
 10
28.849625
 20
29.341596
 30
0.0
 11
28.849625
 21
29.341596
 31
0.0
  0
LINE
  5
1DB
  8
LAYER_1
 10
13.07299
 20
30.614001
 30
0.0
 11
13.029441
 21
31.000548
 31
0.0
  0
LINE
  5
1DC
  8
LAYER_1
 10
13.029441
 20
31.000548
 30
0.0
 11
12.698454
 21
31.226231
 31
0.0
  0
LINE
  5
1DD
  8
LAYER_1
 10
12.698454
 20
31.226231
 30
0.0
 11
12.224613
 21
31.266278
 31
0.0
  0
LINE
  5
1DE
  8
LAYER_1
 10
12.224613
 20
31.266278
 30
0.0
 11
11.873988
 21
31.136951
 31
0.0
  0
LINE
  5
1DF
  8
LAYER_1
 10
11.873988
 20
31.136951
 30
0.0
 11
11.692349
 21
30.872143
 31
0.0
  0
LINE
  5
1E0
  8
LAYER_1
 10
11.692349
 20
30.872143
 30
0.0
 11
11.725468
 21
30.505746
 31
0.0
  0
LINE
  5
1E1
  8
LAYER_1
 10
11.725468
 20
30.505746
 30
0.0
 11
12.00856
 21
30.186981
 31
0.0
  0
LINE
  5
1E2
  8
LAYER_1
 10
12.00856
 20
30.186981
 30
0.0
 11
12.423167
 21
30.106453
 31
0.0
  0
LINE
  5
1E3
  8
LAYER_1
 10
12.423167
 20
30.106453
 30
0.0
 11
12.825805
 21
30.252636
 31
0.0
  0
LINE
  5
1E4
  8
LAYER_1
 10
12.825805
 20
30.252636
 30
0.0
 11
13.07299
 21
30.614001
 31
0.0
  0
LINE
  5
1E5
  8
LAYER_1
 10
13.07299
 20
30.614001
 30
0.0
 11
13.07299
 21
30.614001
 31
0.0
  0
LINE
  5
1E6
  8
LAYER_1
 10
25.858585
 20
30.814957
 30
0.0
 11
25.708854
 21
31.215658
 31
0.0
  0
LINE
  5
1E7
  8
LAYER_1
 10
25.708854
 20
31.215658
 30
0.0
 11
25.391435
 21
31.44182
 31
0.0
  0
LINE
  5
1E8
  8
LAYER_1
 10
25.391435
 20
31.44182
 30
0.0
 11
24.996578
 21
31.462203
 31
0.0
  0
LINE
  5
1E9
  8
LAYER_1
 10
24.996578
 20
31.462203
 30
0.0
 11
24.614533
 21
31.245569
 31
0.0
  0
LINE
  5
1EA
  8
LAYER_1
 10
24.614533
 20
31.245569
 30
0.0
 11
24.38389
 21
30.869033
 31
0.0
  0
LINE
  5
1EB
  8
LAYER_1
 10
24.38389
 20
30.869033
 30
0.0
 11
24.600066
 21
30.48586
 31
0.0
  0
LINE
  5
1EC
  8
LAYER_1
 10
24.600066
 20
30.48586
 30
0.0
 11
24.999485
 21
30.241563
 31
0.0
  0
LINE
  5
1ED
  8
LAYER_1
 10
24.999485
 20
30.241563
 30
0.0
 11
25.420966
 21
30.23553
 31
0.0
  0
LINE
  5
1EE
  8
LAYER_1
 10
25.420966
 20
30.23553
 30
0.0
 11
25.746628
 21
30.436937
 31
0.0
  0
LINE
  5
1EF
  8
LAYER_1
 10
25.746628
 20
30.436937
 30
0.0
 11
25.858585
 21
30.814957
 31
0.0
  0
LINE
  5
1F0
  8
LAYER_1
 10
25.858585
 20
30.814957
 30
0.0
 11
25.858585
 21
30.814957
 31
0.0
  0
LINE
  5
1F1
  8
LAYER_1
 10
33.478583
 20
30.814957
 30
0.0
 11
33.328853
 21
31.215658
 31
0.0
  0
LINE
  5
1F2
  8
LAYER_1
 10
33.328853
 20
31.215658
 30
0.0
 11
33.011435
 21
31.44182
 31
0.0
  0
LINE
  5
1F3
  8
LAYER_1
 10
33.011435
 20
31.44182
 30
0.0
 11
32.616578
 21
31.462203
 31
0.0
  0
LINE
  5
1F4
  8
LAYER_1
 10
32.616578
 20
31.462203
 30
0.0
 11
32.234533
 21
31.245569
 31
0.0
  0
LINE
  5
1F5
  8
LAYER_1
 10
32.234533
 20
31.245569
 30
0.0
 11
32.003891
 21
30.869033
 31
0.0
  0
LINE
  5
1F6
  8
LAYER_1
 10
32.003891
 20
30.869033
 30
0.0
 11
32.220067
 21
30.48586
 31
0.0
  0
LINE
  5
1F7
  8
LAYER_1
 10
32.220067
 20
30.48586
 30
0.0
 11
32.619485
 21
30.241563
 31
0.0
  0
LINE
  5
1F8
  8
LAYER_1
 10
32.619485
 20
30.241563
 30
0.0
 11
33.040967
 21
30.23553
 31
0.0
  0
LINE
  5
1F9
  8
LAYER_1
 10
33.040967
 20
30.23553
 30
0.0
 11
33.366627
 21
30.436937
 31
0.0
  0
LINE
  5
1FA
  8
LAYER_1
 10
33.366627
 20
30.436937
 30
0.0
 11
33.478583
 21
30.814957
 31
0.0
  0
LINE
  5
1FB
  8
LAYER_1
 10
33.478583
 20
30.814957
 30
0.0
 11
33.478583
 21
30.814957
 31
0.0
  0
LINE
  5
1FC
  8
LAYER_1
 10
17.983111
 20
30.992861
 30
0.0
 11
17.892873
 21
31.443599
 31
0.0
  0
LINE
  5
1FD
  8
LAYER_1
 10
17.892873
 20
31.443599
 30
0.0
 11
17.685028
 21
31.723629
 31
0.0
  0
LINE
  5
1FE
  8
LAYER_1
 10
17.685028
 20
31.723629
 30
0.0
 11
17.35597
 21
31.835586
 31
0.0
  0
LINE
  5
1FF
  8
LAYER_1
 10
17.35597
 20
31.835586
 30
0.0
 11
16.902092
 21
31.782101
 31
0.0
  0
LINE
  5
200
  8
LAYER_1
 10
16.902092
 20
31.782101
 30
0.0
 11
16.559782
 21
31.621392
 31
0.0
  0
LINE
  5
201
  8
LAYER_1
 10
16.559782
 20
31.621392
 30
0.0
 11
16.383143
 21
31.408842
 31
0.0
  0
LINE
  5
202
  8
LAYER_1
 10
16.383143
 20
31.408842
 30
0.0
 11
16.403233
 21
31.22341
 31
0.0
  0
LINE
  5
203
  8
LAYER_1
 10
16.403233
 20
31.22341
 30
0.0
 11
16.651111
 21
31.144053
 31
0.0
  0
LINE
  5
204
  8
LAYER_1
 10
16.651111
 20
31.144053
 30
0.0
 11
16.850431
 21
31.037463
 31
0.0
  0
LINE
  5
205
  8
LAYER_1
 10
16.850431
 20
31.037463
 30
0.0
 11
16.933333
 21
30.781195
 31
0.0
  0
LINE
  5
206
  8
LAYER_1
 10
16.933333
 20
30.781195
 30
0.0
 11
17.092648
 21
30.524928
 31
0.0
  0
LINE
  5
207
  8
LAYER_1
 10
17.092648
 20
30.524928
 30
0.0
 11
17.475682
 21
30.418339
 31
0.0
  0
LINE
  5
208
  8
LAYER_1
 10
17.475682
 20
30.418339
 30
0.0
 11
17.876605
 21
30.559092
 31
0.0
  0
LINE
  5
209
  8
LAYER_1
 10
17.876605
 20
30.559092
 30
0.0
 11
17.983111
 21
30.992861
 31
0.0
  0
LINE
  5
20A
  8
LAYER_1
 10
17.983111
 20
30.992861
 30
0.0
 11
17.983111
 21
30.992861
 31
0.0
  0
LINE
  5
20B
  8
LAYER_1
 10
22.856661
 20
31.708498
 30
0.0
 11
23.008742
 21
31.879525
 31
0.0
  0
LINE
  5
20C
  8
LAYER_1
 10
23.008742
 20
31.879525
 30
0.0
 11
22.934831
 21
32.26871
 31
0.0
  0
LINE
  5
20D
  8
LAYER_1
 10
22.934831
 20
32.26871
 30
0.0
 11
22.704641
 21
32.690205
 31
0.0
  0
LINE
  5
20E
  8
LAYER_1
 10
22.704641
 20
32.690205
 30
0.0
 11
22.387887
 21
32.958164
 31
0.0
  0
LINE
  5
20F
  8
LAYER_1
 10
22.387887
 20
32.958164
 30
0.0
 11
21.969623
 21
32.946921
 31
0.0
  0
LINE
  5
210
  8
LAYER_1
 10
21.969623
 20
32.946921
 30
0.0
 11
21.548872
 21
32.695463
 31
0.0
  0
LINE
  5
211
  8
LAYER_1
 10
21.548872
 20
32.695463
 30
0.0
 11
21.33929
 21
32.397057
 31
0.0
  0
LINE
  5
212
  8
LAYER_1
 10
21.33929
 20
32.397057
 30
0.0
 11
21.42873
 21
32.272942
 31
0.0
  0
LINE
  5
213
  8
LAYER_1
 10
21.42873
 20
32.272942
 30
0.0
 11
21.642287
 21
32.139718
 31
0.0
  0
LINE
  5
214
  8
LAYER_1
 10
21.642287
 20
32.139718
 30
0.0
 11
21.731111
 21
31.819414
 31
0.0
  0
LINE
  5
215
  8
LAYER_1
 10
21.731111
 20
31.819414
 30
0.0
 11
21.844466
 21
31.524545
 31
0.0
  0
LINE
  5
216
  8
LAYER_1
 10
21.844466
 20
31.524545
 30
0.0
 11
22.177527
 21
31.537192
 31
0.0
  0
LINE
  5
217
  8
LAYER_1
 10
22.177527
 20
31.537192
 30
0.0
 11
22.856661
 21
31.708498
 31
0.0
  0
LINE
  5
218
  8
LAYER_1
 10
22.856661
 20
31.708498
 30
0.0
 11
22.856661
 21
31.708498
 31
0.0
  0
LINE
  5
219
  8
LAYER_1
 10
30.413985
 20
32.236488
 30
0.0
 11
30.240062
 21
32.618159
 31
0.0
  0
LINE
  5
21A
  8
LAYER_1
 10
30.240062
 20
32.618159
 30
0.0
 11
29.920769
 21
32.84971
 31
0.0
  0
LINE
  5
21B
  8
LAYER_1
 10
29.920769
 20
32.84971
 30
0.0
 11
29.541604
 21
32.897007
 31
0.0
  0
LINE
  5
21C
  8
LAYER_1
 10
29.541604
 20
32.897007
 30
0.0
 11
29.188066
 21
32.725917
 31
0.0
  0
LINE
  5
21D
  8
LAYER_1
 10
29.188066
 20
32.725917
 30
0.0
 11
29.010209
 21
32.385636
 31
0.0
  0
LINE
  5
21E
  8
LAYER_1
 10
29.010209
 20
32.385636
 30
0.0
 11
29.151823
 21
31.962797
 31
0.0
  0
LINE
  5
21F
  8
LAYER_1
 10
29.151823
 20
31.962797
 30
0.0
 11
29.515176
 21
31.673982
 31
0.0
  0
LINE
  5
220
  8
LAYER_1
 10
29.515176
 20
31.673982
 30
0.0
 11
29.956356
 21
31.647114
 31
0.0
  0
LINE
  5
221
  8
LAYER_1
 10
29.956356
 20
31.647114
 30
0.0
 11
30.31081
 21
31.846509
 31
0.0
  0
LINE
  5
222
  8
LAYER_1
 10
30.31081
 20
31.846509
 30
0.0
 11
30.413985
 21
32.236488
 31
0.0
  0
LINE
  5
223
  8
LAYER_1
 10
30.413985
 20
32.236488
 30
0.0
 11
30.413985
 21
32.236488
 31
0.0
  0
LINE
  5
224
  8
LAYER_1
 10
9.967086
 20
32.583974
 30
0.0
 11
9.951824
 21
32.950567
 31
0.0
  0
LINE
  5
225
  8
LAYER_1
 10
9.951824
 20
32.950567
 30
0.0
 11
9.730135000000001
 21
33.203645
 31
0.0
  0
LINE
  5
226
  8
LAYER_1
 10
9.730135000000001
 20
33.203645
 30
0.0
 11
9.36097
 21
33.307584
 31
0.0
  0
LINE
  5
227
  8
LAYER_1
 10
9.36097
 20
33.307584
 30
0.0
 11
8.903282000000001
 21
33.226763
 31
0.0
  0
LINE
  5
228
  8
LAYER_1
 10
8.903282000000001
 20
33.226763
 30
0.0
 11
8.645408
 21
32.99837
 31
0.0
  0
LINE
  5
229
  8
LAYER_1
 10
8.645408
 20
32.99837
 30
0.0
 11
8.800684
 21
32.577102
 31
0.0
  0
LINE
  5
22A
  8
LAYER_1
 10
8.800684
 20
32.577102
 30
0.0
 11
9.126777000000001
 21
32.220481
 31
0.0
  0
LINE
  5
22B
  8
LAYER_1
 10
9.126777000000001
 20
32.220481
 30
0.0
 11
9.470008999999999
 21
32.102989
 31
0.0
  0
LINE
  5
22C
  8
LAYER_1
 10
9.470008999999999
 20
32.102989
 30
0.0
 11
9.770179000000001
 21
32.224271
 31
0.0
  0
LINE
  5
22D
  8
LAYER_1
 10
9.770179000000001
 20
32.224271
 30
0.0
 11
9.967086
 21
32.583974
 31
0.0
  0
LINE
  5
22E
  8
LAYER_1
 10
9.967086
 20
32.583974
 30
0.0
 11
9.967086
 21
32.583974
 31
0.0
  0
LINE
  5
22F
  8
LAYER_1
 10
15.177935
 20
32.783731
 30
0.0
 11
15.022432
 21
33.299416
 31
0.0
  0
LINE
  5
230
  8
LAYER_1
 10
15.022432
 20
33.299416
 30
0.0
 11
14.772252
 21
33.617139
 31
0.0
  0
LINE
  5
231
  8
LAYER_1
 10
14.772252
 20
33.617139
 30
0.0
 11
14.448929
 21
33.72107
 31
0.0
  0
LINE
  5
232
  8
LAYER_1
 10
14.448929
 20
33.72107
 30
0.0
 11
14.073996
 21
33.595376
 31
0.0
  0
LINE
  5
233
  8
LAYER_1
 10
14.073996
 20
33.595376
 30
0.0
 11
13.771145
 21
33.26586
 31
0.0
  0
LINE
  5
234
  8
LAYER_1
 10
13.771145
 20
33.26586
 30
0.0
 11
13.88955
 21
32.845128
 31
0.0
  0
LINE
  5
235
  8
LAYER_1
 10
13.88955
 20
32.845128
 30
0.0
 11
14.271957
 21
32.481635
 31
0.0
  0
LINE
  5
236
  8
LAYER_1
 10
14.271957
 20
32.481635
 30
0.0
 11
14.720351
 21
32.345177
 31
0.0
  0
LINE
  5
237
  8
LAYER_1
 10
14.720351
 20
32.345177
 30
0.0
 11
15.07544
 21
32.443345
 31
0.0
  0
LINE
  5
238
  8
LAYER_1
 10
15.07544
 20
32.443345
 30
0.0
 11
15.177935
 21
32.783731
 31
0.0
  0
LINE
  5
239
  8
LAYER_1
 10
15.177935
 20
32.783731
 30
0.0
 11
15.177935
 21
32.783731
 31
0.0
  0
LINE
  5
23A
  8
LAYER_1
 10
19.694031
 20
33.298744
 30
0.0
 11
19.886196
 21
33.372497
 31
0.0
  0
LINE
  5
23B
  8
LAYER_1
 10
19.886196
 20
33.372497
 30
0.0
 11
19.937251
 21
33.829909
 31
0.0
  0
LINE
  5
23C
  8
LAYER_1
 10
19.937251
 20
33.829909
 30
0.0
 11
19.813244
 21
34.31156
 31
0.0
  0
LINE
  5
23D
  8
LAYER_1
 10
19.813244
 20
34.31156
 30
0.0
 11
19.543889
 21
34.401343
 31
0.0
  0
LINE
  5
23E
  8
LAYER_1
 10
19.543889
 20
34.401343
 30
0.0
 11
19.29474
 21
34.392129
 31
0.0
  0
LINE
  5
23F
  8
LAYER_1
 10
19.29474
 20
34.392129
 30
0.0
 11
19.191111
 21
34.559735
 31
0.0
  0
LINE
  5
240
  8
LAYER_1
 10
19.191111
 20
34.559735
 30
0.0
 11
19.046771
 21
34.622696
 31
0.0
  0
LINE
  5
241
  8
LAYER_1
 10
19.046771
 20
34.622696
 30
0.0
 11
18.699742
 21
34.36189
 31
0.0
  0
LINE
  5
242
  8
LAYER_1
 10
18.699742
 20
34.36189
 30
0.0
 11
18.402253
 21
33.956819
 31
0.0
  0
LINE
  5
243
  8
LAYER_1
 10
18.402253
 20
33.956819
 30
0.0
 11
18.558631
 21
33.753768
 31
0.0
  0
LINE
  5
244
  8
LAYER_1
 10
18.558631
 20
33.753768
 30
0.0
 11
18.80727
 21
33.53314
 31
0.0
  0
LINE
  5
245
  8
LAYER_1
 10
18.80727
 20
33.53314
 30
0.0
 11
18.913211
 21
33.166644
 31
0.0
  0
LINE
  5
246
  8
LAYER_1
 10
18.913211
 20
33.166644
 30
0.0
 11
18.965774
 21
32.867556
 31
0.0
  0
LINE
  5
247
  8
LAYER_1
 10
18.965774
 20
32.867556
 30
0.0
 11
19.163879
 21
33.085209
 31
0.0
  0
LINE
  5
248
  8
LAYER_1
 10
19.163879
 20
33.085209
 30
0.0
 11
19.421229
 21
33.30837
 31
0.0
  0
LINE
  5
249
  8
LAYER_1
 10
19.421229
 20
33.30837
 30
0.0
 11
19.694031
 21
33.298744
 31
0.0
  0
LINE
  5
24A
  8
LAYER_1
 10
19.694031
 20
33.298744
 30
0.0
 11
19.694031
 21
33.298744
 31
0.0
  0
LINE
  5
24B
  8
LAYER_1
 10
27.372216
 20
33.119609
 30
0.0
 11
27.538532
 21
33.289541
 31
0.0
  0
LINE
  5
24C
  8
LAYER_1
 10
27.538532
 20
33.289541
 30
0.0
 11
27.451201
 21
33.672861
 31
0.0
  0
LINE
  5
24D
  8
LAYER_1
 10
27.451201
 20
33.672861
 30
0.0
 11
27.193133
 21
34.079859
 31
0.0
  0
LINE
  5
24E
  8
LAYER_1
 10
27.193133
 20
34.079859
 30
0.0
 11
26.847241
 21
34.320822
 31
0.0
  0
LINE
  5
24F
  8
LAYER_1
 10
26.847241
 20
34.320822
 30
0.0
 11
26.348512
 21
34.310216
 31
0.0
  0
LINE
  5
250
  8
LAYER_1
 10
26.348512
 20
34.310216
 30
0.0
 11
25.991333
 21
34.063102
 31
0.0
  0
LINE
  5
251
  8
LAYER_1
 10
25.991333
 20
34.063102
 30
0.0
 11
25.856265
 21
33.682255
 31
0.0
  0
LINE
  5
252
  8
LAYER_1
 10
25.856265
 20
33.682255
 30
0.0
 11
26.023874
 21
33.270451
 31
0.0
  0
LINE
  5
253
  8
LAYER_1
 10
26.023874
 20
33.270451
 30
0.0
 11
26.39129
 21
33.016936
 31
0.0
  0
LINE
  5
254
  8
LAYER_1
 10
26.39129
 20
33.016936
 30
0.0
 11
26.763638
 21
32.988229
 31
0.0
  0
LINE
  5
255
  8
LAYER_1
 10
26.763638
 20
32.988229
 30
0.0
 11
27.372216
 21
33.119609
 31
0.0
  0
LINE
  5
256
  8
LAYER_1
 10
27.372216
 20
33.119609
 30
0.0
 11
27.372216
 21
33.119609
 31
0.0
  0
LINE
  5
257
  8
LAYER_1
 10
34.929541
 20
33.647599
 30
0.0
 11
34.748841
 21
34.044527
 31
0.0
  0
LINE
  5
258
  8
LAYER_1
 10
34.748841
 20
34.044527
 30
0.0
 11
34.418399
 21
34.26527
 31
0.0
  0
LINE
  5
259
  8
LAYER_1
 10
34.418399
 20
34.26527
 30
0.0
 11
34.022554
 21
34.282225
 31
0.0
  0
LINE
  5
25A
  8
LAYER_1
 10
34.022554
 20
34.282225
 30
0.0
 11
33.645644
 21
34.067791
 31
0.0
  0
LINE
  5
25B
  8
LAYER_1
 10
33.645644
 20
34.067791
 30
0.0
 11
33.415002
 21
33.691256
 31
0.0
  0
LINE
  5
25C
  8
LAYER_1
 10
33.415002
 20
33.691256
 30
0.0
 11
33.631178
 21
33.308083
 31
0.0
  0
LINE
  5
25D
  8
LAYER_1
 10
33.631178
 20
33.308083
 30
0.0
 11
34.044478
 21
33.066732
 31
0.0
  0
LINE
  5
25E
  8
LAYER_1
 10
34.044478
 20
33.066732
 30
0.0
 11
34.491735
 21
33.067213
 31
0.0
  0
LINE
  5
25F
  8
LAYER_1
 10
34.491735
 20
33.067213
 30
0.0
 11
34.833304
 21
33.273007
 31
0.0
  0
LINE
  5
260
  8
LAYER_1
 10
34.833304
 20
33.273007
 30
0.0
 11
34.929541
 21
33.647599
 31
0.0
  0
LINE
  5
261
  8
LAYER_1
 10
34.929541
 20
33.647599
 30
0.0
 11
34.929541
 21
33.647599
 31
0.0
  0
LINE
  5
262
  8
LAYER_1
 10
11.944101
 20
34.847335
 30
0.0
 11
11.900552
 21
35.233881
 31
0.0
  0
LINE
  5
263
  8
LAYER_1
 10
11.900552
 20
35.233881
 30
0.0
 11
11.569565
 21
35.459563
 31
0.0
  0
LINE
  5
264
  8
LAYER_1
 10
11.569565
 20
35.459563
 30
0.0
 11
11.095724
 21
35.499611
 31
0.0
  0
LINE
  5
265
  8
LAYER_1
 10
11.095724
 20
35.499611
 30
0.0
 11
10.745099
 21
35.370285
 31
0.0
  0
LINE
  5
266
  8
LAYER_1
 10
10.745099
 20
35.370285
 30
0.0
 11
10.56346
 21
35.105476
 31
0.0
  0
LINE
  5
267
  8
LAYER_1
 10
10.56346
 20
35.105476
 30
0.0
 11
10.596579
 21
34.73908
 31
0.0
  0
LINE
  5
268
  8
LAYER_1
 10
10.596579
 20
34.73908
 30
0.0
 11
10.879671
 21
34.420315
 31
0.0
  0
LINE
  5
269
  8
LAYER_1
 10
10.879671
 20
34.420315
 30
0.0
 11
11.294278
 21
34.339787
 31
0.0
  0
LINE
  5
26A
  8
LAYER_1
 10
11.294278
 20
34.339787
 30
0.0
 11
11.696916
 21
34.48597
 31
0.0
  0
LINE
  5
26B
  8
LAYER_1
 10
11.696916
 20
34.48597
 30
0.0
 11
11.944101
 21
34.847335
 31
0.0
  0
LINE
  5
26C
  8
LAYER_1
 10
11.944101
 20
34.847335
 30
0.0
 11
11.944101
 21
34.847335
 31
0.0
  0
LINE
  5
26D
  8
LAYER_1
 10
24.447474
 20
35.048291
 30
0.0
 11
24.301131
 21
35.437747
 31
0.0
  0
LINE
  5
26E
  8
LAYER_1
 10
24.301131
 20
35.437747
 30
0.0
 11
23.980215
 21
35.675197
 31
0.0
  0
LINE
  5
26F
  8
LAYER_1
 10
23.980215
 20
35.675197
 30
0.0
 11
23.559424
 21
35.731097
 31
0.0
  0
LINE
  5
270
  8
LAYER_1
 10
23.559424
 20
35.731097
 30
0.0
 11
23.113456
 21
35.575903
 31
0.0
  0
LINE
  5
271
  8
LAYER_1
 10
23.113456
 20
35.575903
 30
0.0
 11
22.802468
 21
35.264663
 31
0.0
  0
LINE
  5
272
  8
LAYER_1
 10
22.802468
 20
35.264663
 30
0.0
 11
23.113456
 21
34.824966
 31
0.0
  0
LINE
  5
273
  8
LAYER_1
 10
23.113456
 20
34.824966
 30
0.0
 11
23.559661
 21
34.528857
 31
0.0
  0
LINE
  5
274
  8
LAYER_1
 10
23.559661
 20
34.528857
 30
0.0
 11
24.004013
 21
34.479642
 31
0.0
  0
LINE
  5
275
  8
LAYER_1
 10
24.004013
 20
34.479642
 30
0.0
 11
24.33659
 21
34.658921
 31
0.0
  0
LINE
  5
276
  8
LAYER_1
 10
24.33659
 20
34.658921
 30
0.0
 11
24.447474
 21
35.048291
 31
0.0
  0
LINE
  5
277
  8
LAYER_1
 10
24.447474
 20
35.048291
 30
0.0
 11
24.447474
 21
35.048291
 31
0.0
  0
LINE
  5
278
  8
LAYER_1
 10
32.067472
 20
35.048291
 30
0.0
 11
31.919787
 21
35.442077
 31
0.0
  0
LINE
  5
279
  8
LAYER_1
 10
31.919787
 20
35.442077
 30
0.0
 11
31.59492
 21
35.676487
 31
0.0
  0
LINE
  5
27A
  8
LAYER_1
 10
31.59492
 20
35.676487
 30
0.0
 11
31.165715
 21
35.72426
 31
0.0
  0
LINE
  5
27B
  8
LAYER_1
 10
31.165715
 20
35.72426
 30
0.0
 11
30.705013
 21
35.55814
 31
0.0
  0
LINE
  5
27C
  8
LAYER_1
 10
30.705013
 20
35.55814
 30
0.0
 11
30.365582
 21
35.234966
 31
0.0
  0
LINE
  5
27D
  8
LAYER_1
 10
30.365582
 20
35.234966
 30
0.0
 11
30.705013
 21
34.799626
 31
0.0
  0
LINE
  5
27E
  8
LAYER_1
 10
30.705013
 20
34.799626
 30
0.0
 11
31.16977
 21
34.513033
 31
0.0
  0
LINE
  5
27F
  8
LAYER_1
 10
31.16977
 20
34.513033
 30
0.0
 11
31.622337
 21
34.471826
 31
0.0
  0
LINE
  5
280
  8
LAYER_1
 10
31.622337
 20
34.471826
 30
0.0
 11
31.956858
 21
34.656686
 31
0.0
  0
LINE
  5
281
  8
LAYER_1
 10
31.956858
 20
34.656686
 30
0.0
 11
32.067472
 21
35.048291
 31
0.0
  0
LINE
  5
282
  8
LAYER_1
 10
32.067472
 20
35.048291
 30
0.0
 11
32.067472
 21
35.048291
 31
0.0
  0
LINE
  5
283
  8
LAYER_1
 10
16.85534
 20
35.372137
 30
0.0
 11
16.778343
 21
35.758978
 31
0.0
  0
LINE
  5
284
  8
LAYER_1
 10
16.778343
 20
35.758978
 30
0.0
 11
16.51759
 21
36.020407
 31
0.0
  0
LINE
  5
285
  8
LAYER_1
 10
16.51759
 20
36.020407
 30
0.0
 11
16.12771
 21
36.12564
 31
0.0
  0
LINE
  5
286
  8
LAYER_1
 10
16.12771
 20
36.12564
 30
0.0
 11
15.663333
 21
36.043889
 31
0.0
  0
LINE
  5
287
  8
LAYER_1
 10
15.663333
 20
36.043889
 30
0.0
 11
15.379774
 21
35.862924
 31
0.0
  0
LINE
  5
288
  8
LAYER_1
 10
15.379774
 20
35.862924
 30
0.0
 11
15.251326
 21
35.64235
 31
0.0
  0
LINE
  5
289
  8
LAYER_1
 10
15.251326
 20
35.64235
 30
0.0
 11
15.293604
 21
35.455919
 31
0.0
  0
LINE
  5
28A
  8
LAYER_1
 10
15.293604
 20
35.455919
 30
0.0
 11
15.522222
 21
35.377386
 31
0.0
  0
LINE
  5
28B
  8
LAYER_1
 10
15.522222
 20
35.377386
 30
0.0
 11
15.721542
 21
35.260793
 31
0.0
  0
LINE
  5
28C
  8
LAYER_1
 10
15.721542
 20
35.260793
 30
0.0
 11
15.804444
 21
34.980474
 31
0.0
  0
LINE
  5
28D
  8
LAYER_1
 10
15.804444
 20
34.980474
 30
0.0
 11
15.962103
 21
34.70148
 31
0.0
  0
LINE
  5
28E
  8
LAYER_1
 10
15.962103
 20
34.70148
 30
0.0
 11
16.312441
 21
34.719465
 31
0.0
  0
LINE
  5
28F
  8
LAYER_1
 10
16.312441
 20
34.719465
 30
0.0
 11
16.671505
 21
34.96587
 31
0.0
  0
LINE
  5
290
  8
LAYER_1
 10
16.671505
 20
34.96587
 30
0.0
 11
16.85534
 21
35.372137
 31
0.0
  0
LINE
  5
291
  8
LAYER_1
 10
16.85534
 20
35.372137
 30
0.0
 11
16.85534
 21
35.372137
 31
0.0
  0
LINE
  5
292
  8
LAYER_1
 10
73.959424
 20
35.54975
 30
0.0
 11
75.591846
 21
36.151501
 31
0.0
  0
LINE
  5
293
  8
LAYER_1
 10
75.591846
 20
36.151501
 30
0.0
 11
77.653496
 21
37.1007
 31
0.0
  0
LINE
  5
294
  8
LAYER_1
 10
77.653496
 20
37.1007
 30
0.0
 11
82.637754
 21
39.830934
 31
0.0
  0
LINE
  5
295
  8
LAYER_1
 10
82.637754
 20
39.830934
 30
0.0
 11
85.265508
 21
41.394122
 31
0.0
  0
LINE
  5
296
  8
LAYER_1
 10
85.265508
 20
41.394122
 30
0.0
 11
85.07464400000001
 21
42.548531
 31
0.0
  0
LINE
  5
297
  8
LAYER_1
 10
85.07464400000001
 20
42.548531
 30
0.0
 11
84.771789
 21
43.893213
 31
0.0
  0
LINE
  5
298
  8
LAYER_1
 10
84.771789
 20
43.893213
 30
0.0
 11
84.262591
 21
43.738151
 31
0.0
  0
LINE
  5
299
  8
LAYER_1
 10
84.262591
 20
43.738151
 30
0.0
 11
83.19560900000001
 21
43.098155
 31
0.0
  0
LINE
  5
29A
  8
LAYER_1
 10
83.19560900000001
 20
43.098155
 30
0.0
 11
81.455096
 21
42.055062
 31
0.0
  0
LINE
  5
29B
  8
LAYER_1
 10
81.455096
 20
42.055062
 30
0.0
 11
79.358801
 21
40.995908
 31
0.0
  0
LINE
  5
29C
  8
LAYER_1
 10
79.358801
 20
40.995908
 30
0.0
 11
77.14978499999999
 21
40.034753
 31
0.0
  0
LINE
  5
29D
  8
LAYER_1
 10
77.14978499999999
 20
40.034753
 30
0.0
 11
75.071111
 21
39.285656
 31
0.0
  0
LINE
  5
29E
  8
LAYER_1
 10
75.071111
 20
39.285656
 30
0.0
 11
73.780489
 21
38.929188
 31
0.0
  0
LINE
  5
29F
  8
LAYER_1
 10
73.780489
 20
38.929188
 30
0.0
 11
72.458913
 21
38.733483
 31
0.0
  0
LINE
  5
2A0
  8
LAYER_1
 10
72.458913
 20
38.733483
 30
0.0
 11
67.733333
 21
38.652756
 31
0.0
  0
LINE
  5
2A1
  8
LAYER_1
 10
67.733333
 20
38.652756
 30
0.0
 11
64.637923
 21
38.692035
 31
0.0
  0
LINE
  5
2A2
  8
LAYER_1
 10
64.637923
 20
38.692035
 30
0.0
 11
62.45804
 21
38.847983
 31
0.0
  0
LINE
  5
2A3
  8
LAYER_1
 10
62.45804
 20
38.847983
 30
0.0
 11
60.199415
 21
39.244316
 31
0.0
  0
LINE
  5
2A4
  8
LAYER_1
 10
60.199415
 20
39.244316
 30
0.0
 11
56.867778
 21
40.004752
 31
0.0
  0
LINE
  5
2A5
  8
LAYER_1
 10
56.867778
 20
40.004752
 30
0.0
 11
47.443454
 21
42.071261
 31
0.0
  0
LINE
  5
2A6
  8
LAYER_1
 10
47.443454
 20
42.071261
 30
0.0
 11
45.138099
 21
42.354114
 31
0.0
  0
LINE
  5
2A7
  8
LAYER_1
 10
45.138099
 20
42.354114
 30
0.0
 11
43.292392
 21
42.33306
 31
0.0
  0
LINE
  5
2A8
  8
LAYER_1
 10
43.292392
 20
42.33306
 30
0.0
 11
39.135836
 21
41.682862
 31
0.0
  0
LINE
  5
2A9
  8
LAYER_1
 10
39.135836
 20
41.682862
 30
0.0
 11
37.151233
 21
41.226257
 31
0.0
  0
LINE
  5
2AA
  8
LAYER_1
 10
37.151233
 20
41.226257
 30
0.0
 11
36.164644
 21
40.873552
 31
0.0
  0
LINE
  5
2AB
  8
LAYER_1
 10
36.164644
 20
40.873552
 30
0.0
 11
36.191804
 21
40.338793
 31
0.0
  0
LINE
  5
2AC
  8
LAYER_1
 10
36.191804
 20
40.338793
 30
0.0
 11
36.437173
 21
39.330706
 31
0.0
  0
LINE
  5
2AD
  8
LAYER_1
 10
36.437173
 20
39.330706
 30
0.0
 11
36.756738
 21
38.355001
 31
0.0
  0
LINE
  5
2AE
  8
LAYER_1
 10
36.756738
 20
38.355001
 30
0.0
 11
37.006485
 21
37.917386
 31
0.0
  0
LINE
  5
2AF
  8
LAYER_1
 10
37.006485
 20
37.917386
 30
0.0
 11
40.128131
 21
38.622576
 31
0.0
  0
LINE
  5
2B0
  8
LAYER_1
 10
40.128131
 20
38.622576
 30
0.0
 11
43.774618
 21
39.283499
 31
0.0
  0
LINE
  5
2B1
  8
LAYER_1
 10
43.774618
 20
39.283499
 30
0.0
 11
45.56371
 21
39.372346
 31
0.0
  0
LINE
  5
2B2
  8
LAYER_1
 10
45.56371
 20
39.372346
 30
0.0
 11
47.509409
 21
39.284504
 31
0.0
  0
LINE
  5
2B3
  8
LAYER_1
 10
47.509409
 20
39.284504
 30
0.0
 11
52.408751
 21
38.531906
 31
0.0
  0
LINE
  5
2B4
  8
LAYER_1
 10
52.408751
 20
38.531906
 30
0.0
 11
59.548889
 21
36.932019
 31
0.0
  0
LINE
  5
2B5
  8
LAYER_1
 10
59.548889
 20
36.932019
 30
0.0
 11
66.443088
 21
35.358265
 31
0.0
  0
LINE
  5
2B6
  8
LAYER_1
 10
66.443088
 20
35.358265
 30
0.0
 11
68.030072
 21
35.174816
 31
0.0
  0
LINE
  5
2B7
  8
LAYER_1
 10
68.030072
 20
35.174816
 30
0.0
 11
69.869332
 21
35.133597
 31
0.0
  0
LINE
  5
2B8
  8
LAYER_1
 10
69.869332
 20
35.133597
 30
0.0
 11
72.161109
 21
35.223409
 31
0.0
  0
LINE
  5
2B9
  8
LAYER_1
 10
72.161109
 20
35.223409
 30
0.0
 11
73.959424
 21
35.54975
 31
0.0
  0
LINE
  5
2BA
  8
LAYER_1
 10
73.959424
 20
35.54975
 30
0.0
 11
73.959424
 21
35.54975
 31
0.0
  0
LINE
  5
2BB
  8
LAYER_1
 10
21.588385
 20
36.044509
 30
0.0
 11
21.823716
 21
36.106811
 31
0.0
  0
LINE
  5
2BC
  8
LAYER_1
 10
21.823716
 20
36.106811
 30
0.0
 11
21.812308
 21
36.583971
 31
0.0
  0
LINE
  5
2BD
  8
LAYER_1
 10
21.812308
 20
36.583971
 30
0.0
 11
21.610806
 21
37.028897
 31
0.0
  0
LINE
  5
2BE
  8
LAYER_1
 10
21.610806
 20
37.028897
 30
0.0
 11
21.262079
 21
37.235649
 31
0.0
  0
LINE
  5
2BF
  8
LAYER_1
 10
21.262079
 20
37.235649
 30
0.0
 11
20.828828
 21
37.191212
 31
0.0
  0
LINE
  5
2C0
  8
LAYER_1
 10
20.828828
 20
37.191212
 30
0.0
 11
20.373757
 21
36.882571
 31
0.0
  0
LINE
  5
2C1
  8
LAYER_1
 10
20.373757
 20
36.882571
 30
0.0
 11
20.186924
 21
36.611324
 31
0.0
  0
LINE
  5
2C2
  8
LAYER_1
 10
20.186924
 20
36.611324
 30
0.0
 11
20.299841
 21
36.506274
 31
0.0
  0
LINE
  5
2C3
  8
LAYER_1
 10
20.299841
 20
36.506274
 30
0.0
 11
20.513398
 21
36.36534
 31
0.0
  0
LINE
  5
2C4
  8
LAYER_1
 10
20.513398
 20
36.36534
 30
0.0
 11
20.602222
 21
36.026497
 31
0.0
  0
LINE
  5
2C5
  8
LAYER_1
 10
20.602222
 20
36.026497
 30
0.0
 11
20.672778
 21
35.724191
 31
0.0
  0
LINE
  5
2C6
  8
LAYER_1
 10
20.672778
 20
35.724191
 30
0.0
 11
20.918835
 21
35.863331
 31
0.0
  0
LINE
  5
2C7
  8
LAYER_1
 10
20.918835
 20
35.863331
 30
0.0
 11
21.246118
 21
36.047155
 31
0.0
  0
LINE
  5
2C8
  8
LAYER_1
 10
21.246118
 20
36.047155
 30
0.0
 11
21.588385
 21
36.044509
 31
0.0
  0
LINE
  5
2C9
  8
LAYER_1
 10
21.588385
 20
36.044509
 30
0.0
 11
21.588385
 21
36.044509
 31
0.0
  0
LINE
  5
2CA
  8
LAYER_1
 10
28.847912
 20
36.068733
 30
0.0
 11
28.954147
 21
36.158591
 31
0.0
  0
LINE
  5
2CB
  8
LAYER_1
 10
28.954147
 20
36.158591
 30
0.0
 11
28.998333
 21
36.585863
 31
0.0
  0
LINE
  5
2CC
  8
LAYER_1
 10
28.998333
 20
36.585863
 30
0.0
 11
28.902713
 21
36.994471
 31
0.0
  0
LINE
  5
2CD
  8
LAYER_1
 10
28.902713
 20
36.994471
 30
0.0
 11
28.63758
 21
37.201956
 31
0.0
  0
LINE
  5
2CE
  8
LAYER_1
 10
28.63758
 20
37.201956
 30
0.0
 11
28.235528
 21
37.198359
 31
0.0
  0
LINE
  5
2CF
  8
LAYER_1
 10
28.235528
 20
37.198359
 30
0.0
 11
27.729151
 21
36.973719
 31
0.0
  0
LINE
  5
2D0
  8
LAYER_1
 10
27.729151
 20
36.973719
 30
0.0
 11
27.528876
 21
36.694186
 31
0.0
  0
LINE
  5
2D1
  8
LAYER_1
 10
27.528876
 20
36.694186
 30
0.0
 11
27.722485
 21
36.225317
 31
0.0
  0
LINE
  5
2D2
  8
LAYER_1
 10
27.722485
 20
36.225317
 30
0.0
 11
28.053953
 21
35.889525
 31
0.0
  0
LINE
  5
2D3
  8
LAYER_1
 10
28.053953
 20
35.889525
 30
0.0
 11
28.377673
 21
35.95373
 31
0.0
  0
LINE
  5
2D4
  8
LAYER_1
 10
28.377673
 20
35.95373
 30
0.0
 11
28.647729
 21
36.097
 31
0.0
  0
LINE
  5
2D5
  8
LAYER_1
 10
28.647729
 20
36.097
 30
0.0
 11
28.847912
 21
36.068733
 31
0.0
  0
LINE
  5
2D6
  8
LAYER_1
 10
28.847912
 20
36.068733
 30
0.0
 11
28.847912
 21
36.068733
 31
0.0
  0
LINE
  5
2D7
  8
LAYER_1
 10
8.841984999999999
 20
36.906251
 30
0.0
 11
8.835189
 21
37.221349
 31
0.0
  0
LINE
  5
2D8
  8
LAYER_1
 10
8.835189
 20
37.221349
 30
0.0
 11
8.599463
 21
37.44353
 31
0.0
  0
LINE
  5
2D9
  8
LAYER_1
 10
8.599463
 20
37.44353
 30
0.0
 11
8.212979000000001
 21
37.533567
 31
0.0
  0
LINE
  5
2DA
  8
LAYER_1
 10
8.212979000000001
 20
37.533567
 30
0.0
 11
7.753908
 21
37.452236
 31
0.0
  0
LINE
  5
2DB
  8
LAYER_1
 10
7.753908
 20
37.452236
 30
0.0
 11
7.482442
 21
37.239554
 31
0.0
  0
LINE
  5
2DC
  8
LAYER_1
 10
7.482442
 20
37.239554
 30
0.0
 11
7.647353
 21
36.896649
 31
0.0
  0
LINE
  5
2DD
  8
LAYER_1
 10
7.647353
 20
36.896649
 30
0.0
 11
7.983096
 21
36.6138
 31
0.0
  0
LINE
  5
2DE
  8
LAYER_1
 10
7.983096
 20
36.6138
 30
0.0
 11
8.328334999999999
 21
36.521393
 31
0.0
  0
LINE
  5
2DF
  8
LAYER_1
 10
8.328334999999999
 20
36.521393
 30
0.0
 11
8.631741999999999
 21
36.619014
 31
0.0
  0
LINE
  5
2E0
  8
LAYER_1
 10
8.631741999999999
 20
36.619014
 30
0.0
 11
8.841984999999999
 21
36.906251
 31
0.0
  0
LINE
  5
2E1
  8
LAYER_1
 10
8.841984999999999
 20
36.906251
 30
0.0
 11
8.841984999999999
 21
36.906251
 31
0.0
  0
LINE
  5
2E2
  8
LAYER_1
 10
14.036531
 20
37.070719
 30
0.0
 11
13.617222
 21
37.866989
 31
0.0
  0
LINE
  5
2E3
  8
LAYER_1
 10
13.617222
 20
37.866989
 30
0.0
 11
13.250639
 21
38.088352
 31
0.0
  0
LINE
  5
2E4
  8
LAYER_1
 10
13.250639
 20
38.088352
 30
0.0
 11
12.838946
 21
37.814427
 31
0.0
  0
LINE
  5
2E5
  8
LAYER_1
 10
12.838946
 20
37.814427
 30
0.0
 11
12.601098
 21
37.453771
 31
0.0
  0
LINE
  5
2E6
  8
LAYER_1
 10
12.601098
 20
37.453771
 30
0.0
 11
12.702439
 21
37.210323
 31
0.0
  0
LINE
  5
2E7
  8
LAYER_1
 10
12.702439
 20
37.210323
 30
0.0
 11
12.864283
 21
37.015812
 31
0.0
  0
LINE
  5
2E8
  8
LAYER_1
 10
12.864283
 20
37.015812
 30
0.0
 11
12.847582
 21
36.798967
 31
0.0
  0
LINE
  5
2E9
  8
LAYER_1
 10
12.847582
 20
36.798967
 30
0.0
 11
12.951516
 21
36.646509
 31
0.0
  0
LINE
  5
2EA
  8
LAYER_1
 10
12.951516
 20
36.646509
 30
0.0
 11
13.403398
 21
36.606802
 31
0.0
  0
LINE
  5
2EB
  8
LAYER_1
 10
13.403398
 20
36.606802
 30
0.0
 11
13.904642
 21
36.746505
 31
0.0
  0
LINE
  5
2EC
  8
LAYER_1
 10
13.904642
 20
36.746505
 30
0.0
 11
14.036531
 21
37.070719
 31
0.0
  0
LINE
  5
2ED
  8
LAYER_1
 10
14.036531
 20
37.070719
 30
0.0
 11
14.036531
 21
37.070719
 31
0.0
  0
LINE
  5
2EE
  8
LAYER_1
 10
26.128638
 20
37.352941
 30
0.0
 11
26.246666
 21
37.896692
 31
0.0
  0
LINE
  5
2EF
  8
LAYER_1
 10
26.246666
 20
37.896692
 30
0.0
 11
26.111147
 21
38.286564
 31
0.0
  0
LINE
  5
2F0
  8
LAYER_1
 10
26.111147
 20
38.286564
 30
0.0
 11
25.7768
 21
38.517992
 31
0.0
  0
LINE
  5
2F1
  8
LAYER_1
 10
25.7768
 20
38.517992
 30
0.0
 11
25.351936
 21
38.55297
 31
0.0
  0
LINE
  5
2F2
  8
LAYER_1
 10
25.351936
 20
38.55297
 30
0.0
 11
24.944871
 21
38.353489
 31
0.0
  0
LINE
  5
2F3
  8
LAYER_1
 10
24.944871
 20
38.353489
 30
0.0
 11
24.802251
 21
37.98574
 31
0.0
  0
LINE
  5
2F4
  8
LAYER_1
 10
24.802251
 20
37.98574
 30
0.0
 11
24.935589
 21
37.562697
 31
0.0
  0
LINE
  5
2F5
  8
LAYER_1
 10
24.935589
 20
37.562697
 30
0.0
 11
25.245893
 21
37.2488
 31
0.0
  0
LINE
  5
2F6
  8
LAYER_1
 10
25.245893
 20
37.2488
 30
0.0
 11
25.634168
 21
37.208487
 31
0.0
  0
LINE
  5
2F7
  8
LAYER_1
 10
25.634168
 20
37.208487
 30
0.0
 11
26.128638
 21
37.352941
 31
0.0
  0
LINE
  5
2F8
  8
LAYER_1
 10
26.128638
 20
37.352941
 30
0.0
 11
26.128638
 21
37.352941
 31
0.0
  0
LINE
  5
2F9
  8
LAYER_1
 10
33.51843
 20
37.880933
 30
0.0
 11
33.344506
 21
38.262604
 31
0.0
  0
LINE
  5
2FA
  8
LAYER_1
 10
33.344506
 20
38.262604
 30
0.0
 11
33.025213
 21
38.494156
 31
0.0
  0
LINE
  5
2FB
  8
LAYER_1
 10
33.025213
 20
38.494156
 30
0.0
 11
32.646048
 21
38.541453
 31
0.0
  0
LINE
  5
2FC
  8
LAYER_1
 10
32.646048
 20
38.541453
 30
0.0
 11
32.29251
 21
38.370363
 31
0.0
  0
LINE
  5
2FD
  8
LAYER_1
 10
32.29251
 20
38.370363
 30
0.0
 11
32.114653
 21
38.030082
 31
0.0
  0
LINE
  5
2FE
  8
LAYER_1
 10
32.114653
 20
38.030082
 30
0.0
 11
32.256267
 21
37.607241
 31
0.0
  0
LINE
  5
2FF
  8
LAYER_1
 10
32.256267
 20
37.607241
 30
0.0
 11
32.619621
 21
37.318427
 31
0.0
  0
LINE
  5
300
  8
LAYER_1
 10
32.619621
 20
37.318427
 30
0.0
 11
33.060801
 21
37.291559
 31
0.0
  0
LINE
  5
301
  8
LAYER_1
 10
33.060801
 20
37.291559
 30
0.0
 11
33.415255
 21
37.490955
 31
0.0
  0
LINE
  5
302
  8
LAYER_1
 10
33.415255
 20
37.490955
 30
0.0
 11
33.51843
 21
37.880933
 31
0.0
  0
LINE
  5
303
  8
LAYER_1
 10
33.51843
 20
37.880933
 30
0.0
 11
33.51843
 21
37.880933
 31
0.0
  0
LINE
  5
304
  8
LAYER_1
 10
18.787937
 20
38.199608
 30
0.0
 11
18.644365
 21
38.61463
 31
0.0
  0
LINE
  5
305
  8
LAYER_1
 10
18.644365
 20
38.61463
 30
0.0
 11
18.295551
 21
38.843235
 31
0.0
  0
LINE
  5
306
  8
LAYER_1
 10
18.295551
 20
38.843235
 30
0.0
 11
17.864345
 21
38.848575
 31
0.0
  0
LINE
  5
307
  8
LAYER_1
 10
17.864345
 20
38.848575
 30
0.0
 11
17.473598
 21
38.593806
 31
0.0
  0
LINE
  5
308
  8
LAYER_1
 10
17.473598
 20
38.593806
 30
0.0
 11
17.287553
 21
38.199608
 31
0.0
  0
LINE
  5
309
  8
LAYER_1
 10
17.287553
 20
38.199608
 30
0.0
 11
17.473598
 21
37.80541
 31
0.0
  0
LINE
  5
30A
  8
LAYER_1
 10
17.473598
 20
37.80541
 30
0.0
 11
17.864345
 21
37.550641
 31
0.0
  0
LINE
  5
30B
  8
LAYER_1
 10
17.864345
 20
37.550641
 30
0.0
 11
18.295551
 21
37.555981
 31
0.0
  0
LINE
  5
30C
  8
LAYER_1
 10
18.295551
 20
37.555981
 30
0.0
 11
18.644365
 21
37.784585
 31
0.0
  0
LINE
  5
30D
  8
LAYER_1
 10
18.644365
 20
37.784585
 30
0.0
 11
18.787937
 21
38.199608
 31
0.0
  0
LINE
  5
30E
  8
LAYER_1
 10
18.787937
 20
38.199608
 30
0.0
 11
18.787937
 21
38.199608
 31
0.0
  0
LINE
  5
30F
  8
LAYER_1
 10
10.442222
 20
38.977551
 30
0.0
 11
10.099925
 21
39.71875
 31
0.0
  0
LINE
  5
310
  8
LAYER_1
 10
10.099925
 20
39.71875
 30
0.0
 11
9.760567999999999
 21
39.897737
 31
0.0
  0
LINE
  5
311
  8
LAYER_1
 10
9.760567999999999
 20
39.897737
 30
0.0
 11
9.442106000000001
 21
39.797882
 31
0.0
  0
LINE
  5
312
  8
LAYER_1
 10
9.442106000000001
 20
39.797882
 30
0.0
 11
9.235576999999999
 21
39.489906
 31
0.0
  0
LINE
  5
313
  8
LAYER_1
 10
9.235576999999999
 20
39.489906
 30
0.0
 11
9.232016
 21
39.044529
 31
0.0
  0
LINE
  5
314
  8
LAYER_1
 10
9.232016
 20
39.044529
 30
0.0
 11
9.480218000000001
 21
38.733785
 31
0.0
  0
LINE
  5
315
  8
LAYER_1
 10
9.480218000000001
 20
38.733785
 30
0.0
 11
9.889659
 21
38.612122
 31
0.0
  0
LINE
  5
316
  8
LAYER_1
 10
9.889659
 20
38.612122
 30
0.0
 11
10.27283
 21
38.689918
 31
0.0
  0
LINE
  5
317
  8
LAYER_1
 10
10.27283
 20
38.689918
 30
0.0
 11
10.442222
 21
38.977551
 31
0.0
  0
LINE
  5
318
  8
LAYER_1
 10
10.442222
 20
38.977551
 30
0.0
 11
10.442222
 21
38.977551
 31
0.0
  0
LINE
  5
319
  8
LAYER_1
 10
23.318584
 20
39.281625
 30
0.0
 11
23.172241
 21
39.671081
 31
0.0
  0
LINE
  5
31A
  8
LAYER_1
 10
23.172241
 20
39.671081
 30
0.0
 11
22.851326
 21
39.90853
 31
0.0
  0
LINE
  5
31B
  8
LAYER_1
 10
22.851326
 20
39.90853
 30
0.0
 11
22.430535
 21
39.96443
 31
0.0
  0
LINE
  5
31C
  8
LAYER_1
 10
22.430535
 20
39.96443
 30
0.0
 11
21.984567
 21
39.809236
 31
0.0
  0
LINE
  5
31D
  8
LAYER_1
 10
21.984567
 20
39.809236
 30
0.0
 11
21.673579
 21
39.497996
 31
0.0
  0
LINE
  5
31E
  8
LAYER_1
 10
21.673579
 20
39.497996
 30
0.0
 11
21.984567
 21
39.0583
 31
0.0
  0
LINE
  5
31F
  8
LAYER_1
 10
21.984567
 20
39.0583
 30
0.0
 11
22.430772
 21
38.76219
 31
0.0
  0
LINE
  5
320
  8
LAYER_1
 10
22.430772
 20
38.76219
 30
0.0
 11
22.875124
 21
38.712975
 31
0.0
  0
LINE
  5
321
  8
LAYER_1
 10
22.875124
 20
38.712975
 30
0.0
 11
23.207701
 21
38.892254
 31
0.0
  0
LINE
  5
322
  8
LAYER_1
 10
23.207701
 20
38.892254
 30
0.0
 11
23.318584
 21
39.281625
 31
0.0
  0
LINE
  5
323
  8
LAYER_1
 10
23.318584
 20
39.281625
 30
0.0
 11
23.318584
 21
39.281625
 31
0.0
  0
LINE
  5
324
  8
LAYER_1
 10
30.938583
 20
39.281625
 30
0.0
 11
30.761518
 21
39.695244
 31
0.0
  0
LINE
  5
325
  8
LAYER_1
 10
30.761518
 20
39.695244
 30
0.0
 11
30.382738
 21
39.95307
 31
0.0
  0
LINE
  5
326
  8
LAYER_1
 10
30.382738
 20
39.95307
 30
0.0
 11
29.923743
 21
40.009524
 31
0.0
  0
LINE
  5
327
  8
LAYER_1
 10
29.923743
 20
40.009524
 30
0.0
 11
29.506031
 21
39.819027
 31
0.0
  0
LINE
  5
328
  8
LAYER_1
 10
29.506031
 20
39.819027
 30
0.0
 11
29.285861
 21
39.451159
 31
0.0
  0
LINE
  5
329
  8
LAYER_1
 10
29.285861
 20
39.451159
 30
0.0
 11
29.592095
 21
39.021956
 31
0.0
  0
LINE
  5
32A
  8
LAYER_1
 10
29.592095
 20
39.021956
 30
0.0
 11
30.048131
 21
38.741628
 31
0.0
  0
LINE
  5
32B
  8
LAYER_1
 10
30.048131
 20
38.741628
 30
0.0
 11
30.495788
 21
38.7052
 31
0.0
  0
LINE
  5
32C
  8
LAYER_1
 10
30.495788
 20
38.7052
 30
0.0
 11
30.828221
 21
38.892067
 31
0.0
  0
LINE
  5
32D
  8
LAYER_1
 10
30.828221
 20
38.892067
 30
0.0
 11
30.938583
 21
39.281625
 31
0.0
  0
LINE
  5
32E
  8
LAYER_1
 10
30.938583
 20
39.281625
 30
0.0
 11
30.938583
 21
39.281625
 31
0.0
  0
LINE
  5
32F
  8
LAYER_1
 10
15.442906
 20
39.587914
 30
0.0
 11
15.367819
 21
39.98242
 31
0.0
  0
LINE
  5
330
  8
LAYER_1
 10
15.367819
 20
39.98242
 30
0.0
 11
15.110878
 21
40.250699
 31
0.0
  0
LINE
  5
331
  8
LAYER_1
 10
15.110878
 20
40.250699
 30
0.0
 11
14.725601
 21
40.361186
 31
0.0
  0
LINE
  5
332
  8
LAYER_1
 10
14.725601
 20
40.361186
 30
0.0
 11
14.265504
 21
40.282319
 31
0.0
  0
LINE
  5
333
  8
LAYER_1
 10
14.265504
 20
40.282319
 30
0.0
 11
14.003441
 21
40.049279
 31
0.0
  0
LINE
  5
334
  8
LAYER_1
 10
14.003441
 20
40.049279
 30
0.0
 11
14.192281
 21
39.585621
 31
0.0
  0
LINE
  5
335
  8
LAYER_1
 10
14.192281
 20
39.585621
 30
0.0
 11
14.563892
 21
39.193884
 31
0.0
  0
LINE
  5
336
  8
LAYER_1
 10
14.563892
 20
39.193884
 30
0.0
 11
14.961077
 21
39.063806
 31
0.0
  0
LINE
  5
337
  8
LAYER_1
 10
14.961077
 20
39.063806
 30
0.0
 11
15.286521
 21
39.195209
 31
0.0
  0
LINE
  5
338
  8
LAYER_1
 10
15.286521
 20
39.195209
 30
0.0
 11
15.442906
 21
39.587914
 31
0.0
  0
LINE
  5
339
  8
LAYER_1
 10
15.442906
 20
39.587914
 30
0.0
 11
15.442906
 21
39.587914
 31
0.0
  0
LINE
  5
33A
  8
LAYER_1
 10
20.1343
 20
40.266789
 30
0.0
 11
20.265451
 21
40.361605
 31
0.0
  0
LINE
  5
33B
  8
LAYER_1
 10
20.265451
 20
40.361605
 30
0.0
 11
20.32
 21
40.850338
 31
0.0
  0
LINE
  5
33C
  8
LAYER_1
 10
20.32
 20
40.850338
 30
0.0
 11
20.242826
 21
41.345923
 31
0.0
  0
LINE
  5
33D
  8
LAYER_1
 10
20.242826
 20
41.345923
 30
0.0
 11
20.057279
 21
41.457216
 31
0.0
  0
LINE
  5
33E
  8
LAYER_1
 10
20.057279
 20
41.457216
 30
0.0
 11
19.819266
 21
41.427432
 31
0.0
  0
LINE
  5
33F
  8
LAYER_1
 10
19.819266
 20
41.427432
 30
0.0
 11
19.615952
 21
41.583836
 31
0.0
  0
LINE
  5
340
  8
LAYER_1
 10
19.615952
 20
41.583836
 30
0.0
 11
19.358762
 21
41.669584
 31
0.0
  0
LINE
  5
341
  8
LAYER_1
 10
19.358762
 20
41.669584
 30
0.0
 11
18.96397
 21
41.399451
 31
0.0
  0
LINE
  5
342
  8
LAYER_1
 10
18.96397
 20
41.399451
 30
0.0
 11
18.678082
 21
41.007256
 31
0.0
  0
LINE
  5
343
  8
LAYER_1
 10
18.678082
 20
41.007256
 30
0.0
 11
18.840853
 21
40.809323
 31
0.0
  0
LINE
  5
344
  8
LAYER_1
 10
18.840853
 20
40.809323
 30
0.0
 11
19.088223
 21
40.59927
 31
0.0
  0
LINE
  5
345
  8
LAYER_1
 10
19.088223
 20
40.59927
 30
0.0
 11
19.191111
 21
40.258199
 31
0.0
  0
LINE
  5
346
  8
LAYER_1
 10
19.191111
 20
40.258199
 30
0.0
 11
19.27213
 21
39.983985
 31
0.0
  0
LINE
  5
347
  8
LAYER_1
 10
19.27213
 20
39.983985
 30
0.0
 11
19.569856
 21
40.138158
 31
0.0
  0
LINE
  5
348
  8
LAYER_1
 10
19.569856
 20
40.138158
 30
0.0
 11
19.891894
 21
40.305605
 31
0.0
  0
LINE
  5
349
  8
LAYER_1
 10
19.891894
 20
40.305605
 30
0.0
 11
20.1343
 21
40.266789
 31
0.0
  0
LINE
  5
34A
  8
LAYER_1
 10
20.1343
 20
40.266789
 30
0.0
 11
20.1343
 21
40.266789
 31
0.0
  0
LINE
  5
34B
  8
LAYER_1
 10
27.719022
 20
40.302067
 30
0.0
 11
27.825258
 21
40.391924
 31
0.0
  0
LINE
  5
34C
  8
LAYER_1
 10
27.825258
 20
40.391924
 30
0.0
 11
27.869444
 21
40.819196
 31
0.0
  0
LINE
  5
34D
  8
LAYER_1
 10
27.869444
 20
40.819196
 30
0.0
 11
27.746648
 21
41.324071
 31
0.0
  0
LINE
  5
34E
  8
LAYER_1
 10
27.746648
 20
41.324071
 30
0.0
 11
27.335872
 21
41.447438
 31
0.0
  0
LINE
  5
34F
  8
LAYER_1
 10
27.335872
 20
41.447438
 30
0.0
 11
26.461287
 21
41.076442
 31
0.0
  0
LINE
  5
350
  8
LAYER_1
 10
26.461287
 20
41.076442
 30
0.0
 11
26.283014
 21
40.843801
 31
0.0
  0
LINE
  5
351
  8
LAYER_1
 10
26.283014
 20
40.843801
 30
0.0
 11
26.472444
 21
40.739608
 31
0.0
  0
LINE
  5
352
  8
LAYER_1
 10
26.472444
 20
40.739608
 30
0.0
 11
26.711627
 21
40.605103
 31
0.0
  0
LINE
  5
353
  8
LAYER_1
 10
26.711627
 20
40.605103
 30
0.0
 11
26.811111
 21
40.281718
 31
0.0
  0
LINE
  5
354
  8
LAYER_1
 10
26.811111
 20
40.281718
 30
0.0
 11
26.891592
 21
39.98792
 31
0.0
  0
LINE
  5
355
  8
LAYER_1
 10
26.891592
 20
39.98792
 30
0.0
 11
27.189856
 21
40.138158
 31
0.0
  0
LINE
  5
356
  8
LAYER_1
 10
27.189856
 20
40.138158
 30
0.0
 11
27.501532
 21
40.315967
 31
0.0
  0
LINE
  5
357
  8
LAYER_1
 10
27.501532
 20
40.315967
 30
0.0
 11
27.719022
 21
40.302067
 31
0.0
  0
LINE
  5
358
  8
LAYER_1
 10
27.719022
 20
40.302067
 30
0.0
 11
27.719022
 21
40.302067
 31
0.0
  0
LINE
  5
359
  8
LAYER_1
 10
7.337778
 20
41.106497
 30
0.0
 11
7.020619
 21
41.790544
 31
0.0
  0
LINE
  5
35A
  8
LAYER_1
 10
7.020619
 20
41.790544
 30
0.0
 11
6.655387
 21
41.942408
 31
0.0
  0
LINE
  5
35B
  8
LAYER_1
 10
6.655387
 20
41.942408
 30
0.0
 11
6.324007
 21
41.79759
 31
0.0
  0
LINE
  5
35C
  8
LAYER_1
 10
6.324007
 20
41.79759
 30
0.0
 11
6.153716
 21
41.474709
 31
0.0
  0
LINE
  5
35D
  8
LAYER_1
 10
6.153716
 20
41.474709
 30
0.0
 11
6.271749
 21
41.092386
 31
0.0
  0
LINE
  5
35E
  8
LAYER_1
 10
6.271749
 20
41.092386
 30
0.0
 11
6.597833
 21
40.833788
 31
0.0
  0
LINE
  5
35F
  8
LAYER_1
 10
6.597833
 20
40.833788
 30
0.0
 11
6.946556
 21
40.750766
 31
0.0
  0
LINE
  5
360
  8
LAYER_1
 10
6.946556
 20
40.750766
 30
0.0
 11
7.224383
 21
40.842082
 31
0.0
  0
LINE
  5
361
  8
LAYER_1
 10
7.224383
 20
40.842082
 30
0.0
 11
7.337778
 21
41.106497
 31
0.0
  0
LINE
  5
362
  8
LAYER_1
 10
7.337778
 20
41.106497
 30
0.0
 11
7.337778
 21
41.106497
 31
0.0
  0
LINE
  5
363
  8
LAYER_1
 10
12.629444
 20
41.488982
 30
0.0
 11
12.497075
 21
41.943548
 31
0.0
  0
LINE
  5
364
  8
LAYER_1
 10
12.497075
 20
41.943548
 30
0.0
 11
12.192584
 21
42.269976
 31
0.0
  0
LINE
  5
365
  8
LAYER_1
 10
12.192584
 20
42.269976
 30
0.0
 11
11.854898
 21
42.374939
 31
0.0
  0
LINE
  5
366
  8
LAYER_1
 10
11.854898
 20
42.374939
 30
0.0
 11
11.622946
 21
42.165112
 31
0.0
  0
LINE
  5
367
  8
LAYER_1
 10
11.622946
 20
42.165112
 30
0.0
 11
11.476468
 21
42.000004
 31
0.0
  0
LINE
  5
368
  8
LAYER_1
 10
11.476468
 20
42.000004
 30
0.0
 11
11.264784
 21
42.024505
 31
0.0
  0
LINE
  5
369
  8
LAYER_1
 10
11.264784
 20
42.024505
 30
0.0
 11
11.073266
 21
42.096875
 31
0.0
  0
LINE
  5
36A
  8
LAYER_1
 10
11.073266
 20
42.096875
 30
0.0
 11
11.019221
 21
42.001094
 31
0.0
  0
LINE
  5
36B
  8
LAYER_1
 10
11.019221
 20
42.001094
 30
0.0
 11
11.319008
 21
41.360699
 31
0.0
  0
LINE
  5
36C
  8
LAYER_1
 10
11.319008
 20
41.360699
 30
0.0
 11
11.715332
 21
40.965494
 31
0.0
  0
LINE
  5
36D
  8
LAYER_1
 10
11.715332
 20
40.965494
 30
0.0
 11
12.144509
 21
40.86284
 31
0.0
  0
LINE
  5
36E
  8
LAYER_1
 10
12.144509
 20
40.86284
 30
0.0
 11
12.488545
 21
41.041187
 31
0.0
  0
LINE
  5
36F
  8
LAYER_1
 10
12.488545
 20
41.041187
 30
0.0
 11
12.629444
 21
41.488982
 31
0.0
  0
LINE
  5
370
  8
LAYER_1
 10
12.629444
 20
41.488982
 30
0.0
 11
12.629444
 21
41.488982
 31
0.0
  0
LINE
  5
371
  8
LAYER_1
 10
74.377821
 20
41.892271
 30
0.0
 11
76.200734
 21
42.548684
 31
0.0
  0
LINE
  5
372
  8
LAYER_1
 10
76.200734
 20
42.548684
 30
0.0
 11
78.157348
 21
43.425294
 31
0.0
  0
LINE
  5
373
  8
LAYER_1
 10
78.157348
 20
43.425294
 30
0.0
 11
82.17664000000001
 21
45.695232
 31
0.0
  0
LINE
  5
374
  8
LAYER_1
 10
82.17664000000001
 20
45.695232
 30
0.0
 11
84.06105700000001
 21
46.910481
 31
0.0
  0
LINE
  5
375
  8
LAYER_1
 10
84.06105700000001
 20
46.910481
 30
0.0
 11
83.746498
 21
47.987822
 31
0.0
  0
LINE
  5
376
  8
LAYER_1
 10
83.746498
 20
47.987822
 30
0.0
 11
83.387232
 21
49.13927
 31
0.0
  0
LINE
  5
377
  8
LAYER_1
 10
83.387232
 20
49.13927
 30
0.0
 11
81.39404
 21
48.093507
 31
0.0
  0
LINE
  5
378
  8
LAYER_1
 10
81.39404
 20
48.093507
 30
0.0
 11
77.97964
 21
46.379734
 31
0.0
  0
LINE
  5
379
  8
LAYER_1
 10
77.97964
 20
46.379734
 30
0.0
 11
74.51945600000001
 21
45.124203
 31
0.0
  0
LINE
  5
37A
  8
LAYER_1
 10
74.51945600000001
 20
45.124203
 30
0.0
 11
71.081388
 21
44.346923
 31
0.0
  0
LINE
  5
37B
  8
LAYER_1
 10
71.081388
 20
44.346923
 30
0.0
 11
67.733333
 21
44.067902
 31
0.0
  0
LINE
  5
37C
  8
LAYER_1
 10
67.733333
 20
44.067902
 30
0.0
 11
65.320337
 21
44.141697
 31
0.0
  0
LINE
  5
37D
  8
LAYER_1
 10
65.320337
 20
44.141697
 30
0.0
 11
62.664598
 21
44.477903
 31
0.0
  0
LINE
  5
37E
  8
LAYER_1
 10
62.664598
 20
44.477903
 30
0.0
 11
53.806838
 21
46.411844
 31
0.0
  0
LINE
  5
37F
  8
LAYER_1
 10
53.806838
 20
46.411844
 30
0.0
 11
49.397573
 21
47.383474
 31
0.0
  0
LINE
  5
380
  8
LAYER_1
 10
49.397573
 20
47.383474
 30
0.0
 11
45.887103
 21
47.964927
 31
0.0
  0
LINE
  5
381
  8
LAYER_1
 10
45.887103
 20
47.964927
 30
0.0
 11
43.059731
 21
48.183428
 31
0.0
  0
LINE
  5
382
  8
LAYER_1
 10
43.059731
 20
48.183428
 30
0.0
 11
40.699755
 21
48.066203
 31
0.0
  0
LINE
  5
383
  8
LAYER_1
 10
40.699755
 20
48.066203
 30
0.0
 11
37.008006
 21
47.38894
 31
0.0
  0
LINE
  5
384
  8
LAYER_1
 10
37.008006
 20
47.38894
 30
0.0
 11
34.652898
 21
46.693967
 31
0.0
  0
LINE
  5
385
  8
LAYER_1
 10
34.652898
 20
46.693967
 30
0.0
 11
34.600702
 21
46.147743
 31
0.0
  0
LINE
  5
386
  8
LAYER_1
 10
34.600702
 20
46.147743
 30
0.0
 11
34.841791
 21
45.23291
 31
0.0
  0
LINE
  5
387
  8
LAYER_1
 10
34.841791
 20
45.23291
 30
0.0
 11
35.224621
 21
44.379067
 31
0.0
  0
LINE
  5
388
  8
LAYER_1
 10
35.224621
 20
44.379067
 30
0.0
 11
35.597646
 21
44.015811
 31
0.0
  0
LINE
  5
389
  8
LAYER_1
 10
35.597646
 20
44.015811
 30
0.0
 11
38.75622
 21
44.690506
 31
0.0
  0
LINE
  5
38A
  8
LAYER_1
 10
38.75622
 20
44.690506
 30
0.0
 11
41.671178
 21
45.193514
 31
0.0
  0
LINE
  5
38B
  8
LAYER_1
 10
41.671178
 20
45.193514
 30
0.0
 11
45.10622
 21
45.18022
 31
0.0
  0
LINE
  5
38C
  8
LAYER_1
 10
45.10622
 20
45.18022
 30
0.0
 11
48.859379
 21
44.832222
 31
0.0
  0
LINE
  5
38D
  8
LAYER_1
 10
48.859379
 20
44.832222
 30
0.0
 11
53.198889
 21
43.839178
 31
0.0
  0
LINE
  5
38E
  8
LAYER_1
 10
53.198889
 20
43.839178
 30
0.0
 11
59.133654
 21
42.326495
 31
0.0
  0
LINE
  5
38F
  8
LAYER_1
 10
59.133654
 20
42.326495
 30
0.0
 11
63.102235
 21
41.484751
 31
0.0
  0
LINE
  5
390
  8
LAYER_1
 10
63.102235
 20
41.484751
 30
0.0
 11
66.07332
 21
41.149675
 31
0.0
  0
LINE
  5
391
  8
LAYER_1
 10
66.07332
 20
41.149675
 30
0.0
 11
69.015599
 21
41.157
 31
0.0
  0
LINE
  5
392
  8
LAYER_1
 10
69.015599
 20
41.157
 30
0.0
 11
72.072395
 21
41.399955
 31
0.0
  0
LINE
  5
393
  8
LAYER_1
 10
72.072395
 20
41.399955
 30
0.0
 11
74.377821
 21
41.892271
 31
0.0
  0
LINE
  5
394
  8
LAYER_1
 10
74.377821
 20
41.892271
 30
0.0
 11
74.377821
 21
41.892271
 31
0.0
  0
LINE
  5
395
  8
LAYER_1
 10
24.717527
 20
41.586274
 30
0.0
 11
24.835555
 21
42.120524
 31
0.0
  0
LINE
  5
396
  8
LAYER_1
 10
24.835555
 20
42.120524
 30
0.0
 11
24.710048
 21
42.549017
 31
0.0
  0
LINE
  5
397
  8
LAYER_1
 10
24.710048
 20
42.549017
 30
0.0
 11
24.397004
 21
42.806238
 31
0.0
  0
LINE
  5
398
  8
LAYER_1
 10
24.397004
 20
42.806238
 30
0.0
 11
23.991634
 21
42.852028
 31
0.0
  0
LINE
  5
399
  8
LAYER_1
 10
23.991634
 20
42.852028
 30
0.0
 11
23.589152
 21
42.64623
 31
0.0
  0
LINE
  5
39A
  8
LAYER_1
 10
23.589152
 20
42.64623
 30
0.0
 11
23.41235
 21
42.244787
 31
0.0
  0
LINE
  5
39B
  8
LAYER_1
 10
23.41235
 20
42.244787
 30
0.0
 11
23.517403
 21
41.7994
 31
0.0
  0
LINE
  5
39C
  8
LAYER_1
 10
23.517403
 20
41.7994
 30
0.0
 11
23.816807
 21
41.476325
 31
0.0
  0
LINE
  5
39D
  8
LAYER_1
 10
23.816807
 20
41.476325
 30
0.0
 11
24.223057
 21
41.441821
 31
0.0
  0
LINE
  5
39E
  8
LAYER_1
 10
24.223057
 20
41.441821
 30
0.0
 11
24.717527
 21
41.586274
 31
0.0
  0
LINE
  5
39F
  8
LAYER_1
 10
24.717527
 20
41.586274
 30
0.0
 11
24.717527
 21
41.586274
 31
0.0
  0
LINE
  5
3A0
  8
LAYER_1
 10
32.389541
 20
42.114267
 30
0.0
 11
32.21439
 21
42.495585
 31
0.0
  0
LINE
  5
3A1
  8
LAYER_1
 10
32.21439
 20
42.495585
 30
0.0
 11
31.889001
 21
42.737363
 31
0.0
  0
LINE
  5
3A2
  8
LAYER_1
 10
31.889001
 20
42.737363
 30
0.0
 11
31.498407
 21
42.80308
 31
0.0
  0
LINE
  5
3A3
  8
LAYER_1
 10
31.498407
 20
42.80308
 30
0.0
 11
31.127638
 21
42.656218
 31
0.0
  0
LINE
  5
3A4
  8
LAYER_1
 10
31.127638
 20
42.656218
 30
0.0
 11
30.931685
 21
42.333872
 31
0.0
  0
LINE
  5
3A5
  8
LAYER_1
 10
30.931685
 20
42.333872
 30
0.0
 11
31.101256
 21
41.882402
 31
0.0
  0
LINE
  5
3A6
  8
LAYER_1
 10
31.101256
 20
41.882402
 30
0.0
 11
31.47864
 21
41.568121
 31
0.0
  0
LINE
  5
3A7
  8
LAYER_1
 10
31.47864
 20
41.568121
 30
0.0
 11
31.928874
 21
41.521752
 31
0.0
  0
LINE
  5
3A8
  8
LAYER_1
 10
31.928874
 20
41.521752
 30
0.0
 11
32.28737
 21
41.713675
 31
0.0
  0
LINE
  5
3A9
  8
LAYER_1
 10
32.28737
 20
41.713675
 30
0.0
 11
32.389541
 21
42.114267
 31
0.0
  0
LINE
  5
3AA
  8
LAYER_1
 10
32.389541
 20
42.114267
 30
0.0
 11
32.389541
 21
42.114267
 31
0.0
  0
LINE
  5
3AB
  8
LAYER_1
 10
17.391917
 20
42.386069
 30
0.0
 11
17.244231
 21
42.779855
 31
0.0
  0
LINE
  5
3AC
  8
LAYER_1
 10
17.244231
 20
42.779855
 30
0.0
 11
16.919365
 21
43.014265
 31
0.0
  0
LINE
  5
3AD
  8
LAYER_1
 10
16.919365
 20
43.014265
 30
0.0
 11
16.490159
 21
43.062038
 31
0.0
  0
LINE
  5
3AE
  8
LAYER_1
 10
16.490159
 20
43.062038
 30
0.0
 11
16.029458
 21
42.895918
 31
0.0
  0
LINE
  5
3AF
  8
LAYER_1
 10
16.029458
 20
42.895918
 30
0.0
 11
15.690027
 21
42.572744
 31
0.0
  0
LINE
  5
3B0
  8
LAYER_1
 10
15.690027
 20
42.572744
 30
0.0
 11
16.029458
 21
42.137404
 31
0.0
  0
LINE
  5
3B1
  8
LAYER_1
 10
16.029458
 20
42.137404
 30
0.0
 11
16.494215
 21
41.85081
 31
0.0
  0
LINE
  5
3B2
  8
LAYER_1
 10
16.494215
 20
41.85081
 30
0.0
 11
16.946782
 21
41.809604
 31
0.0
  0
LINE
  5
3B3
  8
LAYER_1
 10
16.946782
 20
41.809604
 30
0.0
 11
17.281303
 21
41.994464
 31
0.0
  0
LINE
  5
3B4
  8
LAYER_1
 10
17.281303
 20
41.994464
 30
0.0
 11
17.391917
 21
42.386069
 31
0.0
  0
LINE
  5
3B5
  8
LAYER_1
 10
17.391917
 20
42.386069
 30
0.0
 11
17.391917
 21
42.386069
 31
0.0
  0
LINE
  5
3B6
  8
LAYER_1
 10
21.811624
 20
43.566649
 30
0.0
 11
21.596907
 21
43.987448
 31
0.0
  0
LINE
  5
3B7
  8
LAYER_1
 10
21.596907
 20
43.987448
 30
0.0
 11
21.260791
 21
44.229229
 31
0.0
  0
LINE
  5
3B8
  8
LAYER_1
 10
21.260791
 20
44.229229
 30
0.0
 11
20.87187
 21
44.265668
 31
0.0
  0
LINE
  5
3B9
  8
LAYER_1
 10
20.87187
 20
44.265668
 30
0.0
 11
20.498737
 21
44.070446
 31
0.0
  0
LINE
  5
3BA
  8
LAYER_1
 10
20.498737
 20
44.070446
 30
0.0
 11
20.302514
 21
43.713321
 31
0.0
  0
LINE
  5
3BB
  8
LAYER_1
 10
20.302514
 20
43.713321
 30
0.0
 11
20.584457
 21
43.280633
 31
0.0
  0
LINE
  5
3BC
  8
LAYER_1
 10
20.584457
 20
43.280633
 30
0.0
 11
21.045161
 21
42.975303
 31
0.0
  0
LINE
  5
3BD
  8
LAYER_1
 10
21.045161
 20
42.975303
 30
0.0
 11
21.482326
 21
42.939625
 31
0.0
  0
LINE
  5
3BE
  8
LAYER_1
 10
21.482326
 20
42.939625
 30
0.0
 11
21.777349
 21
43.145955
 31
0.0
  0
LINE
  5
3BF
  8
LAYER_1
 10
21.777349
 20
43.145955
 30
0.0
 11
21.811624
 21
43.566649
 31
0.0
  0
LINE
  5
3C0
  8
LAYER_1
 10
21.811624
 20
43.566649
 30
0.0
 11
21.811624
 21
43.566649
 31
0.0
  0
LINE
  5
3C1
  8
LAYER_1
 10
29.431623
 20
43.566649
 30
0.0
 11
29.216907
 21
43.987448
 31
0.0
  0
LINE
  5
3C2
  8
LAYER_1
 10
29.216907
 20
43.987448
 30
0.0
 11
28.880791
 21
44.229229
 31
0.0
  0
LINE
  5
3C3
  8
LAYER_1
 10
28.880791
 20
44.229229
 30
0.0
 11
28.49187
 21
44.265668
 31
0.0
  0
LINE
  5
3C4
  8
LAYER_1
 10
28.49187
 20
44.265668
 30
0.0
 11
28.118736
 21
44.070446
 31
0.0
  0
LINE
  5
3C5
  8
LAYER_1
 10
28.118736
 20
44.070446
 30
0.0
 11
27.922513
 21
43.713321
 31
0.0
  0
LINE
  5
3C6
  8
LAYER_1
 10
27.922513
 20
43.713321
 30
0.0
 11
28.204456
 21
43.280633
 31
0.0
  0
LINE
  5
3C7
  8
LAYER_1
 10
28.204456
 20
43.280633
 30
0.0
 11
28.66516
 21
42.975303
 31
0.0
  0
LINE
  5
3C8
  8
LAYER_1
 10
28.66516
 20
42.975303
 30
0.0
 11
29.102326
 21
42.939625
 31
0.0
  0
LINE
  5
3C9
  8
LAYER_1
 10
29.102326
 20
42.939625
 30
0.0
 11
29.397349
 21
43.145955
 31
0.0
  0
LINE
  5
3CA
  8
LAYER_1
 10
29.397349
 20
43.145955
 30
0.0
 11
29.431623
 21
43.566649
 31
0.0
  0
LINE
  5
3CB
  8
LAYER_1
 10
29.431623
 20
43.566649
 30
0.0
 11
29.431623
 21
43.566649
 31
0.0
  0
LINE
  5
3CC
  8
LAYER_1
 10
26.451599
 20
45.259262
 30
0.0
 11
26.336694
 21
45.652835
 31
0.0
  0
LINE
  5
3CD
  8
LAYER_1
 10
26.336694
 20
45.652835
 30
0.0
 11
26.007034
 21
45.890244
 31
0.0
  0
LINE
  5
3CE
  8
LAYER_1
 10
26.007034
 20
45.890244
 30
0.0
 11
25.540179
 21
45.846144
 31
0.0
  0
LINE
  5
3CF
  8
LAYER_1
 10
25.540179
 20
45.846144
 30
0.0
 11
25.114352
 21
45.588974
 31
0.0
  0
LINE
  5
3D0
  8
LAYER_1
 10
25.114352
 20
45.588974
 30
0.0
 11
24.897867
 21
45.269768
 31
0.0
  0
LINE
  5
3D1
  8
LAYER_1
 10
24.897867
 20
45.269768
 30
0.0
 11
25.059033
 21
45.039559
 31
0.0
  0
LINE
  5
3D2
  8
LAYER_1
 10
25.059033
 20
45.039559
 30
0.0
 11
25.299841
 21
44.841142
 31
0.0
  0
LINE
  5
3D3
  8
LAYER_1
 10
25.299841
 20
44.841142
 30
0.0
 11
25.399999
 21
44.523698
 31
0.0
  0
LINE
  5
3D4
  8
LAYER_1
 10
25.399999
 20
44.523698
 30
0.0
 11
25.557533
 21
44.292894
 31
0.0
  0
LINE
  5
3D5
  8
LAYER_1
 10
25.557533
 20
44.292894
 30
0.0
 11
25.907723
 21
44.424177
 31
0.0
  0
LINE
  5
3D6
  8
LAYER_1
 10
25.907723
 20
44.424177
 30
0.0
 11
26.266951
 21
44.789111
 31
0.0
  0
LINE
  5
3D7
  8
LAYER_1
 10
26.266951
 20
44.789111
 30
0.0
 11
26.451599
 21
45.259262
 31
0.0
  0
LINE
  5
3D8
  8
LAYER_1
 10
26.451599
 20
45.259262
 30
0.0
 11
26.451599
 21
45.259262
 31
0.0
  0
LINE
  5
3D9
  8
LAYER_1
 10
30.823467
 20
45.946511
 30
0.0
 11
30.929702
 21
46.036369
 31
0.0
  0
LINE
  5
3DA
  8
LAYER_1
 10
30.929702
 20
46.036369
 30
0.0
 11
30.973889
 21
46.46364
 31
0.0
  0
LINE
  5
3DB
  8
LAYER_1
 10
30.973889
 20
46.46364
 30
0.0
 11
30.878268
 21
46.872248
 31
0.0
  0
LINE
  5
3DC
  8
LAYER_1
 10
30.878268
 20
46.872248
 30
0.0
 11
30.613136
 21
47.079734
 31
0.0
  0
LINE
  5
3DD
  8
LAYER_1
 10
30.613136
 20
47.079734
 30
0.0
 11
30.211084
 21
47.076137
 31
0.0
  0
LINE
  5
3DE
  8
LAYER_1
 10
30.211084
 20
47.076137
 30
0.0
 11
29.704707
 21
46.851497
 31
0.0
  0
LINE
  5
3DF
  8
LAYER_1
 10
29.704707
 20
46.851497
 30
0.0
 11
29.504432
 21
46.571963
 31
0.0
  0
LINE
  5
3E0
  8
LAYER_1
 10
29.504432
 20
46.571963
 30
0.0
 11
29.698038
 21
46.103094
 31
0.0
  0
LINE
  5
3E1
  8
LAYER_1
 10
29.698038
 20
46.103094
 30
0.0
 11
30.029509
 21
45.767303
 31
0.0
  0
LINE
  5
3E2
  8
LAYER_1
 10
30.029509
 20
45.767303
 30
0.0
 11
30.353229
 21
45.831508
 31
0.0
  0
LINE
  5
3E3
  8
LAYER_1
 10
30.353229
 20
45.831508
 30
0.0
 11
30.623285
 21
45.974778
 31
0.0
  0
LINE
  5
3E4
  8
LAYER_1
 10
30.623285
 20
45.974778
 30
0.0
 11
30.823467
 21
45.946511
 31
0.0
  0
LINE
  5
3E5
  8
LAYER_1
 10
30.823467
 20
45.946511
 30
0.0
 11
30.823467
 21
45.946511
 31
0.0
  0
ENDSEC
  0
EOF
