  0
SECTION
  2
HEADER
  9
$ACADVER
  1
AC1015
  9
$ACADMAINTVER
 70
    20
  9
$DWGCODEPAGE
  3
ANSI_1251
  9
$INSBASE
 10
0.0
 20
0.0
 30
0.0
  9
$EXTMIN
 10
1531.210159836837
 20
662.1040307039915
 30
0.0
  9
$EXTMAX
 10
2140.520856440232
 20
1022.014714665947
 30
0.0
  9
$LIMMIN
 10
0.0
 20
0.0
  9
$LIMMAX
 10
420.0
 20
297.0
  9
$ORTHOMODE
 70
     0
  9
$REGENMODE
 70
     1
  9
$FILLMODE
 70
     1
  9
$QTEXTMODE
 70
     0
  9
$MIRRTEXT
 70
     0
  9
$LTSCALE
 40
1.0
  9
$ATTMODE
 70
     1
  9
$TEXTSIZE
 40
2.5
  9
$TRACEWID
 40
1.0
  9
$TEXTSTYLE
  7
Standard
  9
$CLAYER
  8
0
  9
$CELTYPE
  6
ByLayer
  9
$CECOLOR
 62
   256
  9
$CELTSCALE
 40
1.0
  9
$DISPSILH
 70
     0
  9
$DIMSCALE
 40
1.0
  9
$DIMASZ
 40
2.5
  9
$DIMEXO
 40
0.625
  9
$DIMDLI
 40
3.75
  9
$DIMRND
 40
0.0
  9
$DIMDLE
 40
0.0
  9
$DIMEXE
 40
1.25
  9
$DIMTP
 40
0.0
  9
$DIMTM
 40
0.0
  9
$DIMTXT
 40
2.5
  9
$DIMCEN
 40
2.5
  9
$DIMTSZ
 40
0.0
  9
$DIMTOL
 70
     0
  9
$DIMLIM
 70
     0
  9
$DIMTIH
 70
     0
  9
$DIMTOH
 70
     0
  9
$DIMSE1
 70
     0
  9
$DIMSE2
 70
     0
  9
$DIMTAD
 70
     1
  9
$DIMZIN
 70
     8
  9
$DIMBLK
  1

  9
$DIMASO
 70
     1
  9
$DIMSHO
 70
     1
  9
$DIMPOST
  1

  9
$DIMAPOST
  1

  9
$DIMALT
 70
     0
  9
$DIMALTD
 70
     3
  9
$DIMALTF
 40
0.03937007874016
  9
$DIMLFAC
 40
1.0
  9
$DIMTOFL
 70
     1
  9
$DIMTVP
 40
0.0
  9
$DIMTIX
 70
     0
  9
$DIMSOXD
 70
     0
  9
$DIMSAH
 70
     0
  9
$DIMBLK1
  1

  9
$DIMBLK2
  1

  9
$DIMSTYLE
  2
ISO-25
  9
$DIMCLRD
 70
     0
  9
$DIMCLRE
 70
     0
  9
$DIMCLRT
 70
     0
  9
$DIMTFAC
 40
1.0
  9
$DIMGAP
 40
0.625
  9
$DIMJUST
 70
     0
  9
$DIMSD1
 70
     0
  9
$DIMSD2
 70
     0
  9
$DIMTOLJ
 70
     0
  9
$DIMTZIN
 70
     8
  9
$DIMALTZ
 70
     0
  9
$DIMALTTZ
 70
     0
  9
$DIMUPT
 70
     0
  9
$DIMDEC
 70
     2
  9
$DIMTDEC
 70
     2
  9
$DIMALTU
 70
     2
  9
$DIMALTTD
 70
     3
  9
$DIMTXSTY
  7
Standard
  9
$DIMAUNIT
 70
     0
  9
$DIMADEC
 70
     0
  9
$DIMALTRND
 40
0.0
  9
$DIMAZIN
 70
     0
  9
$DIMDSEP
 70
    44
  9
$DIMATFIT
 70
     3
  9
$DIMFRAC
 70
     0
  9
$DIMLDRBLK
  1

  9
$DIMLUNIT
 70
     2
  9
$DIMLWD
 70
    -2
  9
$DIMLWE
 70
    -2
  9
$DIMTMOVE
 70
     0
  9
$LUNITS
 70
     2
  9
$LUPREC
 70
     4
  9
$SKETCHINC
 40
1.0
  9
$FILLETRAD
 40
0.0
  9
$AUNITS
 70
     0
  9
$AUPREC
 70
     0
  9
$MENU
  1
.
  9
$ELEVATION
 40
0.0
  9
$PELEVATION
 40
0.0
  9
$THICKNESS
 40
0.0
  9
$LIMCHECK
 70
     0
  9
$CHAMFERA
 40
0.0
  9
$CHAMFERB
 40
0.0
  9
$CHAMFERC
 40
0.0
  9
$CHAMFERD
 40
0.0
  9
$SKPOLY
 70
     0
  9
$TDCREATE
 40
2456373.823826308
  9
$TDUCREATE
 40
2456373.657159641
  9
$TDUPDATE
 40
2456748.621064988
  9
$TDUUPDATE
 40
2456748.454398322
  9
$TDINDWG
 40
0.0485313657
  9
$TDUSRTIMER
 40
0.0485253935
  9
$USRTIMER
 70
     1
  9
$ANGBASE
 50
0.0
  9
$ANGDIR
 70
     0
  9
$PDMODE
 70
     0
  9
$PDSIZE
 40
0.0
  9
$PLINEWID
 40
0.0
  9
$SPLFRAME
 70
     0
  9
$SPLINETYPE
 70
     6
  9
$SPLINESEGS
 70
     8
  9
$HANDSEED
  5
206D
  9
$SURFTAB1
 70
     6
  9
$SURFTAB2
 70
     6
  9
$SURFTYPE
 70
     6
  9
$SURFU
 70
     6
  9
$SURFV
 70
     6
  9
$UCSBASE
  2

  9
$UCSNAME
  2

  9
$UCSORG
 10
0.0
 20
0.0
 30
0.0
  9
$UCSXDIR
 10
1.0
 20
0.0
 30
0.0
  9
$UCSYDIR
 10
0.0
 20
1.0
 30
0.0
  9
$UCSORTHOREF
  2

  9
$UCSORTHOVIEW
 70
     0
  9
$UCSORGTOP
 10
0.0
 20
0.0
 30
0.0
  9
$UCSORGBOTTOM
 10
0.0
 20
0.0
 30
0.0
  9
$UCSORGLEFT
 10
0.0
 20
0.0
 30
0.0
  9
$UCSORGRIGHT
 10
0.0
 20
0.0
 30
0.0
  9
$UCSORGFRONT
 10
0.0
 20
0.0
 30
0.0
  9
$UCSORGBACK
 10
0.0
 20
0.0
 30
0.0
  9
$PUCSBASE
  2

  9
$PUCSNAME
  2

  9
$PUCSORG
 10
0.0
 20
0.0
 30
0.0
  9
$PUCSXDIR
 10
1.0
 20
0.0
 30
0.0
  9
$PUCSYDIR
 10
0.0
 20
1.0
 30
0.0
  9
$PUCSORTHOREF
  2

  9
$PUCSORTHOVIEW
 70
     0
  9
$PUCSORGTOP
 10
0.0
 20
0.0
 30
0.0
  9
$PUCSORGBOTTOM
 10
0.0
 20
0.0
 30
0.0
  9
$PUCSORGLEFT
 10
0.0
 20
0.0
 30
0.0
  9
$PUCSORGRIGHT
 10
0.0
 20
0.0
 30
0.0
  9
$PUCSORGFRONT
 10
0.0
 20
0.0
 30
0.0
  9
$PUCSORGBACK
 10
0.0
 20
0.0
 30
0.0
  9
$USERI1
 70
     0
  9
$USERI2
 70
     0
  9
$USERI3
 70
     0
  9
$USERI4
 70
     0
  9
$USERI5
 70
     0
  9
$USERR1
 40
0.0
  9
$USERR2
 40
0.0
  9
$USERR3
 40
0.0
  9
$USERR4
 40
0.0
  9
$USERR5
 40
0.0
  9
$WORLDVIEW
 70
     1
  9
$SHADEDGE
 70
     3
  9
$SHADEDIF
 70
    70
  9
$TILEMODE
 70
     1
  9
$MAXACTVP
 70
    64
  9
$PINSBASE
 10
0.0
 20
0.0
 30
0.0
  9
$PLIMCHECK
 70
     0
  9
$PEXTMIN
 10
0.0
 20
0.0
 30
0.0
  9
$PEXTMAX
 10
0.0
 20
0.0
 30
0.0
  9
$PLIMMIN
 10
0.0
 20
0.0
  9
$PLIMMAX
 10
12.0
 20
9.0
  9
$UNITMODE
 70
     0
  9
$VISRETAIN
 70
     1
  9
$PLINEGEN
 70
     0
  9
$PSLTSCALE
 70
     1
  9
$TREEDEPTH
 70
  3020
  9
$CMLSTYLE
  2
Standard
  9
$CMLJUST
 70
     0
  9
$CMLSCALE
 40
20.0
  9
$PROXYGRAPHICS
 70
     1
  9
$MEASUREMENT
 70
     1
  9
$CELWEIGHT
370
    -1
  9
$ENDCAPS
280
     0
  9
$JOINSTYLE
280
     0
  9
$LWDISPLAY
290
     0
  9
$INSUNITS
 70
     4
  9
$HYPERLINKBASE
  1

  9
$STYLESHEET
  1

  9
$XEDIT
290
     1
  9
$CEPSNTYPE
380
     0
  9
$PSTYLEMODE
290
     1
  9
$FINGERPRINTGUID
  2
{EF14883E-4161-48C4-BB70-79C62142DDB5}
  9
$VERSIONGUID
  2
{69878034-C98D-4772-A6BE-F35F8C9151FA}
  9
$EXTNAMES
290
     1
  9
$PSVPSCALE
 40
0.0
  9
$OLESTARTUP
290
     0
  0
ENDSEC
  0
SECTION
  2
CLASSES
  0
CLASS
  1
ACDBDICTIONARYWDFLT
  2
AcDbDictionaryWithDefault
  3
ObjectDBX Classes
 90
        0
280
     0
281
     0
  0
CLASS
  1
ACDBPLACEHOLDER
  2
AcDbPlaceHolder
  3
ObjectDBX Classes
 90
        0
280
     0
281
     0
  0
CLASS
  1
LAYOUT
  2
AcDbLayout
  3
ObjectDBX Classes
 90
        0
280
     0
281
     0
  0
CLASS
  1
DICTIONARYVAR
  2
AcDbDictionaryVar
  3
ObjectDBX Classes
 90
        0
280
     0
281
     0
  0
CLASS
  1
TABLESTYLE
  2
AcDbTableStyle
  3
ObjectDBX Classes
 90
     4095
280
     0
281
     0
  0
CLASS
  1
MATERIAL
  2
AcDbMaterial
  3
ObjectDBX Classes
 90
     1153
280
     0
281
     0
  0
CLASS
  1
VISUALSTYLE
  2
AcDbVisualStyle
  3
ObjectDBX Classes
 90
     4095
280
     0
281
     0
  0
CLASS
  1
SCALE
  2
AcDbScale
  3
ObjectDBX Classes
 90
     1153
280
     0
281
     0
  0
CLASS
  1
MLEADERSTYLE
  2
AcDbMLeaderStyle
  3
ACDB_MLEADERSTYLE_CLASS
 90
     4095
280
     0
281
     0
  0
CLASS
  1
CELLSTYLEMAP
  2
AcDbCellStyleMap
  3
ObjectDBX Classes
 90
     1152
280
     0
281
     0
  0
CLASS
  1
RASTERVARIABLES
  2
AcDbRasterVariables
  3
ISM
 90
        0
280
     0
281
     0
  0
CLASS
  1
IMAGEDEF
  2
AcDbRasterImageDef
  3
ISM
 90
        0
280
     0
281
     0
  0
CLASS
  1
IMAGEDEF_REACTOR
  2
AcDbRasterImageDefReactor
  3
ISM
 90
    32769
280
     0
281
     0
  0
CLASS
  1
IMAGE
  2
AcDbRasterImage
  3
ISM
 90
    34943
280
     0
281
     1
  0
ENDSEC
  0
SECTION
  2
TABLES
  0
TABLE
  2
VPORT
  5
8
330
0
100
AcDbSymbolTable
 70
     1
  0
VPORT
  5
EA
330
8
100
AcDbSymbolTableRecord
100
AcDbViewportTableRecord
  2
*Active
 70
     0
 10
0.0
 20
0.0
 11
1.0
 21
1.0
 12
1811.222238771747
 22
835.5125876143361
 13
0.0
 23
0.0
 14
10.0
 24
10.0
 15
10.0
 25
10.0
 16
0.0
 26
0.0
 36
1.0
 17
0.0
 27
0.0
 37
0.0
 40
425.9682111889733
 41
2.433145009416195
 42
50.0
 43
0.0
 44
0.0
 50
0.0
 51
0.0
 71
     0
 72
  1000
 73
     1
 74
     3
 75
     0
 76
     0
 77
     0
 78
     0
281
     0
 65
     1
110
0.0
120
0.0
130
0.0
111
1.0
121
0.0
131
0.0
112
0.0
122
1.0
132
0.0
 79
     0
146
0.0
  0
ENDTAB
  0
TABLE
  2
LTYPE
  5
5
330
0
100
AcDbSymbolTable
 70
     1
  0
LTYPE
  5
14
330
5
100
AcDbSymbolTableRecord
100
AcDbLinetypeTableRecord
  2
ByBlock
 70
     0
  3

 72
    65
 73
     0
 40
0.0
  0
LTYPE
  5
15
330
5
100
AcDbSymbolTableRecord
100
AcDbLinetypeTableRecord
  2
ByLayer
 70
     0
  3

 72
    65
 73
     0
 40
0.0
  0
LTYPE
  5
16
330
5
100
AcDbSymbolTableRecord
100
AcDbLinetypeTableRecord
  2
Continuous
 70
     0
  3
Solid line
 72
    65
 73
     0
 40
0.0
  0
ENDTAB
  0
TABLE
  2
LAYER
  5
2
330
0
100
AcDbSymbolTable
 70
     2
  0
LAYER
  5
10
102
{ACAD_XDICTIONARY
360
13C
102
}
330
2
100
AcDbSymbolTableRecord
100
AcDbLayerTableRecord
  2
0
 70
     0
 62
     7
  6
Continuous
370
    -3
390
F
  0
LAYER
  5
203B
102
{ACAD_XDICTIONARY
360
203C
102
}
330
2
100
AcDbSymbolTableRecord
100
AcDbLayerTableRecord
  2
Layer 1
 70
     0
 62
     7
  6
Continuous
370
    -3
390
F
  0
ENDTAB
  0
TABLE
  2
STYLE
  5
3
330
0
100
AcDbSymbolTable
 70
     2
  0
STYLE
  5
11
330
3
100
AcDbSymbolTableRecord
100
AcDbTextStyleTableRecord
  2
Standard
 70
     0
 40
0.0
 41
1.0
 50
0.0
 71
     0
 42
2.5
  3
txt.shx
  4

  0
STYLE
  5
132
330
3
100
AcDbSymbolTableRecord
100
AcDbTextStyleTableRecord
  2
Аннотативный
 70
     0
 40
0.0
 41
1.0
 50
0.0
 71
     0
 42
2.5
  3
txt.shx
  4

1001
AcadAnnotative
1000
AnnotativeData
1002
{
1070
     1
1070
     1
1002
}
  0
ENDTAB
  0
TABLE
  2
VIEW
  5
6
330
0
100
AcDbSymbolTable
 70
     0
  0
ENDTAB
  0
TABLE
  2
UCS
  5
7
330
0
100
AcDbSymbolTable
 70
     0
  0
ENDTAB
  0
TABLE
  2
APPID
  5
9
330
0
100
AcDbSymbolTable
 70
     8
  0
APPID
  5
12
330
9
100
AcDbSymbolTableRecord
100
AcDbRegAppTableRecord
  2
ACAD
 70
     0
  0
APPID
  5
9E
330
9
100
AcDbSymbolTableRecord
100
AcDbRegAppTableRecord
  2
ACAD_PSEXT
 70
     0
  0
APPID
  5
133
330
9
100
AcDbSymbolTableRecord
100
AcDbRegAppTableRecord
  2
AcadAnnoPO
 70
     0
  0
APPID
  5
134
330
9
100
AcDbSymbolTableRecord
100
AcDbRegAppTableRecord
  2
AcadAnnotative
 70
     0
  0
APPID
  5
135
330
9
100
AcDbSymbolTableRecord
100
AcDbRegAppTableRecord
  2
ACAD_DSTYLE_DIMJAG
 70
     0
  0
APPID
  5
136
330
9
100
AcDbSymbolTableRecord
100
AcDbRegAppTableRecord
  2
ACAD_DSTYLE_DIMTALN
 70
     0
  0
APPID
  5
165
330
9
100
AcDbSymbolTableRecord
100
AcDbRegAppTableRecord
  2
ACAD_MLEADERVER
 70
     0
  0
APPID
  5
1B7
330
9
100
AcDbSymbolTableRecord
100
AcDbRegAppTableRecord
  2
ACAD_EXEMPT_FROM_CAD_STANDARDS
 70
     0
  0
ENDTAB
  0
TABLE
  2
DIMSTYLE
  5
A
330
0
100
AcDbSymbolTable
 70
     3
100
AcDbDimStyleTable
 71
     2
340
27
340
137
  0
DIMSTYLE
105
27
330
A
100
AcDbSymbolTableRecord
100
AcDbDimStyleTableRecord
  2
ISO-25
 70
     0
 41
2.5
 42
0.625
 43
3.75
 44
1.25
 73
     0
 74
     0
 77
     1
 78
     8
140
2.5
141
2.5
143
0.03937007874016
147
0.625
171
     3
172
     1
271
     2
272
     2
274
     3
278
    44
283
     0
284
     8
340
11
  0
DIMSTYLE
105
137
330
A
100
AcDbSymbolTableRecord
100
AcDbDimStyleTableRecord
  2
Аннотативный
 70
     0
 40
0.0
 41
2.5
 42
0.625
 43
3.75
 44
1.25
 73
     0
 74
     0
 77
     1
 78
     8
140
2.5
141
2.5
143
0.03937007874016
147
0.625
171
     3
172
     1
271
     2
272
     2
274
     3
278
    44
283
     0
284
     8
340
11
1001
AcadAnnotative
1000
AnnotativeData
1002
{
1070
     1
1070
     1
1002
}
1001
ACAD_DSTYLE_DIMJAG
1070
   388
1040
1.5
1001
ACAD_DSTYLE_DIMTALN
1070
   392
1070
     0
  0
DIMSTYLE
105
203D
330
A
100
AcDbSymbolTableRecord
100
AcDbDimStyleTableRecord
  2
Standard
 70
     0
340
11
  0
ENDTAB
  0
TABLE
  2
BLOCK_RECORD
  5
1
330
0
100
AcDbSymbolTable
 70
     2
  0
BLOCK_RECORD
  5
1F
330
1
100
AcDbSymbolTableRecord
100
AcDbBlockTableRecord
  2
*Model_Space
340
22
  0
BLOCK_RECORD
  5
D2
330
1
100
AcDbSymbolTableRecord
100
AcDbBlockTableRecord
  2
*Paper_Space
340
D3
  0
BLOCK_RECORD
  5
D6
330
1
100
AcDbSymbolTableRecord
100
AcDbBlockTableRecord
  2
*Paper_Space0
340
D7
  0
ENDTAB
  0
ENDSEC
  0
SECTION
  2
BLOCKS
  0
BLOCK
  5
20
330
1F
100
AcDbEntity
  8
0
100
AcDbBlockBegin
  2
*Model_Space
 70
     0
 10
0.0
 20
0.0
 30
0.0
  3
*Model_Space
  1

  0
ENDBLK
  5
21
330
1F
100
AcDbEntity
  8
0
100
AcDbBlockEnd
  0
BLOCK
  5
D4
330
D2
100
AcDbEntity
 67
     1
  8
0
100
AcDbBlockBegin
  2
*Paper_Space
 70
     0
 10
0.0
 20
0.0
 30
0.0
  3
*Paper_Space
  1

  0
ENDBLK
  5
D5
330
D2
100
AcDbEntity
 67
     1
  8
0
100
AcDbBlockEnd
  0
BLOCK
  5
D8
330
D6
100
AcDbEntity
 67
     1
  8
0
100
AcDbBlockBegin
  2
*Paper_Space0
 70
     0
 10
0.0
 20
0.0
 30
0.0
  3
*Paper_Space0
  1

  0
ENDBLK
  5
D9
330
D6
100
AcDbEntity
 67
     1
  8
0
100
AcDbBlockEnd
  0
ENDSEC
  0
SECTION
  2
ENTITIES
  0
LWPOLYLINE
  5
1FDD
330
1F
100
AcDbEntity
  8
0
100
AcDbPolyline
 90
        2
 70
     1
 43
0.0
 10
1693.644461268461
 20
777.2867907632611
 42
1.0
 10
1685.934675277525
 20
777.2867907632611
 42
1.0
  0
LWPOLYLINE
  5
1FDE
330
1F
100
AcDbEntity
  8
0
100
AcDbPolyline
 90
        5
 70
     0
 43
0.0
 10
1710.927593210826
 20
758.1092920206672
 10
1710.410453107799
 20
774.1228266459447
 10
1708.665113152675
 20
774.0582564792703
 10
1709.311533976408
 20
758.1738633668996
 10
1710.923826490349
 20
758.2259306422563
  0
LWPOLYLINE
  5
1FDF
330
1F
100
AcDbEntity
  8
0
100
AcDbPolyline
 90
        5
 70
     0
 43
0.0
 10
1705.562284014648
 20
758.6904282389679
 10
1705.562284014648
 20
761.660680676703
 10
1707.566194021284
 20
761.7898221896097
 10
1707.630835816654
 20
758.6258580722935
 10
1705.562284014648
 20
758.6258580722935
  0
LWPOLYLINE
  5
1FE0
330
1F
100
AcDbEntity
  8
0
100
AcDbPolyline
 90
     2517
 70
     0
 43
0.0
 10
1800.425583872588
 20
860.4728357437199
 10
1802.017709886229
 20
860.5146876295785
 10
1801.789926698762
 20
863.2270392181872
 10
1801.740800111019
 20
863.229586540222
 10
1801.273026892816
 20
863.2458798285124
 42
-0.0650151267394953
 10
1800.329981238111
 20
863.2623411055105
 42
-0.2091607377135715
 10
1799.947891961005
 20
864.1711346395114
 42
-0.0499903936332589
 10
1799.987988756002
 20
865.1165390803507
 42
0.0332853820426519
 10
1800.020817865057
 20
866.038259299305
 42
0.0273242570317581
 10
1799.939848386134
 20
866.9840195427878
 42
0.0224712876639517
 10
1799.761967489213
 20
867.9368737763507
 42
0.0188292449840008
 10
1799.504271359946
 20
868.8797664426685
 42
0.0315025601549587
 10
1799.16777271255
 20
869.7873234372501
 42
0.069458523603317
 10
1798.668726524863
 20
870.5903330282431
 42
0.2352955202628336
 10
1797.838148820699
 20
871.0381344615651
 10
1797.59021233375
 20
870.7766866897435
 10
1797.667263605793
 20
870.2117138496651
 42
-0.0293356594878918
 10
1797.850255437752
 20
869.0742415829307
 42
-0.0247194316702688
 10
1797.898237254847
 20
868.0905451229946
 42
-0.0116303067143059
 10
1797.874602014465
 20
867.1994872382851
 42
0.006891380947396
 10
1797.842931540627
 20
866.3397515073429
 42
0.0240733118328774
 10
1797.866807657356
 20
865.4500215087134
 42
0.0239800613810459
 10
1797.999376591481
 20
864.4738833112334
 10
1797.965470838561
 20
864.0098003232294
 10
1797.637230750252
 20
863.6834203128259
 42
-0.2478928326025179
 10
1796.721199897874
 20
863.6545425894873
 42
-0.237749786160113
 10
1796.420277927211
 20
864.4408274422792
 42
-0.0242909157066777
 10
1796.483006134198
 20
865.5904013191094
 42
0.0429167925678408
 10
1796.474005814275
 20
866.6489897148572
 42
0.0367863939004155
 10
1796.313677143767
 20
867.5635177090269
 42
0.0161032551608966
 10
1796.060288728209
 20
868.4363798581127
 42
-0.0054727237406372
 10
1795.771197553614
 20
869.3683182365896
 42
0.0493946313465689
 10
1795.410621748128
 20
870.3071021425241
 42
0.1656082333912201
 10
1794.78587157771
 20
870.9426744745636
 42
0.0728144658394015
 10
1793.844978501087
 20
871.1631917208473
 10
1794.665581741061
 20
863.301556594733
 10
1788.995948397475
 20
863.1897793503569
 10
1788.063442497933
 20
870.5297904815351
 10
1784.519919505666
 20
870.5297904815351
 10
1784.520102639202
 20
870.5718283438628
 10
1784.547730245689
 20
871.0832109320316
 42
-0.2132372905122775
 10
1785.032962739508
 20
871.8590741634059
 42
0.0255499448196974
 10
1785.857486460225
 20
872.4951149737032
 42
0.1342936778261375
 10
1786.381701600906
 20
873.3526767213122
 42
0.1177522420475287
 10
1786.347632331567
 20
874.3302014560804
 42
0.0013826368243577
 10
1787.200916217752
 20
874.291843663606
 42
0.0050542548353904
 10
1788.16672659746
 20
874.2607718138707
 42
0.0085576106399818
 10
1789.140929048103
 20
874.2560218140127
 42
0.0118138861339618
 10
1790.127970751379
 20
874.2915423126712
 42
0.0146818424856971
 10
1791.132298888979
 20
874.3812819584865
 42
0.0157269405684093
 10
1792.157905642742
 20
874.5377522857991
 42
-0.0317919785575444
 10
1793.17724935743
 20
874.6738653940663
 42
-0.1103482708183363
 10
1794.111307270446
 20
874.5399306145472
 42
-0.0743464573178217
 10
1794.9184887737
 20
873.9965954971282
 42
0.0341742038658292
 10
1795.719253236439
 20
873.3872029953662
 42
0.0243220382432682
 10
1796.572613714762
 20
872.8931999591146
 42
0.004858837760689
 10
1797.449504001791
 20
872.4519632317678
 42
-0.0147953622198774
 10
1798.318033417513
 20
871.9930429656875
 42
-0.0174145435432128
 10
1799.154107204691
 20
871.4633088259848
 42
0.0114770947984835
 10
1799.984688930404
 20
870.9230622449805
 42
0.0413936151296953
 10
1800.857290671173
 20
870.4782554626007
 42
0.0563463959131443
 10
1801.806797419863
 20
870.2218563007848
 42
0.051083448171513
 10
1802.795053140146
 20
870.1714329958891
 42
0.0542424929076144
 10
1803.764622979745
 20
870.3263946619625
 42
0.0376688571766637
 10
1804.688811320002
 20
870.6623773669845
 42
0.015051533294388
 10
1805.581535288312
 20
871.0976133337645
 42
0.003242960239937
 10
1806.458020418902
 20
871.5563857705957
 42
0.007414631240102
 10
1807.318375487831
 20
872.0302970466907
 42
0.0116006061142711
 10
1808.157321484187
 20
872.5349428567794
 42
0.015613787404783
 10
1808.96957278591
 20
873.0859483368377
 42
0.0192177698478754
 10
1809.749843770948
 20
873.6989386228456
 42
0.0222152545662541
 10
1810.492703789104
 20
874.389536921841
 42
0.0480574920777688
 10
1811.143061366964
 20
875.1727059304302
 42
0.0987173248383782
 10
1811.523868895018
 20
876.0617859919312
 42
0.0575274919009837
 10
1811.554910379078
 20
877.0468265821442
 10
1815.579793709142
 20
882.9364814052485
 10
1814.133619489274
 20
883.9298464016181
 10
1810.159872529973
 20
878.1447317359912
 10
1810.0874886789
 20
878.127426088471
 42
0.0639145876843926
 10
1809.109925181647
 20
877.7947853390706
 42
0.1364801691703135
 10
1808.330750105536
 20
877.1061676994197
 42
0.1106014768716632
 10
1808.097822471277
 20
876.1091708739201
 42
-0.1646730597090931
 10
1807.766912790636
 20
875.1723659043227
 42
-0.0705253470102579
 10
1806.953749663696
 20
874.5028379224526
 42
-0.0209253197899458
 10
1806.076584071302
 20
873.962796506947
 42
-0.0279797117735077
 10
1805.16408530062
 20
873.5162083046311
 42
-0.0638804496347087
 10
1804.1710247639
 20
873.2359714856915
 42
-0.1339711586302859
 10
1803.158343701184
 20
873.3301540893124
 42
-0.0917224028034286
 10
1802.336763410495
 20
873.9375160846137
 42
0.0241370194262148
 10
1801.574174885107
 20
874.6446229080342
 42
-0.1083098934710555
 10
1800.921575943382
 20
875.4467364860666
 10
1800.880357967512
 20
875.9435010331069
 10
1801.344640008362
 20
876.1826615706944
 42
-0.0853853327132651
 10
1802.362882375497
 20
876.0545467251931
 42
0.0731902305448643
 10
1803.397181358449
 20
876.0123665384481
 42
0.0987174519929964
 10
1804.386303582229
 20
876.3222425243036
 42
0.1220389515997333
 10
1805.146184153537
 20
877.0054057887808
 42
0.0945964759993179
 10
1805.503851910221
 20
877.9572283686334
 42
0.0250547488561163
 10
1805.647957562322
 20
879.0179333352861
 42
0.0669327098767345
 10
1805.615421564264
 20
880.0499295789929
 42
0.1161953284452523
 10
1805.215238733884
 20
880.9544183133429
 42
0.0645965622533406
 10
1804.479188618359
 20
881.7006754129584
 42
0.0322312440969007
 10
1803.608922902867
 20
882.3073831660655
 42
0.0308473320455879
 10
1802.700370773974
 20
882.784783509566
 42
0.0345822833385648
 10
1801.767517869516
 20
883.1326693668936
 42
0.0927596469250176
 10
1800.754343173983
 20
883.2372614634047
 42
-0.1327040496530783
 10
1799.698193604208
 20
883.157511723787
 42
-0.1265705318691267
 10
1799.533062424245
 20
884.1805717653937
 42
-0.0612120779183043
 10
1799.732284094793
 20
885.1816050724464
 42
-0.0859347539123372
 10
1800.371310854561
 20
886.0010973633468
 42
0.1536659714935201
 10
1800.621007170184
 20
886.9648213008346
 42
-0.2125751091375936
 10
1801.263448037447
 20
887.7726080659101
 42
0.0090204580125892
 10
1802.238666172774
 20
888.0884038819417
 42
-0.1352812513155592
 10
1803.12856382957
 20
888.5414907893283
 42
-0.0642859095562634
 10
1804.187247141505
 20
888.5202704215107
 42
0.0192253682072267
 10
1805.249034792394
 20
888.4477414541539
 42
0.0127689900883021
 10
1806.270927500814
 20
888.4444909708427
 42
0.0044237028603483
 10
1807.272783913098
 20
888.4760987712644
 10
1807.669333761007
 20
888.977836603361
 10
1816.89568651719
 20
887.4198072326255
 10
1817.397982799873
 20
888.0007676968327
 10
1817.167935154893
 20
888.7793854610428
 10
1810.685152051891
 20
890.1708376969477
 10
1810.647328689295
 20
890.2300385892431
 42
0.0348120493217509
 10
1810.052629059288
 20
891.0682240282707
 42
0.1096629565186429
 10
1809.298714112004
 20
891.6657184347071
 42
0.1003119962006804
 10
1808.324826587208
 20
891.8726735996838
 42
0.0672163440869758
 10
1807.317585445465
 20
891.7559867811739
 42
-0.0112588926828645
 10
1806.359569871935
 20
891.5194070756449
 42
-0.0255645641716717
 10
1805.376605980437
 20
891.3830563040777
 42
-0.0098358854929606
 10
1804.386559672783
 20
891.3129847215529
 42
-0.0161055516558163
 10
1803.398319713951
 20
891.2931686190741
 42
-0.0230422022956783
 10
1802.401454254366
 20
891.3516796537987
 42
0.0026709807662972
 10
1801.393947057789
 20
891.4719334009651
 42
0.0587907302010178
 10
1800.406410378917
 20
891.47059200075
 42
0.0948870054364773
 10
1799.479314373996
 20
891.1494368991986
 42
0.0516815215825502
 10
1798.670806105101
 20
890.5749140547177
 42
0.0229185681538583
 10
1797.95600248017
 20
889.8851974128795
 42
0.004846191832569
 10
1796.919979387026
 20
888.7958748104237
 42
0.0196461835150383
 10
1796.271251596655
 20
888.0409570107664
 42
0.0351406150656168
 10
1795.715335384634
 20
887.2292409436735
 42
0.0336763588594815
 10
1795.286317379441
 20
886.341346161139
 42
0.0109624826072302
 10
1794.933599947366
 20
885.4077897040257
 10
1790.111694543307
 20
885.4077897040257
 10
1790.165272354254
 20
886.5851722744407
 10
1790.342553352957
 20
886.595264018786
 42
0.0385516176307086
 10
1791.465483311393
 20
886.7239631776346
 42
0.1227068845656802
 10
1792.384609316322
 20
887.1391616330203
 42
0.1144545172992261
 10
1792.97493537951
 20
887.991368372487
 42
0.0497397873228802
 10
1793.301500655681
 20
889.0717790578911
 42
0.0258305230706793
 10
1793.465387707473
 20
890.1512957123308
 42
0.00939387127416
 10
1793.546854054721
 20
891.1744622721236
 42
0.0183005989291003
 10
1793.584428310383
 20
892.1581962265854
 42
0.0354834155313462
 10
1793.501636692745
 20
893.2466362893022
 42
-0.0538236696356314
 10
1793.344628712477
 20
894.4556237672673
 42
-0.3101610222869962
 10
1794.300101036659
 20
894.5638066376343
 42
0.0337311027598273
 10
1795.343331865431
 20
894.5406789594281
 10
1795.34829994857
 20
894.6119666590746
 42
0.0056230180720009
 10
1795.407428402797
 20
895.5720882309661
 42
0.0150675450964288
 10
1795.426785393322
 20
896.5447715604183
 42
0.0233865676664797
 10
1795.369354757927
 20
897.5417081471157
 42
0.0224126468223266
 10
1795.206265870349
 20
898.5721194970427
 42
-0.0681067981313879
 10
1795.123446964915
 20
899.5800930553308
 42
-0.1971363056654425
 10
1795.533957141008
 20
900.4264570723945
 42
-0.3520116966485252
 10
1796.460135128246
 20
900.4747989989832
 42
-0.1167942981955385
 10
1796.976959311619
 20
899.6243685165662
 42
-0.0494148336040408
 10
1797.199596210839
 20
898.6673338610327
 42
-0.0026778789052322
 10
1797.331197528975
 20
897.6772502902797
 42
-0.0082740037036556
 10
1797.444882980508
 20
896.68455826253
 42
-0.0184090806041793
 10
1797.504667344657
 20
895.707941462674
 42
-0.0277430674932271
 10
1797.47335818904
 20
894.7643300532277
 42
0.0065950422634155
 10
1797.395413410693
 20
893.8254088843951
 42
0.0415380483356221
 10
1797.414049975347
 20
892.8081369413581
 10
1797.515830554672
 20
892.2619403695287
 10
1797.902537608495
 20
892.0852044187128
 42
0.1102915400646186
 10
1798.810597239243
 20
892.4610695769203
 42
0.0393385547549179
 10
1799.559481969826
 20
893.1049461284127
 10
1799.580145949984
 20
893.5698029711026
 42
0.0019134254791858
 10
1799.620810078976
 20
894.5687375097191
 42
0.0038976720371054
 10
1799.649854616488
 20
895.5677970001843
 42
0.0051615684934946
 10
1799.660101057448
 20
896.5670586369068
 42
0.0037364490506657
 10
1799.652491005531
 20
897.5665122942965
 42
0.0022405647974136
 10
1799.632929177698
 20
898.5660944756775
 42
0.0007465576766327
 10
1799.607391461905
 20
899.5657409190886
 10
1799.807872392235
 20
899.7264251093875
 42
0.1393888431092508
 10
1800.40744108609
 20
900.4774534090998
 42
0.2076024190894848
 10
1800.317989947459
 20
901.4546931963014
 42
0.1845569453733293
 10
1799.511569607712
 20
901.9586281844096
 10
1799.49913013446
 20
902.4365455981472
 42
0.0020803912439163
 10
1799.469027651628
 20
903.4356039616962
 42
0.0042135414803927
 10
1799.426386917366
 20
904.4334516542587
 42
0.006355095966321
 10
1799.362725703146
 20
905.429269647122
 42
0.0081714674668424
 10
1799.269885768023
 20
906.4222701952246
 42
0.0066193972811185
 10
1799.147327358635
 20
907.412401180953
 42
0.0047199450891785
 10
1799.002223029202
 20
908.4003551732248
 42
0.0028270836522815
 10
1798.842088086404
 20
909.3868578365347
 42
0.0009413883583621
 10
1798.674437836923
 20
910.3726348353674
 42
0.0332292527184915
 10
1797.968720253652
 20
910.6275610758977
 42
0.2212949103742712
 10
1797.039461562914
 20
910.4945298694126
 42
0.268028202166297
 10
1796.390962476807
 20
909.8145087965582
 42
0.0346677247567986
 10
1796.517724460791
 20
908.7530573068182
 42
-0.0187747120796621
 10
1796.610154784542
 20
907.7760153549228
 42
-0.0105589362688252
 10
1796.641827401119
 20
906.841342018696
 42
0.0054930531533706
 10
1796.668288519464
 20
905.3344005957439
 42
-0.007485333544384
 10
1796.70819620445
 20
904.1689283184586
 42
-0.1320755396021293
 10
1796.503417380912
 20
903.166538553938
 42
-0.3035040632229053
 10
1795.675034894926
 20
902.8325117337542
 42
-0.2918827308869828
 10
1794.891535144049
 20
903.4103744583026
 42
-0.0654494079529096
 10
1794.936007541556
 20
904.4216515686644
 42
0.0343126216590298
 10
1794.890091146652
 20
905.4132732163802
 42
0.0145152438986814
 10
1794.791926308985
 20
906.4149672433794
 42
0.0813704213617726
 10
1794.509344950416
 20
907.350094471996
 42
0.2984862074976582
 10
1793.836403394078
 20
908.0148922176302
 42
-0.0201044312322864
 10
1792.797420591768
 20
908.0689043488252
 42
0.2382543033410042
 10
1792.581205439847
 20
907.1356951412393
 42
0.0685672760381748
 10
1792.654633642692
 20
906.167058030644
 42
-0.1920618264157825
 10
1792.79050852861
 20
905.1884952199792
 42
-0.1045597681177626
 10
1791.78711016933
 20
905.227856964926
 42
-0.0745129381576183
 10
1790.991003974146
 20
905.8586132959378
 42
0.018233168077862
 10
1790.216769432507
 20
906.4954373082374
 42
0.0103164819201247
 10
1789.422654699494
 20
907.0749055267519
 42
0.0049980758541786
 10
1788.595944164883
 20
907.6443693846249
 42
0.0091648451454726
 10
1787.741119873048
 20
908.1984234128922
 42
0.0141000721478305
 10
1786.870660232682
 20
908.7071318552665
 42
0.0204188101498115
 10
1785.997087978922
 20
909.1404229760859
 42
0.0168080626927432
 10
1784.68181061583
 20
909.6502361361888
 42
-0.0292389084985379
 10
1783.731283067909
 20
910.0774190521017
 42
0.1015550015014696
 10
1782.750489354178
 20
910.5106909675397
 42
0.1961371694871745
 10
1782.202702167023
 20
909.7465887049342
 42
0.1181060758890222
 10
1781.624020454501
 20
908.9194612240206
 42
0.2388196673846015
 10
1782.471453100407
 20
908.5128207350132
 42
-0.0535387762135326
 10
1783.393442150118
 20
908.0972775833123
 42
-0.0217462655319385
 10
1784.216961834449
 20
907.5621175231546
 42
0.0127736269102741
 10
1785.024240802702
 20
907.0168208693056
 42
0.0206587646219094
 10
1785.876473501662
 20
906.5304583140832
 42
0.0183194538040374
 10
1786.795949091062
 20
906.0973580935366
 42
-0.1888876994529367
 10
1787.619931831742
 20
905.5254713655928
 10
1787.5701195854
 20
905.0834645731917
 10
1787.007596835805
 20
905.115818903509
 42
0.0307326083098589
 10
1785.978515432499
 20
905.156093859005
 42
0.0020534613591079
 10
1785.055456316782
 20
905.1256302535795
 42
-0.0077889150791969
 10
1784.096647647985
 20
905.1167722694472
 42
-0.0037481676426612
 10
1783.098170134828
 20
905.1303160221035
 42
0.0012640349982895
 10
1781.566349334204
 20
905.161936385163
 42
0.004179443044289
 10
1780.54857502087
 20
905.1707327553671
 42
0.0028362302476275
 10
1779.542833096679
 20
905.1650129849557
 42
0.0012819995179251
 10
1778.04981532255
 20
905.1437609105279
 42
-0.0014750970317826
 10
1777.059861012796
 20
905.1311882990663
 42
-0.0032232193544922
 10
1776.070214706597
 20
905.1279270120197
 42
-0.0042198799366786
 10
1775.077735513885
 20
905.1401070511406
 42
-0.0030205675752661
 10
1774.082008724483
 20
905.1667826437883
 42
-0.0018033481999511
 10
1773.084106860079
 20
905.203147921
 42
-0.0005995840900682
 10
1772.085117458244
 20
905.2443580404906
 10
1771.866256266604
 20
905.5083835974636
 42
-0.0036883881410205
 10
1771.368319657313
 20
906.1178782924066
 42
-0.0072188049765759
 10
1770.870800125699
 20
906.7549834362655
 42
-0.0100062218834394
 10
1770.373987425559
 20
907.4388806645302
 42
-0.0118585903807322
 10
1769.878171310673
 20
908.1887516127098
 42
-0.0127599450093043
 10
1769.383641534832
 20
909.0237779163024
 42
-0.0128420016519628
 10
1768.890687851819
 20
909.9631412108108
 42
-0.0123186688098534
 10
1768.399600015419
 20
911.0260231317422
 42
-0.0114165947631501
 10
1767.910667779421
 20
912.2316053145924
 42
0.0248085808932891
 10
1767.416187369
 20
913.4840237750264
 10
1767.122135509724
 20
913.5041744190697
 10
1766.725534898128
 20
913.1983866242215
 42
0.0230340391804387
 10
1765.68492078195
 20
913.2904405562182
 42
0.3016688264046843
 10
1765.575987101118
 20
912.3760420440477
 42
0.1439876473410409
 10
1766.169269408521
 20
911.5926951830127
 10
1766.528184146578
 20
911.2408930032254
 10
1766.551125798222
 20
910.7570148998959
 42
0.2613812095824425
 10
1766.966257771837
 20
909.926440392098
 42
-0.0357732457535932
 10
1767.057391871333
 20
908.9053130656006
 42
-0.2752903406945811
 10
1766.614691522619
 20
908.1170338718433
 42
0.0929568697754694
 10
1765.862301600346
 20
907.4428522408876
 42
0.0846864457934997
 10
1765.495967153739
 20
906.5100841351688
 42
-0.2869758557950941
 10
1764.995019487215
 20
905.7211476444935
 42
-0.1749976972893231
 10
1763.98239061566
 20
905.894899022916
 10
1763.512528681722
 20
905.9666667699346
 10
1763.096851487235
 20
905.7103476611771
 42
0.1551023033790683
 10
1763.115230463179
 20
904.7199676733784
 42
0.210427435755265
 10
1763.287139567045
 20
903.8343127086424
 42
0.0922926098528962
 10
1764.306316725261
 20
903.9594407063091
 42
-0.3311415053674269
 10
1765.198730254379
 20
903.6819413245387
 42
-0.1255562130870741
 10
1765.257528168179
 20
902.6756610338376
 42
0.1390508412914574
 10
1765.360099081797
 20
901.6348546124076
 42
0.0667960973259105
 10
1765.960120310101
 20
900.8549727639403
 42
-0.1239267223648117
 10
1766.479300714845
 20
899.9644275397949
 42
-0.2963404505846483
 10
1766.109535979061
 20
899.1356278544213
 42
-0.1024153719294061
 10
1765.148159003243
 20
898.6338957390161
 42
-0.3523041051805495
 10
1764.383292576622
 20
898.944920156584
 42
-0.0543715902979337
 10
1763.912770110719
 20
899.9539400125026
 42
0.0114572363160759
 10
1763.475039126394
 20
900.9744569866708
 42
0.0027655386308198
 10
1763.045204770534
 20
901.9007365151539
 42
-0.0083918293756472
 10
1762.65514891894
 20
902.7648639703526
 42
-0.0215205052630706
 10
1762.336753447427
 20
903.59892472464
 42
-0.0265294571330786
 10
1762.114262041428
 20
904.4334390866962
 42
-0.0080325997363021
 10
1761.949647565273
 20
905.2861680863154
 42
0.0102941771027596
 10
1761.774520951574
 20
906.1686515995116
 42
0.0252854735192222
 10
1761.520288773073
 20
907.0923876289942
 42
0.0346019614346782
 10
1761.118357602509
 20
908.0688741774755
 42
0.0371676197995715
 10
1760.500134012622
 20
909.1096092476718
 42
0.0069758505675767
 10
1759.675146451272
 20
910.1960420946117
 42
-0.3047626125698353
 10
1759.425681870794
 20
911.0123886404007
 42
-0.074925083511864
 10
1760.356377616945
 20
911.321080356306
 42
0.0225216044037072
 10
1761.316131062076
 20
911.6173612933007
 42
0.0419775625975086
 10
1762.190789757133
 20
912.0172600031953
 42
0.047410880811179
 10
1762.984783083465
 20
912.5830440336359
 42
-0.0155010315687573
 10
1763.744403773403
 20
913.1979736799546
 42
0.0087281832282959
 10
1764.494507208498
 20
913.7734361475882
 42
0.0434434833471062
 10
1765.192313458002
 20
914.4382140641251
 42
0.0623232208555421
 10
1765.791530341769
 20
915.332464216804
 42
-0.1759697815104219
 10
1766.363478245795
 20
916.1863694218373
 42
-0.0644082889299338
 10
1767.26238122719
 20
915.7373528200354
 42
0.0416351775467492
 10
1768.148137584992
 20
915.3578498336861
 42
0.0402413208868207
 10
1769.11612085456
 20
915.1151213743556
 42
0.0653997385509439
 10
1770.12711074081
 20
915.0751415534067
 42
0.1034321496771853
 10
1771.065961249075
 20
915.3620302649487
 42
0.0879099035119178
 10
1771.838167159675
 20
916.0012711739751
 42
0.0725500651261426
 10
1772.382692248764
 20
916.8602232692959
 42
0.072085907832179
 10
1772.654059436762
 20
917.8149239839006
 42
0.0683941048562501
 10
1772.648532683198
 20
918.8174439321002
 42
0.0394612939759154
 10
1772.398641451703
 20
919.8348639672179
 42
-0.0397636757281047
 10
1772.152777031616
 20
920.8282424475056
 42
-0.143434525063603
 10
1772.260917747122
 20
921.7557963543567
 42
-0.16435078039171
 10
1772.936267272273
 20
922.4685102454056
 42
-0.1127968193927098
 10
1773.875203431754
 20
922.7185350775805
 42
-0.0550236848762593
 10
1774.841874592017
 20
922.6351001944195
 42
0.0094808860769254
 10
1775.869834040251
 20
922.4552593611306
 42
0.1368374951134732
 10
1776.868389143644
 20
922.5256614141844
 42
0.184908513078118
 10
1777.475426274212
 20
923.2768596311592
 42
0.0377992945521326
 10
1777.770668742584
 20
924.2285985117362
 42
-0.048046862761668
 10
1778.076951979032
 20
925.1532561476507
 42
-0.0659549075672782
 10
1778.620532432915
 20
925.9890277774882
 42
-0.056748004223076
 10
1779.366089841616
 20
926.6859161893622
 42
-0.0564004805692511
 10
1780.239378241547
 20
927.1956812748946
 42
-0.0459395103406731
 10
1781.175090311175
 20
927.4980076303322
 42
-0.0157099579279853
 10
1782.633076420619
 20
927.7687621821367
 42
0.0206116751584222
 10
1783.611141354461
 20
927.9903471113042
 42
-0.0365320750936136
 10
1784.582279861457
 20
928.1860625807928
 42
-0.0856087488514866
 10
1785.549693867577
 20
928.1221761593338
 42
-0.0041411425652034
 10
1786.517852974779
 20
927.8752158088453
 42
0.0819664414001709
 10
1787.491638515954
 20
927.781668386134
 42
0.0797408129808275
 10
1788.451719954871
 20
928.0324504975155
 42
0.0562130306656801
 10
1789.335024223498
 20
928.5415934439978
 42
0.0482241421101754
 10
1790.082059014705
 20
929.2053229099327
 42
0.0461006190419824
 10
1790.683192653235
 20
929.9885526679812
 42
0.04362770003005
 10
1791.14388667432
 20
930.8800980597196
 42
0.053426321791268
 10
1791.427041808683
 20
931.8458556851792
 42
0.0690673310721764
 10
1791.468319856035
 20
932.8370356084423
 42
0.0485738749353858
 10
1791.249476592775
 20
933.8086960713944
 42
-0.015943504245423
 10
1790.976752092374
 20
934.7360715755547
 42
0.0229934529167007
 10
1790.732918084233
 20
935.6432726783356
 42
0.0459977239740744
 10
1790.264245390396
 20
936.6253693566804
 42
-0.2729700758173527
 10
1791.08975305747
 20
937.0037415868857
 42
0.0027554957369497
 10
1792.058748624183
 20
937.0254629978873
 42
0.0383552812838077
 10
1793.039112356407
 20
937.1660356254643
 42
0.040017256831386
 10
1793.991065957524
 20
937.455855267107
 42
0.051339002579844
 10
1794.87119761407
 20
937.9117311253283
 42
0.0622736878451049
 10
1795.637086716101
 20
938.5639458767295
 42
0.102682695203763
 10
1796.152590507138
 20
939.4029715921304
 42
0.0948522258449084
 10
1796.248282767891
 20
940.3639899099907
 42
0.0051808519307359
 10
1796.152835670881
 20
941.3774565641407
 42
-0.0152975987504936
 10
1796.113281545861
 20
942.3860694411377
 42
0.011497539507419
 10
1796.082646051679
 20
943.3732755074879
 42
0.0400886611919302
 10
1795.953787856227
 20
944.3308608034367
 42
0.0527426934256832
 10
1795.637604455924
 20
945.2506644962793
 42
0.0460911361103613
 10
1795.126562516669
 20
946.1247302150397
 42
0.0637904281850729
 10
1794.439737855281
 20
946.8885805836194
 42
0.1279677727624144
 10
1793.606989300408
 20
947.3092285655084
 42
0.0708102094215614
 10
1792.659638871671
 20
947.3312323900213
 42
-0.0176139757032683
 10
1791.628044587308
 20
947.2541886552656
 42
-0.0539502622906382
 10
1790.548440897716
 20
947.3694211636143
 42
0.0557665323811209
 10
1789.52474839082
 20
947.4853705822907
 42
0.2176766631332468
 10
1788.70506253387
 20
947.1077797592997
 42
0.1992373805907151
 10
1788.395628241545
 20
946.1789055296131
 42
-0.0086061421693724
 10
1788.483103835859
 20
945.1789645406233
 42
-0.1505323425846259
 10
1788.166347138888
 20
944.2682673200287
 42
-0.0704226616839222
 10
1787.563155551414
 20
943.4583373084551
 42
-0.2209497805412025
 10
1786.642177027463
 20
943.1558554921615
 42
-0.1958667589021529
 10
1785.866822242593
 20
943.7404922335394
 42
0.0142588281419052
 10
1785.230414790742
 20
944.5506410326224
 42
0.0904011551935183
 10
1784.495965504519
 20
945.1708264661684
 42
0.1065244262489636
 10
1783.547600090773
 20
945.4254172126914
 42
0.0792995959805252
 10
1782.540443258546
 20
945.3282221452214
 42
0.0359377578023734
 10
1781.611126928252
 20
944.9961384498376
 42
-0.0286875656701126
 10
1780.68766682582
 20
944.6508768005383
 42
-0.0552318804959748
 10
1779.705704245289
 20
944.4826901919894
 42
-0.0594279892409367
 10
1778.709996693379
 20
944.5403321730658
 42
-0.0604802036307399
 10
1777.76262999089
 20
944.8370967262087
 42
-0.045356397404581
 10
1776.895311298252
 20
945.3273908265236
 42
-0.0350035006729236
 10
1776.125373700103
 20
945.9406919941375
 42
-0.0407594297599905
 10
1775.456550212791
 20
946.663390963419
 42
-0.0937325678012016
 10
1774.947623747571
 20
947.5344952059854
 42
-0.166895477084411
 10
1775.154296870386
 20
948.478958976873
 42
0.0224109403240151
 10
1775.488419454066
 20
949.4122798310796
 42
-0.0104435880739377
 10
1775.817498510349
 20
950.3417611629215
 42
0.0453922159615844
 10
1776.078401461594
 20
951.2819884550284
 42
0.0250099128722053
 10
1776.189521209311
 20
952.2472035524788
 42
-0.0096579012975912
 10
1776.27635948824
 20
953.2619407590033
 42
0.1354183932343616
 10
1776.223301204184
 20
954.2383573499
 42
0.1603208166242472
 10
1775.470597383886
 20
954.8707804500997
 42
0.0822692763302819
 10
1774.491048436187
 20
955.201296057324
 42
0.1873997373492886
 10
1773.576042886694
 20
954.9695499320078
 42
0.0697485619936587
 10
1772.822253479013
 20
954.2937582770461
 42
0.1185983024612487
 10
1772.380550671327
 20
953.4253319826472
 42
0.0759687001511168
 10
1772.307700380262
 20
952.4241162085921
 42
0.0625615864097127
 10
1772.48160333547
 20
951.4812525014816
 42
0.0730739208150956
 10
1772.953634824528
 20
950.557492787006
 10
1773.178635395725
 20
950.087730704898
 10
1772.874117451254
 20
949.7405696487801
 42
0.0009890627753866
 10
1771.932400820408
 20
949.4353616932919
 42
0.1906354328892187
 10
1771.397164959845
 20
948.6396964929303
 42
0.0618256606572553
 10
1771.187069868672
 20
947.6098137782173
 42
0.1684011880713509
 10
1771.426172786334
 20
946.6906611396536
 42
-0.0355018263337397
 10
1771.982019083585
 20
945.8612856217239
 42
-0.1501238657309477
 10
1772.041761370521
 20
944.8978379138477
 42
0.006432251907625
 10
1771.860943288296
 20
943.9076414975092
 42
0.0106157239605741
 10
1771.729744151147
 20
942.9697735000154
 42
0.0057726377317779
 10
1771.630856148219
 20
942.0376626781843
 42
-0.0020596798550483
 10
1771.488087881672
 20
940.5414086603979
 42
-0.0147699588424883
 10
1771.351786439409
 20
939.4238483824707
 42
-0.2612528525821651
 10
1770.918346971199
 20
938.6688093673877
 42
-0.1376319084579961
 10
1769.951622501202
 20
938.7717393646656
 42
0.0687626779559383
 10
1768.873125553338
 20
938.9767532051392
 42
0.1663170287389694
 10
1767.956654619974
 20
938.6988249319768
 42
0.1708408825716233
 10
1767.387301174558
 20
937.8885345297684
 42
-0.0028926430346462
 10
1767.214420785101
 20
936.9144641256916
 42
-0.1422546217994107
 10
1766.679084813979
 20
936.1260446678896
 42
-0.0554559254614597
 10
1765.812520779506
 20
935.5413611664364
 42
-0.025536157389843
 10
1764.885952161413
 20
935.0899612440144
 42
-0.0287039037095331
 10
1763.955228655366
 20
934.7559259842226
 42
-0.0306944126469705
 10
1763.011677824855
 20
934.5396754445303
 42
-0.0281379569065208
 10
1762.047653581858
 20
934.438702368932
 42
-0.0158789220833324
 10
1761.065369545294
 20
934.4226731130399
 42
-0.0040622946655962
 10
1760.072487176462
 20
934.4458789529879
 42
0.0074180246317555
 10
1759.076725299964
 20
934.4624492723331
 42
0.0190176913064528
 10
1758.085793841417
 20
934.4265823316048
 42
0.0206035993901356
 10
1757.105295479174
 20
934.3087862398213
 42
0.0173512390420777
 10
1756.136018058805
 20
934.1168353510068
 42
0.0140836744552192
 10
1755.178080020673
 20
933.8636851374879
 42
0.0108958101662036
 10
1754.231599805129
 20
933.5622910715876
 42
0.0078115849283024
 10
1753.296695852543
 20
933.2256086256339
 42
0.0118929190321183
 10
1752.376586188504
 20
932.8588032859157
 42
0.0274659344266723
 10
1751.492099983353
 20
932.4227795936383
 42
0.0422167502674477
 10
1750.670278147764
 20
931.8628305268802
 42
0.0365878286802204
 10
1749.930235305027
 20
931.1413817181913
 42
-0.0267158647174064
 10
1749.205863385825
 20
930.4050940126243
 42
-0.1049958027961031
 10
1748.379223913071
 20
929.9126757146447
 42
-0.2451478036450179
 10
1747.472834477945
 20
929.9870164071048
 42
-0.1364363619258209
 10
1746.967092853997
 20
930.8520793136723
 42
0.0248084994666279
 10
1746.576923920436
 20
931.9219802602834
 42
0.043605313807735
 10
1746.073855318859
 20
932.8147473477541
 42
0.0260721555769545
 10
1745.485849062807
 20
933.579420000653
 42
0.0027819242949749
 10
1744.861551405245
 20
934.2998034253467
 42
-0.009887597234271
 10
1744.243131798879
 20
935.0477989626773
 42
-0.0057247749476302
 10
1743.636873832231
 20
935.8293524689162
 42
-0.0018715414689337
 10
1743.036702412567
 20
936.6276954856298
 10
1759.36742181373
 20
952.8525384318704
 10
1759.621775784021
 20
954.2858744016907
 10
1761.752067776145
 20
954.3339637885333
 10
1761.94463563576
 20
954.8509190941921
 10
1768.312643174289
 20
954.8639567451711
 10
1768.312643174289
 20
955.9603567834253
 10
1773.678758850267
 20
956.05781419763
 10
1774.117805304491
 20
956.5938323348706
 10
1777.483822380138
 20
956.618196098643
 10
1777.508214806496
 20
955.0832365169103
 10
1779.557095389506
 20
952.2082333614127
 10
1781.752324790591
 20
952.3787844260496
 10
1782.484068880964
 20
953.548278114736
 10
1778.630220498379
 20
957.9095109653062
 10
1777.337473562064
 20
960.833242827906
 10
1776.142293461144
 20
962.1489226378994
 10
1775.581290615203
 20
961.5885407368864
 10
1775.581290615203
 20
960.4921406986324
 10
1776.035938578978
 20
960.2634445179754
 10
1776.085372059573
 20
958.6339929300327
 10
1775.096731148016
 20
958.1402194713563
 10
1766.198957203922
 20
958.2883506832686
 10
1766.198957203922
 20
957.6464460126796
 10
1757.647209013891
 20
957.3995586935623
 10
1757.548344922735
 20
956.1157481728262
 10
1753.435010947512
 20
955.2774730996567
 10
1753.22710463908
 20
955.221895370845
 42
-0.009592815954261
 10
1752.294525985382
 20
954.9881246871199
 42
-0.023267565769344
 10
1751.35702591816
 20
954.817446949775
 42
0.0037185554799879
 10
1750.412721622261
 20
954.7222350250979
 42
0.2274112508029697
 10
1749.621499045953
 20
954.2323665035015
 42
0.086621368977413
 10
1749.693139190302
 20
953.2717779139714
 10
1749.681169402274
 20
952.7188286847417
 10
1749.950126149267
 20
952.440697693653
 42
0.0733635383488375
 10
1750.885228883034
 20
952.6334142961927
 42
-0.0149817137531482
 10
1751.81549819719
 20
952.8411218806503
 42
-0.0010303579766621
 10
1752.762127322922
 20
953.0211474112192
 42
0.0071639640136443
 10
1753.702115369516
 20
953.2159506796732
 42
0.0078391752695014
 10
1754.630784174765
 20
953.437679167126
 42
0.0084585544425119
 10
1755.549247886072
 20
953.6888962999515
 42
-0.2018794564827104
 10
1756.505741050582
 20
953.6966461447509
 10
1756.710876530803
 20
953.3060787986979
 10
1756.543607776555
 20
952.8483546183831
 42
-0.1021817018580373
 10
1755.819420129199
 20
952.214987683376
 42
0.0547418699492443
 10
1755.040129090199
 20
951.618078109281
 42
0.0261498079289225
 10
1754.398151603605
 20
950.9131456770679
 42
-0.0162576726311083
 10
1753.770538554085
 20
950.2015173045023
 42
-0.0152294757596937
 10
1753.095285892834
 20
949.5330107383473
 42
-0.009521255928686
 10
1752.384373941097
 20
948.8956535207073
 42
-0.0039084935665768
 10
1751.653161448864
 20
948.2746516004073
 42
0.0016183051299371
 10
1750.917007166072
 20
947.6552109262307
 42
0.0054443488563627
 10
1750.190111633546
 20
947.0238629491666
 42
0.0047975436762435
 10
1749.476943118074
 20
946.3782771343616
 42
0.004114870310086
 10
1748.777102754638
 20
945.7216930925467
 42
0.0034480484729775
 10
1748.090155557572
 20
945.0573917724112
 42
0.0027910171706731
 10
1747.415666541198
 20
944.3886541226275
 42
0.0021372115670505
 10
1746.753197455146
 20
943.7187574492739
 42
0.0015388246350635
 10
1746.100837048325
 20
943.0493355506476
 42
0.0009403863895818
 10
1745.452881038161
 20
942.3777901315835
 42
-0.0006905602691818
 10
1743.810873967174
 20
940.668175488487
 42
-0.0011177444438731
 10
1743.128669808099
 20
939.9634449156053
 42
-0.0027026331734337
 10
1742.422223974235
 20
939.2432005965902
 42
-0.0780023104019381
 10
1741.656889660885
 20
938.6449333851727
 42
-0.1633372987149564
 10
1740.758328109033
 20
938.5266296599906
 42
-0.0469939860742913
 10
1739.799370789392
 20
938.7963977749206
 42
-0.0220289630494691
 10
1738.902226621046
 20
939.1612628482896
 42
-0.0251778518210863
 10
1738.067949630233
 20
939.596936311101
 42
-0.0233230580526434
 10
1737.280150444416
 20
940.1147253170712
 42
-0.0148015145539013
 10
1736.524539088225
 20
940.6982633156653
 42
-0.0067064790491095
 10
1735.787713278109
 20
941.3194824351524
 42
0.0011007456843507
 10
1735.056273895066
 20
941.9502730893402
 42
0.008980883886912
 10
1734.316821820109
 20
942.5625256920246
 42
0.0172689824522545
 10
1733.555957934244
 20
943.1281306570092
 42
0.0188431714215989
 10
1732.763202450724
 20
943.6262716205943
 42
0.0067188638978604
 10
1731.534641706611
 20
944.3096109149541
 42
-0.0118157340556829
 10
1730.712156305318
 20
944.7874729314523
 42
-0.0228897177795736
 10
1729.905201615715
 20
945.3351204238018
 42
-0.0338651986746733
 10
1729.133175042192
 20
945.9967180376578
 42
-0.1309321886343663
 10
1728.616768749929
 20
946.7970563446412
 42
-0.1541912412124876
 10
1728.737441476521
 20
947.714481303368
 42
-0.0123306906132108
 10
1729.140304037506
 20
948.6318290834793
 42
-0.0132958292845302
 10
1729.563513881104
 20
949.4884028675016
 42
-0.0200312018879494
 10
1730.031345053194
 20
950.2944439661666
 42
-0.0201146145756396
 10
1730.566888010731
 20
951.0614974918151
 42
-0.0158865282989038
 10
1731.165388058071
 20
951.799300976914
 42
-0.011709786187818
 10
1731.816552522221
 20
952.5172324537848
 42
-0.0068984059714469
 10
1732.509143862715
 20
953.2248991187136
 42
0.0153373771939108
 10
1733.191999479796
 20
953.9415914145191
 42
0.0448883742785202
 10
1733.76016576355
 20
954.6996460166967
 42
0.0726205232186056
 10
1734.112906304363
 20
955.5329339524584
 42
-0.0153549656523076
 10
1734.382543921618
 20
956.4921229537233
 42
-0.2988578981477437
 10
1734.965056936129
 20
957.1659253530231
 42
0.0270672399768617
 10
1735.990454195464
 20
957.0716764782464
 42
0.1430078649494074
 10
1736.952237028136
 20
957.38234728981
 42
0.2334445520676572
 10
1737.359231622597
 20
958.1649591796953
 42
0.0083335380882679
 10
1737.382695211438
 20
959.174052709333
 42
-0.0183983401533273
 10
1737.455176138557
 20
960.1635020208798
 42
-0.0143279331798292
 10
1737.589312335009
 20
961.1236523868416
 42
-0.009700277157861
 10
1737.766839435842
 20
962.0618852615343
 42
-0.0047445310420166
 10
1737.969493076107
 20
962.9855820992707
 42
0.0031678399582092
 10
1738.280632499616
 20
964.3600192179142
 42
0.0081501336711746
 10
1738.466195891811
 20
965.2796698259113
 42
0.0131786324772375
 10
1738.612960546115
 20
966.2106194870627
 42
0.0178241912763518
 10
1738.70266209758
 20
967.1602496556896
 42
0.0210419924885017
 10
1738.717732995765
 20
968.1356973860834
 42
0.0036808563873693
 10
1738.67984274203
 20
969.1303377684652
 42
-0.0179591450297999
 10
1738.670043836154
 20
970.1167179599003
 42
-0.0423833621338483
 10
1738.774332942703
 20
971.0656510060816
 42
-0.0686479602796914
 10
1739.078706726239
 20
971.9479499526983
 42
0.0041514393403252
 10
1739.571489966383
 20
972.7645621795153
 42
0.0859280316823077
 10
1739.778391485142
 20
973.6693585928676
 42
-0.0400802033128303
 10
1739.915959294743
 20
974.6432727650908
 42
-0.1148909804788905
 10
1740.373705704246
 20
975.5423090181807
 42
-0.2039045154648407
 10
1741.229245921396
 20
975.9822010887175
 42
-0.2488366091931256
 10
1742.125492059721
 20
975.6338087760642
 42
0.0195410307708321
 10
1742.518644969276
 20
974.7790055067783
 42
0.2272987173034125
 10
1743.364750373082
 20
974.5333390753419
 42
0.0555192759858871
 10
1744.47823345295
 20
974.7595693022653
 42
0.0276146943696806
 10
1745.473215869246
 20
975.1133697960975
 42
0.027960577986962
 10
1746.324156969423
 20
975.5291031966972
 42
0.0226200513137007
 10
1747.090577614917
 20
976.0069196310032
 42
0.0114140489077272
 10
1747.83202550547
 20
976.5451977614985
 42
-0.0208188420294672
 10
1748.608851169729
 20
977.0893254699647
 42
-0.0533136727127734
 10
1749.482326976641
 20
977.5238445004111
 42
-0.1180600436417578
 10
1750.452546376473
 20
977.6784535513806
 42
-0.2286463738566895
 10
1751.140024630597
 20
977.1232570517012
 42
-0.009333505674266
 10
1751.61890398859
 20
976.1988251758577
 42
0.0306168288862206
 10
1752.129223542485
 20
975.3742539890446
 42
0.0292972861235674
 10
1752.713742272745
 20
974.6457460426634
 42
0.0235450751080404
 10
1753.393615712401
 20
973.9612465801297
 42
0.036748118466393
 10
1754.173588388838
 20
973.3401336292212
 42
0.0595942897663047
 10
1755.03889087537
 20
972.8867243190975
 42
0.0886323515380551
 10
1755.973614148437
 20
972.7102831643545
 42
0.0886281495646929
 10
1756.93552236267
 20
972.887291261809
 42
0.0856762295907391
 10
1757.790770102888
 20
973.3801530900883
 42
0.0983270822613465
 10
1758.392846191978
 20
974.1253151252676
 42
0.0744214624294587
 10
1758.707062557469
 20
975.0413131368192
 42
0.0524071900265577
 10
1758.786573112022
 20
976.0326132435077
 42
0.0406046159280356
 10
1758.685888780419
 20
977.0087392842766
 42
0.0326489114149759
 10
1758.448463783189
 20
977.9389254781799
 42
0.0234870972801207
 10
1758.11091405313
 20
978.8293353814957
 42
0.0142999385125212
 10
1757.709310902185
 20
979.6873159807299
 42
0.0055505019593419
 10
1757.274135020093
 20
980.5282334573414
 42
-0.0032156431336703
 10
1756.83204053408
 20
981.3729428184812
 42
-0.0116475833411988
 10
1756.409607155942
 20
982.2424058128813
 42
-0.0169195163862271
 10
1756.032421712523
 20
983.1528429140677
 42
-0.0173547300843081
 10
1755.718610611655
 20
984.0848492193634
 42
-0.0197489245705448
 10
1755.482907984469
 20
985.0028208520706
 42
-0.026071241857018
 10
1755.340683805554
 20
985.8732051308155
 42
-0.0520982917417896
 10
1755.33938636667
 20
986.7672314651887
 42
-0.0363048978325927
 10
1755.557740001244
 20
987.8877031254679
 10
1755.474922843322
 20
988.2181813944104
 10
1754.978508165008
 20
988.0304912452363
 42
-0.0165007178167687
 10
1754.017202419548
 20
987.6115871160685
 42
-0.0125972040770105
 10
1753.187913193011
 20
987.3095804643856
 42
-0.0107099910691287
 10
1752.338393966373
 20
987.0360152956793
 42
-0.0542512852028752
 10
1751.398638425964
 20
986.8635839524131
 42
-0.0811329318659235
 10
1750.359366880623
 20
986.9705721166026
 10
1749.863838396485
 20
987.0147394117353
 10
1749.523274556926
 20
986.7365336010662
 10
1749.528449959379
 20
986.3081289359232
 10
1749.851551466636
 20
985.9352626605677
 42
0.0268555980026378
 10
1750.780736802434
 20
985.3391958575791
 42
-0.1813880260701165
 10
1751.388805408672
 20
984.6216462171726
 10
1751.441016718423
 20
984.1048868398795
 10
1751.075070510499
 20
983.9836414478904
 42
-0.0949908903380018
 10
1750.115850912714
 20
984.4312061213718
 42
-0.0376394837227906
 10
1749.428959603902
 20
985.0356234856519
 42
0.0097218604582915
 10
1748.741573826605
 20
985.6682129076347
 42
-0.010463652772361
 10
1748.033461717633
 20
986.3224438107499
 42
-0.0308373080002044
 10
1747.381414239864
 20
987.0324432258657
 42
-0.0269483649617392
 10
1746.832786070702
 20
987.8153870851663
 42
0.0136497835464631
 10
1746.063890246807
 20
989.0241328351697
 42
0.0083203060786515
 10
1745.495618681459
 20
989.7903083620596
 42
-0.0334052313852463
 10
1744.965134763498
 20
990.5877470013468
 42
0.0761337068212123
 10
1744.422732634735
 20
991.3696447489819
 42
0.1218107250857281
 10
1743.574757384035
 20
991.8293119395462
 42
0.101519484663719
 10
1742.606329382646
 20
991.8810625519567
 42
0.0476558581048727
 10
1741.678460236309
 20
991.6502145432801
 42
0.0115397002621267
 10
1740.808429600533
 20
991.328222824972
 42
-0.0744034251538571
 10
1739.816346813217
 20
991.0329926866436
 42
-0.1528470684046548
 10
1739.14901693041
 20
991.6355112575216
 10
1738.759547822603
 20
991.8984534266924
 10
1738.733062036246
 20
992.382480811011
 42
-0.1759193579959613
 10
1738.183160956066
 20
993.0484540319202
 42
-0.010870590680155
 10
1738.385463656997
 20
994.1069841761557
 42
0.1829936538927279
 10
1738.153253683446
 20
995.0324404447128
 42
0.1694644284339084
 10
1737.372143598385
 20
995.4818128159223
 42
0.0335199250011145
 10
1736.352732367914
 20
995.6354835112632
 42
0.0039199796693522
 10
1735.379564558809
 20
995.7430389460483
 42
0.0223897303482824
 10
1734.446234428581
 20
995.7967169596832
 42
0.0372980376532627
 10
1733.488992170912
 20
995.7353902068007
 42
0.0651873255806051
 10
1732.544873098676
 20
995.4826863401899
 42
0.1121637896164347
 10
1731.780754095809
 20
994.944434495961
 42
0.0781636488464434
 10
1731.271480305662
 20
994.1286493842737
 42
0.0408017910256482
 10
1730.950611842981
 20
993.1882246047392
 42
0.0468827105751443
 10
1730.796794663567
 20
992.2293168396562
 42
0.0613650768325885
 10
1730.849338984215
 20
991.2952621266553
 42
0.0446946540146065
 10
1731.117195026698
 20
990.3895848048533
 42
0.0373956059999548
 10
1731.533814561674
 20
989.4510905152607
 42
0.2103179372855673
 10
1732.246729755021
 20
988.8489895496743
 42
-0.0109432401680338
 10
1733.24126310631
 20
988.773027589263
 10
1733.508754929044
 20
988.499013087754
 10
1733.53847235385
 20
987.9993923656575
 42
-0.1409258518036741
 10
1733.161282475825
 20
987.0210417343074
 42
-0.2081678662719794
 10
1732.288773778935
 20
986.7809299504877
 42
0.1284081926759227
 10
1731.339522381356
 20
986.5549696890546
 42
0.1053588473809251
 10
1730.615709261399
 20
985.9296301697458
 42
0.0908207020463961
 10
1730.180645279263
 20
985.0838717828798
 42
0.0604324953058864
 10
1730.0282403499
 20
984.1508071076644
 42
0.0197274533392655
 10
1730.025093178658
 20
983.1772818704619
 42
-0.0158728846153703
 10
1730.027762967777
 20
982.2018679970836
 42
-0.0178720517003168
 10
1729.959457865476
 20
981.2446816470597
 42
-0.0128656301757344
 10
1729.833323138353
 20
980.3009344835066
 42
-0.00756041418879
 10
1729.668864765274
 20
979.3640768240701
 42
-0.001937130680439
 10
1729.39298969826
 20
977.9573807249878
 42
0.0052942171671514
 10
1729.217644850738
 20
977.009261123365
 42
0.0016735308244992
 10
1729.055698373125
 20
976.0518361338116
 42
-0.0032933107297629
 10
1728.890366409147
 20
975.0933119799507
 42
-0.0083294386950944
 10
1728.703543803066
 20
974.1424321424762
 42
-0.0135640650550238
 10
1728.477125399143
 20
973.2079401020913
 42
-0.019028513814956
 10
1728.19300604164
 20
972.2985793394864
 42
-0.0245692998664629
 10
1727.833080574818
 20
971.4230933353585
 42
-0.0296671329956361
 10
1727.379321627706
 20
970.5901896771058
 42
-0.0144822305801875
 10
1726.841053183953
 20
969.7959548391903
 42
0.0100776483490684
 10
1726.2950913843
 20
969.0053314588125
 42
0.0354331702393522
 10
1725.828479073184
 20
968.1785431241962
 42
0.0435904938944389
 10
1725.510296589229
 20
967.2853101694935
 42
0.0285165875326945
 10
1725.320760724389
 20
966.3423349331777
 42
0.0149388631263101
 10
1725.212642253466
 20
965.3805877919042
 42
0.0022489256531448
 10
1725.138044383745
 20
964.4208915329343
 42
-0.0106460868879878
 10
1725.048172380647
 20
963.4702506061735
 42
-0.0238152840136834
 10
1724.894167190032
 20
962.5346796541915
 42
-0.0340637496621877
 10
1724.630226028553
 20
961.6214969011453
 42
-0.0385906915634598
 10
1724.232907879081
 20
960.747558465103
 42
-0.0447887575427629
 10
1723.689306314383
 20
959.938348644037
 42
-0.0650614897775067
 10
1722.993884685355
 20
959.2729963511777
 42
-0.0797800488445606
 10
1722.15002433859
 20
958.8541254646941
 42
-0.0181149969931089
 10
1721.219958304668
 20
958.6041675602178
 42
0.0216611339070012
 10
1720.299211987831
 20
958.3308096414528
 42
0.016282785032642
 10
1719.407897628269
 20
957.9902879355314
 42
0.0102993065468446
 10
1718.534273528444
 20
957.6021059175584
 42
0.0151509089487935
 10
1717.676625471915
 20
957.1732416090352
 42
0.026891937507261
 10
1716.860953462098
 20
956.675843139193
 42
0.0433600942274857
 10
1716.122503761411
 20
956.0740292851793
 42
0.0755446593248954
 10
1715.543314838976
 20
955.3100344480567
 42
0.0698967293773575
 10
1715.212696283698
 20
954.3353754738532
 10
1715.005437625405
 20
953.932379663202
 10
1714.587984211961
 20
953.8030372638353
 42
-0.1260817075320423
 10
1713.605863279723
 20
954.115389408529
 42
-0.0523159636955998
 10
1712.853443493375
 20
954.7162008321944
 42
0.0422565725921688
 10
1712.141475767779
 20
955.3126758609923
 42
0.0617805715718508
 10
1711.295735544586
 20
955.7022262023147
 42
-0.0021898010571405
 10
1710.373450257941
 20
956.0037192943537
 42
-0.0818723185033104
 10
1709.508797134145
 20
956.4355493703772
 10
1709.243023743487
 20
956.8557772341199
 10
1709.376396207343
 20
957.2516299086698
 42
0.0542438637126759
 10
1710.321995192352
 20
957.5793243569588
 42
0.1377377556776832
 10
1710.974171448099
 20
958.2371274520539
 42
0.1100240430879849
 10
1711.268788814201
 20
959.1848722608286
 42
0.1225873771112056
 10
1711.125057391305
 20
960.147981321651
 42
0.1410167807550658
 10
1710.522232111519
 20
960.8526941084912
 42
0.0295052756888977
 10
1709.668926245929
 20
961.3561803170066
 42
0.1086293796828236
 10
1708.76715876579
 20
961.6490019730379
 42
0.1462092946792658
 10
1707.842996529218
 20
961.3907572342215
 42
0.1250706351145446
 10
1707.146431852337
 20
960.6921422434911
 42
0.0716977643096265
 10
1706.79938449696
 20
959.792186216662
 42
0.029939939584381
 10
1706.622113523244
 20
958.8959002026859
 42
0.0915263909779491
 10
1706.688734297519
 20
957.917295421911
 42
-0.1282241002400525
 10
1706.881893537721
 20
956.9054509673859
 42
-0.084202984978591
 10
1705.945007713387
 20
956.8859172487734
 42
-0.0089457545425188
 10
1705.004089430074
 20
956.8317890069707
 42
-0.2209200477374962
 10
1704.116076900335
 20
957.1183220592622
 42
-0.1562465454961003
 10
1703.994718615964
 20
958.079645003352
 42
-0.0286859931748272
 10
1704.083331382097
 20
959.0447450365379
 42
-0.032654946580816
 10
1704.350866075255
 20
959.9327717633531
 42
0.1191759854572202
 10
1704.457642148025
 20
960.9210936868981
 10
1704.23614149733
 20
961.2408373428417
 10
1703.79950226946
 20
961.3112116284924
 42
-0.0546354219138149
 10
1702.678009700908
 20
961.3207955987187
 42
0.1329173730940424
 10
1701.808269640918
 20
961.4218725879087
 42
0.2262970994816929
 10
1701.463009543749
 20
960.7004232151187
 42
0.0099311051877818
 10
1701.342444650123
 20
959.5240445053898
 42
-0.0853363677080966
 10
1701.078291024687
 20
958.4756305491367
 42
-0.1953140308355756
 10
1700.427670460925
 20
957.855948781674
 42
-0.2020963887940005
 10
1699.462717002948
 20
957.8791933484312
 42
-0.2146541734471379
 10
1698.817405290481
 20
958.5615325584852
 42
-0.122314120272268
 10
1698.820622403393
 20
959.5313569755987
 42
-0.0335869122721436
 10
1699.078417212738
 20
960.4944938547196
 42
-0.0440092530238239
 10
1699.461695874944
 20
961.3612209207934
 42
-0.0427327889016483
 10
1699.989130865564
 20
962.1303002626596
 42
0.0392754938986984
 10
1700.53599777465
 20
962.907978968326
 42
0.1294606483641658
 10
1700.815550213041
 20
963.8556794323932
 42
0.3547185772122829
 10
1700.059052480006
 20
964.2672475716445
 42
-0.0280302173986671
 10
1698.983085554067
 20
964.3816808862517
 42
-0.0741600027048132
 10
1698.129310915221
 20
964.6602942452949
 42
0.0670369205596316
 10
1697.224094360183
 20
965.0708528413613
 10
1696.736867937513
 20
965.0576643612607
 10
1696.64475357126
 20
964.6227497033413
 42
-0.0743674594105325
 10
1696.665682300708
 20
963.6583690221526
 42
-0.0966710123565344
 10
1696.191913593231
 20
962.8405482654233
 42
0.063600566560789
 10
1695.739333140831
 20
962.0218786503739
 42
0.0487137595349983
 10
1695.485738244696
 20
961.1153957074352
 42
0.0156274330385648
 10
1695.340869865155
 20
960.0696189415764
 10
1695.163769874957
 20
959.6522444597097
 10
1694.731476167409
 20
959.5626452950424
 42
0.0018787820088259
 10
1693.690678209629
 20
959.68667551559
 42
0.0115132169681162
 10
1692.748304620633
 20
959.7667086926538
 42
0.0119791661605169
 10
1691.836851637141
 20
959.8002438384723
 42
0.0096525154634153
 10
1690.881384607965
 20
959.7932960711682
 42
-0.0601678680622503
 10
1689.887545489601
 20
959.8439442016903
 42
-0.2129809841885081
 10
1689.14524863996
 20
960.3620803578824
 42
-0.1003296532868518
 10
1688.807020015217
 20
961.2810730806275
 42
-0.0907342273879455
 10
1688.830800929575
 20
962.2377092184855
 42
-0.1606708400824541
 10
1689.236682500141
 20
963.0900718489854
 42
-0.1530237048648016
 10
1690.133642209369
 20
963.3608941043396
 42
0.0159229010329077
 10
1691.177966791677
 20
963.4373767970512
 42
0.0346081526485644
 10
1692.152764225779
 20
963.6162708648027
 42
0.0462917409886588
 10
1693.039797910061
 20
963.9332475749842
 42
0.0562192728877551
 10
1693.827215745963
 20
964.4155553968513
 42
0.0511360899692328
 10
1694.504798352545
 20
965.0723077183736
 42
0.0416825626527349
 10
1695.066598181287
 20
965.8651694115857
 42
0.0356234580489583
 10
1695.507357719902
 20
966.7481409104439
 42
0.0327122348362249
 10
1695.822911919464
 20
967.6781162796897
 42
0.0305684376244963
 10
1696.017016495916
 20
968.632969481251
 42
0.0285151989424733
 10
1696.09691819314
 20
969.5998212364736
 42
0.0267678533784213
 10
1696.06987899489
 20
970.5658326328807
 42
0.0254651524561735
 10
1695.943160884921
 20
971.5181647579955
 42
0.0245168576571603
 10
1695.724060478838
 20
972.4445198829767
 42
0.0221549653949883
 10
1695.420516562163
 20
973.342635313925
 42
0.0191101329521709
 10
1695.041034497484
 20
974.2191021206821
 42
0.01577905259577
 10
1694.594139086301
 20
975.0808151402392
 42
0.0171401175194827
 10
1694.085803465605
 20
975.9291327033947
 42
0.0334750816410494
 10
1693.499594455476
 20
976.7167967527667
 42
0.053956202508278
 10
1692.80745780019
 20
977.3713342554524
 42
0.0703779554735684
 10
1691.983476774591
 20
977.8242187923744
 42
-0.0044226658101096
 10
1691.084326528121
 20
978.1605944884526
 42
-0.0797855288557981
 10
1690.267165536418
 20
978.6486993748408
 42
-0.0694817370419577
 10
1689.622879376999
 20
979.3687489554347
 42
-0.061125484194992
 10
1689.180508476446
 20
980.2367348914406
 42
-0.0581675642368186
 10
1688.955254486232
 20
981.1802829716659
 42
-0.0601417155986165
 10
1688.955904578101
 20
982.1357785650734
 42
-0.0395986676003623
 10
1689.154603373676
 20
983.0640674166184
 42
-0.0070373538970485
 10
1689.44177864574
 20
983.9804592070615
 42
0.024708159523378
 10
1689.696790107754
 20
984.9076408552932
 42
0.0390673392443398
 10
1689.821425490435
 20
985.8602081493167
 42
0.0388598202473194
 10
1689.796786346192
 20
986.8241436250045
 42
0.0392169236321403
 10
1689.621498304485
 20
987.7791078326742
 42
0.0401245962707235
 10
1689.294177597318
 20
988.704486140382
 42
0.0476513639552159
 10
1688.812765718022
 20
989.5599057899501
 42
0.0624926749936438
 10
1688.174089016226
 20
990.2723396772913
 42
0.0734011881313902
 10
1687.37802910737
 20
990.7721807364051
 42
0.048347204025004
 10
1686.46410536841
 20
991.0711145710004
 42
0.025868078920044
 10
1685.498854884045
 20
991.236238962459
 42
0.025038427319069
 10
1684.535491713613
 20
991.3116972018663
 42
0.0379019119920614
 10
1683.583740693145
 20
991.2661681011027
 42
0.0333417965617712
 10
1682.643751376748
 20
991.0688466845993
 42
-0.1173182438041875
 10
1681.693937507034
 20
991.0171759928529
 42
-0.2847087070475976
 10
1680.979430516989
 20
991.6567349598979
 10
1680.961626813951
 20
992.1446218569714
 10
1681.250180759341
 20
992.4050627554059
 42
-0.0264648529941657
 10
1682.296040385995
 20
992.5146253166596
 42
0.1611107557714012
 10
1683.128230382727
 20
992.9806412721791
 42
0.0175815847827165
 10
1683.795930657581
 20
993.7296716327637
 42
0.1079664639034265
 10
1684.25739838031
 20
994.5496916704508
 42
0.1585513690792061
 10
1684.158705195493
 20
995.4386185255831
 42
0.0671958186311327
 10
1683.631020362567
 20
996.3171550475534
 42
0.0323013721186043
 10
1682.952345266612
 20
997.0844440925526
 42
0.0342601485026022
 10
1682.226809740676
 20
997.7125613800623
 42
0.0336737031331074
 10
1681.443138526783
 20
998.221978023427
 42
0.029505377183863
 10
1680.587984925697
 20
998.6340337997106
 42
0.0231314626237402
 10
1679.648002238194
 20
998.9700684859746
 42
-0.0013394892252814
 10
1678.635837795115
 20
999.2678472366254
 42
-0.0598347791663501
 10
1677.713391463668
 20
999.6594464465347
 42
-0.1489846423015652
 10
1677.095732770125
 20
1000.310539906237
 42
-0.0824502184642526
 10
1676.891894218792
 20
1001.233571528656
 42
-0.0619895952875212
 10
1676.958525801608
 20
1002.214063915891
 42
0.1173373234918744
 10
1676.980997318632
 20
1003.181080141428
 42
0.0332491262401948
 10
1676.391495899543
 20
1003.943632558685
 10
1676.395798166002
 20
1004.363151208726
 10
1676.824509504979
 20
1004.645810223761
 42
-0.1501186397411984
 10
1677.771870250311
 20
1004.741503224209
 10
1678.283598581977
 20
1004.686900197473
 10
1678.485030474749
 20
1005.050899252336
 10
1678.279594898283
 20
1005.52135140473
 10
1677.872756918732
 20
1005.719084422761
 42
-0.1165168336491552
 10
1676.900990606298
 20
1006.021648351846
 10
1676.897852653004
 20
1006.409668566014
 10
1677.356730507873
 20
1006.614943351707
 42
0.2725508213583589
 10
1678.272533258837
 20
1006.71820436625
 42
0.3178498564925072
 10
1678.342516512866
 20
1007.636914965664
 42
0.0590333691400426
 10
1677.80375491323
 20
1008.425119146571
 42
-0.0313843549176898
 10
1677.28821293379
 20
1009.22429919443
 42
0.0080828016838935
 10
1676.804240541124
 20
1010.05666743478
 42
0.0478784862153285
 10
1676.229785818097
 20
1010.832390060727
 42
0.0899350423146751
 10
1675.465126744293
 20
1011.421294966761
 42
0.1679529294450186
 10
1674.529092189773
 20
1011.598018745673
 42
0.1198311678734261
 10
1673.718495186427
 20
1011.088841337455
 10
1673.776923356304
 20
1008.666296453517
 10
1675.393852211288
 20
1008.372634954365
 10
1675.467348064231
 20
1006.928798562124
 10
1674.826064602915
 20
1006.780202604487
 10
1674.826064602915
 20
1002.73285123073
 42
-0.2060020234294498
 10
1674.146098390872
 20
1002.488815708762
 42
0.0288570696026938
 10
1673.410982866257
 20
1003.151757298093
 42
0.1501920427798514
 10
1672.462773331437
 20
1003.300822440738
 42
0.0397765623647519
 10
1671.424352491647
 20
1003.086542426416
 42
0.0211995402360639
 10
1670.45567711288
 20
1002.80304071414
 42
0.0685217165919936
 10
1669.621516361318
 20
1002.387602502238
 42
0.0786393700581201
 10
1668.955525767825
 20
1001.72633446921
 42
0.0564175261166115
 10
1668.461280339769
 20
1000.866403421454
 42
0.0435282512970169
 10
1668.134676208122
 20
999.897031800142
 42
0.0553110844708093
 10
1667.998381430763
 20
998.8999584261419
 42
0.0817296052661033
 10
1668.129576765007
 20
997.9416837979526
 42
0.0305673487226598
 10
1668.539776218281
 20
997.0661278193267
 42
-0.1233424570150039
 10
1668.537066254313
 20
996.1024360464232
 10
1668.342973164257
 20
995.8832434334626
 42
0.0107436317747961
 10
1667.703976897338
 20
995.1340793700321
 42
0.0244459590037297
 10
1667.121807699363
 20
994.3454133492043
 42
0.0295383958236988
 10
1666.631942485943
 20
993.4947740221613
 42
0.0271151615044521
 10
1666.239098662911
 20
992.5891413438458
 42
0.0250507191887193
 10
1665.94090915756
 20
991.642278443934
 42
0.0234451760514637
 10
1665.735006899298
 20
990.6679484520937
 42
0.0276782341637788
 10
1665.626147336871
 20
989.6798987081858
 42
0.0378399382427677
 10
1665.647007685608
 20
988.6918146527079
 42
0.0476984472182898
 10
1665.837106347682
 20
987.7173665600293
 42
0.0550962523001854
 10
1666.235749638424
 20
986.7721571492293
 42
0.0904302008753873
 10
1666.870544348374
 20
985.9783902113052
 42
0.1511087967520717
 10
1667.747341134324
 20
985.6046361041695
 42
-0.0561323817610157
 10
1668.71652154021
 20
985.4285240902516
 42
-0.0639614494607406
 10
1669.563106590258
 20
984.9221897144843
 10
1669.449576620918
 20
967.7981215908939
 10
1671.379588969731
 20
966.7774810034174
 10
1671.623668215188
 20
960.34514068253
 10
1671.511341027578
 20
960.3360946673703
 10
1670.511977125424
 20
960.2549943872787
 42
0.0010926104711933
 10
1669.513108296322
 20
960.1709026794932
 42
0.0017718143698139
 10
1668.515179594813
 20
960.0811303478643
 42
0.0024529574690787
 10
1667.518636075459
 20
959.9829881962442
 42
0.0031362249625382
 10
1666.523922792812
 20
959.8737870284834
 42
0.0038212560226879
 10
1665.531484801436
 20
959.7508376484347
 42
0.0045069844349274
 10
1664.541767155897
 20
959.6114508599512
 42
0.0051914806795425
 10
1663.555214910725
 20
959.4529374668807
 42
0.0057996598571019
 10
1662.572266979789
 20
959.2726804949926
 42
0.0055573412439242
 10
1661.593201981645
 20
959.0699482321944
 42
0.0052173994080108
 10
1660.618126876711
 20
958.8460278690375
 42
0.0048799057998329
 10
1659.647140208769
 20
958.6023055853919
 42
0.0045456471706916
 10
1658.680340521619
 20
958.3401675611302
 42
0.0042151428655581
 10
1657.717826359079
 20
958.0609999761307
 42
0.0038886716134459
 10
1656.759696264937
 20
957.7661890102639
 42
0.0035662978114607
 10
1655.806048782968
 20
957.4571208433956
 42
0.0032478962648728
 10
1654.856982457004
 20
957.1351816554088
 42
0.0028941016791454
 10
1653.912557493245
 20
956.8017859725154
 42
0.0023267387329819
 10
1652.972278776386
 20
956.4587589185741
 42
0.0017465700287386
 10
1652.035232885077
 20
956.108234907697
 42
0.0011650079345926
 10
1651.100496154836
 20
955.7523559275661
 42
0.0007283502990714
 10
1649.700700220637
 20
955.2131824881511
 10
1649.348805245266
 20
958.8336731714482
 10
1655.119859881076
 20
964.0710826423932
 10
1663.35549669049
 20
963.4315111368843
 10
1663.30827026671
 20
964.9700954993516
 10
1663.279167773787
 20
964.9727139058782
 10
1661.784675504106
 20
965.1063775258872
 42
0.0006772763091139
 10
1660.788247510017
 20
965.1932123829746
 42
0.0010113225315032
 10
1659.791671292296
 20
965.2766700342951
 42
0.0013456530797692
 10
1658.794888246283
 20
965.3554151991855
 42
0.0016802773080528
 10
1657.79783976727
 20
965.428112596987
 42
0.0020151323638957
 10
1656.800467250576
 20
965.4934269470386
 42
0.0023500649789964
 10
1655.802712091531
 20
965.5500229686792
 42
0.0026848133413203
 10
1654.804515685379
 20
965.5965653812526
 42
0.0029043065349176
 10
1653.805824472822
 20
965.6318338596035
 42
0.0023615436817171
 10
1652.806669589172
 20
965.6565378085552
 42
0.0017704764745263
 10
1651.807152419969
 20
965.6729872488003
 42
0.0011798947669565
 10
1650.807376475237
 20
965.6835406114003
 42
0.0007372430539081
 10
1649.30745378286
 20
965.6934745776601
 42
0.0006084350733572
 10
1648.50945430273
 20
967.459354024162
 42
0.0006809540985692
 10
1648.095065717287
 20
968.3698711534956
 42
0.0009607799367336
 10
1647.677771290233
 20
969.2788453058852
 42
0.0012409473813155
 10
1647.256581549248
 20
970.1857510800202
 42
0.0015214951256687
 10
1646.830507022013
 20
971.0900630746023
 42
0.0018024152207756
 10
1646.398558236213
 20
971.9912558883187
 42
0.0020836422278712
 10
1645.959745719525
 20
972.8888041198713
 42
0.0023650423008065
 10
1645.513079999636
 20
973.7821823679452
 42
0.0026464023206194
 10
1645.057571604222
 20
974.6708652312475
 42
0.0029274192562923
 10
1644.592231060969
 20
975.5543273084622
 42
0.0031701208000787
 10
1644.11610203438
 20
976.4320607936742
 42
0.0027980335191699
 10
1643.62936001439
 20
977.3041588705119
 42
0.0023304482408616
 10
1643.133566211091
 20
978.1714505281364
 42
0.0018632519925374
 10
1642.630366403273
 20
979.0348096609347
 42
0.0013966582403732
 10
1642.121406369704
 20
979.8951101633383
 42
0.00093068556581
 10
1641.608331889176
 20
980.7532259297373
 42
0.0004651839062345
 10
1640.834605721435
 20
982.0382148433123
 10
1641.023927362049
 20
982.261206792948
 42
-0.0085713248283617
 10
1641.686080256098
 20
983.0159970312744
 42
0.0029085551507579
 10
1642.362478406473
 20
983.7656397958747
 42
0.0172187341862097
 10
1643.005206790009
 20
984.538084484758
 42
0.032107236217894
 10
1643.56385853196
 20
985.3626305916142
 42
0.0485470750129563
 10
1643.984114527065
 20
986.26557082837
 42
0.0692934876163685
 10
1644.183555275215
 20
987.2516010827027
 42
0.0824753517890809
 10
1644.06745783466
 20
988.3154729631977
 42
0.2032942599567792
 10
1643.528971695577
 20
989.1501638949913
 42
0.189445523673383
 10
1642.551135727134
 20
989.0329061476339
 42
0.0151272540936905
 10
1641.545466780462
 20
988.6034767065448
 42
0.0141683974195955
 10
1640.636430776075
 20
988.1504908379357
 42
0.0119716472430353
 10
1639.790987683917
 20
987.6719077123707
 42
0.0083902089067915
 10
1638.975798237349
 20
987.1651342992761
 42
0.005561876041108
 10
1638.160253480975
 20
986.6275534831565
 42
0.0079405154344317
 10
1637.342301963778
 20
986.056296234044
 42
0.0105633022163691
 10
1636.536909894284
 20
985.4483434039796
 42
0.0134139599392285
 10
1635.759270122006
 20
984.8006738457318
 42
0.0165689036979968
 10
1635.024566970506
 20
984.1102714011977
 42
0.012840939186437
 10
1634.338524375261
 20
983.3796558375548
 42
0.0042978877441087
 10
1633.679307437665
 20
982.6274734957618
 10
1633.230962670304
 20
982.5412945244501
 42
-0.0934655407156074
 10
1632.230395385386
 20
982.538068673969
 42
-0.1827713631851448
 10
1631.350642584272
 20
983.0298023723683
 42
-0.1564950852725575
 10
1631.243306176102
 20
983.9886361936413
 42
0.1265674461301003
 10
1631.056241505689
 20
984.982834948928
 42
0.0889280810081681
 10
1630.467811477287
 20
985.8060752997502
 42
0.0681328981380418
 10
1629.659706915077
 20
986.416441580561
 42
0.0650156308999672
 10
1628.728304479978
 20
986.7904461796719
 42
0.061814939169082
 10
1627.739592063053
 20
986.9149534509567
 42
-0.0016275767380147
 10
1626.744712710349
 20
986.9113693020237
 42
-0.067824354335742
 10
1625.776661842376
 20
987.0499400510393
 42
-0.0318449899401877
 10
1624.842842869834
 20
987.394738700344
 42
0.0110633241888293
 10
1623.923135994653
 20
987.7755481087801
 42
0.0193265061105972
 10
1622.983437004556
 20
988.0933189061954
 42
0.0286168969056349
 10
1621.9926581639
 20
988.3310395491395
 42
0.0495076753641844
 10
1620.987920997782
 20
988.4130207096413
 42
0.0764311417310845
 10
1620.022953653931
 20
988.2481386156872
 42
0.0382788772351957
 10
1619.121704189101
 20
987.8320676721946
 10
1618.399554625297
 20
988.3179899949878
 10
1618.618538655942
 20
988.6034349093707
 42
0.1404219831017033
 10
1618.98515637645
 20
989.5189453585416
 42
0.2126825381989529
 10
1618.638260239207
 20
990.465399232289
 42
0.1106616384712594
 10
1617.72906576923
 20
990.81065211545
 42
-0.1037353577588139
 10
1617.015798398593
 20
991.4965342131978
 42
0.1510300269583965
 10
1616.23818615118
 20
992.0873044870432
 42
0.0979300609339933
 10
1615.232293910262
 20
992.2007471129367
 42
0.0431092933566928
 10
1614.198584663087
 20
992.0431186603861
 42
0.061535161826379
 10
1613.268422713547
 20
991.6995750005382
 42
0.0814281966395747
 10
1612.489645606048
 20
991.113767609074
 42
0.0714196948001634
 10
1611.906151405421
 20
990.2957042611227
 42
0.0680542323464046
 10
1611.5613846703
 20
989.3336711114313
 42
0.0685016973353328
 10
1611.491474405425
 20
988.3177834518718
 42
0.0638237190128434
 10
1611.686772885348
 20
987.3251702545596
 42
0.0649867808655387
 10
1612.119911872519
 20
986.4279333061933
 42
0.0507235805386335
 10
1612.750003802553
 20
985.6711664631912
 42
0.0164882690471095
 10
1613.484708882053
 20
984.9969241296427
 42
0.002982461489956
 10
1612.900029843999
 20
984.3055300873871
 42
0.0108865266402276
 10
1612.274232563692
 20
983.5230331945551
 42
0.0190929446695653
 10
1611.702710694999
 20
982.7135597973226
 42
0.0276023583503753
 10
1611.214060332613
 20
981.8628967805572
 42
0.0327537299832608
 10
1610.834268720827
 20
980.9581166247159
 42
0.0149664409310569
 10
1610.540534995552
 20
980.0103337319846
 42
-0.0037418685307629
 10
1610.266790703312
 20
979.051984011639
 42
-0.0226614759300939
 10
1609.945467637319
 20
978.1162424249666
 42
-0.0366689765460034
 10
1609.513906940997
 20
977.2338851369484
 42
-0.0223923903516317
 10
1608.976306550592
 20
976.4030208874272
 42
-0.0073300459324941
 10
1608.385150564632
 20
975.5981649334627
 10
1604.543198476581
 20
974.1533837155239
 10
1603.229196062022
 20
974.7654149084423
 42
0.0179779643537284
 10
1604.142943069266
 20
975.280781933351
 42
0.0637732675164254
 10
1604.972716546633
 20
975.9429128916057
 42
0.1069637992558036
 10
1605.52821903115
 20
976.8518836094754
 42
0.1567470209147834
 10
1605.595094430093
 20
977.9223674054364
 42
0.2246041923123263
 10
1604.875923478737
 20
978.5914611208639
 42
0.0738357554399757
 10
1603.732350418343
 20
978.8334271865796
 42
0.0437099179929397
 10
1602.635799291956
 20
978.825539132417
 42
0.026278874605064
 10
1601.613586137297
 20
978.6704922451914
 42
0.0036586107795097
 10
1600.602864947387
 20
978.454860605526
 42
0.0024569539088405
 10
1599.572167500011
 20
978.2265000419119
 42
0.0056889653626912
 10
1598.534212711738
 20
977.9787421776154
 42
0.0090771936407895
 10
1597.505044313371
 20
977.7008160200447
 42
0.0128340207303617
 10
1596.500706035737
 20
977.381950576613
 42
0.0170531287383967
 10
1595.536859541356
 20
977.0113360109483
 42
0.0187672137935277
 10
1594.61228739105
 20
976.5764464370043
 42
0.0182752421744589
 10
1593.702595605508
 20
976.0623996766312
 42
0.0162092418339356
 10
1592.781708824005
 20
975.4541426104731
 42
0.0338606090922531
 10
1591.865940282588
 20
974.7344339353798
 42
0.1186741472347818
 10
1591.249481732967
 20
973.8716877057973
 42
0.1939300084227022
 10
1591.3102907261
 20
972.8545305313003
 42
0.162998256910026
 10
1591.979550815024
 20
972.0724103001407
 42
0.1202487943478253
 10
1592.964062936188
 20
971.8115357958113
 42
0.0512473532712479
 10
1594.111446897448
 20
971.8940842548173
 42
0.0107367860727419
 10
1595.829368593415
 20
972.2315262252596
 42
-0.0009460895968455
 10
1596.876571610194
 20
972.4415277674276
 42
-0.0006547883408322
 10
1598.364954773633
 20
972.7348500149703
 10
1602.258954944012
 20
966.2716890315923
 10
1601.626006063958
 20
965.8693489860755
 10
1601.453384946686
 20
964.7772838222763
 10
1603.582394033223
 20
964.6623300290819
 10
1611.612203421924
 20
952.6240191848646
 10
1613.236270053629
 20
953.0220856929259
 10
1613.382119485636
 20
951.3466561263788
 10
1611.745519411655
 20
950.3170131547284
 10
1611.340930596077
 20
946.4488118210573
 10
1607.006055759228
 20
938.4814741725916
 10
1608.91340057264
 20
937.4999901816867
 10
1612.092308594993
 20
944.312642308515
 10
1614.866627801769
 20
944.312642308515
 10
1615.733602195131
 20
943.5620956578492
 10
1615.733602195131
 20
937.9041302322155
 10
1617.525350614097
 20
938.0195994921136
 10
1617.640947008543
 20
943.100220977371
 10
1621.975821845392
 20
940.3289728945036
 10
1608.797804178194
 20
926.0108577996875
 10
1600.185854136737
 20
932.9389780068563
 10
1612.323501383886
 20
932.3616340664802
 10
1612.554694172778
 20
934.2668674183412
 10
1599.399814726699
 20
936.0953445931896
 10
1599.371170961049
 20
936.1231503099842
 42
0.0055149631686725
 10
1598.664314420023
 20
936.7989194633617
 42
0.0127369705819694
 10
1597.938948698812
 20
937.4396580332064
 42
0.0106188045610702
 10
1597.190081615992
 20
938.0410113630777
 42
0.0081156120699861
 10
1596.419318581016
 20
938.6137383661512
 42
0.0054878272098831
 10
1595.628320734527
 20
939.1687256230298
 42
0.0028422479062453
 10
1594.818749217145
 20
939.7168597143313
 42
-0.000843958102811
 10
1593.573200053401
 20
940.5500255608293
 42
-0.0023112562628435
 10
1592.724386277376
 20
941.1274360690255
 42
0.0086145656231325
 10
1591.86063896546
 20
941.7010181488526
 42
0.0219200836687464
 10
1590.979326274198
 20
942.2123849456507
 42
0.0378301981768301
 10
1590.077706319519
 20
942.6013739419166
 42
0.0561624171622785
 10
1589.153037217343
 20
942.8078226201531
 42
0.0683850656566252
 10
1588.203172670955
 20
942.7745159995307
 42
0.0367351053579118
 10
1587.243319474811
 20
942.5308900706699
 42
-0.0324141958853235
 10
1586.291548543043
 20
942.2657707957355
 42
-0.1175406111794377
 10
1585.334508857629
 20
942.299579728813
 42
-0.1194464425305499
 10
1584.462329827582
 20
942.7935088387773
 42
0.0860484885764941
 10
1583.706252550164
 20
943.3813606559283
 42
0.1578460819414924
 10
1582.822156748496
 20
943.3320999294394
 42
-0.0369159862766878
 10
1581.784495089862
 20
943.062988271191
 42
-0.1475838801794247
 10
1580.742836075654
 20
943.1981617620104
 42
-0.3134656030832314
 10
1580.374865255045
 20
943.9414256587332
 42
0.0114575216103891
 10
1580.433567019057
 20
945.0142563025082
 42
0.1122797091964261
 10
1580.168068145291
 20
945.9999780228434
 42
0.1008935729298325
 10
1579.538416201573
 20
946.762918655162
 42
0.0891844138610343
 10
1578.665794210456
 20
947.2383870996337
 42
0.0768783754917636
 10
1577.675180253685
 20
947.4092094411998
 42
0.0775512995940429
 10
1576.69227175117
 20
947.2767843194953
 42
0.0606755753663164
 10
1575.79529510306
 20
946.8787120659893
 42
0.0372031539115394
 10
1574.986329877633
 20
946.3106016607428
 42
0.0242959338373628
 10
1574.256975867057
 20
945.6571432636694
 42
0.0169154562062188
 10
1573.586584246743
 20
944.9484116499968
 42
0.0092341040569582
 10
1572.95191863016
 20
944.2029439092053
 42
0.0034424339218209
 10
1572.331347602301
 20
943.4383292237994
 42
0.0069639569560092
 10
1571.725001258701
 20
942.6593042819076
 42
0.0110098165736688
 10
1571.148679125709
 20
941.8613513005086
 42
0.0152586017022688
 10
1570.618525936206
 20
941.039748615284
 42
0.0197073060847675
 10
1570.150686423073
 20
940.1897745619148
 42
0.0227920162751808
 10
1569.759954063436
 20
939.307067917406
 42
0.0176180506899037
 10
1569.441217715332
 20
938.3925769253783
 42
0.0118657958826834
 10
1569.174202730615
 20
937.4512946257487
 42
0.0062280592949225
 10
1568.938253483657
 20
936.4883156824488
 42
-0.0063116070777154
 10
1568.705910087703
 20
935.5138572692942
 42
-0.0390230083670108
 10
1568.393364513922
 20
934.5805576120081
 42
-0.0750596182457866
 10
1567.889438851187
 20
933.761889706446
 42
-0.067310125860351
 10
1567.151441270156
 20
933.1134279896511
 42
-0.0527045744994581
 10
1566.27628907261
 20
932.6529656146831
 42
-0.0328311432576416
 10
1565.343793163447
 20
932.3538250770123
 42
-0.0096739961616707
 10
1564.386543268129
 20
932.1342353177952
 42
0.0133224871017008
 10
1563.433683562201
 20
931.9084053110158
 42
0.0368139834696522
 10
1562.514358221213
 20
931.5905440306584
 42
0.0497296942292177
 10
1561.659083875061
 20
931.1076186313432
 42
0.049558344026184
 10
1560.906100537385
 20
930.4583919708852
 42
0.0523695309084598
 10
1560.296347669988
 20
929.666720672372
 42
0.0559729796216502
 10
1559.869693546153
 20
928.7575656700886
 42
0.0527011090620355
 10
1559.647567371398
 20
927.7743946996404
 42
0.0533394656886812
 10
1559.635885772766
 20
926.7762450585845
 42
0.0587478654400089
 10
1559.840055245077
 20
925.8225976634875
 42
0.0546263370717653
 10
1560.253230406231
 20
924.9540746473387
 42
0.0408981757213258
 10
1560.836967242642
 20
924.1626597380493
 42
0.0276763975447178
 10
1561.547796429086
 20
923.4326014189507
 42
0.0378086918572909
 10
1562.344970017618
 20
922.7822254899667
 42
0.090035885776857
 10
1563.199788166971
 20
922.3807251626475
 42
-0.0528183976093271
 10
1564.133169310426
 20
922.1767884753967
 42
-0.011644018834951
 10
1565.171872640453
 20
921.5239667138767
 10
1565.43569908999
 20
921.6184133297856
 10
1565.528457803635
 20
922.1049492793053
 42
-0.228298367162752
 10
1566.519317810407
 20
922.0203773544232
 42
0.1495652973299623
 10
1567.549199512453
 20
922.0757390305166
 42
0.0819234429251115
 10
1568.377248057057
 20
922.5775213389622
 42
0.0594624038397509
 10
1569.073567701929
 20
923.2935000036071
 42
0.0768757683069084
 10
1569.546066282834
 20
924.1516810685787
 42
0.0692221520543465
 10
1569.725253552576
 20
925.1010169638684
 42
0.0217860726491645
 10
1569.731434838754
 20
926.095263408221
 10
1572.588959226435
 20
926.095263408221
 10
1572.822227050538
 20
923.1243964209371
 42
0.0152252941991299
 10
1572.07462620716
 20
922.836517795416
 42
0.0918227942739673
 10
1571.230576475
 20
922.3005996546296
 42
0.1042289629942369
 10
1570.725637068649
 20
921.4583959957213
 42
-0.013170265538083
 10
1570.34262764376
 20
920.4714371173027
 42
-0.0539445902603355
 10
1569.817653505325
 20
919.5691042209109
 42
-0.074364656965825
 10
1569.113576391502
 20
918.8590971886114
 42
-0.053441089783333
 10
1568.238492405526
 20
918.3701762124492
 42
0.004970024487098
 10
1567.256323095075
 20
917.9477871374544
 42
0.306275561857491
 10
1566.723402970657
 20
917.1838768969791
 42
0.1328779635271123
 10
1566.999648108149
 20
916.1173422370861
 42
0.0673497404896446
 10
1567.632027291862
 20
915.318590939127
 42
0.0152647574191676
 10
1566.707988374202
 20
914.9665190231884
 42
0.0520145883241348
 10
1565.829248031152
 20
914.4905531262104
 42
0.062827100369742
 10
1565.102890976195
 20
913.8162493019079
 42
0.0350874622078158
 10
1564.503064847911
 20
912.9896174470973
 42
0.0113245412385827
 10
1563.974024672476
 20
912.0991398157276
 42
0.0016103112561753
 10
1563.470180280761
 20
911.2132131393618
 42
0.0010366966488811
 10
1562.733411595807
 20
909.901129066475
 10
1565.824206677627
 20
907.5710379130857
 42
0.0034094693667505
 10
1566.491286801609
 20
908.2004200178307
 42
0.0130116920109551
 10
1567.216730795406
 20
908.9305074494031
 42
0.0234362394573235
 10
1567.872890178667
 20
909.6943830414319
 42
0.0348702860586668
 10
1568.422927636536
 20
910.5100113187328
 42
0.0460513806501463
 10
1568.830005854154
 20
911.3953568061203
 42
0.0429940977379265
 10
1569.068995735638
 20
912.3579959901816
 42
0.0223266967489956
 10
1569.179088171244
 20
913.3521140162159
 42
-0.091009682437048
 10
1569.406521561894
 20
914.3245600891161
 42
-0.1333365414637508
 10
1570.092550280218
 20
915.1279611691816
 42
-0.232966738537749
 10
1571.024904316731
 20
915.275623596824
 42
0.0089028194804639
 10
1572.010073745852
 20
914.9612770450177
 42
0.0453122303425073
 10
1573.01526827967
 20
914.7924570312394
 42
0.0478718199769596
 10
1574.0113441243
 20
914.8119927994317
 42
0.0502395055616902
 10
1574.969422525101
 20
915.0229380558956
 42
0.0342725445422462
 10
1575.882344232096
 20
915.3972033428281
 42
0.0155364148135079
 10
1576.769607965984
 20
915.8684748704919
 42
-0.0019652031044638
 10
1577.652321434315
 20
916.3681417605632
 42
0.0076895481085576
 10
1578.532006166981
 20
916.8637587240308
 42
0.0348455133793998
 10
1579.35529343431
 20
917.4242345298484
 42
0.0609507395999454
 10
1580.059271332843
 20
918.1360992772175
 42
-0.0194010729581598
 10
1580.652767365479
 20
918.9827560772508
 42
-0.2964950296760458
 10
1581.559037167753
 20
919.246450817948
 42
-0.2997177018891773
 10
1582.142457042481
 20
918.4703908509536
 42
-0.2371197257688551
 10
1581.805563127813
 20
917.5643602311133
 42
-0.0836778064346342
 10
1580.916608959935
 20
917.1035007701387
 42
0.1021001959006488
 10
1580.033184712293
 20
916.5733208615357
 42
0.0974161963948662
 10
1579.447644339428
 20
915.7417304893911
 42
0.0842948708053865
 10
1579.189061056094
 20
914.751726737944
 42
0.0779197829816657
 10
1579.257839786401
 20
913.7404203238224
 42
0.0780572228175325
 10
1579.625372079648
 20
912.8122565035212
 42
0.0332879160917047
 10
1580.204461861489
 20
912.0009552275
 10
1592.50876629345
 20
901.0905103020686
 10
1592.311371035183
 20
896.2925438633005
 10
1593.834380869092
 20
895.5336070188939
 42
0.0003641786037534
 10
1593.635005248732
 20
894.8702917106883
 42
0.0021342916759855
 10
1593.351448656298
 20
893.9101774529929
 42
0.0039351982309086
 10
1593.079896667583
 20
892.9478736420469
 42
0.0057497965026537
 10
1592.827446309596
 20
891.9820858312403
 42
0.0075763981243205
 10
1592.601194609349
 20
891.0115195739596
 42
0.0094041537619621
 10
1592.408238593854
 20
890.0348804235985
 42
0.0100530390862557
 10
1592.254462378294
 20
889.0510951599283
 42
0.0072017054941274
 10
1592.134601147827
 20
888.0611240472555
 42
0.0043068186719972
 10
1592.037388535766
 20
887.0670219897084
 42
0.0014326804266798
 10
1591.951500232908
 20
886.0708544597354
 42
-0.0833943536424634
 10
1591.35055357556
 20
886.023300337885
 42
-0.1113449390066738
 10
1590.488641002373
 20
886.4120294160363
 42
0.0223047524671032
 10
1589.271584895348
 20
887.2737468099076
 42
-0.0047953035909823
 10
1588.483287669608
 20
887.7779388111765
 42
-0.0346504444919937
 10
1587.722605759426
 20
888.3563250319637
 42
0.0806311674450229
 10
1586.948529895417
 20
888.9500386019451
 42
0.1357876687360587
 10
1585.977829921745
 20
888.9278329086531
 42
-0.3001797266512606
 10
1585.167582871046
 20
889.3087167035107
 42
0.125619659119552
 10
1584.542998060928
 20
888.4322818101718
 42
-0.0296729947927917
 10
1583.930867377273
 20
887.5424477882706
 42
-0.0186181789317993
 10
1583.337814288868
 20
886.8427602565978
 42
0.0032409367186764
 10
1582.77204849315
 20
886.2187016673814
 42
0.0265379338604929
 10
1582.241736350966
 20
885.5560696296063
 42
0.0219789530910295
 10
1581.748644887488
 20
884.787199688561
 42
0.0117459558549724
 10
1581.28143682265
 20
883.9397259253557
 42
0.0036931415810446
 10
1580.827170457128
 20
883.0529502510621
 10
1580.825366867242
 20
883.0566180103579
 42
0.0224009787465859
 10
1580.350611243677
 20
883.9513451675747
 42
0.0541509973809289
 10
1579.746440836921
 20
884.7616180716062
 42
0.0688442929745737
 10
1578.954749513607
 20
885.3878237228094
 42
0.0566023386023597
 10
1578.016449639727
 20
885.8065101633473
 42
0.0497280266815681
 10
1577.005900254797
 20
886.0209320333554
 42
0.0467481071650495
 10
1575.98360811242
 20
886.0375988162356
 42
0.0437785828826524
 10
1574.977912268635
 20
885.8705022241492
 42
0.0414419282983676
 10
1574.012608612587
 20
885.5346907130291
 42
0.0456569496472377
 10
1573.117978737476
 20
885.0406680097865
 42
0.0588753169316845
 10
1572.352475678615
 20
884.3791972596713
 42
0.0628707930837753
 10
1571.774103747792
 20
883.5443829027145
 42
0.0498291042101901
 10
1571.389201862187
 20
882.5858496511095
 42
0.0417689801617769
 10
1571.183801988187
 20
881.5750442961229
 42
0.032318921262707
 10
1571.136957640712
 20
880.5788979519396
 42
-0.0329836329370738
 10
1571.092379459521
 20
879.5751350103778
 10
1570.978454085202
 20
879.0490301766041
 10
1570.599873325887
 20
878.8176155859046
 42
-0.0470479473191393
 10
1569.500386433324
 20
879.0241208020384
 42
-0.0198628700773854
 10
1568.521336001514
 20
879.3412206947698
 42
0.005578562007937
 10
1567.606865585082
 20
879.6683269461926
 42
0.0335676170423775
 10
1566.690378199177
 20
879.91704231649
 42
0.0353865095726638
 10
1565.723898404709
 20
880.0276598361723
 42
0.0221440767201543
 10
1564.715781016918
 20
880.0272607243911
 42
0.0108677938092107
 10
1563.684991138049
 20
879.9592735007379
 42
0.0007096336319553
 10
1562.650493870436
 20
879.8671266848115
 42
-0.0060295980295567
 10
1561.629292580503
 20
879.7901826270477
 42
-0.0037958257761423
 10
1560.622256753542
 20
879.7343623291222
 42
-0.0012846418057948
 10
1559.622331107517
 20
879.6891608067376
 42
0.0025032135980232
 10
1559.403565964809
 20
880.3277756803465
 42
0.0138011634875312
 10
1559.071291619338
 20
881.2065613400847
 42
0.0253982263118481
 10
1558.673290755332
 20
882.0522602756849
 42
0.0294914292677241
 10
1558.181447660498
 20
882.8485080000145
 42
0.0290757757492619
 10
1557.595805860326
 20
883.5870061913768
 42
0.0291946807220931
 10
1556.921194424367
 20
884.2601813382408
 42
0.0406949742146585
 10
1556.160894479857
 20
884.8350124295912
 42
0.0572722138860099
 10
1555.316180223877
 20
885.2454853943216
 42
0.0680526611996825
 10
1554.394743111611
 20
885.4281573832125
 42
0.0664258652519704
 10
1553.459182347091
 20
885.3612666918074
 42
0.047698596826844
 10
1552.56211117384
 20
885.0800601712169
 42
0.0261713705601596
 10
1551.707231742236
 20
884.6665336250563
 42
0.0181437479728241
 10
1550.894016319441
 20
884.1859088959141
 42
0.0163074182991431
 10
1550.119356574471
 20
883.6528110829974
 42
0.014361611442837
 10
1549.37973852015
 20
883.0739117490722
 42
0.0123803077193411
 10
1548.671648169318
 20
882.4558824569145
 42
0.0104489421062715
 10
1547.991597717944
 20
881.805371814279
 42
0.0111281916953786
 10
1547.339250989654
 20
881.1262653656662
 42
0.0127815559130122
 10
1546.720383866199
 20
880.4170901535851
 42
0.0144797824254123
 10
1546.141473229222
 20
879.6757586469713
 42
0.0161895174193885
 10
1545.608995960364
 20
878.9001833147597
 42
0.0178535758501282
 10
1545.129426382567
 20
878.0882782868387
 42
0.0074129873145541
 10
1544.695591307391
 20
877.2468167968478
 42
-0.0123810340940143
 10
1544.25478340238
 20
876.4121299732661
 42
-0.0326992917620734
 10
1543.744810422299
 20
875.6267059518272
 42
-0.0527887839505161
 10
1543.103332085197
 20
874.9341090928512
 42
-0.1907577878893673
 10
1542.24676164771
 20
874.5996319059944
 42
-0.1761558474993675
 10
1541.361878310937
 20
874.8117843870835
 42
-0.0283723977684799
 10
1540.628702809973
 20
875.4267673802125
 42
0.1087343992371954
 10
1539.800842004877
 20
875.8753273409716
 42
0.0765271231073566
 10
1538.851490980922
 20
875.9917014696325
 42
0.0574748823782753
 10
1537.895967811265
 20
875.8624966678375
 42
0.0790856278674198
 10
1537.040222253625
 20
875.4975719484448
 42
0.0772628631400044
 10
1536.357396014624
 20
874.8799568736178
 42
0.0483081766575556
 10
1535.828081567587
 20
874.0822743626294
 42
0.0259562036307611
 10
1535.412006299802
 20
873.1975679244305
 42
0.0226623869105698
 10
1535.082339529764
 20
872.2977123660404
 42
0.0307138118754081
 10
1534.855249444575
 20
871.3868667609137
 42
0.0377916113740145
 10
1534.755484051555
 20
870.4556784590787
 42
0.0435958701474868
 10
1534.808997209887
 20
869.496594369988
 42
0.1134774152047372
 10
1535.120804223214
 20
868.6200502270724
 42
0.0634336368240388
 10
1535.789213001541
 20
867.9785747309649
 42
-0.1126693393838627
 10
1536.405570624475
 20
867.2438633490036
 42
-0.1045929879685627
 10
1536.436553354161
 20
866.29430650457
 10
1536.667789058934
 20
866.1456322591762
 10
1537.083130125392
 20
866.5590225042066
 42
-0.1513152930733351
 10
1537.697218629963
 20
867.1447296108825
 42
-0.1061121168334751
 10
1538.654484277279
 20
867.2101488441468
 42
0.0149482027576305
 10
1539.665896893883
 20
867.1015332896747
 42
0.204812896237495
 10
1540.501233679113
 20
867.3803590002675
 42
-0.1151871185678307
 10
1541.262286565055
 20
867.904997537593
 42
-0.1024465664796709
 10
1542.203386234008
 20
867.9122034229617
 42
0.0357440720692186
 10
1543.184826595286
 20
867.8012650232538
 42
0.167328958028764
 10
1544.032635091493
 20
868.0750593801873
 42
0.0505191570740312
 10
1544.743017040318
 20
868.745098487574
 42
-0.0791900624917593
 10
1545.18211848745
 20
869.1939986904182
 42
-0.2011425608280481
 10
1546.175994014473
 20
869.1604858423531
 42
-0.1093881368359406
 10
1547.018403438322
 20
868.6547219550233
 42
-0.0472007601956796
 10
1547.654492202947
 20
867.8918792051787
 42
0.027516926007616
 10
1548.2771509978
 20
867.0863127630095
 42
0.0794691551696887
 10
1549.068907785254
 20
866.4513649078081
 42
-0.0232322932014884
 10
1549.925600852681
 20
865.9202958796999
 42
-0.1363959399417554
 10
1550.525867836825
 20
865.1807173436914
 10
1550.703858007962
 20
864.6311859170648
 10
1550.553833720654
 20
864.2556964954874
 42
0.0113581158566388
 10
1549.457542519465
 20
864.1799657806977
 42
0.0574409264491084
 10
1548.4930350971
 20
863.9345710740654
 42
0.0465041430321896
 10
1547.632617263726
 20
863.5057506013916
 42
0.0370239347306806
 10
1546.824182088365
 20
862.9237509236011
 42
0.0372827593262516
 10
1546.094361605387
 20
862.214114386573
 42
0.0409960331960988
 10
1545.48429408769
 20
861.401516669151
 42
0.0385119633098534
 10
1545.024233057906
 20
860.5119286091207
 42
0.0129638177487077
 10
1544.659237852437
 20
859.5814581635904
 10
1544.477539791182
 20
859.5829698403999
 42
0.0153401969918312
 10
1543.454174669184
 20
859.5670454620673
 42
0.0401138676010498
 10
1542.465485679021
 20
859.4424104474907
 42
0.0566449908996185
 10
1541.537986654813
 20
859.1260731789244
 42
0.0378480214901763
 10
1540.668416933997
 20
858.629690128332
 42
0.0195837439389156
 10
1539.836334826605
 20
858.0195333482762
 42
0.0203787783861369
 10
1539.036332336291
 20
857.3511713525396
 42
0.088824497067951
 10
1538.4205650964
 20
856.5626974410136
 42
0.1343353578424208
 10
1538.226778078928
 20
855.5722884807073
 42
0.1645792446814302
 10
1538.613250404196
 20
854.6650801451542
 42
0.0960783463531776
 10
1539.446416484164
 20
854.0336049819089
 42
0.0771742099338976
 10
1540.430118478887
 20
853.6969368752886
 42
0.1271976067669527
 10
1541.413519377352
 20
853.7822080558797
 42
0.068279930013327
 10
1542.312987926169
 20
854.2501170020679
 42
0.0489288274791111
 10
1543.07789476055
 20
854.9069084428928
 42
0.0336940306969745
 10
1543.730685910894
 20
855.6877367323389
 42
0.0199994087139546
 10
1544.298101629346
 20
856.5360256656887
 42
0.0108799241545098
 10
1544.807434215949
 20
857.4061515838431
 42
0.0036802566917765
 10
1545.28758032653
 20
858.2843210002442
 42
0.0050038249492211
 10
1546.144317319788
 20
858.1938374582337
 42
0.0192174986698846
 10
1547.123285967586
 20
858.1374459670014
 42
0.0336564949621698
 10
1548.096320250258
 20
858.1844000279096
 42
0.0489663243489696
 10
1549.053380336941
 20
858.3906941040471
 42
0.0682305445790061
 10
1549.943985472074
 20
858.8170888302014
 42
0.0848024153632597
 10
1550.680970131567
 20
859.5058664365916
 42
0.1280446799428234
 10
1551.061868147191
 20
860.3922888887906
 42
0.0583612370601388
 10
1551.042281503648
 20
861.3769018257571
 10
1551.044269709268
 20
861.3817746915726
 10
1551.246141095139
 20
861.8342081158585
 42
-0.123422078520377
 10
1551.853896375759
 20
862.5128203985521
 42
-0.0640945272522104
 10
1552.722906119962
 20
862.9405085134546
 42
-0.0108750633241282
 10
1553.759058057044
 20
863.2772733483012
 42
-0.0218920682284179
 10
1554.847600420731
 20
863.6089131301071
 42
-0.2585842389132698
 10
1555.718124799259
 20
863.4543505744963
 42
-0.0439355086228171
 10
1556.257350026181
 20
862.5990987137425
 42
0.0556295024506453
 10
1556.835650090232
 20
861.8040772998359
 42
0.1003707329057363
 10
1557.636578096425
 20
861.2364228389111
 42
0.1016063708901462
 10
1558.621601489509
 20
861.0126916920053
 42
0.1209570875836136
 10
1559.566757402919
 20
861.2366902112448
 42
0.0368939998169525
 10
1560.418371140583
 20
861.7600676401956
 42
0.0166141421147655
 10
1561.223974199584
 20
862.3343156259977
 42
0.0518285346716089
 10
1561.936081187554
 20
863.0070453408228
 42
0.0476545987643302
 10
1562.502647521221
 20
863.8692870212716
 42
-0.1630222017995784
 10
1563.177507042632
 20
864.5590473742368
 10
1563.654382944444
 20
864.5934785703362
 10
1564.049902906865
 20
864.3141791262991
 42
-0.0095279473462577
 10
1564.708740217241
 20
863.4795019507986
 42
-0.0069018750423382
 10
1565.311168102495
 20
862.686244682877
 42
-0.019226694183652
 10
1565.847241769499
 20
861.8981317832124
 42
-0.0292192850004063
 10
1566.302363733287
 20
861.0621455138447
 42
-0.0187607165868999
 10
1566.682907912005
 20
860.1600556640518
 42
-0.0060240923394209
 10
1567.0250292671
 20
859.2230330503056
 10
1566.761895860144
 20
858.2242319731767
 10
1567.2652023951
 20
857.5553272274119
 10
1567.2652023951
 20
845.3036733252325
 10
1569.184977329532
 20
845.3036733252325
 10
1569.398286931152
 20
843.3860227697293
 42
0.0029708813448023
 10
1568.575729496526
 20
843.2287847464372
 42
0.0116267502363617
 10
1567.627857906976
 20
843.0191825357407
 42
0.0203355889443714
 10
1566.698973783889
 20
842.7505413196152
 42
0.031813226800486
 10
1565.801392739396
 20
842.3888958178032
 42
0.0719470741329072
 10
1564.994136475231
 20
841.8509945464299
 42
0.1190287842483999
 10
1564.414611085878
 20
841.0248616810205
 10
1564.443778251058
 20
840.5843705933421
 10
1564.782359614738
 20
840.2258210798802
 42
0.1268446698651182
 10
1565.762653903332
 20
839.8804881088651
 42
0.0538455337857087
 10
1566.717458762581
 20
839.9297334370833
 42
-0.0323417738080986
 10
1567.723355805344
 20
840.0002767243925
 42
0.0316620425921268
 10
1568.74070190257
 20
840.0603892137457
 42
0.130431981202485
 10
1569.597151275081
 20
840.3914805469897
 42
0.0820244883655743
 10
1570.19819434968
 20
841.1487639849022
 10
1575.157614604484
 20
840.9356910456475
 10
1575.039217056005
 20
843.4956013186001
 10
1574.330143371067
 20
843.4956013186001
 10
1573.913041203457
 20
845.682963634227
 10
1574.334072448804
 20
845.9924748498551
 10
1574.28340787759
 20
846.2253550586401
 10
1574.071330768435
 20
847.2033299266367
 42
-0.0009578387205949
 10
1573.861946783553
 20
848.1817699618661
 42
-0.0015094617745239
 10
1573.657431037547
 20
849.1610508588834
 42
-0.0020616530183911
 10
1573.45995864503
 20
850.141548312189
 42
-0.0026142955490363
 10
1573.271704720611
 20
851.1236380163092
 42
-0.0031666870410428
 10
1573.094844100307
 20
852.1076956144531
 42
-0.0032227555485067
 10
1572.93084683923
 20
853.0939668416769
 42
-0.0029173612308753
 10
1572.778956567452
 20
854.082287049246
 42
-0.0026118390838448
 10
1572.637978341204
 20
855.0724107487031
 42
-0.0023065138607392
 10
1572.506717216716
 20
856.0640924516048
 42
-0.0020015931874938
 10
1572.383978250223
 20
857.0570866694803
 42
-0.001697181526191
 10
1572.268566497954
 20
858.0511479138911
 42
-0.0013932942770126
 10
1572.159287016146
 20
859.0460306963477
 42
-0.0010898717748877
 10
1572.054944861025
 20
860.04148952843
 42
-0.0007867930581964
 10
1571.954345088827
 20
861.0372789216492
 42
-0.0007371240573143
 10
1571.808018822626
 20
862.5310936423996
 42
-0.0006855408559929
 10
1571.618657407407
 20
864.5227778308287
 42
-0.000533459234137
 10
1571.296126189072
 20
868.0081108524166
 10
1571.338332762044
 20
868.009438087266
 42
-0.0066532926743484
 10
1572.33287962519
 20
868.0315336726181
 42
-0.0194169151254296
 10
1573.31446482577
 20
868.0024465232403
 42
-0.033151551254524
 10
1574.270653184816
 20
867.8730728716029
 42
-0.0439473640288585
 10
1575.189681083443
 20
867.5968655040252
 42
-0.0182704272405704
 10
1576.07870326058
 20
867.1992972735768
 42
0.0104902711985678
 10
1576.965950259352
 20
866.7860742564784
 42
0.0354070326109242
 10
1577.879431304294
 20
866.4628579841304
 42
0.0374481453581443
 10
1578.829045893604
 20
866.2772672143868
 42
0.0373153491013415
 10
1579.811587782539
 20
866.2349160024362
 42
0.0361955541874842
 10
1580.823300399981
 20
866.3406293014018
 42
0.0679612704480604
 10
1581.795974152116
 20
866.636062273019
 42
0.1414588778039744
 10
1582.513183583898
 20
867.2472798172371
 42
0.0545445009273309
 10
1582.907883792593
 20
868.1447149880979
 42
-0.023241032492607
 10
1583.263879851654
 20
869.0177321949752
 42
-0.0402277490054843
 10
1583.765534683422
 20
869.8912194440183
 10
1584.119337998396
 20
870.1624565744603
 10
1584.539942832075
 20
869.8427959091358
 42
0.0167140226046255
 10
1585.367232041092
 20
869.0705698094763
 42
0.0249672600961191
 10
1586.16263275407
 20
868.44306522957
 42
0.0329342542175302
 10
1586.958175101414
 20
867.9534797863462
 42
0.0377901505791187
 10
1587.785889213527
 20
867.5950110967333
 42
0.0365467240469763
 10
1588.677051962483
 20
867.360368488536
 42
0.0210546543685088
 10
1589.634987768785
 20
867.2241415057738
 42
0.006619814426106
 10
1590.627461306411
 20
867.1378685866667
 10
1591.699821135117
 20
855.2019468872922
 10
1589.55001290588
 20
855.0322840295841
 10
1589.942647771743
 20
854.7894048756406
 42
-0.0205929160059072
 10
1590.752008280614
 20
854.2430596878185
 42
-0.0443191783193433
 10
1591.464065340058
 20
853.6151770715346
 42
-0.0475371460285333
 10
1592.031066134671
 20
852.8631124142229
 42
-0.0121952145730162
 10
1592.519548002083
 20
852.0238155052531
 42
0.0049319823508591
 10
1593.023838612639
 20
851.1601741210169
 42
-0.0612349961244801
 10
1593.422823017998
 20
850.2757343782347
 42
-0.1292922289601922
 10
1593.448447723334
 20
849.3369560466211
 42
-0.0934950785354667
 10
1593.05500635668
 20
848.4438404700407
 42
-0.0197941925390063
 10
1592.463543065564
 20
847.6667885450794
 42
0.0666309139216847
 10
1591.961581400376
 20
846.867397392473
 42
0.0926674031244779
 10
1591.773313811571
 20
845.9404941569342
 42
0.0672266479956938
 10
1591.888757878721
 20
844.9461783272367
 42
0.0547651376532245
 10
1592.246859509597
 20
843.9805939723516
 42
0.055083832441443
 10
1592.789180503862
 20
843.1360704502218
 42
0.0606414471132161
 10
1593.486383361987
 20
842.4625000576268
 42
0.0635812567045934
 10
1594.327151546871
 20
841.9830291101446
 42
0.016843280200313
 10
1595.260024260324
 20
841.65387802779
 42
-0.0524064079848852
 10
1596.138730823811
 20
841.2752359944779
 42
-0.104474299074129
 10
1596.817720600302
 20
840.6441271562524
 42
-0.0320086133486898
 10
1597.333894746667
 20
839.802329567655
 10
1597.198150707437
 20
838.4735059464915
 10
1587.614590541338
 20
829.8225957525755
 42
-0.7075585241241173
 10
1586.067102180026
 20
831.4226079400715
 10
1590.438076315465
 20
835.083650636669
 10
1589.297822941881
 20
836.1955241125006
 10
1586.311442598656
 20
833.7548281950637
 10
1586.23567211996
 20
833.6813009447109
 10
1585.832842938241
 20
833.3350787829425
 42
-0.3150701862249025
 10
1584.950137236447
 20
833.2618004886208
 42
-0.1545028610151956
 10
1584.219400838692
 20
834.0226783262577
 42
-0.1575918780980392
 10
1584.062645355021
 20
835.0023725986432
 42
-0.096570279514132
 10
1584.465318499049
 20
835.8972163356671
 10
1589.650756869875
 20
839.9921616820432
 10
1588.347611797228
 20
841.5379354485377
 10
1582.184811751881
 20
836.6023063722209
 10
1582.084681975348
 20
835.670505350577
 10
1561.328136332322
 20
820.961409350652
 10
1564.35929208955
 20
816.2190885451908
 42
0.0450198167937918
 10
1563.705457433299
 20
815.6810461949989
 42
0.1610284163736647
 10
1563.283457603987
 20
814.7858403981238
 42
0.1430753350070368
 10
1563.428045308588
 20
813.773362114321
 42
0.1211759615982839
 10
1564.059287171746
 20
813.0058805009404
 42
0.067416496225633
 10
1564.93168690927
 20
812.5338304084831
 42
0.0061647299495508
 10
1565.890653625715
 20
812.1818539109424
 42
-0.0435715090297584
 10
1566.801885653785
 20
811.7592791029192
 42
-0.0365759217935125
 10
1567.620739366304
 20
811.2003760913237
 42
-0.0243626376176498
 10
1568.373767504777
 20
810.5386299286541
 42
-0.0123506489582873
 10
1569.089484547578
 20
809.8102594250411
 42
-0.0030276417306324
 10
1569.794591072005
 20
809.0504271687006
 42
-0.0175457857767333
 10
1570.468251735133
 20
808.2666159135182
 42
-0.0369010058974161
 10
1571.038620265311
 20
807.4366051059156
 42
-0.0584565293907767
 10
1571.431340403421
 20
806.5367126441326
 42
-0.064722645958367
 10
1571.583610148959
 20
805.5539428917906
 42
-0.0531537782988963
 10
1571.502739164446
 20
804.5401460745241
 42
-0.0477630741083718
 10
1571.222712282152
 20
803.5678902470927
 42
-0.0383739306617683
 10
1570.782273256768
 20
802.6639132879349
 42
-0.0284187867624352
 10
1570.223407558216
 20
801.8233949382842
 42
-0.0194584817780347
 10
1569.587859732116
 20
801.0407730139917
 42
-0.013723903871574
 10
1568.90606144258
 20
800.306019154843
 42
-0.0082681690388156
 10
1568.194050918062
 20
799.6034226625139
 42
-0.0027576974697041
 10
1567.466934276048
 20
798.9169048535898
 10
1565.530737002098
 20
798.9441455585362
 10
1565.125037483024
 20
799.4631013940116
 10
1563.964438432249
 20
798.9662528284767
 10
1557.963617414877
 20
799.5041676944586
 10
1556.949731676605
 20
797.9850189037987
 10
1557.760152032861
 20
797.2711435216835
 42
0.0031213735785395
 10
1557.626568714696
 20
796.3489341515602
 42
0.0126172158031364
 10
1557.514094255943
 20
795.3758491553901
 42
0.0299003583488545
 10
1557.48380293118
 20
794.3935486633221
 42
0.0502843079471961
 10
1557.607133971348
 20
793.438608756239
 42
0.0710708833796105
 10
1557.95519789472
 20
792.5479226239299
 42
0.0755933876667736
 10
1558.556758113143
 20
791.7842432413882
 42
0.0875806195410689
 10
1559.360411006513
 20
791.2574142248671
 42
0.0714353195953817
 10
1560.296457426786
 20
791.0127743729812
 42
0.0527780934655045
 10
1561.282717963409
 20
791.0030835949974
 42
0.0418423474028642
 10
1562.241998517595
 20
791.1752098607585
 42
0.0308136243264706
 10
1563.152801957365
 20
791.4805424815392
 42
0.0189440332245027
 10
1564.024506746418
 20
791.8729697186154
 42
0.0008309375435969
 10
1564.875221924787
 20
792.3005939802914
 42
-0.0211035013591368
 10
1565.746833069348
 20
792.6950699129612
 42
-0.0421542777245431
 10
1566.684313334957
 20
792.9834944348336
 42
-0.1938043496126737
 10
1567.591712360525
 20
792.8821387895895
 42
-0.0509161763598039
 10
1568.359081492627
 20
792.2761188403557
 42
0.1053770889535192
 10
1569.192965571103
 20
791.7703975211286
 42
0.0809149075356015
 10
1570.152715019285
 20
791.6247236615698
 42
0.0437200955409293
 10
1571.133740620019
 20
791.7163872451663
 42
0.0334640862967476
 10
1572.070481893866
 20
791.9490367410344
 42
0.0262930748279056
 10
1572.966253878965
 20
792.2895815713243
 42
0.0185454400872186
 10
1573.830080138591
 20
792.7101159813844
 42
0.0060763530926587
 10
1574.674299793252
 20
793.1756975954875
 42
-0.0082660544364099
 10
1575.518309935203
 20
793.6364048746932
 42
-0.0229766672754047
 10
1576.382412156622
 20
794.0403966560433
 42
-0.0294881020773543
 10
1577.283816894913
 20
794.3439733329084
 42
-0.0161021981386986
 10
1578.216073236177
 20
794.5657551232722
 42
-0.0029338508754758
 10
1579.161797330069
 20
794.7531576707722
 42
0.0100768725118238
 10
1580.10354632707
 20
794.9537520124606
 42
0.021486619974142
 10
1581.024512934967
 20
795.2133852065671
 42
0.0186184609054292
 10
1581.919529100542
 20
795.5463323329889
 42
0.0145123912261743
 10
1582.793618304842
 20
795.9392234598777
 42
0.0104072014375881
 10
1583.652148443015
 20
796.3777544160592
 42
0.0063914110118474
 10
1584.500487410215
 20
796.8476210303622
 42
0.0051998294383327
 10
1585.342062457709
 20
797.3372606957312
 42
0.0075473537167024
 10
1586.171007473522
 20
797.848239618309
 42
0.0099979379182155
 10
1586.978677717795
 20
798.3860493954878
 42
0.0125808698738471
 10
1587.756427949431
 20
798.9561823327615
 42
0.015299297029933
 10
1588.495612927329
 20
799.5641307356227
 42
0.0181152327750343
 10
1589.187587410389
 20
800.2153869095632
 42
0.0209265755530983
 10
1589.823709251967
 20
800.915437225818
 42
0.0234005560800001
 10
1590.395503285351
 20
801.6694478369776
 42
0.0254872293181638
 10
1590.894742953778
 20
802.482108134523
 42
0.0270056100911106
 10
1591.313221936051
 20
803.358068704037
 42
0.0277664943090635
 10
1591.642733910972
 20
804.3019801311043
 42
0.0035589711512945
 10
1591.901547798426
 20
805.2942947564426
 42
-0.0597306872724469
 10
1592.240757801504
 20
806.1940632414511
 42
-0.1374215536560483
 10
1592.846959189641
 20
806.8283582216636
 42
-0.0563063724882277
 10
1593.725656178059
 20
807.203797353401
 42
0.0184462152627466
 10
1594.674578440468
 20
807.5329977268143
 42
0.0913261379671818
 10
1595.485198342345
 20
808.0343076461966
 42
0.0622868238199758
 10
1596.093714642851
 20
808.7693619832409
 42
0.0191574806339324
 10
1596.596993203634
 20
809.6258211707349
 10
1597.301120940254
 20
809.6153980016028
 42
0.0012965955701217
 10
1598.272542162935
 20
809.603914134335
 42
0.0023585649953653
 10
1599.243356267387
 20
809.5995335644023
 42
0.0034254218892822
 10
1600.21321123124
 20
809.6063749619547
 42
0.0044977042509813
 10
1601.181755032078
 20
809.6285569971428
 42
0.0055740783899432
 10
1602.148635647483
 20
809.6701983414826
 42
0.0086692375386534
 10
1603.113432354186
 20
809.7380442445476
 42
0.0136734427945663
 10
1604.075456228376
 20
809.8490938286635
 42
0.018475693929131
 10
1605.033952907324
 20
810.0228480836474
 42
0.0221332809580585
 10
1605.986850551236
 20
810.2777442164235
 42
0.023082414922471
 10
1606.913874506068
 20
810.617521764523
 42
0.0259796237392452
 10
1607.781472045468
 20
811.0351990267609
 42
0.0206620588358497
 10
1608.567676375817
 20
811.5193397594138
 42
-0.0350526254194992
 10
1609.408832167316
 20
812.0024292780982
 42
-0.0860671420695868
 10
1610.476077548166
 20
812.3250826616496
 10
1610.927294394338
 20
812.2281744831136
 10
1611.159024570721
 20
811.8289118697957
 42
-0.0878572116895262
 10
1611.210954115628
 20
810.8933139419701
 42
0.0347041857962646
 10
1611.164048350135
 20
809.8764402723986
 10
1611.142054743216
 20
809.3624161334801
 10
1610.834163116015
 20
809.1195178534741
 42
-0.0580840398916586
 10
1609.7544675344
 20
809.2250918615889
 42
0.2855031898773911
 10
1608.907124052904
 20
808.9462024965847
 42
0.25151791335175
 10
1608.725825799959
 20
808.0081587816142
 42
0.1314356160047061
 10
1609.229741499735
 20
807.1817345624186
 42
0.0774053623162362
 10
1610.016085572467
 20
806.5901362613466
 42
0.160195734704482
 10
1610.989744258741
 20
806.4287763338397
 42
0.307675905736253
 10
1611.685654755843
 20
807.0788586336156
 10
1611.976339035589
 20
807.4170908697077
 10
1612.47120244314
 20
807.4077582613291
 42
-0.0469965232972894
 10
1613.403327057561
 20
807.0820092586727
 42
0.0261156011565005
 10
1614.293847894793
 20
806.7444577756996
 42
0.0386693080010901
 10
1615.246261824236
 20
806.5188703899316
 42
0.0535095372058978
 10
1616.232812739807
 20
806.4696965999692
 42
0.1302744110804579
 10
1617.143564098632
 20
806.7461028181527
 42
0.0534982643940741
 10
1617.892275962081
 20
807.3843808539502
 10
1619.545642779771
 20
805.1995416121897
 42
0.0006493705235873
 10
1618.904877315759
 20
804.4292985151797
 42
0.0019392767334855
 10
1618.269662770589
 20
803.6576345208315
 42
0.0032277177607884
 10
1617.642244079549
 20
802.8791824671717
 42
0.004615728036996
 10
1617.026713782258
 20
802.0906100019562
 42
0.0061921175015206
 10
1616.428375790561
 20
801.2889325516718
 42
0.0077839870608145
 10
1615.852988506021
 20
800.4712960244583
 42
0.0093692483694248
 10
1615.306296772496
 20
799.6348551111376
 42
0.0068963642688513
 10
1614.78857169462
 20
798.7800227972822
 42
0.0022963877175337
 10
1614.286384242061
 20
797.9153672026614
 10
1614.470122706133
 20
797.9388758536572
 42
0.0047999231775488
 10
1615.468492265424
 20
798.0742959077672
 42
0.0119622288273503
 10
1616.455923224611
 20
798.2420318098268
 42
0.0193743771431436
 10
1617.423173624429
 20
798.4693870307843
 42
0.0268377792016606
 10
1618.361001505614
 20
798.7836650415887
 42
0.0331635653348976
 10
1619.259238283891
 20
799.2111350155624
 42
0.0370703027746677
 10
1620.094990154417
 20
799.7638622515339
 42
0.0420247023662982
 10
1620.836119494239
 20
800.4435941106935
 42
0.0431461806244626
 10
1621.453431674946
 20
801.2489158922093
 42
-0.0383292828372337
 10
1622.044104523507
 20
802.0609052926287
 42
-0.1399335714276479
 10
1622.861555321279
 20
802.5991200525721
 42
-0.2028826179754818
 10
1623.836755528897
 20
802.4566560141272
 42
-0.1035873776840615
 10
1624.539727315731
 20
801.7561131518945
 10
1624.323486523996
 20
801.605177963618
 42
0.0568833161202604
 10
1623.608203372977
 20
800.932390223676
 42
-0.004449857951467
 10
1622.956861041478
 20
800.1764552394142
 42
-0.0422152986190958
 10
1622.201900592945
 20
799.4807060751936
 42
0.1304547422205803
 10
1621.582099104902
 20
798.7195923396801
 42
0.223589308653586
 10
1621.664430307564
 20
797.7535049425314
 42
0.1123119414969142
 10
1622.352992690506
 20
797.0161329971253
 42
0.2164286881182791
 10
1623.324189463306
 20
796.9777765915346
 42
0.0952706539747342
 10
1624.221050483412
 20
797.4672479101005
 42
0.0869064140803783
 10
1624.871231857903
 20
798.2307708427581
 42
0.0931586828034189
 10
1625.224456474869
 20
799.1701786155699
 42
0.0150611966700956
 10
1625.2585751793
 20
800.1684238838535
 10
1625.539869217875
 20
800.5223409187866
 10
1626.079588083943
 20
800.5533210857208
 42
-0.1014948288360945
 10
1627.011341767827
 20
800.2329810064367
 42
-0.0405653806149056
 10
1627.825954413711
 20
799.6857991822827
 42
-0.016967683435393
 10
1628.590984541389
 20
799.0339195107361
 42
0.0039622359441513
 10
1629.345113947978
 20
798.3580788844472
 42
0.0105142297498338
 10
1630.114471707686
 20
797.711041307418
 42
0.0146103636266152
 10
1630.90857939826
 20
797.1085621081194
 42
0.0187521026048
 10
1631.735817879678
 20
796.5638546031032
 42
0.0220519288357585
 10
1632.604216328378
 20
796.089548425395
 42
0.0141024899936453
 10
1633.509954592371
 20
795.6786070671553
 42
0.0046566161895412
 10
1634.43479819655
 20
795.3000707990902
 10
1634.497715100963
 20
792.1577397695292
 10
1634.257201279224
 20
792.0500923138316
 42
0.0662097640868549
 10
1633.392341728152
 20
791.5454620248429
 42
0.1156607444322897
 10
1632.814283634047
 20
790.7557428053203
 42
0.0563707558030733
 10
1632.514149993038
 20
789.7751104039692
 42
0.0352471529339697
 10
1632.391301684586
 20
788.7778929757321
 42
0.0216587327034811
 10
1632.383184732855
 20
787.7821947464492
 42
0.0086362536005447
 10
1632.434233933878
 20
786.7835779731157
 42
0.0073106009262393
 10
1632.516472922739
 20
785.782475684371
 42
0.0070570238082853
 10
1632.627443026779
 20
784.7838260223697
 42
0.0069018405940822
 10
1632.765645489364
 20
783.7927366011207
 42
0.0068434080349187
 10
1632.929581553859
 20
782.8143150346321
 42
0.007179730424352
 10
1633.11817541209
 20
781.8530515600484
 42
0.0090766156572154
 10
1633.33656959001
 20
780.9043595268657
 42
0.0106533945408766
 10
1633.594637742579
 20
779.9567462667502
 42
0.0116817896625672
 10
1633.902372048392
 20
778.9985461026947
 42
0.0121046216370812
 10
1634.269764686045
 20
778.0180933576867
 42
-0.0030798548458129
 10
1634.681085418087
 20
777.0110591282156
 42
-0.041156012703689
 10
1634.993858993059
 20
776.0092658372593
 42
-0.0964916685989215
 10
1635.026638786522
 20
775.0556516651821
 42
-0.1106662007514781
 10
1634.630696193674
 20
774.1860453231288
 42
-0.0022934922782527
 10
1633.724770085403
 20
772.9524277854808
 42
-0.0631585189741221
 10
1633.048558204597
 20
772.2467490961093
 42
-0.0505857090609905
 10
1632.209336679017
 20
771.7256954946536
 42
-0.0162648962945403
 10
1631.281223714329
 20
771.3070741550374
 42
0.0131800837286973
 10
1630.35380095636
 20
770.8936300175728
 42
0.029569505496731
 10
1629.481222051834
 20
770.4103562168064
 42
0.0437109080632312
 10
1628.686376284288
 20
769.801879387408
 42
-0.0179435583861512
 10
1627.959352350473
 20
769.088611537817
 42
-0.1773790151070933
 10
1626.998675246633
 20
768.962160130277
 42
0.0297236893762082
 10
1625.946337613023
 20
769.0055193788221
 42
-0.0294211026792268
 10
1624.991451593676
 20
769.036590283305
 42
0.0086756780065268
 10
1624.089282043311
 20
769.1729369761352
 42
0.0290336793397382
 10
1622.852349424886
 20
769.1582789399301
 42
-0.2901758949554808
 10
1622.81488918461
 20
769.9253902950322
 42
-0.0081767651319296
 10
1622.124255572254
 20
770.693524078993
 10
1621.78246972232
 20
771.0251565370493
 10
1621.268095424111
 20
770.9340069877372
 10
1620.880115106449
 20
771.085770010796
 10
1620.7621278572
 20
771.6078487178045
 42
-0.1146822111352484
 10
1621.071695783931
 20
772.5456228842976
 42
-0.0237158873399718
 10
1621.583814201984
 20
773.4034218930047
 42
0.0067820160827397
 10
1622.123114930389
 20
774.2412657801227
 42
0.0153945726180945
 10
1622.621348670123
 20
775.1097228856233
 42
0.0170007216270817
 10
1623.063156010617
 20
776.0101582722177
 42
0.0188443916468195
 10
1623.438886974899
 20
776.9386255366249
 42
0.0204094504579293
 10
1623.739380654712
 20
777.8911210585366
 42
0.0131518644153028
 10
1623.973712526312
 20
778.8615077105917
 42
0.0043712276879827
 10
1624.174208284834
 20
779.8409282809532
 10
1625.873639162182
 20
779.8014496651362
 10
1626.229334063721
 20
782.8807227209622
 10
1624.736571527303
 20
783.3743558122757
 10
1624.736571527303
 20
788.2637898713757
 42
-0.0366861301045449
 10
1625.025452363654
 20
789.0664342953323
 42
-0.0348328216609797
 10
1625.541833211556
 20
789.9049537259918
 42
0.0508836313444851
 10
1626.007972589569
 20
790.7430098347673
 42
0.0423650425775565
 10
1626.313607809513
 20
791.6990367241497
 42
0.1074144394735978
 10
1626.396353434958
 20
792.7416982334656
 42
0.3115588237549074
 10
1625.727451389853
 20
793.3320723565497
 42
0.135061631778984
 10
1624.711211148777
 20
793.2896967343005
 42
0.0398817453201024
 10
1623.817610011986
 20
792.8885792982408
 42
-0.0068647861485647
 10
1622.863495218939
 20
792.4590271127174
 42
0.102084155205647
 10
1622.069505525046
 20
791.9227645651454
 42
0.1811848431800099
 10
1621.779386959094
 20
791.0709139479162
 42
0.0740435527340709
 10
1621.971149548677
 20
789.9420732255984
 42
-0.2292255502244188
 10
1621.972526903549
 20
788.9636657505146
 10
1621.55383409871
 20
788.7350155605471
 10
1621.466113768026
 20
788.2697240826712
 42
-0.0172263284917913
 10
1621.556508115566
 20
787.2106797245585
 42
-0.0108915127083766
 10
1621.582394638756
 20
786.2527390012294
 42
0.0038459417089632
 10
1621.591508013146
 20
784.8446541861017
 42
0.0027629150659271
 10
1621.613007331181
 20
783.8658006782917
 42
0.00088694063188
 10
1621.64212576113
 20
782.8685520448741
 42
0.012812808215109
 10
1621.026771124831
 20
782.7877234960636
 42
0.0840196923933116
 10
1620.063942002644
 20
782.4670617540886
 42
0.1510234462647538
 10
1619.353469296895
 20
781.7864462950187
 42
0.1275916111170118
 10
1619.19852607619
 20
780.8110932441997
 42
0.1050822624599826
 10
1619.409940559271
 20
779.7898314797784
 42
0.0110998955397161
 10
1620.149082956734
 20
779.1580461738838
 42
-0.2518556245722014
 10
1620.062156719654
 20
778.1936763033486
 42
-0.0219311117891635
 10
1619.60249007013
 20
777.2807171950073
 42
-0.024588220990988
 10
1619.069048196652
 20
776.4287086735171
 42
-0.0274236708162302
 10
1618.458894744283
 20
775.6479997177789
 42
-0.0301934276735865
 10
1617.769107666717
 20
774.9489149316498
 42
-0.0233488672270445
 10
1617.003939309362
 20
774.3295571968801
 42
-0.0110381996838209
 10
1616.186429485284
 20
773.7560245621872
 42
0.001811143531538
 10
1615.343750025763
 20
773.1887309024823
 42
0.0346923062331654
 10
1614.545963641407
 20
772.5681222910208
 42
0.0756550881286617
 10
1613.919050938086
 20
771.8086124134202
 42
-0.0430082245133593
 10
1613.420262293096
 20
770.9455645772361
 42
-0.2532986288904024
 10
1612.530631395096
 20
770.5444924599077
 42
-0.1146506320771027
 10
1611.674171186974
 20
771.0366110238235
 42
0.0453086311646851
 10
1610.823663430763
 20
771.5548351203732
 42
0.0373293903271054
 10
1609.894186051478
 20
771.9283919127798
 42
0.0308411403040761
 10
1608.918262638847
 20
772.174164179608
 42
0.0379045859392502
 10
1607.923315585208
 20
772.286492197116
 42
0.0487597774464416
 10
1606.929122312442
 20
772.2259325499755
 42
0.0656671988572212
 10
1605.970503118954
 20
771.9452233026772
 42
0.0865835452087949
 10
1605.141229864814
 20
771.3840792995398
 42
0.0753607964887466
 10
1604.525678676636
 20
770.5822699412869
 42
0.0718574635057549
 10
1604.179775081657
 20
769.6597289794623
 42
0.0307726625135347
 10
1604.030887631892
 20
768.6655448815447
 42
0.0576921491037348
 10
1604.004435322353
 20
767.6319656213278
 42
0.1607273110933238
 10
1604.424649657293
 20
766.7550795554663
 42
-0.1571791723747693
 10
1604.630575814947
 20
765.8346044170603
 42
0.025858224279235
 10
1604.626275828449
 20
764.6422313337136
 42
0.3539507277366681
 10
1605.03445768074
 20
763.8988182740945
 42
-0.0507907394161566
 10
1606.043718088853
 20
764.0114457601422
 10
1606.424075403194
 20
763.6787660006582
 10
1606.480075750807
 20
763.1788388696698
 42
-0.0652898060723637
 10
1607.009592233207
 20
762.4814176340862
 42
0.0719623707581038
 10
1607.079116352726
 20
761.475243839428
 10
1607.473799586738
 20
761.1399111016452
 10
1607.946643676963
 20
761.1879057037529
 42
-0.0328691526696645
 10
1608.406492780552
 20
761.8021186051207
 42
-0.078147309622774
 10
1609.179030256657
 20
762.4276876343031
 42
-0.0892654626432108
 10
1610.138913836101
 20
762.7820422416174
 42
-0.2687589620192734
 10
1611.029003422325
 20
762.4560831844395
 42
-0.12114126193135
 10
1611.510453906021
 20
761.5633830989347
 42
-0.0577786397761539
 10
1611.641696748613
 20
760.5729885353412
 42
-0.0181862301241718
 10
1611.642912454285
 20
759.580958318243
 42
-0.0201006595256261
 10
1611.568896999184
 20
758.6027511641906
 42
-0.0212047415899822
 10
1611.413148005969
 20
757.6281232866902
 42
-0.0212740898366338
 10
1611.169080392839
 20
756.6467962211273
 42
-0.021725277443269
 10
1610.82943689085
 20
755.650880476467
 42
-0.0427303014420413
 10
1610.367649190066
 20
754.7011185891682
 42
-0.0788229973339361
 10
1609.735420305418
 20
753.9354774685083
 42
-0.1150836797219521
 10
1608.886572860832
 20
753.4908924406654
 42
-0.0366741932096635
 10
1607.892379676751
 20
753.3196787225647
 42
-0.0203232871601268
 10
1606.895322741854
 20
753.243342224917
 42
-0.0246395479791141
 10
1605.905116763511
 20
753.2569164071182
 42
-0.0294996384693765
 10
1604.917274580207
 20
753.3769641671021
 42
-0.0873726368001545
 10
1604.014189407807
 20
753.7182967416915
 42
-0.0399851187104267
 10
1603.212242906804
 20
754.2927073781116
 42
0.0073805467514119
 10
1602.402657104594
 20
754.9527908152963
 42
-0.196068868174773
 10
1601.786453094743
 20
755.7100449292065
 42
0.2012728808452714
 10
1601.473156616904
 20
756.6359631478839
 10
1601.641607966262
 20
756.7489577148218
 42
-0.1444141682246557
 10
1602.558400295624
 20
757.1101235693486
 42
0.0278077022935189
 10
1603.557285329949
 20
757.0228716230998
 42
0.2104423174559743
 10
1604.376936702698
 20
757.5880697825148
 42
0.1845989307332545
 10
1604.618445358177
 20
758.5633387650772
 42
0.1923515451145508
 10
1604.102600026386
 20
759.4550642765207
 42
0.2767476106458755
 10
1603.128897368697
 20
759.5813408512835
 42
0.1945388493975716
 10
1602.445043619022
 20
758.8707295508067
 42
-0.0755401834074677
 10
1601.847007359028
 20
758.0707393576252
 10
1601.118985703881
 20
757.6776494033935
 10
1600.036790265676
 20
758.2672831551832
 10
1598.206899083292
 20
756.5180356897912
 10
1598.423339892953
 20
755.2208419076767
 10
1596.377007900907
 20
753.7467569384242
 10
1597.341144454748
 20
752.9802331790532
 10
1599.180701914573
 20
754.216389569729
 10
1599.895400867856
 20
753.5818040545116
 10
1600.321586695829
 20
753.6258050944534
 10
1600.333385380949
 20
753.6162798883249
 42
0.0050789490197465
 10
1601.106110424072
 20
753.0011702123156
 42
0.0150691949549692
 10
1601.899373647654
 20
752.4202402770787
 42
0.0236785410932691
 10
1602.732642673591
 20
751.905851318436
 42
0.0138275594544603
 10
1603.605376793179
 20
751.4560961437613
 42
0.0019147980678985
 10
1604.495516790263
 20
751.0322126398316
 42
-0.0098056534215552
 10
1605.37997226016
 20
750.5936900993567
 42
-0.0133645692656389
 10
1606.241121796381
 20
750.112415588632
 42
-0.0136493781079091
 10
1607.072988227745
 20
749.5866727074522
 42
-0.0112020922064382
 10
1607.872839185154
 20
749.0203018521444
 42
0.0490768516880149
 10
1608.710022278651
 20
748.5065431987046
 42
0.1203446465419205
 10
1609.698194078353
 20
748.2851160811866
 42
0.2035184296433685
 10
1610.525349917125
 20
748.7616465972081
 10
1610.632847679792
 20
748.9348350269795
 42
-0.0010181438978635
 10
1611.413361820039
 20
750.1883270573198
 42
-0.0014306589687056
 10
1611.939670782555
 20
751.0242080746884
 42
-0.002058952207029
 10
1612.474367188532
 20
751.8603979011275
 42
-0.002665418037163
 10
1613.020549165076
 20
752.6970106035759
 42
-0.0032435773217002
 10
1613.581314839274
 20
753.5341602489421
 42
-0.0037872737434982
 10
1614.159762338222
 20
754.3719609041493
 42
-0.0042908074803228
 10
1614.758989789012
 20
755.2105266361134
 42
-0.004790713236585
 10
1615.382115799152
 20
756.0499260104787
 42
-0.0425195653927026
 10
1616.058164680492
 20
756.8326729740367
 42
-0.1174599296927288
 10
1616.891547849913
 20
757.3334395626275
 42
-0.0510685174147612
 10
1617.894081639609
 20
757.5008493795735
 42
0.0004461910899521
 10
1622.904010694256
 20
757.9849433947542
 42
-0.0005169267216676
 10
1624.903108344829
 20
758.1754670651819
 42
0.0017921476458843
 10
1625.916100894819
 20
758.2743107397549
 42
0.0041715583904132
 10
1626.932782726765
 20
758.3857688080812
 42
0.0065872949460806
 10
1627.947351532976
 20
758.5191222332301
 42
0.0090912204777879
 10
1628.954005005789
 20
758.6836519782742
 42
0.0117190486008302
 10
1629.946940837535
 20
758.8886390062854
 42
0.0144812346323562
 10
1630.92035672054
 20
759.1433642803344
 42
0.0173491672415928
 10
1631.86845034714
 20
759.4571087634935
 42
0.0202382707343954
 10
1632.785419409664
 20
759.8391534188342
 42
0.0220716726138331
 10
1633.665795613283
 20
760.2978758658101
 42
0.0202186468731068
 10
1634.507790249221
 20
760.8317022183548
 42
0.0182628445014109
 10
1635.311895429683
 20
761.4328900697747
 42
0.01638736306411
 10
1636.07863730824
 20
762.0936049478715
 42
0.0146419599617331
 10
1636.808542038477
 20
762.8060123804559
 42
0.0130494041614208
 10
1637.502135773964
 20
763.5622778953258
 42
0.0116139594525478
 10
1638.15994466828
 20
764.3545670202867
 42
0.010328419985333
 10
1638.782494875005
 20
765.1750452831495
 42
0.0091791954358722
 10
1639.370312838333
 20
766.0158786976303
 42
0.0081747969568566
 10
1639.924698593988
 20
766.8705267314196
 42
0.0071708319474521
 10
1640.449406324654
 20
767.7365522142422
 42
0.0061217274928573
 10
1640.948675748186
 20
768.6123297962361
 42
0.0050405151496106
 10
1641.426746582438
 20
769.4962341275355
 42
0.0039375247933098
 10
1641.887858545269
 20
770.3866398582857
 42
0.0028205433228492
 10
1642.336251354533
 20
771.2819216386196
 42
0.0016952023149814
 10
1642.776164728079
 20
772.1804541186651
 42
0.0005655130759674
 10
1643.211838383781
 20
773.0806119485913
 42
0.0004638349422164
 10
1643.121189699838
 20
774.5291277276204
 42
0.0007804214588013
 10
1643.056118842218
 20
775.5280798423301
 42
0.0011814627256301
 10
1642.987150167074
 20
776.5264636139846
 42
0.0015833074339642
 10
1642.912692403303
 20
777.5240470184228
 42
0.0019860893863653
 10
1642.831154279803
 20
778.520598031459
 42
0.0023898202846125
 10
1642.740944525471
 20
779.5158846289461
 42
0.0027943572274169
 10
1642.640471869207
 20
780.5096747866851
 42
0.0031993697802213
 10
1642.528145039908
 20
781.5017364805302
 42
0.0036043071858435
 10
1642.402372766473
 20
782.4918376862997
 42
0.0040083666756667
 10
1642.2615637778
 20
783.4797463798289
 42
0.0043953497385438
 10
1642.104141732129
 20
784.4652327137931
 42
0.0038507968633208
 10
1641.930137349765
 20
785.448301167549
 42
0.0029920116184976
 10
1641.742600627664
 20
786.4293964629254
 42
0.0021349938762073
 10
1641.544914650753
 20
787.4090118895461
 42
0.0012799851561347
 10
1641.340462503979
 20
788.3876407369528
 10
1641.132627272267
 20
789.3657762947772
 42
-0.0058738319636875
 10
1641.937956781382
 20
789.5954590850172
 42
-0.0232959289101805
 10
1642.871037154793
 20
789.8047853002609
 42
-0.0412682892385325
 10
1643.806023435111
 20
789.8903229086077
 42
-0.0379658201948399
 10
1644.742367344194
 20
789.822028867512
 42
-0.0286760492878432
 10
1645.677067803315
 20
789.6266523848517
 42
-0.019962620596466
 10
1646.606908479175
 20
789.33592668197
 42
-0.0121629029521604
 10
1647.528673038479
 20
788.9815849802085
 42
-0.006272310367995
 10
1648.43950639775
 20
788.5936809736501
 42
-0.0034953433501472
 10
1649.339283130097
 20
788.1895776019931
 42
-0.000735947120453
 10
1650.229125044802
 20
787.7808391387802
 42
0.0020922674547067
 10
1651.110160362617
 20
787.3790000490487
 42
0.0050587581838089
 10
1651.983517304321
 20
786.9955947978253
 42
0.0082339935725168
 10
1652.850324090694
 20
786.6421578501347
 42
0.0116776493942954
 10
1653.711708942507
 20
786.3302236710072
 42
0.0152873920657957
 10
1654.569034513118
 20
786.0711393187369
 42
0.0160944350097301
 10
1655.432702238596
 20
785.8690261975834
 42
0.0151345193061819
 10
1656.324812171989
 20
785.7186537712152
 42
0.0130692274349935
 10
1657.268241885994
 20
785.6141699496937
 42
0.0104118631450109
 10
1658.285868953309
 20
785.54972264308
 42
-0.0023190537471558
 10
1659.387454461313
 20
785.5085638522727
 10
1659.757608207945
 20
785.3127503552267
 10
1659.787110586147
 20
784.8183078011687
 10
1654.440333205122
 20
781.366289801886
 10
1648.702327020836
 20
785.2742351518505
 10
1647.202621870069
 20
784.1018515468612
 10
1659.392426260904
 20
774.0931407179439
 10
1659.392426260904
 20
754.0853737396773
 10
1650.122626916864
 20
758.1272342724581
 10
1648.724799393865
 20
756.2165372094478
 10
1658.951006287843
 20
751.6602574200089
 10
1659.171717709391
 20
744.9728153403569
 10
1658.903006022502
 20
744.7619895425817
 42
0.0021666001869121
 10
1658.112177695988
 20
744.1365700255582
 42
0.0047751470928778
 10
1657.332119910262
 20
743.5018852940928
 42
0.0074326792544974
 10
1656.570879410341
 20
742.8510132427995
 42
0.0101479368636725
 10
1655.836502941259
 20
742.1770317663104
 42
0.0129043041889409
 10
1655.137037248041
 20
741.473018759247
 42
0.0156483900703001
 10
1654.480529075711
 20
740.7320521162329
 42
0.0174646868545539
 10
1653.874410076825
 20
739.9477388570053
 42
0.0108859347206271
 10
1653.311750838996
 20
739.1260399164081
 42
0.0036024700971699
 10
1652.771141015161
 20
738.2853732607051
 10
1653.61488891788
 20
738.4339780041575
 42
0.0008515373239129
 10
1654.606443810806
 20
738.6107627685968
 42
0.0014847915574691
 10
1655.596289558653
 20
738.7920179342442
 42
0.0021221215840978
 10
1656.583502436288
 20
738.9801595757353
 42
0.0027649087703231
 10
1657.567158718538
 20
739.1776037677
 42
0.0034141468229432
 10
1658.546334680266
 20
739.3867665847737
 42
0.0040703035643337
 10
1659.520106596314
 20
739.6100641015887
 42
0.0047331688222903
 10
1660.487550741526
 20
739.8499123927769
 42
0.0054016900950267
 10
1661.447743390741
 20
740.1087275329691
 42
0.0060738014505582
 10
1662.399760818819
 20
740.3889255968017
 42
0.0067462561209435
 10
1663.342679300601
 20
740.6929226589059
 42
0.0074144793306937
 10
1664.275575110933
 20
741.0231347939146
 42
0.008072464475467
 10
1665.197524524658
 20
741.381978076459
 42
0.0082267846933108
 10
1666.107791770933
 20
741.7713490921546
 42
0.0074077033585894
 10
1667.006897193924
 20
742.1896726361618
 42
0.0065829265872003
 10
1667.89587600329
 20
742.6339504611659
 42
0.0057628905922844
 10
1668.775764967405
 20
743.1011800116326
 42
0.0049512415312071
 10
1669.64760085465
 20
743.5883587320311
 42
0.004149771813733
 10
1670.512420433431
 20
744.0924840668425
 42
0.0033587451741401
 10
1671.371260472092
 20
744.6105534605155
 42
0.0025773422073154
 10
1672.225157645533
 20
745.1395644602333
 42
0.0039567051450319
 10
1673.07310174803
 20
745.6787619674045
 42
0.0072370577759204
 10
1673.906755620806
 20
746.2354354462044
 42
0.0106105180704677
 10
1674.716143318835
 20
746.8186736516007
 42
0.0140867321464032
 10
1675.491288897068
 20
747.4375653385457
 42
0.0187826803095541
 10
1676.221429182065
 20
748.1020381214062
 42
0.0474983926470249
 10
1676.862595033077
 20
748.8574034216565
 42
0.0725006886736187
 10
1677.324822286907
 20
749.7937117797382
 42
0.1144850938202702
 10
1677.438465614547
 20
750.8325033411095
 42
0.2108348036517758
 10
1676.936394286457
 20
751.6393306404197
 42
0.0844100367801307
 10
1676.020406601606
 20
752.0804367921601
 42
0.0612158541674598
 10
1675.035564176885
 20
752.239503582824
 42
0.0387633018794619
 10
1674.021514588644
 20
752.1993075410745
 42
0.018691298854744
 10
1673.006410891448
 20
752.0422261384562
 42
0.0065864601421333
 10
1672.013319416494
 20
751.8416831952889
 42
0.0027478606749279
 10
1671.039672393942
 20
751.6259813834152
 42
-0.0012906941446922
 10
1670.074845241659
 20
751.4092417725396
 42
-0.0053564711243833
 10
1669.108211320868
 20
751.2055789354636
 42
-0.0057155444279887
 10
1668.132095894253
 20
751.0244754147183
 42
-0.0033982233269409
 10
1667.148374284959
 20
750.8604281000843
 42
-0.0011273321295236
 10
1666.160849584306
 20
750.7049088885028
 10
1662.703068883776
 20
753.2493126962634
 10
1662.045201052217
 20
764.675209430807
 10
1662.714178788756
 20
764.6955032811128
 10
1662.656637459654
 20
766.5923275663102
 10
1662.105220530178
 20
766.7436022994262
 10
1661.871984276458
 20
774.4318672180607
 10
1663.796181934625
 20
775.5385117147201
 10
1663.969332218331
 20
775.3573121757376
 42
-0.0738488902526527
 10
1664.553486760585
 20
774.5779316258922
 42
-0.0794906028233361
 10
1664.831647159492
 20
773.6677639749887
 42
-0.0397604978575693
 10
1664.891879979087
 20
772.6626204711752
 42
-0.0076647906833886
 10
1664.857587061087
 20
771.6132212408694
 42
0.0176055706496562
 10
1664.847895501239
 20
770.5685761342516
 42
0.0252235606986505
 10
1664.925920110408
 20
769.5552851365522
 42
0.0327779047111823
 10
1665.115393075329
 20
768.5841917022691
 42
0.0402540270071676
 10
1665.439227675307
 20
767.6658116505445
 42
0.0379112211039932
 10
1665.91227755361
 20
766.8073170940856
 42
0.0123221606736606
 10
1666.478395982362
 20
765.9864241755125
 10
1666.765095245634
 20
758.9322646921218
 10
1672.776374670071
 20
758.9033973771472
 10
1672.865627014449
 20
759.6586115375322
 10
1680.043988898432
 20
759.6604893933506
 42
0.0111195306730684
 10
1680.24909865739
 20
758.6811566460298
 42
0.0343199549121938
 10
1680.544922900249
 20
757.7152755114711
 42
0.0553203403218071
 10
1681.015897229316
 20
756.8062930557032
 42
0.0827257779152706
 10
1681.698029476096
 20
756.0687417755815
 42
0.0916042623690189
 10
1682.573388664381
 20
755.6431486170217
 42
0.0592747022979712
 10
1683.601158064427
 20
755.4880282366141
 42
-0.0230749979137054
 10
1684.696964830079
 20
755.4597497410416
 10
1684.99675506832
 20
755.0811508385028
 10
1684.914634984646
 20
754.53688936667
 42
-0.1844493428250721
 10
1683.916831778967
 20
754.3736981069638
 42
0.0305732471926932
 10
1682.906670555689
 20
754.342128184442
 42
0.0767668197537176
 10
1681.947383450739
 20
754.0952028584293
 42
0.11340953685368
 10
1681.118514463366
 20
753.5046802454214
 42
0.1259917784648381
 10
1680.708141372726
 20
752.5938815222882
 42
0.0559679264671495
 10
1680.634488079646
 20
751.5517561932588
 42
0.0175797618080064
 10
1680.706235094436
 20
750.5463185386888
 10
1676.217681370455
 20
743.7106909874714
 10
1681.944767072062
 20
750.0212396193237
 10
1682.369256080413
 20
750.021436122792
 42
0.0467402216861968
 10
1683.359916121448
 20
750.1085475755724
 42
0.0700971436692422
 10
1684.29048211963
 20
750.4444743210967
 42
0.0446956074071147
 10
1685.140248092994
 20
750.9948532661065
 42
-0.0291366466495854
 10
1685.953898327868
 20
751.5815447344697
 42
-0.1115921569441356
 10
1686.882951815001
 20
751.8944791478717
 42
-0.0895127763259004
 10
1687.902945989829
 20
751.816403199792
 42
-0.0856314202684873
 10
1688.839231369608
 20
751.3991331900325
 42
-0.0878519031681934
 10
1689.560864683141
 20
750.7074170895604
 42
-0.0520335040790636
 10
1690.031116147695
 20
749.8303234914317
 10
1690.091794946552
 20
749.3382708192515
 42
-0.0030819556084789
 10
1690.20732105057
 20
748.3515177369362
 42
-0.0062027044205655
 10
1690.304252167428
 20
747.3655251241967
 42
-0.0053575266355146
 10
1690.374238710143
 20
746.3807671861525
 42
0.0142672463706721
 10
1690.461075095371
 20
745.3972907257792
 42
0.0337614199319632
 10
1690.644710125848
 20
744.4148462039801
 42
0.0471491152617399
 10
1690.999169794938
 20
743.4435344386787
 42
0.0613109518346097
 10
1691.544600237326
 20
742.5773773581578
 42
0.0913433967891297
 10
1692.274993400736
 20
741.9510279339273
 42
0.0815417340876217
 10
1693.170586355162
 20
741.6379019438237
 42
0.0391088471594995
 10
1694.17370970438
 20
741.5397626123669
 42
0.0055379300866332
 10
1695.220132731333
 20
741.5286614134811
 42
-0.0528031053770901
 10
1696.237359886699
 20
741.4500065572362
 42
-0.19970595145748
 10
1697.026420377381
 20
740.8697700858679
 42
-0.1514266654819931
 10
1697.220338243625
 20
739.9043893018992
 10
1697.06112494362
 20
739.8543111803116
 42
0.1773768729248356
 10
1696.273293702736
 20
739.3172529040363
 42
0.0722624280263109
 10
1695.824615888873
 20
738.4017213096431
 42
0.0412022150430181
 10
1695.567695506322
 20
737.4441972556817
 42
0.0454089214355675
 10
1695.483001162455
 20
736.4718835992002
 42
0.0529809832802571
 10
1695.588638844968
 20
735.4869999242012
 42
0.0668040995654081
 10
1695.924981122823
 20
734.5523277991603
 42
0.067961317732799
 10
1696.505168650426
 20
733.7374663986396
 42
0.0704834180669952
 10
1697.28057131528
 20
733.1130732266556
 42
0.0721330542468435
 10
1698.194292863419
 20
732.7398184176637
 42
0.0633710388402945
 10
1699.18656256339
 20
732.6228165108561
 42
0.0579301400044033
 10
1700.196318265898
 20
732.7483186636888
 42
0.0665842565228639
 10
1701.138988023127
 20
733.1102296203839
 42
0.091177544527994
 10
1701.890615626252
 20
733.715272204675
 42
0.0811600290826526
 10
1702.376163228128
 20
734.5456074067737
 42
0.0503294854282838
 10
1702.644899740849
 20
735.5225572961328
 42
0.0281279211630963
 10
1702.763930407518
 20
736.5587054324464
 42
0.033844413141996
 10
1702.76597785999
 20
737.5791197594208
 42
0.0561922440438122
 10
1702.594190028603
 20
738.5413929456468
 42
0.0729845527927223
 10
1702.182278232873
 20
739.4105209712154
 42
0.0249273827240406
 10
1701.586568211425
 20
740.205175329407
 10
1701.591485979546
 20
740.2148764943468
 42
-0.2463553024117505
 10
1702.279797146568
 20
740.864434950244
 42
-0.1507478633539415
 10
1703.276247469208
 20
740.8299438863463
 42
0.0028489161395649
 10
1704.190062259474
 20
740.4925043731381
 42
0.0615480904926865
 10
1705.146235795601
 20
740.3466886830624
 42
0.0193943266595201
 10
1706.140997845769
 20
740.3555677533822
 10
1706.216275990366
 20
739.3404156477664
 10
1708.098272655809
 20
739.3780140486494
 10
1708.259829788658
 20
740.3730063340463
 10
1708.275690344843
 20
740.3734338428547
 42
0.0023055213819141
 10
1709.343758922329
 20
740.405554277765
 42
0.0068577765281183
 10
1710.405284046621
 20
740.4569113110706
 42
0.0116113921584497
 10
1711.453817912284
 20
740.5464603536008
 42
0.0166323762935855
 10
1712.482912713891
 20
740.6931568161836
 42
0.021859728702617
 10
1713.486120833782
 20
740.9159560990365
 42
0.0246616193359099
 10
1714.465394295225
 20
741.2333389163983
 42
0.0229767483850211
 10
1715.453244357938
 20
741.6621501784455
 42
0.1330155680170258
 10
1716.293125158648
 20
742.3033038094331
 42
0.2037637941691059
 10
1716.405544519093
 20
743.3435389715306
 42
0.1815489298571715
 10
1715.834079714329
 20
744.1942522964909
 42
0.100401697299111
 10
1714.851926264412
 20
744.5952830783189
 42
0.0242108976754567
 10
1713.71337297559
 20
744.7701153062013
 42
-0.0012126248390853
 10
1712.617600113076
 20
744.9082695150847
 42
-0.0009004610410723
 10
1711.579974121029
 20
745.0435911034047
 42
-0.0004872794879008
 10
1710.081682003294
 20
745.2437408653387
 10
1710.242432656423
 20
746.3142330988134
 10
1711.689197143984
 20
746.6889042599533
 10
1712.187920233253
 20
754.1045344745461
 42
-0.0005878561171398
 10
1713.353080824487
 20
754.179594557064
 42
-0.0014057883880393
 10
1714.348087067915
 20
754.2396788824
 42
-0.001576012929998
 10
1715.329388715349
 20
754.2923536866493
 42
0.0119013794117303
 10
1716.314787602169
 20
754.3636547519457
 42
0.0285320255456239
 10
1717.346731719236
 20
754.520445724114
 42
0.1351838026151071
 10
1718.254172274048
 20
754.9528510377638
 42
0.2127147400773871
 10
1718.604526597344
 20
755.8850564207448
 42
0.2274497321906597
 10
1718.102660425406
 20
756.7279368173712
 42
0.1052625270774709
 10
1717.187926582874
 20
757.1276089357812
 42
0.0356082386599742
 10
1716.186107451057
 20
757.2685787178488
 42
0.0134977736042857
 10
1715.192085513558
 20
757.3134437978557
 42
0.0005408797629551
 10
1712.200089181101
 20
757.3788863172977
 10
1712.200089181101
 20
775.9016420835702
 10
1718.934514071442
 20
783.7215373818049
 10
1718.216152953665
 20
786.705090511881
 10
1717.573411514636
 20
786.5917916381042
 10
1711.902156601349
 20
780.0581862908383
 10
1709.406804783907
 20
779.8315873637268
 10
1708.953103931637
 20
785.7986948034363
 10
1706.457752114196
 20
785.8364607015094
 10
1706.495561953569
 20
779.9071203394305
 10
1702.03417310963
 20
785.3454969492141
 10
1702.06821898936
 20
785.3602634781382
 10
1702.524310264681
 20
785.5577715443224
 42
-0.0028849153908053
 10
1703.438365869174
 20
785.9472421919535
 42
-0.0056793387022701
 10
1704.357875097277
 20
786.3205664876987
 42
-0.0084889823190616
 10
1705.286385411171
 20
786.6672415848793
 42
-0.0112944270619548
 10
1706.227444273038
 20
786.9767646368154
 42
-0.0116943428022086
 10
1707.18376040674
 20
787.2410316167363
 42
-0.0057306390388713
 10
1708.150926914512
 20
787.4722894158646
 42
0.0033819108142714
 10
1709.604525853618
 20
787.8065400695946
 42
0.0093020092697867
 10
1710.563793462694
 20
788.0538853139045
 42
0.0154473909941523
 10
1711.505864149941
 20
788.3471881424457
 42
0.0172066528857587
 10
1712.424545857767
 20
788.7039513864542
 42
0.0133048253649172
 10
1713.322416203558
 20
789.1173169614321
 42
0.0094156249044923
 10
1714.204677666599
 20
789.573135288063
 42
0.0056019454095778
 10
1715.0765332078
 20
790.0572554491247
 42
0.0018582397777357
 10
1715.943185788102
 20
790.5555265274115
 42
0.0017494894811956
 10
1716.608918391455
 20
790.212666476862
 42
0.0088921370519488
 10
1717.506999088135
 20
789.7733478918753
 42
0.0156015497105562
 10
1718.419702597716
 20
789.3816450994728
 42
0.0083552435090259
 10
1719.348650547751
 20
789.0375581094139
 42
-0.0016971271875355
 10
1720.286362279022
 20
788.7043284827248
 42
-0.0114945971863291
 10
1721.224704921415
 20
788.3425639078438
 42
-0.0204126280230548
 10
1722.154808746042
 20
787.9134254360315
 42
-0.0275126504976632
 10
1723.04893140931
 20
787.3922469885656
 42
-0.0366956984074441
 10
1723.859322283308
 20
786.7693882167211
 42
-0.0483715933566646
 10
1724.537266504304
 20
786.035932889185
 42
-0.0598520985039937
 10
1725.034793089089
 20
785.1835240513901
 42
-0.0492352084191726
 10
1725.336849362709
 20
784.2285539439201
 42
-0.0370607212993811
 10
1725.473614360792
 20
783.2214216713721
 42
-0.0181319053757354
 10
1725.491537172112
 20
782.2089845554483
 42
0.0138709842565833
 10
1725.500334683047
 20
781.2088107299075
 42
0.047015967163867
 10
1725.628888546976
 20
780.2295741366601
 42
0.0528874202702841
 10
1725.965092369433
 20
779.2869409093065
 42
0.0466478754754344
 10
1726.488162866086
 20
778.4151199610272
 42
0.0442672550939269
 10
1727.159573369256
 20
777.6511283771876
 42
0.0401761343850334
 10
1727.94517380126
 20
777.0160403155804
 42
0.0348973663470787
 10
1728.817959244067
 20
776.5049017332802
 42
0.0302314334046486
 10
1729.751583693274
 20
776.1103583140451
 42
0.026547885622173
 10
1730.719733658565
 20
775.8250191306335
 42
0.0202693902819388
 10
1731.702438939169
 20
775.6343506850811
 42
0.0122067135932774
 10
1732.693621176643
 20
775.5081772065267
 42
0.0040635217065305
 10
1733.689041892554
 20
775.4142512114715
 10
1733.689163267318
 20
775.4118508200822
 10
1733.718196442916
 20
774.896984913076
 42
0.0352911672417795
 10
1733.846574951268
 20
773.8854884493338
 42
0.0528069879454532
 10
1734.162817110517
 20
772.9245331311926
 42
0.0402837818356499
 10
1734.659456137912
 20
772.0240282982408
 42
0.029213139494828
 10
1735.286208724758
 20
771.1862151454902
 42
0.0368034386076024
 10
1736.005890067749
 20
770.4286861173742
 42
0.0774980137100648
 10
1736.862162077575
 20
769.8635524166189
 42
0.1020181009715871
 10
1737.926122017453
 20
769.6360484017457
 10
1738.164425685229
 20
769.3559641724472
 10
1737.996313770613
 20
768.7515137321747
 42
0.0760754070820848
 10
1737.919960222255
 20
767.7078339044249
 42
-0.058703789160992
 10
1737.893356650874
 20
766.7294777450726
 42
0.3281093002205705
 10
1738.298465381202
 20
765.8499617974546
 42
-0.015357239575146
 10
1739.007770422798
 20
765.1172458708224
 10
1739.088312027827
 20
765.0426886812436
 10
1739.457802339136
 20
764.702083390791
 42
0.0079753650207144
 10
1740.20674660872
 20
764.0344847114619
 42
0.0126858353580209
 10
1740.981676288493
 20
763.4022163181391
 42
0.010124927246343
 10
1741.784492093828
 20
762.8062267248187
 42
0.0073918773215798
 10
1742.610064682054
 20
762.2370991293802
 42
0.0046520798357592
 10
1743.453206615054
 20
761.6853310721836
 42
0.00154242637149
 10
1744.308425090712
 20
761.1411340529866
 42
-0.0166833507945048
 10
1745.148901265773
 20
760.5747430398117
 42
-0.0398558321576581
 10
1745.912906992996
 20
759.9236927534469
 42
-0.0575323422477979
 10
1746.538307334519
 20
759.1255191352992
 42
0.039034269964588
 10
1747.118401311778
 20
758.2843979205168
 42
0.1723820227092679
 10
1747.966459574116
 20
757.7690646830481
 42
0.1401952606579063
 10
1748.852736329085
 20
758.207929987574
 42
-0.0984019758221605
 10
1749.833671683295
 20
758.4319976802417
 42
-0.0100243611855022
 10
1750.837293596372
 20
758.4783756171017
 10
1750.841710446696
 20
758.4561588668991
 42
0.0089057809392667
 10
1751.04910079329
 20
757.4751873264911
 42
0.0269337464578526
 10
1751.32054243995
 20
756.529170617639
 42
0.0466055404139882
 10
1751.718676695468
 20
755.6522941058276
 42
0.0505214185436621
 10
1752.288186332471
 20
754.8723181189846
 42
0.0402808169114568
 10
1753.005090880389
 20
754.1924372903618
 42
0.031856117703465
 10
1753.82900208813
 20
753.6099760305443
 42
0.0299298442458918
 10
1754.721443913414
 20
753.1265431144853
 42
0.0422490559141895
 10
1755.66030341823
 20
752.7804093701406
 42
0.0569530295572074
 10
1756.631775611079
 20
752.6284598425932
 42
0.0694088030207001
 10
1757.620643913084
 20
752.7272616368096
 42
0.0811596334347928
 10
1758.545529844064
 20
753.1125899688658
 42
0.1101839132463762
 10
1759.236713361828
 20
753.7897565659716
 42
0.0750058353034217
 10
1759.633549250404
 20
754.6955014747481
 42
0.0393366761708491
 10
1759.823718398885
 20
755.6823007750398
 42
0.0330728856672673
 10
1759.872422959806
 20
756.6602712000197
 42
0.0295621704138226
 10
1759.798426231408
 20
757.6305176300422
 42
0.0246646034836299
 10
1759.616891803932
 20
758.6011978921014
 42
0.0193159888769238
 10
1759.342925372538
 20
759.5803860980526
 42
0.0469381897132745
 10
1758.956694903631
 20
760.5256370959661
 42
0.1110020752538165
 10
1758.344292745758
 20
761.2584739869877
 42
0.0646818797943138
 10
1757.461385736219
 20
761.6857262248116
 10
1757.407311409239
 20
765.3857049406955
 10
1757.451764187238
 20
765.4379211788164
 10
1757.757133764711
 20
765.7962026690459
 42
0.004954792105347
 10
1758.379650610049
 20
766.5301144090606
 42
0.0642880300763225
 10
1758.894653953079
 20
767.3301378220322
 42
0.1149516640067662
 10
1759.072873657578
 20
768.2491350924333
 42
0.083356846170897
 10
1758.87743322126
 20
769.2127130078356
 42
0.0762916713808459
 10
1758.403172544754
 20
770.0609260355133
 42
0.0628893722321585
 10
1757.736997482911
 20
770.7046932928282
 42
0.0235568252531298
 10
1756.938735862522
 20
771.2441341792842
 42
-0.1191148484447957
 10
1756.193931121894
 20
771.847814279665
 42
-0.0938944021294708
 10
1756.171153001565
 20
772.7914789594748
 42
-0.0995264839770181
 10
1756.114912318271
 20
773.7122630519658
 42
-0.0729235220305766
 10
1756.619075422329
 20
774.5412749409045
 42
0.1629511313666582
 10
1756.962815442002
 20
775.409530483457
 42
0.073369933535497
 10
1756.781155901721
 20
776.3637573938138
 10
1761.974202734988
 20
776.9188560560015
 10
1762.798189746073
 20
777.8567801615352
 10
1765.097693254042
 20
777.8950627058698
 10
1765.896303416809
 20
776.6705544472324
 10
1772.148749001311
 20
779.5023763553723
 10
1770.906026772775
 20
781.5195650648182
 10
1765.66329102581
 20
781.4419808383181
 10
1764.886590709238
 20
780.0066738276233
 10
1761.935124340202
 20
779.9678817143733
 10
1761.578581893144
 20
780.2562295985685
 42
0.1025415901658099
 10
1760.71322825416
 20
780.7119279908
 42
0.0881434147271508
 10
1759.713467677427
 20
780.7775893862189
 42
0.0624518585501808
 10
1758.726565346423
 20
780.5581952246227
 42
0.0755888512976995
 10
1757.858354121039
 20
780.0910180040507
 42
0.0330513303136941
 10
1757.119573193345
 20
779.4247921288723
 10
1754.446132842204
 20
779.1347070485898
 42
0.0012800647984393
 10
1753.672811517369
 20
779.1840530874541
 42
0.0055125351067248
 10
1752.711022527044
 20
779.2325392988997
 42
0.0095095211208526
 10
1751.737322727339
 20
779.2522396738688
 42
0.0131229093047726
 10
1750.745125778494
 20
779.2272364612292
 42
0.0161535273721713
 10
1749.727845340748
 20
779.1416119098498
 42
-0.2443430744210061
 10
1748.805495786949
 20
779.2842889615679
 42
-0.0656990433943332
 10
1748.214263675303
 20
780.1517484593373
 42
-0.0099145574742047
 10
1747.714511159035
 20
781.067651669776
 42
-0.0055486242813188
 10
1747.261275572205
 20
781.9636273671567
 42
-0.0005484098351535
 10
1746.832245510158
 20
782.8384567906002
 42
0.0048696245861446
 10
1746.405109568243
 20
783.69092117923
 42
0.0104237902730584
 10
1745.957556341811
 20
784.5198017721574
 42
0.0157226043648654
 10
1745.467276760068
 20
785.3238799937419
 42
0.0164590495054902
 10
1744.918185000259
 20
786.1024312081488
 42
0.0142735672867801
 10
1744.313940741751
 20
786.8562979819818
 42
0.0122496280682267
 10
1743.662110743039
 20
787.5866329870985
 42
0.0103937845913642
 10
1742.970261762616
 20
788.294588895361
 42
0.0086941339337269
 10
1742.24596055899
 20
788.9813183786173
 42
0.0071280563548009
 10
1741.496773890646
 20
789.6479741087358
 42
0.0056669796897505
 10
1740.730268516086
 20
790.2957087575702
 42
0.0042805074666596
 10
1739.954009368768
 20
790.9256742831842
 42
0.0045559784345777
 10
1739.172995765619
 20
791.538019202113
 42
0.0059397320463804
 10
1738.384556973798
 20
792.1298921880021
 42
0.0073182299915859
 10
1737.584595139324
 20
792.6978837513533
 42
0.0086687526778458
 10
1736.769012408222
 20
793.2385844026619
 42
0.0099625303746009
 10
1735.933710926524
 20
793.7485846524205
 42
0.0111653075322215
 10
1735.074592840249
 20
794.2244750111299
 42
0.0122391809636095
 10
1734.187560295433
 20
794.6628459892804
 42
-0.0023007362618189
 10
1733.280460503644
 20
795.0750258443843
 42
-0.0445189628037937
 10
1732.431714532116
 20
795.5594164142285
 42
-0.0627048400694662
 10
1731.728239386182
 20
796.2246611592168
 42
-0.0199521901901198
 10
1731.126935934078
 20
797.0171847543057
 10
1730.985543666223
 20
799.5594075599257
 10
1734.520321662242
 20
800.7599012038625
 10
1742.791701885924
 20
791.3678017903142
 10
1754.59786297566
 20
801.2542231568577
 10
1745.61952428274
 20
811.7055818761544
 10
1748.335771203961
 20
813.5329714988268
 10
1748.37675946425
 20
813.4339242612666
 42
0.0143770489514873
 10
1748.777075321682
 20
812.5218394915332
 42
0.0376754366769243
 10
1749.272027552621
 20
811.6536561228597
 42
0.0482359939169383
 10
1749.917152767382
 20
810.8777046895424
 42
0.0585741587506627
 10
1750.702613457587
 20
810.2613139280062
 42
0.0420603019637283
 10
1751.59942964031
 20
809.8372841799593
 42
-0.0116728820134769
 10
1752.529179573795
 20
809.4638810270225
 42
-0.0295311289416138
 10
1753.41925973802
 20
809.0043275186319
 42
-0.0343907651940668
 10
1754.23918273898
 20
808.4383483451787
 42
-0.0303083704930065
 10
1754.972152464127
 20
807.7672622619395
 42
-0.0100127864813502
 10
1755.652226447216
 20
807.0356160380638
 10
1756.996810321829
 20
807.97583584279
 10
1755.27142858919
 20
810.4432593575792
 10
1754.8511263327
 20
812.2460929485781
 10
1750.969501752645
 20
815.8764565296131
 10
1751.631466685231
 20
816.4578086069681
 10
1751.879694981855
 20
816.1939536123954
 42
0.0123881104030281
 10
1752.578633141001
 20
815.4835037679774
 42
0.0285191033572663
 10
1753.32144414527
 20
814.841357578266
 42
0.1638560711151176
 10
1754.211707414263
 20
814.4134694441838
 10
1754.702530085068
 20
814.5516298164999
 10
1755.060326929292
 20
814.224465551273
 42
0.0640356175275612
 10
1755.777667048877
 20
813.5486827060095
 42
0.0948525808930365
 10
1756.655917555403
 20
813.076163756272
 10
1757.19918256646
 20
813.0042648318129
 10
1757.489203520133
 20
813.2570658754417
 42
0.1263854166991851
 10
1757.243085877158
 20
814.3351259549213
 42
0.0962236550608283
 10
1756.680642796655
 20
815.1235830079613
 42
-0.1081835495189377
 10
1756.083753039491
 20
815.9134993235801
 42
-0.1237732796155651
 10
1756.038839035585
 20
816.9235149951616
 42
0.272770553460875
 10
1755.589733898793
 20
817.7593330716684
 42
0.007532045317352
 10
1754.857265498565
 20
818.4527225188189
 42
0.0117005786647353
 10
1754.120286671028
 20
819.0982066621142
 42
0.0126196959963817
 10
1753.346892995338
 20
819.7085996612946
 42
0.0041964776134454
 10
1752.542883568551
 20
820.3002755308485
 10
1754.130437616644
 20
822.0129366558424
 10
1771.466535972719
 20
814.5914062937606
 10
1770.768009665927
 20
813.1959058159157
 10
1764.163783907449
 20
815.7331803770896
 10
1763.528762862219
 20
814.5914062937606
 10
1770.323495795276
 20
811.2929490103672
 10
1766.640368566879
 20
805.0131927316147
 10
1768.227922614971
 20
804.1885792954344
 10
1773.054090020812
 20
811.2295171168492
 42
0.0006552809688563
 10
1774.61657156916
 20
810.7034330003424
 42
0.0009577444086983
 10
1775.593699239306
 20
810.378040152239
 42
0.0014175580831817
 10
1776.571114001113
 20
810.057700577737
 42
0.0018814289523466
 10
1777.548926300578
 20
809.7443583038042
 42
0.0023504819674732
 10
1778.527246583707
 20
809.4399573574076
 42
0.0028256776881521
 10
1779.506185296532
 20
809.1464417655032
 42
0.0033077591834882
 10
1780.485852885051
 20
808.8657555550604
 42
0.0037881684468215
 10
1781.466374098956
 20
808.5998294517343
 42
0.0040234865785429
 10
1782.448615372314
 20
808.3499044725956
 42
0.0041818739398757
 10
1783.434530323084
 20
808.1162106385303
 42
0.0043134716033338
 10
1784.426159156477
 20
807.8988974510608
 42
0.0044165010004867
 10
1785.425542077673
 20
807.6981144117157
 42
0.004489832745009
 10
1786.434719291853
 20
807.5140110220242
 42
0.0045330276236982
 10
1787.455731004218
 20
807.3467367835112
 42
0.0045463421196367
 10
1788.490617419944
 20
807.1964411977051
 42
0.0046793260512841
 10
1789.541314274386
 20
807.0634456327267
 42
0.0093575134909682
 10
1790.6037230568
 20
806.9579985824244
 42
0.015489985806605
 10
1791.664524269328
 20
806.9055182730986
 42
0.0223770395652361
 10
1792.709620451321
 20
806.932702781822
 42
0.0301498848249848
 10
1793.724914142123
 20
807.0662501856675
 42
0.0383877803514291
 10
1794.696307881079
 20
807.3328585617066
 42
0.0452657119778823
 10
1795.609727587222
 20
807.7587115523686
 42
0.0436502950615107
 10
1796.451827310658
 20
808.3539713762363
 42
0.0583099381451377
 10
1797.182242974157
 20
809.1121616574334
 42
0.1161684614604513
 10
1797.599775945038
 20
810.0378469519514
 42
-0.0703612175789862
 10
1797.825481187796
 20
811.0383862453421
 42
-0.1921476092145866
 10
1798.604743424983
 20
811.7128564468853
 42
-0.1245728276860214
 10
1799.644478853408
 20
811.6792459518443
 10
1799.990076206352
 20
811.380125000417
 10
1800.065408357784
 20
810.8365052816752
 42
0.1567435628980518
 10
1800.612298309596
 20
809.9242176104807
 42
0.1442727211115089
 10
1801.51597093839
 20
809.4934492654026
 42
0.0578796571532301
 10
1802.544754617154
 20
809.4712039945855
 42
-0.0234017738505573
 10
1803.624975201198
 20
809.5082673468656
 42
0.0192690563343583
 10
1804.684746525946
 20
809.5167375792017
 42
0.091650483063358
 10
1805.645405700037
 20
809.7351954102311
 42
0.1031699338247933
 10
1806.437413945765
 20
810.3525725333193
 42
0.0581070512774612
 10
1807.03621454381
 20
811.2333756743494
 42
0.0486930932768548
 10
1807.433772026832
 20
812.1891656811563
 42
0.0489041990344538
 10
1807.634396638668
 20
813.194210356344
 42
0.0455592993959683
 10
1807.643537544773
 20
814.2570880297949
 42
0.0635911579143314
 10
1807.430026635928
 20
815.2974582853106
 42
0.1041683395330206
 10
1806.928604901307
 20
816.1520605315255
 42
0.098830110797805
 10
1806.119395445346
 20
816.7119603553041
 42
0.0615752548366722
 10
1805.100864435163
 20
817.0139814454621
 42
0.0383045805305923
 10
1803.98994429003
 20
817.1176915858472
 42
0.0337617069986514
 10
1802.902025688395
 20
817.0738303792454
 42
0.0886661206016158
 10
1801.928510932502
 20
816.7957772931204
 42
-0.0637765188424781
 10
1801.025070839549
 20
816.3086259761486
 42
-0.1958433260882861
 10
1799.98586833251
 20
816.4151098695716
 10
1799.619956058183
 20
816.7887973005887
 10
1799.619340180623
 20
817.3008302761218
 42
0.0128295023900492
 10
1799.752459897976
 20
818.3512415449547
 42
0.1009972340255271
 10
1799.658715662111
 20
819.3451216205188
 42
0.0605197437223229
 10
1799.162512749413
 20
820.2451781868193
 42
0.0101513817299272
 10
1798.580848877319
 20
821.1090848047714
 42
0.0258620413973947
 10
1797.951695534664
 20
821.9128263911704
 42
0.0400637885170464
 10
1797.233270697615
 20
822.6127715589505
 42
0.0330682050452158
 10
1796.417022112018
 20
823.2004416464846
 42
0.0239120847440597
 10
1795.524878360606
 20
823.6996027082566
 42
0.0152979846319083
 10
1794.579896503162
 20
824.1352145790481
 42
0.0073789427802655
 10
1793.605133599467
 20
824.5322370936403
 42
-0.0039389082489211
 10
1792.137524586758
 20
825.1099490020461
 42
-0.0046848650877831
 10
1791.180116283915
 20
825.5100577130319
 42
-0.0028424311308249
 10
1790.237676005999
 20
825.9207169066215
 42
-0.0009080674894498
 10
1788.838809286253
 20
826.543357991143
 42
0.0019955242490168
 10
1787.907246371428
 20
826.9541336697553
 42
0.0039298021518487
 10
1786.969417322138
 20
827.3544520537868
 42
0.0058061355965456
 10
1786.019255235674
 20
827.7383109211967
 42
0.0056039381061365
 10
1785.051972079451
 20
828.1014634629986
 42
-0.0040016835193349
 10
1784.079514231764
 20
828.4626329935161
 42
-0.0141198637754384
 10
1783.125582960913
 20
828.8566779199381
 42
-0.0247150146733532
 10
1782.214123391153
 20
829.3187913729378
 42
-0.0364321057065757
 10
1781.369753664391
 20
829.8849528501621
 42
-0.1073779765916964
 10
1780.709008656549
 20
830.6885016911646
 42
0.3297647794289682
 10
1779.920479277372
 20
831.052074540034
 42
0.0056949821247005
 10
1778.805483337542
 20
830.8567925412516
 10
1778.2450441935
 20
830.8410524942061
 10
1777.935747953585
 20
830.5228108777036
 42
0.0581833165375499
 10
1777.872212718913
 20
829.4494875053546
 10
1777.765223392069
 20
829.4676877537867
 42
-0.0016573786496042
 10
1776.767054763445
 20
829.6400012924699
 42
-0.0044106165445098
 10
1775.773666638149
 20
829.8239167199037
 42
-0.0072215087833977
 10
1774.789377128051
 20
830.0299137389451
 42
-0.0101089963757265
 10
1773.818504345082
 20
830.2684720524409
 42
-0.0130649101876929
 10
1772.865366401157
 20
830.5500713632408
 42
-0.016039482554743
 10
1771.93428140819
 20
830.8851913741934
 42
-0.0187068513760036
 10
1771.029481885269
 20
831.2841109017176
 42
-0.0139677319981394
 10
1770.149903035086
 20
831.7446759568142
 42
-0.0074936156857679
 10
1769.286174839956
 20
832.2452401922149
 42
-0.0011544274722582
 10
1768.428201708781
 20
832.7624543392952
 42
0.0051376254181595
 10
1767.565888050455
 20
833.2729691294353
 42
0.0111324033761456
 10
1766.689283139805
 20
833.7537638930792
 42
0.0101641860487218
 10
1765.794171368964
 20
834.1948269130021
 42
0.0079080036188415
 10
1764.883847658563
 20
834.6031825852614
 42
0.005640249391817
 10
1763.962114993496
 20
834.9870077467709
 42
0.0033780748533313
 10
1763.032776358643
 20
835.3544792344511
 42
0.0011247406684024
 10
1762.099634738932
 20
835.7137738852028
 10
1762.015198313066
 20
838.3003221091243
 10
1764.323156943763
 20
841.9833423243185
 10
1764.99865409076
 20
841.9833423243185
 42
0.2310358706452556
 10
1766.23707126699
 20
840.1277754279105
 42
0.2155013978665369
 10
1768.05843557578
 20
843.7449503745831
 42
0.3058174590564477
 10
1777.539099251728
 20
845.549852909745
 10
1783.987479246748
 20
845.8501140340876
 10
1784.022838076342
 20
846.3269490445544
 10
1795.338125622177
 20
846.4152519116451
 10
1795.57700436445
 20
846.9065577356662
 10
1809.151405417535
 20
846.9065577356662
 10
1809.151405417535
 20
846.225752432521
 10
1805.402827043933
 20
846.0839176994763
 10
1804.494079293043
 20
845.4882139438922
 10
1804.948454603506
 20
845.1478112923194
 10
1809.43538962782
 20
845.2612788428437
 10
1810.116951158496
 20
846.225752432521
 10
1811.110890154424
 20
846.225752432521
 10
1811.13928914946
 20
847.6157302213321
 10
1813.070374891314
 20
847.6157302213321
 10
1813.638343311884
 20
846.934924918187
 10
1813.609944316848
 20
846.3108528005248
 10
1814.149513742383
 20
846.0271845139928
 10
1814.092715752312
 20
842.2827553466929
 10
1814.944665513132
 20
841.5735828610273
 10
1815.825014268987
 20
842.084187428165
 10
1815.796615273952
 20
846.7930901851422
 10
1816.81895613495
 20
847.8623804493567
 10
1816.790557139914
 20
850.5288672968976
 10
1816.222591589379
 20
851.0678390465558
 10
1816.392979819522
 20
852.7414851218992
 10
1815.796615273952
 20
852.8549526724232
 10
1815.910208384059
 20
856.9114173087758
 10
1816.620166039736
 20
857.3652875108724
 10
1816.102830774337
 20
865.8176191702414
 10
1816.678688920764
 20
866.4287916451725
 10
1816.246794593435
 20
874.6181656916629
 42
0.3213833045068561
 10
1812.67009112804
 20
874.5490329959025
 10
1812.698616404609
 20
870.5314005777614
 10
1813.2120742529
 20
870.5314005777614
 10
1813.372738804904
 20
866.2590650913502
 10
1812.482959260725
 20
865.9201016412295
 10
1812.513625437049
 20
864.7685689361681
 10
1814.017242445344
 20
864.8086113805533
 10
1814.021676649218
 20
862.060748028588
 10
1813.461061257983
 20
861.8871230366506
 10
1813.461061257983
 20
854.4792389773084
 10
1814.034680777212
 20
853.9062535025404
 10
1814.034680777212
 20
851.9826591559139
 10
1812.764521015322
 20
850.9594707238596
 10
1811.535333871231
 20
850.8776153190193
 10
1811.248522676599
 20
849.690717256842
 10
1806.04496577564
 20
849.5679347393602
 10
1805.840099816608
 20
849.0358763772334
 10
1796.948981483377
 20
848.9949492645921
 10
1796.835790178152
 20
849.6923214552797
 10
1793.421969801715
 20
849.7212029249464
 10
1793.260923535073
 20
848.5046330894601
 10
1786.587535676305
 20
848.51468763908
 10
1786.527144402578
 20
849.5301712004025
 10
1791.177375800872
 20
849.6910404556446
 10
1791.167310588584
 20
850.1032663740343
 10
1785.591805778619
 20
849.9599206276082
 10
1785.081835022696
 20
849.0837440072333
 10
1782.776772257183
 20
849.0429914691278
 10
1782.613582074493
 20
848.6150915883563
 10
1781.226465521629
 20
848.5335865121449
 10
1780.980130428765
 20
848.1292825030994
 10
1767.999221016346
 20
848.0053982787492
 42
-0.1089922565842108
 10
1767.574388388785
 20
848.4611792683002
 42
-0.243191456462042
 10
1768.333971550983
 20
849.1017847440392
 42
0.0049523611184813
 10
1769.357284483131
 20
849.6152224390936
 42
0.040427948161733
 10
1770.169305623753
 20
850.1130584966965
 42
0.0869769174655399
 10
1770.74680837746
 20
850.7138232320407
 42
0.0881566735186987
 10
1771.074649178457
 20
851.523863364175
 42
0.0238219271431342
 10
1771.241608469947
 20
852.4928803668077
 10
1777.517212365812
 20
852.4928803668077
 10
1777.528672415047
 20
853.2826508488327
 10
1778.754745571304
 20
853.2826508488327
 10
1778.877838496829
 20
854.0867541361638
 10
1789.329515330169
 20
854.8229149014284
 10
1789.329515330169
 20
859.641425696218
 10
1794.996386912421
 20
859.2773439901419
 10
1795.470635161477
 20
851.3872372017724
 42
0.0728144658395571
 10
1796.362886193407
 20
851.7584456789972
 42
0.1656082333914243
 10
1796.875458171535
 20
852.4875101013428
 42
0.049394631346487
 10
1797.077886481904
 20
853.4725750295095
 42
-0.0054727237409307
 10
1797.210907685438
 20
854.4392126078816
 42
0.0161032551608106
 10
1797.318352788118
 20
855.3417366077567
 42
0.0367863939004056
 10
1797.327183202489
 20
856.270170104832
 42
0.0429167925674517
 10
1797.163191102586
 20
857.3160176025769
 42
-0.0242909157066093
 10
1796.913575090145
 20
858.4399156284561
 42
-0.2377497861599881
 10
1797.082054057606
 20
859.2647869758078
 42
-0.2478928326029536
 10
1797.990503787852
 20
859.3858883095125
 10
1798.367636644638
 20
859.1174925660705
 10
1798.476873795505
 20
858.6651764545885
 42
0.0239800613810311
 10
1798.505491651282
 20
857.6804930937028
 42
0.0240733118326725
 10
1798.627232417507
 20
856.7988079314998
 42
0.0068913809475801
 10
1798.79887592621
 20
855.9557853624703
 42
-0.0116303067142903
 10
1798.967707097312
 20
855.0805489291818
 42
-0.0247194316699883
 10
1799.081010850736
 20
854.1022221741958
 42
-0.0293356594874687
 10
1799.086229175259
 20
852.9501362671377
 10
1799.102474513485
 20
852.3801649542319
 10
1799.389778092377
 20
852.1627158969645
 42
0.2352955202628508
 10
1800.136078254895
 20
852.7401425275987
 42
0.069458523603775
 10
1800.497290568744
 20
853.6138685515876
 42
0.0315025601553747
 10
1800.681064413167
 20
854.5641938707381
 42
0.018829244984067
 10
1800.781323146466
 20
855.5365117516968
 42
0.0224712876638506
 10
1800.801211339138
 20
856.5056233364483
 42
0.0273242570322239
 10
1800.726647546642
 20
857.451910151065
 42
0.0332853820418452
 10
1800.54373864874
 20
858.3558959073132
 42
-0.0499903936326228
 10
1800.349791902195
 20
859.2820611027468
 42
-0.2091607377131438
 10
1800.578342427639
 20
860.2410514887461
 42
-0.0650151267410846
 10
1801.506040273636
 20
860.4112948058917
 10
1801.964873260891
 20
860.5037585540207
 10
1802.012924376706
 20
860.5142942429825
  0
LWPOLYLINE
  5
1FE1
330
1F
100
AcDbEntity
  8
0
100
AcDbPolyline
 90
        3
 70
     1
 43
0.0
 10
1749.264250444581
 20
980.18480653745
 10
1747.25072008106
 20
982.2389036065395
 10
1745.836960994501
 20
979.7140769175078
  0
LWPOLYLINE
  5
1FE2
330
1F
100
AcDbEntity
  8
0
100
AcDbPolyline
 90
        6
 70
     1
 43
0.0
 10
1619.509127326124
 20
947.5593877834464
 10
1621.271647309977
 20
945.7605446360613
 10
1624.298586985981
 20
945.5309059888222
 10
1624.796690147718
 20
947.4445672802692
 10
1622.229541537976
 20
949.4347759670203
 10
1620.620281416164
 20
949.4730502544513
  0
LWPOLYLINE
  5
1FE3
330
1F
100
AcDbEntity
  8
0
100
AcDbPolyline
 90
       27
 70
     1
 43
0.0
 10
1722.065974677329
 20
793.6042407825576
 10
1734.467906215418
 20
780.5674438031116
 42
0.2137579233314157
 10
1733.631658415369
 20
777.2998579031827
 42
-0.0052897306295561
 10
1732.633419263506
 20
777.3154477121765
 42
-0.0162608223716045
 10
1731.648831666885
 20
777.3730776716838
 42
-0.0281508040310916
 10
1730.691547121702
 20
777.5147882748797
 42
-0.0404948521190958
 10
1729.775217153677
 20
777.7826198436082
 42
-0.0507029625315477
 10
1728.913770486318
 20
778.2182553874138
 42
-0.0526571089110063
 10
1728.143481325472
 20
778.8345742384842
 42
-0.0610663408721886
 10
1727.539018559419
 20
779.5949643808953
 42
-0.067523531759077
 10
1727.167084518001
 20
780.4589483364967
 42
-0.0408031446019271
 10
1726.989080274156
 20
781.3951288058049
 42
-0.0139343014721634
 10
1726.910880612834
 20
782.3768965481916
 42
0.0102795646733913
 10
1726.837947164599
 20
783.3776860097598
 42
0.0215423419162636
 10
1726.696689906503
 20
784.3710835310182
 42
0.0281425047495463
 10
1726.461641558519
 20
785.3310243857722
 42
0.0362152607560755
 10
1726.114066238543
 20
786.2314926565366
 42
0.045266147721679
 10
1725.635228064466
 20
787.0464724258257
 42
0.0457355029871373
 10
1725.013148766298
 20
787.7556399484294
 42
0.0330771560116336
 10
1724.273306578398
 20
788.3702223986107
 42
0.0214910465148573
 10
1723.454084171534
 20
788.9123168073147
 42
0.0113429347115767
 10
1722.593876215367
 20
789.4040303125655
 42
0.0047300673200179
 10
1721.727288033009
 20
789.8658521812126
 42
0.0036884735414078
 10
1720.863771035555
 20
790.3075321531712
 42
0.0026013338258135
 10
1720.002529169272
 20
790.7344447871089
 42
0.0014638712062268
 10
1719.142736376007
 20
791.1519518311853
 10
1718.494735758325
 20
791.4638708651358
  0
LWPOLYLINE
  5
1FE4
330
1F
100
AcDbEntity
  8
0
100
AcDbPolyline
 90
       12
 70
     1
 43
0.0
 10
1770.068343955293
 20
892.5618754158344
 10
1770.819096286607
 20
891.7702907741055
 10
1774.322610992791
 20
891.8952778848815
 10
1775.073363324106
 20
890.8537202011583
 10
1777.117080714386
 20
891.0203692890073
 10
1777.200495407839
 20
892.1452521064335
 10
1779.411047925093
 20
892.1452521064335
 10
1779.494462618545
 20
896.6031190399514
 10
1779.883992361163
 20
897.0000012721072
 10
1782.044930585624
 20
897.061673265575
 10
1782.127251795791
 20
898.8707408188853
 10
1779.163679619674
 20
898.9324139919103
  0
LWPOLYLINE
  5
1FE5
330
1F
100
AcDbEntity
  8
0
100
AcDbPolyline
 90
       15
 70
     1
 43
0.0
 10
1680.876870147578
 20
962.1187542708096
 10
1680.421415704003
 20
962.6040349142281
 10
1680.020712603243
 20
962.5124732039402
 42
-0.0522987929107897
 10
1679.082703069294
 20
962.4042110698855
 42
-0.0650975114563317
 10
1678.138546504527
 20
962.5180539635604
 42
-0.0779296107504542
 10
1677.250872802147
 20
962.9006136644388
 42
-0.076983631427567
 10
1676.505886437109
 20
963.5484060881648
 42
-0.092487745686755
 10
1676.028294256638
 20
964.3753287289159
 42
-0.0819704201389799
 10
1675.904060982167
 20
965.2901674933572
 42
0.072344574247495
 10
1675.794034254342
 20
966.2308982337879
 42
0.1855613251260875
 10
1675.217460628828
 20
967.0121322133075
 42
0.2294035353352163
 10
1674.318323864085
 20
966.880567266846
 10
1674.500505067508
 20
961.5121549409835
 10
1675.259597720154
 20
960.8145645321263
 10
1680.876870147578
 20
960.329283888708
  0
LWPOLYLINE
  5
1FE6
330
1F
100
AcDbEntity
  8
0
100
AcDbPolyline
 90
        6
 70
     1
 43
0.0
 10
1605.207772270864
 20
965.3936746603603
 10
1606.214944997575
 20
964.2758338022524
 10
1606.51336835329
 20
965.4681979346943
 10
1607.680568915021
 20
965.1760724849717
 10
1607.334026123926
 20
966.5115166980262
 10
1605.804616112258
 20
966.5487777454146
  0
LWPOLYLINE
  5
1FE7
330
1F
100
AcDbEntity
  8
0
100
AcDbPolyline
 90
       30
 70
     1
 43
0.0
 10
1595.114623063479
 20
907.6184679271882
 10
1588.846805572216
 20
914.6619583114107
 10
1588.663414804826
 20
914.913203014554
 42
-0.3058453954868066
 10
1588.646157353602
 20
915.7959321946993
 42
-0.183825751098763
 10
1589.397991911397
 20
916.4507769287993
 42
-0.1336565516020137
 10
1590.336537959632
 20
916.4617231841376
 42
-0.0607578714306602
 10
1591.218141420011
 20
916.1556450023843
 42
-0.0411447671404315
 10
1592.031237447988
 20
915.6687381183722
 42
-0.0030957746434992
 10
1592.815618185895
 20
915.0912815256253
 42
0.0446122620638117
 10
1593.622983189798
 20
914.5919219678598
 42
0.0993011583761599
 10
1594.506847207765
 20
914.3512527387292
 42
0.1112163016266888
 10
1595.465017336909
 20
914.5204451772924
 42
0.1420277333845672
 10
1596.226109953539
 20
915.108497742781
 42
0.1019433082591995
 10
1596.548425555554
 20
916.0318242674874
 42
-0.0966879714311746
 10
1596.837826761678
 20
916.9165940481475
 42
-0.2298096336345764
 10
1597.635092303232
 20
917.3160689715436
 42
-0.1754432103309485
 10
1598.55689071218
 20
917.0873848301598
 42
-0.1295644805600188
 10
1599.1295345114
 20
916.3555235633506
 42
-0.0472376003731847
 10
1599.457190780518
 20
915.3894411427847
 42
-0.0127164112861869
 10
1599.674506701826
 20
914.4376117820597
 42
-0.0144338006461363
 10
1599.829547693435
 20
913.532243614887
 42
-0.0144574376981197
 10
1599.932492129566
 20
912.6146650474748
 42
-0.0262873147559199
 10
1599.963228072149
 20
911.6704061653395
 42
-0.0425352918554758
 10
1599.865902614791
 20
910.7377992567691
 42
-0.0547298470873271
 10
1599.588734941299
 20
909.855492964238
 42
-0.047137642060074
 10
1599.132871932719
 20
909.0384866492048
 42
-0.0388651314042207
 10
1598.526479714535
 20
908.289706869329
 42
-0.0519927665220415
 10
1597.796894181624
 20
907.6432565338535
 42
-0.1121714202867199
 10
1596.966389940102
 20
907.2844881121753
 42
-0.0944323771438851
 10
1596.059992258569
 20
907.3359324140618
 42
-0.0266410939260982
  0
LWPOLYLINE
  5
1FE8
330
1F
100
AcDbEntity
  8
0
100
AcDbPolyline
 90
        4
 70
     1
 43
0.0
 10
1596.424819811802
 20
830.1669133560707
 10
1597.912071881269
 20
828.490846828379
 10
1600.886576020204
 20
830.7002078946407
 10
1599.43745810405
 20
832.5667376000771
  0
LWPOLYLINE
  5
1FE9
330
1F
100
AcDbEntity
  8
0
100
AcDbPolyline
 90
       10
 70
     1
 43
0.0
 10
1792.459974293888
 20
876.3644984700404
 10
1790.85721193102
 20
878.1720668055463
 10
1788.246257979062
 20
878.507758303766
 10
1789.823169937858
 20
880.1603929182485
 10
1788.582318972058
 20
882.4069418993222
 10
1790.702103766523
 20
881.7613817794986
 10
1792.253165321248
 20
882.9750345688553
 10
1792.666783266527
 20
880.6251964404328
 10
1794.889972547312
 20
879.8763459937029
 10
1792.615079588349
 20
878.5335811803818
  0
LWPOLYLINE
  5
1FEA
330
1F
100
AcDbEntity
  8
0
100
AcDbPolyline
 90
        4
 70
     1
 43
0.0
 10
1749.916683991366
 20
802.1352772482178
 10
1750.810564961632
 20
801.0935721197851
 10
1742.765647709377
 20
794.545712997577
 10
1741.722788969096
 20
795.4882078891001
  0
LWPOLYLINE
  5
1FEB
330
1F
100
AcDbEntity
  8
0
100
AcDbPolyline
 90
       12
 70
     1
 43
0.0
 10
1606.263468677117
 20
971.7455349406563
 10
1605.380476619147
 20
972.7745539262967
 10
1603.349588284735
 20
972.6569520261223
 10
1603.231856584345
 20
973.3625646067258
 10
1600.936072641567
 20
973.215562231508
 10
1600.08250992115
 20
973.0391593812463
 10
1603.673354048348
 20
967.9822635190596
 10
1605.763106797937
 20
969.6286948397306
 10
1605.91027357595
 20
970.9223192803207
 10
1607.117031397534
 20
970.0697031449415
 10
1608.735854475532
 20
970.3637090749353
 10
1608.676987190319
 20
971.8043358907435
  0
LWPOLYLINE
  5
1FEC
330
1F
100
AcDbEntity
  8
0
100
AcDbPolyline
 90
        5
 70
     1
 43
0.0
 10
1687.647959733379
 20
961.7244647064227
 10
1687.192505289805
 20
962.2704052828238
 10
1683.548869741213
 20
962.300735249315
 10
1683.366688537791
 20
960.3596138551992
 10
1687.55686769665
 20
960.329283888708
  0
LWPOLYLINE
  5
1FED
330
1F
100
AcDbEntity
  8
0
100
AcDbPolyline
 90
       15
 70
     1
 43
0.0
 10
1738.682497890878
 20
986.0903339891907
 10
1742.024102449924
 20
982.0677285558927
 10
1745.665596952502
 20
985.1488735697484
 42
0.117041731041811
 10
1745.611040100462
 20
986.1065477632491
 42
0.0986997235533588
 10
1745.056589029055
 20
986.8910386312407
 42
-0.0237213054046224
 10
1744.3455221312
 20
987.6583425446687
 42
-0.0038730485166197
 10
1743.719592649242
 20
988.4688681263394
 42
0.0616492624994178
 10
1743.064017972017
 20
989.1495261322321
 42
0.1055776139643574
 10
1742.239031220347
 20
989.5313081446532
 42
0.023880302621328
 10
1741.201686982501
 20
989.7186491135339
 42
0.1412655836983802
 10
1740.203065387493
 20
989.6743295776532
 42
0.2206889260432628
 10
1739.818880655867
 20
988.8764508686373
 42
-0.1751026032525083
 10
1739.37363096317
 20
987.9561598017785
 42
0.0702502024419155
 10
1738.693656760868
 20
987.2676469518479
 42
0.1595982884153413
 10
1738.642951799334
 20
986.3135595938794
  0
LWPOLYLINE
  5
1FEE
330
1F
100
AcDbEntity
  8
0
100
AcDbPolyline
 90
       10
 70
     1
 43
0.0
 10
1641.618254392426
 20
959.1142628124487
 10
1640.369289838049
 20
960.6873020545956
 10
1645.202242006321
 20
964.6470217295787
 10
1646.288300511461
 20
963.996109956585
 10
1644.27909529049
 20
961.5009432452851
 10
1644.170487430951
 20
959.7109338053259
 10
1647.645872925377
 20
960.4703318567835
 10
1647.917386834153
 20
954.666358423052
 10
1644.007581381713
 20
953.3102905582747
 10
1643.355945704622
 20
955.6427278518793
  0
LWPOLYLINE
  5
1FEF
330
1F
100
AcDbEntity
  8
0
100
AcDbPolyline
 90
        5
 70
     1
 43
0.0
 10
1612.407191600686
 20
958.87293120998
 10
1608.714225892754
 20
963.7169121936405
 10
1607.408632680363
 20
962.0401497269206
 10
1611.773045916091
 20
955.6684516456503
 10
1612.519100000324
 20
956.152849979928
  0
LWPOLYLINE
  5
1FF0
330
1F
100
AcDbEntity
  8
0
100
AcDbPolyline
 90
        4
 70
     1
 43
0.0
 10
1594.518089185852
 20
833.8237874958457
 10
1595.85280177203
 20
831.9953504259585
 10
1598.484092791075
 20
834.0904347651308
 10
1597.64512993804
 20
836.2997958313922
  0
LWPOLYLINE
  5
1FF1
330
1F
100
AcDbEntity
  8
0
100
AcDbPolyline
 90
        5
 70
     1
 43
0.0
 10
1776.977175124594
 20
902.2580258725341
 10
1777.516351355351
 20
901.4800769175256
 10
1782.009494265088
 20
901.719445736024
 10
1781.230681602852
 20
902.9162910080726
 10
1777.602931697265
 20
902.8577731518277
  0
LWPOLYLINE
  5
1FF2
330
1F
100
AcDbEntity
  8
0
100
AcDbPolyline
 90
       38
 70
     1
 43
0.0
 10
1754.966788737948
 20
919.5909924807684
 10
1750.645968461856
 20
925.8516151544782
 42
-0.0008935053973574
 10
1751.220755716405
 20
926.1976354908384
 42
-0.0048049098942984
 10
1752.01817217006
 20
926.6657857048732
 42
-0.0088219969887072
 10
1752.823841781057
 20
927.1097534044818
 42
-0.0129618269552974
 10
1753.642552129446
 20
927.5155105372189
 42
-0.0171914431702368
 10
1754.479090795287
 20
927.8690290506435
 42
-0.0213680179272802
 10
1755.33824535864
 20
928.1562808923156
 42
-0.0222258367635653
 10
1756.223694394173
 20
928.3659521576906
 42
-0.0134819988711847
 10
1757.128411188611
 20
928.5129287560492
 42
-0.0049312044053916
 10
1758.039376392298
 20
928.626762802609
 42
0.0035584716401295
 10
1758.943504836979
 20
928.7371674951033
 42
0.0101109904582633
 10
1759.828660245542
 20
928.8718599116052
 42
-0.0059052486345249
 10
1761.13513390919
 20
929.0941081203353
 42
-0.017087679474589
 10
1762.019485595114
 20
929.2009969921847
 42
-0.0266945957665005
 10
1762.936931168155
 20
929.230297611094
 42
-0.0331000760581689
 10
1763.906669336024
 20
929.1438097149775
 42
-0.0523945158833009
 10
1764.914940643559
 20
928.8932919605134
 42
-0.2571872492161292
 10
1765.524103297583
 20
928.3014066802783
 42
0.0545447624952204
 10
1765.61938402249
 20
927.4038599430197
 42
0.093876964340222
 10
1766.09100023734
 20
926.6615353286139
 42
-0.0270152412882361
 10
1766.724302556976
 20
925.8855306227527
 42
-0.1159164508079925
 10
1767.121785391994
 20
924.9804356978486
 42
-0.3101854182477435
 10
1766.764422264308
 20
924.2768491057802
 42
-0.0132717699683526
 10
1765.911342655468
 20
923.7768231624247
 42
0.0203312175786126
 10
1765.131327450832
 20
923.2667588944099
 42
0.0155870828748153
 10
1764.427131535269
 20
922.7292348365356
 42
0.0133618645615647
 10
1763.758483533331
 20
922.1597263569078
 42
0.0423919123427083
 10
1763.135323061989
 20
921.4957057011988
 42
0.0029128053454471
 10
1762.582965269276
 20
920.6920547648088
 42
-0.3321509501350405
 10
1761.760569739213
 20
920.593432784708
 42
0.0508073484691131
 10
1760.828099371248
 20
920.776141107324
 42
0.042904894606217
 10
1759.934189130183
 20
920.7752795882958
 42
0.0302788929201409
 10
1759.027597129327
 20
920.6448716144846
 42
0.028150086944264
 10
1758.144545099086
 20
920.4117604871068
 42
0.0355333824162652
 10
1757.323938830077
 20
920.0827760267433
 42
0.0407144459544606
 10
1756.520479074283
 20
919.6025020055504
 42
-0.1016923756740012
 10
1755.698652184497
 20
919.1174364078012
 42
-0.2398594374162348
  0
LWPOLYLINE
  5
1FF3
330
1F
100
AcDbEntity
  8
0
100
AcDbPolyline
 90
        9
 70
     1
 43
0.0
 10
1642.305237418972
 20
954.3551073598534
 10
1639.222398073811
 20
959.6602482120413
 10
1637.482020408978
 20
959.611958300394
 10
1638.013803429911
 20
958.5978630784548
 10
1638.013803429911
 20
955.1692545807853
 10
1636.128397163043
 20
952.8513223079075
 10
1636.128397163043
 20
951.3543244308223
 10
1637.259601316683
 20
950.3310003496356
 10
1642.344967311673
 20
952.9014688433353
  0
LWPOLYLINE
  5
1FF4
330
1F
100
AcDbEntity
  8
0
100
AcDbPolyline
 90
        6
 70
     1
 43
0.0
 10
1618.069064369984
 20
971.7046927561675
 10
1616.848504550711
 20
974.1010703326479
 10
1611.966256663517
 20
974.3112793058681
 10
1614.912439298359
 20
977.0439912395012
 10
1619.163362745234
 20
973.4704445925446
 10
1619.12127368387
 20
971.6206091668793
  0
LWPOLYLINE
  5
1FF5
330
1F
100
AcDbEntity
  8
0
100
AcDbPolyline
 90
        3
 70
     1
 43
0.0
 10
1770.449194712464
 20
903.6845616923596
 10
1768.55729642672
 20
907.7299207932041
 42
0.4384994559201806
 10
1768.11388464946
 20
901.61758975125
  0
LWPOLYLINE
  5
1FF6
330
1F
100
AcDbEntity
  8
0
100
AcDbPolyline
 90
        3
 70
     1
 43
0.0
 10
1649.50593391431
 20
960.9339074594286
 10
1649.114662060528
 20
963.6998310189524
 10
1653.087559489508
 20
963.6697664529377
  0
LWPOLYLINE
  5
1FF7
330
1F
100
AcDbEntity
  8
0
100
AcDbPolyline
 90
        4
 70
     1
 43
0.0
 10
1696.447721986672
 20
768.4406047962874
 10
1696.124513009824
 20
771.2171455544416
 10
1693.280251053275
 20
767.5366153854993
 10
1695.025593878433
 20
767.0846195005473
  0
LWPOLYLINE
  5
1FF8
330
1F
100
AcDbEntity
  8
0
100
AcDbPolyline
 90
        3
 70
     1
 43
0.0
 10
1662.128037307391
 20
778.410363092111
 10
1661.931029503832
 20
782.5710499059326
 10
1665.083145750677
 20
780.912398367751
  0
LWPOLYLINE
  5
1FF9
330
1F
100
AcDbEntity
  8
0
100
AcDbPolyline
 90
        4
 70
     1
 43
0.0
 10
1701.295893949859
 20
780.2570432009964
 10
1701.813031182852
 20
768.8280293350072
 10
1698.38699019794
 20
768.6988878221005
 10
1698.128423016461
 20
778.3844930331877
  0
LWPOLYLINE
  5
1FFA
330
1F
100
AcDbEntity
  8
0
100
AcDbPolyline
 90
        6
 70
     1
 43
0.0
 10
1595.638476178068
 20
926.7462943165398
 10
1595.693268013764
 20
923.0246978471503
 10
1602.43243994178
 20
922.586863731642
 10
1604.952781152832
 20
921.2186299090074
 10
1607.47311949385
 20
923.8456381407312
 10
1599.090247025586
 20
930.7415375504564
  0
LWPOLYLINE
  5
1FFB
330
1F
100
AcDbEntity
  8
0
100
AcDbPolyline
 90
        3
 70
     1
 43
0.0
 10
1772.666262208872
 20
899.4915620755955
 10
1772.69582356803
 20
896.656858508056
 42
0.4608967647736026
 10
1775.977082773906
 20
899.550618989698
  0
LWPOLYLINE
  5
1FFC
330
1F
100
AcDbEntity
  8
0
100
AcDbPolyline
 90
        5
 70
     1
 43
0.0
 10
1685.971888069835
 20
758.5778948981221
 10
1685.931644440892
 20
763.2009199585877
 10
1683.55720145244
 20
763.1607194534738
 42
-0.5985949559091074
 10
1681.907166745234
 20
760.5477054940035
 42
0.4873429228600694
 10
1684.052347908152
 20
758.5611852197192
  0
LWPOLYLINE
  5
1FFD
330
1F
100
AcDbEntity
  8
0
100
AcDbPolyline
 90
        5
 70
     1
 43
0.0
 10
1792.553402539
 20
900.7021279625169
 10
1792.553402539
 20
902.3178683720482
 10
1791.534956315319
 20
902.9761335075864
 10
1788.359802298576
 20
902.9761335075864
 10
1788.299893190707
 20
900.7021279625169
  0
LWPOLYLINE
  5
1FFE
330
1F
100
AcDbEntity
  8
0
100
AcDbPolyline
 90
        3
 70
     1
 43
0.0
 10
1774.568432349414
 20
942.3833589552232
 10
1774.568432349414
 20
938.3157298054795
 10
1778.209401635611
 20
940.1341996130152
  0
LWPOLYLINE
  5
1FFF
330
1F
100
AcDbEntity
  8
0
100
AcDbPolyline
 90
        3
 70
     1
 43
0.0
 10
1661.105937529323
 20
750.1930327581923
 10
1661.011521992215
 20
746.5148617045993
 10
1664.190214761953
 20
748.5582896745206
  0
LWPOLYLINE
  5
2000
330
1F
100
AcDbEntity
  8
0
100
AcDbPolyline
 90
       14
 70
     1
 43
0.0
 10
1741.150857030371
 20
767.41158934932
 10
1741.459632601876
 20
769.3135977904851
 42
0.000911853204323
 10
1742.656061106013
 20
768.3982744426693
 42
0.0014025619596881
 10
1743.473616771282
 20
767.7789720187356
 42
-0.0198043010436606
 10
1744.732508065769
 20
766.8091346675192
 42
-0.0929231240328621
 10
1745.385501582226
 20
766.0146855131495
 42
-0.148165834113315
 10
1745.581328966655
 20
764.9630042760844
 10
1745.402780591673
 20
764.5587664842958
 10
1745.010659477876
 20
764.4805711935559
 42
-0.0941217773883193
 10
1743.901877119524
 20
764.9693529051923
 42
-0.0284573865478802
 10
1742.879657399266
 20
765.6876258724447
 42
-0.0268475611346091
 10
1742.097317742834
 20
766.3803956132875
 42
-0.0172450843612764
 10
1741.46125924004
 20
767.0564383250363
 10
1741.168204578366
 20
767.3916038742775
  0
LWPOLYLINE
  5
2001
330
1F
100
AcDbEntity
  8
0
100
AcDbPolyline
 90
       32
 70
     1
 43
0.0
 10
1771.657040277264
 20
822.139800442879
 10
1771.911049843369
 20
823.3450064197262
 10
1771.701941257803
 20
823.4312767131733
 42
-0.0018998025464547
 10
1770.777357802824
 20
823.816087531598
 42
-0.0045294098708015
 10
1769.859021454577
 20
824.2122202014984
 42
-0.0071826341133277
 10
1768.952028580133
 20
824.6289110482331
 42
-0.0098556147680339
 10
1768.061475546508
 20
825.0753963971819
 42
-0.0124425888206784
 10
1767.192421274924
 20
825.560845220836
 42
-0.0092094619546391
 10
1766.345120947046
 20
826.0857861213041
 42
-0.0038807845964441
 10
1765.510349721352
 20
826.633696211886
 42
0.0014145245258512
 10
1764.677772267589
 20
827.1860551965193
 42
0.0067179641464082
 10
1763.837053255452
 20
827.7243427791797
 42
0.0107351294736471
 10
1762.978512251808
 20
828.2312073668373
 42
0.0085397631970915
 10
1762.100929775823
 20
828.7043964406995
 42
0.0060874498791088
 10
1761.208976559534
 20
829.152168918366
 42
0.0036440732872036
 10
1760.307442849726
 20
829.5829969985611
 42
0.0012129515735496
 10
1759.401118893135
 20
830.005352880031
 10
1757.242046191339
 20
826.3897361290464
 42
-0.0025978753377801
 10
1758.22666579076
 20
826.2171364425501
 42
-0.0078357374357409
 10
1759.204835995392
 20
826.0245751483477
 42
-0.0131668554762088
 10
1760.170107410493
 20
825.7920906387251
 42
-0.0184656893742753
 10
1761.116052747021
 20
825.4997892646548
 42
-0.0147807011544354
 10
1762.040714303541
 20
825.141518029182
 42
-0.0072482059044746
 10
1762.952002182588
 20
824.7414600811673
 42
0.0039729793704464
 10
1764.314047326925
 20
824.1247948483671
 42
0.0113383220874121
 10
1765.232275063489
 20
823.743801806666
 42
0.012899832386037
 10
1766.166624782825
 20
823.4112996009276
 42
0.0108029060980993
 10
1767.115798378801
 20
823.1234300531689
 42
0.0086780532233763
 10
1768.077176456385
 20
822.8723065244627
 42
0.006559331629411
 10
1769.048139620547
 20
822.6500423758832
 42
0.0044620147096645
 10
1770.026068476253
 20
822.4487509685044
 42
0.0023873762411744
 10
1771.008343628439
 20
822.2605456634061
 42
0.0003698996882632
  0
LWPOLYLINE
  5
2002
330
1F
100
AcDbEntity
  8
0
100
AcDbPolyline
 90
        4
 70
     1
 43
0.0
 10
1669.290878042799
 20
779.9709214345007
 10
1666.496072527124
 20
775.8118388191173
 10
1664.670891071962
 20
777.4071032869717
 10
1667.693847139567
 20
780.7685536684283
  0
LWPOLYLINE
  5
2003
330
1F
100
AcDbEntity
  8
0
100
AcDbPolyline
 90
       30
 70
     1
 43
0.0
 10
1588.181161254926
 20
882.0335540969322
 10
1590.624436289657
 20
881.9226190567311
 42
0.0010706125720143
 10
1590.46832365875
 20
880.515627171535
 42
0.0018671536289551
 10
1590.364031360423
 20
879.5211870146237
 42
0.0028461137284167
 10
1590.269182924173
 20
878.5265050995777
 42
0.0038288786551882
 10
1590.187688725791
 20
877.5314813227565
 42
0.0048147649464451
 10
1590.12345914106
 20
876.5360155804856
 42
0.0058013062560469
 10
1590.08040454577
 20
875.5400077691152
 42
0.006529858699236
 10
1590.062181664238
 20
874.54336427834
 42
0.0054403615339498
 10
1590.067951008728
 20
873.5461065986225
 42
0.0042246797802274
 10
1590.09301431727
 20
872.5483550031082
 42
0.003012565508857
 10
1590.132548098853
 20
871.5502329707437
 42
0.0018050990694946
 10
1590.18172886246
 20
870.551863980504
 42
0.0006012518023693
 10
1590.235733117083
 20
869.5533715112857
 42
-0.0113598121476751
 10
1589.237750201188
 20
869.6246108104171
 42
-0.0334854971771453
 10
1588.241511516512
 20
869.7868829002006
 42
-0.0469519653206551
 10
1587.257295539924
 20
870.1218007510016
 42
-0.0536371028038968
 10
1586.353142874075
 20
870.6472213942356
 42
-0.068584335828143
 10
1585.621041816419
 20
871.3545691816502
 42
-0.0850727779413887
 10
1585.150065820651
 20
872.2334301799461
 42
-0.0662633772936354
 10
1584.961089483008
 20
873.2334272651808
 42
-0.0509968250330817
 10
1585.007128669133
 20
874.2644194304203
 42
-0.0409279526663412
 10
1585.237237012159
 20
875.2502168109804
 42
-0.0263449303796711
 10
1585.595518748407
 20
876.1892968809894
 42
-0.0110973701990636
 10
1586.024605023314
 20
877.1023603834642
 42
0.0037170964736821
 10
1586.467339670032
 20
878.0100352736942
 42
0.0061657593004861
 10
1586.88749399872
 20
878.9254298146421
 42
0.0045824793732443
 10
1587.287111225221
 20
879.8479003508617
 42
0.0029820979639926
 10
1587.672317815416
 20
880.7753360274258
 42
0.0013734394882487
 10
1588.049240235171
 20
881.7056259893714
  0
LWPOLYLINE
  5
2004
330
1F
100
AcDbEntity
  8
0
100
AcDbPolyline
 90
       64
 70
     1
 43
0.0
 10
1575.903284104045
 20
812.0602913827644
 10
1579.143005295252
 20
811.8805055610918
 10
1599.751247626456
 20
827.4319413899331
 10
1602.091049294031
 20
828.1510823175086
 42
-0.0027878667866488
 10
1602.838720305844
 20
827.4894585884782
 42
-0.0085805982075025
 10
1603.561939530681
 20
826.8197394739431
 42
-0.0149812153742252
 10
1604.23646940279
 20
826.133656792709
 42
-0.0204034553672312
 10
1604.849920797242
 20
825.4133851431697
 42
-0.0235002931867351
 10
1605.407714079289
 20
824.6267335860338
 42
-0.0238042423171496
 10
1605.916738468234
 20
823.7403263711032
 42
-0.0340839240651887
 10
1606.364668710335
 20
822.7303626628609
 42
-0.2694417659310006
 10
1606.284258126875
 20
821.7999586839113
 42
-0.289089039040815
 10
1605.401729048306
 20
821.5139848374896
 42
-0.15117371490825
 10
1604.623829262672
 20
822.1627961985669
 42
-0.021505982402896
 10
1604.004974384154
 20
823.1034655705647
 42
-0.0119669411032377
 10
1603.501723473067
 20
823.9749415880051
 42
-0.0091492128875164
 10
1603.065520639833
 20
824.8118218337966
 42
-0.0040860856709444
 10
1602.647761239019
 20
825.6687624979608
 42
-0.0007345246543651
 10
1602.301704113405
 20
826.3945876497443
 10
1601.892290380616
 20
826.3200674869326
 42
0.0952105354476023
 10
1601.036115010374
 20
826.0179559630925
 42
0.2258563817194087
 10
1600.641703832752
 20
825.345176472873
 42
0.0580244180690219
 10
1600.643492542797
 20
824.4000489459454
 42
0.0007575274659702
 10
1600.720659476835
 20
823.5036966034286
 42
0.016771819092238
 10
1600.825585203442
 20
822.6444458782287
 42
0.0036802139550098
 10
1601.004878019914
 20
821.688246678303
 42
-0.2446964889610028
 10
1600.857693306851
 20
820.8945597370465
 42
-0.1215044850249328
 10
1600.00104685141
 20
820.5727085305282
 42
0.0282365241835468
 10
1599.016565436267
 20
820.4691397427716
 42
0.0883016562472771
 10
1598.129995750741
 20
820.1560524860097
 42
0.0532498945750149
 10
1597.360588239231
 20
819.5834196887451
 42
0.0069842994200468
 10
1596.632161174804
 20
818.8947098514477
 42
-0.0325514719396355
 10
1595.865674693101
 20
818.2438255138562
 42
-0.0644129786255596
 10
1595.020784311501
 20
817.768469255391
 42
-0.074778460190209
 10
1594.089549188401
 20
817.5699940051309
 42
-0.0203116029085698
 10
1593.102981847566
 20
817.5490135627635
 42
0.0170140722443808
 10
1592.10821803868
 20
817.523271557231
 42
0.0295906279503616
 10
1591.135713696668
 20
817.4073135463702
 42
0.0434558663903767
 10
1590.20891611463
 20
817.1563306318978
 42
0.0442306636278135
 10
1589.345591060507
 20
816.7402993943317
 42
0.0309635118201107
 10
1588.540005977709
 20
816.1900386570376
 42
0.0188943720571925
 10
1587.780329168224
 20
815.5521592392494
 42
0.009727544752689
 10
1587.055581556531
 20
814.8718444655866
 42
0.0170725486480133
 10
1586.374026716372
 20
814.162060612001
 42
0.0263298188996116
 10
1585.762968656555
 20
813.4038954633608
 42
0.0352806460878939
 10
1585.250523575618
 20
812.5770769940391
 42
0.0409283707727785
 10
1584.863656966611
 20
811.6622405404102
 42
0.0084533039519752
 10
1584.568063592346
 20
810.6883350451479
 42
-0.0318017783730816
 10
1584.238686537423
 20
809.7558695716479
 42
-0.0818270132649847
 10
1583.743135276043
 20
808.9711359308656
 42
-0.0633227629655751
 10
1582.999261611603
 20
808.3904402848737
 42
0.0345021786813594
 10
1582.180151452684
 20
807.8161785789678
 42
0.0332978717118351
 10
1581.460065581256
 20
807.0819539140982
 42
-0.0271514102137996
 10
1580.771485545007
 20
806.360135830598
 42
-0.1065471014943037
 10
1580.001208160382
 20
805.8871012939608
 42
-0.0806497139660343
 10
1579.038377677456
 20
805.7921599879753
 42
-0.0810650523646804
 10
1577.954597781849
 20
805.9307875189624
 10
1577.632833092215
 20
806.1937650412222
 10
1577.584681681749
 20
806.6433101135363
 42
0.0540018612902306
 10
1577.642527751801
 20
807.6904799913084
 42
0.0577226714650254
 10
1577.455252411556
 20
808.649995553384
 42
0.0295310337322832
 10
1577.107221550108
 20
809.5499823323752
 42
0.0057752352075219
 10
1576.699770122474
 20
810.4297184327034
 42
0.0030399852260805
 10
1576.275924057866
 20
811.3051784948819
 42
0.0007863425858307
  0
LWPOLYLINE
  5
2005
330
1F
100
AcDbEntity
  8
0
100
AcDbPolyline
 90
       19
 70
     1
 43
0.0
 10
1719.457552096126
 20
951.0116593876292
 10
1722.729868273348
 20
948.7780536929207
 42
-0.0485827485544508
 10
1723.10396861353
 20
949.696011297002
 42
-0.0730863001809136
 10
1723.723840067834
 20
950.4614381702502
 42
-0.028786746439526
 10
1724.502641232097
 20
951.1033744444722
 42
0.0026810066331992
 10
1725.295351555097
 20
951.6971520749988
 42
0.0236778376922671
 10
1726.061177990033
 20
952.3370823348123
 42
0.186349063782626
 10
1726.553426037158
 20
953.1783780976544
 42
0.1622144706391274
 10
1726.344538018676
 20
954.1392135081975
 42
0.0710384846764682
 10
1725.699273723477
 20
954.9081473134783
 10
1725.516115345041
 20
955.0817243239716
 10
1725.480993788308
 20
955.0483129562843
 10
1725.124048467382
 20
954.7117865180984
 42
-0.0213150671605537
 10
1724.382536642965
 20
954.0716629157902
 42
-0.0308239232654166
 10
1723.576282141234
 20
953.514402899305
 42
-0.0367863709074307
 10
1722.695316607652
 20
953.0676459386457
 42
-0.0146832481787618
 10
1721.752326335469
 20
952.7252726251731
 42
0.0352607171585209
 10
1720.841144749707
 20
952.3528380356166
 42
0.0871803513957178
 10
1720.074185910051
 20
951.786177988972
 42
0.0338304442194944
  0
LWPOLYLINE
  5
2006
330
1F
100
AcDbEntity
  8
0
100
AcDbPolyline
 90
       38
 70
     1
 43
0.0
 10
1739.467636109967
 20
783.2915508635069
 10
1740.441611143341
 20
784.0050075026472
 10
1739.878136688347
 20
784.5340805106862
 42
0.001423281360893
 10
1739.166989775835
 20
785.1972665968856
 42
0.0025216047642933
 10
1738.450517700725
 20
785.8549262673656
 42
0.0036176836442794
 10
1737.725753658738
 20
786.5039805937985
 42
0.0047086008569742
 10
1736.989730845573
 20
787.141350647878
 42
0.0057893984075763
 10
1736.239482456936
 20
787.7639575012892
 42
0.0068525543875653
 10
1735.472041688539
 20
788.3687222257131
 42
0.0078875964537246
 10
1734.684441736094
 20
788.9525658928326
 42
0.0088809431522733
 10
1733.873715795303
 20
789.5124095743351
 42
0.0094540252919853
 10
1733.03716586734
 20
790.0454307876475
 42
0.0025122816092335
 10
1732.18339032343
 20
790.559584011409
 42
-0.005779723032792
 10
1731.336171360554
 20
791.0773093952878
 42
-0.014418266440886
 10
1730.520358852927
 20
791.6220656742782
 42
-0.0236625924081337
 10
1729.760802674789
 20
792.2173115833572
 42
-0.033233361417647
 10
1729.082352700373
 20
792.8865058575082
 42
-0.0329095284507241
 10
1728.501442550926
 20
793.6452694051032
 42
-0.022751800449702
 10
1728.000230430433
 20
794.4773033742482
 42
-0.0131865018429
 10
1727.552150330469
 20
795.3581842922377
 42
-0.004304991570458
 10
1727.130636240769
 20
796.2634886846498
 10
1726.026800739647
 20
795.4851717076455
 42
0.0034720642432591
 10
1726.492819088045
 20
794.6012546994312
 42
0.0105346746884533
 10
1726.980581471865
 20
793.7356082620364
 42
0.017876749077633
 10
1727.511831926525
 20
792.9065029662851
 42
0.0251358693547536
 10
1728.108113787884
 20
792.1320436781982
 42
0.0225470881618857
 10
1728.777554251204
 20
791.4192584142226
 42
0.0172491733776464
 10
1729.506654323728
 20
790.7573198299631
 42
0.0120650920245198
 10
1730.27995404068
 20
790.133781531773
 42
0.0070923222386193
 10
1731.081993437261
 20
789.5361971260239
 42
0.0022356580635489
 10
1732.305127424389
 20
788.6612628209482
 42
-0.0017248424619797
 10
1733.115345248517
 20
788.0772290603612
 42
-0.0015348468486296
 10
1733.918703512149
 20
787.4901415826053
 42
-0.0013405591385583
 10
1734.716053378481
 20
786.9003793057591
 42
-0.0011425462601825
 10
1735.508246010686
 20
786.3083211479175
 42
-0.0009413770688205
 10
1736.296132571929
 20
785.7143460271836
 42
-0.0007376208948761
 10
1737.080564225355
 20
785.1188328616722
 42
-0.0007459868277175
 10
1738.252595672854
 20
784.2235081627221
  0
LWPOLYLINE
  5
2007
330
1F
100
AcDbEntity
  8
0
100
AcDbPolyline
 90
        2
 70
     1
 43
0.0
 10
1775.709888267608
 20
845.3715910765877
 10
1768.326126598107
 20
845.2601771359754
 42
0.3415898650548457
  0
LWPOLYLINE
  5
2008
330
1F
100
AcDbEntity
  8
0
100
AcDbPolyline
 90
        9
 70
     1
 43
0.0
 10
1626.796754982095
 20
981.8070252276028
 10
1626.613988795252
 20
981.4079705105976
 10
1626.838442789679
 20
980.99968585158
 42
-0.0084126889225769
 10
1627.567098557113
 20
980.2959613514785
 42
0.1392986799895148
 10
1628.459994895486
 20
979.819815280322
 42
0.3470597231218452
 10
1629.345141655426
 20
980.1370759157956
 42
0.2224528198839747
 10
1629.381963960176
 20
981.1473122680848
 42
0.168553239627829
 10
1628.722176740454
 20
981.9195321628633
 42
0.1144613202398528
 10
1627.772257540167
 20
982.192853321642
 42
0.1999425045673176
  0
LWPOLYLINE
  5
2009
330
1F
100
AcDbEntity
  8
0
100
AcDbPolyline
 90
       61
 70
     1
 43
0.0
 10
1633.144553130624
 20
980.8137394688428
 10
1632.916085742794
 20
981.2515451719935
 10
1632.382946116622
 20
981.37285965381
 10
1631.897001086555
 20
981.1249060094416
 10
1631.798705568642
 20
980.6820204461358
 42
-0.3118426664597851
 10
1631.67723873759
 20
979.7254324004972
 42
-0.1650385993007473
 10
1630.739698107402
 20
979.4264679913766
 42
0.2159338784346135
 10
1629.849016241781
 20
979.0070936584882
 42
0.2190008538974824
 10
1630.110390441519
 20
978.0592397647934
 42
-0.002984850743924
 10
1630.607431482573
 20
977.1270953356284
 42
0.0584736804389401
 10
1631.140345796459
 20
976.3457625143706
 42
0.091577639765055
 10
1631.927579107457
 20
975.7348280204601
 42
0.1331645851968058
 10
1632.896730958623
 20
975.5245584014476
 42
0.0796528144032894
 10
1633.861521711098
 20
975.7328123793737
 42
0.0382540218676473
 10
1634.757916974731
 20
976.1647045354363
 42
-0.0011683422004279
 10
1635.630105072722
 20
976.6665114585071
 42
-0.0106931922051004
 10
1636.51091717767
 20
977.1315966357507
 42
-0.0052483982339905
 10
1637.399758408547
 20
977.5651768302477
 10
1637.789627876276
 20
977.7505156181858
 42
0.0024571543906364
 10
1638.123107256542
 20
977.0378244289716
 42
0.011538938580084
 10
1638.573286564541
 20
976.1402763575734
 42
0.0209249706962707
 10
1639.076154386969
 20
975.281443344526
 42
0.028690216900621
 10
1639.65993025706
 20
974.4820546102364
 42
0.0202132672271106
 10
1640.323251552572
 20
973.7409693546434
 42
0.0104099340850456
 10
1641.036393138374
 20
973.0360784361787
 42
0.0009184187785592
 10
1641.768488135995
 20
972.3444286251355
 42
-0.0067263859245277
 10
1642.490188054727
 20
971.64418656166
 42
-0.0072814054286872
 10
1643.189458783063
 20
970.9262889141628
 42
-0.0076125143507036
 10
1643.865278867559
 20
970.1897946146926
 42
-0.0079309767220855
 10
1644.516803433246
 20
969.4338928287892
 42
-0.0082330266914662
 10
1645.143187605145
 20
968.6577727220063
 42
-0.0076791679091806
 10
1645.744276585158
 20
967.861191146015
 42
-0.0046219272922534
 10
1646.326232142384
 20
967.049101225151
 42
-0.0015381546894985
 10
1646.898604816395
 20
966.2292438282213
 42
0.0008466542825955
 10
1646.34936795554
 20
967.6249445857683
 42
0.0013556259128545
 10
1645.979153767407
 20
968.5533899218198
 42
0.0020356398300795
 10
1645.60285515793
 20
969.4788025043916
 42
0.0027178820129859
 10
1645.218038358571
 20
970.399969232098
 42
0.0034023998899709
 10
1644.822269600788
 20
971.315677003561
 42
0.0040886330739385
 10
1644.413115116052
 20
972.2247127173693
 42
0.0047752524805308
 10
1643.988141135815
 20
973.1258632721536
 42
0.0053841550813921
 10
1643.544981508106
 20
974.0179492696899
 42
0.0048618922680739
 10
1643.083406058051
 20
974.9008559803222
 42
0.0041752985882398
 10
1642.605703859057
 20
975.7757243827667
 42
0.003488861115909
 10
1642.114308910401
 20
976.6437676934337
 42
0.002804017332634
 10
1641.61165521136
 20
977.5061991287163
 42
0.0021214156632376
 10
1641.100176761202
 20
978.3642319050363
 42
0.0014410763763385
 10
1640.582307559211
 20
979.2190792387813
 42
0.0009744272563446
 10
1639.798845469993
 20
980.4980314453944
 10
1639.733089208488
 20
980.6050652436047
 42
-0.0014516704824402
 10
1638.930124516283
 20
980.0104577211186
 42
-0.0044139025353675
 10
1638.125681379808
 20
979.4291940476208
 42
-0.007569503016691
 10
1637.31820257172
 20
978.8745849036587
 42
-0.0116524557785285
 10
1636.499092966155
 20
978.3569779484219
 42
-0.0154113497774869
 10
1635.647259460699
 20
977.8814590755713
 42
-0.0180809849897134
 10
1634.740323942952
 20
977.4525731774954
 42
-0.0207779569783921
 10
1633.756580245509
 20
977.076709268586
 42
-0.2549641477105538
 10
1632.809566370812
 20
977.1266306992435
 42
-0.1810246018338401
 10
1632.30245988671
 20
977.992917557089
 42
-0.099099368778803
 10
1632.336463712439
 20
979.0001981219608
 42
-0.0649408620903947
 10
1632.650824932909
 20
979.9368138510043
 42
0.045661544892408
  0
LWPOLYLINE
  5
200A
330
1F
100
AcDbEntity
  8
0
100
AcDbPolyline
 90
       17
 70
     1
 43
0.0
 10
1771.409637954459
 20
896.4068352936715
 10
1771.33510906213
 20
896.905111004793
 10
1771.319188382509
 20
896.9990906535825
 42
0.0675527482112423
 10
1771.359956796325
 20
897.9795732011051
 42
0.1814784255960989
 10
1770.913893858756
 20
898.8153785197139
 42
0.1415067061481883
 10
1770.006741740091
 20
899.2012905136968
 42
0.0997653942956316
 10
1768.998053023079
 20
899.1452455522653
 42
0.0844541472985044
 10
1768.122700015825
 20
898.7403472871706
 42
0.0495990193835549
 10
1767.359631934451
 20
898.0948314425782
 42
0.134059652433665
 10
1766.818698008066
 20
897.2878362583665
 42
0.1485095500452318
 10
1766.973917253646
 20
896.3350149526991
 42
0.0610038066188757
 10
1767.447190683802
 20
895.4465546698719
 42
0.0982778171565535
 10
1768.128879342169
 20
894.7891224272078
 42
0.0779560939616877
 10
1769.024166236485
 20
894.4340895882588
 42
0.0590190513319408
 10
1770.035340937837
 20
894.2842459976468
 42
0.1954987686911115
 10
1770.917020654257
 20
894.5932499740269
 42
0.1494346020789334
 10
1771.388120970588
 20
895.4399221635382
 42
0.0848722566607705
  0
LWPOLYLINE
  5
200B
330
1F
100
AcDbEntity
  8
0
100
AcDbPolyline
 90
       15
 70
     1
 43
0.0
 10
1761.100371355099
 20
917.7934829236782
 10
1760.969717263902
 20
918.263414125186
 10
1760.59552735568
 20
918.4908800656582
 42
0.0222412947350739
 10
1759.536039685853
 20
918.5576670044692
 42
0.0091512445583451
 10
1758.547094375397
 20
918.6059305647454
 42
0.047549154577749
 10
1757.601248226963
 20
918.5440789891393
 42
0.1136470415559884
 10
1756.684231095842
 20
918.2011319865052
 10
1756.352666531803
 20
917.8229478207795
 10
1756.427495393474
 20
917.3680473377801
 42
-0.0266803360581915
 10
1756.946254777752
 20
916.47625678451
 42
-0.009004773762763
 10
1757.271475528892
 20
915.796269333332
 42
0.0221276632790258
 10
1758.25897794753
 20
915.6701603059115
 42
0.0688067663678086
 10
1759.235364683356
 20
915.7231274788294
 42
0.0902192707381643
 10
1760.15885371495
 20
916.0993722649788
 42
0.1148323074318341
 10
1760.846326735356
 20
916.7840662222486
 42
0.1423278185392842
  0
LWPOLYLINE
  5
200C
330
1F
100
AcDbEntity
  8
0
100
AcDbPolyline
 90
       24
 70
     1
 43
0.0
 10
1683.350153084445
 20
982.5566573419651
 10
1683.513199090355
 20
983.0004910474665
 10
1683.939601379554
 20
983.2153718879043
 42
-0.1245287956979252
 10
1685.034589944502
 20
983.1226205206887
 42
-0.086825274821677
 10
1685.897546292827
 20
982.638871962955
 42
-0.0185357877779091
 10
1686.652254251994
 20
981.9805416351476
 42
-0.0586341162613004
 10
1687.310375088599
 20
981.2239403159669
 42
-0.1127231898236387
 10
1687.653602305466
 20
980.318429487543
 42
-0.0811924734286659
 10
1687.624262624106
 20
979.3037028408496
 42
0.0590896036695099
 10
1687.465287437596
 20
978.3125263589623
 42
0.1772654585104245
 10
1687.929110412607
 20
977.4880274210415
 42
0.1261240336743678
 10
1688.737878499433
 20
976.8996476106103
 42
-0.1622251409422257
 10
1689.414286033597
 20
976.1493259607828
 42
-0.2854781885375827
 10
1689.385937418597
 20
975.1933790965804
 42
-0.2140398499729607
 10
1688.382558463991
 20
975.0540686989239
 42
-0.106072568387835
 10
1687.41609147552
 20
975.4455572124999
 42
-0.0632725709444194
 10
1686.68844747178
 20
976.1086899714824
 42
-0.0285122521766844
 10
1686.053082930167
 20
976.9061967919824
 42
-0.0825176614590426
 10
1685.618695579021
 20
977.7822750879746
 42
-0.0834741035068854
 10
1685.547110739022
 20
978.7296692367903
 42
-0.0044088557543864
 10
1685.645201898341
 20
979.7593761070364
 42
0.1348663058206469
 10
1685.546059922042
 20
980.7633230037891
 42
0.1907700178697322
 10
1684.736404888685
 20
981.2587706146358
 42
-0.081523493435813
 10
1683.767418005906
 20
981.6502248334055
 42
-0.2477266194209829
  0
LWPOLYLINE
  5
200D
330
1F
100
AcDbEntity
  8
0
100
AcDbPolyline
 90
       31
 70
     1
 43
0.0
 10
1572.189332830775
 20
878.5309599711096
 10
1571.894471058706
 20
878.161448427358
 42
-0.0047870537867711
 10
1572.805772991555
 20
877.7513121700541
 42
-0.014489489900467
 10
1573.696652851899
 20
877.3083984731387
 42
-0.0198646616808676
 10
1574.549388959049
 20
876.803767048063
 42
-0.0096288210591873
 10
1575.373649160735
 20
876.2473970543105
 42
0.0008996033851782
 10
1576.195041604481
 20
875.6719236431427
 42
0.0358069425897716
 10
1577.046410879358
 20
875.14708875044
 42
0.0705214836042544
 10
1577.976607488168
 20
874.84063431431
 42
0.0347267540319494
 10
1578.974905599419
 20
874.7334590799736
 10
1579.485842399703
 20
874.7143826231614
 10
1579.529171357002
 20
874.7130587474826
 42
-0.0037107465354775
 10
1579.738156422192
 20
875.6903195260187
 42
-0.0112020209251972
 10
1579.975056513862
 20
876.6564141993697
 42
-0.0009936257289952
 10
1580.243156751661
 20
877.6111688338916
 42
0.0198312160104907
 10
1580.477070697092
 20
878.5850571777986
 42
0.0419673132456253
 10
1580.593747352514
 20
879.5991447852811
 42
0.0782203617539971
 10
1580.474266218573
 20
880.5833860494615
 42
0.0672405513739405
 10
1580.043298623943
 20
881.4654541260393
 42
-0.0107683286216819
 10
1579.498913406489
 20
882.3281942415952
 42
0.0170448401611889
 10
1578.977097136827
 20
883.2007242552043
 42
0.0930346886147349
 10
1578.314690559309
 20
883.9038964757525
 42
0.0908598133075517
 10
1577.41196987267
 20
884.3057419538325
 42
0.066595824040139
 10
1576.369556508337
 20
884.4197651279882
 42
0.0579775642584564
 10
1575.311557517853
 20
884.2761872513404
 42
0.0696845756167623
 10
1574.356354458057
 20
883.8892134659602
 42
0.0939857862811584
 10
1573.615209820117
 20
883.2531520941465
 42
0.0846524394405295
 10
1573.161321952645
 20
882.384421178895
 42
0.0496348174939208
 10
1572.939963883663
 20
881.3788476578984
 42
0.0156099853135614
 10
1572.85827640828
 20
880.3474989574548
 42
-0.0677073101428717
 10
1572.686044069023
 20
879.3811120726152
 42
-0.0771531585472427
  0
LWPOLYLINE
  5
200E
330
1F
100
AcDbEntity
  8
0
100
AcDbPolyline
 90
        9
 70
     1
 43
0.0
 10
1615.407175401898
 20
959.8185893551351
 10
1615.625541754027
 20
960.01432026778
 10
1615.679305303255
 20
960.4980516827284
 42
0.1740259008519346
 10
1614.757564685783
 20
961.6319912820596
 42
0.1549220663146567
 10
1613.291404742006
 20
962.1189110803664
 10
1612.7879550589
 20
961.9404176673311
 10
1612.617526115296
 20
961.5148854265422
 10
1612.821471563894
 20
960.945567433011
 42
0.1413470991763893
 10
1614.075708305045
 20
959.929511248702
 42
0.2097514802141242
  0
LWPOLYLINE
  5
200F
330
1F
100
AcDbEntity
  8
0
100
AcDbPolyline
 90
        9
 70
     1
 43
0.0
 10
1625.614870466745
 20
967.3731860305915
 10
1625.374762369719
 20
967.7465361748332
 10
1624.806554625745
 20
967.8274864226379
 42
0.1309830570538587
 10
1623.243299241355
 20
967.1092222801089
 42
0.1492226914188002
 10
1622.25529652406
 20
965.829572925976
 10
1622.285062853873
 20
965.3269642940962
 10
1622.311010551211
 20
965.2866175641687
 42
0.3085528130936988
 10
1623.443110511649
 20
965.1619819511747
 42
0.1166499949185686
 10
1624.980441402511
 20
966.1328905978313
 42
0.2038318130329332
  0
LWPOLYLINE
  5
2010
330
1F
100
AcDbEntity
  8
0
100
AcDbPolyline
 90
       10
 70
     1
 43
0.0
 10
1767.980663370879
 20
917.6921712044276
 42
0.0576503821069628
 10
1768.713342587236
 20
917.0204818396159
 42
0.136565345851953
 10
1769.689382774173
 20
916.7000257856136
 42
0.1923047002735445
 10
1770.600395254587
 20
916.9534011743435
 42
0.1611779880502628
 10
1771.029748678473
 20
917.8055435841979
 42
0.0463046528233641
 10
1771.152074656261
 20
919.0376718233427
 42
0.210478974579978
 10
1770.894678689358
 20
919.9769608365183
 42
0.2504636091753731
 10
1770.000159828536
 20
919.759512083114
 42
0.0557488302122887
 10
1769.152832029219
 20
919.1231220902883
 42
0.0383712253642445
 10
1768.497996404627
 20
918.3971029311832
 42
0.0116328519746248
  0
LWPOLYLINE
  5
2011
330
1F
100
AcDbEntity
  8
0
100
AcDbPolyline
 90
       30
 70
     1
 43
0.0
 10
1680.130106736212
 20
976.4818526575922
 42
0.105553370221296
 10
1679.654794403707
 20
977.1354038098371
 42
-0.0069204779286336
 10
1679.046947846337
 20
977.6769572711666
 42
-0.1288664675603768
 10
1678.609121968288
 20
978.3717570152079
 42
-0.1387626471467359
 10
1678.579611101052
 20
979.2231534746273
 42
-0.188764978776081
 10
1679.052614894532
 20
979.8371301554711
 42
0.070881861557493
 10
1679.702125228595
 20
980.4267833782772
 42
0.2039098360051721
 10
1679.961844179045
 20
981.1588304116163
 42
0.1661844157975573
 10
1679.531321617471
 20
981.8462843344676
 42
0.1009083281737335
 10
1678.811083171162
 20
982.2921534557266
 42
0.1547147888014734
 10
1678.025353307187
 20
982.3228726160436
 42
0.1100829579259984
 10
1677.292233052814
 20
981.9266827888684
 42
0.0959346947734624
 10
1676.767534134474
 20
981.2741326869195
 42
0.0824824422729541
 10
1676.510106795085
 20
980.4926004727914
 42
0.0702993006743359
 10
1676.497558895366
 20
979.6651438855922
 42
0.0739525929819533
 10
1676.713964995419
 20
978.8754897147146
 42
0.0780001436212332
 10
1677.154663057444
 20
978.2043115850193
 42
-0.0183342647373467
 10
1677.682568114648
 20
977.5880765854948
 42
-0.1029443823656818
 10
1678.040620843102
 20
976.8397170297106
 42
-0.0996888518686885
 10
1678.082996949862
 20
975.9877542798234
 42
-0.1345963054880826
 10
1677.764426546442
 20
975.2474902707485
 42
0.0287549109147996
 10
1677.246410554148
 20
974.6236503667008
 42
0.1509481284625656
 10
1677.04400260136
 20
973.7959018134096
 42
0.228337720626242
 10
1677.34781152071
 20
973.1258927143979
 42
0.1479535780469178
 10
1678.091214841082
 20
972.9194966323953
 42
0.0310740731668859
 10
1679.06004910399
 20
972.9647847311799
 42
0.004798769641672
 10
1679.41136394888
 20
973.4446577205718
 42
0.0243349155623951
 10
1679.854610420384
 20
974.1285520590103
 42
0.0517282663942616
 10
1680.194816129499
 20
974.8755704291284
 42
0.0879997436135733
 10
1680.314924176305
 20
975.678165965173
 42
0.0955053466947936
  0
CIRCLE
  5
202A
330
1F
100
AcDbEntity
  8
0
100
AcDbCircle
 10
1681.210159836837
 20
872.0147146659469
 30
0.0
 40
150.0
  0
SPLINE
  5
2053
330
1F
100
AcDbEntity
  8
Layer 1
 62
     0
100
AcDbSpline
210
0.0
220
0.0
230
1.0
 70
    11
 71
     3
 72
   148
 73
   144
 74
     0
 42
0.0000000001
 43
0.0000000001
 40
0.0
 40
0.0
 40
0.0
 40
0.0
 40
0.027027027027027
 40
0.027027027027027
 40
0.027027027027027
 40
0.027027027027027
 40
0.0540540540540541
 40
0.0540540540540541
 40
0.0540540540540541
 40
0.0540540540540541
 40
0.0810810810810811
 40
0.0810810810810811
 40
0.0810810810810811
 40
0.0810810810810811
 40
0.1081081081081081
 40
0.1081081081081081
 40
0.1081081081081081
 40
0.1081081081081081
 40
0.1351351351351351
 40
0.1351351351351351
 40
0.1351351351351351
 40
0.1351351351351351
 40
0.1621621621621622
 40
0.1621621621621622
 40
0.1621621621621622
 40
0.1621621621621622
 40
0.1891891891891892
 40
0.1891891891891892
 40
0.1891891891891892
 40
0.1891891891891892
 40
0.2162162162162162
 40
0.2162162162162162
 40
0.2162162162162162
 40
0.2162162162162162
 40
0.2432432432432433
 40
0.2432432432432433
 40
0.2432432432432433
 40
0.2432432432432433
 40
0.2702702702702703
 40
0.2702702702702703
 40
0.2702702702702703
 40
0.2702702702702703
 40
0.2972972972972973
 40
0.2972972972972973
 40
0.2972972972972973
 40
0.2972972972972973
 40
0.3243243243243243
 40
0.3243243243243243
 40
0.3243243243243243
 40
0.3243243243243243
 40
0.3513513513513514
 40
0.3513513513513514
 40
0.3513513513513514
 40
0.3513513513513514
 40
0.3783783783783784
 40
0.3783783783783784
 40
0.3783783783783784
 40
0.3783783783783784
 40
0.4054054054054054
 40
0.4054054054054054
 40
0.4054054054054054
 40
0.4054054054054054
 40
0.4324324324324326
 40
0.4324324324324326
 40
0.4324324324324326
 40
0.4324324324324326
 40
0.4594594594594595
 40
0.4594594594594595
 40
0.4594594594594595
 40
0.4594594594594595
 40
0.4864864864864865
 40
0.4864864864864865
 40
0.4864864864864865
 40
0.4864864864864865
 40
0.5135135135135135
 40
0.5135135135135135
 40
0.5135135135135135
 40
0.5135135135135135
 40
0.5405405405405406
 40
0.5405405405405406
 40
0.5405405405405406
 40
0.5405405405405406
 40
0.5675675675675676
 40
0.5675675675675676
 40
0.5675675675675676
 40
0.5675675675675676
 40
0.5945945945945947
 40
0.5945945945945947
 40
0.5945945945945947
 40
0.5945945945945947
 40
0.6216216216216216
 40
0.6216216216216216
 40
0.6216216216216216
 40
0.6216216216216216
 40
0.6486486486486487
 40
0.6486486486486487
 40
0.6486486486486487
 40
0.6486486486486487
 40
0.6756756756756757
 40
0.6756756756756757
 40
0.6756756756756757
 40
0.6756756756756757
 40
0.7027027027027028
 40
0.7027027027027028
 40
0.7027027027027028
 40
0.7027027027027028
 40
0.7297297297297298
 40
0.7297297297297298
 40
0.7297297297297298
 40
0.7297297297297298
 40
0.7567567567567569
 40
0.7567567567567569
 40
0.7567567567567569
 40
0.7567567567567569
 40
0.7837837837837838
 40
0.7837837837837838
 40
0.7837837837837838
 40
0.7837837837837838
 40
0.8108108108108108
 40
0.8108108108108108
 40
0.8108108108108108
 40
0.8108108108108108
 40
0.8378378378378378
 40
0.8378378378378378
 40
0.8378378378378378
 40
0.8378378378378378
 40
0.8648648648648649
 40
0.8648648648648649
 40
0.8648648648648649
 40
0.8648648648648649
 40
0.8918918918918919
 40
0.8918918918918919
 40
0.8918918918918919
 40
0.8918918918918919
 40
0.9189189189189191
 40
0.9189189189189191
 40
0.9189189189189191
 40
0.9189189189189191
 40
0.9459459459459459
 40
0.9459459459459459
 40
0.9459459459459459
 40
0.9459459459459459
 40
1.0
 40
1.0
 40
1.0
 40
1.0
 10
1649.933659836837
 20
813.8932146659469
 30
0.0
 10
1650.005159836837
 20
814.0467146659469
 30
0.0
 10
1650.117459836837
 20
814.1540146659469
 30
0.0
 10
1650.270459836837
 20
814.2149146659468
 30
0.0
 10
1650.270459836837
 20
814.2149146659468
 30
0.0
 10
1650.423459836837
 20
814.2760146659467
 30
0.0
 10
1650.576659836836
 20
814.2706146659469
 30
0.0
 10
1650.730159836837
 20
814.1991146659467
 30
0.0
 10
1650.730159836837
 20
814.1991146659467
 30
0.0
 10
1650.730159836837
 20
814.1991146659467
 30
0.0
 10
1655.583559836837
 20
811.9359146659467
 30
0.0
 10
1655.583559836837
 20
811.9359146659467
 30
0.0
 10
1655.583559836837
 20
811.9359146659467
 30
0.0
 10
1655.737059836837
 20
811.8643146659469
 30
0.0
 10
1655.842859836837
 20
811.7489146659467
 30
0.0
 10
1655.900759836837
 20
811.5895146659468
 30
0.0
 10
1655.900759836837
 20
811.5895146659468
 30
0.0
 10
1655.958859836837
 20
811.4301146659469
 30
0.0
 10
1655.952059836837
 20
811.2736146659468
 30
0.0
 10
1655.880459836837
 20
811.1202146659469
 30
0.0
 10
1655.880459836837
 20
811.1202146659469
 30
0.0
 10
1655.880459836837
 20
811.1202146659469
 30
0.0
 10
1655.048559836837
 20
809.3361146659468
 30
0.0
 10
1655.048559836837
 20
809.3361146659468
 30
0.0
 10
1655.048559836837
 20
809.3361146659468
 30
0.0
 10
1654.976959836837
 20
809.1827146659468
 30
0.0
 10
1654.861559836836
 20
809.0769146659468
 30
0.0
 10
1654.702159836837
 20
809.0189146659469
 30
0.0
 10
1654.702159836837
 20
809.0189146659469
 30
0.0
 10
1654.542759836837
 20
808.9608146659468
 30
0.0
 10
1654.386259836837
 20
808.9677146659468
 30
0.0
 10
1654.232859836837
 20
809.0392146659468
 30
0.0
 10
1654.232859836837
 20
809.0392146659468
 30
0.0
 10
1654.232859836837
 20
809.0392146659468
 30
0.0
 10
1653.791659836837
 20
809.2450146659469
 30
0.0
 10
1653.791659836837
 20
809.2450146659469
 30
0.0
 10
1653.791659836837
 20
809.2450146659469
 30
0.0
 10
1653.638159836837
 20
809.3166146659468
 30
0.0
 10
1653.486359836837
 20
809.3250146659467
 30
0.0
 10
1653.336359836837
 20
809.2704146659468
 30
0.0
 10
1653.336359836837
 20
809.2704146659468
 30
0.0
 10
1653.186359836837
 20
809.2157146659468
 30
0.0
 10
1653.075559836837
 20
809.1117146659467
 30
0.0
 10
1653.004059836837
 20
808.9583146659469
 30
0.0
 10
1653.004059836837
 20
808.9583146659469
 30
0.0
 10
1653.004059836837
 20
808.9583146659469
 30
0.0
 10
1649.971559836837
 20
802.4551146659469
 30
0.0
 10
1649.971559836837
 20
802.4551146659469
 30
0.0
 10
1649.971559836837
 20
802.4551146659469
 30
0.0
 10
1649.899959836837
 20
802.3015146659469
 30
0.0
 10
1649.891459836837
 20
802.1498146659467
 30
0.0
 10
1649.946059836837
 20
801.9998146659467
 30
0.0
 10
1649.946059836837
 20
801.9998146659467
 30
0.0
 10
1650.000659836837
 20
801.8498146659467
 30
0.0
 10
1650.104659836837
 20
801.7390146659469
 30
0.0
 10
1650.258159836837
 20
801.6674146659468
 30
0.0
 10
1650.258159836837
 20
801.6674146659468
 30
0.0
 10
1650.258159836837
 20
801.6674146659468
 30
0.0
 10
1650.699359836837
 20
801.4617146659468
 30
0.0
 10
1650.699359836837
 20
801.4617146659468
 30
0.0
 10
1650.699359836837
 20
801.4617146659468
 30
0.0
 10
1650.852859836837
 20
801.3901146659469
 30
0.0
 10
1650.958659836837
 20
801.2746146659468
 30
0.0
 10
1651.016559836837
 20
801.1153146659468
 30
0.0
 10
1651.016559836837
 20
801.1153146659468
 30
0.0
 10
1651.074659836837
 20
800.9558146659468
 30
0.0
 10
1651.067859836837
 20
800.7994146659468
 30
0.0
 10
1650.996259836837
 20
800.6460146659469
 30
0.0
 10
1650.996259836837
 20
800.6460146659469
 30
0.0
 10
1650.996259836837
 20
800.6460146659469
 30
0.0
 10
1650.164359836837
 20
798.8619146659468
 30
0.0
 10
1650.164359836837
 20
798.8619146659468
 30
0.0
 10
1650.164359836837
 20
798.8619146659468
 30
0.0
 10
1650.092759836837
 20
798.7084146659468
 30
0.0
 10
1649.978859836837
 20
798.6058146659468
 30
0.0
 10
1649.822359836837
 20
798.5542146659469
 30
0.0
 10
1649.822359836837
 20
798.5542146659469
 30
0.0
 10
1649.665959836837
 20
798.5026146659468
 30
0.0
 10
1649.511059836837
 20
798.5126146659468
 30
0.0
 10
1649.357559836837
 20
798.5842146659469
 30
0.0
 10
1649.357559836837
 20
798.5842146659469
 30
0.0
 10
1649.357559836837
 20
798.5842146659469
 30
0.0
 10
1644.504159836837
 20
800.8474146659468
 30
0.0
 10
1644.504159836837
 20
800.8474146659468
 30
0.0
 10
1644.504159836837
 20
800.8474146659468
 30
0.0
 10
1644.350659836837
 20
800.9189146659469
 30
0.0
 10
1644.246659836837
 20
801.0297146659468
 30
0.0
 10
1644.192059836837
 20
801.1797146659469
 30
0.0
 10
1644.192059836837
 20
801.1797146659469
 30
0.0
 10
1644.137459836837
 20
801.3297146659468
 30
0.0
 10
1644.145959836837
 20
801.4814146659469
 30
0.0
 10
1644.217559836837
 20
801.6350146659469
 30
0.0
 10
1644.217559836837
 20
801.6350146659469
 30
0.0
 10
1644.217559836837
 20
801.6350146659469
 30
0.0
 10
1645.049459836837
 20
803.4190146659469
 30
0.0
 10
1645.049459836837
 20
803.4190146659469
 30
0.0
 10
1645.049459836837
 20
803.4190146659469
 30
0.0
 10
1645.120959836837
 20
803.5725146659469
 30
0.0
 10
1645.233259836837
 20
803.6797146659468
 30
0.0
 10
1645.386259836836
 20
803.7407146659468
 30
0.0
 10
1645.386259836836
 20
803.7407146659468
 30
0.0
 10
1645.539259836837
 20
803.8017146659468
 30
0.0
 10
1645.692459836836
 20
803.7964146659469
 30
0.0
 10
1645.845959836837
 20
803.7249146659467
 30
0.0
 10
1645.845959836837
 20
803.7249146659467
 30
0.0
 10
1645.845959836837
 20
803.7249146659467
 30
0.0
 10
1646.287159836837
 20
803.5191146659467
 30
0.0
 10
1646.287159836837
 20
803.5191146659467
 30
0.0
 10
1646.287159836837
 20
803.5191146659467
 30
0.0
 10
1646.440659836837
 20
803.4476146659468
 30
0.0
 10
1646.595559836837
 20
803.4376146659468
 30
0.0
 10
1646.751959836837
 20
803.4892146659469
 30
0.0
 10
1646.751959836837
 20
803.4892146659469
 30
0.0
 10
1646.908359836837
 20
803.5408146659468
 30
0.0
 10
1647.022359836836
 20
803.6434146659468
 30
0.0
 10
1647.093959836837
 20
803.7969146659468
 30
0.0
 10
1647.093959836837
 20
803.7969146659468
 30
0.0
 10
1647.093959836837
 20
803.7969146659468
 30
0.0
 10
1650.126459836837
 20
810.3001146659467
 30
0.0
 10
1650.126459836837
 20
810.3001146659467
 30
0.0
 10
1650.126459836837
 20
810.3001146659467
 30
0.0
 10
1650.198059836837
 20
810.4535146659468
 30
0.0
 10
1650.203259836837
 20
810.6068146659469
 30
0.0
 10
1650.142359836837
 20
810.7598146659467
 30
0.0
 10
1650.142359836837
 20
810.7598146659467
 30
0.0
 10
1650.081259836837
 20
810.9128146659468
 30
0.0
 10
1649.974159836837
 20
811.0251146659468
 30
0.0
 10
1649.820659836837
 20
811.0967146659469
 30
0.0
 10
1649.820659836837
 20
811.0967146659469
 30
0.0
 10
1649.820659836837
 20
811.0967146659469
 30
0.0
 10
1649.379359836837
 20
811.3024146659469
 30
0.0
 10
1649.379359836837
 20
811.3024146659469
 30
0.0
 10
1649.379359836837
 20
811.3024146659469
 30
0.0
 10
1649.225959836837
 20
811.3740146659468
 30
0.0
 10
1649.123359836837
 20
811.4879146659468
 30
0.0
 10
1649.071759836837
 20
811.6444146659469
 30
0.0
 10
1649.071759836837
 20
811.6444146659469
 30
0.0
 10
1649.020159836837
 20
811.8008146659468
 30
0.0
 10
1649.030159836837
 20
811.9557146659468
 30
0.0
 10
1649.101759836837
 20
812.1092146659469
 30
0.0
 10
1649.101759836837
 20
812.1092146659469
 30
0.0
 10
1649.101759836837
 20
812.1092146659469
 30
0.0
 10
1649.933659836837
 20
813.8932146659469
 30
0.0
 10
1649.933659836837
 20
813.8932146659469
 30
0.0
  0
SPLINE
  5
2054
330
1F
100
AcDbEntity
  8
Layer 1
 62
     0
100
AcDbSpline
210
0.0
220
0.0
230
1.0
 70
    11
 71
     3
 72
    76
 73
    72
 74
     0
 42
0.0000000001
 43
0.0000000001
 40
0.0
 40
0.0
 40
0.0
 40
0.0
 40
0.0526315789473684
 40
0.0526315789473684
 40
0.0526315789473684
 40
0.0526315789473684
 40
0.1052631578947368
 40
0.1052631578947368
 40
0.1052631578947368
 40
0.1052631578947368
 40
0.1578947368421053
 40
0.1578947368421053
 40
0.1578947368421053
 40
0.1578947368421053
 40
0.2105263157894737
 40
0.2105263157894737
 40
0.2105263157894737
 40
0.2105263157894737
 40
0.2631578947368421
 40
0.2631578947368421
 40
0.2631578947368421
 40
0.2631578947368421
 40
0.3157894736842105
 40
0.3157894736842105
 40
0.3157894736842105
 40
0.3157894736842105
 40
0.3684210526315789
 40
0.3684210526315789
 40
0.3684210526315789
 40
0.3684210526315789
 40
0.4210526315789473
 40
0.4210526315789473
 40
0.4210526315789473
 40
0.4210526315789473
 40
0.4736842105263159
 40
0.4736842105263159
 40
0.4736842105263159
 40
0.4736842105263159
 40
0.5263157894736842
 40
0.5263157894736842
 40
0.5263157894736842
 40
0.5263157894736842
 40
0.5789473684210527
 40
0.5789473684210527
 40
0.5789473684210527
 40
0.5789473684210527
 40
0.6315789473684211
 40
0.6315789473684211
 40
0.6315789473684211
 40
0.6315789473684211
 40
0.6842105263157895
 40
0.6842105263157895
 40
0.6842105263157895
 40
0.6842105263157895
 40
0.7368421052631579
 40
0.7368421052631579
 40
0.7368421052631579
 40
0.7368421052631579
 40
0.7894736842105264
 40
0.7894736842105264
 40
0.7894736842105264
 40
0.7894736842105264
 40
0.8421052631578946
 40
0.8421052631578946
 40
0.8421052631578946
 40
0.8421052631578946
 40
0.8947368421052631
 40
0.8947368421052631
 40
0.8947368421052631
 40
0.8947368421052631
 40
1.0
 40
1.0
 40
1.0
 40
1.0
 10
1679.572559836837
 20
795.1247146659468
 30
0.0
 10
1679.576459836837
 20
795.0119146659468
 30
0.0
 10
1679.625859836837
 20
794.9113146659469
 30
0.0
 10
1679.720759836837
 20
794.8228146659467
 30
0.0
 10
1679.720759836837
 20
794.8228146659467
 30
0.0
 10
1679.815659836837
 20
794.7344146659468
 30
0.0
 10
1679.919459836837
 20
794.6921146659469
 30
0.0
 10
1680.032259836837
 20
794.6960146659469
 30
0.0
 10
1680.032259836837
 20
794.6960146659469
 30
0.0
 10
1680.201459836837
 20
794.7019146659469
 30
0.0
 10
1680.340859836837
 20
794.6539146659469
 30
0.0
 10
1680.450259836837
 20
794.5518146659468
 30
0.0
 10
1680.450259836837
 20
794.5518146659468
 30
0.0
 10
1680.559759836837
 20
794.4498146659468
 30
0.0
 10
1680.617259836837
 20
794.3211146659469
 30
0.0
 10
1680.622659836837
 20
794.1660146659468
 30
0.0
 10
1680.622659836837
 20
794.1660146659468
 30
0.0
 10
1680.622659836837
 20
794.1660146659468
 30
0.0
 10
1680.680259836837
 20
792.5160146659468
 30
0.0
 10
1680.680259836837
 20
792.5160146659468
 30
0.0
 10
1680.680259836837
 20
792.5160146659468
 30
0.0
 10
1680.686159836837
 20
792.3468146659469
 30
0.0
 10
1680.638059836837
 20
792.2075146659468
 30
0.0
 10
1680.535959836837
 20
792.0980146659468
 30
0.0
 10
1680.535959836837
 20
792.0980146659468
 30
0.0
 10
1680.433959836837
 20
791.9885146659468
 30
0.0
 10
1680.298259836837
 20
791.9308146659468
 30
0.0
 10
1680.129059836837
 20
791.9249146659468
 30
0.0
 10
1680.129059836837
 20
791.9249146659468
 30
0.0
 10
1680.129059836837
 20
791.9249146659468
 30
0.0
 10
1679.029059836837
 20
791.8865146659468
 30
0.0
 10
1679.029059836837
 20
791.8865146659468
 30
0.0
 10
1679.029059836837
 20
791.8865146659468
 30
0.0
 10
1678.888059836837
 20
791.8816146659468
 30
0.0
 10
1678.759159836837
 20
791.9335146659468
 30
0.0
 10
1678.642359836836
 20
792.0424146659469
 30
0.0
 10
1678.642359836836
 20
792.0424146659469
 30
0.0
 10
1678.642359836836
 20
792.0424146659469
 30
0.0
 10
1677.022359836836
 20
793.5532146659468
 30
0.0
 10
1677.022359836836
 20
793.5532146659468
 30
0.0
 10
1677.022359836836
 20
793.5532146659468
 30
0.0
 10
1676.905059836837
 20
793.6762146659469
 30
0.0
 10
1676.843959836837
 20
793.8081146659468
 30
0.0
 10
1676.838959836837
 20
793.9491146659467
 30
0.0
 10
1676.838959836837
 20
793.9491146659467
 30
0.0
 10
1676.838959836837
 20
793.9491146659467
 30
0.0
 10
1676.497759836837
 20
803.7223146659469
 30
0.0
 10
1676.497759836837
 20
803.7223146659469
 30
0.0
 10
1676.497759836837
 20
803.7223146659469
 30
0.0
 10
1676.491859836837
 20
803.8915146659467
 30
0.0
 10
1676.539959836837
 20
804.0308146659468
 30
0.0
 10
1676.642059836837
 20
804.1403146659469
 30
0.0
 10
1676.642059836837
 20
804.1403146659469
 30
0.0
 10
1676.744059836837
 20
804.2497146659467
 30
0.0
 10
1676.872659836837
 20
804.3072146659469
 30
0.0
 10
1677.027859836837
 20
804.3126146659469
 30
0.0
 10
1677.027859836837
 20
804.3126146659469
 30
0.0
 10
1677.027859836837
 20
804.3126146659469
 30
0.0
 10
1678.677859836837
 20
804.3703146659467
 30
0.0
 10
1678.677859836837
 20
804.3703146659467
 30
0.0
 10
1678.677859836837
 20
804.3703146659467
 30
0.0
 10
1678.832959836837
 20
804.3757146659467
 30
0.0
 10
1678.968759836837
 20
804.3274146659468
 30
0.0
 10
1679.085259836837
 20
804.2256146659468
 30
0.0
 10
1679.085259836837
 20
804.2256146659468
 30
0.0
 10
1679.201759836837
 20
804.1238146659468
 30
0.0
 10
1679.263059836837
 20
803.9882146659468
 30
0.0
 10
1679.268959836837
 20
803.8190146659468
 30
0.0
 10
1679.268959836837
 20
803.8190146659468
 30
0.0
 10
1679.268959836837
 20
803.8190146659468
 30
0.0
 10
1679.572559836837
 20
795.1247146659468
 30
0.0
 10
1679.572559836837
 20
795.1247146659468
 30
0.0
  0
SPLINE
  5
2055
330
1F
100
AcDbEntity
  8
Layer 1
 62
     0
100
AcDbSpline
210
0.0
220
0.0
230
1.0
 70
    11
 71
     3
 72
    76
 73
    72
 74
     0
 42
0.0000000001
 43
0.0000000001
 40
0.0
 40
0.0
 40
0.0
 40
0.0
 40
0.0526315789473684
 40
0.0526315789473684
 40
0.0526315789473684
 40
0.0526315789473684
 40
0.1052631578947368
 40
0.1052631578947368
 40
0.1052631578947368
 40
0.1052631578947368
 40
0.1578947368421053
 40
0.1578947368421053
 40
0.1578947368421053
 40
0.1578947368421053
 40
0.2105263157894737
 40
0.2105263157894737
 40
0.2105263157894737
 40
0.2105263157894737
 40
0.2631578947368421
 40
0.2631578947368421
 40
0.2631578947368421
 40
0.2631578947368421
 40
0.3157894736842105
 40
0.3157894736842105
 40
0.3157894736842105
 40
0.3157894736842105
 40
0.3684210526315789
 40
0.3684210526315789
 40
0.3684210526315789
 40
0.3684210526315789
 40
0.4210526315789473
 40
0.4210526315789473
 40
0.4210526315789473
 40
0.4210526315789473
 40
0.4736842105263159
 40
0.4736842105263159
 40
0.4736842105263159
 40
0.4736842105263159
 40
0.5263157894736842
 40
0.5263157894736842
 40
0.5263157894736842
 40
0.5263157894736842
 40
0.5789473684210527
 40
0.5789473684210527
 40
0.5789473684210527
 40
0.5789473684210527
 40
0.6315789473684211
 40
0.6315789473684211
 40
0.6315789473684211
 40
0.6315789473684211
 40
0.6842105263157895
 40
0.6842105263157895
 40
0.6842105263157895
 40
0.6842105263157895
 40
0.7368421052631579
 40
0.7368421052631579
 40
0.7368421052631579
 40
0.7368421052631579
 40
0.7894736842105264
 40
0.7894736842105264
 40
0.7894736842105264
 40
0.7894736842105264
 40
0.8421052631578946
 40
0.8421052631578946
 40
0.8421052631578946
 40
0.8421052631578946
 40
0.8947368421052631
 40
0.8947368421052631
 40
0.8947368421052631
 40
0.8947368421052631
 40
1.0
 40
1.0
 40
1.0
 40
1.0
 10
1682.166959836837
 20
803.9202146659469
 30
0.0
 10
1682.161059836837
 20
804.0894146659468
 30
0.0
 10
1682.209159836836
 20
804.2288146659469
 30
0.0
 10
1682.311259836837
 20
804.3382146659467
 30
0.0
 10
1682.311259836837
 20
804.3382146659467
 30
0.0
 10
1682.413259836837
 20
804.4477146659469
 30
0.0
 10
1682.548959836837
 20
804.5054146659468
 30
0.0
 10
1682.718159836837
 20
804.5113146659469
 30
0.0
 10
1682.718159836837
 20
804.5113146659469
 30
0.0
 10
1682.718159836837
 20
804.5113146659469
 30
0.0
 10
1684.368159836837
 20
804.5690146659469
 30
0.0
 10
1684.368159836837
 20
804.5690146659469
 30
0.0
 10
1684.368159836837
 20
804.5690146659469
 30
0.0
 10
1684.523259836837
 20
804.5744146659469
 30
0.0
 10
1684.659159836837
 20
804.5261146659468
 30
0.0
 10
1684.775659836837
 20
804.4243146659468
 30
0.0
 10
1684.775659836837
 20
804.4243146659468
 30
0.0
 10
1684.892159836836
 20
804.3225146659468
 30
0.0
 10
1684.953359836837
 20
804.1870146659469
 30
0.0
 10
1684.959259836837
 20
804.0178146659467
 30
0.0
 10
1684.959259836837
 20
804.0178146659467
 30
0.0
 10
1684.959259836837
 20
804.0178146659467
 30
0.0
 10
1685.300559836837
 20
794.2446146659468
 30
0.0
 10
1685.300559836837
 20
794.2446146659468
 30
0.0
 10
1685.300559836837
 20
794.2446146659468
 30
0.0
 10
1685.305459836837
 20
794.1036146659468
 30
0.0
 10
1685.253759836837
 20
793.9677146659468
 30
0.0
 10
1685.145359836837
 20
793.8369146659469
 30
0.0
 10
1685.145359836837
 20
793.8369146659469
 30
0.0
 10
1685.145359836837
 20
793.8369146659469
 30
0.0
 10
1683.613559836837
 20
792.2160146659469
 30
0.0
 10
1683.613559836837
 20
792.2160146659469
 30
0.0
 10
1683.613559836837
 20
792.2160146659469
 30
0.0
 10
1683.504659836837
 20
792.0992146659468
 30
0.0
 10
1683.372559836837
 20
792.0382146659468
 30
0.0
 10
1683.217459836837
 20
792.0328146659468
 30
0.0
 10
1683.217459836837
 20
792.0328146659468
 30
0.0
 10
1683.217459836837
 20
792.0328146659468
 30
0.0
 10
1682.138659836837
 20
791.9951146659468
 30
0.0
 10
1682.138659836837
 20
791.9951146659468
 30
0.0
 10
1682.138659836837
 20
791.9951146659468
 30
0.0
 10
1681.983559836837
 20
791.9897146659468
 30
0.0
 10
1681.847659836837
 20
792.0379146659469
 30
0.0
 10
1681.731159836837
 20
792.1398146659468
 30
0.0
 10
1681.731159836837
 20
792.1398146659468
 30
0.0
 10
1681.614659836837
 20
792.2416146659468
 30
0.0
 10
1681.553459836837
 20
792.3771146659468
 30
0.0
 10
1681.547559836837
 20
792.5463146659468
 30
0.0
 10
1681.547559836837
 20
792.5463146659468
 30
0.0
 10
1681.547559836837
 20
792.5463146659468
 30
0.0
 10
1681.489959836836
 20
794.1963146659468
 30
0.0
 10
1681.489959836836
 20
794.1963146659468
 30
0.0
 10
1681.489959836836
 20
794.1963146659468
 30
0.0
 10
1681.484459836837
 20
794.3514146659468
 30
0.0
 10
1681.536359836837
 20
794.4839146659468
 30
0.0
 10
1681.645459836837
 20
794.5936146659468
 30
0.0
 10
1681.645459836837
 20
794.5936146659468
 30
0.0
 10
1681.754559836837
 20
794.7032146659467
 30
0.0
 10
1681.886759836836
 20
794.7608146659469
 30
0.0
 10
1682.041859836837
 20
794.7662146659468
 30
0.0
 10
1682.041859836837
 20
794.7662146659468
 30
0.0
 10
1682.168759836837
 20
794.7706146659468
 30
0.0
 10
1682.272959836837
 20
794.8202146659468
 30
0.0
 10
1682.354359836837
 20
794.9148146659468
 30
0.0
 10
1682.354359836837
 20
794.9148146659468
 30
0.0
 10
1682.435859836837
 20
795.0094146659467
 30
0.0
 10
1682.474559836837
 20
795.1131146659469
 30
0.0
 10
1682.470559836837
 20
795.2259146659469
 30
0.0
 10
1682.470559836837
 20
795.2259146659469
 30
0.0
 10
1682.470559836837
 20
795.2259146659469
 30
0.0
 10
1682.166959836837
 20
803.9202146659469
 30
0.0
 10
1682.166959836837
 20
803.9202146659469
 30
0.0
  0
SPLINE
  5
2056
330
1F
100
AcDbEntity
  8
Layer 1
 62
     0
100
AcDbSpline
210
0.0
220
0.0
230
1.0
 70
    11
 71
     3
 72
   112
 73
   108
 74
     0
 42
0.0000000001
 43
0.0000000001
 40
0.0
 40
0.0
 40
0.0
 40
0.0
 40
0.0357142857142857
 40
0.0357142857142857
 40
0.0357142857142857
 40
0.0357142857142857
 40
0.0714285714285714
 40
0.0714285714285714
 40
0.0714285714285714
 40
0.0714285714285714
 40
0.1071428571428571
 40
0.1071428571428571
 40
0.1071428571428571
 40
0.1071428571428571
 40
0.1428571428571428
 40
0.1428571428571428
 40
0.1428571428571428
 40
0.1428571428571428
 40
0.1785714285714286
 40
0.1785714285714286
 40
0.1785714285714286
 40
0.1785714285714286
 40
0.2142857142857143
 40
0.2142857142857143
 40
0.2142857142857143
 40
0.2142857142857143
 40
0.25
 40
0.25
 40
0.25
 40
0.25
 40
0.2857142857142857
 40
0.2857142857142857
 40
0.2857142857142857
 40
0.2857142857142857
 40
0.3214285714285715
 40
0.3214285714285715
 40
0.3214285714285715
 40
0.3214285714285715
 40
0.3571428571428572
 40
0.3571428571428572
 40
0.3571428571428572
 40
0.3571428571428572
 40
0.3928571428571428
 40
0.3928571428571428
 40
0.3928571428571428
 40
0.3928571428571428
 40
0.4285714285714285
 40
0.4285714285714285
 40
0.4285714285714285
 40
0.4285714285714285
 40
0.4642857142857144
 40
0.4642857142857144
 40
0.4642857142857144
 40
0.4642857142857144
 40
0.5
 40
0.5
 40
0.5
 40
0.5
 40
0.5357142857142857
 40
0.5357142857142857
 40
0.5357142857142857
 40
0.5357142857142857
 40
0.5714285714285714
 40
0.5714285714285714
 40
0.5714285714285714
 40
0.5714285714285714
 40
0.6071428571428572
 40
0.6071428571428572
 40
0.6071428571428572
 40
0.6071428571428572
 40
0.6428571428571429
 40
0.6428571428571429
 40
0.6428571428571429
 40
0.6428571428571429
 40
0.6785714285714287
 40
0.6785714285714287
 40
0.6785714285714287
 40
0.6785714285714287
 40
0.7142857142857144
 40
0.7142857142857144
 40
0.7142857142857144
 40
0.7142857142857144
 40
0.75
 40
0.75
 40
0.75
 40
0.75
 40
0.7857142857142857
 40
0.7857142857142857
 40
0.7857142857142857
 40
0.7857142857142857
 40
0.8214285714285713
 40
0.8214285714285713
 40
0.8214285714285713
 40
0.8214285714285713
 40
0.8571428571428571
 40
0.8571428571428571
 40
0.8571428571428571
 40
0.8571428571428571
 40
0.8928571428571428
 40
0.8928571428571428
 40
0.8928571428571428
 40
0.8928571428571428
 40
0.9285714285714286
 40
0.9285714285714286
 40
0.9285714285714286
 40
0.9285714285714286
 40
1.0
 40
1.0
 40
1.0
 40
1.0
 10
1692.802476655556
 20
807.094968533312
 30
0.0
 10
1692.764376655556
 20
807.259968533312
 30
0.0
 10
1692.787576655556
 20
807.4100685333119
 30
0.0
 10
1692.872176655556
 20
807.5455685333119
 30
0.0
 10
1692.872176655556
 20
807.5455685333119
 30
0.0
 10
1692.956776655556
 20
807.680968533312
 30
0.0
 10
1693.081576655556
 20
807.767668533312
 30
0.0
 10
1693.246576655556
 20
807.805668533312
 30
0.0
 10
1693.246576655556
 20
807.805668533312
 30
0.0
 10
1693.246576655556
 20
807.805668533312
 30
0.0
 10
1696.340176655556
 20
808.5199685333119
 30
0.0
 10
1696.340176655556
 20
808.5199685333119
 30
0.0
 10
1696.340176655556
 20
808.5199685333119
 30
0.0
 10
1696.505176655556
 20
808.558068533312
 30
0.0
 10
1696.658776655556
 20
808.5355685333119
 30
0.0
 10
1696.801076655556
 20
808.4525685333119
 30
0.0
 10
1696.801076655556
 20
808.4525685333119
 30
0.0
 10
1696.943376655556
 20
808.369568533312
 30
0.0
 10
1697.033576655556
 20
808.2455685333119
 30
0.0
 10
1697.071676655556
 20
808.0805685333119
 30
0.0
 10
1697.071676655556
 20
808.0805685333119
 30
0.0
 10
1697.071676655556
 20
808.0805685333119
 30
0.0
 10
1697.514476655556
 20
806.1625685333119
 30
0.0
 10
1697.514476655556
 20
806.1625685333119
 30
0.0
 10
1697.514476655556
 20
806.1625685333119
 30
0.0
 10
1697.552576655556
 20
805.9974685333118
 30
0.0
 10
1697.526576655556
 20
805.8430685333119
 30
0.0
 10
1697.436776655556
 20
805.699168533312
 30
0.0
 10
1697.436776655556
 20
805.699168533312
 30
0.0
 10
1697.346876655556
 20
805.5553685333119
 30
0.0
 10
1697.219476655556
 20
805.4643685333118
 30
0.0
 10
1697.054376655556
 20
805.4262685333119
 30
0.0
 10
1697.054376655556
 20
805.4262685333119
 30
0.0
 10
1696.889376655556
 20
805.388168533312
 30
0.0
 10
1696.764576655556
 20
805.301568533312
 30
0.0
 10
1696.679976655556
 20
805.166068533312
 30
0.0
 10
1696.679976655556
 20
805.166068533312
 30
0.0
 10
1696.595376655556
 20
805.030668533312
 30
0.0
 10
1696.572176655556
 20
804.8805685333119
 30
0.0
 10
1696.610276655556
 20
804.715568533312
 30
0.0
 10
1696.610276655556
 20
804.715568533312
 30
0.0
 10
1696.610276655556
 20
804.715568533312
 30
0.0
 10
1696.772176655556
 20
804.014368533312
 30
0.0
 10
1696.772176655556
 20
804.014368533312
 30
0.0
 10
1696.772176655556
 20
804.014368533312
 30
0.0
 10
1696.807076655556
 20
803.8630685333119
 30
0.0
 10
1696.892976655556
 20
803.7417685333119
 30
0.0
 10
1697.029976655556
 20
803.6501685333119
 30
0.0
 10
1697.029976655556
 20
803.6501685333119
 30
0.0
 10
1697.166976655556
 20
803.5587685333119
 30
0.0
 10
1697.317976655556
 20
803.532068533312
 30
0.0
 10
1697.482876655556
 20
803.5701685333119
 30
0.0
 10
1697.482876655556
 20
803.5701685333119
 30
0.0
 10
1697.647976655556
 20
803.608268533312
 30
0.0
 10
1697.802376655556
 20
803.5822685333119
 30
0.0
 10
1697.946276655556
 20
803.492468533312
 30
0.0
 10
1697.946276655556
 20
803.492468533312
 30
0.0
 10
1698.090076655556
 20
803.4025685333119
 30
0.0
 10
1698.179476655556
 20
803.2820685333119
 30
0.0
 10
1698.214376655556
 20
803.130668533312
 30
0.0
 10
1698.214376655556
 20
803.130668533312
 30
0.0
 10
1698.214376655556
 20
803.130668533312
 30
0.0
 10
1698.661976655556
 20
801.1920685333119
 30
0.0
 10
1698.661976655556
 20
801.1920685333119
 30
0.0
 10
1698.661976655556
 20
801.1920685333119
 30
0.0
 10
1698.696876655556
 20
801.040868533312
 30
0.0
 10
1698.669376655556
 20
800.8932685333119
 30
0.0
 10
1698.579576655555
 20
800.749368533312
 30
0.0
 10
1698.579576655555
 20
800.749368533312
 30
0.0
 10
1698.489576655556
 20
800.6055685333119
 30
0.0
 10
1698.362176655556
 20
800.5145685333118
 30
0.0
 10
1698.197176655556
 20
800.4764685333119
 30
0.0
 10
1698.197176655556
 20
800.4764685333119
 30
0.0
 10
1698.032176655556
 20
800.438368533312
 30
0.0
 10
1697.908176655556
 20
800.348168533312
 30
0.0
 10
1697.825176655556
 20
800.2059685333119
 30
0.0
 10
1697.825176655556
 20
800.2059685333119
 30
0.0
 10
1697.742176655556
 20
800.063668533312
 30
0.0
 10
1697.719676655556
 20
799.910068533312
 30
0.0
 10
1697.757776655556
 20
799.7451685333119
 30
0.0
 10
1697.757776655556
 20
799.7451685333119
 30
0.0
 10
1697.757776655556
 20
799.7451685333119
 30
0.0
 10
1698.938676655556
 20
794.630268533312
 30
0.0
 10
1698.938676655556
 20
794.630268533312
 30
0.0
 10
1698.938676655556
 20
794.630268533312
 30
0.0
 10
1698.976776655556
 20
794.4652685333119
 30
0.0
 10
1698.950776655556
 20
794.3108685333119
 30
0.0
 10
1698.860976655556
 20
794.167068533312
 30
0.0
 10
1698.860976655556
 20
794.167068533312
 30
0.0
 10
1698.770976655556
 20
794.0231685333119
 30
0.0
 10
1698.643576655556
 20
793.9321685333119
 30
0.0
 10
1698.478576655556
 20
793.8940685333119
 30
0.0
 10
1698.478576655556
 20
793.8940685333119
 30
0.0
 10
1698.478576655556
 20
793.8940685333119
 30
0.0
 10
1696.560476655556
 20
793.4512685333118
 30
0.0
 10
1696.560476655556
 20
793.4512685333118
 30
0.0
 10
1696.560476655556
 20
793.4512685333118
 30
0.0
 10
1696.395576655556
 20
793.4131685333119
 30
0.0
 10
1696.244576655556
 20
793.439968533312
 30
0.0
 10
1696.107576655556
 20
793.5313685333119
 30
0.0
 10
1696.107576655556
 20
793.5313685333119
 30
0.0
 10
1695.970576655556
 20
793.622868533312
 30
0.0
 10
1695.883076655556
 20
793.7510685333119
 30
0.0
 10
1695.844976655556
 20
793.916068533312
 30
0.0
 10
1695.844976655556
 20
793.916068533312
 30
0.0
 10
1695.844976655556
 20
793.916068533312
 30
0.0
 10
1692.802476655556
 20
807.094968533312
 30
0.0
 10
1692.802476655556
 20
807.094968533312
 30
0.0
  0
SPLINE
  5
2057
330
1F
100
AcDbEntity
  8
Layer 1
 62
     0
100
AcDbSpline
210
0.0
220
0.0
230
1.0
 70
    11
 71
     3
 72
    52
 73
    48
 74
     0
 42
0.0000000001
 43
0.0000000001
 40
0.0
 40
0.0
 40
0.0
 40
0.0
 40
0.0769230769230769
 40
0.0769230769230769
 40
0.0769230769230769
 40
0.0769230769230769
 40
0.1538461538461539
 40
0.1538461538461539
 40
0.1538461538461539
 40
0.1538461538461539
 40
0.2307692307692308
 40
0.2307692307692308
 40
0.2307692307692308
 40
0.2307692307692308
 40
0.3076923076923077
 40
0.3076923076923077
 40
0.3076923076923077
 40
0.3076923076923077
 40
0.3846153846153846
 40
0.3846153846153846
 40
0.3846153846153846
 40
0.3846153846153846
 40
0.4615384615384616
 40
0.4615384615384616
 40
0.4615384615384616
 40
0.4615384615384616
 40
0.5384615384615385
 40
0.5384615384615385
 40
0.5384615384615385
 40
0.5384615384615385
 40
0.6153846153846155
 40
0.6153846153846155
 40
0.6153846153846155
 40
0.6153846153846155
 40
0.6923076923076924
 40
0.6923076923076924
 40
0.6923076923076924
 40
0.6923076923076924
 40
0.7692307692307693
 40
0.7692307692307693
 40
0.7692307692307693
 40
0.7692307692307693
 40
0.8461538461538461
 40
0.8461538461538461
 40
0.8461538461538461
 40
0.8461538461538461
 40
1.0
 40
1.0
 40
1.0
 40
1.0
 10
1698.226576655556
 20
808.347268533312
 30
0.0
 10
1698.188476655556
 20
808.5121685333119
 30
0.0
 10
1698.211776655556
 20
808.6623685333119
 30
0.0
 10
1698.296276655556
 20
808.797768533312
 30
0.0
 10
1698.296276655556
 20
808.797768533312
 30
0.0
 10
1698.380876655556
 20
808.9331685333119
 30
0.0
 10
1698.505676655556
 20
809.0198685333119
 30
0.0
 10
1698.670776655556
 20
809.0579685333119
 30
0.0
 10
1698.670776655556
 20
809.0579685333119
 30
0.0
 10
1698.670776655556
 20
809.0579685333119
 30
0.0
 10
1701.764376655556
 20
809.7721685333119
 30
0.0
 10
1701.764376655556
 20
809.7721685333119
 30
0.0
 10
1701.764376655556
 20
809.7721685333119
 30
0.0
 10
1701.929376655556
 20
809.8102685333119
 30
0.0
 10
1702.082976655556
 20
809.7878685333119
 30
0.0
 10
1702.225276655556
 20
809.7048685333119
 30
0.0
 10
1702.225276655556
 20
809.7048685333119
 30
0.0
 10
1702.367476655556
 20
809.6217685333119
 30
0.0
 10
1702.457676655556
 20
809.4978685333119
 30
0.0
 10
1702.495776655556
 20
809.3328685333119
 30
0.0
 10
1702.495776655556
 20
809.3328685333119
 30
0.0
 10
1702.495776655556
 20
809.3328685333119
 30
0.0
 10
1702.938576655556
 20
807.4148685333119
 30
0.0
 10
1702.938576655556
 20
807.4148685333119
 30
0.0
 10
1702.938576655556
 20
807.4148685333119
 30
0.0
 10
1702.976676655556
 20
807.249768533312
 30
0.0
 10
1702.950776655556
 20
807.0953685333119
 30
0.0
 10
1702.860876655556
 20
806.9514685333119
 30
0.0
 10
1702.860876655556
 20
806.9514685333119
 30
0.0
 10
1702.771076655556
 20
806.8076685333119
 30
0.0
 10
1702.643576655556
 20
806.7166685333118
 30
0.0
 10
1702.478576655556
 20
806.6785685333119
 30
0.0
 10
1702.478576655556
 20
806.6785685333119
 30
0.0
 10
1702.478576655556
 20
806.6785685333119
 30
0.0
 10
1699.384976655556
 20
805.9643685333119
 30
0.0
 10
1699.384976655556
 20
805.9643685333119
 30
0.0
 10
1699.384976655556
 20
805.9643685333119
 30
0.0
 10
1699.219876655556
 20
805.926268533312
 30
0.0
 10
1699.068976655556
 20
805.9529685333119
 30
0.0
 10
1698.931976655556
 20
806.0443685333119
 30
0.0
 10
1698.931976655556
 20
806.0443685333119
 30
0.0
 10
1698.795076655556
 20
806.1359685333119
 30
0.0
 10
1698.707476655556
 20
806.2641685333119
 30
0.0
 10
1698.669376655556
 20
806.429168533312
 30
0.0
 10
1698.669376655556
 20
806.429168533312
 30
0.0
 10
1698.669376655556
 20
806.429168533312
 30
0.0
 10
1698.226576655556
 20
808.347268533312
 30
0.0
 10
1698.226576655556
 20
808.347268533312
 30
0.0
  0
SPLINE
  5
2058
330
1F
100
AcDbEntity
  8
Layer 1
 62
     0
100
AcDbSpline
210
0.0
220
0.0
230
1.0
 70
    11
 71
     3
 72
    52
 73
    48
 74
     0
 42
0.0000000001
 43
0.0000000001
 40
0.0
 40
0.0
 40
0.0
 40
0.0
 40
0.0769230769230769
 40
0.0769230769230769
 40
0.0769230769230769
 40
0.0769230769230769
 40
0.1538461538461539
 40
0.1538461538461539
 40
0.1538461538461539
 40
0.1538461538461539
 40
0.2307692307692308
 40
0.2307692307692308
 40
0.2307692307692308
 40
0.2307692307692308
 40
0.3076923076923077
 40
0.3076923076923077
 40
0.3076923076923077
 40
0.3076923076923077
 40
0.3846153846153846
 40
0.3846153846153846
 40
0.3846153846153846
 40
0.3846153846153846
 40
0.4615384615384616
 40
0.4615384615384616
 40
0.4615384615384616
 40
0.4615384615384616
 40
0.5384615384615385
 40
0.5384615384615385
 40
0.5384615384615385
 40
0.5384615384615385
 40
0.6153846153846155
 40
0.6153846153846155
 40
0.6153846153846155
 40
0.6153846153846155
 40
0.6923076923076924
 40
0.6923076923076924
 40
0.6923076923076924
 40
0.6923076923076924
 40
0.7692307692307693
 40
0.7692307692307693
 40
0.7692307692307693
 40
0.7692307692307693
 40
0.8461538461538461
 40
0.8461538461538461
 40
0.8461538461538461
 40
0.8461538461538461
 40
1.0
 40
1.0
 40
1.0
 40
1.0
 10
1699.369276655556
 20
803.3973685333119
 30
0.0
 10
1699.334376655556
 20
803.548668533312
 30
0.0
 10
1699.358476655556
 20
803.6954685333119
 30
0.0
 10
1699.441376655556
 20
803.8376685333119
 30
0.0
 10
1699.441376655556
 20
803.8376685333119
 30
0.0
 10
1699.524476655556
 20
803.9798685333121
 30
0.0
 10
1699.648476655556
 20
804.0700685333119
 30
0.0
 10
1699.813476655556
 20
804.108168533312
 30
0.0
 10
1699.813476655556
 20
804.108168533312
 30
0.0
 10
1699.813476655556
 20
804.108168533312
 30
0.0
 10
1701.484076655556
 20
804.4938685333118
 30
0.0
 10
1701.484076655556
 20
804.4938685333118
 30
0.0
 10
1701.484076655556
 20
804.4938685333118
 30
0.0
 10
1701.648976655556
 20
804.5319685333121
 30
0.0
 10
1701.803476655556
 20
804.5060685333121
 30
0.0
 10
1701.947276655556
 20
804.4161685333119
 30
0.0
 10
1701.947276655556
 20
804.4161685333119
 30
0.0
 10
1702.091076655556
 20
804.3263685333119
 30
0.0
 10
1702.180476655556
 20
804.2057685333119
 30
0.0
 10
1702.215476655556
 20
804.0544685333118
 30
0.0
 10
1702.215476655556
 20
804.0544685333118
 30
0.0
 10
1702.215476655556
 20
804.0544685333118
 30
0.0
 10
1702.662976655556
 20
802.1158685333119
 30
0.0
 10
1702.662976655556
 20
802.1158685333119
 30
0.0
 10
1702.662976655556
 20
802.1158685333119
 30
0.0
 10
1702.697976655556
 20
801.964568533312
 30
0.0
 10
1702.670376655556
 20
801.8170685333119
 30
0.0
 10
1702.580576655556
 20
801.673168533312
 30
0.0
 10
1702.580576655556
 20
801.673168533312
 30
0.0
 10
1702.490776655556
 20
801.5293685333119
 30
0.0
 10
1702.363276655556
 20
801.438368533312
 30
0.0
 10
1702.198276655556
 20
801.4002685333119
 30
0.0
 10
1702.198276655556
 20
801.4002685333119
 30
0.0
 10
1702.198276655556
 20
801.4002685333119
 30
0.0
 10
1700.527676655556
 20
801.0145685333119
 30
0.0
 10
1700.527676655556
 20
801.0145685333119
 30
0.0
 10
1700.527676655556
 20
801.0145685333119
 30
0.0
 10
1700.362676655556
 20
800.976468533312
 30
0.0
 10
1700.211676655556
 20
801.0031685333119
 30
0.0
 10
1700.074676655556
 20
801.0945685333119
 30
0.0
 10
1700.074676655556
 20
801.0945685333119
 30
0.0
 10
1699.937776655556
 20
801.1861685333119
 30
0.0
 10
1699.851776655556
 20
801.3074685333119
 30
0.0
 10
1699.816876655556
 20
801.458768533312
 30
0.0
 10
1699.816876655556
 20
801.458768533312
 30
0.0
 10
1699.816876655556
 20
801.458768533312
 30
0.0
 10
1699.369276655556
 20
803.3973685333119
 30
0.0
 10
1699.369276655556
 20
803.3973685333119
 30
0.0
  0
SPLINE
  5
2059
330
1F
100
AcDbEntity
  8
Layer 1
 62
     0
100
AcDbSpline
210
0.0
220
0.0
230
1.0
 70
    11
 71
     3
 72
   132
 73
   128
 74
     0
 42
0.0000000001
 43
0.0000000001
 40
0.0
 40
0.0
 40
0.0
 40
0.0
 40
0.0303030303030303
 40
0.0303030303030303
 40
0.0303030303030303
 40
0.0303030303030303
 40
0.0606060606060606
 40
0.0606060606060606
 40
0.0606060606060606
 40
0.0606060606060606
 40
0.0909090909090909
 40
0.0909090909090909
 40
0.0909090909090909
 40
0.0909090909090909
 40
0.1212121212121212
 40
0.1212121212121212
 40
0.1212121212121212
 40
0.1212121212121212
 40
0.1515151515151515
 40
0.1515151515151515
 40
0.1515151515151515
 40
0.1515151515151515
 40
0.1818181818181818
 40
0.1818181818181818
 40
0.1818181818181818
 40
0.1818181818181818
 40
0.2121212121212121
 40
0.2121212121212121
 40
0.2121212121212121
 40
0.2121212121212121
 40
0.2424242424242424
 40
0.2424242424242424
 40
0.2424242424242424
 40
0.2424242424242424
 40
0.2727272727272727
 40
0.2727272727272727
 40
0.2727272727272727
 40
0.2727272727272727
 40
0.303030303030303
 40
0.303030303030303
 40
0.303030303030303
 40
0.303030303030303
 40
0.3333333333333333
 40
0.3333333333333333
 40
0.3333333333333333
 40
0.3333333333333333
 40
0.3636363636363636
 40
0.3636363636363636
 40
0.3636363636363636
 40
0.3636363636363636
 40
0.3939393939393939
 40
0.3939393939393939
 40
0.3939393939393939
 40
0.3939393939393939
 40
0.4242424242424243
 40
0.4242424242424243
 40
0.4242424242424243
 40
0.4242424242424243
 40
0.4545454545454545
 40
0.4545454545454545
 40
0.4545454545454545
 40
0.4545454545454545
 40
0.484848484848485
 40
0.484848484848485
 40
0.484848484848485
 40
0.484848484848485
 40
0.5151515151515152
 40
0.5151515151515152
 40
0.5151515151515152
 40
0.5151515151515152
 40
0.5454545454545455
 40
0.5454545454545455
 40
0.5454545454545455
 40
0.5454545454545455
 40
0.5757575757575758
 40
0.5757575757575758
 40
0.5757575757575758
 40
0.5757575757575758
 40
0.6060606060606061
 40
0.6060606060606061
 40
0.6060606060606061
 40
0.6060606060606061
 40
0.6363636363636364
 40
0.6363636363636364
 40
0.6363636363636364
 40
0.6363636363636364
 40
0.6666666666666666
 40
0.6666666666666666
 40
0.6666666666666666
 40
0.6666666666666666
 40
0.6969696969696971
 40
0.6969696969696971
 40
0.6969696969696971
 40
0.6969696969696971
 40
0.7272727272727274
 40
0.7272727272727274
 40
0.7272727272727274
 40
0.7272727272727274
 40
0.7575757575757577
 40
0.7575757575757577
 40
0.7575757575757577
 40
0.7575757575757577
 40
0.7878787878787879
 40
0.7878787878787879
 40
0.7878787878787879
 40
0.7878787878787879
 40
0.8181818181818181
 40
0.8181818181818181
 40
0.8181818181818181
 40
0.8181818181818181
 40
0.8484848484848484
 40
0.8484848484848484
 40
0.8484848484848484
 40
0.8484848484848484
 40
0.8787878787878787
 40
0.8787878787878787
 40
0.8787878787878787
 40
0.8787878787878787
 40
0.9090909090909091
 40
0.9090909090909091
 40
0.9090909090909091
 40
0.9090909090909091
 40
0.9393939393939394
 40
0.9393939393939394
 40
0.9393939393939394
 40
0.9393939393939394
 40
1.0
 40
1.0
 40
1.0
 40
1.0
 10
1703.634759836837
 20
807.2566146659468
 30
0.0
 10
1703.563259836837
 20
807.4101146659469
 30
0.0
 10
1703.554859836837
 20
807.5618146659468
 30
0.0
 10
1703.609459836837
 20
807.7119146659468
 30
0.0
 10
1703.609459836837
 20
807.7119146659468
 30
0.0
 10
1703.664059836837
 20
807.8619146659468
 30
0.0
 10
1703.761659836837
 20
807.9697146659468
 30
0.0
 10
1703.902359836837
 20
808.0352146659469
 30
0.0
 10
1703.902359836837
 20
808.0352146659469
 30
0.0
 10
1703.902359836837
 20
808.0352146659469
 30
0.0
 10
1706.319459836837
 20
809.1624146659468
 30
0.0
 10
1706.319459836837
 20
809.1624146659468
 30
0.0
 10
1706.319459836837
 20
809.1624146659468
 30
0.0
 10
1706.472959836837
 20
809.2340146659468
 30
0.0
 10
1706.621559836837
 20
809.2410146659469
 30
0.0
 10
1706.765159836837
 20
809.1834146659468
 30
0.0
 10
1706.765159836837
 20
809.1834146659468
 30
0.0
 10
1706.908759836837
 20
809.1258146659468
 30
0.0
 10
1707.016259836836
 20
809.0202146659468
 30
0.0
 10
1707.087859836837
 20
808.8668146659468
 30
0.0
 10
1707.087859836837
 20
808.8668146659468
 30
0.0
 10
1707.087859836837
 20
808.8668146659468
 30
0.0
 10
1707.785659836837
 20
807.3704146659469
 30
0.0
 10
1707.785659836837
 20
807.3704146659469
 30
0.0
 10
1707.785659836837
 20
807.3704146659469
 30
0.0
 10
1707.851259836837
 20
807.2297146659469
 30
0.0
 10
1707.859859836837
 20
807.0859146659469
 30
0.0
 10
1707.811759836837
 20
806.9389146659469
 30
0.0
 10
1707.811759836837
 20
806.9389146659469
 30
0.0
 10
1707.763559836837
 20
806.7919146659468
 30
0.0
 10
1707.662759836837
 20
806.6825146659468
 30
0.0
 10
1707.509159836837
 20
806.6109146659469
 30
0.0
 10
1707.509159836837
 20
806.6109146659469
 30
0.0
 10
1707.406959836837
 20
806.5633146659468
 30
0.0
 10
1707.332059836837
 20
806.4816146659468
 30
0.0
 10
1707.284759836837
 20
806.3661146659468
 30
0.0
 10
1707.284759836837
 20
806.3661146659468
 30
0.0
 10
1707.237359836837
 20
806.2507146659468
 30
0.0
 10
1707.240559836837
 20
806.1353146659467
 30
0.0
 10
1707.294159836837
 20
806.0202146659468
 30
0.0
 10
1707.294159836837
 20
806.0202146659468
 30
0.0
 10
1707.294159836837
 20
806.0202146659468
 30
0.0
 10
1707.544659836837
 20
805.4831146659468
 30
0.0
 10
1707.544659836837
 20
805.4831146659468
 30
0.0
 10
1707.544659836837
 20
805.4831146659468
 30
0.0
 10
1707.592359836837
 20
805.3808146659468
 30
0.0
 10
1707.677159836837
 20
805.3075146659468
 30
0.0
 10
1707.799059836836
 20
805.2631146659468
 30
0.0
 10
1707.799059836836
 20
805.2631146659468
 30
0.0
 10
1707.920959836837
 20
805.2187146659468
 30
0.0
 10
1708.033159836837
 20
805.2205146659469
 30
0.0
 10
1708.135359836837
 20
805.2681146659468
 30
0.0
 10
1708.135359836837
 20
805.2681146659468
 30
0.0
 10
1708.288859836837
 20
805.3397146659468
 30
0.0
 10
1708.435959836837
 20
805.3499146659468
 30
0.0
 10
1708.576559836837
 20
805.2987146659468
 30
0.0
 10
1708.576559836837
 20
805.2987146659468
 30
0.0
 10
1708.717159836837
 20
805.2475146659467
 30
0.0
 10
1708.820259836837
 20
805.1516146659468
 30
0.0
 10
1708.885959836837
 20
805.0108146659468
 30
0.0
 10
1708.885959836837
 20
805.0108146659468
 30
0.0
 10
1708.885959836837
 20
805.0108146659468
 30
0.0
 10
1709.583659836837
 20
803.5145146659468
 30
0.0
 10
1709.583659836837
 20
803.5145146659468
 30
0.0
 10
1709.583659836837
 20
803.5145146659468
 30
0.0
 10
1709.655159836837
 20
803.3611146659469
 30
0.0
 10
1709.666859836836
 20
803.2108146659467
 30
0.0
 10
1709.618759836837
 20
803.0638146659468
 30
0.0
 10
1709.618759836837
 20
803.0638146659468
 30
0.0
 10
1709.570559836837
 20
802.9168146659468
 30
0.0
 10
1709.469659836837
 20
802.8075146659469
 30
0.0
 10
1709.316159836837
 20
802.7359146659469
 30
0.0
 10
1709.316159836837
 20
802.7359146659469
 30
0.0
 10
1709.213959836837
 20
802.6882146659469
 30
0.0
 10
1709.140459836837
 20
802.6034146659467
 30
0.0
 10
1709.096159836837
 20
802.4815146659468
 30
0.0
 10
1709.096159836837
 20
802.4815146659468
 30
0.0
 10
1709.051759836837
 20
802.3596146659468
 30
0.0
 10
1709.053459836837
 20
802.2475146659468
 30
0.0
 10
1709.101159836837
 20
802.1452146659468
 30
0.0
 10
1709.101159836837
 20
802.1452146659468
 30
0.0
 10
1709.101159836837
 20
802.1452146659468
 30
0.0
 10
1709.843659836837
 20
800.5529146659469
 30
0.0
 10
1709.843659836837
 20
800.5529146659469
 30
0.0
 10
1709.843659836837
 20
800.5529146659469
 30
0.0
 10
1709.891359836837
 20
800.4506146659469
 30
0.0
 10
1709.976159836837
 20
800.3773146659469
 30
0.0
 10
1710.098059836836
 20
800.3329146659469
 30
0.0
 10
1710.098059836836
 20
800.3329146659469
 30
0.0
 10
1710.219959836837
 20
800.2886146659468
 30
0.0
 10
1710.332159836837
 20
800.2902146659467
 30
0.0
 10
1710.434359836837
 20
800.3379146659469
 30
0.0
 10
1710.434359836837
 20
800.3379146659469
 30
0.0
 10
1710.587859836837
 20
800.4095146659468
 30
0.0
 10
1710.733459836837
 20
800.4229146659469
 30
0.0
 10
1710.871059836837
 20
800.3781146659468
 30
0.0
 10
1710.871059836837
 20
800.3781146659468
 30
0.0
 10
1711.008659836837
 20
800.3333146659468
 30
0.0
 10
1711.110359836837
 20
800.2406146659469
 30
0.0
 10
1711.175859836837
 20
800.0999146659468
 30
0.0
 10
1711.175859836837
 20
800.0999146659468
 30
0.0
 10
1711.175859836837
 20
800.0999146659468
 30
0.0
 10
1711.882659836837
 20
798.5844146659468
 30
0.0
 10
1711.882659836837
 20
798.5844146659468
 30
0.0
 10
1711.882659836837
 20
798.5844146659468
 30
0.0
 10
1711.948159836836
 20
798.4437146659469
 30
0.0
 10
1711.956959836837
 20
798.2998146659468
 30
0.0
 10
1711.908759836837
 20
798.1528146659468
 30
0.0
 10
1711.908759836837
 20
798.1528146659468
 30
0.0
 10
1711.860559836837
 20
798.0058146659469
 30
0.0
 10
1711.759759836837
 20
797.8965146659468
 30
0.0
 10
1711.606159836837
 20
797.8249146659468
 30
0.0
 10
1711.606159836837
 20
797.8249146659468
 30
0.0
 10
1711.606159836837
 20
797.8249146659468
 30
0.0
 10
1709.189059836837
 20
796.6978146659467
 30
0.0
 10
1709.189059836837
 20
796.6978146659467
 30
0.0
 10
1709.189059836837
 20
796.6978146659467
 30
0.0
 10
1709.048359836837
 20
796.6322146659469
 30
0.0
 10
1708.903159836837
 20
796.6267146659469
 30
0.0
 10
1708.753059836837
 20
796.6813146659468
 30
0.0
 10
1708.753059836837
 20
796.6813146659468
 30
0.0
 10
1708.603059836837
 20
796.7359146659469
 30
0.0
 10
1708.495159836837
 20
796.8336146659468
 30
0.0
 10
1708.429559836837
 20
796.9742146659468
 30
0.0
 10
1708.429559836837
 20
796.9742146659468
 30
0.0
 10
1708.429559836837
 20
796.9742146659468
 30
0.0
 10
1703.634759836837
 20
807.2566146659468
 30
0.0
 10
1703.634759836837
 20
807.2566146659468
 30
0.0
  0
SPLINE
  5
205A
330
1F
100
AcDbEntity
  8
Layer 1
 62
     0
100
AcDbSpline
210
0.0
220
0.0
230
1.0
 70
    11
 71
     3
 72
    52
 73
    48
 74
     0
 42
0.0000000001
 43
0.0000000001
 40
0.0
 40
0.0
 40
0.0
 40
0.0
 40
0.0769230769230769
 40
0.0769230769230769
 40
0.0769230769230769
 40
0.0769230769230769
 40
0.1538461538461539
 40
0.1538461538461539
 40
0.1538461538461539
 40
0.1538461538461539
 40
0.2307692307692308
 40
0.2307692307692308
 40
0.2307692307692308
 40
0.2307692307692308
 40
0.3076923076923077
 40
0.3076923076923077
 40
0.3076923076923077
 40
0.3076923076923077
 40
0.3846153846153846
 40
0.3846153846153846
 40
0.3846153846153846
 40
0.3846153846153846
 40
0.4615384615384616
 40
0.4615384615384616
 40
0.4615384615384616
 40
0.4615384615384616
 40
0.5384615384615385
 40
0.5384615384615385
 40
0.5384615384615385
 40
0.5384615384615385
 40
0.6153846153846155
 40
0.6153846153846155
 40
0.6153846153846155
 40
0.6153846153846155
 40
0.6923076923076924
 40
0.6923076923076924
 40
0.6923076923076924
 40
0.6923076923076924
 40
0.7692307692307693
 40
0.7692307692307693
 40
0.7692307692307693
 40
0.7692307692307693
 40
0.8461538461538461
 40
0.8461538461538461
 40
0.8461538461538461
 40
0.8461538461538461
 40
1.0
 40
1.0
 40
1.0
 40
1.0
 10
1707.874459836837
 20
809.2336146659469
 30
0.0
 10
1707.802859836837
 20
809.3870146659467
 30
0.0
 10
1707.794359836837
 20
809.538814665947
 30
0.0
 10
1707.848959836837
 20
809.6888146659468
 30
0.0
 10
1707.848959836837
 20
809.6888146659468
 30
0.0
 10
1707.903559836837
 20
809.8388146659468
 30
0.0
 10
1708.001259836837
 20
809.9466146659468
 30
0.0
 10
1708.141959836837
 20
810.0122146659469
 30
0.0
 10
1708.141959836837
 20
810.0122146659469
 30
0.0
 10
1708.141959836837
 20
810.0122146659469
 30
0.0
 10
1710.559059836837
 20
811.1393146659468
 30
0.0
 10
1710.559059836837
 20
811.1393146659468
 30
0.0
 10
1710.559059836837
 20
811.1393146659468
 30
0.0
 10
1710.712459836837
 20
811.2109146659468
 30
0.0
 10
1710.861059836837
 20
811.2179146659467
 30
0.0
 10
1711.004659836837
 20
811.1603146659469
 30
0.0
 10
1711.004659836837
 20
811.1603146659469
 30
0.0
 10
1711.148359836837
 20
811.1027146659468
 30
0.0
 10
1711.255859836837
 20
810.9972146659469
 30
0.0
 10
1711.327459836837
 20
810.8438146659468
 30
0.0
 10
1711.327459836837
 20
810.8438146659468
 30
0.0
 10
1711.327459836837
 20
810.8438146659468
 30
0.0
 10
1712.025259836837
 20
809.3474146659469
 30
0.0
 10
1712.025259836837
 20
809.3474146659469
 30
0.0
 10
1712.025259836837
 20
809.3474146659469
 30
0.0
 10
1712.090859836837
 20
809.2067146659468
 30
0.0
 10
1712.099559836837
 20
809.0629146659468
 30
0.0
 10
1712.051259836837
 20
808.9158146659467
 30
0.0
 10
1712.051259836837
 20
808.9158146659467
 30
0.0
 10
1712.003059836837
 20
808.7688146659468
 30
0.0
 10
1711.902259836836
 20
808.6594146659468
 30
0.0
 10
1711.748859836837
 20
808.5879146659468
 30
0.0
 10
1711.748859836837
 20
808.5879146659468
 30
0.0
 10
1711.748859836837
 20
808.5879146659468
 30
0.0
 10
1709.331659836837
 20
807.4608146659468
 30
0.0
 10
1709.331659836837
 20
807.4608146659468
 30
0.0
 10
1709.331659836837
 20
807.4608146659468
 30
0.0
 10
1709.191059836837
 20
807.3952146659468
 30
0.0
 10
1709.045659836837
 20
807.3897146659469
 30
0.0
 10
1708.895559836837
 20
807.4443146659469
 30
0.0
 10
1708.895559836837
 20
807.4443146659469
 30
0.0
 10
1708.745559836837
 20
807.4989146659468
 30
0.0
 10
1708.637759836837
 20
807.5965146659468
 30
0.0
 10
1708.572159836837
 20
807.7372146659469
 30
0.0
 10
1708.572159836837
 20
807.7372146659469
 30
0.0
 10
1708.572159836837
 20
807.7372146659469
 30
0.0
 10
1707.874459836837
 20
809.2336146659469
 30
0.0
 10
1707.874459836837
 20
809.2336146659469
 30
0.0
  0
SPLINE
  5
205B
330
1F
100
AcDbEntity
  8
Layer 1
 62
     0
100
AcDbSpline
210
0.0
220
0.0
230
1.0
 70
    11
 71
     3
 72
    52
 73
    48
 74
     0
 42
0.0000000001
 43
0.0000000001
 40
0.0
 40
0.0
 40
0.0
 40
0.0
 40
0.0769230769230769
 40
0.0769230769230769
 40
0.0769230769230769
 40
0.0769230769230769
 40
0.1538461538461539
 40
0.1538461538461539
 40
0.1538461538461539
 40
0.1538461538461539
 40
0.2307692307692308
 40
0.2307692307692308
 40
0.2307692307692308
 40
0.2307692307692308
 40
0.3076923076923077
 40
0.3076923076923077
 40
0.3076923076923077
 40
0.3076923076923077
 40
0.3846153846153846
 40
0.3846153846153846
 40
0.3846153846153846
 40
0.3846153846153846
 40
0.4615384615384616
 40
0.4615384615384616
 40
0.4615384615384616
 40
0.4615384615384616
 40
0.5384615384615385
 40
0.5384615384615385
 40
0.5384615384615385
 40
0.5384615384615385
 40
0.6153846153846155
 40
0.6153846153846155
 40
0.6153846153846155
 40
0.6153846153846155
 40
0.6923076923076924
 40
0.6923076923076924
 40
0.6923076923076924
 40
0.6923076923076924
 40
0.7692307692307693
 40
0.7692307692307693
 40
0.7692307692307693
 40
0.7692307692307693
 40
0.8461538461538461
 40
0.8461538461538461
 40
0.8461538461538461
 40
0.8461538461538461
 40
1.0
 40
1.0
 40
1.0
 40
1.0
 10
1709.672459836837
 20
805.3776146659469
 30
0.0
 10
1709.606859836837
 20
805.5184146659467
 30
0.0
 10
1709.602859836837
 20
805.6605146659467
 30
0.0
 10
1709.660459836837
 20
805.8041146659467
 30
0.0
 10
1709.660459836837
 20
805.8041146659467
 30
0.0
 10
1709.717959836837
 20
805.9478146659468
 30
0.0
 10
1709.817159836837
 20
806.0524146659469
 30
0.0
 10
1709.957859836837
 20
806.1180146659468
 30
0.0
 10
1709.957859836837
 20
806.1180146659468
 30
0.0
 10
1709.957859836837
 20
806.1180146659468
 30
0.0
 10
1711.262259836837
 20
806.7263146659469
 30
0.0
 10
1711.262259836837
 20
806.7263146659469
 30
0.0
 10
1711.262259836837
 20
806.7263146659469
 30
0.0
 10
1711.415759836837
 20
806.7978146659468
 30
0.0
 10
1711.562759836837
 20
806.8080146659468
 30
0.0
 10
1711.703559836837
 20
806.7568146659468
 30
0.0
 10
1711.703559836837
 20
806.7568146659468
 30
0.0
 10
1711.844159836837
 20
806.7056146659469
 30
0.0
 10
1711.947259836836
 20
806.6097146659469
 30
0.0
 10
1712.012859836837
 20
806.4690146659469
 30
0.0
 10
1712.012859836837
 20
806.4690146659469
 30
0.0
 10
1712.012859836837
 20
806.4690146659469
 30
0.0
 10
1712.710559836837
 20
804.9726146659468
 30
0.0
 10
1712.710559836837
 20
804.9726146659468
 30
0.0
 10
1712.710559836837
 20
804.9726146659468
 30
0.0
 10
1712.782159836837
 20
804.8192146659468
 30
0.0
 10
1712.793859836837
 20
804.6690146659468
 30
0.0
 10
1712.745659836837
 20
804.5219146659468
 30
0.0
 10
1712.745659836837
 20
804.5219146659468
 30
0.0
 10
1712.697359836837
 20
804.3749146659468
 30
0.0
 10
1712.596559836837
 20
804.2656146659467
 30
0.0
 10
1712.443059836837
 20
804.1940146659468
 30
0.0
 10
1712.443059836837
 20
804.1940146659468
 30
0.0
 10
1712.443059836837
 20
804.1940146659468
 30
0.0
 10
1711.138659836837
 20
803.5858146659467
 30
0.0
 10
1711.138659836837
 20
803.5858146659467
 30
0.0
 10
1711.138659836837
 20
803.5858146659467
 30
0.0
 10
1710.997959836837
 20
803.5202146659468
 30
0.0
 10
1710.852559836836
 20
803.5146146659467
 30
0.0
 10
1710.702559836837
 20
803.5692146659469
 30
0.0
 10
1710.702559836837
 20
803.5692146659469
 30
0.0
 10
1710.552559836837
 20
803.6238146659467
 30
0.0
 10
1710.441759836837
 20
803.7279146659468
 30
0.0
 10
1710.370259836837
 20
803.8813146659469
 30
0.0
 10
1710.370259836837
 20
803.8813146659469
 30
0.0
 10
1710.370259836837
 20
803.8813146659469
 30
0.0
 10
1709.672459836837
 20
805.3776146659469
 30
0.0
 10
1709.672459836837
 20
805.3776146659469
 30
0.0
  0
SPLINE
  5
205C
330
1F
100
AcDbEntity
  8
Layer 1
 62
     0
100
AcDbSpline
210
0.0
220
0.0
230
1.0
 70
    11
 71
     3
 72
    52
 73
    48
 74
     0
 42
0.0000000001
 43
0.0000000001
 40
0.0
 40
0.0
 40
0.0
 40
0.0
 40
0.0769230769230769
 40
0.0769230769230769
 40
0.0769230769230769
 40
0.0769230769230769
 40
0.1538461538461539
 40
0.1538461538461539
 40
0.1538461538461539
 40
0.1538461538461539
 40
0.2307692307692308
 40
0.2307692307692308
 40
0.2307692307692308
 40
0.2307692307692308
 40
0.3076923076923077
 40
0.3076923076923077
 40
0.3076923076923077
 40
0.3076923076923077
 40
0.3846153846153846
 40
0.3846153846153846
 40
0.3846153846153846
 40
0.3846153846153846
 40
0.4615384615384616
 40
0.4615384615384616
 40
0.4615384615384616
 40
0.4615384615384616
 40
0.5384615384615385
 40
0.5384615384615385
 40
0.5384615384615385
 40
0.5384615384615385
 40
0.6153846153846155
 40
0.6153846153846155
 40
0.6153846153846155
 40
0.6153846153846155
 40
0.6923076923076924
 40
0.6923076923076924
 40
0.6923076923076924
 40
0.6923076923076924
 40
0.7692307692307693
 40
0.7692307692307693
 40
0.7692307692307693
 40
0.7692307692307693
 40
0.8461538461538461
 40
0.8461538461538461
 40
0.8461538461538461
 40
0.8461538461538461
 40
1.0
 40
1.0
 40
1.0
 40
1.0
 10
1711.962459836837
 20
800.4667146659468
 30
0.0
 10
1711.896859836837
 20
800.6074146659468
 30
0.0
 10
1711.894359836837
 20
800.7463146659469
 30
0.0
 10
1711.954959836837
 20
800.8836146659469
 30
0.0
 10
1711.954959836837
 20
800.8836146659469
 30
0.0
 10
1712.015559836836
 20
801.0207146659469
 30
0.0
 10
1712.116159836837
 20
801.1222146659468
 30
0.0
 10
1712.256859836837
 20
801.1878146659467
 30
0.0
 10
1712.256859836837
 20
801.1878146659467
 30
0.0
 10
1712.256859836837
 20
801.1878146659467
 30
0.0
 10
1714.673959836837
 20
802.3149146659468
 30
0.0
 10
1714.673959836837
 20
802.3149146659468
 30
0.0
 10
1714.673959836837
 20
802.3149146659468
 30
0.0
 10
1714.827359836837
 20
802.3864146659468
 30
0.0
 10
1714.972959836837
 20
802.3998146659467
 30
0.0
 10
1715.110559836837
 20
802.3551146659468
 30
0.0
 10
1715.110559836837
 20
802.3551146659468
 30
0.0
 10
1715.248359836837
 20
802.3103146659469
 30
0.0
 10
1715.349959836837
 20
802.2175146659469
 30
0.0
 10
1715.415559836837
 20
802.0769146659469
 30
0.0
 10
1715.415559836837
 20
802.0769146659469
 30
0.0
 10
1715.415559836837
 20
802.0769146659469
 30
0.0
 10
1716.122259836837
 20
800.5614146659468
 30
0.0
 10
1716.122259836837
 20
800.5614146659468
 30
0.0
 10
1716.122259836837
 20
800.5614146659468
 30
0.0
 10
1716.187859836837
 20
800.4207146659469
 30
0.0
 10
1716.196559836837
 20
800.2768146659468
 30
0.0
 10
1716.148259836837
 20
800.1297146659467
 30
0.0
 10
1716.148259836837
 20
800.1297146659467
 30
0.0
 10
1716.100159836837
 20
799.9827146659469
 30
0.0
 10
1715.999259836837
 20
799.8734146659468
 30
0.0
 10
1715.845759836837
 20
799.8019146659467
 30
0.0
 10
1715.845759836837
 20
799.8019146659467
 30
0.0
 10
1715.845759836837
 20
799.8019146659467
 30
0.0
 10
1713.428659836837
 20
798.6747146659468
 30
0.0
 10
1713.428659836837
 20
798.6747146659468
 30
0.0
 10
1713.428659836837
 20
798.6747146659468
 30
0.0
 10
1713.288059836837
 20
798.6092146659468
 30
0.0
 10
1713.142659836837
 20
798.6036146659468
 30
0.0
 10
1712.992659836837
 20
798.6582146659468
 30
0.0
 10
1712.992659836837
 20
798.6582146659468
 30
0.0
 10
1712.842559836837
 20
798.7128146659468
 30
0.0
 10
1712.734759836837
 20
798.8105146659468
 30
0.0
 10
1712.669159836837
 20
798.9512146659468
 30
0.0
 10
1712.669159836837
 20
798.9512146659468
 30
0.0
 10
1712.669159836837
 20
798.9512146659468
 30
0.0
 10
1711.962459836837
 20
800.4667146659468
 30
0.0
 10
1711.962459836837
 20
800.4667146659468
 30
0.0
  0
SPLINE
  5
205D
330
1F
100
AcDbEntity
  8
Layer 1
 62
     0
100
AcDbSpline
210
0.0
220
0.0
230
1.0
 70
    11
 71
     3
 72
   120
 73
   116
 74
     0
 42
0.0000000001
 43
0.0000000001
 40
0.0
 40
0.0
 40
0.0
 40
0.0
 40
0.0333333333333333
 40
0.0333333333333333
 40
0.0333333333333333
 40
0.0333333333333333
 40
0.0666666666666667
 40
0.0666666666666667
 40
0.0666666666666667
 40
0.0666666666666667
 40
0.1
 40
0.1
 40
0.1
 40
0.1
 40
0.1333333333333333
 40
0.1333333333333333
 40
0.1333333333333333
 40
0.1333333333333333
 40
0.1666666666666667
 40
0.1666666666666667
 40
0.1666666666666667
 40
0.1666666666666667
 40
0.2
 40
0.2
 40
0.2
 40
0.2
 40
0.2333333333333333
 40
0.2333333333333333
 40
0.2333333333333333
 40
0.2333333333333333
 40
0.2666666666666667
 40
0.2666666666666667
 40
0.2666666666666667
 40
0.2666666666666667
 40
0.3
 40
0.3
 40
0.3
 40
0.3
 40
0.3333333333333333
 40
0.3333333333333333
 40
0.3333333333333333
 40
0.3333333333333333
 40
0.3666666666666666
 40
0.3666666666666666
 40
0.3666666666666666
 40
0.3666666666666666
 40
0.4
 40
0.4
 40
0.4
 40
0.4
 40
0.4333333333333333
 40
0.4333333333333333
 40
0.4333333333333333
 40
0.4333333333333333
 40
0.4666666666666667
 40
0.4666666666666667
 40
0.4666666666666667
 40
0.4666666666666667
 40
0.5
 40
0.5
 40
0.5
 40
0.5
 40
0.5333333333333333
 40
0.5333333333333333
 40
0.5333333333333333
 40
0.5333333333333333
 40
0.5666666666666666
 40
0.5666666666666666
 40
0.5666666666666666
 40
0.5666666666666666
 40
0.6
 40
0.6
 40
0.6
 40
0.6
 40
0.6333333333333333
 40
0.6333333333333333
 40
0.6333333333333333
 40
0.6333333333333333
 40
0.6666666666666666
 40
0.6666666666666666
 40
0.6666666666666666
 40
0.6666666666666666
 40
0.7
 40
0.7
 40
0.7
 40
0.7
 40
0.7333333333333333
 40
0.7333333333333333
 40
0.7333333333333333
 40
0.7333333333333333
 40
0.7666666666666667
 40
0.7666666666666667
 40
0.7666666666666667
 40
0.7666666666666667
 40
0.8
 40
0.8
 40
0.8
 40
0.8
 40
0.8333333333333333
 40
0.8333333333333333
 40
0.8333333333333333
 40
0.8333333333333333
 40
0.8666666666666667
 40
0.8666666666666667
 40
0.8666666666666667
 40
0.8666666666666667
 40
0.9
 40
0.9
 40
0.9
 40
0.9
 40
0.9333333333333332
 40
0.9333333333333332
 40
0.9333333333333332
 40
0.9333333333333332
 40
1.0
 40
1.0
 40
1.0
 40
1.0
 10
1716.884470745211
 20
813.9606995698047
 30
0.0
 10
1716.849270745211
 20
814.0216995698049
 30
0.0
 10
1716.823670745211
 20
814.0802995698047
 30
0.0
 10
1716.807570745211
 20
814.1362995698047
 30
0.0
 10
1716.807570745211
 20
814.1362995698047
 30
0.0
 10
1716.791570745211
 20
814.1921995698048
 30
0.0
 10
1716.790370745211
 20
814.2647995698048
 30
0.0
 10
1716.803970745212
 20
814.3540995698048
 30
0.0
 10
1716.803970745212
 20
814.3540995698048
 30
0.0
 10
1716.855670745211
 20
814.5468995698049
 30
0.0
 10
1716.948670745211
 20
814.6819995698049
 30
0.0
 10
1717.083070745211
 20
814.7595995698047
 30
0.0
 10
1717.083070745211
 20
814.7595995698047
 30
0.0
 10
1717.083070745211
 20
814.7595995698047
 30
0.0
 10
1717.999670745211
 20
815.2887995698048
 30
0.0
 10
1717.999670745211
 20
815.2887995698048
 30
0.0
 10
1717.999670745211
 20
815.2887995698048
 30
0.0
 10
1718.121870745211
 20
815.3593995698049
 30
0.0
 10
1718.269670745211
 20
815.3713995698048
 30
0.0
 10
1718.443170745211
 20
815.3248995698048
 30
0.0
 10
1718.443170745211
 20
815.3248995698048
 30
0.0
 10
1718.443170745211
 20
815.3248995698048
 30
0.0
 10
1720.611770745211
 20
814.7438995698049
 30
0.0
 10
1720.611770745211
 20
814.7438995698049
 30
0.0
 10
1720.611770745211
 20
814.7438995698049
 30
0.0
 10
1720.785270745211
 20
814.6973995698047
 30
0.0
 10
1720.907270745211
 20
814.6130995698047
 30
0.0
 10
1720.977870745211
 20
814.4907995698048
 30
0.0
 10
1720.977870745211
 20
814.4907995698048
 30
0.0
 10
1720.977870745211
 20
814.4907995698048
 30
0.0
 10
1725.073570745211
 20
807.3966995698048
 30
0.0
 10
1725.073570745211
 20
807.3966995698048
 30
0.0
 10
1725.073570745211
 20
807.3966995698048
 30
0.0
 10
1725.108870745211
 20
807.3356995698047
 30
0.0
 10
1725.123570745211
 20
807.2748995698047
 30
0.0
 10
1725.117670745211
 20
807.2144995698048
 30
0.0
 10
1725.117670745211
 20
807.2144995698048
 30
0.0
 10
1725.111970745211
 20
807.1540995698047
 30
0.0
 10
1725.108170745211
 20
807.0827995698047
 30
0.0
 10
1725.106870745211
 20
807.0004995698047
 30
0.0
 10
1725.106870745211
 20
807.0004995698047
 30
0.0
 10
1725.106870745211
 20
807.0004995698047
 30
0.0
 10
1725.102970745211
 20
806.9859995698047
 30
0.0
 10
1725.095270745211
 20
806.9571995698048
 30
0.0
 10
1725.095270745211
 20
806.9571995698048
 30
0.0
 10
1725.087470745211
 20
806.9281995698048
 30
0.0
 10
1725.065570745211
 20
806.8462995698048
 30
0.0
 10
1725.029370745211
 20
806.7112995698048
 30
0.0
 10
1725.029370745211
 20
806.7112995698048
 30
0.0
 10
1724.993270745211
 20
806.5764995698048
 30
0.0
 10
1724.935170745211
 20
806.3595995698047
 30
0.0
 10
1724.855070745211
 20
806.0607995698047
 30
0.0
 10
1724.855070745211
 20
806.0607995698047
 30
0.0
 10
1724.775070745211
 20
805.7620995698048
 30
0.0
 10
1724.662770745212
 20
805.3426995698048
 30
0.0
 10
1724.518070745212
 20
804.8029995698048
 30
0.0
 10
1724.518070745212
 20
804.8029995698048
 30
0.0
 10
1724.476770745211
 20
804.6487995698049
 30
0.0
 10
1724.388870745211
 20
804.5328995698048
 30
0.0
 10
1724.254470745211
 20
804.4552995698047
 30
0.0
 10
1724.254470745211
 20
804.4552995698047
 30
0.0
 10
1724.254470745211
 20
804.4552995698047
 30
0.0
 10
1723.337870745211
 20
803.9260995698048
 30
0.0
 10
1723.337870745211
 20
803.9260995698048
 30
0.0
 10
1723.337870745211
 20
803.9260995698048
 30
0.0
 10
1723.191270745211
 20
803.8414995698047
 30
0.0
 10
1723.045670745212
 20
803.8184995698047
 30
0.0
 10
1722.901070745211
 20
803.8572995698048
 30
0.0
 10
1722.901070745211
 20
803.8572995698048
 30
0.0
 10
1722.756570745211
 20
803.8959995698046
 30
0.0
 10
1722.641870745211
 20
803.9886995698047
 30
0.0
 10
1722.557170745211
 20
804.1352995698048
 30
0.0
 10
1722.557170745211
 20
804.1352995698048
 30
0.0
 10
1722.557170745211
 20
804.1352995698048
 30
0.0
 10
1721.731670745211
 20
805.5650995698048
 30
0.0
 10
1721.731670745211
 20
805.5650995698048
 30
0.0
 10
1721.731670745211
 20
805.5650995698048
 30
0.0
 10
1721.654070745211
 20
805.6994995698048
 30
0.0
 10
1721.634670745211
 20
805.8390995698047
 30
0.0
 10
1721.673370745211
 20
805.9835995698048
 30
0.0
 10
1721.673370745211
 20
805.9835995698048
 30
0.0
 10
1721.712170745211
 20
806.1281995698047
 30
0.0
 10
1721.804870745211
 20
806.2427995698048
 30
0.0
 10
1721.951470745211
 20
806.3273995698049
 30
0.0
 10
1721.951470745211
 20
806.3273995698049
 30
0.0
 10
1722.049270745212
 20
806.3838995698048
 30
0.0
 10
1722.111870745211
 20
806.4729995698048
 30
0.0
 10
1722.139370745211
 20
806.5947995698047
 30
0.0
 10
1722.139370745211
 20
806.5947995698047
 30
0.0
 10
1722.166770745211
 20
806.7164995698048
 30
0.0
 10
1722.152370745211
 20
806.8262995698049
 30
0.0
 10
1722.095870745211
 20
806.9240995698047
 30
0.0
 10
1722.095870745211
 20
806.9240995698047
 30
0.0
 10
1722.095870745211
 20
806.9240995698047
 30
0.0
 10
1719.079670745211
 20
812.1483995698048
 30
0.0
 10
1719.079670745211
 20
812.1483995698048
 30
0.0
 10
1719.079670745211
 20
812.1483995698048
 30
0.0
 10
1719.016170745211
 20
812.2582995698047
 30
0.0
 10
1718.926470745211
 20
812.3288995698047
 30
0.0
 10
1718.810870745211
 20
812.3597995698046
 30
0.0
 10
1718.810870745211
 20
812.3597995698046
 30
0.0
 10
1718.695170745212
 20
812.3907995698047
 30
0.0
 10
1718.588470745211
 20
812.3780995698048
 30
0.0
 10
1718.490670745211
 20
812.3215995698048
 30
0.0
 10
1718.490670745211
 20
812.3215995698048
 30
0.0
 10
1718.344070745211
 20
812.2369995698047
 30
0.0
 10
1718.198470745211
 20
812.2140995698048
 30
0.0
 10
1718.053870745211
 20
812.2527995698048
 30
0.0
 10
1718.053870745211
 20
812.2527995698048
 30
0.0
 10
1717.909370745211
 20
812.2914995698048
 30
0.0
 10
1717.794670745211
 20
812.3841995698047
 30
0.0
 10
1717.710070745211
 20
812.5307995698047
 30
0.0
 10
1717.710070745211
 20
812.5307995698047
 30
0.0
 10
1717.710070745211
 20
812.5307995698047
 30
0.0
 10
1716.884470745211
 20
813.9606995698047
 30
0.0
 10
1716.884470745211
 20
813.9606995698047
 30
0.0
  0
SPLINE
  5
205E
330
1F
100
AcDbEntity
  8
Layer 1
 62
     0
100
AcDbSpline
210
0.0
220
0.0
230
1.0
 70
    11
 71
     3
 72
   112
 73
   108
 74
     0
 42
0.0000000001
 43
0.0000000001
 40
0.0
 40
0.0
 40
0.0
 40
0.0
 40
0.0357142857142857
 40
0.0357142857142857
 40
0.0357142857142857
 40
0.0357142857142857
 40
0.0714285714285714
 40
0.0714285714285714
 40
0.0714285714285714
 40
0.0714285714285714
 40
0.1071428571428571
 40
0.1071428571428571
 40
0.1071428571428571
 40
0.1071428571428571
 40
0.1428571428571428
 40
0.1428571428571428
 40
0.1428571428571428
 40
0.1428571428571428
 40
0.1785714285714286
 40
0.1785714285714286
 40
0.1785714285714286
 40
0.1785714285714286
 40
0.2142857142857143
 40
0.2142857142857143
 40
0.2142857142857143
 40
0.2142857142857143
 40
0.25
 40
0.25
 40
0.25
 40
0.25
 40
0.2857142857142857
 40
0.2857142857142857
 40
0.2857142857142857
 40
0.2857142857142857
 40
0.3214285714285715
 40
0.3214285714285715
 40
0.3214285714285715
 40
0.3214285714285715
 40
0.3571428571428572
 40
0.3571428571428572
 40
0.3571428571428572
 40
0.3571428571428572
 40
0.3928571428571428
 40
0.3928571428571428
 40
0.3928571428571428
 40
0.3928571428571428
 40
0.4285714285714285
 40
0.4285714285714285
 40
0.4285714285714285
 40
0.4285714285714285
 40
0.4642857142857144
 40
0.4642857142857144
 40
0.4642857142857144
 40
0.4642857142857144
 40
0.5
 40
0.5
 40
0.5
 40
0.5
 40
0.5357142857142857
 40
0.5357142857142857
 40
0.5357142857142857
 40
0.5357142857142857
 40
0.5714285714285714
 40
0.5714285714285714
 40
0.5714285714285714
 40
0.5714285714285714
 40
0.6071428571428572
 40
0.6071428571428572
 40
0.6071428571428572
 40
0.6071428571428572
 40
0.6428571428571429
 40
0.6428571428571429
 40
0.6428571428571429
 40
0.6428571428571429
 40
0.6785714285714287
 40
0.6785714285714287
 40
0.6785714285714287
 40
0.6785714285714287
 40
0.7142857142857144
 40
0.7142857142857144
 40
0.7142857142857144
 40
0.7142857142857144
 40
0.75
 40
0.75
 40
0.75
 40
0.75
 40
0.7857142857142857
 40
0.7857142857142857
 40
0.7857142857142857
 40
0.7857142857142857
 40
0.8214285714285713
 40
0.8214285714285713
 40
0.8214285714285713
 40
0.8214285714285713
 40
0.8571428571428571
 40
0.8571428571428571
 40
0.8571428571428571
 40
0.8571428571428571
 40
0.8928571428571428
 40
0.8928571428571428
 40
0.8928571428571428
 40
0.8928571428571428
 40
0.9285714285714286
 40
0.9285714285714286
 40
0.9285714285714286
 40
0.9285714285714286
 40
1.0
 40
1.0
 40
1.0
 40
1.0
 10
1719.987770745211
 20
805.7069995698048
 30
0.0
 10
1720.030070745211
 20
805.6336995698048
 30
0.0
 10
1720.104270745211
 20
805.5827995698049
 30
0.0
 10
1720.210270745212
 20
805.5543995698048
 30
0.0
 10
1720.210270745212
 20
805.5543995698048
 30
0.0
 10
1720.316270745211
 20
805.5259995698047
 30
0.0
 10
1720.410470745211
 20
805.5110995698049
 30
0.0
 10
1720.492770745211
 20
805.5096995698049
 30
0.0
 10
1720.492770745211
 20
805.5096995698049
 30
0.0
 10
1720.629070745211
 20
805.5558995698048
 30
0.0
 10
1720.739570745211
 20
805.5054995698048
 30
0.0
 10
1720.824170745211
 20
805.3588995698047
 30
0.0
 10
1720.824170745211
 20
805.3588995698047
 30
0.0
 10
1720.824170745211
 20
805.3588995698047
 30
0.0
 10
1721.787270745211
 20
803.6907995698047
 30
0.0
 10
1721.787270745211
 20
803.6907995698047
 30
0.0
 10
1721.787270745211
 20
803.6907995698047
 30
0.0
 10
1721.871970745211
 20
803.5441995698048
 30
0.0
 10
1721.894870745211
 20
803.3985995698047
 30
0.0
 10
1721.856170745212
 20
803.2539995698048
 30
0.0
 10
1721.856170745212
 20
803.2539995698048
 30
0.0
 10
1721.817470745211
 20
803.1093995698048
 30
0.0
 10
1721.712570745211
 20
802.9877995698047
 30
0.0
 10
1721.541470745211
 20
802.8889995698047
 30
0.0
 10
1721.541470745211
 20
802.8889995698047
 30
0.0
 10
1721.541470745211
 20
802.8889995698047
 30
0.0
 10
1718.993470745211
 20
801.4178995698047
 30
0.0
 10
1718.993470745211
 20
801.4178995698047
 30
0.0
 10
1718.993470745211
 20
801.4178995698047
 30
0.0
 10
1718.846870745211
 20
801.3331995698049
 30
0.0
 10
1718.698170745211
 20
801.3084995698047
 30
0.0
 10
1718.547470745211
 20
801.3436995698048
 30
0.0
 10
1718.547470745211
 20
801.3436995698048
 30
0.0
 10
1718.396770745211
 20
801.3788995698048
 30
0.0
 10
1718.279170745211
 20
801.4698995698049
 30
0.0
 10
1718.194470745211
 20
801.6164995698048
 30
0.0
 10
1718.194470745211
 20
801.6164995698048
 30
0.0
 10
1718.194470745211
 20
801.6164995698048
 30
0.0
 10
1717.368970745211
 20
803.0462995698048
 30
0.0
 10
1717.368970745211
 20
803.0462995698048
 30
0.0
 10
1717.368970745211
 20
803.0462995698048
 30
0.0
 10
1717.291370745211
 20
803.1806995698048
 30
0.0
 10
1717.274970745211
 20
803.3219995698047
 30
0.0
 10
1717.319770745211
 20
803.4700995698047
 30
0.0
 10
1717.319770745211
 20
803.4700995698047
 30
0.0
 10
1717.364670745211
 20
803.6181995698047
 30
0.0
 10
1717.466570745212
 20
803.7380995698049
 30
0.0
 10
1717.625370745211
 20
803.8297995698048
 30
0.0
 10
1717.625370745211
 20
803.8297995698048
 30
0.0
 10
1717.723170745211
 20
803.8861995698049
 30
0.0
 10
1717.740270745211
 20
803.9693995698048
 30
0.0
 10
1717.676770745211
 20
804.0793995698047
 30
0.0
 10
1717.676770745211
 20
804.0793995698047
 30
0.0
 10
1717.676770745211
 20
804.0793995698047
 30
0.0
 10
1714.533470745211
 20
809.5236995698048
 30
0.0
 10
1714.533470745211
 20
809.5236995698048
 30
0.0
 10
1714.533470745211
 20
809.5236995698048
 30
0.0
 10
1714.469970745211
 20
809.6335995698048
 30
0.0
 10
1714.380470745211
 20
809.7041995698047
 30
0.0
 10
1714.264770745211
 20
809.7350995698047
 30
0.0
 10
1714.264770745211
 20
809.7350995698047
 30
0.0
 10
1714.149170745211
 20
809.7661995698048
 30
0.0
 10
1714.036270745211
 20
809.7498995698048
 30
0.0
 10
1713.926270745211
 20
809.6863995698049
 30
0.0
 10
1713.926270745211
 20
809.6863995698049
 30
0.0
 10
1713.730870745211
 20
809.5734995698048
 30
0.0
 10
1713.580170745211
 20
809.6087995698047
 30
0.0
 10
1713.474370745211
 20
809.7919995698047
 30
0.0
 10
1713.474370745211
 20
809.7919995698047
 30
0.0
 10
1713.474370745211
 20
809.7919995698047
 30
0.0
 10
1712.521770745211
 20
811.4418995698049
 30
0.0
 10
1712.521770745211
 20
811.4418995698049
 30
0.0
 10
1712.521770745211
 20
811.4418995698049
 30
0.0
 10
1712.437170745211
 20
811.5884995698049
 30
0.0
 10
1712.415470745211
 20
811.7388995698048
 30
0.0
 10
1712.456770745211
 20
811.8930995698047
 30
0.0
 10
1712.456770745211
 20
811.8930995698047
 30
0.0
 10
1712.498070745211
 20
812.0473995698048
 30
0.0
 10
1712.592070745211
 20
812.1666995698047
 30
0.0
 10
1712.738670745211
 20
812.2513995698048
 30
0.0
 10
1712.738670745211
 20
812.2513995698048
 30
0.0
 10
1712.738670745211
 20
812.2513995698048
 30
0.0
 10
1715.341670745211
 20
813.7541995698047
 30
0.0
 10
1715.341670745211
 20
813.7541995698047
 30
0.0
 10
1715.341670745211
 20
813.7541995698047
 30
0.0
 10
1715.476070745211
 20
813.8317995698049
 30
0.0
 10
1715.617370745211
 20
813.8482995698048
 30
0.0
 10
1715.765470745211
 20
813.8033995698048
 30
0.0
 10
1715.765470745211
 20
813.8033995698048
 30
0.0
 10
1715.913570745211
 20
813.7585995698048
 30
0.0
 10
1716.029970745211
 20
813.6627995698049
 30
0.0
 10
1716.114570745211
 20
813.5161995698048
 30
0.0
 10
1716.114570745211
 20
813.5161995698048
 30
0.0
 10
1716.114570745211
 20
813.5161995698048
 30
0.0
 10
1716.940170745211
 20
812.0862995698049
 30
0.0
 10
1716.940170745211
 20
812.0862995698049
 30
0.0
 10
1716.940170745211
 20
812.0862995698049
 30
0.0
 10
1717.024770745211
 20
811.9396995698048
 30
0.0
 10
1717.047770745211
 20
811.7940995698049
 30
0.0
 10
1717.009070745211
 20
811.6494995698047
 30
0.0
 10
1717.009070745211
 20
811.6494995698047
 30
0.0
 10
1716.970270745211
 20
811.5049995698047
 30
0.0
 10
1716.883670745211
 20
811.3937995698048
 30
0.0
 10
1716.749270745211
 20
811.3161995698048
 30
0.0
 10
1716.749270745211
 20
811.3161995698048
 30
0.0
 10
1716.749270745211
 20
811.3161995698048
 30
0.0
 10
1719.987770745211
 20
805.7069995698048
 30
0.0
 10
1719.987770745211
 20
805.7069995698048
 30
0.0
  0
SPLINE
  5
2060
330
1F
100
AcDbEntity
  8
0
 62
     0
100
AcDbSpline
210
0.0
220
0.0
230
1.0
 70
     8
 71
     3
 72
    12
 73
     8
 74
     6
 42
0.0000000001
 43
0.0000000001
 44
0.0000000001
 40
0.0
 40
0.0
 40
0.0
 40
0.0
 40
2.977831361594813
 40
6.669508117074878
 40
11.95998286459023
 40
17.69275148158271
 40
20.63268828695899
 40
20.63268828695899
 40
20.63268828695899
 40
20.63268828695899
 10
1665.196141238431
 20
803.8127133484891
 30
0.0
 10
1666.076504836335
 20
804.3413237543154
 30
0.0
 10
1668.048272693281
 20
805.5252629920765
 30
0.0
 10
1672.678033133906
 20
803.3796585065237
 30
0.0
 10
1670.534758224335
 20
796.7318549825257
 30
0.0
 10
1665.280305457038
 20
796.9005679646048
 30
0.0
 10
1662.958056385804
 20
795.1192903566902
 30
0.0
 10
1662.170843493947
 20
794.5154599087433
 30
0.0
 11
1665.196141238431
 21
803.8127133484891
 31
0.0
 11
1667.958839935161
 21
804.9240078770383
 31
0.0
 11
1671.250787099655
 21
803.2532113205624
 31
0.0
 11
1670.013524618848
 21
798.1094476588371
 31
0.0
 11
1664.64065574965
 21
796.1102187749003
 31
0.0
 11
1662.170843493947
 21
794.5154599087433
 31
0.0
  0
SPLINE
  5
2061
330
1F
100
AcDbEntity
  8
0
 62
     0
100
AcDbSpline
210
0.0
220
0.0
230
1.0
 70
     8
 71
     3
 72
    12
 73
     8
 74
     6
 42
0.0000000001
 43
0.0000000001
 44
0.0000000001
 40
0.0
 40
0.0
 40
0.0
 40
0.0
 40
2.9778313615948
 40
6.669508117074874
 40
11.95998286459021
 40
17.69275148158267
 40
20.63268828695897
 40
20.63268828695897
 40
20.63268828695897
 40
20.63268828695897
 10
1665.196141238431
 20
803.8127133484891
 30
0.0
 10
1664.795437509908
 20
804.758179131905
 30
0.0
 10
1663.897973400828
 20
806.8757576483495
 30
0.0
 10
1658.892116383576
 20
807.86555352065
 30
0.0
 10
1656.712852209063
 20
801.229460793046
 30
0.0
 10
1661.060410992808
 20
798.2737086762498
 30
0.0
 10
1661.889718723549
 20
795.466924154232
 30
0.0
 10
1662.170843493947
 20
794.5154599087433
 30
0.0
 11
1665.196141238431
 21
803.8127133484891
 31
0.0
 11
1663.616451975236
 21
806.3370075963618
 31
0.0
 11
1659.971646026709
 21
806.923409220281
 31
0.0
 11
1657.944964830297
 21
802.0365199866063
 31
0.0
 11
1661.112466374375
 21
797.2582807728127
 31
0.0
 11
1662.170843493947
 21
794.5154599087433
 31
0.0
  0
ENDSEC
  0
SECTION
  2
OBJECTS
  0
DICTIONARY
  5
C
330
0
100
AcDbDictionary
281
     1
  3
ACAD_COLOR
350
6B
  3
ACAD_GROUP
350
D
  3
ACAD_IMAGE_DICT
350
1B0
  3
ACAD_IMAGE_VARS
350
1B1
  3
ACAD_LAYOUT
350
1A
  3
ACAD_MATERIAL
350
6A
  3
ACAD_MLEADERSTYLE
350
12D
  3
ACAD_MLINESTYLE
350
17
  3
ACAD_PLOTSETTINGS
350
19
  3
ACAD_PLOTSTYLENAME
350
E
  3
ACAD_SCALELIST
350
10C
  3
ACAD_TABLESTYLE
350
7E
  3
ACAD_VISUALSTYLE
350
EF
  3
ACDB_RECOMPOSE_DATA
350
15D
  3
AcDbVariableDictionary
350
5E
  3
DWGPROPS
350
2065
  0
DICTIONARY
  5
13C
330
10
100
AcDbDictionary
280
     1
281
     1
  3
ADSK_XREC_LAYER_RECONCILED
360
1FD
  0
DICTIONARY
  5
203C
330
203B
100
AcDbDictionary
280
     1
281
     1
  0
DICTIONARY
  5
6B
102
{ACAD_REACTORS
330
C
102
}
330
C
100
AcDbDictionary
281
     1
  0
DICTIONARY
  5
D
102
{ACAD_REACTORS
330
C
102
}
330
C
100
AcDbDictionary
281
     1
  0
DICTIONARY
  5
1B0
102
{ACAD_REACTORS
330
C
102
}
330
C
100
AcDbDictionary
281
     1
  3
muzykanty
350
1B2
  0
RASTERVARIABLES
  5
1B1
102
{ACAD_REACTORS
330
C
102
}
330
C
100
AcDbRasterVariables
 90
        0
 70
     1
 71
     1
 72
     1
  0
DICTIONARY
  5
1A
102
{ACAD_REACTORS
330
C
102
}
330
C
100
AcDbDictionary
281
     1
  3
Model
350
22
  3
Лист1
350
D3
  3
Лист2
350
D7
  0
DICTIONARY
  5
6A
102
{ACAD_REACTORS
330
C
102
}
330
C
100
AcDbDictionary
281
     1
  3
ByBlock
350
ED
  3
ByLayer
350
EC
  3
Global
350
EE
  0
DICTIONARY
  5
12D
102
{ACAD_REACTORS
330
C
102
}
330
C
100
AcDbDictionary
281
     1
  3
Standard
350
12E
  3
Аннотативный
350
13B
  0
DICTIONARY
  5
17
102
{ACAD_REACTORS
330
C
102
}
330
C
100
AcDbDictionary
281
     1
  3
Standard
350
18
  0
DICTIONARY
  5
19
102
{ACAD_REACTORS
330
C
102
}
330
C
100
AcDbDictionary
281
     1
  0
ACDBDICTIONARYWDFLT
  5
E
102
{ACAD_REACTORS
330
C
102
}
330
C
100
AcDbDictionary
281
     1
  3
Normal
350
F
100
AcDbDictionaryWithDefault
340
F
  0
DICTIONARY
  5
10C
102
{ACAD_REACTORS
330
C
102
}
330
C
100
AcDbDictionary
281
     1
  3
A0
350
10D
  3
A1
350
188
  3
A2
350
189
  3
A3
350
18A
  3
A4
350
18B
  3
A5
350
18C
  3
A6
350
18D
  3
A7
350
18E
  3
A8
350
18F
  3
A9
350
190
  3
B0
350
191
  3
B1
350
192
  3
B2
350
193
  3
B3
350
194
  3
B4
350
195
  3
B5
350
196
  3
B6
350
197
  3
B7
350
198
  3
B8
350
199
  3
B9
350
19A
  3
C0
350
19B
  3
C1
350
19C
  3
C2
350
19D
  3
C3
350
19E
  3
C4
350
19F
  3
C5
350
1A0
  3
C6
350
1A1
  3
C7
350
1A2
  3
C8
350
1A3
  3
C9
350
1A4
  3
D0
350
1A5
  3
D1
350
1A6
  3
D2
350
1A7
  0
DICTIONARY
  5
7E
102
{ACAD_REACTORS
330
C
102
}
330
C
100
AcDbDictionary
281
     1
  3
Standard
350
7F
  0
DICTIONARY
  5
EF
102
{ACAD_REACTORS
330
C
102
}
330
C
100
AcDbDictionary
281
     1
  3
2dWireframe
350
F5
  3
3D Hidden
350
F7
  3
3dWireframe
350
F6
  3
Basic
350
F4
  3
Brighten
350
FB
  3
ColorChange
350
FF
  3
Conceptual
350
F8
  3
Dim
350
FA
  3
Facepattern
350
FE
  3
Flat
350
F0
  3
FlatWithEdges
350
F1
  3
Gouraud
350
F2
  3
GouraudWithEdges
350
F3
  3
Linepattern
350
FD
  3
Realistic
350
F9
  3
Thicken
350
FC
  0
XRECORD
  5
15D
102
{ACAD_REACTORS
330
C
102
}
330
C
100
AcDbXrecord
280
     1
 90
        1
330
7F
  0
DICTIONARY
  5
5E
102
{ACAD_REACTORS
330
C
102
}
330
C
100
AcDbDictionary
281
     1
  3
CANNOSCALE
350
146
  3
CMLEADERSTYLE
350
145
  3
CTABLESTYLE
350
84
  3
DIMASSOC
350
5F
  3
HIDETEXT
350
63
  3
INDEXCTL
350
201
  3
LIGHTINGUNITS
350
1FF
  3
MSLTSCALE
350
1FE
  3
PSOLHEIGHT
350
2063
  3
PSOLWIDTH
350
2062
  3
SORTENTS
350
200
  0
XRECORD
  5
2065
102
{ACAD_REACTORS
330
C
102
}
330
C
100
AcDbXrecord
280
     1
  1
DWGPROPS COOKIE
  2

  3

  4

  6

  7

  8
Admin
  9

300
=
301
=
302
=
303
=
304
=
305
=
306
=
307
=
308
=
309
=
 40
0.0485311805555556
 41
2456373.823826308
 42
2456748.621064988
  1

 90
        0
  0
XRECORD
  5
1FD
102
{ACAD_REACTORS
330
13C
102
}
330
13C
100
AcDbXrecord
280
     1
290
     1
  0
IMAGEDEF
  5
1B2
102
{ACAD_REACTORS
330
1B0
102
}
330
1B0
100
AcDbRasterImageDef
 90
        0
  1
C:\Documents and Settings\Admin\Рабочий стол\muzykanty.jpg
 10
598.0
 20
598.0
 11
0.3527777777777778
 21
0.3527777777777778
280
     1
281
     5
  0
LAYOUT
  5
22
102
{ACAD_XDICTIONARY
360
2066
102
}
102
{ACAD_REACTORS
330
1A
102
}
330
1A
100
AcDbPlotSettings
  1

  2
none_device
  4
ISO_A4_(210.00_x_297.00_MM)
  6

 40
7.5
 41
20.0
 42
7.5
 43
20.0
 44
210.0
 45
297.0
 46
11.54999923706054
 47
-13.65000009536743
 48
0.0
 49
0.0
140
0.0
141
0.0
142
1.0
143
8.704084754739808
 70
 11952
 72
     1
 73
     0
 74
     0
  7

 75
     0
147
0.1148885871608098
148
0.0
149
0.0
100
AcDbLayout
  1
Model
 70
     1
 71
     0
 10
0.0
 20
0.0
 11
12.0
 21
9.0
 12
0.0
 22
0.0
 32
0.0
 14
0.0
 24
0.0
 34
0.0
 15
0.0
 25
0.0
 35
0.0
146
0.0
 13
0.0
 23
0.0
 33
0.0
 16
1.0
 26
0.0
 36
0.0
 17
0.0
 27
1.0
 37
0.0
 76
     0
330
1F
331
EA
1001
ACAD_PSEXT
1000
None
1000
None
1000
Not applicable
1000
The layout will not be plotted unless a new plotter configuration name is selected.
1070
     0
  0
LAYOUT
  5
D3
102
{ACAD_XDICTIONARY
360
2069
102
}
102
{ACAD_REACTORS
330
1A
102
}
330
1A
100
AcDbPlotSettings
  1

  2
C:\Documents and Settings\basas\Application Data\Autodesk\AutoCAD 2005\R16.1\enu\plotters\Default Windows System Printer.pc3
  4

  6

 40
0.0
 41
0.0
 42
0.0
 43
0.0
 44
0.0
 45
0.0
 46
0.0
 47
0.0
 48
0.0
 49
0.0
140
0.0
141
0.0
142
1.0
143
1.0
 70
   688
 72
     0
 73
     0
 74
     5
  7

 75
    16
147
1.0
148
0.0
149
0.0
100
AcDbLayout
  1
Лист1
 70
     1
 71
     1
 10
0.0
 20
0.0
 11
12.0
 21
9.0
 12
0.0
 22
0.0
 32
0.0
 14
0.0
 24
0.0
 34
0.0
 15
0.0
 25
0.0
 35
0.0
146
0.0
 13
0.0
 23
0.0
 33
0.0
 16
1.0
 26
0.0
 36
0.0
 17
0.0
 27
1.0
 37
0.0
 76
     0
330
D2
  0
LAYOUT
  5
D7
102
{ACAD_XDICTIONARY
360
206B
102
}
102
{ACAD_REACTORS
330
1A
102
}
330
1A
100
AcDbPlotSettings
  1

  2
C:\Documents and Settings\basas\Application Data\Autodesk\AutoCAD 2005\R16.1\enu\plotters\Default Windows System Printer.pc3
  4

  6

 40
0.0
 41
0.0
 42
0.0
 43
0.0
 44
0.0
 45
0.0
 46
0.0
 47
0.0
 48
0.0
 49
0.0
140
0.0
141
0.0
142
1.0
143
1.0
 70
   688
 72
     0
 73
     0
 74
     5
  7

 75
    16
147
1.0
148
0.0
149
0.0
100
AcDbLayout
  1
Лист2
 70
     1
 71
     2
 10
0.0
 20
0.0
 11
12.0
 21
9.0
 12
0.0
 22
0.0
 32
0.0
 14
0.0
 24
0.0
 34
0.0
 15
0.0
 25
0.0
 35
0.0
146
0.0
 13
0.0
 23
0.0
 33
0.0
 16
1.0
 26
0.0
 36
0.0
 17
0.0
 27
1.0
 37
0.0
 76
     0
330
D6
  0
MATERIAL
  5
ED
102
{ACAD_XDICTIONARY
360
201D
102
}
102
{ACAD_REACTORS
330
6A
102
}
330
6A
100
AcDbMaterial
  1
ByBlock
  0
MATERIAL
  5
EC
102
{ACAD_XDICTIONARY
360
201B
102
}
102
{ACAD_REACTORS
330
6A
102
}
330
6A
100
AcDbMaterial
  1
ByLayer
  0
MATERIAL
  5
EE
102
{ACAD_XDICTIONARY
360
173
102
}
102
{ACAD_REACTORS
330
6A
102
}
330
6A
100
AcDbMaterial
  1
Global
 43
0.0007999999797903
 43
0.0
 43
0.0
 43
0.0
 43
0.0
 43
0.0007999999797903
 43
0.0
 43
0.0
 43
0.0
 43
0.0
 43
1.0
 43
0.0
 43
0.0
 43
0.0
 43
0.0
 43
1.0
 49
0.0007999999797903
 49
0.0
 49
0.0
 49
0.0
 49
0.0
 49
0.0007999999797903
 49
0.0
 49
0.0
 49
0.0
 49
0.0
 49
1.0
 49
0.0
 49
0.0
 49
0.0
 49
0.0
 49
1.0
142
0.0007999999797903
142
0.0
142
0.0
142
0.0
142
0.0
142
0.0007999999797903
142
0.0
142
0.0
142
0.0
142
0.0
142
1.0
142
0.0
142
0.0
142
0.0
142
0.0
142
1.0
144
0.0007999999797903
144
0.0
144
0.0
144
0.0
144
0.0
144
0.0007999999797903
144
0.0
144
0.0
144
0.0
144
0.0
144
1.0
144
0.0
144
0.0
144
0.0
144
0.0
144
1.0
1001
ACAD
1070
    -1
1070
     3
1070
     0
1000

1071
        0
1070
     0
  0
MLEADERSTYLE
  5
12E
102
{ACAD_REACTORS
330
12D
102
}
330
12D
100
AcDbMLeaderStyle
170
     2
171
     1
172
     0
 90
        2
 40
0.0
 41
0.0
173
     1
 91
-1056964608
340
14
 92
       -2
290
     1
 42
2.0
291
     1
 43
8.0
  3
Standard
 44
4.0
300

342
11
174
     1
178
     1
175
     1
176
     0
 93
-1056964608
 45
4.0
292
     0
297
     0
 46
4.0
 94
-1056964608
 47
1.0
 49
1.0
140
1.0
293
     1
141
0.0
294
     1
177
     0
142
1.0
295
     0
296
     0
143
3.75
1001
ACAD_MLEADERVER
1070
     2
  0
MLEADERSTYLE
  5
13B
102
{ACAD_REACTORS
330
12D
102
}
330
12D
100
AcDbMLeaderStyle
170
     2
171
     1
172
     0
 90
        2
 40
0.0
 41
0.0
173
     1
 91
-1056964608
340
14
 92
       -2
290
     1
 42
2.0
291
     1
 43
8.0
  3
Standard
 44
4.0
300

342
11
174
     1
178
     1
175
     1
176
     0
 93
-1056964608
 45
4.0
292
     0
297
     0
 46
4.0
 94
-1056964608
 47
1.0
 49
1.0
140
1.0
293
     1
141
0.0
294
     1
177
     0
142
1.0
295
     0
296
     1
143
3.75
1001
ACAD_MLEADERVER
1070
     2
  0
MLINESTYLE
  5
18
102
{ACAD_REACTORS
330
17
102
}
330
17
100
AcDbMlineStyle
  2
STANDARD
 70
     0
  3

 62
   256
 51
90.0
 52
90.0
 71
     2
 49
0.5
 62
   256
  6
BYLAYER
 49
-0.5
 62
   256
  6
BYLAYER
  0
ACDBPLACEHOLDER
  5
F
102
{ACAD_REACTORS
330
E
102
}
330
E
  0
SCALE
  5
10D
102
{ACAD_REACTORS
330
10C
102
}
330
10C
100
AcDbScale
 70
     0
300
1:1
140
1.0
141
1.0
290
     1
  0
SCALE
  5
188
102
{ACAD_REACTORS
330
10C
102
}
330
10C
100
AcDbScale
 70
     0
300
1:2
140
1.0
141
2.0
290
     0
  0
SCALE
  5
189
102
{ACAD_REACTORS
330
10C
102
}
330
10C
100
AcDbScale
 70
     0
300
1:4
140
1.0
141
4.0
290
     0
  0
SCALE
  5
18A
102
{ACAD_REACTORS
330
10C
102
}
330
10C
100
AcDbScale
 70
     0
300
1:5
140
1.0
141
5.0
290
     0
  0
SCALE
  5
18B
102
{ACAD_REACTORS
330
10C
102
}
330
10C
100
AcDbScale
 70
     0
300
1:8
140
1.0
141
8.0
290
     0
  0
SCALE
  5
18C
102
{ACAD_REACTORS
330
10C
102
}
330
10C
100
AcDbScale
 70
     0
300
1:10
140
1.0
141
10.0
290
     0
  0
SCALE
  5
18D
102
{ACAD_REACTORS
330
10C
102
}
330
10C
100
AcDbScale
 70
     0
300
1:16
140
1.0
141
16.0
290
     0
  0
SCALE
  5
18E
102
{ACAD_REACTORS
330
10C
102
}
330
10C
100
AcDbScale
 70
     0
300
1:20
140
1.0
141
20.0
290
     0
  0
SCALE
  5
18F
102
{ACAD_REACTORS
330
10C
102
}
330
10C
100
AcDbScale
 70
     0
300
1:30
140
1.0
141
30.0
290
     0
  0
SCALE
  5
190
102
{ACAD_REACTORS
330
10C
102
}
330
10C
100
AcDbScale
 70
     0
300
1:40
140
1.0
141
40.0
290
     0
  0
SCALE
  5
191
102
{ACAD_REACTORS
330
10C
102
}
330
10C
100
AcDbScale
 70
     0
300
1:50
140
1.0
141
50.0
290
     0
  0
SCALE
  5
192
102
{ACAD_REACTORS
330
10C
102
}
330
10C
100
AcDbScale
 70
     0
300
1:100
140
1.0
141
100.0
290
     0
  0
SCALE
  5
193
102
{ACAD_REACTORS
330
10C
102
}
330
10C
100
AcDbScale
 70
     0
300
2:1
140
2.0
141
1.0
290
     0
  0
SCALE
  5
194
102
{ACAD_REACTORS
330
10C
102
}
330
10C
100
AcDbScale
 70
     0
300
4:1
140
4.0
141
1.0
290
     0
  0
SCALE
  5
195
102
{ACAD_REACTORS
330
10C
102
}
330
10C
100
AcDbScale
 70
     0
300
8:1
140
8.0
141
1.0
290
     0
  0
SCALE
  5
196
102
{ACAD_REACTORS
330
10C
102
}
330
10C
100
AcDbScale
 70
     0
300
10:1
140
10.0
141
1.0
290
     0
  0
SCALE
  5
197
102
{ACAD_REACTORS
330
10C
102
}
330
10C
100
AcDbScale
 70
     0
300
100:1
140
100.0
141
1.0
290
     0
  0
SCALE
  5
198
102
{ACAD_REACTORS
330
10C
102
}
330
10C
100
AcDbScale
 70
     0
300
1/128" = 1'-0"
140
0.0078125
141
12.0
290
     0
  0
SCALE
  5
199
102
{ACAD_REACTORS
330
10C
102
}
330
10C
100
AcDbScale
 70
     0
300
1/64" = 1'-0"
140
0.015625
141
12.0
290
     0
  0
SCALE
  5
19A
102
{ACAD_REACTORS
330
10C
102
}
330
10C
100
AcDbScale
 70
     0
300
1/32" = 1'-0"
140
0.03125
141
12.0
290
     0
  0
SCALE
  5
19B
102
{ACAD_REACTORS
330
10C
102
}
330
10C
100
AcDbScale
 70
     0
300
1/16" = 1'-0"
140
0.0625
141
12.0
290
     0
  0
SCALE
  5
19C
102
{ACAD_REACTORS
330
10C
102
}
330
10C
100
AcDbScale
 70
     0
300
3/32" = 1'-0"
140
0.09375
141
12.0
290
     0
  0
SCALE
  5
19D
102
{ACAD_REACTORS
330
10C
102
}
330
10C
100
AcDbScale
 70
     0
300
1/8" = 1'-0"
140
0.125
141
12.0
290
     0
  0
SCALE
  5
19E
102
{ACAD_REACTORS
330
10C
102
}
330
10C
100
AcDbScale
 70
     0
300
3/16" = 1'-0"
140
0.1875
141
12.0
290
     0
  0
SCALE
  5
19F
102
{ACAD_REACTORS
330
10C
102
}
330
10C
100
AcDbScale
 70
     0
300
1/4" = 1'-0"
140
0.25
141
12.0
290
     0
  0
SCALE
  5
1A0
102
{ACAD_REACTORS
330
10C
102
}
330
10C
100
AcDbScale
 70
     0
300
3/8" = 1'-0"
140
0.375
141
12.0
290
     0
  0
SCALE
  5
1A1
102
{ACAD_REACTORS
330
10C
102
}
330
10C
100
AcDbScale
 70
     0
300
1/2" = 1'-0"
140
0.5
141
12.0
290
     0
  0
SCALE
  5
1A2
102
{ACAD_REACTORS
330
10C
102
}
330
10C
100
AcDbScale
 70
     0
300
3/4" = 1'-0"
140
0.75
141
12.0
290
     0
  0
SCALE
  5
1A3
102
{ACAD_REACTORS
330
10C
102
}
330
10C
100
AcDbScale
 70
     0
300
1" = 1'-0"
140
1.0
141
12.0
290
     0
  0
SCALE
  5
1A4
102
{ACAD_REACTORS
330
10C
102
}
330
10C
100
AcDbScale
 70
     0
300
1-1/2" = 1'-0"
140
1.5
141
12.0
290
     0
  0
SCALE
  5
1A5
102
{ACAD_REACTORS
330
10C
102
}
330
10C
100
AcDbScale
 70
     0
300
3" = 1'-0"
140
3.0
141
12.0
290
     0
  0
SCALE
  5
1A6
102
{ACAD_REACTORS
330
10C
102
}
330
10C
100
AcDbScale
 70
     0
300
6" = 1'-0"
140
6.0
141
12.0
290
     0
  0
SCALE
  5
1A7
102
{ACAD_REACTORS
330
10C
102
}
330
10C
100
AcDbScale
 70
     0
300
1'-0" = 1'-0"
140
12.0
141
12.0
290
     0
  0
TABLESTYLE
  5
7F
102
{ACAD_XDICTIONARY
360
162
102
}
102
{ACAD_REACTORS
330
7E
102
}
330
7E
100
AcDbTableStyle
  3
Standard
 70
     0
 71
     0
 40
1.5
 41
1.5
280
     0
281
     0
  7
Standard
140
4.5
170
     2
 62
     0
 63
     7
283
     0
274
    -2
284
     1
 64
     0
275
    -2
285
     1
 65
     0
276
    -2
286
     1
 66
     0
277
    -2
287
     1
 67
     0
278
    -2
288
     1
 68
     0
279
    -2
289
     1
 69
     0
  7
Standard
140
6.0
170
     5
 62
     0
 63
     7
283
     0
274
    -2
284
     1
 64
     0
275
    -2
285
     1
 65
     0
276
    -2
286
     1
 66
     0
277
    -2
287
     1
 67
     0
278
    -2
288
     1
 68
     0
279
    -2
289
     1
 69
     0
  7
Standard
140
4.5
170
     5
 62
     0
 63
     7
283
     0
274
    -2
284
     1
 64
     0
275
    -2
285
     1
 65
     0
276
    -2
286
     1
 66
     0
277
    -2
287
     1
 67
     0
278
    -2
288
     1
 68
     0
279
    -2
289
     1
 69
     0
  0
VISUALSTYLE
  5
F5
102
{ACAD_REACTORS
330
EF
102
}
330
EF
100
AcDbVisualStyle
  2
2dWireframe
 70
     4
 71
     0
 72
     2
 73
     1
 90
        0
 40
-0.6
 41
-30.0
 62
     5
 63
     7
 74
     1
 91
        4
 64
     7
 65
   257
 75
     1
175
     1
 42
1.0
 92
        0
 66
   257
 43
1.0
 76
     1
 77
     6
 78
     2
 67
     7
 79
     5
170
     0
171
     0
290
     0
174
     0
 93
        1
 44
0.0
173
     0
291
     0
 45
0.0
1001
ACAD
1000
AcDbSavedByObjectVersion
1070
     0
1000
AcDbSavedByObjectVersion
1070
     0
1000
AcDbSavedByObjectVersion
1070
     0
  0
VISUALSTYLE
  5
F7
102
{ACAD_REACTORS
330
EF
102
}
330
EF
100
AcDbVisualStyle
  2
3D Hidden
 70
     6
 71
     1
 72
     2
 73
     2
 90
        0
 40
-0.6
 41
-30.0
 62
     5
 63
     7
 74
     2
 91
        2
 64
     7
 65
   257
 75
     2
175
     1
 42
40.0
 92
        0
 66
   257
 43
1.0
 76
     1
 77
     6
 78
     2
 67
     7
 79
     3
170
     0
171
     0
290
     0
174
     0
 93
        1
 44
0.0
173
     0
291
     0
 45
0.0
1001
ACAD
1000
AcDbSavedByObjectVersion
1070
     0
1000
AcDbSavedByObjectVersion
1070
     0
1000
AcDbSavedByObjectVersion
1070
     0
  0
VISUALSTYLE
  5
F6
102
{ACAD_REACTORS
330
EF
102
}
330
EF
100
AcDbVisualStyle
  2
3dWireframe
 70
     5
 71
     0
 72
     2
 73
     1
 90
        0
 40
-0.6
 41
-30.0
 62
     5
 63
     7
 74
     1
 91
        4
 64
     7
 65
   257
 75
     1
175
     1
 42
1.0
 92
        0
 66
   257
 43
1.0
 76
     1
 77
     6
 78
     2
 67
     7
 79
     5
170
     0
171
     0
290
     0
174
     0
 93
        1
 44
0.0
173
     0
291
     0
 45
0.0
1001
ACAD
1000
AcDbSavedByObjectVersion
1070
     0
1000
AcDbSavedByObjectVersion
1070
     0
1000
AcDbSavedByObjectVersion
1070
     0
  0
VISUALSTYLE
  5
F4
102
{ACAD_REACTORS
330
EF
102
}
330
EF
100
AcDbVisualStyle
  2
Basic
 70
     7
 71
     1
 72
     0
 73
     1
 90
        0
 40
-0.6
 41
-30.0
 62
     5
 63
     7
 74
     0
 91
        4
 64
     7
 65
   257
 75
     1
175
     1
 42
1.0
 92
        8
 66
     7
 43
1.0
 76
     1
 77
     6
 78
     2
 67
     7
 79
     5
170
     0
171
     0
290
     0
174
     0
 93
        1
 44
0.0
173
     0
291
     1
 45
0.0
1001
ACAD
1000
AcDbSavedByObjectVersion
1070
     0
1000
AcDbSavedByObjectVersion
1070
     0
1000
AcDbSavedByObjectVersion
1070
     0
  0
VISUALSTYLE
  5
FB
102
{ACAD_REACTORS
330
EF
102
}
330
EF
100
AcDbVisualStyle
  2
Brighten
 70
    12
 71
     2
 72
     2
 73
     1
 90
        0
 40
-0.6
 41
-30.0
 62
     5
 63
     7
 74
     1
 91
        4
 64
     7
 65
   257
 75
     1
175
     1
 42
1.0
 92
        8
 66
     7
 43
1.0
 76
     1
 77
     6
 78
     2
 67
     7
 79
     5
170
     0
171
     0
290
     0
174
     0
 93
        1
 44
50.0
173
     0
291
     1
 45
0.0
1001
ACAD
1000
AcDbSavedByObjectVersion
1070
     0
1000
AcDbSavedByObjectVersion
1070
     0
1000
AcDbSavedByObjectVersion
1070
     0
  0
VISUALSTYLE
  5
FF
102
{ACAD_REACTORS
330
EF
102
}
330
EF
100
AcDbVisualStyle
  2
ColorChange
 70
    16
 71
     2
 72
     2
 73
     3
 90
        0
 40
-0.6
 41
-30.0
 62
     5
 63
     8
 74
     1
 91
        4
 64
     7
 65
   257
 75
     1
175
     1
 42
1.0
 92
        8
 66
     8
 43
1.0
 76
     1
 77
     6
 78
     2
 67
     7
 79
     5
170
     0
171
     0
290
     0
174
     0
 93
        1
 44
0.0
173
     0
291
     1
 45
0.0
1001
ACAD
1000
AcDbSavedByObjectVersion
1070
     0
1000
AcDbSavedByObjectVersion
1070
     0
1000
AcDbSavedByObjectVersion
1070
     0
  0
VISUALSTYLE
  5
F8
102
{ACAD_REACTORS
330
EF
102
}
330
EF
100
AcDbVisualStyle
  2
Conceptual
 70
     9
 71
     3
 72
     2
 73
     1
 90
        0
 40
-0.6
 41
-30.0
 62
     5
 63
     7
 74
     2
 91
        2
 64
     7
 65
   257
 75
     1
175
     1
 42
40.0
 92
        8
 66
     7
 43
1.0
 76
     1
 77
     6
 78
     2
 67
     7
 79
     3
170
     0
171
     0
290
     0
174
     0
 93
        1
 44
0.0
173
     0
291
     0
 45
0.0
1001
ACAD
1000
AcDbSavedByObjectVersion
1070
     0
1000
AcDbSavedByObjectVersion
1070
     0
1000
AcDbSavedByObjectVersion
1070
     0
  0
VISUALSTYLE
  5
FA
102
{ACAD_REACTORS
330
EF
102
}
330
EF
100
AcDbVisualStyle
  2
Dim
 70
    11
 71
     2
 72
     2
 73
     1
 90
        0
 40
-0.6
 41
-30.0
 62
     5
 63
     7
 74
     1
 91
        4
 64
     7
 65
   257
 75
     1
175
     1
 42
1.0
 92
        8
 66
     7
 43
1.0
 76
     1
 77
     6
 78
     2
 67
     7
 79
     5
170
     0
171
     0
290
     0
174
     0
 93
        1
 44
-50.0
173
     0
291
     1
 45
0.0
1001
ACAD
1000
AcDbSavedByObjectVersion
1070
     0
1000
AcDbSavedByObjectVersion
1070
     0
1000
AcDbSavedByObjectVersion
1070
     0
  0
VISUALSTYLE
  5
FE
102
{ACAD_REACTORS
330
EF
102
}
330
EF
100
AcDbVisualStyle
  2
Facepattern
 70
    15
 71
     2
 72
     2
 73
     1
 90
        0
 40
-0.6
 41
-30.0
 62
     5
 63
     7
 74
     1
 91
        4
 64
     7
 65
   257
 75
     1
175
     1
 42
1.0
 92
        8
 66
     7
 43
1.0
 76
     1
 77
     6
 78
     2
 67
     7
 79
     5
170
     0
171
     0
290
     0
174
     0
 93
        1
 44
0.0
173
     0
291
     1
 45
0.0
1001
ACAD
1000
AcDbSavedByObjectVersion
1070
     0
1000
AcDbSavedByObjectVersion
1070
     0
1000
AcDbSavedByObjectVersion
1070
     0
  0
VISUALSTYLE
  5
F0
102
{ACAD_REACTORS
330
EF
102
}
330
EF
100
AcDbVisualStyle
  2
Flat
 70
     0
 71
     2
 72
     1
 73
     1
 90
        2
 40
-0.6
 41
30.0
 62
     5
 63
     7
 74
     0
 91
        4
 64
     7
 65
   257
 75
     1
175
     1
 42
1.0
 92
        8
 66
     7
 43
1.0
 76
     1
 77
     6
 78
     2
 67
     7
 79
     5
170
     0
171
     0
290
     0
174
     0
 93
        1
 44
0.0
173
     0
291
     1
 45
0.0
1001
ACAD
1000
AcDbSavedByObjectVersion
1070
     0
1000
AcDbSavedByObjectVersion
1070
     0
1000
AcDbSavedByObjectVersion
1070
     0
  0
VISUALSTYLE
  5
F1
102
{ACAD_REACTORS
330
EF
102
}
330
EF
100
AcDbVisualStyle
  2
FlatWithEdges
 70
     1
 71
     2
 72
     1
 73
     1
 90
        2
 40
-0.6
 41
30.0
 62
     5
 63
     7
 74
     1
 91
        4
 64
     7
 65
   257
 75
     1
175
     1
 42
1.0
 92
        0
 66
   257
 43
1.0
 76
     1
 77
     6
 78
     2
 67
     7
 79
     5
170
     0
171
     0
290
     0
174
     0
 93
        1
 44
0.0
173
     0
291
     1
 45
0.0
1001
ACAD
1000
AcDbSavedByObjectVersion
1070
     0
1000
AcDbSavedByObjectVersion
1070
     0
1000
AcDbSavedByObjectVersion
1070
     0
  0
VISUALSTYLE
  5
F2
102
{ACAD_REACTORS
330
EF
102
}
330
EF
100
AcDbVisualStyle
  2
Gouraud
 70
     2
 71
     2
 72
     2
 73
     1
 90
        2
 40
-0.6
 41
30.0
 62
     5
 63
     7
 74
     0
 91
        4
 64
     7
 65
   257
 75
     1
175
     1
 42
1.0
 92
        0
 66
     7
 43
1.0
 76
     1
 77
     6
 78
     2
 67
     7
 79
     5
170
     0
171
     0
290
     0
174
     0
 93
        1
 44
0.0
173
     0
291
     1
 45
0.0
1001
ACAD
1000
AcDbSavedByObjectVersion
1070
     0
1000
AcDbSavedByObjectVersion
1070
     0
1000
AcDbSavedByObjectVersion
1070
     0
  0
VISUALSTYLE
  5
F3
102
{ACAD_REACTORS
330
EF
102
}
330
EF
100
AcDbVisualStyle
  2
GouraudWithEdges
 70
     3
 71
     2
 72
     2
 73
     1
 90
        2
 40
-0.6
 41
30.0
 62
     5
 63
     7
 74
     1
 91
        4
 64
     7
 65
   257
 75
     1
175
     1
 42
1.0
 92
        0
 66
   257
 43
1.0
 76
     1
 77
     6
 78
     2
 67
     7
 79
     5
170
     0
171
     0
290
     0
174
     0
 93
        1
 44
0.0
173
     0
291
     1
 45
0.0
1001
ACAD
1000
AcDbSavedByObjectVersion
1070
     0
1000
AcDbSavedByObjectVersion
1070
     0
1000
AcDbSavedByObjectVersion
1070
     0
  0
VISUALSTYLE
  5
FD
102
{ACAD_REACTORS
330
EF
102
}
330
EF
100
AcDbVisualStyle
  2
Linepattern
 70
    14
 71
     2
 72
     2
 73
     1
 90
        0
 40
-0.6
 41
-30.0
 62
     5
 63
     7
 74
     1
 91
        4
 64
     7
 65
   257
 75
     7
175
     7
 42
1.0
 92
        8
 66
     7
 43
1.0
 76
     1
 77
     6
 78
     2
 67
     7
 79
     5
170
     0
171
     0
290
     0
174
     0
 93
        1
 44
0.0
173
     0
291
     1
 45
0.0
1001
ACAD
1000
AcDbSavedByObjectVersion
1070
     0
1000
AcDbSavedByObjectVersion
1070
     0
1000
AcDbSavedByObjectVersion
1070
     0
  0
VISUALSTYLE
  5
F9
102
{ACAD_REACTORS
330
EF
102
}
330
EF
100
AcDbVisualStyle
  2
Realistic
 70
     8
 71
     2
 72
     2
 73
     1
 90
        0
 40
-0.6
 41
-30.0
 62
     5
 63
     7
 74
     1
 91
        0
 64
     7
 65
   257
 75
     1
175
     1
 42
1.0
 92
        8
 66
     8
 43
1.0
 76
     1
 77
     6
 78
     2
 67
     7
 79
     5
170
     0
171
     0
290
     0
174
     0
 93
       13
 44
0.0
173
     0
291
     0
 45
0.0
1001
ACAD
1000
AcDbSavedByObjectVersion
1070
     0
1000
AcDbSavedByObjectVersion
1070
     0
1000
AcDbSavedByObjectVersion
1070
     0
  0
VISUALSTYLE
  5
FC
102
{ACAD_REACTORS
330
EF
102
}
330
EF
100
AcDbVisualStyle
  2
Thicken
 70
    13
 71
     2
 72
     2
 73
     1
 90
        0
 40
-0.6
 41
-30.0
 62
     5
 63
     7
 74
     1
 91
        4
 64
     7
 65
   257
 75
     1
175
     1
 42
1.0
 92
       12
 66
     7
 43
1.0
 76
     1
 77
     6
 78
     2
 67
     7
 79
     5
170
     0
171
     0
290
     0
174
     0
 93
        1
 44
0.0
173
     0
291
     1
 45
0.0
1001
ACAD
1000
AcDbSavedByObjectVersion
1070
     0
1000
AcDbSavedByObjectVersion
1070
     0
1000
AcDbSavedByObjectVersion
1070
     0
  0
DICTIONARYVAR
  5
146
102
{ACAD_REACTORS
330
5E
102
}
330
5E
100
DictionaryVariables
280
     0
  1
1:1
  0
DICTIONARYVAR
  5
145
102
{ACAD_REACTORS
330
5E
102
}
330
5E
100
DictionaryVariables
280
     0
  1
STANDARD
  0
DICTIONARYVAR
  5
84
102
{ACAD_REACTORS
330
5E
102
}
330
5E
100
DictionaryVariables
280
     0
  1
STANDARD
  0
DICTIONARYVAR
  5
5F
102
{ACAD_REACTORS
330
5E
102
}
330
5E
100
DictionaryVariables
280
     0
  1
2
  0
DICTIONARYVAR
  5
63
102
{ACAD_REACTORS
330
5E
102
}
330
5E
100
DictionaryVariables
280
     0
  1
1
  0
DICTIONARYVAR
  5
201
102
{ACAD_REACTORS
330
5E
102
}
330
5E
100
DictionaryVariables
280
     0
  1
0
  0
DICTIONARYVAR
  5
1FF
102
{ACAD_REACTORS
330
5E
102
}
330
5E
100
DictionaryVariables
280
     0
  1
2
  0
DICTIONARYVAR
  5
1FE
102
{ACAD_REACTORS
330
5E
102
}
330
5E
100
DictionaryVariables
280
     0
  1
1
  0
DICTIONARYVAR
  5
2063
102
{ACAD_REACTORS
330
5E
102
}
330
5E
100
DictionaryVariables
280
     0
  1
80.000000
  0
DICTIONARYVAR
  5
2062
102
{ACAD_REACTORS
330
5E
102
}
330
5E
100
DictionaryVariables
280
     0
  1
5.000000
  0
DICTIONARYVAR
  5
200
102
{ACAD_REACTORS
330
5E
102
}
330
5E
100
DictionaryVariables
280
     0
  1
127
  0
DICTIONARY
  5
2066
330
22
100
AcDbDictionary
280
     1
281
     1
  3
ACAD_XREC_ROUNDTRIP
360
2067
  0
DICTIONARY
  5
2069
330
D3
100
AcDbDictionary
280
     1
281
     1
  3
ACAD_XREC_ROUNDTRIP
360
206A
  0
DICTIONARY
  5
206B
330
D7
100
AcDbDictionary
280
     1
281
     1
  3
ACAD_XREC_ROUNDTRIP
360
206C
  0
DICTIONARY
  5
201D
330
ED
100
AcDbDictionary
280
     1
281
     1
  3
ACAD_XREC_ROUNDTRIP
360
201E
  0
DICTIONARY
  5
201B
330
EC
100
AcDbDictionary
280
     1
281
     1
  3
ACAD_XREC_ROUNDTRIP
360
201C
  0
DICTIONARY
  5
173
330
EE
100
AcDbDictionary
280
     1
281
     1
  3
ACAD_XREC_ROUNDTRIP
360
201F
  3
BUMPTILE
360
175
  3
DIFFUSETILE
360
174
  3
OPACITYTILE
360
176
  3
REFLECTIONTILE
360
177
  0
DICTIONARY
  5
162
330
7F
100
AcDbDictionary
280
     1
281
     1
  3
ACAD_ROUNDTRIP_2008_TABLESTYLE_CELLSTYLEMAP
360
2064
  3
ACAD_XREC_ROUNDTRIP
360
2068
  0
XRECORD
  5
2067
102
{ACAD_REACTORS
330
2066
102
}
330
2066
100
AcDbXrecord
280
     1
102
SHADEPLOT
 70
     0
102
SHADEPLOTRESLEVEL
 70
     2
102
SHADEPLOTCUSTOMDPI
 70
   300
  0
XRECORD
  5
206A
102
{ACAD_REACTORS
330
2069
102
}
330
2069
100
AcDbXrecord
280
     1
102
SHADEPLOT
 70
     0
102
SHADEPLOTRESLEVEL
 70
     2
102
SHADEPLOTCUSTOMDPI
 70
   300
  0
XRECORD
  5
206C
102
{ACAD_REACTORS
330
206B
102
}
330
206B
100
AcDbXrecord
280
     1
102
SHADEPLOT
 70
     0
102
SHADEPLOTRESLEVEL
 70
     2
102
SHADEPLOTCUSTOMDPI
 70
   300
  0
XRECORD
  5
201E
102
{ACAD_REACTORS
330
201D
102
}
330
201D
100
AcDbXrecord
280
     1
102
MATERIAL
148
0.0
149
0.0
149
0.0
 93
        0
 94
      127
282
     0
 72
     1
 77
     1
171
     1
175
     1
179
     1
273
     0
  0
XRECORD
  5
201C
102
{ACAD_REACTORS
330
201B
102
}
330
201B
100
AcDbXrecord
280
     1
102
MATERIAL
148
0.0
149
0.0
149
0.0
 93
        0
 94
      127
282
     0
 72
     1
 77
     1
171
     1
175
     1
179
     1
273
     0
  0
XRECORD
  5
201F
102
{ACAD_REACTORS
330
173
102
}
330
173
100
AcDbXrecord
280
     1
102
MATERIAL
148
0.0
149
0.0
149
0.0
 93
        0
 94
      127
282
     0
 72
     1
 77
     1
171
     1
175
     1
179
     1
273
     0
  0
XRECORD
  5
175
102
{ACAD_REACTORS
330
173
102
}
330
173
100
AcDbXrecord
280
     1
270
     1
271
     1
  0
XRECORD
  5
174
102
{ACAD_REACTORS
330
173
102
}
330
173
100
AcDbXrecord
280
     1
270
     1
271
     1
  0
XRECORD
  5
176
102
{ACAD_REACTORS
330
173
102
}
330
173
100
AcDbXrecord
280
     1
270
     1
271
     1
  0
XRECORD
  5
177
102
{ACAD_REACTORS
330
173
102
}
330
173
100
AcDbXrecord
280
     1
270
     1
271
     1
  0
CELLSTYLEMAP
  5
2064
102
{ACAD_REACTORS
330
162
102
}
330
162
100
AcDbCellStyleMap
 90
        3
300
CELLSTYLE
  1
TABLEFORMAT_BEGIN
 90
        5
170
     1
 91
        0
 92
    32768
 62
   257
 93
        1
300
CONTENTFORMAT
  1
CONTENTFORMAT_BEGIN
 90
        0
 91
        0
 92
      512
 93
        0
300

 40
0.0
140
1.0
 94
        5
 62
     0
340
11
144
6.0
309
CONTENTFORMAT_END
171
     1
301
MARGIN
  1
CELLMARGIN_BEGIN
 40
1.5
 40
1.5
 40
1.5
 40
1.5
 40
0.18
 40
0.18
309
CELLMARGIN_END
 94
        6
 95
        1
302
GRIDFORMAT
  1
GRIDFORMAT_BEGIN
 90
        0
 91
        1
 62
     0
 92
       -2
340
14
 93
        0
 40
1.125
309
GRIDFORMAT_END
 95
        2
302
GRIDFORMAT
  1
GRIDFORMAT_BEGIN
 90
        0
 91
        1
 62
     0
 92
       -2
340
14
 93
        0
 40
1.125
309
GRIDFORMAT_END
 95
        4
302
GRIDFORMAT
  1
GRIDFORMAT_BEGIN
 90
        0
 91
        1
 62
     0
 92
       -2
340
14
 93
        0
 40
1.125
309
GRIDFORMAT_END
 95
        8
302
GRIDFORMAT
  1
GRIDFORMAT_BEGIN
 90
        0
 91
        1
 62
     0
 92
       -2
340
14
 93
        0
 40
1.125
309
GRIDFORMAT_END
 95
       16
302
GRIDFORMAT
  1
GRIDFORMAT_BEGIN
 90
        0
 91
        1
 62
     0
 92
       -2
340
14
 93
        0
 40
1.125
309
GRIDFORMAT_END
 95
       32
302
GRIDFORMAT
  1
GRIDFORMAT_BEGIN
 90
        0
 91
        1
 62
     0
 92
       -2
340
14
 93
        0
 40
1.125
309
GRIDFORMAT_END
309
TABLEFORMAT_END
  1
CELLSTYLE_BEGIN
 90
        1
 91
        1
300
_TITLE
309
CELLSTYLE_END
300
CELLSTYLE
  1
TABLEFORMAT_BEGIN
 90
        5
170
     1
 91
        0
 92
        0
 62
   257
 93
        1
300
CONTENTFORMAT
  1
CONTENTFORMAT_BEGIN
 90
        0
 91
        0
 92
      512
 93
        0
300

 40
0.0
140
1.0
 94
        5
 62
     0
340
11
144
4.5
309
CONTENTFORMAT_END
171
     1
301
MARGIN
  1
CELLMARGIN_BEGIN
 40
1.5
 40
1.5
 40
1.5
 40
1.5
 40
0.18
 40
0.18
309
CELLMARGIN_END
 94
        6
 95
        1
302
GRIDFORMAT
  1
GRIDFORMAT_BEGIN
 90
        0
 91
        1
 62
     0
 92
       -2
340
14
 93
        0
 40
1.125
309
GRIDFORMAT_END
 95
        2
302
GRIDFORMAT
  1
GRIDFORMAT_BEGIN
 90
        0
 91
        1
 62
     0
 92
       -2
340
14
 93
        0
 40
1.125
309
GRIDFORMAT_END
 95
        4
302
GRIDFORMAT
  1
GRIDFORMAT_BEGIN
 90
        0
 91
        1
 62
     0
 92
       -2
340
14
 93
        0
 40
1.125
309
GRIDFORMAT_END
 95
        8
302
GRIDFORMAT
  1
GRIDFORMAT_BEGIN
 90
        0
 91
        1
 62
     0
 92
       -2
340
14
 93
        0
 40
1.125
309
GRIDFORMAT_END
 95
       16
302
GRIDFORMAT
  1
GRIDFORMAT_BEGIN
 90
        0
 91
        1
 62
     0
 92
       -2
340
14
 93
        0
 40
1.125
309
GRIDFORMAT_END
 95
       32
302
GRIDFORMAT
  1
GRIDFORMAT_BEGIN
 90
        0
 91
        1
 62
     0
 92
       -2
340
14
 93
        0
 40
1.125
309
GRIDFORMAT_END
309
TABLEFORMAT_END
  1
CELLSTYLE_BEGIN
 90
        2
 91
        1
300
_HEADER
309
CELLSTYLE_END
300
CELLSTYLE
  1
TABLEFORMAT_BEGIN
 90
        5
170
     1
 91
        0
 92
        0
 62
   257
 93
        1
300
CONTENTFORMAT
  1
CONTENTFORMAT_BEGIN
 90
        0
 91
        0
 92
      512
 93
        0
300

 40
0.0
140
1.0
 94
        2
 62
     0
340
11
144
4.5
309
CONTENTFORMAT_END
171
     1
301
MARGIN
  1
CELLMARGIN_BEGIN
 40
1.5
 40
1.5
 40
1.5
 40
1.5
 40
0.18
 40
0.18
309
CELLMARGIN_END
 94
        6
 95
        1
302
GRIDFORMAT
  1
GRIDFORMAT_BEGIN
 90
        0
 91
        1
 62
     0
 92
       -2
340
14
 93
        0
 40
1.125
309
GRIDFORMAT_END
 95
        2
302
GRIDFORMAT
  1
GRIDFORMAT_BEGIN
 90
        0
 91
        1
 62
     0
 92
       -2
340
14
 93
        0
 40
1.125
309
GRIDFORMAT_END
 95
        4
302
GRIDFORMAT
  1
GRIDFORMAT_BEGIN
 90
        0
 91
        1
 62
     0
 92
       -2
340
14
 93
        0
 40
1.125
309
GRIDFORMAT_END
 95
        8
302
GRIDFORMAT
  1
GRIDFORMAT_BEGIN
 90
        0
 91
        1
 62
     0
 92
       -2
340
14
 93
        0
 40
1.125
309
GRIDFORMAT_END
 95
       16
302
GRIDFORMAT
  1
GRIDFORMAT_BEGIN
 90
        0
 91
        1
 62
     0
 92
       -2
340
14
 93
        0
 40
1.125
309
GRIDFORMAT_END
 95
       32
302
GRIDFORMAT
  1
GRIDFORMAT_BEGIN
 90
        0
 91
        1
 62
     0
 92
       -2
340
14
 93
        0
 40
1.125
309
GRIDFORMAT_END
309
TABLEFORMAT_END
  1
CELLSTYLE_BEGIN
 90
        3
 91
        2
300
_DATA
309
CELLSTYLE_END
  0
XRECORD
  5
2068
102
{ACAD_REACTORS
330
162
102
}
330
162
100
AcDbXrecord
280
     1
102
ACAD_ROUNDTRIP_PRE2007_TABLESTYLE
 90
      512
 91
        0
  1

 92
      512
 93
        0
  2

 94
      512
 95
        0
  3

  0
ENDSEC
  0
EOF
