  0
SECTION
  2
HEADER
  9
$ACADVER
  1
AC1018
  9
$ACADMAINTVER
 70
     0
  9
$DWGCODEPAGE
  3
ANSI_1251
  9
$INSBASE
 10
0.0
 20
0.0
 30
0.0
  9
$EXTMIN
 10
1.000000000000000E+20
 20
1.000000000000000E+20
 30
1.000000000000000E+20
  9
$EXTMAX
 10
-1.000000000000000E+20
 20
-1.000000000000000E+20
 30
-1.000000000000000E+20
  9
$LIMMIN
 10
0.0
 20
0.0
  9
$LIMMAX
 10
12.0
 20
9.0
  9
$ORTHOMODE
 70
     0
  9
$REGENMODE
 70
     1
  9
$FILLMODE
 70
     1
  9
$QTEXTMODE
 70
     0
  9
$MIRRTEXT
 70
     1
  9
$LTSCALE
 40
1.0
  9
$ATTMODE
 70
     1
  9
$TEXTSIZE
 40
0.2
  9
$TRACEWID
 40
0.05
  9
$TEXTSTYLE
  7
Standard
  9
$CLAYER
  8
0
  9
$CELTYPE
  6
ByLayer
  9
$CECOLOR
 62
   256
  9
$CELTSCALE
 40
1.0
  9
$DISPSILH
 70
     0
  9
$DIMSCALE
 40
1.0
  9
$DIMASZ
 40
0.18
  9
$DIMEXO
 40
0.0625
  9
$DIMDLI
 40
0.38
  9
$DIMRND
 40
0.0
  9
$DIMDLE
 40
0.0
  9
$DIMEXE
 40
0.18
  9
$DIMTP
 40
0.0
  9
$DIMTM
 40
0.0
  9
$DIMTXT
 40
0.18
  9
$DIMCEN
 40
0.09
  9
$DIMTSZ
 40
0.0
  9
$DIMTOL
 70
     0
  9
$DIMLIM
 70
     0
  9
$DIMTIH
 70
     1
  9
$DIMTOH
 70
     1
  9
$DIMSE1
 70
     0
  9
$DIMSE2
 70
     0
  9
$DIMTAD
 70
     0
  9
$DIMZIN
 70
     0
  9
$DIMBLK
  1

  9
$DIMASO
 70
     1
  9
$DIMSHO
 70
     1
  9
$DIMPOST
  1

  9
$DIMAPOST
  1

  9
$DIMALT
 70
     0
  9
$DIMALTD
 70
     2
  9
$DIMALTF
 40
25.4
  9
$DIMLFAC
 40
1.0
  9
$DIMTOFL
 70
     0
  9
$DIMTVP
 40
0.0
  9
$DIMTIX
 70
     0
  9
$DIMSOXD
 70
     0
  9
$DIMSAH
 70
     0
  9
$DIMBLK1
  1

  9
$DIMBLK2
  1

  9
$DIMSTYLE
  2
Standard
  9
$DIMCLRD
 70
     0
  9
$DIMCLRE
 70
     0
  9
$DIMCLRT
 70
     0
  9
$DIMTFAC
 40
1.0
  9
$DIMGAP
 40
0.09
  9
$DIMJUST
 70
     0
  9
$DIMSD1
 70
     0
  9
$DIMSD2
 70
     0
  9
$DIMTOLJ
 70
     1
  9
$DIMTZIN
 70
     0
  9
$DIMALTZ
 70
     0
  9
$DIMALTTZ
 70
     0
  9
$DIMUPT
 70
     0
  9
$DIMDEC
 70
     4
  9
$DIMTDEC
 70
     4
  9
$DIMALTU
 70
     2
  9
$DIMALTTD
 70
     2
  9
$DIMTXSTY
  7
Standard
  9
$DIMAUNIT
 70
     0
  9
$DIMADEC
 70
     0
  9
$DIMALTRND
 40
0.0
  9
$DIMAZIN
 70
     0
  9
$DIMDSEP
 70
    46
  9
$DIMATFIT
 70
     3
  9
$DIMFRAC
 70
     0
  9
$DIMLDRBLK
  1

  9
$DIMLUNIT
 70
     2
  9
$DIMLWD
 70
    -2
  9
$DIMLWE
 70
    -2
  9
$DIMTMOVE
 70
     0
  9
$LUNITS
 70
     2
  9
$LUPREC
 70
     4
  9
$SKETCHINC
 40
0.1
  9
$FILLETRAD
 40
0.5
  9
$AUNITS
 70
     0
  9
$AUPREC
 70
     0
  9
$MENU
  1
.
  9
$ELEVATION
 40
0.0
  9
$PELEVATION
 40
0.0
  9
$THICKNESS
 40
0.0
  9
$LIMCHECK
 70
     0
  9
$CHAMFERA
 40
0.5
  9
$CHAMFERB
 40
0.5
  9
$CHAMFERC
 40
1.0
  9
$CHAMFERD
 40
0.0
  9
$SKPOLY
 70
     0
  9
$TDCREATE
 40
2457123.717540868
  9
$TDUCREATE
 40
2457123.550874202
  9
$TDUPDATE
 40
2457123.71754088
  9
$TDUUPDATE
 40
2457123.550874213
  9
$TDINDWG
 40
0.0000000116
  9
$TDUSRTIMER
 40
0.0000000116
  9
$USRTIMER
 70
     1
  9
$ANGBASE
 50
0.0
  9
$ANGDIR
 70
     0
  9
$PDMODE
 70
     0
  9
$PDSIZE
 40
0.0
  9
$PLINEWID
 40
0.0
  9
$SPLFRAME
 70
     0
  9
$SPLINETYPE
 70
     6
  9
$SPLINESEGS
 70
     8
  9
$HANDSEED
  5
4B
  9
$SURFTAB1
 70
     6
  9
$SURFTAB2
 70
     6
  9
$SURFTYPE
 70
     6
  9
$SURFU
 70
     6
  9
$SURFV
 70
     6
  9
$UCSBASE
  2

  9
$UCSNAME
  2

  9
$UCSORG
 10
0.0
 20
0.0
 30
0.0
  9
$UCSXDIR
 10
1.0
 20
0.0
 30
0.0
  9
$UCSYDIR
 10
0.0
 20
1.0
 30
0.0
  9
$UCSORTHOREF
  2

  9
$UCSORTHOVIEW
 70
     0
  9
$UCSORGTOP
 10
0.0
 20
0.0
 30
0.0
  9
$UCSORGBOTTOM
 10
0.0
 20
0.0
 30
0.0
  9
$UCSORGLEFT
 10
0.0
 20
0.0
 30
0.0
  9
$UCSORGRIGHT
 10
0.0
 20
0.0
 30
0.0
  9
$UCSORGFRONT
 10
0.0
 20
0.0
 30
0.0
  9
$UCSORGBACK
 10
0.0
 20
0.0
 30
0.0
  9
$PUCSBASE
  2

  9
$PUCSNAME
  2

  9
$PUCSORG
 10
0.0
 20
0.0
 30
0.0
  9
$PUCSXDIR
 10
1.0
 20
0.0
 30
0.0
  9
$PUCSYDIR
 10
0.0
 20
1.0
 30
0.0
  9
$PUCSORTHOREF
  2

  9
$PUCSORTHOVIEW
 70
     0
  9
$PUCSORGTOP
 10
0.0
 20
0.0
 30
0.0
  9
$PUCSORGBOTTOM
 10
0.0
 20
0.0
 30
0.0
  9
$PUCSORGLEFT
 10
0.0
 20
0.0
 30
0.0
  9
$PUCSORGRIGHT
 10
0.0
 20
0.0
 30
0.0
  9
$PUCSORGFRONT
 10
0.0
 20
0.0
 30
0.0
  9
$PUCSORGBACK
 10
0.0
 20
0.0
 30
0.0
  9
$USERI1
 70
     0
  9
$USERI2
 70
     0
  9
$USERI3
 70
     0
  9
$USERI4
 70
     0
  9
$USERI5
 70
     0
  9
$USERR1
 40
0.0
  9
$USERR2
 40
0.0
  9
$USERR3
 40
0.0
  9
$USERR4
 40
0.0
  9
$USERR5
 40
0.0
  9
$WORLDVIEW
 70
     1
  9
$SHADEDGE
 70
     3
  9
$SHADEDIF
 70
    70
  9
$TILEMODE
 70
     1
  9
$MAXACTVP
 70
    64
  9
$PINSBASE
 10
0.0
 20
0.0
 30
0.0
  9
$PLIMCHECK
 70
     0
  9
$PEXTMIN
 10
1.000000000000000E+20
 20
1.000000000000000E+20
 30
1.000000000000000E+20
  9
$PEXTMAX
 10
-1.000000000000000E+20
 20
-1.000000000000000E+20
 30
-1.000000000000000E+20
  9
$PLIMMIN
 10
0.0
 20
0.0
  9
$PLIMMAX
 10
12.0
 20
9.0
  9
$UNITMODE
 70
     0
  9
$VISRETAIN
 70
     1
  9
$PLINEGEN
 70
     0
  9
$PSLTSCALE
 70
     1
  9
$TREEDEPTH
 70
  3020
  9
$CMLSTYLE
  2
Standard
  9
$CMLJUST
 70
     0
  9
$CMLSCALE
 40
1.0
  9
$PROXYGRAPHICS
 70
     1
  9
$MEASUREMENT
 70
     0
  9
$CELWEIGHT
370
    -1
  9
$ENDCAPS
280
     0
  9
$JOINSTYLE
280
     0
  9
$LWDISPLAY
290
     1
  9
$INSUNITS
 70
     1
  9
$HYPERLINKBASE
  1

  9
$STYLESHEET
  1

  9
$XEDIT
290
     1
  9
$CEPSNTYPE
380
     0
  9
$PSTYLEMODE
290
     1
  9
$FINGERPRINTGUID
  2
{13232348-7B02-4657-BC95-711CC511AB36}
  9
$VERSIONGUID
  2
{FAEB1C32-E019-11D5-929B-00C0DF256EC4}
  9
$EXTNAMES
290
     1
  9
$PSVPSCALE
 40
0.0
  9
$OLESTARTUP
290
     0
  9
$SORTENTS
280
   127
  9
$INDEXCTL
280
     0
  9
$HIDETEXT
280
     1
  9
$XCLIPFRAME
290
     0
  9
$HALOGAP
280
     0
  9
$OBSCOLOR
 70
   257
  9
$OBSLTYPE
280
     0
  9
$INTERSECTIONDISPLAY
280
     0
  9
$INTERSECTIONCOLOR
 70
   257
  9
$DIMASSOC
280
     2
  9
$PROJECTNAME
  1

  0
ENDSEC
  0
SECTION
  2
CLASSES
  0
CLASS
  1
ACDBDICTIONARYWDFLT
  2
AcDbDictionaryWithDefault
  3
ObjectDBX Classes
 90
        0
 91
        3
280
     0
281
     0
  0
CLASS
  1
VISUALSTYLE
  2
AcDbVisualStyle
  3
ObjectDBX Classes
 90
     4095
 91
        3
280
     0
281
     0
  0
ENDSEC
  0
SECTION
  2
TABLES
  0
TABLE
  2
VPORT
  5
8
330
0
100
AcDbSymbolTable
 70
     1
  0
VPORT
  5
29
330
8
100
AcDbSymbolTableRecord
100
AcDbViewportTableRecord
  2
*Active
 70
     0
 10
0.0
 20
0.0
 11
1.0
 21
1.0
 12
0.0
 22
0.0
 13
0.0
 23
0.0
 14
0.5
 24
0.5
 15
0.5
 25
0.5
 16
0.0
 26
0.0
 36
1.0
 17
107.9499999730125
 27
-139.699999965075
 37
0.0
 40
279.39999993015
 41
0.7727272727272728
 42
50.0
 43
0.0
 44
0.0
 50
0.0
 51
0.0
 71
     0
 72
   100
 73
     1
 74
     3
 75
     0
 76
     0
 77
     0
 78
     0
281
     0
 65
     1
110
0.0
120
0.0
130
0.0
111
1.0
121
0.0
131
0.0
112
0.0
122
1.0
132
0.0
 79
     0
146
0.0
  0
ENDTAB
  0
TABLE
  2
LTYPE
  5
5
330
0
100
AcDbSymbolTable
 70
     1
  0
LTYPE
  5
14
330
5
100
AcDbSymbolTableRecord
100
AcDbLinetypeTableRecord
  2
ByBlock
 70
     0
  3

 72
    65
 73
     0
 40
0.0
  0
LTYPE
  5
15
330
5
100
AcDbSymbolTableRecord
100
AcDbLinetypeTableRecord
  2
ByLayer
 70
     0
  3

 72
    65
 73
     0
 40
0.0
  0
LTYPE
  5
16
330
5
100
AcDbSymbolTableRecord
100
AcDbLinetypeTableRecord
  2
Continuous
 70
     0
  3
Solid line
 72
    65
 73
     0
 40
0.0
  0
ENDTAB
  0
TABLE
  2
LAYER
  5
2
330
0
100
AcDbSymbolTable
 70
     2
  0
LAYER
  5
10
330
2
100
AcDbSymbolTableRecord
100
AcDbLayerTableRecord
  2
0
 70
     0
 62
     7
  6
Continuous
370
    -3
390
F
  0
LAYER
  5
3B
330
2
100
AcDbSymbolTableRecord
100
AcDbLayerTableRecord
  2
Layer 1
 70
     0
 62
     7
  6
Continuous
370
    -3
390
F
  0
ENDTAB
  0
TABLE
  2
STYLE
  5
3
330
0
100
AcDbSymbolTable
 70
     1
  0
STYLE
  5
11
330
3
100
AcDbSymbolTableRecord
100
AcDbTextStyleTableRecord
  2
Standard
 70
     0
 40
0.0
 41
1.0
 50
0.0
 71
     0
 42
0.2
  3
txt
  4

  0
ENDTAB
  0
TABLE
  2
VIEW
  5
6
330
0
100
AcDbSymbolTable
 70
     0
  0
ENDTAB
  0
TABLE
  2
UCS
  5
7
330
0
100
AcDbSymbolTable
 70
     0
  0
ENDTAB
  0
TABLE
  2
APPID
  5
9
330
0
100
AcDbSymbolTable
 70
     1
  0
APPID
  5
12
330
9
100
AcDbSymbolTableRecord
100
AcDbRegAppTableRecord
  2
ACAD
 70
     0
  0
ENDTAB
  0
TABLE
  2
DIMSTYLE
  5
A
330
0
100
AcDbSymbolTable
 70
     1
100
AcDbDimStyleTable
  0
DIMSTYLE
105
27
330
A
100
AcDbSymbolTableRecord
100
AcDbDimStyleTableRecord
  2
Standard
 70
     0
340
11
  0
ENDTAB
  0
TABLE
  2
BLOCK_RECORD
  5
1
330
0
100
AcDbSymbolTable
 70
     2
  0
BLOCK_RECORD
  5
1F
330
1
100
AcDbSymbolTableRecord
100
AcDbBlockTableRecord
  2
*Model_Space
340
22
  0
BLOCK_RECORD
  5
1B
330
1
100
AcDbSymbolTableRecord
100
AcDbBlockTableRecord
  2
*Paper_Space
340
1E
  0
BLOCK_RECORD
  5
23
330
1
100
AcDbSymbolTableRecord
100
AcDbBlockTableRecord
  2
*Paper_Space0
340
26
  0
BLOCK_RECORD
  5
3C
330
1
100
AcDbSymbolTableRecord
100
AcDbBlockTableRecord
  2
block 2
340
0
102
{BLKREFS
331
3D
102
}
  0
ENDTAB
  0
ENDSEC
  0
SECTION
  2
BLOCKS
  0
BLOCK
  5
20
330
1F
100
AcDbEntity
  8
0
100
AcDbBlockBegin
  2
*Model_Space
 70
     0
 71
     0
 10
0.0
 20
0.0
 30
0.0
  3
*Model_Space
  1

  0
ENDBLK
  5
21
330
1F
100
AcDbEntity
  8
0
100
AcDbBlockEnd
  0
BLOCK
  5
1C
330
1B
100
AcDbEntity
 67
     1
  8
0
100
AcDbBlockBegin
  2
*Paper_Space
 70
     0
 71
     0
 10
0.0
 20
0.0
 30
0.0
  3
*Paper_Space
  1

  0
ENDBLK
  5
1D
330
1B
100
AcDbEntity
 67
     1
  8
0
100
AcDbBlockEnd
  0
BLOCK
  5
24
330
23
100
AcDbEntity
  8
0
100
AcDbBlockBegin
  2
*Paper_Space0
 70
     0
 71
     0
 10
0.0
 20
0.0
 30
0.0
  3
*Paper_Space0
  1

  0
ENDBLK
  5
25
330
23
100
AcDbEntity
  8
0
100
AcDbBlockEnd
  0
BLOCK
  5
3E
330
3C
100
AcDbEntity
  8
0
100
AcDbBlockBegin
  2
block 2
 70
     0
 71
     0
 10
0.0
 20
0.0
 30
0.0
  3
block 2
  1

  0
SPLINE
  5
40
330
3C
100
AcDbEntity
  8
Layer 1
370
     0
100
AcDbSpline
210
0.0
220
0.0
230
1.0
 70
    11
 71
     3
 72
   443
 73
   439
 74
     0
 42
0.0000000001
 43
0.0000000001
 40
0.0
 40
0.0
 40
0.0
 40
0.0
 40
1.0
 40
1.0
 40
1.0
 40
2.0
 40
2.0
 40
2.0
 40
3.0
 40
3.0
 40
3.0
 40
4.0
 40
4.0
 40
4.0
 40
5.0
 40
5.0
 40
5.0
 40
6.0
 40
6.0
 40
6.0
 40
7.0
 40
7.0
 40
7.0
 40
8.0
 40
8.0
 40
8.0
 40
9.0
 40
9.0
 40
9.0
 40
10.0
 40
10.0
 40
10.0
 40
11.0
 40
11.0
 40
11.0
 40
12.0
 40
12.0
 40
12.0
 40
13.0
 40
13.0
 40
13.0
 40
14.0
 40
14.0
 40
14.0
 40
15.0
 40
15.0
 40
15.0
 40
16.0
 40
16.0
 40
16.0
 40
17.0
 40
17.0
 40
17.0
 40
18.0
 40
18.0
 40
18.0
 40
19.0
 40
19.0
 40
19.0
 40
20.0
 40
20.0
 40
20.0
 40
21.0
 40
21.0
 40
21.0
 40
22.0
 40
22.0
 40
22.0
 40
23.0
 40
23.0
 40
23.0
 40
24.0
 40
24.0
 40
24.0
 40
25.0
 40
25.0
 40
25.0
 40
26.0
 40
26.0
 40
26.0
 40
27.0
 40
27.0
 40
27.0
 40
28.0
 40
28.0
 40
28.0
 40
29.0
 40
29.0
 40
29.0
 40
30.0
 40
30.0
 40
30.0
 40
31.0
 40
31.0
 40
31.0
 40
32.0
 40
32.0
 40
32.0
 40
33.0
 40
33.0
 40
33.0
 40
34.0
 40
34.0
 40
34.0
 40
35.0
 40
35.0
 40
35.0
 40
36.0
 40
36.0
 40
36.0
 40
37.0
 40
37.0
 40
37.0
 40
38.0
 40
38.0
 40
38.0
 40
39.0
 40
39.0
 40
39.0
 40
40.0
 40
40.0
 40
40.0
 40
41.0
 40
41.0
 40
41.0
 40
42.0
 40
42.0
 40
42.0
 40
43.0
 40
43.0
 40
43.0
 40
44.0
 40
44.0
 40
44.0
 40
45.0
 40
45.0
 40
45.0
 40
46.0
 40
46.0
 40
46.0
 40
47.0
 40
47.0
 40
47.0
 40
48.0
 40
48.0
 40
48.0
 40
49.0
 40
49.0
 40
49.0
 40
50.0
 40
50.0
 40
50.0
 40
51.0
 40
51.0
 40
51.0
 40
52.0
 40
52.0
 40
52.0
 40
53.0
 40
53.0
 40
53.0
 40
54.0
 40
54.0
 40
54.0
 40
55.0
 40
55.0
 40
55.0
 40
56.0
 40
56.0
 40
56.0
 40
57.0
 40
57.0
 40
57.0
 40
58.0
 40
58.0
 40
58.0
 40
59.0
 40
59.0
 40
59.0
 40
60.0
 40
60.0
 40
60.0
 40
61.0
 40
61.0
 40
61.0
 40
62.0
 40
62.0
 40
62.0
 40
63.0
 40
63.0
 40
63.0
 40
64.0
 40
64.0
 40
64.0
 40
65.0
 40
65.0
 40
65.0
 40
66.0
 40
66.0
 40
66.0
 40
67.0
 40
67.0
 40
67.0
 40
68.0
 40
68.0
 40
68.0
 40
69.0
 40
69.0
 40
69.0
 40
70.0
 40
70.0
 40
70.0
 40
71.0
 40
71.0
 40
71.0
 40
72.0
 40
72.0
 40
72.0
 40
73.0
 40
73.0
 40
73.0
 40
74.0
 40
74.0
 40
74.0
 40
75.0
 40
75.0
 40
75.0
 40
76.0
 40
76.0
 40
76.0
 40
77.0
 40
77.0
 40
77.0
 40
78.0
 40
78.0
 40
78.0
 40
79.0
 40
79.0
 40
79.0
 40
80.0
 40
80.0
 40
80.0
 40
81.0
 40
81.0
 40
81.0
 40
82.0
 40
82.0
 40
82.0
 40
83.0
 40
83.0
 40
83.0
 40
84.0
 40
84.0
 40
84.0
 40
85.0
 40
85.0
 40
85.0
 40
86.0
 40
86.0
 40
86.0
 40
87.0
 40
87.0
 40
87.0
 40
88.0
 40
88.0
 40
88.0
 40
89.0
 40
89.0
 40
89.0
 40
90.0
 40
90.0
 40
90.0
 40
91.0
 40
91.0
 40
91.0
 40
92.0
 40
92.0
 40
92.0
 40
93.0
 40
93.0
 40
93.0
 40
94.0
 40
94.0
 40
94.0
 40
95.0
 40
95.0
 40
95.0
 40
96.0
 40
96.0
 40
96.0
 40
97.0
 40
97.0
 40
97.0
 40
98.0
 40
98.0
 40
98.0
 40
99.0
 40
99.0
 40
99.0
 40
100.0
 40
100.0
 40
100.0
 40
101.0
 40
101.0
 40
101.0
 40
102.0
 40
102.0
 40
102.0
 40
103.0
 40
103.0
 40
103.0
 40
104.0
 40
104.0
 40
104.0
 40
105.0
 40
105.0
 40
105.0
 40
106.0
 40
106.0
 40
106.0
 40
107.0
 40
107.0
 40
107.0
 40
108.0
 40
108.0
 40
108.0
 40
109.0
 40
109.0
 40
109.0
 40
110.0
 40
110.0
 40
110.0
 40
111.0
 40
111.0
 40
111.0
 40
112.0
 40
112.0
 40
112.0
 40
113.0
 40
113.0
 40
113.0
 40
114.0
 40
114.0
 40
114.0
 40
115.0
 40
115.0
 40
115.0
 40
116.0
 40
116.0
 40
116.0
 40
117.0
 40
117.0
 40
117.0
 40
118.0
 40
118.0
 40
118.0
 40
119.0
 40
119.0
 40
119.0
 40
120.0
 40
120.0
 40
120.0
 40
121.0
 40
121.0
 40
121.0
 40
122.0
 40
122.0
 40
122.0
 40
123.0
 40
123.0
 40
123.0
 40
124.0
 40
124.0
 40
124.0
 40
125.0
 40
125.0
 40
125.0
 40
126.0
 40
126.0
 40
126.0
 40
127.0
 40
127.0
 40
127.0
 40
128.0
 40
128.0
 40
128.0
 40
129.0
 40
129.0
 40
129.0
 40
130.0
 40
130.0
 40
130.0
 40
131.0
 40
131.0
 40
131.0
 40
132.0
 40
132.0
 40
132.0
 40
133.0
 40
133.0
 40
133.0
 40
134.0
 40
134.0
 40
134.0
 40
135.0
 40
135.0
 40
135.0
 40
136.0
 40
136.0
 40
136.0
 40
137.0
 40
137.0
 40
137.0
 40
138.0
 40
138.0
 40
138.0
 40
139.0
 40
139.0
 40
139.0
 40
140.0
 40
140.0
 40
140.0
 40
141.0
 40
141.0
 40
141.0
 40
142.0
 40
142.0
 40
142.0
 40
143.0
 40
143.0
 40
143.0
 40
144.0
 40
144.0
 40
144.0
 40
145.0
 40
145.0
 40
145.0
 40
146.0
 40
146.0
 40
146.0
 40
146.0
 10
135.9610378349334
 20
-146.0124484226983
 30
0.0
 10
135.9610378349334
 20
-146.0124484226983
 30
0.0
 10
135.9610378349334
 20
-134.7790255739441
 30
0.0
 10
135.9610378349334
 20
-134.7790255739441
 30
0.0
 10
135.9610378349334
 20
-134.7790255739441
 30
0.0
 10
124.3142035279492
 20
-134.7790255739441
 30
0.0
 10
124.3142035279492
 20
-134.7790255739441
 30
0.0
 10
124.3142035279492
 20
-134.7790255739441
 30
0.0
 10
124.3142035279492
 20
-137.924225497203
 30
0.0
 10
124.3142035279492
 20
-137.924225497203
 30
0.0
 10
126.0836045691735
 20
-138.3143825609075
 30
0.0
 10
128.0845160270067
 20
-139.5747707441862
 30
0.0
 10
128.3897514869998
 20
-143.002813006784
 30
0.0
 10
128.406976964426
 20
-143.195738353958
 30
0.0
 10
128.4186902890759
 20
-144.409100983863
 30
0.0
 10
128.4248914609493
 20
-146.0124484226983
 30
0.0
 10
128.4248914609493
 20
-146.0124484226983
 30
0.0
 10
116.768755396155
 20
-146.0124484226983
 30
0.0
 10
116.768755396155
 20
-146.0124484226983
 30
0.0
 10
116.8900227572358
 20
-145.5421928889617
 30
0.0
 10
116.9782172016582
 20
-144.8593749637852
 30
0.0
 10
116.6461099968801
 20
-144.1097221861948
 30
0.0
 10
116.8624619933538
 20
-143.8478949293158
 30
0.0
 10
117.09224986222
 20
-143.9402234883205
 30
0.0
 10
117.2173068283346
 20
-143.5626410231371
 30
0.0
 10
117.3723361251708
 20
-142.5690754851911
 30
0.0
 10
114.5514919418482
 20
-141.9723849471458
 30
0.0
 10
114.4054198932736
 20
-141.9510253551373
 30
0.0
 10
115.334217636097
 20
-141.1937933674793
 30
0.0
 10
116.7794351921593
 20
-141.0594346435546
 30
0.0
 10
118.1057969539805
 20
-142.2721082543625
 30
0.0
 10
118.7331488418445
 20
-142.843305085817
 30
0.0
 10
119.2929768581976
 20
-143.8389376810541
 30
0.0
 10
119.9313530516144
 20
-144.6437119864085
 30
0.0
 10
120.5146077172672
 20
-145.3788953629608
 30
0.0
 10
121.3624457161872
 20
-145.8708549982545
 30
0.0
 10
122.0680012715663
 20
-145.5725097292319
 30
0.0
 10
122.4617756855304
 20
-145.4043890695517
 30
0.0
 10
122.8138644441229
 20
-145.1225802588582
 30
0.0
 10
122.8741536151148
 20
-144.7918510922743
 30
0.0
 10
122.9396104293346
 20
-144.4459635055552
 30
0.0
 10
122.7425509675783
 20
-144.5823892867711
 30
0.0
 10
122.6536675040588
 20
-144.6161512225265
 30
0.0
 10
122.2171739060777
 20
-144.7822048249156
 30
0.0
 10
121.6504556987541
 20
-144.8938259186377
 30
0.0
 10
121.2670165712457
 20
-144.6237304325941
 30
0.0
 10
121.4595974088712
 20
-144.3894639395971
 30
0.0
 10
121.5522704774244
 20
-144.1593315611824
 30
0.0
 10
121.567084388011
 20
-143.864431387645
 30
0.0
 10
120.4691324568619
 20
-143.6453233147831
 30
0.0
 10
119.1944471273194
 20
-142.4154242265489
 30
0.0
 10
118.4051757516487
 20
-141.6478569524353
 30
0.0
 10
119.7267143797906
 20
-142.0826280026738
 30
0.0
 10
121.3297173090773
 20
-142.92667639656
 30
0.0
 10
122.8031846481187
 20
-143.0858398079785
 30
0.0
 10
123.38678382332
 20
-143.1492295649071
 30
0.0
 10
123.9455783110275
 20
-143.092040979852
 30
0.0
 10
124.4227240357346
 20
-142.9507920649567
 30
0.0
 10
126.1597411793976
 20
-142.4367838185575
 30
0.0
 10
125.8841335405776
 20
-140.8258571696547
 30
0.0
 10
125.2082058063716
 20
-140.2036729250185
 30
0.0
 10
124.5198757284187
 20
-139.5651244768275
 30
0.0
 10
123.5166639231139
 20
-139.4355888865821
 30
0.0
 10
123.3337293528471
 20
-140.485481735712
 30
0.0
 10
123.2510470612011
 20
-140.9719292182292
 30
0.0
 10
123.4966823692994
 20
-141.3784504854887
 30
0.0
 10
123.8563503379595
 20
-141.5631076034981
 30
0.0
 10
123.8243109499467
 20
-142.3975097300256
 30
0.0
 10
121.8640516188396
 20
-142.030951570395
 30
0.0
 10
120.8105414194501
 20
-141.6237412840385
 30
0.0
 10
120.1897352130081
 20
-141.381895580974
 30
0.0
 10
119.5737521402455
 20
-141.1510741834622
 30
0.0
 10
118.9570800483857
 20
-140.9174967095623
 30
0.0
 10
117.2166178092375
 20
-140.264995624656
 30
0.0
 10
115.3225043114472
 20
-139.7077514299168
 30
0.0
 10
112.9123155099664
 20
-142.2183647647926
 30
0.0
 10
112.2859971507479
 20
-142.8701768306019
 30
0.0
 10
111.6927517081879
 20
-143.7424750074672
 30
0.0
 10
111.0126898593996
 20
-144.9499809750472
 30
0.0
 10
111.4515950242204
 20
-141.1741563232134
 30
0.0
 10
114.6855061562245
 20
-139.5983696482601
 30
0.0
 10
116.8224988857249
 20
-139.4531588735568
 30
0.0
 10
117.1759656825116
 20
-139.4307657529027
 30
0.0
 10
117.2252305479506
 20
-139.3160440732439
 30
0.0
 10
116.864529050645
 20
-139.1661824196355
 30
0.0
 10
115.6043131221406
 20
-138.6452839822658
 30
0.0
 10
113.9479112128325
 20
-138.5061021246617
 30
0.0
 10
112.3290608443136
 20
-139.1337985220742
 30
0.0
 10
112.0765353452448
 20
-138.510925258341
 30
0.0
 10
111.5900878627275
 20
-137.869103969439
 30
0.0
 10
111.0051106493321
 20
-137.4040160789303
 30
0.0
 10
111.2338649895526
 20
-137.0738036766691
 30
0.0
 10
111.0933050937545
 20
-136.5623792518837
 30
0.0
 10
110.6313177891824
 20
-136.4049383882078
 30
0.0
 10
110.6313177891824
 20
-136.4049383882078
 30
0.0
 10
110.6313177891824
 20
-135.7586384751749
 30
0.0
 10
110.6313177891824
 20
-135.7586384751749
 30
0.0
 10
111.7588975415047
 20
-136.2047783405148
 30
0.0
 10
112.245345024022
 20
-137.669632940843
 30
0.0
 10
113.3336506878124
 20
-137.5917737828764
 30
0.0
 10
114.5005045286665
 20
-137.5104695294245
 30
0.0
 10
114.830200166605
 20
-136.0945352849868
 30
0.0
 10
115.919539359041
 20
-135.3672756280505
 30
0.0
 10
114.9149495155421
 20
-134.6451836143422
 30
0.0
 10
114.5842203489581
 20
-133.228904860356
 30
0.0
 10
113.541389945573
 20
-133.1899752813727
 30
0.0
 10
112.3290608443136
 20
-133.1489786450982
 30
0.0
 10
111.9135823287924
 20
-134.4832641265354
 30
0.0
 10
110.6640461962923
 20
-134.9283704632297
 30
0.0
 10
111.0350829800537
 20
-133.7560044695992
 30
0.0
 10
112.665991182771
 20
-133.352928297825
 30
0.0
 10
112.665991182771
 20
-132.2177693354352
 30
0.0
 10
112.665991182771
 20
-131.2104234155481
 30
0.0
 10
111.0350829800537
 20
-130.8073472437739
 30
0.0
 10
110.287841769303
 20
-130.0421915364999
 30
0.0
 10
109.4517170950329
 20
-130.7263874998705
 30
0.0
 10
107.9944417047722
 20
-131.4143730682749
 30
0.0
 10
107.9944417047722
 20
-132.2625555767434
 30
0.0
 10
107.9944417047722
 20
-133.352928297825
 30
0.0
 10
109.9963866912509
 20
-134.2383178375342
 30
0.0
 10
109.9519449594912
 20
-135.0082966784875
 30
0.0
 10
108.6993082410543
 20
-134.5642238704388
 30
0.0
 10
108.4926025119394
 20
-133.3108981329049
 30
0.0
 10
107.4053303767945
 20
-133.2719685539216
 30
0.0
 10
106.3614664447638
 20
-133.2719685539216
 30
0.0
 10
106.0069661193316
 20
-134.8853067696641
 30
0.0
 10
104.8390787498319
 20
-135.5295396254058
 30
0.0
 10
106.0896484109776
 20
-136.3405151026336
 30
0.0
 10
106.6136474342841
 20
-137.6310478714082
 30
0.0
 10
107.4508056371998
 20
-137.669632940843
 30
0.0
 10
108.5329101291168
 20
-137.7509371942949
 30
0.0
 10
108.8815537922241
 20
-135.9587985228679
 30
0.0
 10
110.1321234533698
 20
-135.8385646904327
 30
0.0
 10
110.1321234533698
 20
-135.8385646904327
 30
0.0
 10
110.1321234533698
 20
-136.4049383882078
 30
0.0
 10
110.1321234533698
 20
-136.4049383882078
 30
0.0
 10
109.6181152069705
 20
-136.4602321707461
 30
0.0
 10
109.4772108016238
 20
-137.0221272443903
 30
0.0
 10
109.7173339569457
 20
-137.3864460919555
 30
0.0
 10
109.1268445907738
 20
-137.8518784920127
 30
0.0
 10
108.6341959363831
 20
-138.4986951693684
 30
0.0
 10
108.3806369086687
 20
-139.1272528406522
 30
0.0
 10
106.7610975210528
 20
-138.4992119336912
 30
0.0
 10
105.105556885616
 20
-138.6383937912953
 30
0.0
 10
103.8453409571116
 20
-139.158603209568
 30
0.0
 10
103.4836059311604
 20
-139.3088093727249
 30
0.0
 10
103.5321817775024
 20
-139.4235310523837
 30
0.0
 10
103.8877156315802
 20
-139.447991230329
 30
0.0
 10
106.0410725646356
 20
-139.5942355336778
 30
0.0
 10
109.3053005369098
 20
-140.9381672824738
 30
0.0
 10
109.7097547468781
 20
-144.9758191911866
 30
0.0
 10
109.0234917262163
 20
-143.7565998989567
 30
0.0
 10
108.426112169074
 20
-142.8774115311209
 30
0.0
 10
107.7965209691446
 20
-142.2218098602779
 30
0.0
 10
105.3856431485668
 20
-139.7122300540476
 30
0.0
 10
103.4917019055507
 20
-140.2698187583353
 30
0.0
 10
101.7524454498223
 20
-140.9223198432416
 30
0.0
 10
101.1354288484141
 20
-141.1531412407534
 30
0.0
 10
100.5196180304257
 20
-141.3860296955563
 30
0.0
 10
99.89829505966085
 20
-141.6271863795238
 30
0.0
 10
98.84444035072292
 20
-142.0350856849773
 30
0.0
 10
96.88469778393855
 20
-142.4002658064138
 30
0.0
 10
96.85265839592573
 20
-141.5658636798863
 30
0.0
 10
97.2123263645858
 20
-141.381895580974
 30
0.0
 10
97.45796167268412
 20
-140.9746852946174
 30
0.0
 10
97.3749348714896
 20
-140.4889268311972
 30
0.0
 10
97.19320608464268
 20
-139.4376559438732
 30
0.0
 10
96.19016653411218
 20
-139.5713256487009
 30
0.0
 10
95.50045841796516
 20
-140.2071180205038
 30
0.0
 10
94.82487519330768
 20
-140.8299912842369
 30
0.0
 10
94.54892304493916
 20
-142.4395398949457
 30
0.0
 10
96.2855956790536
 20
-142.9549261795391
 30
0.0
 10
96.7641194419548
 20
-143.0954860753372
 30
0.0
 10
97.32291392966233
 20
-143.1540526985865
 30
0.0
 10
97.90651310486365
 20
-143.0906629416579
 30
0.0
 10
99.37860240571091
 20
-142.9301214920453
 30
0.0
 10
100.9829833731918
 20
-142.086073098159
 30
0.0
 10
102.3040052370108
 20
-141.6519910670176
 30
0.0
 10
101.5157673899856
 20
-142.4181803029371
 30
0.0
 10
100.2405652961204
 20
-143.6501464484625
 30
0.0
 10
99.1426133649713
 20
-143.8685655022273
 30
0.0
 10
99.1563937469123
 20
-144.1641546948617
 30
0.0
 10
99.24958357978831
 20
-144.3942870732764
 30
0.0
 10
99.44302569128509
 20
-144.6271755280793
 30
0.0
 10
99.05889754467972
 20
-144.8972710141229
 30
0.0
 10
98.49183482780761
 20
-144.7856499204008
 30
0.0
 10
98.0546522107294
 20
-144.6189072989147
 30
0.0
 10
97.96680227585553
 20
-144.5851453631593
 30
0.0
 10
97.7699150688735
 20
-144.4514756583316
 30
0.0
 10
97.83416609967341
 20
-144.7946071686625
 30
0.0
 10
97.89548879931085
 20
-145.1274033925376
 30
0.0
 10
98.24723304835486
 20
-145.4071451459399
 30
0.0
 10
98.64031844322187
 20
-145.5759548247171
 30
0.0
 10
99.34759654634367
 20
-145.8743000937398
 30
0.0
 10
100.1944010166181
 20
-145.3830294775431
 30
0.0
 10
100.7786892109164
 20
-144.6471570818938
 30
0.0
 10
101.4153428565906
 20
-143.8437608147335
 30
0.0
 10
101.9756876372665
 20
-142.8488172385934
 30
0.0
 10
102.6032117799048
 20
-142.2741753116537
 30
0.0
 10
103.9297457965002
 20
-141.0615017008458
 30
0.0
 10
105.3742743334655
 20
-141.1972384629646
 30
0.0
 10
106.3037610953859
 20
-141.9558484888166
 30
0.0
 10
106.1587225754568
 20
-141.9758300426311
 30
0.0
 10
103.3378783921343
 20
-142.5738986188704
 30
0.0
 10
103.4915296507764
 20
-143.5640190613312
 30
0.0
 10
103.6169311264395
 20
-143.9457356410969
 30
0.0
 10
103.8470635048542
 20
-143.8527180629952
 30
0.0
 10
104.0630709917794
 20
-144.1138563007771
 30
0.0
 10
103.7319973156469
 20
-144.8607530019793
 30
0.0
 10
103.8188137218752
 20
-145.5428819080587
 30
0.0
 10
103.9404255925045
 20
-146.0124484226983
 30
0.0
 10
103.9404255925045
 20
-146.0124484226983
 30
0.0
 10
88.74376489751893
 20
-146.0124484226983
 30
0.0
 10
88.74376489751893
 20
-146.0124484226983
 30
0.0
 10
88.4269883676502
 20
-143.8124104458177
 30
0.0
 10
88.2478434024172
 20
-141.3898193005901
 30
0.0
 10
88.2478434024172
 20
-138.7159084397134
 30
0.0
 10
88.2478434024172
 20
-133.5298339509926
 30
0.0
 10
89.06174721080748
 20
-129.1915974611917
 30
0.0
 10
90.44684785065218
 20
-125.6105929590487
 30
0.0
 10
90.52367347997325
 20
-127.3124701287622
 30
0.0
 10
91.0855685536175
 20
-128.9142672746291
 30
0.0
 10
91.72049965154905
 20
-131.4720784176528
 30
0.0
 10
92.60726722945235
 20
-134.9545531889176
 30
0.0
 10
92.7686699529363
 20
-136.8581406992924
 30
0.0
 10
91.62128090157385
 20
-138.8950534049464
 30
0.0
 10
92.30633813881578
 20
-139.5256781335214
 30
0.0
 10
94.01114363969167
 20
-136.6836466129645
 30
0.0
 10
94.29002411922264
 20
-135.1703884210685
 30
0.0
 10
94.86294349841968
 20
-135.5066297404289
 30
0.0
 10
95.1816148308053
 20
-135.4969834730702
 30
0.0
 10
95.21107039720418
 20
-134.9254421320672
 30
0.0
 10
95.24242076611995
 20
-134.3192775814375
 30
0.0
 10
94.90704072063089
 20
-133.4690280156779
 30
0.0
 10
94.4894951478186
 20
-132.7601996195877
 30
0.0
 10
94.42162676675918
 20
-132.6456501947032
 30
0.0
 10
94.36237112441289
 20
-132.5789875970636
 30
0.0
 10
94.56959361785066
 20
-132.6344536343761
 30
0.0
 10
96.20325789695613
 20
-133.0664686082264
 30
0.0
 10
98.5317979354365
 20
-132.6361761821187
 30
0.0
 10
100.3585598164902
 20
-131.357356737994
 30
0.0
 10
103.6839382336276
 20
-129.0315727759018
 30
0.0
 10
103.2774169663682
 20
-125.414567025938
 30
0.0
 10
102.0966104887988
 20
-123.832406924337
 30
0.0
 10
101.4944077979771
 20
-123.0253933069173
 30
0.0
 10
100.6782646775214
 20
-122.4090657246061
 30
0.0
 10
99.82267521375961
 20
-122.1031412455159
 30
0.0
 10
98.67063528349206
 20
-121.6935193923197
 30
0.0
 10
97.88101939827281
 20
-121.8674967143248
 30
0.0
 10
97.41145288363325
 20
-122.2719509242931
 30
0.0
 10
97.56131453724161
 20
-121.4415106575737
 30
0.0
 10
98.3057996716041
 20
-121.0818426889136
 30
0.0
 10
99.32072480155871
 20
-120.8818548959948
 30
0.0
 10
100.8973727503833
 20
-120.573518850065
 30
0.0
 10
101.2992431387377
 20
-120.8410305144946
 30
0.0
 10
102.5821966974447
 20
-120.1940415823647
 30
0.0
 10
103.2398654255789
 20
-119.8617621228123
 30
0.0
 10
103.7695488564361
 20
-119.6678032469928
 30
0.0
 10
104.1111300737986
 20
-119.753930634124
 30
0.0
 10
104.4267008202475
 20
-119.8335123398333
 30
0.0
 10
104.6044677472864
 20
-119.7949272703985
 30
0.0
 10
104.2568576128247
 20
-119.495376217956
 30
0.0
 10
102.6857218167765
 20
-118.1407646731558
 30
0.0
 10
100.258652047418
 20
-118.0055446753597
 30
0.0
 10
99.14175209109999
 20
-118.4046589873259
 30
0.0
 10
99.08663056333599
 20
-118.4244682863661
 30
0.0
 10
99.08232419397942
 20
-118.4120659426192
 30
0.0
 10
99.13245033328981
 20
-118.3788207711866
 30
0.0
 10
100.61435815627
 20
-117.3973130674389
 30
0.0
 10
101.7440049658834
 20
-118.0429239613747
 30
0.0
 10
104.0368882660915
 20
-117.9025363203508
 30
0.0
 10
104.8170301387263
 20
-117.8539604740087
 30
0.0
 10
105.8586547586916
 20
-117.7571532908732
 30
0.0
 10
106.7242349993606
 20
-116.7870144022269
 30
0.0
 10
106.7819403487385
 20
-116.7224188618784
 30
0.0
 10
106.885293213296
 20
-116.6051133606057
 30
0.0
 10
106.6394856504235
 20
-116.6213053093863
 30
0.0
 10
105.7189561367647
 20
-116.6805609517326
 30
0.0
 10
104.7846462411649
 20
-116.2464789205912
 30
0.0
 10
103.8465467405314
 20
-115.8997300600008
 30
0.0
 10
101.6974961768326
 20
-115.1047742767794
 30
0.0
 10
98.94176429818123
 20
-116.0046332175266
 30
0.0
 10
97.57785099557081
 20
-117.9903862552246
 30
0.0
 10
97.45279402945626
 20
-117.4524345952029
 30
0.0
 10
97.08503008640584
 20
-116.9148274447296
 30
0.0
 10
96.55121254096636
 20
-116.674876544182
 30
0.0
 10
98.46272377095724
 20
-115.0164075775827
 30
0.0
 10
100.5911037617446
 20
-113.8094183743254
 30
0.0
 10
102.8137071140535
 20
-113.0141180815555
 30
0.0
 10
104.5092108571192
 20
-112.5709065473781
 30
0.0
 10
106.3380397954641
 20
-112.3569661177441
 30
0.0
 10
107.9878960233503
 20
-113.0876708701656
 30
0.0
 10
109.8551377763557
 20
-114.1644354640804
 30
0.0
 10
110.8669623203735
 20
-116.6678140984372
 30
0.0
 10
108.3234483236136
 20
-118.0697957061596
 30
0.0
 10
108.0628268501544
 20
-118.2120781497005
 30
0.0
 10
107.8339002551596
 20
-118.2944159317979
 30
0.0
 10
107.5372775338796
 20
-118.3510877525303
 30
0.0
 10
107.3340169002498
 20
-118.3913953697077
 30
0.0
 10
107.2578802900258
 20
-118.50181068001
 30
0.0
 10
107.4766438533392
 20
-118.7309095297791
 30
0.0
 10
108.5962998860454
 20
-119.9117160073485
 30
0.0
 10
109.6325846080085
 20
-119.7585815130291
 30
0.0
 10
110.9654920512517
 20
-119.5143242431249
 30
0.0
 10
110.9499891215681
 20
-119.7728786592929
 30
0.0
 10
110.9468885356313
 20
-120.043318654885
 30
0.0
 10
111.1208658576365
 20
-120.2326266517995
 30
0.0
 10
112.2632595205453
 20
-120.1287570229192
 30
0.0
 10
113.2044596071156
 20
-118.9074706733981
 30
0.0
 10
113.2044596071156
 20
-118.9074706733981
 30
0.0
 10
113.4228786608804
 20
-120.0116237764207
 30
0.0
 10
111.9225395770541
 20
-122.5485920917587
 30
0.0
 10
109.0675889484276
 20
-121.94570038184
 30
0.0
 10
109.1926459145421
 20
-121.8101358744954
 30
0.0
 10
109.3108126896862
 20
-121.6621690234039
 30
0.0
 10
109.3962510577204
 20
-121.4999050260486
 30
0.0
 10
110.3071343040204
 20
-119.757203474835
 30
0.0
 10
106.6410359433918
 20
-118.8840440240984
 30
0.0
 10
106.2574245611093
 20
-120.7564534203317
 30
0.0
 10
105.9642469353145
 20
-122.1901299065185
 30
0.0
 10
107.6110025772639
 20
-123.4017699886808
 30
0.0
 10
109.2105604110654
 20
-123.4808349300673
 30
0.0
 10
113.0732014691275
 20
-123.6723822390472
 30
0.0
 10
114.8505262299679
 20
-120.3599229299795
 30
0.0
 10
114.9008246240526
 20
-118.502499699107
 30
0.0
 10
115.4213785518738
 20
-119.8562499700359
 30
0.0
 10
116.7529079569229
 20
-120.0174804387456
 30
0.0
 10
117.6779160947125
 20
-121.0771918100085
 30
0.0
 10
117.9504231475957
 20
-121.3884561871008
 30
0.0
 10
118.2053602135042
 20
-121.2112060243847
 30
0.0
 10
117.9480115807561
 20
-120.9593695444129
 30
0.0
 10
117.2004258604568
 20
-120.229698320637
 30
0.0
 10
117.871185951435
 20
-119.1519001980766
 30
0.0
 10
117.78126895927
 20
-118.3269720841335
 30
0.0
 10
117.7602538768099
 20
-117.1530557975347
 30
0.0
 10
117.512896020969
 20
-116.2216742330974
 30
0.0
 10
116.6784938944415
 20
-115.3063123626665
 30
0.0
 10
116.9396321322234
 20
-115.0982285953574
 30
0.0
 10
117.3723361251708
 20
-115.2098496890795
 30
0.0
 10
117.6097032041045
 20
-115.0722181244438
 30
0.0
 10
117.2686387510648
 20
-114.134635388133
 30
0.0
 10
116.3615451097985
 20
-113.1491658245773
 30
0.0
 10
115.0472411821757
 20
-112.352315238839
 30
0.0
 10
119.6171603433596
 20
-113.3463975411078
 30
0.0
 10
125.7797471473745
 20
-116.1908406285044
 30
0.0
 10
128.9936767255641
 20
-124.3402139988629
 30
0.0
 10
128.9936767255641
 20
-124.3402139988629
 30
0.0
 10
131.9922878359255
 20
-124.3402139988629
 30
0.0
 10
131.9922878359255
 20
-124.3402139988629
 30
0.0
 10
131.9922878359255
 20
-124.3402139988629
 30
0.0
 10
131.9922878359255
 20
-110.7584418125882
 30
0.0
 10
131.9922878359255
 20
-110.7584418125882
 30
0.0
 10
131.9922878359255
 20
-110.7584418125882
 30
0.0
 10
129.1700656144089
 20
-110.7584418125882
 30
0.0
 10
129.1700656144089
 20
-110.7584418125882
 30
0.0
 10
128.9936767255641
 20
-111.0230251458554
 30
0.0
 10
128.8172878367193
 20
-111.1994140347002
 30
0.0
 10
128.6408989478745
 20
-111.3758029235449
 30
0.0
 10
128.2881211701849
 20
-111.6403862568121
 30
0.0
 10
127.9353433924953
 20
-111.8167751456569
 30
0.0
 10
127.4943711703834
 20
-111.8167751456569
 30
0.0
 10
125.7304822819354
 20
-111.8167751456569
 30
0.0
 10
124.0547878379099
 20
-111.2876084791226
 30
0.0
 10
122.731871171574
 20
-110.7584418125882
 30
0.0
 10
119.6450656167901
 20
-109.5237195906746
 30
0.0
 10
116.0290933954719
 20
-108.3771918131835
 30
0.0
 10
109.6790933970594
 20
-108.3771918131835
 30
0.0
 10
102.0809353043409
 20
-108.3771918131835
 30
0.0
 10
96.32521427713398
 20
-110.9406873637579
 30
0.0
 10
92.40400659582261
 20
-113.5841091295901
 30
0.0
 10
90.91917044167994
 20
-112.3114908573388
 30
0.0
 10
90.48129880550468
 20
-111.3713242994141
 30
0.0
 10
90.77843829110748
 20
-110.4652641867934
 30
0.0
 10
90.91882593213141
 20
-110.0392781300423
 30
0.0
 10
91.34946286778764
 20
-109.7486843258614
 30
0.0
 10
92.28428952771019
 20
-109.7729722490325
 30
0.0
 10
92.88270261349808
 20
-108.418188449458
 30
0.0
 10
89.35027395769715
 20
-107.8766194391767
 30
0.0
 10
88.52448456988277
 20
-109.5214802786092
 30
0.0
 10
88.16257728915727
 20
-110.1465928544078
 30
0.0
 10
88.26196829390673
 20
-110.945338242663
 30
0.0
 10
88.59889863236417
 20
-111.5299709465099
 30
0.0
 10
85.86400958139859
 20
-110.8998629822577
 30
0.0
 10
82.7727254024839
 20
-112.2193345531084
 30
0.0
 10
81.53386906598807
 20
-114.4953368854387
 30
0.0
 10
80.99350583912663
 20
-115.4895914424818
 30
0.0
 10
80.52325030539002
 20
-116.5522311449071
 30
0.0
 10
79.67885740195528
 20
-117.1956027267775
 30
0.0
 10
79.45389266676848
 20
-117.3663072080716
 30
0.0
 10
79.63476017974409
 20
-117.3859442523376
 30
0.0
 10
79.7348402035906
 20
-117.3971408126646
 30
0.0
 10
81.2439642809043
 20
-117.554926185889
 30
0.0
 10
82.22202688916671
 20
-116.8538492546407
 30
0.0
 10
82.93567841893622
 20
-116.3078016202286
 30
0.0
 10
85.03288029558206
 20
-114.7022148693279
 30
0.0
 10
85.50416935796424
 20
-113.3164252103862
 30
0.0
 10
87.55555146465626
 20
-113.0213527820745
 30
0.0
 10
87.62462562913551
 20
-113.0113620051673
 30
0.0
 10
87.63117131055749
 20
-113.0253146418826
 30
0.0
 10
87.56812606317742
 20
-113.0496025650536
 30
0.0
 10
86.28775632608432
 20
-113.555859346611
 30
0.0
 10
84.29270153057614
 20
-115.4911417354501
 30
0.0
 10
83.99056665651972
 20
-117.8003892392131
 30
0.0
 10
83.9240763136544
 20
-118.3111246449014
 30
0.0
 10
84.10804441256674
 20
-118.209838837635
 30
0.0
 10
84.31974553013535
 20
-117.9068426897073
 30
0.0
 10
84.54781085125889
 20
-117.5786973447373
 30
0.0
 10
85.15828177124516
 20
-117.3420192849006
 30
0.0
 10
85.98854978319036
 20
-117.1246337597813
 30
0.0
 10
87.60567760396664
 20
-116.7005425055471
 30
0.0
 10
87.74382593292516
 20
-116.1758544631435
 30
0.0
 10
89.34992944814863
 20
-115.2487792680628
 30
0.0
 10
89.90183374488565
 20
-114.931313719097
 30
0.0
 10
90.42273218225543
 20
-114.7106553532668
 30
0.0
 10
90.90711260748157
 20
-114.6593234305366
 30
0.0
 10
88.47866479992895
 20
-116.5182969543774
 30
0.0
 10
86.97229679900346
 20
-118.2480793975213
 30
0.0
 10
86.3957600695469
 20
-118.9603528890967
 30
0.0
 10
82.0742322928495
 20
-124.3402139988629
 30
0.0
 10
79.42839896017763
 20
-131.6603528859217
 30
0.0
 10
79.42839896017763
 20
-138.5395195508686
 30
0.0
 10
79.42839896017763
 20
-141.0863063883396
 30
0.0
 10
79.57567679217206
 20
-143.5860676724368
 30
0.0
 10
79.91932506682573
 20
-146.0124484226983
 30
0.0
 10
79.91932506682573
 20
-146.0124484226983
 30
0.0
 10
73.4201524339019
 20
-146.0124484226983
 30
0.0
 10
73.4201524339019
 20
-146.0124484226983
 30
0.0
 10
73.4201524339019
 20
-146.0124484226983
 30
0.0
 10
73.4201524339019
 20
-147.6240640906982
 30
0.0
 10
73.4201524339019
 20
-147.6240640906982
 30
0.0
 10
73.4201524339019
 20
-147.6240640906982
 30
0.0
 10
142.3289523298692
 20
-147.6240640906982
 30
0.0
 10
142.3289523298692
 20
-147.6240640906982
 30
0.0
 10
142.3289523298692
 20
-147.6240640906982
 30
0.0
 10
142.3289523298692
 20
-146.0124484226983
 30
0.0
 10
142.3289523298692
 20
-146.0124484226983
 30
0.0
 10
142.3289523298692
 20
-146.0124484226983
 30
0.0
 10
135.9610378349334
 20
-146.0124484226983
 30
0.0
 10
135.9610378349334
 20
-146.0124484226983
 30
0.0
  0
SPLINE
  5
41
330
3C
100
AcDbEntity
  8
Layer 1
370
     0
100
AcDbSpline
210
0.0
220
0.0
230
1.0
 70
    11
 71
     3
 72
    14
 73
    10
 74
     0
 42
0.0000000001
 43
0.0000000001
 40
0.0
 40
0.0
 40
0.0
 40
0.0
 40
1.0
 40
1.0
 40
1.0
 40
2.0
 40
2.0
 40
2.0
 40
3.0
 40
3.0
 40
3.0
 40
3.0
 10
116.0938611905946
 20
-117.8866888811186
 30
0.0
 10
116.1069525534385
 20
-117.9300970842328
 30
0.0
 10
116.0969617765313
 20
-117.9280300269416
 30
0.0
 10
116.0680229744552
 20
-117.8897894670553
 30
0.0
 10
114.6624240164733
 20
-116.051486516126
 30
0.0
 10
112.6649576541254
 20
-113.3105685480613
 30
0.0
 10
110.2454670948345
 20
-112.0221028365778
 30
0.0
 10
112.976394285992
 20
-112.7143947743388
 30
0.0
 10
115.3476535084895
 20
-115.4155218895489
 30
0.0
 10
116.0938611905946
 20
-117.8866888811186
 30
0.0
  0
SPLINE
  5
42
330
3C
100
AcDbEntity
  8
Layer 1
370
     0
100
AcDbSpline
210
0.0
220
0.0
230
1.0
 70
    11
 71
     3
 72
    14
 73
    10
 74
     0
 42
0.0000000001
 43
0.0000000001
 40
0.0
 40
0.0
 40
0.0
 40
0.0
 40
1.0
 40
1.0
 40
1.0
 40
2.0
 40
2.0
 40
2.0
 40
3.0
 40
3.0
 40
3.0
 40
3.0
 10
110.1111083709097
 20
-117.5521701095008
 30
0.0
 10
109.9829508188584
 20
-117.6055690895222
 30
0.0
 10
110.0198133405506
 20
-117.5366671798172
 30
0.0
 10
110.0814805497366
 20
-117.4737941872114
 30
0.0
 10
111.1057074375014
 20
-116.4297580004065
 30
0.0
 10
110.687472845592
 20
-113.2523464343605
 30
0.0
 10
108.7616644693374
 20
-112.2146836742033
 30
0.0
 10
110.989952229197
 20
-112.4971815039938
 30
0.0
 10
112.3025336090771
 20
-116.6331908888105
 30
0.0
 10
110.1111083709097
 20
-117.5521701095008
 30
0.0
  0
SPLINE
  5
43
330
3C
100
AcDbEntity
  8
Layer 1
370
     0
100
AcDbSpline
210
0.0
220
0.0
230
1.0
 70
    11
 71
     3
 72
    62
 73
    58
 74
     0
 42
0.0000000001
 43
0.0000000001
 40
0.0
 40
0.0
 40
0.0
 40
0.0
 40
1.0
 40
1.0
 40
1.0
 40
2.0
 40
2.0
 40
2.0
 40
3.0
 40
3.0
 40
3.0
 40
4.0
 40
4.0
 40
4.0
 40
5.0
 40
5.0
 40
5.0
 40
6.0
 40
6.0
 40
6.0
 40
7.0
 40
7.0
 40
7.0
 40
8.0
 40
8.0
 40
8.0
 40
9.0
 40
9.0
 40
9.0
 40
10.0
 40
10.0
 40
10.0
 40
11.0
 40
11.0
 40
11.0
 40
12.0
 40
12.0
 40
12.0
 40
13.0
 40
13.0
 40
13.0
 40
14.0
 40
14.0
 40
14.0
 40
15.0
 40
15.0
 40
15.0
 40
16.0
 40
16.0
 40
16.0
 40
17.0
 40
17.0
 40
17.0
 40
18.0
 40
18.0
 40
18.0
 40
19.0
 40
19.0
 40
19.0
 40
19.0
 10
93.00827634393544
 20
-120.6729098548144
 30
0.0
 10
93.51194930387896
 20
-119.9334201089055
 30
0.0
 10
94.04972870912646
 20
-119.2483628716636
 30
0.0
 10
94.61248505664202
 20
-118.6077473661814
 30
0.0
 10
94.99023977659967
 20
-118.3812323380262
 30
0.0
 10
95.3009873893692
 20
-118.3881225289967
 30
0.0
 10
95.55420190753506
 20
-118.5364338896367
 30
0.0
 10
96.29455292731525
 20
-118.9718939589723
 30
0.0
 10
96.57601722846017
 20
-119.8610731037153
 30
0.0
 10
96.37671845463846
 20
-121.601879852412
 30
0.0
 10
96.23839787090569
 20
-122.8042181767642
 30
0.0
 10
96.56395939426179
 20
-123.6995984933807
 30
0.0
 10
97.13722328300736
 20
-124.262871605219
 30
0.0
 10
97.14721405991459
 20
-124.2764797323858
 30
0.0
 10
97.15444876043361
 20
-124.2923271716179
 30
0.0
 10
97.16512855643789
 20
-124.3054185344619
 30
0.0
 10
97.64227428114499
 20
-124.8948743719881
 30
0.0
 10
98.50682099316843
 20
-124.9856526380244
 30
0.0
 10
99.09748261411453
 20
-124.5079901489945
 30
0.0
 10
99.40581866004439
 20
-124.2580484715397
 30
0.0
 10
99.57635088656426
 20
-123.9021701079133
 30
0.0
 10
99.60201684792936
 20
-123.5333726362174
 30
0.0
 10
100.4107530130918
 20
-123.9388603748313
 30
0.0
 10
101.1691907841695
 20
-124.6466552422758
 30
0.0
 10
101.5436726634162
 20
-125.5053452919744
 30
0.0
 10
102.5629041627273
 20
-127.8359523877459
 30
0.0
 10
101.0634263527723
 20
-130.1691433051313
 30
0.0
 10
98.28822968462934
 20
-131.0969075193091
 30
0.0
 10
97.98781735831555
 20
-131.1975043074784
 30
0.0
 10
97.68240964354816
 20
-131.2751912106708
 30
0.0
 10
97.3873372152365
 20
-131.3871568139414
 30
0.0
 10
97.53788788794192
 20
-131.1344590600983
 30
0.0
 10
97.78765731062254
 20
-131.1420382701659
 30
0.0
 10
98.09892168771486
 20
-131.0479871634186
 30
0.0
 10
99.50245358840564
 20
-130.3789496201831
 30
0.0
 10
100.1716633864154
 20
-129.0648179473345
 30
0.0
 10
100.1671847622846
 20
-128.0397297856984
 30
0.0
 10
100.1659789788648
 20
-127.6032361877173
 30
0.0
 10
100.0719278721174
 20
-127.39239634402
 30
0.0
 10
99.60012204541248
 20
-127.4502739481722
 30
0.0
 10
99.22736271390845
 20
-127.4950601894804
 30
0.0
 10
98.84065074568915
 20
-127.7530978413256
 30
0.0
 10
98.84065074568915
 20
-127.7530978413256
 30
0.0
 10
98.19314504923643
 20
-126.4896090721102
 30
0.0
 10
96.71519908606426
 20
-125.8167819238409
 30
0.0
 10
95.76245792961842
 20
-126.3623127939303
 30
0.0
 10
95.46841902995234
 20
-126.5321560013531
 30
0.0
 10
95.58469100257953
 20
-126.6191446623556
 30
0.0
 10
95.72645668179756
 20
-126.6933864700628
 30
0.0
 10
96.63802894719467
 20
-127.1672593540589
 30
0.0
 10
96.62149248886547
 20
-128.2454019861678
 30
0.0
 10
96.22186141257649
 20
-128.9289089304414
 30
0.0
 10
95.32338051002333
 20
-130.4650770073143
 30
0.0
 10
93.71142033247493
 20
-130.8147541990672
 30
0.0
 10
92.56850990524329
 20
-129.1750610028625
 30
0.0
 10
91.11967499892147
 20
-127.096462641837
 30
0.0
 10
91.28090546763117
 20
-123.5945230810805
 30
0.0
 10
93.00827634393544
 20
-120.6729098548144
 30
0.0
  0
SPLINE
  5
44
330
3C
100
AcDbEntity
  8
Layer 1
370
     0
100
AcDbSpline
210
0.0
220
0.0
230
1.0
 70
    11
 71
     3
 72
    17
 73
    13
 74
     0
 42
0.0000000001
 43
0.0000000001
 40
0.0
 40
0.0
 40
0.0
 40
0.0
 40
1.0
 40
1.0
 40
1.0
 40
2.0
 40
2.0
 40
2.0
 40
3.0
 40
3.0
 40
3.0
 40
4.0
 40
4.0
 40
4.0
 40
4.0
 10
115.3624674190761
 20
-145.0681477501913
 30
0.0
 10
115.2835747324638
 20
-145.4440076676321
 30
0.0
 10
115.0916829139354
 20
-145.7482095989796
 30
0.0
 10
114.8636175928119
 20
-146.0124484226983
 30
0.0
 10
114.8636175928119
 20
-146.0124484226983
 30
0.0
 10
111.5625270988455
 20
-146.0124484226983
 30
0.0
 10
111.5625270988455
 20
-146.0124484226983
 30
0.0
 10
111.7199679625214
 20
-145.7213378541947
 30
0.0
 10
111.8698296161298
 20
-145.4212700374294
 30
0.0
 10
112.0172797028985
 20
-145.1122449724025
 30
0.0
 10
113.4249457181715
 20
-142.168066370708
 30
0.0
 10
115.878198213218
 20
-142.623507993858
 30
0.0
 10
115.3624674190761
 20
-145.0681477501913
 30
0.0
  0
SPLINE
  5
45
330
3C
100
AcDbEntity
  8
Layer 1
370
     0
100
AcDbSpline
210
0.0
220
0.0
230
1.0
 70
    11
 71
     3
 72
    17
 73
    13
 74
     0
 42
0.0000000001
 43
0.0000000001
 40
0.0
 40
0.0
 40
0.0
 40
0.0
 40
1.0
 40
1.0
 40
1.0
 40
2.0
 40
2.0
 40
2.0
 40
3.0
 40
3.0
 40
3.0
 40
4.0
 40
4.0
 40
4.0
 40
4.0
 10
105.3461968052607
 20
-145.0715928456765
 30
0.0
 10
104.8316717945386
 20
-142.6276421084403
 30
0.0
 10
107.284235270488
 20
-142.1715114661932
 30
0.0
 10
108.6913845214383
 20
-145.1170681060819
 30
0.0
 10
108.8384900986584
 20
-145.4240261138176
 30
0.0
 10
108.9876627331698
 20
-145.7227158923888
 30
0.0
 10
109.1444145777486
 20
-146.0124484226983
 30
0.0
 10
109.1444145777486
 20
-146.0124484226983
 30
0.0
 10
105.8416015360396
 20
-146.0124484226983
 30
0.0
 10
105.8416015360396
 20
-146.0124484226983
 30
0.0
 10
105.6150865078844
 20
-145.7488986180767
 30
0.0
 10
105.4249172370986
 20
-145.4457302153747
 30
0.0
 10
105.3461968052607
 20
-145.0715928456765
 30
0.0
  0
HATCH
  5
46
330
3C
100
AcDbEntity
  8
Layer 1
 62
   250
420
  2301728
100
AcDbHatch
 10
0.0
 20
0.0
 30
0.0
210
0.0
220
0.0
230
1.0
  2
SOLID
 70
     1
 71
     0
 91
        6
 92
        1
 93
        1
 72
     4
 94
        3
 73
     0
 74
     1
 95
      443
 96
      439
 40
0.0
 40
0.0
 40
0.0
 40
0.0
 40
1.0
 40
1.0
 40
1.0
 40
2.0
 40
2.0
 40
2.0
 40
3.0
 40
3.0
 40
3.0
 40
4.0
 40
4.0
 40
4.0
 40
5.0
 40
5.0
 40
5.0
 40
6.0
 40
6.0
 40
6.0
 40
7.0
 40
7.0
 40
7.0
 40
8.0
 40
8.0
 40
8.0
 40
9.0
 40
9.0
 40
9.0
 40
10.0
 40
10.0
 40
10.0
 40
11.0
 40
11.0
 40
11.0
 40
12.0
 40
12.0
 40
12.0
 40
13.0
 40
13.0
 40
13.0
 40
14.0
 40
14.0
 40
14.0
 40
15.0
 40
15.0
 40
15.0
 40
16.0
 40
16.0
 40
16.0
 40
17.0
 40
17.0
 40
17.0
 40
18.0
 40
18.0
 40
18.0
 40
19.0
 40
19.0
 40
19.0
 40
20.0
 40
20.0
 40
20.0
 40
21.0
 40
21.0
 40
21.0
 40
22.0
 40
22.0
 40
22.0
 40
23.0
 40
23.0
 40
23.0
 40
24.0
 40
24.0
 40
24.0
 40
25.0
 40
25.0
 40
25.0
 40
26.0
 40
26.0
 40
26.0
 40
27.0
 40
27.0
 40
27.0
 40
28.0
 40
28.0
 40
28.0
 40
29.0
 40
29.0
 40
29.0
 40
30.0
 40
30.0
 40
30.0
 40
31.0
 40
31.0
 40
31.0
 40
32.0
 40
32.0
 40
32.0
 40
33.0
 40
33.0
 40
33.0
 40
34.0
 40
34.0
 40
34.0
 40
35.0
 40
35.0
 40
35.0
 40
36.0
 40
36.0
 40
36.0
 40
37.0
 40
37.0
 40
37.0
 40
38.0
 40
38.0
 40
38.0
 40
39.0
 40
39.0
 40
39.0
 40
40.0
 40
40.0
 40
40.0
 40
41.0
 40
41.0
 40
41.0
 40
42.0
 40
42.0
 40
42.0
 40
43.0
 40
43.0
 40
43.0
 40
44.0
 40
44.0
 40
44.0
 40
45.0
 40
45.0
 40
45.0
 40
46.0
 40
46.0
 40
46.0
 40
47.0
 40
47.0
 40
47.0
 40
48.0
 40
48.0
 40
48.0
 40
49.0
 40
49.0
 40
49.0
 40
50.0
 40
50.0
 40
50.0
 40
51.0
 40
51.0
 40
51.0
 40
52.0
 40
52.0
 40
52.0
 40
53.0
 40
53.0
 40
53.0
 40
54.0
 40
54.0
 40
54.0
 40
55.0
 40
55.0
 40
55.0
 40
56.0
 40
56.0
 40
56.0
 40
57.0
 40
57.0
 40
57.0
 40
58.0
 40
58.0
 40
58.0
 40
59.0
 40
59.0
 40
59.0
 40
60.0
 40
60.0
 40
60.0
 40
61.0
 40
61.0
 40
61.0
 40
62.0
 40
62.0
 40
62.0
 40
63.0
 40
63.0
 40
63.0
 40
64.0
 40
64.0
 40
64.0
 40
65.0
 40
65.0
 40
65.0
 40
66.0
 40
66.0
 40
66.0
 40
67.0
 40
67.0
 40
67.0
 40
68.0
 40
68.0
 40
68.0
 40
69.0
 40
69.0
 40
69.0
 40
70.0
 40
70.0
 40
70.0
 40
71.0
 40
71.0
 40
71.0
 40
72.0
 40
72.0
 40
72.0
 40
73.0
 40
73.0
 40
73.0
 40
74.0
 40
74.0
 40
74.0
 40
75.0
 40
75.0
 40
75.0
 40
76.0
 40
76.0
 40
76.0
 40
77.0
 40
77.0
 40
77.0
 40
78.0
 40
78.0
 40
78.0
 40
79.0
 40
79.0
 40
79.0
 40
80.0
 40
80.0
 40
80.0
 40
81.0
 40
81.0
 40
81.0
 40
82.0
 40
82.0
 40
82.0
 40
83.0
 40
83.0
 40
83.0
 40
84.0
 40
84.0
 40
84.0
 40
85.0
 40
85.0
 40
85.0
 40
86.0
 40
86.0
 40
86.0
 40
87.0
 40
87.0
 40
87.0
 40
88.0
 40
88.0
 40
88.0
 40
89.0
 40
89.0
 40
89.0
 40
90.0
 40
90.0
 40
90.0
 40
91.0
 40
91.0
 40
91.0
 40
92.0
 40
92.0
 40
92.0
 40
93.0
 40
93.0
 40
93.0
 40
94.0
 40
94.0
 40
94.0
 40
95.0
 40
95.0
 40
95.0
 40
96.0
 40
96.0
 40
96.0
 40
97.0
 40
97.0
 40
97.0
 40
98.0
 40
98.0
 40
98.0
 40
99.0
 40
99.0
 40
99.0
 40
100.0
 40
100.0
 40
100.0
 40
101.0
 40
101.0
 40
101.0
 40
102.0
 40
102.0
 40
102.0
 40
103.0
 40
103.0
 40
103.0
 40
104.0
 40
104.0
 40
104.0
 40
105.0
 40
105.0
 40
105.0
 40
106.0
 40
106.0
 40
106.0
 40
107.0
 40
107.0
 40
107.0
 40
108.0
 40
108.0
 40
108.0
 40
109.0
 40
109.0
 40
109.0
 40
110.0
 40
110.0
 40
110.0
 40
111.0
 40
111.0
 40
111.0
 40
112.0
 40
112.0
 40
112.0
 40
113.0
 40
113.0
 40
113.0
 40
114.0
 40
114.0
 40
114.0
 40
115.0
 40
115.0
 40
115.0
 40
116.0
 40
116.0
 40
116.0
 40
117.0
 40
117.0
 40
117.0
 40
118.0
 40
118.0
 40
118.0
 40
119.0
 40
119.0
 40
119.0
 40
120.0
 40
120.0
 40
120.0
 40
121.0
 40
121.0
 40
121.0
 40
122.0
 40
122.0
 40
122.0
 40
123.0
 40
123.0
 40
123.0
 40
124.0
 40
124.0
 40
124.0
 40
125.0
 40
125.0
 40
125.0
 40
126.0
 40
126.0
 40
126.0
 40
127.0
 40
127.0
 40
127.0
 40
128.0
 40
128.0
 40
128.0
 40
129.0
 40
129.0
 40
129.0
 40
130.0
 40
130.0
 40
130.0
 40
131.0
 40
131.0
 40
131.0
 40
132.0
 40
132.0
 40
132.0
 40
133.0
 40
133.0
 40
133.0
 40
134.0
 40
134.0
 40
134.0
 40
135.0
 40
135.0
 40
135.0
 40
136.0
 40
136.0
 40
136.0
 40
137.0
 40
137.0
 40
137.0
 40
138.0
 40
138.0
 40
138.0
 40
139.0
 40
139.0
 40
139.0
 40
140.0
 40
140.0
 40
140.0
 40
141.0
 40
141.0
 40
141.0
 40
142.0
 40
142.0
 40
142.0
 40
143.0
 40
143.0
 40
143.0
 40
144.0
 40
144.0
 40
144.0
 40
145.0
 40
145.0
 40
145.0
 40
146.0
 40
146.0
 40
146.0
 40
146.0
 10
135.9610378349334
 20
-146.0124484226983
 10
135.9610378349334
 20
-146.0124484226983
 10
135.9610378349334
 20
-134.7790255739441
 10
135.9610378349334
 20
-134.7790255739441
 10
135.9610378349334
 20
-134.7790255739441
 10
124.3142035279492
 20
-134.7790255739441
 10
124.3142035279492
 20
-134.7790255739441
 10
124.3142035279492
 20
-134.7790255739441
 10
124.3142035279492
 20
-137.924225497203
 10
124.3142035279492
 20
-137.924225497203
 10
126.0836045691735
 20
-138.3143825609075
 10
128.0845160270067
 20
-139.5747707441862
 10
128.3897514869998
 20
-143.002813006784
 10
128.406976964426
 20
-143.195738353958
 10
128.4186902890759
 20
-144.409100983863
 10
128.4248914609493
 20
-146.0124484226983
 10
128.4248914609493
 20
-146.0124484226983
 10
116.768755396155
 20
-146.0124484226983
 10
116.768755396155
 20
-146.0124484226983
 10
116.8900227572358
 20
-145.5421928889617
 10
116.9782172016582
 20
-144.8593749637852
 10
116.6461099968801
 20
-144.1097221861948
 10
116.8624619933538
 20
-143.8478949293158
 10
117.09224986222
 20
-143.9402234883205
 10
117.2173068283346
 20
-143.5626410231371
 10
117.3723361251708
 20
-142.5690754851911
 10
114.5514919418482
 20
-141.9723849471458
 10
114.4054198932736
 20
-141.9510253551373
 10
115.334217636097
 20
-141.1937933674793
 10
116.7794351921593
 20
-141.0594346435546
 10
118.1057969539805
 20
-142.2721082543625
 10
118.7331488418445
 20
-142.843305085817
 10
119.2929768581976
 20
-143.8389376810541
 10
119.9313530516144
 20
-144.6437119864085
 10
120.5146077172672
 20
-145.3788953629608
 10
121.3624457161872
 20
-145.8708549982545
 10
122.0680012715663
 20
-145.5725097292319
 10
122.4617756855304
 20
-145.4043890695517
 10
122.8138644441229
 20
-145.1225802588582
 10
122.8741536151148
 20
-144.7918510922743
 10
122.9396104293346
 20
-144.4459635055552
 10
122.7425509675783
 20
-144.5823892867711
 10
122.6536675040588
 20
-144.6161512225265
 10
122.2171739060777
 20
-144.7822048249156
 10
121.6504556987541
 20
-144.8938259186377
 10
121.2670165712457
 20
-144.6237304325941
 10
121.4595974088712
 20
-144.3894639395971
 10
121.5522704774244
 20
-144.1593315611824
 10
121.567084388011
 20
-143.864431387645
 10
120.4691324568619
 20
-143.6453233147831
 10
119.1944471273194
 20
-142.4154242265489
 10
118.4051757516487
 20
-141.6478569524353
 10
119.7267143797906
 20
-142.0826280026738
 10
121.3297173090773
 20
-142.92667639656
 10
122.8031846481187
 20
-143.0858398079785
 10
123.38678382332
 20
-143.1492295649071
 10
123.9455783110275
 20
-143.092040979852
 10
124.4227240357346
 20
-142.9507920649567
 10
126.1597411793976
 20
-142.4367838185575
 10
125.8841335405776
 20
-140.8258571696547
 10
125.2082058063716
 20
-140.2036729250185
 10
124.5198757284187
 20
-139.5651244768275
 10
123.5166639231139
 20
-139.4355888865821
 10
123.3337293528471
 20
-140.485481735712
 10
123.2510470612011
 20
-140.9719292182292
 10
123.4966823692994
 20
-141.3784504854887
 10
123.8563503379595
 20
-141.5631076034981
 10
123.8243109499467
 20
-142.3975097300256
 10
121.8640516188396
 20
-142.030951570395
 10
120.8105414194501
 20
-141.6237412840385
 10
120.1897352130081
 20
-141.381895580974
 10
119.5737521402455
 20
-141.1510741834622
 10
118.9570800483857
 20
-140.9174967095623
 10
117.2166178092375
 20
-140.264995624656
 10
115.3225043114472
 20
-139.7077514299168
 10
112.9123155099664
 20
-142.2183647647926
 10
112.2859971507479
 20
-142.8701768306019
 10
111.6927517081879
 20
-143.7424750074672
 10
111.0126898593996
 20
-144.9499809750472
 10
111.4515950242204
 20
-141.1741563232134
 10
114.6855061562245
 20
-139.5983696482601
 10
116.8224988857249
 20
-139.4531588735568
 10
117.1759656825116
 20
-139.4307657529027
 10
117.2252305479506
 20
-139.3160440732439
 10
116.864529050645
 20
-139.1661824196355
 10
115.6043131221406
 20
-138.6452839822658
 10
113.9479112128325
 20
-138.5061021246617
 10
112.3290608443136
 20
-139.1337985220742
 10
112.0765353452448
 20
-138.510925258341
 10
111.5900878627275
 20
-137.869103969439
 10
111.0051106493321
 20
-137.4040160789303
 10
111.2338649895526
 20
-137.0738036766691
 10
111.0933050937545
 20
-136.5623792518837
 10
110.6313177891824
 20
-136.4049383882078
 10
110.6313177891824
 20
-136.4049383882078
 10
110.6313177891824
 20
-135.7586384751749
 10
110.6313177891824
 20
-135.7586384751749
 10
111.7588975415047
 20
-136.2047783405148
 10
112.245345024022
 20
-137.669632940843
 10
113.3336506878124
 20
-137.5917737828764
 10
114.5005045286665
 20
-137.5104695294245
 10
114.830200166605
 20
-136.0945352849868
 10
115.919539359041
 20
-135.3672756280505
 10
114.9149495155421
 20
-134.6451836143422
 10
114.5842203489581
 20
-133.228904860356
 10
113.541389945573
 20
-133.1899752813727
 10
112.3290608443136
 20
-133.1489786450982
 10
111.9135823287924
 20
-134.4832641265354
 10
110.6640461962923
 20
-134.9283704632297
 10
111.0350829800537
 20
-133.7560044695992
 10
112.665991182771
 20
-133.352928297825
 10
112.665991182771
 20
-132.2177693354352
 10
112.665991182771
 20
-131.2104234155481
 10
111.0350829800537
 20
-130.8073472437739
 10
110.287841769303
 20
-130.0421915364999
 10
109.4517170950329
 20
-130.7263874998705
 10
107.9944417047722
 20
-131.4143730682749
 10
107.9944417047722
 20
-132.2625555767434
 10
107.9944417047722
 20
-133.352928297825
 10
109.9963866912509
 20
-134.2383178375342
 10
109.9519449594912
 20
-135.0082966784875
 10
108.6993082410543
 20
-134.5642238704388
 10
108.4926025119394
 20
-133.3108981329049
 10
107.4053303767945
 20
-133.2719685539216
 10
106.3614664447638
 20
-133.2719685539216
 10
106.0069661193316
 20
-134.8853067696641
 10
104.8390787498319
 20
-135.5295396254058
 10
106.0896484109776
 20
-136.3405151026336
 10
106.6136474342841
 20
-137.6310478714082
 10
107.4508056371998
 20
-137.669632940843
 10
108.5329101291168
 20
-137.7509371942949
 10
108.8815537922241
 20
-135.9587985228679
 10
110.1321234533698
 20
-135.8385646904327
 10
110.1321234533698
 20
-135.8385646904327
 10
110.1321234533698
 20
-136.4049383882078
 10
110.1321234533698
 20
-136.4049383882078
 10
109.6181152069705
 20
-136.4602321707461
 10
109.4772108016238
 20
-137.0221272443903
 10
109.7173339569457
 20
-137.3864460919555
 10
109.1268445907738
 20
-137.8518784920127
 10
108.6341959363831
 20
-138.4986951693684
 10
108.3806369086687
 20
-139.1272528406522
 10
106.7610975210528
 20
-138.4992119336912
 10
105.105556885616
 20
-138.6383937912953
 10
103.8453409571116
 20
-139.158603209568
 10
103.4836059311604
 20
-139.3088093727249
 10
103.5321817775024
 20
-139.4235310523837
 10
103.8877156315802
 20
-139.447991230329
 10
106.0410725646356
 20
-139.5942355336778
 10
109.3053005369098
 20
-140.9381672824738
 10
109.7097547468781
 20
-144.9758191911866
 10
109.0234917262163
 20
-143.7565998989567
 10
108.426112169074
 20
-142.8774115311209
 10
107.7965209691446
 20
-142.2218098602779
 10
105.3856431485668
 20
-139.7122300540476
 10
103.4917019055507
 20
-140.2698187583353
 10
101.7524454498223
 20
-140.9223198432416
 10
101.1354288484141
 20
-141.1531412407534
 10
100.5196180304257
 20
-141.3860296955563
 10
99.89829505966085
 20
-141.6271863795238
 10
98.84444035072292
 20
-142.0350856849773
 10
96.88469778393855
 20
-142.4002658064138
 10
96.85265839592573
 20
-141.5658636798863
 10
97.2123263645858
 20
-141.381895580974
 10
97.45796167268412
 20
-140.9746852946174
 10
97.3749348714896
 20
-140.4889268311972
 10
97.19320608464268
 20
-139.4376559438732
 10
96.19016653411218
 20
-139.5713256487009
 10
95.50045841796516
 20
-140.2071180205038
 10
94.82487519330768
 20
-140.8299912842369
 10
94.54892304493916
 20
-142.4395398949457
 10
96.2855956790536
 20
-142.9549261795391
 10
96.7641194419548
 20
-143.0954860753372
 10
97.32291392966233
 20
-143.1540526985865
 10
97.90651310486365
 20
-143.0906629416579
 10
99.37860240571091
 20
-142.9301214920453
 10
100.9829833731918
 20
-142.086073098159
 10
102.3040052370108
 20
-141.6519910670176
 10
101.5157673899856
 20
-142.4181803029371
 10
100.2405652961204
 20
-143.6501464484625
 10
99.1426133649713
 20
-143.8685655022273
 10
99.1563937469123
 20
-144.1641546948617
 10
99.24958357978831
 20
-144.3942870732764
 10
99.44302569128509
 20
-144.6271755280793
 10
99.05889754467972
 20
-144.8972710141229
 10
98.49183482780761
 20
-144.7856499204008
 10
98.0546522107294
 20
-144.6189072989147
 10
97.96680227585553
 20
-144.5851453631593
 10
97.7699150688735
 20
-144.4514756583316
 10
97.83416609967341
 20
-144.7946071686625
 10
97.89548879931085
 20
-145.1274033925376
 10
98.24723304835486
 20
-145.4071451459399
 10
98.64031844322187
 20
-145.5759548247171
 10
99.34759654634367
 20
-145.8743000937398
 10
100.1944010166181
 20
-145.3830294775431
 10
100.7786892109164
 20
-144.6471570818938
 10
101.4153428565906
 20
-143.8437608147335
 10
101.9756876372665
 20
-142.8488172385934
 10
102.6032117799048
 20
-142.2741753116537
 10
103.9297457965002
 20
-141.0615017008458
 10
105.3742743334655
 20
-141.1972384629646
 10
106.3037610953859
 20
-141.9558484888166
 10
106.1587225754568
 20
-141.9758300426311
 10
103.3378783921343
 20
-142.5738986188704
 10
103.4915296507764
 20
-143.5640190613312
 10
103.6169311264395
 20
-143.9457356410969
 10
103.8470635048542
 20
-143.8527180629952
 10
104.0630709917794
 20
-144.1138563007771
 10
103.7319973156469
 20
-144.8607530019793
 10
103.8188137218752
 20
-145.5428819080587
 10
103.9404255925045
 20
-146.0124484226983
 10
103.9404255925045
 20
-146.0124484226983
 10
88.74376489751893
 20
-146.0124484226983
 10
88.74376489751893
 20
-146.0124484226983
 10
88.4269883676502
 20
-143.8124104458177
 10
88.2478434024172
 20
-141.3898193005901
 10
88.2478434024172
 20
-138.7159084397134
 10
88.2478434024172
 20
-133.5298339509926
 10
89.06174721080748
 20
-129.1915974611917
 10
90.44684785065218
 20
-125.6105929590487
 10
90.52367347997325
 20
-127.3124701287622
 10
91.0855685536175
 20
-128.9142672746291
 10
91.72049965154905
 20
-131.4720784176528
 10
92.60726722945235
 20
-134.9545531889176
 10
92.7686699529363
 20
-136.8581406992924
 10
91.62128090157385
 20
-138.8950534049464
 10
92.30633813881578
 20
-139.5256781335214
 10
94.01114363969167
 20
-136.6836466129645
 10
94.29002411922264
 20
-135.1703884210685
 10
94.86294349841968
 20
-135.5066297404289
 10
95.1816148308053
 20
-135.4969834730702
 10
95.21107039720418
 20
-134.9254421320672
 10
95.24242076611995
 20
-134.3192775814375
 10
94.90704072063089
 20
-133.4690280156779
 10
94.4894951478186
 20
-132.7601996195877
 10
94.42162676675918
 20
-132.6456501947032
 10
94.36237112441289
 20
-132.5789875970636
 10
94.56959361785066
 20
-132.6344536343761
 10
96.20325789695613
 20
-133.0664686082264
 10
98.5317979354365
 20
-132.6361761821187
 10
100.3585598164902
 20
-131.357356737994
 10
103.6839382336276
 20
-129.0315727759018
 10
103.2774169663682
 20
-125.414567025938
 10
102.0966104887988
 20
-123.832406924337
 10
101.4944077979771
 20
-123.0253933069173
 10
100.6782646775214
 20
-122.4090657246061
 10
99.82267521375961
 20
-122.1031412455159
 10
98.67063528349206
 20
-121.6935193923197
 10
97.88101939827281
 20
-121.8674967143248
 10
97.41145288363325
 20
-122.2719509242931
 10
97.56131453724161
 20
-121.4415106575737
 10
98.3057996716041
 20
-121.0818426889136
 10
99.32072480155871
 20
-120.8818548959948
 10
100.8973727503833
 20
-120.573518850065
 10
101.2992431387377
 20
-120.8410305144946
 10
102.5821966974447
 20
-120.1940415823647
 10
103.2398654255789
 20
-119.8617621228123
 10
103.7695488564361
 20
-119.6678032469928
 10
104.1111300737986
 20
-119.753930634124
 10
104.4267008202475
 20
-119.8335123398333
 10
104.6044677472864
 20
-119.7949272703985
 10
104.2568576128247
 20
-119.495376217956
 10
102.6857218167765
 20
-118.1407646731558
 10
100.258652047418
 20
-118.0055446753597
 10
99.14175209109999
 20
-118.4046589873259
 10
99.08663056333599
 20
-118.4244682863661
 10
99.08232419397942
 20
-118.4120659426192
 10
99.13245033328981
 20
-118.3788207711866
 10
100.61435815627
 20
-117.3973130674389
 10
101.7440049658834
 20
-118.0429239613747
 10
104.0368882660915
 20
-117.9025363203508
 10
104.8170301387263
 20
-117.8539604740087
 10
105.8586547586916
 20
-117.7571532908732
 10
106.7242349993606
 20
-116.7870144022269
 10
106.7819403487385
 20
-116.7224188618784
 10
106.885293213296
 20
-116.6051133606057
 10
106.6394856504235
 20
-116.6213053093863
 10
105.7189561367647
 20
-116.6805609517326
 10
104.7846462411649
 20
-116.2464789205912
 10
103.8465467405314
 20
-115.8997300600008
 10
101.6974961768326
 20
-115.1047742767794
 10
98.94176429818123
 20
-116.0046332175266
 10
97.57785099557081
 20
-117.9903862552246
 10
97.45279402945626
 20
-117.4524345952029
 10
97.08503008640584
 20
-116.9148274447296
 10
96.55121254096636
 20
-116.674876544182
 10
98.46272377095724
 20
-115.0164075775827
 10
100.5911037617446
 20
-113.8094183743254
 10
102.8137071140535
 20
-113.0141180815555
 10
104.5092108571192
 20
-112.5709065473781
 10
106.3380397954641
 20
-112.3569661177441
 10
107.9878960233503
 20
-113.0876708701656
 10
109.8551377763557
 20
-114.1644354640804
 10
110.8669623203735
 20
-116.6678140984372
 10
108.3234483236136
 20
-118.0697957061596
 10
108.0628268501544
 20
-118.2120781497005
 10
107.8339002551596
 20
-118.2944159317979
 10
107.5372775338796
 20
-118.3510877525303
 10
107.3340169002498
 20
-118.3913953697077
 10
107.2578802900258
 20
-118.50181068001
 10
107.4766438533392
 20
-118.7309095297791
 10
108.5962998860454
 20
-119.9117160073485
 10
109.6325846080085
 20
-119.7585815130291
 10
110.9654920512517
 20
-119.5143242431249
 10
110.9499891215681
 20
-119.7728786592929
 10
110.9468885356313
 20
-120.043318654885
 10
111.1208658576365
 20
-120.2326266517995
 10
112.2632595205453
 20
-120.1287570229192
 10
113.2044596071156
 20
-118.9074706733981
 10
113.2044596071156
 20
-118.9074706733981
 10
113.4228786608804
 20
-120.0116237764207
 10
111.9225395770541
 20
-122.5485920917587
 10
109.0675889484276
 20
-121.94570038184
 10
109.1926459145421
 20
-121.8101358744954
 10
109.3108126896862
 20
-121.6621690234039
 10
109.3962510577204
 20
-121.4999050260486
 10
110.3071343040204
 20
-119.757203474835
 10
106.6410359433918
 20
-118.8840440240984
 10
106.2574245611093
 20
-120.7564534203317
 10
105.9642469353145
 20
-122.1901299065185
 10
107.6110025772639
 20
-123.4017699886808
 10
109.2105604110654
 20
-123.4808349300673
 10
113.0732014691275
 20
-123.6723822390472
 10
114.8505262299679
 20
-120.3599229299795
 10
114.9008246240526
 20
-118.502499699107
 10
115.4213785518738
 20
-119.8562499700359
 10
116.7529079569229
 20
-120.0174804387456
 10
117.6779160947125
 20
-121.0771918100085
 10
117.9504231475957
 20
-121.3884561871008
 10
118.2053602135042
 20
-121.2112060243847
 10
117.9480115807561
 20
-120.9593695444129
 10
117.2004258604568
 20
-120.229698320637
 10
117.871185951435
 20
-119.1519001980766
 10
117.78126895927
 20
-118.3269720841335
 10
117.7602538768099
 20
-117.1530557975347
 10
117.512896020969
 20
-116.2216742330974
 10
116.6784938944415
 20
-115.3063123626665
 10
116.9396321322234
 20
-115.0982285953574
 10
117.3723361251708
 20
-115.2098496890795
 10
117.6097032041045
 20
-115.0722181244438
 10
117.2686387510648
 20
-114.134635388133
 10
116.3615451097985
 20
-113.1491658245773
 10
115.0472411821757
 20
-112.352315238839
 10
119.6171603433596
 20
-113.3463975411078
 10
125.7797471473745
 20
-116.1908406285044
 10
128.9936767255641
 20
-124.3402139988629
 10
128.9936767255641
 20
-124.3402139988629
 10
131.9922878359255
 20
-124.3402139988629
 10
131.9922878359255
 20
-124.3402139988629
 10
131.9922878359255
 20
-124.3402139988629
 10
131.9922878359255
 20
-110.7584418125882
 10
131.9922878359255
 20
-110.7584418125882
 10
131.9922878359255
 20
-110.7584418125882
 10
129.1700656144089
 20
-110.7584418125882
 10
129.1700656144089
 20
-110.7584418125882
 10
128.9936767255641
 20
-111.0230251458554
 10
128.8172878367193
 20
-111.1994140347002
 10
128.6408989478745
 20
-111.3758029235449
 10
128.2881211701849
 20
-111.6403862568121
 10
127.9353433924953
 20
-111.8167751456569
 10
127.4943711703834
 20
-111.8167751456569
 10
125.7304822819354
 20
-111.8167751456569
 10
124.0547878379099
 20
-111.2876084791226
 10
122.731871171574
 20
-110.7584418125882
 10
119.6450656167901
 20
-109.5237195906746
 10
116.0290933954719
 20
-108.3771918131835
 10
109.6790933970594
 20
-108.3771918131835
 10
102.0809353043409
 20
-108.3771918131835
 10
96.32521427713398
 20
-110.9406873637579
 10
92.40400659582261
 20
-113.5841091295901
 10
90.91917044167994
 20
-112.3114908573388
 10
90.48129880550468
 20
-111.3713242994141
 10
90.77843829110748
 20
-110.4652641867934
 10
90.91882593213141
 20
-110.0392781300423
 10
91.34946286778764
 20
-109.7486843258614
 10
92.28428952771019
 20
-109.7729722490325
 10
92.88270261349808
 20
-108.418188449458
 10
89.35027395769715
 20
-107.8766194391767
 10
88.52448456988277
 20
-109.5214802786092
 10
88.16257728915727
 20
-110.1465928544078
 10
88.26196829390673
 20
-110.945338242663
 10
88.59889863236417
 20
-111.5299709465099
 10
85.86400958139859
 20
-110.8998629822577
 10
82.7727254024839
 20
-112.2193345531084
 10
81.53386906598807
 20
-114.4953368854387
 10
80.99350583912663
 20
-115.4895914424818
 10
80.52325030539002
 20
-116.5522311449071
 10
79.67885740195528
 20
-117.1956027267775
 10
79.45389266676848
 20
-117.3663072080716
 10
79.63476017974409
 20
-117.3859442523376
 10
79.7348402035906
 20
-117.3971408126646
 10
81.2439642809043
 20
-117.554926185889
 10
82.22202688916671
 20
-116.8538492546407
 10
82.93567841893622
 20
-116.3078016202286
 10
85.03288029558206
 20
-114.7022148693279
 10
85.50416935796424
 20
-113.3164252103862
 10
87.55555146465626
 20
-113.0213527820745
 10
87.62462562913551
 20
-113.0113620051673
 10
87.63117131055749
 20
-113.0253146418826
 10
87.56812606317742
 20
-113.0496025650536
 10
86.28775632608432
 20
-113.555859346611
 10
84.29270153057614
 20
-115.4911417354501
 10
83.99056665651972
 20
-117.8003892392131
 10
83.9240763136544
 20
-118.3111246449014
 10
84.10804441256674
 20
-118.209838837635
 10
84.31974553013535
 20
-117.9068426897073
 10
84.54781085125889
 20
-117.5786973447373
 10
85.15828177124516
 20
-117.3420192849006
 10
85.98854978319036
 20
-117.1246337597813
 10
87.60567760396664
 20
-116.7005425055471
 10
87.74382593292516
 20
-116.1758544631435
 10
89.34992944814863
 20
-115.2487792680628
 10
89.90183374488565
 20
-114.931313719097
 10
90.42273218225543
 20
-114.7106553532668
 10
90.90711260748157
 20
-114.6593234305366
 10
88.47866479992895
 20
-116.5182969543774
 10
86.97229679900346
 20
-118.2480793975213
 10
86.3957600695469
 20
-118.9603528890967
 10
82.0742322928495
 20
-124.3402139988629
 10
79.42839896017763
 20
-131.6603528859217
 10
79.42839896017763
 20
-138.5395195508686
 10
79.42839896017763
 20
-141.0863063883396
 10
79.57567679217206
 20
-143.5860676724368
 10
79.91932506682573
 20
-146.0124484226983
 10
79.91932506682573
 20
-146.0124484226983
 10
73.4201524339019
 20
-146.0124484226983
 10
73.4201524339019
 20
-146.0124484226983
 10
73.4201524339019
 20
-146.0124484226983
 10
73.4201524339019
 20
-147.6240640906982
 10
73.4201524339019
 20
-147.6240640906982
 10
73.4201524339019
 20
-147.6240640906982
 10
142.3289523298692
 20
-147.6240640906982
 10
142.3289523298692
 20
-147.6240640906982
 10
142.3289523298692
 20
-147.6240640906982
 10
142.3289523298692
 20
-146.0124484226983
 10
142.3289523298692
 20
-146.0124484226983
 10
142.3289523298692
 20
-146.0124484226983
 10
135.9610378349334
 20
-146.0124484226983
 10
135.9610378349334
 20
-146.0124484226983
 97
        0
 92
        1
 93
        1
 72
     4
 94
        3
 73
     0
 74
     1
 95
       14
 96
       10
 40
0.0
 40
0.0
 40
0.0
 40
0.0
 40
1.0
 40
1.0
 40
1.0
 40
2.0
 40
2.0
 40
2.0
 40
3.0
 40
3.0
 40
3.0
 40
3.0
 10
116.0938611905946
 20
-117.8866888811186
 10
116.1069525534385
 20
-117.9300970842328
 10
116.0969617765313
 20
-117.9280300269416
 10
116.0680229744552
 20
-117.8897894670553
 10
114.6624240164733
 20
-116.051486516126
 10
112.6649576541254
 20
-113.3105685480613
 10
110.2454670948345
 20
-112.0221028365778
 10
112.976394285992
 20
-112.7143947743388
 10
115.3476535084895
 20
-115.4155218895489
 10
116.0938611905946
 20
-117.8866888811186
 97
        0
 92
        1
 93
        1
 72
     4
 94
        3
 73
     0
 74
     1
 95
       14
 96
       10
 40
0.0
 40
0.0
 40
0.0
 40
0.0
 40
1.0
 40
1.0
 40
1.0
 40
2.0
 40
2.0
 40
2.0
 40
3.0
 40
3.0
 40
3.0
 40
3.0
 10
110.1111083709097
 20
-117.5521701095008
 10
109.9829508188584
 20
-117.6055690895222
 10
110.0198133405506
 20
-117.5366671798172
 10
110.0814805497366
 20
-117.4737941872114
 10
111.1057074375014
 20
-116.4297580004065
 10
110.687472845592
 20
-113.2523464343605
 10
108.7616644693374
 20
-112.2146836742033
 10
110.989952229197
 20
-112.4971815039938
 10
112.3025336090771
 20
-116.6331908888105
 10
110.1111083709097
 20
-117.5521701095008
 97
        0
 92
        1
 93
        1
 72
     4
 94
        3
 73
     0
 74
     1
 95
       62
 96
       58
 40
0.0
 40
0.0
 40
0.0
 40
0.0
 40
1.0
 40
1.0
 40
1.0
 40
2.0
 40
2.0
 40
2.0
 40
3.0
 40
3.0
 40
3.0
 40
4.0
 40
4.0
 40
4.0
 40
5.0
 40
5.0
 40
5.0
 40
6.0
 40
6.0
 40
6.0
 40
7.0
 40
7.0
 40
7.0
 40
8.0
 40
8.0
 40
8.0
 40
9.0
 40
9.0
 40
9.0
 40
10.0
 40
10.0
 40
10.0
 40
11.0
 40
11.0
 40
11.0
 40
12.0
 40
12.0
 40
12.0
 40
13.0
 40
13.0
 40
13.0
 40
14.0
 40
14.0
 40
14.0
 40
15.0
 40
15.0
 40
15.0
 40
16.0
 40
16.0
 40
16.0
 40
17.0
 40
17.0
 40
17.0
 40
18.0
 40
18.0
 40
18.0
 40
19.0
 40
19.0
 40
19.0
 40
19.0
 10
93.00827634393544
 20
-120.6729098548144
 10
93.51194930387896
 20
-119.9334201089055
 10
94.04972870912646
 20
-119.2483628716636
 10
94.61248505664202
 20
-118.6077473661814
 10
94.99023977659967
 20
-118.3812323380262
 10
95.3009873893692
 20
-118.3881225289967
 10
95.55420190753506
 20
-118.5364338896367
 10
96.29455292731525
 20
-118.9718939589723
 10
96.57601722846017
 20
-119.8610731037153
 10
96.37671845463846
 20
-121.601879852412
 10
96.23839787090569
 20
-122.8042181767642
 10
96.56395939426179
 20
-123.6995984933807
 10
97.13722328300736
 20
-124.262871605219
 10
97.14721405991459
 20
-124.2764797323858
 10
97.15444876043361
 20
-124.2923271716179
 10
97.16512855643789
 20
-124.3054185344619
 10
97.64227428114499
 20
-124.8948743719881
 10
98.50682099316843
 20
-124.9856526380244
 10
99.09748261411453
 20
-124.5079901489945
 10
99.40581866004439
 20
-124.2580484715397
 10
99.57635088656426
 20
-123.9021701079133
 10
99.60201684792936
 20
-123.5333726362174
 10
100.4107530130918
 20
-123.9388603748313
 10
101.1691907841695
 20
-124.6466552422758
 10
101.5436726634162
 20
-125.5053452919744
 10
102.5629041627273
 20
-127.8359523877459
 10
101.0634263527723
 20
-130.1691433051313
 10
98.28822968462934
 20
-131.0969075193091
 10
97.98781735831555
 20
-131.1975043074784
 10
97.68240964354816
 20
-131.2751912106708
 10
97.3873372152365
 20
-131.3871568139414
 10
97.53788788794192
 20
-131.1344590600983
 10
97.78765731062254
 20
-131.1420382701659
 10
98.09892168771486
 20
-131.0479871634186
 10
99.50245358840564
 20
-130.3789496201831
 10
100.1716633864154
 20
-129.0648179473345
 10
100.1671847622846
 20
-128.0397297856984
 10
100.1659789788648
 20
-127.6032361877173
 10
100.0719278721174
 20
-127.39239634402
 10
99.60012204541248
 20
-127.4502739481722
 10
99.22736271390845
 20
-127.4950601894804
 10
98.84065074568915
 20
-127.7530978413256
 10
98.84065074568915
 20
-127.7530978413256
 10
98.19314504923643
 20
-126.4896090721102
 10
96.71519908606426
 20
-125.8167819238409
 10
95.76245792961842
 20
-126.3623127939303
 10
95.46841902995234
 20
-126.5321560013531
 10
95.58469100257953
 20
-126.6191446623556
 10
95.72645668179756
 20
-126.6933864700628
 10
96.63802894719467
 20
-127.1672593540589
 10
96.62149248886547
 20
-128.2454019861678
 10
96.22186141257649
 20
-128.9289089304414
 10
95.32338051002333
 20
-130.4650770073143
 10
93.71142033247493
 20
-130.8147541990672
 10
92.56850990524329
 20
-129.1750610028625
 10
91.11967499892147
 20
-127.096462641837
 10
91.28090546763117
 20
-123.5945230810805
 10
93.00827634393544
 20
-120.6729098548144
 97
        0
 92
        1
 93
        1
 72
     4
 94
        3
 73
     0
 74
     1
 95
       17
 96
       13
 40
0.0
 40
0.0
 40
0.0
 40
0.0
 40
1.0
 40
1.0
 40
1.0
 40
2.0
 40
2.0
 40
2.0
 40
3.0
 40
3.0
 40
3.0
 40
4.0
 40
4.0
 40
4.0
 40
4.0
 10
115.3624674190761
 20
-145.0681477501913
 10
115.2835747324638
 20
-145.4440076676321
 10
115.0916829139354
 20
-145.7482095989796
 10
114.8636175928119
 20
-146.0124484226983
 10
114.8636175928119
 20
-146.0124484226983
 10
111.5625270988455
 20
-146.0124484226983
 10
111.5625270988455
 20
-146.0124484226983
 10
111.7199679625214
 20
-145.7213378541947
 10
111.8698296161298
 20
-145.4212700374294
 10
112.0172797028985
 20
-145.1122449724025
 10
113.4249457181715
 20
-142.168066370708
 10
115.878198213218
 20
-142.623507993858
 10
115.3624674190761
 20
-145.0681477501913
 97
        0
 92
        1
 93
        1
 72
     4
 94
        3
 73
     0
 74
     1
 95
       17
 96
       13
 40
0.0
 40
0.0
 40
0.0
 40
0.0
 40
1.0
 40
1.0
 40
1.0
 40
2.0
 40
2.0
 40
2.0
 40
3.0
 40
3.0
 40
3.0
 40
4.0
 40
4.0
 40
4.0
 40
4.0
 10
105.3461968052607
 20
-145.0715928456765
 10
104.8316717945386
 20
-142.6276421084403
 10
107.284235270488
 20
-142.1715114661932
 10
108.6913845214383
 20
-145.1170681060819
 10
108.8384900986584
 20
-145.4240261138176
 10
108.9876627331698
 20
-145.7227158923888
 10
109.1444145777486
 20
-146.0124484226983
 10
109.1444145777486
 20
-146.0124484226983
 10
105.8416015360396
 20
-146.0124484226983
 10
105.8416015360396
 20
-146.0124484226983
 10
105.6150865078844
 20
-145.7488986180767
 10
105.4249172370986
 20
-145.4457302153747
 10
105.3461968052607
 20
-145.0715928456765
 97
        0
 75
     2
 76
     1
 98
        0
  0
SPLINE
  5
47
330
3C
100
AcDbEntity
  8
Layer 1
370
     0
100
AcDbSpline
210
0.0
220
0.0
230
1.0
 70
    11
 71
     3
 72
    32
 73
    28
 74
     0
 42
0.0000000001
 43
0.0000000001
 40
0.0
 40
0.0
 40
0.0
 40
0.0
 40
1.0
 40
1.0
 40
1.0
 40
2.0
 40
2.0
 40
2.0
 40
3.0
 40
3.0
 40
3.0
 40
4.0
 40
4.0
 40
4.0
 40
5.0
 40
5.0
 40
5.0
 40
6.0
 40
6.0
 40
6.0
 40
7.0
 40
7.0
 40
7.0
 40
8.0
 40
8.0
 40
8.0
 40
9.0
 40
9.0
 40
9.0
 40
9.0
 10
73.4201524339019
 20
-159.618508532144
 30
0.0
 10
73.4201524339019
 20
-159.618508532144
 30
0.0
 10
84.93366154560687
 20
-159.618508532144
 30
0.0
 10
84.93366154560687
 20
-159.618508532144
 30
0.0
 10
85.8193955948646
 20
-160.9090413009186
 30
0.0
 10
86.82519122178329
 20
-162.1485866565115
 30
0.0
 10
87.98326006915002
 20
-163.3223306883361
 30
0.0
 10
95.83256562274325
 20
-171.2598306863517
 30
0.0
 10
107.5624267309219
 20
-171.5244140196189
 30
0.0
 10
112.4131211741537
 20
-171.5244140196189
 30
0.0
 10
119.3804822835229
 20
-171.5244140196189
 30
0.0
 10
124.7603433932891
 20
-170.5542751309725
 30
0.0
 10
135.9610378349334
 20
-166.7619140208095
 30
0.0
 10
135.9610378349334
 20
-166.7619140208095
 30
0.0
 10
135.9610378349334
 20
-159.618508532144
 30
0.0
 10
135.9610378349334
 20
-159.618508532144
 30
0.0
 10
135.9610378349334
 20
-159.618508532144
 30
0.0
 10
142.3289523298692
 20
-159.618508532144
 30
0.0
 10
142.3289523298692
 20
-159.618508532144
 30
0.0
 10
142.3289523298692
 20
-159.618508532144
 30
0.0
 10
142.3289523298692
 20
-158.0068928641441
 30
0.0
 10
142.3289523298692
 20
-158.0068928641441
 30
0.0
 10
142.3289523298692
 20
-158.0068928641441
 30
0.0
 10
73.4201524339019
 20
-158.0068928641441
 30
0.0
 10
73.4201524339019
 20
-158.0068928641441
 30
0.0
 10
73.4201524339019
 20
-158.0068928641441
 30
0.0
 10
73.4201524339019
 20
-159.618508532144
 30
0.0
 10
73.4201524339019
 20
-159.618508532144
 30
0.0
  0
SPLINE
  5
48
330
3C
100
AcDbEntity
  8
Layer 1
370
     0
100
AcDbSpline
210
0.0
220
0.0
230
1.0
 70
    11
 71
     3
 72
    59
 73
    55
 74
     0
 42
0.0000000001
 43
0.0000000001
 40
0.0
 40
0.0
 40
0.0
 40
0.0
 40
1.0
 40
1.0
 40
1.0
 40
2.0
 40
2.0
 40
2.0
 40
3.0
 40
3.0
 40
3.0
 40
4.0
 40
4.0
 40
4.0
 40
5.0
 40
5.0
 40
5.0
 40
6.0
 40
6.0
 40
6.0
 40
7.0
 40
7.0
 40
7.0
 40
8.0
 40
8.0
 40
8.0
 40
9.0
 40
9.0
 40
9.0
 40
10.0
 40
10.0
 40
10.0
 40
11.0
 40
11.0
 40
11.0
 40
12.0
 40
12.0
 40
12.0
 40
13.0
 40
13.0
 40
13.0
 40
14.0
 40
14.0
 40
14.0
 40
15.0
 40
15.0
 40
15.0
 40
16.0
 40
16.0
 40
16.0
 40
17.0
 40
17.0
 40
17.0
 40
18.0
 40
18.0
 40
18.0
 40
18.0
 10
112.6777045074209
 20
-168.0848306871455
 30
0.0
 10
109.2381211749474
 20
-168.0848306871455
 30
0.0
 10
105.1811767315172
 20
-167.9084417983007
 30
0.0
 10
101.4770100657766
 20
-166.1445529098528
 30
0.0
 10
99.42907305456983
 20
-165.2023192946369
 30
0.0
 10
96.43080645375689
 20
-163.2871907143866
 30
0.0
 10
93.80581594877077
 20
-159.618508532144
 30
0.0
 10
93.80581594877077
 20
-159.618508532144
 30
0.0
 10
100.9021958840626
 20
-159.618508532144
 30
0.0
 10
100.9021958840626
 20
-159.618508532144
 30
0.0
 10
102.1260660551977
 20
-162.7738714870843
 30
0.0
 10
107.2248073733674
 20
-162.6326225721891
 30
0.0
 10
108.5401448296358
 20
-159.618508532144
 30
0.0
 10
108.5401448296358
 20
-159.618508532144
 30
0.0
 10
109.3645561792561
 20
-159.618508532144
 30
0.0
 10
109.3645561792561
 20
-159.618508532144
 30
0.0
 10
108.3410183105884
 20
-161.6490478111502
 30
0.0
 10
106.5521524798724
 20
-162.439008205918
 30
0.0
 10
104.3698567447409
 20
-162.439008205918
 30
0.0
 10
104.040505616351
 20
-162.439008205918
 30
0.0
 10
103.9964083941398
 20
-162.5678547770664
 30
0.0
 10
104.3309271657575
 20
-162.7063476155734
 30
0.0
 10
105.4970919875146
 20
-163.1879719644114
 30
0.0
 10
107.0287814402567
 20
-163.1996852890612
 30
0.0
 10
108.5277424858889
 20
-162.6188421902481
 30
0.0
 10
108.8109293347764
 20
-163.321641669239
 30
0.0
 10
109.4151990828893
 20
-164.0533799503061
 30
0.0
 10
110.1148979759435
 20
-164.4778157140889
 30
0.0
 10
110.3601887744933
 20
-164.6266438390517
 30
0.0
 10
110.3501979975861
 20
-164.6197536480812
 30
0.0
 10
110.5920437006506
 20
-164.4723035613125
 30
0.0
 10
111.2931206318989
 20
-164.0471787784327
 30
0.0
 10
111.8967013609147
 20
-163.3147514782685
 30
0.0
 10
112.1812662479964
 20
-162.6126410183746
 30
0.0
 10
113.6795382745315
 20
-163.1934841171878
 30
0.0
 10
115.2115722368221
 20
-163.1817707925379
 30
0.0
 10
116.3780815681277
 20
-162.7001464437
 30
0.0
 10
116.7115668110999
 20
-162.5609645860959
 30
0.0
 10
116.6671250793402
 20
-162.4341850722387
 30
0.0
 10
116.3394964986929
 20
-162.4341850722387
 30
0.0
 10
114.2490125582433
 20
-162.4341850722387
 30
0.0
 10
112.1953911394859
 20
-161.6504258493443
 30
0.0
 10
111.2224961744513
 20
-159.618508532144
 30
0.0
 10
111.2224961744513
 20
-159.618508532144
 30
0.0
 10
112.1709309615406
 20
-159.618508532144
 30
0.0
 10
112.1709309615406
 20
-159.618508532144
 30
0.0
 10
113.4897135132942
 20
-162.6236653239274
 30
0.0
 10
118.5770860163627
 20
-162.7649142388227
 30
0.0
 10
119.8045735377572
 20
-159.618508532144
 30
0.0
 10
119.8045735377572
 20
-159.618508532144
 30
0.0
 10
127.4175455410623
 20
-159.618508532144
 30
0.0
 10
127.4175455410623
 20
-159.618508532144
 30
0.0
 10
125.2464463662578
 20
-164.9277451844625
 30
0.0
 10
119.7825249266516
 20
-168.0848306871455
 30
0.0
 10
112.6777045074209
 20
-168.0848306871455
 30
0.0
  0
HATCH
  5
49
330
3C
100
AcDbEntity
  8
Layer 1
 62
   250
420
  2301728
100
AcDbHatch
 10
0.0
 20
0.0
 30
0.0
210
0.0
220
0.0
230
1.0
  2
SOLID
 70
     1
 71
     0
 91
        2
 92
        1
 93
        1
 72
     4
 94
        3
 73
     0
 74
     1
 95
       32
 96
       28
 40
0.0
 40
0.0
 40
0.0
 40
0.0
 40
1.0
 40
1.0
 40
1.0
 40
2.0
 40
2.0
 40
2.0
 40
3.0
 40
3.0
 40
3.0
 40
4.0
 40
4.0
 40
4.0
 40
5.0
 40
5.0
 40
5.0
 40
6.0
 40
6.0
 40
6.0
 40
7.0
 40
7.0
 40
7.0
 40
8.0
 40
8.0
 40
8.0
 40
9.0
 40
9.0
 40
9.0
 40
9.0
 10
73.4201524339019
 20
-159.618508532144
 10
73.4201524339019
 20
-159.618508532144
 10
84.93366154560687
 20
-159.618508532144
 10
84.93366154560687
 20
-159.618508532144
 10
85.8193955948646
 20
-160.9090413009186
 10
86.82519122178329
 20
-162.1485866565115
 10
87.98326006915002
 20
-163.3223306883361
 10
95.83256562274325
 20
-171.2598306863517
 10
107.5624267309219
 20
-171.5244140196189
 10
112.4131211741537
 20
-171.5244140196189
 10
119.3804822835229
 20
-171.5244140196189
 10
124.7603433932891
 20
-170.5542751309725
 10
135.9610378349334
 20
-166.7619140208095
 10
135.9610378349334
 20
-166.7619140208095
 10
135.9610378349334
 20
-159.618508532144
 10
135.9610378349334
 20
-159.618508532144
 10
135.9610378349334
 20
-159.618508532144
 10
142.3289523298692
 20
-159.618508532144
 10
142.3289523298692
 20
-159.618508532144
 10
142.3289523298692
 20
-159.618508532144
 10
142.3289523298692
 20
-158.0068928641441
 10
142.3289523298692
 20
-158.0068928641441
 10
142.3289523298692
 20
-158.0068928641441
 10
73.4201524339019
 20
-158.0068928641441
 10
73.4201524339019
 20
-158.0068928641441
 10
73.4201524339019
 20
-158.0068928641441
 10
73.4201524339019
 20
-159.618508532144
 10
73.4201524339019
 20
-159.618508532144
 97
        0
 92
        1
 93
        1
 72
     4
 94
        3
 73
     0
 74
     1
 95
       59
 96
       55
 40
0.0
 40
0.0
 40
0.0
 40
0.0
 40
1.0
 40
1.0
 40
1.0
 40
2.0
 40
2.0
 40
2.0
 40
3.0
 40
3.0
 40
3.0
 40
4.0
 40
4.0
 40
4.0
 40
5.0
 40
5.0
 40
5.0
 40
6.0
 40
6.0
 40
6.0
 40
7.0
 40
7.0
 40
7.0
 40
8.0
 40
8.0
 40
8.0
 40
9.0
 40
9.0
 40
9.0
 40
10.0
 40
10.0
 40
10.0
 40
11.0
 40
11.0
 40
11.0
 40
12.0
 40
12.0
 40
12.0
 40
13.0
 40
13.0
 40
13.0
 40
14.0
 40
14.0
 40
14.0
 40
15.0
 40
15.0
 40
15.0
 40
16.0
 40
16.0
 40
16.0
 40
17.0
 40
17.0
 40
17.0
 40
18.0
 40
18.0
 40
18.0
 40
18.0
 10
112.6777045074209
 20
-168.0848306871455
 10
109.2381211749474
 20
-168.0848306871455
 10
105.1811767315172
 20
-167.9084417983007
 10
101.4770100657766
 20
-166.1445529098528
 10
99.42907305456983
 20
-165.2023192946369
 10
96.43080645375689
 20
-163.2871907143866
 10
93.80581594877077
 20
-159.618508532144
 10
93.80581594877077
 20
-159.618508532144
 10
100.9021958840626
 20
-159.618508532144
 10
100.9021958840626
 20
-159.618508532144
 10
102.1260660551977
 20
-162.7738714870843
 10
107.2248073733674
 20
-162.6326225721891
 10
108.5401448296358
 20
-159.618508532144
 10
108.5401448296358
 20
-159.618508532144
 10
109.3645561792561
 20
-159.618508532144
 10
109.3645561792561
 20
-159.618508532144
 10
108.3410183105884
 20
-161.6490478111502
 10
106.5521524798724
 20
-162.439008205918
 10
104.3698567447409
 20
-162.439008205918
 10
104.040505616351
 20
-162.439008205918
 10
103.9964083941398
 20
-162.5678547770664
 10
104.3309271657575
 20
-162.7063476155734
 10
105.4970919875146
 20
-163.1879719644114
 10
107.0287814402567
 20
-163.1996852890612
 10
108.5277424858889
 20
-162.6188421902481
 10
108.8109293347764
 20
-163.321641669239
 10
109.4151990828893
 20
-164.0533799503061
 10
110.1148979759435
 20
-164.4778157140889
 10
110.3601887744933
 20
-164.6266438390517
 10
110.3501979975861
 20
-164.6197536480812
 10
110.5920437006506
 20
-164.4723035613125
 10
111.2931206318989
 20
-164.0471787784327
 10
111.8967013609147
 20
-163.3147514782685
 10
112.1812662479964
 20
-162.6126410183746
 10
113.6795382745315
 20
-163.1934841171878
 10
115.2115722368221
 20
-163.1817707925379
 10
116.3780815681277
 20
-162.7001464437
 10
116.7115668110999
 20
-162.5609645860959
 10
116.6671250793402
 20
-162.4341850722387
 10
116.3394964986929
 20
-162.4341850722387
 10
114.2490125582433
 20
-162.4341850722387
 10
112.1953911394859
 20
-161.6504258493443
 10
111.2224961744513
 20
-159.618508532144
 10
111.2224961744513
 20
-159.618508532144
 10
112.1709309615406
 20
-159.618508532144
 10
112.1709309615406
 20
-159.618508532144
 10
113.4897135132942
 20
-162.6236653239274
 10
118.5770860163627
 20
-162.7649142388227
 10
119.8045735377572
 20
-159.618508532144
 10
119.8045735377572
 20
-159.618508532144
 10
127.4175455410623
 20
-159.618508532144
 10
127.4175455410623
 20
-159.618508532144
 10
125.2464463662578
 20
-164.9277451844625
 10
119.7825249266516
 20
-168.0848306871455
 10
112.6777045074209
 20
-168.0848306871455
 97
        0
 75
     2
 76
     1
 98
        0
  0
ENDBLK
  5
3F
330
3C
100
AcDbEntity
  8
0
100
AcDbBlockEnd
  0
ENDSEC
  0
SECTION
  2
ENTITIES
  0
INSERT
  5
3D
330
1F
100
AcDbEntity
  8
Layer 1
100
AcDbBlockReference
  2
block 2
 10
0.0
 20
0.0
 30
0.0
  0
ENDSEC
  0
SECTION
  2
OBJECTS
  0
DICTIONARY
  5
C
330
0
100
AcDbDictionary
281
     1
  3
ACAD_GROUP
350
D
  3
ACAD_LAYOUT
350
1A
  3
ACAD_MLINESTYLE
350
17
  3
ACAD_PLOTSETTINGS
350
19
  3
ACAD_PLOTSTYLENAME
350
E
  3
ACAD_TABLESTYLE
350
4A
  3
ACAD_VISUALSTYLE
350
2A
  0
DICTIONARY
  5
D
102
{ACAD_REACTORS
330
C
102
}
330
C
100
AcDbDictionary
281
     1
  0
DICTIONARY
  5
1A
102
{ACAD_REACTORS
330
C
102
}
330
C
100
AcDbDictionary
281
     1
  3
Layout1
350
1E
  3
Layout2
350
26
  3
Model
350
22
  0
DICTIONARY
  5
17
102
{ACAD_REACTORS
330
C
102
}
330
C
100
AcDbDictionary
281
     1
  3
Standard
350
18
  0
DICTIONARY
  5
19
102
{ACAD_REACTORS
330
C
102
}
330
C
100
AcDbDictionary
281
     1
  0
ACDBDICTIONARYWDFLT
  5
E
102
{ACAD_REACTORS
330
C
102
}
330
C
100
AcDbDictionary
281
     1
  3
Normal
350
F
100
AcDbDictionaryWithDefault
340
F
  0
DICTIONARY
  5
4A
102
{ACAD_REACTORS
330
C
102
}
330
C
100
AcDbDictionary
281
     1
  0
DICTIONARY
  5
2A
102
{ACAD_REACTORS
330
C
102
}
330
C
100
AcDbDictionary
281
     1
  3
2dWireframe
350
2F
  3
3D Hidden
350
31
  3
3dWireframe
350
30
  3
Basic
350
32
  3
Brighten
350
36
  3
ColorChange
350
3A
  3
Conceptual
350
34
  3
Dim
350
35
  3
Facepattern
350
39
  3
Flat
350
2B
  3
FlatWithEdges
350
2C
  3
Gouraud
350
2D
  3
GouraudWithEdges
350
2E
  3
Linepattern
350
38
  3
Realistic
350
33
  3
Thicken
350
37
  0
LAYOUT
  5
1E
102
{ACAD_REACTORS
330
1A
102
}
330
1A
100
AcDbPlotSettings
  1

  2
none_device
  4

  6

 40
0.0
 41
0.0
 42
0.0
 43
0.0
 44
0.0
 45
0.0
 46
0.0
 47
0.0
 48
0.0
 49
0.0
140
0.0
141
0.0
142
1.0
143
1.0
 70
   688
 72
     0
 73
     0
 74
     5
  7

 75
    16
 76
     0
 77
     2
 78
   300
147
1.0
148
0.0
149
0.0
100
AcDbLayout
  1
Layout1
 70
     1
 71
     1
 10
0.0
 20
0.0
 11
12.0
 21
9.0
 12
0.0
 22
0.0
 32
0.0
 14
1.000000000000000E+20
 24
1.000000000000000E+20
 34
1.000000000000000E+20
 15
-1.000000000000000E+20
 25
-1.000000000000000E+20
 35
-1.000000000000000E+20
146
0.0
 13
0.0
 23
0.0
 33
0.0
 16
1.0
 26
0.0
 36
0.0
 17
0.0
 27
1.0
 37
0.0
 76
     0
330
1B
  0
LAYOUT
  5
26
102
{ACAD_REACTORS
330
1A
102
}
330
1A
100
AcDbPlotSettings
  1

  2
none_device
  4

  6

 40
0.0
 41
0.0
 42
0.0
 43
0.0
 44
0.0
 45
0.0
 46
0.0
 47
0.0
 48
0.0
 49
0.0
140
0.0
141
0.0
142
1.0
143
1.0
 70
   688
 72
     0
 73
     0
 74
     5
  7

 75
    16
 76
     0
 77
     2
 78
   300
147
1.0
148
0.0
149
0.0
100
AcDbLayout
  1
Layout2
 70
     1
 71
     2
 10
0.0
 20
0.0
 11
0.0
 21
0.0
 12
0.0
 22
0.0
 32
0.0
 14
0.0
 24
0.0
 34
0.0
 15
0.0
 25
0.0
 35
0.0
146
0.0
 13
0.0
 23
0.0
 33
0.0
 16
1.0
 26
0.0
 36
0.0
 17
0.0
 27
1.0
 37
0.0
 76
     0
330
23
  0
LAYOUT
  5
22
102
{ACAD_REACTORS
330
1A
102
}
330
1A
100
AcDbPlotSettings
  1

  2
none_device
  4

  6

 40
0.0
 41
0.0
 42
0.0
 43
0.0
 44
0.0
 45
0.0
 46
0.0
 47
0.0
 48
0.0
 49
0.0
140
0.0
141
0.0
142
1.0
143
1.0
 70
  1712
 72
     0
 73
     0
 74
     0
  7

 75
     0
 76
     0
 77
     2
 78
   300
147
1.0
148
0.0
149
0.0
100
AcDbLayout
  1
Model
 70
     1
 71
     0
 10
0.0
 20
0.0
 11
12.0
 21
9.0
 12
0.0
 22
0.0
 32
0.0
 14
1.000000000000000E+20
 24
1.000000000000000E+20
 34
1.000000000000000E+20
 15
-1.000000000000000E+20
 25
-1.000000000000000E+20
 35
-1.000000000000000E+20
146
0.0
 13
0.0
 23
0.0
 33
0.0
 16
1.0
 26
0.0
 36
0.0
 17
0.0
 27
1.0
 37
0.0
 76
     0
330
1F
331
29
  0
MLINESTYLE
  5
18
102
{ACAD_REACTORS
330
17
102
}
330
17
100
AcDbMlineStyle
  2
Standard
 70
     0
  3

 62
   256
 51
90.0
 52
90.0
 71
     2
 49
0.5
 62
   256
  6
BYLAYER
 49
-0.5
 62
   256
  6
BYLAYER
  0
ACDBPLACEHOLDER
  5
F
102
{ACAD_REACTORS
330
E
102
}
330
E
  0
VISUALSTYLE
  5
2F
102
{ACAD_REACTORS
330
2A
102
}
330
2A
100
AcDbVisualStyle
  2
2dWireframe
 70
     4
 71
     0
 72
     2
 73
     0
 90
        0
 40
-0.6
 41
-30.0
 62
     5
 63
     7
421
 16777215
 74
     1
 91
        4
 64
     7
 65
   257
 75
     1
175
     1
 42
1.0
 92
        0
 66
   257
 43
1.0
 76
     1
 77
     6
 78
     2
 67
     7
 79
     5
170
     0
171
     0
290
     0
174
     0
 93
        1
 44
0.0
173
     0
291
     0
 45
0.0
1001
ACAD
1000
AcDbSavedByObjectVersion
1070
     0
  0
VISUALSTYLE
  5
31
102
{ACAD_REACTORS
330
2A
102
}
330
2A
100
AcDbVisualStyle
  2
3D Hidden
 70
     6
 71
     1
 72
     2
 73
     2
 90
        0
 40
-0.6
 41
-30.0
 62
     5
 63
     7
421
 16777215
 74
     2
 91
        2
 64
     7
 65
   257
 75
     2
175
     1
 42
40.0
 92
        0
 66
   257
 43
1.0
 76
     1
 77
     6
 78
     2
 67
     7
 79
     3
170
     0
171
     0
290
     0
174
     0
 93
        1
 44
0.0
173
     0
291
     0
 45
0.0
1001
ACAD
1000
AcDbSavedByObjectVersion
1070
     0
  0
VISUALSTYLE
  5
30
102
{ACAD_REACTORS
330
2A
102
}
330
2A
100
AcDbVisualStyle
  2
3dWireframe
 70
     5
 71
     0
 72
     2
 73
     0
 90
        0
 40
-0.6
 41
-30.0
 62
     5
 63
     7
421
 16777215
 74
     1
 91
        4
 64
     7
 65
   257
 75
     1
175
     1
 42
1.0
 92
        0
 66
   257
 43
1.0
 76
     1
 77
     6
 78
     2
 67
     7
 79
     5
170
     0
171
     0
290
     0
174
     0
 93
        1
 44
0.0
173
     0
291
     0
 45
0.0
1001
ACAD
1000
AcDbSavedByObjectVersion
1070
     0
  0
VISUALSTYLE
  5
32
102
{ACAD_REACTORS
330
2A
102
}
330
2A
100
AcDbVisualStyle
  2
Basic
 70
     7
 71
     1
 72
     0
 73
     1
 90
        0
 40
-0.6
 41
-30.0
 62
     5
 63
     7
421
 16777215
 74
     0
 91
        4
 64
     7
 65
   257
 75
     1
175
     1
 42
1.0
 92
        8
 66
     7
 43
1.0
 76
     1
 77
     6
 78
     2
 67
     7
 79
     5
170
     0
171
     0
290
     0
174
     0
 93
        1
 44
0.0
173
     0
291
     1
 45
0.0
1001
ACAD
1000
AcDbSavedByObjectVersion
1070
     0
  0
VISUALSTYLE
  5
36
102
{ACAD_REACTORS
330
2A
102
}
330
2A
100
AcDbVisualStyle
  2
Brighten
 70
    12
 71
     2
 72
     2
 73
     0
 90
        0
 40
-0.6
 41
-30.0
 62
     5
 63
     7
421
 16777215
 74
     1
 91
        4
 64
     7
 65
   257
 75
     1
175
     1
 42
1.0
 92
        8
 66
     7
 43
1.0
 76
     1
 77
     6
 78
     2
 67
     7
 79
     5
170
     0
171
     0
290
     0
174
     0
 93
        1
 44
50.0
173
     0
291
     1
 45
0.0
1001
ACAD
1000
AcDbSavedByObjectVersion
1070
     0
  0
VISUALSTYLE
  5
3A
102
{ACAD_REACTORS
330
2A
102
}
330
2A
100
AcDbVisualStyle
  2
ColorChange
 70
    16
 71
     2
 72
     2
 73
     3
 90
        0
 40
-0.6
 41
-30.0
 62
     5
 63
     8
421
  8421504
 74
     1
 91
        4
 64
     7
 65
   257
 75
     1
175
     1
 42
1.0
 92
        8
 66
     8
424
  8421504
 43
1.0
 76
     1
 77
     6
 78
     2
 67
     7
 79
     5
170
     0
171
     0
290
     0
174
     0
 93
        1
 44
0.0
173
     0
291
     1
 45
0.0
1001
ACAD
1000
AcDbSavedByObjectVersion
1070
     0
  0
VISUALSTYLE
  5
34
102
{ACAD_REACTORS
330
2A
102
}
330
2A
100
AcDbVisualStyle
  2
Conceptual
 70
     9
 71
     3
 72
     2
 73
     0
 90
        0
 40
-0.6
 41
-30.0
 62
     5
 63
     7
421
 16777215
 74
     2
 91
        2
 64
     7
 65
   257
 75
     1
175
     1
 42
40.0
 92
        8
 66
     7
 43
1.0
 76
     1
 77
     6
 78
     2
 67
     7
 79
     3
170
     0
171
     0
290
     0
174
     0
 93
        1
 44
0.0
173
     0
291
     0
 45
0.0
1001
ACAD
1000
AcDbSavedByObjectVersion
1070
     0
  0
VISUALSTYLE
  5
35
102
{ACAD_REACTORS
330
2A
102
}
330
2A
100
AcDbVisualStyle
  2
Dim
 70
    11
 71
     2
 72
     2
 73
     0
 90
        0
 40
-0.6
 41
-30.0
 62
     5
 63
     7
421
 16777215
 74
     1
 91
        4
 64
     7
 65
   257
 75
     1
175
     1
 42
1.0
 92
        8
 66
     7
 43
1.0
 76
     1
 77
     6
 78
     2
 67
     7
 79
     5
170
     0
171
     0
290
     0
174
     0
 93
        1
 44
-50.0
173
     0
291
     1
 45
0.0
1001
ACAD
1000
AcDbSavedByObjectVersion
1070
     0
  0
VISUALSTYLE
  5
39
102
{ACAD_REACTORS
330
2A
102
}
330
2A
100
AcDbVisualStyle
  2
Facepattern
 70
    15
 71
     2
 72
     2
 73
     0
 90
        0
 40
-0.6
 41
-30.0
 62
     5
 63
     7
421
 16777215
 74
     1
 91
        4
 64
     7
 65
   257
 75
     1
175
     1
 42
1.0
 92
        8
 66
     7
 43
1.0
 76
     1
 77
     6
 78
     2
 67
     7
 79
     5
170
     0
171
     0
290
     0
174
     0
 93
        1
 44
0.0
173
     0
291
     1
 45
0.0
1001
ACAD
1000
AcDbSavedByObjectVersion
1070
     0
  0
VISUALSTYLE
  5
2B
102
{ACAD_REACTORS
330
2A
102
}
330
2A
100
AcDbVisualStyle
  2
Flat
 70
     0
 71
     2
 72
     1
 73
     1
 90
        2
 40
-0.6
 41
30.0
 62
     5
 63
     7
421
 16777215
 74
     0
 91
        4
 64
     7
 65
   257
 75
     1
175
     1
 42
1.0
 92
        8
 66
     7
 43
1.0
 76
     1
 77
     6
 78
     2
 67
     7
 79
     5
170
     0
171
     0
290
     0
174
     0
 93
       13
 44
0.0
173
     0
291
     1
 45
0.0
1001
ACAD
1000
AcDbSavedByObjectVersion
1070
     0
  0
VISUALSTYLE
  5
2C
102
{ACAD_REACTORS
330
2A
102
}
330
2A
100
AcDbVisualStyle
  2
FlatWithEdges
 70
     1
 71
     2
 72
     1
 73
     1
 90
        2
 40
-0.6
 41
30.0
 62
     5
 63
     7
421
 16777215
 74
     1
 91
        4
 64
     7
 65
   257
 75
     1
175
     1
 42
1.0
 92
        0
 66
   257
 43
1.0
 76
     1
 77
     6
 78
     2
 67
     7
 79
     5
170
     0
171
     0
290
     0
174
     0
 93
       13
 44
0.0
173
     0
291
     1
 45
0.0
1001
ACAD
1000
AcDbSavedByObjectVersion
1070
     0
  0
VISUALSTYLE
  5
2D
102
{ACAD_REACTORS
330
2A
102
}
330
2A
100
AcDbVisualStyle
  2
Gouraud
 70
     2
 71
     2
 72
     2
 73
     1
 90
        2
 40
-0.6
 41
30.0
 62
     5
 63
     7
421
 16777215
 74
     0
 91
        4
 64
     7
 65
   257
 75
     1
175
     1
 42
1.0
 92
        0
 66
     7
 43
1.0
 76
     1
 77
     6
 78
     2
 67
     7
 79
     5
170
     0
171
     0
290
     0
174
     0
 93
       13
 44
0.0
173
     0
291
     1
 45
0.0
1001
ACAD
1000
AcDbSavedByObjectVersion
1070
     0
  0
VISUALSTYLE
  5
2E
102
{ACAD_REACTORS
330
2A
102
}
330
2A
100
AcDbVisualStyle
  2
GouraudWithEdges
 70
     3
 71
     2
 72
     2
 73
     1
 90
        2
 40
-0.6
 41
30.0
 62
     5
 63
     7
421
 16777215
 74
     1
 91
        4
 64
     7
 65
   257
 75
     1
175
     1
 42
1.0
 92
        0
 66
   257
 43
1.0
 76
     1
 77
     6
 78
     2
 67
     7
 79
     5
170
     0
171
     0
290
     0
174
     0
 93
       13
 44
0.0
173
     0
291
     1
 45
0.0
1001
ACAD
1000
AcDbSavedByObjectVersion
1070
     0
  0
VISUALSTYLE
  5
38
102
{ACAD_REACTORS
330
2A
102
}
330
2A
100
AcDbVisualStyle
  2
Linepattern
 70
    14
 71
     2
 72
     2
 73
     0
 90
        0
 40
-0.6
 41
-30.0
 62
     5
 63
     7
421
 16777215
 74
     1
 91
        4
 64
     7
 65
   257
 75
     7
175
     7
 42
1.0
 92
        8
 66
     7
 43
1.0
 76
     1
 77
     6
 78
     2
 67
     7
 79
     5
170
     0
171
     0
290
     0
174
     0
 93
        1
 44
0.0
173
     0
291
     1
 45
0.0
1001
ACAD
1000
AcDbSavedByObjectVersion
1070
     0
  0
VISUALSTYLE
  5
33
102
{ACAD_REACTORS
330
2A
102
}
330
2A
100
AcDbVisualStyle
  2
Realistic
 70
     8
 71
     2
 72
     2
 73
     0
 90
        0
 40
-0.6
 41
-30.0
 62
     5
 63
     7
421
 16777215
 74
     1
 91
        0
 64
     7
 65
   257
 75
     1
175
     1
 42
1.0
 92
        8
 66
     8
424
  7895160
 43
1.0
 76
     1
 77
     6
 78
     2
 67
     7
 79
     5
170
     0
171
     0
290
     0
174
     0
 93
       13
 44
0.0
173
     0
291
     0
 45
0.0
1001
ACAD
1000
AcDbSavedByObjectVersion
1070
     0
  0
VISUALSTYLE
  5
37
102
{ACAD_REACTORS
330
2A
102
}
330
2A
100
AcDbVisualStyle
  2
Thicken
 70
    13
 71
     2
 72
     2
 73
     0
 90
        0
 40
-0.6
 41
-30.0
 62
     5
 63
     7
421
 16777215
 74
     1
 91
        4
 64
     7
 65
   257
 75
     1
175
     1
 42
1.0
 92
       12
 66
     7
 43
1.0
 76
     1
 77
     6
 78
     2
 67
     7
 79
     5
170
     0
171
     0
290
     0
174
     0
 93
        1
 44
0.0
173
     0
291
     1
 45
0.0
1001
ACAD
1000
AcDbSavedByObjectVersion
1070
     0
  0
ENDSEC
  0
EOF
