  0
SECTION
  2
HEADER
  9
$ACADVER
  1
AC1015
  9
$ACADMAINTVER
 70
    20
  9
$DWGCODEPAGE
  3
ANSI_1251
  9
$INSBASE
 10
0.0
 20
0.0
 30
0.0
  9
$EXTMIN
 10
0.0
 20
0.0
 30
0.0
  9
$EXTMAX
 10
1354.666666666666
 20
1016.0
 30
0.0
  9
$LIMMIN
 10
0.0
 20
0.0
  9
$LIMMAX
 10
420.0
 20
297.0
  9
$ORTHOMODE
 70
     0
  9
$REGENMODE
 70
     1
  9
$FILLMODE
 70
     1
  9
$QTEXTMODE
 70
     0
  9
$MIRRTEXT
 70
     0
  9
$LTSCALE
 40
1.0
  9
$ATTMODE
 70
     1
  9
$TEXTSIZE
 40
2.5
  9
$TRACEWID
 40
1.0
  9
$TEXTSTYLE
  7
Standard
  9
$CLAYER
  8
vectors
  9
$CELTYPE
  6
ByLayer
  9
$CECOLOR
 62
   256
  9
$CELTSCALE
 40
1.0
  9
$DISPSILH
 70
     0
  9
$DIMSCALE
 40
1.0
  9
$DIMASZ
 40
2.5
  9
$DIMEXO
 40
0.625
  9
$DIMDLI
 40
3.75
  9
$DIMRND
 40
0.0
  9
$DIMDLE
 40
0.0
  9
$DIMEXE
 40
1.25
  9
$DIMTP
 40
0.0
  9
$DIMTM
 40
0.0
  9
$DIMTXT
 40
2.5
  9
$DIMCEN
 40
2.5
  9
$DIMTSZ
 40
0.0
  9
$DIMTOL
 70
     0
  9
$DIMLIM
 70
     0
  9
$DIMTIH
 70
     0
  9
$DIMTOH
 70
     0
  9
$DIMSE1
 70
     0
  9
$DIMSE2
 70
     0
  9
$DIMTAD
 70
     1
  9
$DIMZIN
 70
     8
  9
$DIMBLK
  1

  9
$DIMASO
 70
     1
  9
$DIMSHO
 70
     1
  9
$DIMPOST
  1

  9
$DIMAPOST
  1

  9
$DIMALT
 70
     0
  9
$DIMALTD
 70
     3
  9
$DIMALTF
 40
0.03937007874016
  9
$DIMLFAC
 40
1.0
  9
$DIMTOFL
 70
     1
  9
$DIMTVP
 40
0.0
  9
$DIMTIX
 70
     0
  9
$DIMSOXD
 70
     0
  9
$DIMSAH
 70
     0
  9
$DIMBLK1
  1

  9
$DIMBLK2
  1

  9
$DIMSTYLE
  2
ISO-25
  9
$DIMCLRD
 70
     0
  9
$DIMCLRE
 70
     0
  9
$DIMCLRT
 70
     0
  9
$DIMTFAC
 40
1.0
  9
$DIMGAP
 40
0.625
  9
$DIMJUST
 70
     0
  9
$DIMSD1
 70
     0
  9
$DIMSD2
 70
     0
  9
$DIMTOLJ
 70
     0
  9
$DIMTZIN
 70
     8
  9
$DIMALTZ
 70
     0
  9
$DIMALTTZ
 70
     0
  9
$DIMUPT
 70
     0
  9
$DIMDEC
 70
     2
  9
$DIMTDEC
 70
     2
  9
$DIMALTU
 70
     2
  9
$DIMALTTD
 70
     3
  9
$DIMTXSTY
  7
Standard
  9
$DIMAUNIT
 70
     0
  9
$DIMADEC
 70
     0
  9
$DIMALTRND
 40
0.0
  9
$DIMAZIN
 70
     0
  9
$DIMDSEP
 70
    44
  9
$DIMATFIT
 70
     3
  9
$DIMFRAC
 70
     0
  9
$DIMLDRBLK
  1

  9
$DIMLUNIT
 70
     2
  9
$DIMLWD
 70
    -2
  9
$DIMLWE
 70
    -2
  9
$DIMTMOVE
 70
     0
  9
$LUNITS
 70
     2
  9
$LUPREC
 70
     4
  9
$SKETCHINC
 40
1.0
  9
$FILLETRAD
 40
0.0
  9
$AUNITS
 70
     0
  9
$AUPREC
 70
     0
  9
$MENU
  1
.
  9
$ELEVATION
 40
0.0
  9
$PELEVATION
 40
0.0
  9
$THICKNESS
 40
0.0
  9
$LIMCHECK
 70
     0
  9
$CHAMFERA
 40
0.0
  9
$CHAMFERB
 40
0.0
  9
$CHAMFERC
 40
0.0
  9
$CHAMFERD
 40
0.0
  9
$SKPOLY
 70
     0
  9
$TDCREATE
 40
2454920.325162940
  9
$TDUCREATE
 40
2454920.241829607
  9
$TDUPDATE
 40
2454920.401411308
  9
$TDUUPDATE
 40
2454920.318077975
  9
$TDINDWG
 40
0.0762518171
  9
$TDUSRTIMER
 40
0.0762485532
  9
$USRTIMER
 70
     1
  9
$ANGBASE
 50
0.0
  9
$ANGDIR
 70
     0
  9
$PDMODE
 70
     0
  9
$PDSIZE
 40
0.0
  9
$PLINEWID
 40
0.0
  9
$SPLFRAME
 70
     0
  9
$SPLINETYPE
 70
     6
  9
$SPLINESEGS
 70
     8
  9
$HANDSEED
  5
338
  9
$SURFTAB1
 70
     6
  9
$SURFTAB2
 70
     6
  9
$SURFTYPE
 70
     6
  9
$SURFU
 70
     6
  9
$SURFV
 70
     6
  9
$UCSBASE
  2

  9
$UCSNAME
  2

  9
$UCSORG
 10
0.0
 20
0.0
 30
0.0
  9
$UCSXDIR
 10
1.0
 20
0.0
 30
0.0
  9
$UCSYDIR
 10
0.0
 20
1.0
 30
0.0
  9
$UCSORTHOREF
  2

  9
$UCSORTHOVIEW
 70
     0
  9
$UCSORGTOP
 10
0.0
 20
0.0
 30
0.0
  9
$UCSORGBOTTOM
 10
0.0
 20
0.0
 30
0.0
  9
$UCSORGLEFT
 10
0.0
 20
0.0
 30
0.0
  9
$UCSORGRIGHT
 10
0.0
 20
0.0
 30
0.0
  9
$UCSORGFRONT
 10
0.0
 20
0.0
 30
0.0
  9
$UCSORGBACK
 10
0.0
 20
0.0
 30
0.0
  9
$PUCSBASE
  2

  9
$PUCSNAME
  2

  9
$PUCSORG
 10
0.0
 20
0.0
 30
0.0
  9
$PUCSXDIR
 10
1.0
 20
0.0
 30
0.0
  9
$PUCSYDIR
 10
0.0
 20
1.0
 30
0.0
  9
$PUCSORTHOREF
  2

  9
$PUCSORTHOVIEW
 70
     0
  9
$PUCSORGTOP
 10
0.0
 20
0.0
 30
0.0
  9
$PUCSORGBOTTOM
 10
0.0
 20
0.0
 30
0.0
  9
$PUCSORGLEFT
 10
0.0
 20
0.0
 30
0.0
  9
$PUCSORGRIGHT
 10
0.0
 20
0.0
 30
0.0
  9
$PUCSORGFRONT
 10
0.0
 20
0.0
 30
0.0
  9
$PUCSORGBACK
 10
0.0
 20
0.0
 30
0.0
  9
$USERI1
 70
     0
  9
$USERI2
 70
     0
  9
$USERI3
 70
     0
  9
$USERI4
 70
     0
  9
$USERI5
 70
     0
  9
$USERR1
 40
0.0
  9
$USERR2
 40
0.0
  9
$USERR3
 40
0.0
  9
$USERR4
 40
0.0
  9
$USERR5
 40
0.0
  9
$WORLDVIEW
 70
     1
  9
$SHADEDGE
 70
     3
  9
$SHADEDIF
 70
    70
  9
$TILEMODE
 70
     1
  9
$MAXACTVP
 70
    64
  9
$PINSBASE
 10
0.0
 20
0.0
 30
0.0
  9
$PLIMCHECK
 70
     0
  9
$PEXTMIN
 10
0.0
 20
0.0
 30
0.0
  9
$PEXTMAX
 10
0.0
 20
0.0
 30
0.0
  9
$PLIMMIN
 10
0.0
 20
0.0
  9
$PLIMMAX
 10
12.0
 20
9.0
  9
$UNITMODE
 70
     0
  9
$VISRETAIN
 70
     1
  9
$PLINEGEN
 70
     0
  9
$PSLTSCALE
 70
     1
  9
$TREEDEPTH
 70
  3020
  9
$CMLSTYLE
  2
Standard
  9
$CMLJUST
 70
     0
  9
$CMLSCALE
 40
20.0
  9
$PROXYGRAPHICS
 70
     1
  9
$MEASUREMENT
 70
     1
  9
$CELWEIGHT
370
    -1
  9
$ENDCAPS
280
     0
  9
$JOINSTYLE
280
     0
  9
$LWDISPLAY
290
     0
  9
$INSUNITS
 70
     4
  9
$HYPERLINKBASE
  1

  9
$STYLESHEET
  1

  9
$XEDIT
290
     1
  9
$CEPSNTYPE
380
     0
  9
$PSTYLEMODE
290
     1
  9
$FINGERPRINTGUID
  2
{6B9616E9-C64B-45CE-B968-85481A1EBD6C}
  9
$VERSIONGUID
  2
{A4465869-F87D-4878-9FB7-BA07AE84F18C}
  9
$EXTNAMES
290
     1
  9
$PSVPSCALE
 40
0.0
  9
$OLESTARTUP
290
     0
  0
ENDSEC
  0
SECTION
  2
CLASSES
  0
CLASS
  1
ACDBDICTIONARYWDFLT
  2
AcDbDictionaryWithDefault
  3
ObjectDBX Classes
 90
        0
280
     0
281
     0
  0
CLASS
  1
DICTIONARYVAR
  2
AcDbDictionaryVar
  3
ObjectDBX Classes
 90
        0
280
     0
281
     0
  0
CLASS
  1
TABLESTYLE
  2
AcDbTableStyle
  3
ObjectDBX Classes
 90
     2047
280
     0
281
     0
  0
CLASS
  1
RASTERVARIABLES
  2
AcDbRasterVariables
  3
ISM
 90
        0
280
     0
281
     0
  0
CLASS
  1
IMAGEDEF
  2
AcDbRasterImageDef
  3
ISM
 90
        0
280
     0
281
     0
  0
CLASS
  1
IMAGEDEF_REACTOR
  2
AcDbRasterImageDefReactor
  3
ISM
 90
        1
280
     0
281
     0
  0
CLASS
  1
IMAGE
  2
AcDbRasterImage
  3
ISM
 90
      127
280
     0
281
     1
  0
CLASS
  1
ACDBPLACEHOLDER
  2
AcDbPlaceHolder
  3
ObjectDBX Classes
 90
        0
280
     0
281
     0
  0
CLASS
  1
LAYOUT
  2
AcDbLayout
  3
ObjectDBX Classes
 90
        0
280
     0
281
     0
  0
ENDSEC
  0
SECTION
  2
TABLES
  0
TABLE
  2
VPORT
  5
8
330
0
100
AcDbSymbolTable
 70
    13
  0
VPORT
  5
32F
330
8
100
AcDbSymbolTableRecord
100
AcDbViewportTableRecord
  2
*Active
 70
     0
 10
0.0
 20
0.0
 11
1.0
 21
1.0
 12
553.2664461042424
 22
702.585474947751
 13
0.0
 23
0.0
 14
10.0
 24
10.0
 15
10.0
 25
10.0
 16
0.0
 26
0.0
 36
1.0
 17
0.0
 27
0.0
 37
0.0
 40
597.155732020552
 41
1.789077212806026
 42
50.0
 43
0.0
 44
0.0
 50
0.0
 51
0.0
 71
     0
 72
  1000
 73
     1
 74
     3
 75
     0
 76
     0
 77
     0
 78
     0
281
     0
 65
     1
110
0.0
120
0.0
130
0.0
111
1.0
121
0.0
131
0.0
112
0.0
122
1.0
132
0.0
 79
     0
146
0.0
  0
ENDTAB
  0
TABLE
  2
LTYPE
  5
5
330
0
100
AcDbSymbolTable
 70
     2
  0
LTYPE
  5
14
330
5
100
AcDbSymbolTableRecord
100
AcDbLinetypeTableRecord
  2
ByBlock
 70
     0
  3

 72
    65
 73
     0
 40
0.0
  0
LTYPE
  5
15
330
5
100
AcDbSymbolTableRecord
100
AcDbLinetypeTableRecord
  2
ByLayer
 70
     0
  3

 72
    65
 73
     0
 40
0.0
  0
LTYPE
  5
16
330
5
100
AcDbSymbolTableRecord
100
AcDbLinetypeTableRecord
  2
Continuous
 70
     0
  3
Solid line
 72
    65
 73
     0
 40
0.0
  0
ENDTAB
  0
TABLE
  2
LAYER
  5
2
102
{ACAD_XDICTIONARY
360
105
102
}
330
0
100
AcDbSymbolTable
 70
     3
  0
LAYER
  5
10
330
2
100
AcDbSymbolTableRecord
100
AcDbLayerTableRecord
  2
0
 70
     0
 62
     7
  6
Continuous
370
    -3
390
F
  0
LAYER
  5
103
330
2
100
AcDbSymbolTableRecord
100
AcDbLayerTableRecord
  2
drawing
 70
     0
 62
    -7
  6
Continuous
370
    -3
390
F
1001
AcAecLayerStandard
1000

1000

  0
LAYER
  5
10D
330
2
100
AcDbSymbolTableRecord
100
AcDbLayerTableRecord
  2
vectors
 70
     0
 62
     5
  6
Continuous
370
    -3
390
F
1001
AcAecLayerStandard
1000

1000

  0
ENDTAB
  0
TABLE
  2
STYLE
  5
3
330
0
100
AcDbSymbolTable
 70
     1
  0
STYLE
  5
11
330
3
100
AcDbSymbolTableRecord
100
AcDbTextStyleTableRecord
  2
Standard
 70
     0
 40
0.0
 41
1.0
 50
0.0
 71
     0
 42
2.5
  3
txt
  4

  0
ENDTAB
  0
TABLE
  2
VIEW
  5
6
330
0
100
AcDbSymbolTable
 70
     0
  0
ENDTAB
  0
TABLE
  2
UCS
  5
7
330
0
100
AcDbSymbolTable
 70
     0
  0
ENDTAB
  0
TABLE
  2
APPID
  5
9
330
0
100
AcDbSymbolTable
 70
     4
  0
APPID
  5
12
330
9
100
AcDbSymbolTableRecord
100
AcDbRegAppTableRecord
  2
ACAD
 70
     0
  0
APPID
  5
9E
330
9
100
AcDbSymbolTableRecord
100
AcDbRegAppTableRecord
  2
ACAD_PSEXT
 70
     0
  0
APPID
  5
104
330
9
100
AcDbSymbolTableRecord
100
AcDbRegAppTableRecord
  2
AcAecLayerStandard
 70
     0
  0
APPID
  5
11A
330
9
100
AcDbSymbolTableRecord
100
AcDbRegAppTableRecord
  2
ACAD_EXEMPT_FROM_CAD_STANDARDS
 70
     0
  0
ENDTAB
  0
TABLE
  2
DIMSTYLE
  5
A
330
0
100
AcDbSymbolTable
 70
     2
100
AcDbDimStyleTable
 71
     1
340
27
  0
DIMSTYLE
105
27
330
A
100
AcDbSymbolTableRecord
100
AcDbDimStyleTableRecord
  2
ISO-25
 70
     0
 41
2.5
 42
0.625
 43
3.75
 44
1.25
 73
     0
 74
     0
 77
     1
 78
     8
140
2.5
141
2.5
143
0.03937007874016
147
0.625
171
     3
172
     1
271
     2
272
     2
274
     3
278
    44
283
     0
284
     8
340
11
  0
ENDTAB
  0
TABLE
  2
BLOCK_RECORD
  5
1
330
0
100
AcDbSymbolTable
 70
     2
  0
BLOCK_RECORD
  5
1F
330
1
100
AcDbSymbolTableRecord
100
AcDbBlockTableRecord
  2
*Model_Space
340
22
  0
BLOCK_RECORD
  5
D2
330
1
100
AcDbSymbolTableRecord
100
AcDbBlockTableRecord
  2
*Paper_Space
340
D3
  0
BLOCK_RECORD
  5
D6
330
1
100
AcDbSymbolTableRecord
100
AcDbBlockTableRecord
  2
*Paper_Space0
340
D7
  0
ENDTAB
  0
ENDSEC
  0
SECTION
  2
BLOCKS
  0
BLOCK
  5
20
330
1F
100
AcDbEntity
  8
0
100
AcDbBlockBegin
  2
*Model_Space
 70
     0
 10
0.0
 20
0.0
 30
0.0
  3
*Model_Space
  1

  0
ENDBLK
  5
21
330
1F
100
AcDbEntity
  8
0
100
AcDbBlockEnd
  0
BLOCK
  5
D4
330
D2
100
AcDbEntity
 67
     1
  8
0
100
AcDbBlockBegin
  2
*Paper_Space
 70
     0
 10
0.0
 20
0.0
 30
0.0
  3
*Paper_Space
  1

  0
ENDBLK
  5
D5
330
D2
100
AcDbEntity
 67
     1
  8
0
100
AcDbBlockEnd
  0
BLOCK
  5
D8
330
D6
100
AcDbEntity
 67
     1
  8
0
100
AcDbBlockBegin
  2
*Paper_Space0
 70
     0
 10
0.0
 20
0.0
 30
0.0
  3
*Paper_Space0
  1

  0
ENDBLK
  5
D9
330
D6
100
AcDbEntity
 67
     1
  8
0
100
AcDbBlockEnd
  0
ENDSEC
  0
SECTION
  2
ENTITIES
  0
IMAGE
  5
10C
330
1F
100
AcDbEntity
  8
drawing
 92
      140
310
8C0000000100000084000000060000000500000000000000000000000000000000000000000000000000000000000000B482313DFFFFFFFFFFBF8F400000000000000000AAAAAAAAAA2A9540FFFFFFFFFFBF8F400000000000000000AAAAAAAAAA2A9540000000000000000000000000000000000000000000000000000000
310
00000000000000000000000000
100
AcDbRasterImage
 90
        0
 10
0.0
 20
0.0
 30
0.0
 11
2.645833333333333
 21
0.0
 31
0.0
 12
0.0000000000000002
 22
2.645833333333333
 32
0.0
 13
512.0
 23
384.0
340
10A
 70
     7
280
     0
281
    50
282
    50
283
     0
360
10B
 71
     1
 91
        2
 14
-0.5
 24
-0.5
 14
511.5
 24
383.5
  0
ARC
  5
123
330
1F
100
AcDbEntity
  8
vectors
100
AcDbCircle
 10
142.7884185361582
 20
509.1027158575336
 30
0.0
 40
24.74806099540478
100
AcDbArc
 50
228.8950290698407
 51
9.502981522969054
  0
ARC
  5
124
330
1F
100
AcDbEntity
  8
vectors
100
AcDbCircle
 10
173.0327925087576
 20
536.8161538264108
 30
0.0
 40
24.33761810940875
100
AcDbArc
 50
256.1258224237168
 51
22.82153902347202
  0
ARC
  5
125
330
1F
100
AcDbEntity
  8
vectors
100
AcDbCircle
 10
187.8673052421692
 20
566.9599540420135
 30
0.0
 40
22.05425669456312
100
AcDbArc
 50
290.151836292113
 51
38.53899004281225
  0
ARC
  5
127
330
1F
100
AcDbEntity
  8
vectors
100
AcDbCircle
 10
194.4532696675221
 20
598.0114100422841
 30
0.0
 40
20.33198548734736
100
AcDbArc
 50
301.6359256428982
 51
37.26860772428304
  0
ARC
  5
128
330
1F
100
AcDbEntity
  8
vectors
100
AcDbCircle
 10
177.9290741876315
 20
719.7012160420809
 30
0.0
 40
114.1624733089261
100
AcDbArc
 50
286.6469341560925
 51
338.8577667630902
  0
ARC
  5
129
330
1F
100
AcDbEntity
  8
vectors
100
AcDbCircle
 10
408.6730589575107
 20
703.7535800751086
 30
0.0
 40
126.8012091029169
100
AcDbArc
 50
191.4764344383254
 51
242.740959663693
  0
ARC
  5
12A
330
1F
100
AcDbEntity
  8
vectors
100
AcDbCircle
 10
246.9935098928266
 20
601.3342691768423
 30
0.0
 40
104.1135392039139
100
AcDbArc
 50
283.5049470605582
 51
354.3224288401822
  0
ARC
  5
12B
330
1F
100
AcDbEntity
  8
vectors
100
AcDbCircle
 10
274.8191880142641
 20
496.788007238666
 30
0.0
 40
4.827099746335677
100
AcDbArc
 50
136.6841217872744
 51
260.3445836014271
  0
ARC
  5
12C
330
1F
100
AcDbEntity
  8
vectors
100
AcDbCircle
 10
289.9091901547084
 20
595.8830849909896
 30
0.0
 40
105.063833599352
100
AcDbArc
 50
261.295822095823
 51
317.2816601041703
  0
ARC
  5
12D
330
1F
100
AcDbEntity
  8
vectors
100
AcDbCircle
 10
387.0396180662342
 20
534.5958628105527
 30
0.0
 40
22.30171178972844
100
AcDbArc
 50
206.6050281726417
 51
289.824916018242
  0
ARC
  5
12E
330
1F
100
AcDbEntity
  8
vectors
100
AcDbCircle
 10
412.9698198481152
 20
510.7798862878538
 30
0.0
 40
18.58430806392106
100
AcDbArc
 50
171.2222242957347
 51
318.6470710078972
  0
ARC
  5
12F
330
1F
100
AcDbEntity
  8
vectors
100
AcDbCircle
 10
444.7501439175294
 20
503.8718156545306
 30
0.0
 40
18.62119420821524
100
AcDbArc
 50
196.7626522743861
 51
306.3959514140692
  0
ARC
  5
130
330
1F
100
AcDbEntity
  8
vectors
100
AcDbCircle
 10
505.9838354354389
 20
496.1735486599749
 30
0.0
 40
50.71139034997072
100
AcDbArc
 50
188.2658546375445
 51
218.1657458059994
  0
ARC
  5
131
330
1F
100
AcDbEntity
  8
vectors
100
AcDbCircle
 10
450.9637094621239
 20
484.2939718362818
 30
0.0
 40
24.65926982566195
100
AcDbArc
 50
307.904900459965
 51
12.35430109389852
  0
ARC
  5
132
330
1F
100
AcDbEntity
  8
vectors
100
AcDbCircle
 10
488.416076565024
 20
504.6459054894945
 30
0.0
 40
20.14655006866512
100
AcDbArc
 50
228.4444680425627
 51
340.1781978089053
  0
ARC
  5
133
330
1F
100
AcDbEntity
  8
vectors
100
AcDbCircle
 10
519.7457147589715
 20
517.1596091616434
 30
0.0
 40
22.96573186655062
100
AcDbArc
 50
237.3897248925387
 51
351.1235504475444
  0
ARC
  5
134
330
1F
100
AcDbEntity
  8
vectors
100
AcDbCircle
 10
548.3505216098079
 20
532.4617448111964
 30
0.0
 40
19.75203360093038
100
AcDbArc
 50
252.5773115252789
 51
332.1495090203208
  0
ARC
  5
135
330
1F
100
AcDbEntity
  8
vectors
100
AcDbCircle
 10
647.0693922980667
 20
616.0376003050543
 30
0.0
 40
123.3482413317215
100
AcDbArc
 50
228.7959649686335
 51
277.3108497780941
  0
ARC
  5
136
330
1F
100
AcDbEntity
  8
vectors
100
AcDbCircle
 10
659.1796824842863
 20
497.8730122148273
 30
0.0
 40
5.508144676360172
100
AcDbArc
 50
310.6207646142258
 51
65.61573988595251
  0
ARC
  5
137
330
1F
100
AcDbEntity
  8
vectors
100
AcDbCircle
 10
676.8611695988393
 20
595.5264393880453
 30
0.0
 40
93.9091745173582
100
AcDbArc
 50
182.6122557748897
 51
260.5569427265443
  0
ARC
  5
138
330
1F
100
AcDbEntity
  8
vectors
100
AcDbCircle
 10
510.4703912344609
 20
718.808903264398
 30
0.0
 40
146.7649081264391
100
AcDbArc
 50
299.6385562347826
 51
343.866554660208
  0
ARC
  5
139
330
1F
100
AcDbEntity
  8
vectors
100
AcDbCircle
 10
743.4381025513667
 20
699.1385798968313
 30
0.0
 40
94.37456794333968
100
AcDbArc
 50
192.9267253366164
 51
256.4946157773187
  0
ARC
  5
13A
330
1F
100
AcDbEntity
  8
vectors
100
AcDbCircle
 10
737.0995441867147
 20
594.568573374765
 30
0.0
 40
20.26088017188233
100
AcDbArc
 50
140.8014006197031
 51
236.7534429830461
  0
ARC
  5
13B
330
1F
100
AcDbEntity
  8
vectors
100
AcDbCircle
 10
742.4632442834699
 20
563.9517312290771
 30
0.0
 40
21.40664363042648
100
AcDbArc
 50
140.3055448850024
 51
251.6103631499978
  0
ARC
  5
13C
330
1F
100
AcDbEntity
  8
vectors
100
AcDbCircle
 10
755.3373503144314
 20
533.6452464592768
 30
0.0
 40
22.02489162502317
100
AcDbArc
 50
153.017747701532
 51
289.5433927296983
  0
ARC
  5
13D
330
1F
100
AcDbEntity
  8
vectors
100
AcDbCircle
 10
786.5104656524607
 20
508.3529532610969
 30
0.0
 40
24.23369248659138
100
AcDbArc
 50
169.2111935671785
 51
313.7419397748141
  0
ARC
  5
142
330
1F
100
AcDbEntity
  8
vectors
100
AcDbCircle
 10
748.1380621206574
 20
535.7272106643899
 30
0.0
 40
71.08789494893848
100
AcDbArc
 50
320.8493560240423
 51
352.7415172693708
  0
ARC
  5
143
330
1F
100
AcDbEntity
  8
vectors
100
AcDbCircle
 10
370.4660427935013
 20
622.2551704837875
 30
0.0
 40
458.2538305748247
100
AcDbArc
 50
347.9701782333205
 51
359.7887425026532
  0
ARC
  5
144
330
1F
100
AcDbEntity
  8
vectors
100
AcDbCircle
 10
834.6768895389059
 20
642.7614265728975
 30
0.0
 40
22.9821896637901
100
AcDbArc
 50
205.1037401972932
 51
254.9692767998938
  0
ARC
  5
145
330
1F
100
AcDbEntity
  8
vectors
100
AcDbCircle
 10
734.6443308908808
 20
690.9615942948049
 30
0.0
 40
98.15432856095519
100
AcDbArc
 50
323.8144262163985
 51
6.984561232737886
  0
LINE
  5
148
330
1F
100
AcDbEntity
  8
vectors
100
AcDbLine
 10
832.0702516835977
 20
702.8973461749008
 30
0.0
 11
805.5507794391356
 21
702.456115740575
 31
0.0
  0
ARC
  5
149
330
1F
100
AcDbEntity
  8
vectors
100
AcDbCircle
 10
806.1607104477632
 20
707.68881697403
 30
0.0
 40
5.26812851341785
100
AcDbArc
 50
95.21497653970962
 51
263.3515250785068
  0
LINE
  5
14A
330
1F
100
AcDbEntity
  8
vectors
100
AcDbLine
 10
805.6818750157002
 20
712.9351389869156
 30
0.0
 11
834.1298083135297
 21
712.9351389869155
 31
0.0
  0
ARC
  5
14B
330
1F
100
AcDbEntity
  8
vectors
100
AcDbCircle
 10
755.2853674226833
 20
724.5066936278053
 30
0.0
 40
79.68906283924593
100
AcDbArc
 50
351.6506284261109
 51
58.57449681707377
  0
ARC
  5
14C
330
1F
100
AcDbEntity
  8
vectors
100
AcDbCircle
 10
-3093.644998471552
 20
1970.531451598785
 30
0.0
 40
4064.91967126494
100
AcDbArc
 50
343.1538573461093
 51
344.9714601762626
  0
ARC
  5
14D
330
1F
100
AcDbEntity
  8
vectors
100
AcDbCircle
 10
804.0400026912314
 20
926.5204899571115
 30
0.0
 40
29.9296397944854
100
AcDbArc
 50
340.4337482123627
 51
41.08561037080728
  0
ARC
  5
14E
330
1F
100
AcDbEntity
  8
vectors
100
AcDbCircle
 10
814.5386694527504
 20
930.4466371256454
 30
0.0
 40
19.83167750702958
100
AcDbArc
 50
52.54589094936443
 51
150.6197579269847
  0
ARC
  5
14F
330
1F
100
AcDbEntity
  8
vectors
100
AcDbCircle
 10
784.1618627735521
 20
919.5326432986455
 30
0.0
 40
24.44695794092675
100
AcDbArc
 50
57.60975897119937
 51
160.3018492829333
  0
ARC
  5
150
330
1F
100
AcDbEntity
  8
vectors
100
AcDbCircle
 10
756.1494364306877
 20
910.2758728649581
 30
0.0
 40
18.19629250463665
100
AcDbArc
 50
74.06389255662649
 51
164.9729154741914
  0
ARC
  5
151
330
1F
100
AcDbEntity
  8
vectors
100
AcDbCircle
 10
665.1198513334849
 20
847.7678485580609
 30
0.0
 40
99.57427313425659
100
AcDbArc
 50
42.46448054685755
 51
103.2624917056577
  0
ARC
  5
152
330
1F
100
AcDbEntity
  8
vectors
100
AcDbCircle
 10
645.8761723323208
 20
940.3527764320125
 30
0.0
 40
5.633799610527773
100
AcDbArc
 50
129.7161849125115
 51
243.9806178686542
  0
ARC
  5
153
330
1F
100
AcDbEntity
  8
vectors
100
AcDbCircle
 10
611.9117498819097
 20
829.0674854258021
 30
0.0
 40
110.7927331615234
100
AcDbArc
 50
7.919493998697728
 51
73.48588017185119
  0
ARC
  5
154
330
1F
100
AcDbEntity
  8
vectors
100
AcDbCircle
 10
833.1360957149406
 20
670.7774906550339
 30
0.0
 40
206.2790358376158
100
AcDbArc
 50
122.7158547836229
 51
151.8200672295012
  0
ARC
  5
155
330
1F
100
AcDbEntity
  8
vectors
100
AcDbCircle
 10
549.61955649223
 20
715.2587487519083
 30
0.0
 40
114.6397964210715
100
AcDbArc
 50
27.49865534210979
 51
74.17639769875411
  0
ARC
  5
156
330
1F
100
AcDbEntity
  8
vectors
100
AcDbCircle
 10
558.1942774740049
 20
837.9910687682313
 30
0.0
 40
25.87035161045991
100
AcDbArc
 50
331.2667615543781
 51
52.7048050880313
  0
ARC
  5
157
330
1F
100
AcDbEntity
  8
vectors
100
AcDbCircle
 10
559.0788524933572
 20
870.7735699247381
 30
0.0
 40
19.17440240628537
100
AcDbArc
 50
320.4783566701915
 51
74.54041712968773
  0
ARC
  5
158
330
1F
100
AcDbEntity
  8
vectors
100
AcDbCircle
 10
540.9123510432148
 20
898.8002512553094
 30
0.0
 40
25.1589650892374
100
AcDbArc
 50
337.7017009701852
 51
89.072856248406
  0
ARC
  5
159
330
1F
100
AcDbEntity
  8
vectors
100
AcDbCircle
 10
511.3842139286571
 20
919.5673231005896
 30
0.0
 40
30.25521552520855
100
AcDbArc
 50
8.340328462212413
 51
112.8859380888215
  0
ARC
  5
15A
330
1F
100
AcDbEntity
  8
vectors
100
AcDbCircle
 10
469.8089733030142
 20
929.1659327208121
 30
0.0
 40
34.96502675982165
100
AcDbArc
 50
31.51108144538024
 51
147.0210926832066
  0
ARC
  5
15B
330
1F
100
AcDbEntity
  8
vectors
100
AcDbCircle
 10
428.1779061716969
 20
923.1600121681115
 30
0.0
 40
27.89644463205738
100
AcDbArc
 50
63.83781787744708
 51
178.3650786702879
  0
ARC
  5
15C
330
1F
100
AcDbEntity
  8
vectors
100
AcDbCircle
 10
396.3646969406714
 20
900.3587100539279
 30
0.0
 40
23.92192654348388
100
AcDbArc
 50
80.54889464085986
 51
204.0166332078618
  0
ARC
  5
15D
330
1F
100
AcDbEntity
  8
vectors
100
AcDbCircle
 10
381.5044192751058
 20
870.3271308968234
 30
0.0
 40
21.46553149786911
100
AcDbArc
 50
109.006127810422
 51
214.897314873712
  0
ARC
  5
15E
330
1F
100
AcDbEntity
  8
vectors
100
AcDbCircle
 10
382.808473139498
 20
835.8495648334647
 30
0.0
 40
29.15955533266859
100
AcDbArc
 50
130.427709642541
 51
200.8507997334592
  0
ARC
  5
15F
330
1F
100
AcDbEntity
  8
vectors
100
AcDbCircle
 10
385.3388651686744
 20
719.6599414810023
 30
0.0
 40
109.9216544883589
100
AcDbArc
 50
105.7191965805953
 51
153.0897871968437
  0
ARC
  5
160
330
1F
100
AcDbEntity
  8
vectors
100
AcDbCircle
 10
94.59483064695431
 20
662.7357319481017
 30
0.0
 40
220.2777680312165
100
AcDbArc
 50
28.9646971827832
 51
57.71337377855314
  0
ARC
  5
161
330
1F
100
AcDbEntity
  8
vectors
100
AcDbCircle
 10
340.2318383803532
 20
814.5302098571068
 30
0.0
 40
132.5239103905094
100
AcDbArc
 50
108.958716343346
 51
164.9437435822539
  0
ARC
  5
162
330
1F
100
AcDbEntity
  8
vectors
100
AcDbCircle
 10
292.7605777862238
 20
943.3985611200238
 30
0.0
 40
5.65565652865446
100
AcDbArc
 50
321.3347911137849
 51
60.83504824746839
  0
ARC
  5
164
330
1F
100
AcDbEntity
  8
vectors
100
AcDbCircle
 10
279.1732336604513
 20
817.5339713514738
 30
0.0
 40
131.8203061310565
100
AcDbArc
 50
82.87796505960949
 51
127.1980557957337
  0
ARC
  5
165
330
1F
100
AcDbEntity
  8
vectors
100
AcDbCircle
 10
180.3042146109179
 20
906.8737558989786
 30
0.0
 40
24.75757913360067
100
AcDbArc
 50
39.24248485425955
 51
106.5787623247612
  0
ARC
  5
166
330
1F
100
AcDbEntity
  8
vectors
100
AcDbCircle
 10
152.0768084674482
 20
923.9009408159022
 30
0.0
 40
22.19884984498313
100
AcDbArc
 50
17.56999585194912
 51
122.1194484260964
  0
ARC
  5
167
330
1F
100
AcDbEntity
  8
vectors
100
AcDbCircle
 10
122.7817889845578
 20
936.2766367507676
 30
0.0
 40
18.63499974300711
100
AcDbArc
 50
20.16986013144027
 51
159.8301398685601
  0
ARC
  5
168
330
1F
100
AcDbEntity
  8
vectors
100
AcDbCircle
 10
204.1299001865094
 20
922.9064294492678
 30
0.0
 40
100.8031465725914
100
AcDbArc
 50
168.674697756954
 51
193.676606897291
  0
ARC
  5
169
330
1F
100
AcDbEntity
  8
vectors
100
AcDbCircle
 10
-3906.520764917701
 20
-434.6911566779538
 30
0.0
 40
4228.561500647361
100
AcDbArc
 50
16.89463394919395
 51
18.3860375157612
  0
ARC
  5
16A
330
1F
100
AcDbEntity
  8
vectors
100
AcDbCircle
 10
182.2432002289936
 20
721.281764635713
 30
0.0
 40
84.48703499857323
100
AcDbArc
 50
120.3610719601737
 51
182.9765780676374
  0
LINE
  5
16B
330
1F
100
AcDbEntity
  8
vectors
100
AcDbLine
 10
97.87015127521382
 20
716.89454534632
 30
0.0
 11
124.7151460275324
 21
716.6575278799346
 31
0.0
  0
ARC
  5
16C
330
1F
100
AcDbEntity
  8
vectors
100
AcDbCircle
 10
125.76971306371
 20
711.8512518793639
 30
0.0
 40
4.920609782075139
100
AcDbArc
 50
276.9600843152709
 51
102.3754210650943
  0
LINE
  5
16D
330
1F
100
AcDbEntity
  8
vectors
100
AcDbLine
 10
126.3659819608863
 20
706.9669029944343
 30
0.0
 11
97.88905046778792
 21
706.7607194041809
 31
0.0
  0
ARC
  5
16E
330
1F
100
AcDbEntity
  8
vectors
100
AcDbCircle
 10
196.9026280251728
 20
693.8551151981087
 30
0.0
 40
99.85110495450749
100
AcDbArc
 50
172.5738325954792
 51
218.1554582177944
  0
ARC
  5
16F
330
1F
100
AcDbEntity
  8
vectors
100
AcDbCircle
 10
88.37971319601141
 20
655.5118194224202
 30
0.0
 40
38.01760816670777
100
AcDbArc
 50
286.0526096040349
 51
322.1175853521366
  0
ARC
  5
170
330
1F
100
AcDbEntity
  8
vectors
100
AcDbCircle
 10
2010.16421243061
 20
826.9401823931719
 30
0.0
 40
1922.552739610953
100
AcDbArc
 50
186.2098667763795
 51
189.5625193008765
  0
ARC
  5
171
330
1F
100
AcDbEntity
  8
vectors
100
AcDbCircle
 10
139.9787661298574
 20
512.9481452409499
 30
0.0
 40
26.2133082308195
100
AcDbArc
 50
191.8648504906705
 51
239.1022592443281
  0
ARC
  5
185
330
1F
100
AcDbEntity
  8
vectors
100
AcDbCircle
 10
440.017764584033
 20
619.3486781034224
 30
0.0
 40
330.6589512461274
100
AcDbArc
 50
183.6779430704716
 51
198.8273222866179
  0
ARC
  5
186
330
1F
100
AcDbEntity
  8
vectors
100
AcDbCircle
 10
142.7725914706084
 20
515.2192754112138
 30
0.0
 40
15.93229419821135
100
AcDbArc
 50
189.3188382208966
 51
284.0433769999029
  0
ARC
  5
187
330
1F
100
AcDbEntity
  8
vectors
100
AcDbCircle
 10
144.9020099664813
 20
512.16690705037
 30
0.0
 40
12.5247310693576
100
AcDbArc
 50
277.9702009247401
 51
40.88645570369609
  0
ARC
  5
188
330
1F
100
AcDbEntity
  8
vectors
100
AcDbCircle
 10
281.8047606705881
 20
628.4820626959803
 30
0.0
 40
167.1187746375371
100
AcDbArc
 50
196.2719375163143
 51
220.3117903754873
  0
ARC
  5
189
330
1F
100
AcDbEntity
  8
vectors
100
AcDbCircle
 10
190.1349445765477
 20
610.5755304915666
 30
0.0
 40
74.589141127752
100
AcDbArc
 50
189.1498441163491
 51
202.8126011448503
  0
ARC
  5
18A
330
1F
100
AcDbEntity
  8
vectors
100
AcDbCircle
 10
113.3623867551267
 20
597.36314744834
 30
0.0
 40
3.411591053404791
100
AcDbArc
 50
23.33661202133554
 51
166.8804724594256
  0
ARC
  5
18C
330
1F
100
AcDbEntity
  8
vectors
100
AcDbCircle
 10
352.1260057168661
 20
692.5568682567369
 30
0.0
 40
249.9354833878471
100
AcDbArc
 50
200.9021077364936
 51
220.7426616878053
  0
ARC
  5
18F
330
1F
100
AcDbEntity
  8
vectors
100
AcDbCircle
 10
173.3067028973136
 20
541.2056882447243
 30
0.0
 40
15.8039347232675
100
AcDbArc
 50
228.1507354015406
 51
291.597632015381
  0
ARC
  5
190
330
1F
100
AcDbEntity
  8
vectors
100
AcDbCircle
 10
173.4862727827062
 20
534.703940023295
 30
0.0
 40
9.94494764486745
100
AcDbArc
 50
304.5332747261297
 51
15.13239598811257
  0
ARC
  5
191
330
1F
100
AcDbEntity
  8
vectors
100
AcDbCircle
 10
171.0454291371523
 20
537.4320150734861
 30
0.0
 40
12.041674933482
100
AcDbArc
 50
359.3721869115674
 51
66.14150670759293
  0
ARC
  5
192
330
1F
100
AcDbEntity
  8
vectors
100
AcDbCircle
 10
255.4806531600199
 20
672.5240766226686
 30
0.0
 40
147.3981723189333
100
AcDbArc
 50
206.6656454328211
 51
237.3303979898758
  0
ARC
  5
193
330
1F
100
AcDbEntity
  8
vectors
100
AcDbCircle
 10
120.6142510402488
 20
605.8830035073484
 30
0.0
 40
3.183534545621042
100
AcDbArc
 50
8.876612592490955
 51
231.6375003502211
  0
ARC
  5
194
330
1F
100
AcDbEntity
  8
vectors
100
AcDbCircle
 10
296.5397077593523
 20
718.2795729181907
 30
0.0
 40
199.7803383797169
100
AcDbArc
 50
214.3195535520415
 51
234.1511021066581
  0
ARC
  5
195
330
1F
100
AcDbEntity
  8
vectors
100
AcDbCircle
 10
186.2697701700504
 20
567.9580579404491
 30
0.0
 40
13.42310232400043
100
AcDbArc
 50
239.9023819410645
 51
311.5093958945359
  0
ARC
  5
196
330
1F
100
AcDbEntity
  8
vectors
100
AcDbCircle
 10
190.018972503162
 20
565.6553586547998
 30
0.0
 40
9.302663219359358
100
AcDbArc
 50
303.5914795434968
 51
70.28861687044972
  0
ARC
  5
197
330
1F
100
AcDbEntity
  8
vectors
100
AcDbCircle
 10
240.0706553886255
 20
719.9854912412583
 30
0.0
 40
152.9454241955298
100
AcDbArc
 50
226.895568030787
 51
252.1372882233136
  0
ARC
  5
199
330
1F
100
AcDbEntity
  8
vectors
100
AcDbCircle
 10
133.103139254522
 20
607.649831484221
 30
0.0
 40
2.544729970631589
100
AcDbArc
 50
15.23649183978645
 51
232.0997820775504
  0
ARC
  5
19A
330
1F
100
AcDbEntity
  8
vectors
100
AcDbCircle
 10
251.8839483053297
 20
750.0686944054538
 30
0.0
 40
175.42452987606
100
AcDbArc
 50
230.0030546387714
 51
248.6513004526799
  0
ARC
  5
19B
330
1F
100
AcDbEntity
  8
vectors
100
AcDbCircle
 10
192.5240237153025
 20
595.5034648691743
 30
0.0
 40
9.90443384785112
100
AcDbArc
 50
242.9634426593701
 51
57.50584112178682
  0
ARC
  5
19C
330
1F
100
AcDbEntity
  8
vectors
100
AcDbCircle
 10
208.6287096522512
 20
759.1449325924927
 30
0.0
 40
155.6616016453103
100
AcDbArc
 50
244.9427647959197
 51
266.0274940371787
  0
ARC
  5
19D
330
1F
100
AcDbEntity
  8
vectors
100
AcDbCircle
 10
140.9489362526475
 20
616.8591657668163
 30
0.0
 40
2.167539260043267
100
AcDbArc
 50
36.00600448181618
 51
212.9666801932428
  0
ARC
  5
19E
330
1F
100
AcDbEntity
  8
vectors
100
AcDbCircle
 10
178.715015623006
 20
686.362878691812
 30
0.0
 40
70.25179553564727
100
AcDbArc
 50
172.7410638905939
 51
258.5762006023041
  0
ARC
  5
19F
330
1F
100
AcDbEntity
  8
vectors
100
AcDbCircle
 10
186.2216102733582
 20
699.6607882102356
 30
0.0
 40
84.90457308749448
100
AcDbArc
 50
255.3866520265648
 51
336.3361845977439
  0
ARC
  5
1A0
330
1F
100
AcDbEntity
  8
vectors
100
AcDbCircle
 10
2134.977181745515
 20
-189.6421365320138
 30
0.0
 40
2057.185803293315
100
AcDbArc
 50
152.5994639165115
 51
155.4349800050548
  0
ARC
  5
1A2
330
1F
100
AcDbEntity
  8
vectors
100
AcDbCircle
 10
378.8728270199709
 20
723.4221943644097
 30
0.0
 40
77.93598989506524
100
AcDbArc
 50
114.9709462884371
 51
154.4047353220008
  0
ARC
  5
1A3
330
1F
100
AcDbEntity
  8
vectors
100
AcDbCircle
 10
382.6537657483103
 20
739.1584481469878
 30
0.0
 40
66.03927161229619
100
AcDbArc
 50
67.28265460551115
 51
123.7425252821398
  0
ARC
  5
1A4
330
1F
100
AcDbEntity
  8
vectors
100
AcDbCircle
 10
384.0474730421044
 20
741.1631525112929
 30
0.0
 40
63.65391481240944
100
AcDbArc
 50
17.05153565198482
 51
67.74297588223186
  0
ARC
  5
1A5
330
1F
100
AcDbEntity
  8
vectors
100
AcDbCircle
 10
392.8716926787862
 20
737.4835750960418
 30
0.0
 40
56.6266608288328
100
AcDbArc
 50
0.4621686262420873
 51
23.24108000414846
  0
LINE
  5
1A8
330
1F
100
AcDbEntity
  8
vectors
100
AcDbLine
 10
449.4965112758868
 20
737.9403414138839
 30
0.0
 11
461.8629824167555
 21
737.9403414138839
 31
0.0
  0
ARC
  5
1A9
330
1F
100
AcDbEntity
  8
vectors
100
AcDbCircle
 10
371.2589627977931
 20
739.4547943172515
 30
0.0
 40
90.6166758312721
100
AcDbArc
 50
359.0423859758923
 51
26.54503600706089
  0
ARC
  5
1AA
330
1F
100
AcDbEntity
  8
vectors
100
AcDbCircle
 10
381.9176979240241
 20
736.9428040485155
 30
0.0
 40
82.50255890572974
100
AcDbArc
 50
31.41957476647828
 51
77.3530368111502
  0
ARC
  5
1AB
330
1F
100
AcDbEntity
  8
vectors
100
AcDbCircle
 10
381.8999985598677
 20
734.6799948138603
 30
0.0
 40
84.71569160784884
100
AcDbArc
 50
77.67643021034479
 51
127.5767070400225
  0
ARC
  5
1AC
330
1F
100
AcDbEntity
  8
vectors
100
AcDbCircle
 10
460.6376898091831
 20
651.9977368204271
 30
0.0
 40
198.6222302986194
100
AcDbArc
 50
131.0349298944591
 51
163.052367667212
  0
ARC
  5
1AD
330
1F
100
AcDbEntity
  8
vectors
100
AcDbCircle
 10
139.5295488734369
 20
749.9987092863197
 30
0.0
 40
137.1078075070603
100
AcDbArc
 50
305.8869569627569
 51
342.9927288045159
  0
ARC
  5
1AE
330
1F
100
AcDbEntity
  8
vectors
100
AcDbCircle
 10
185.3126390830821
 20
710.5518437119006
 30
0.0
 40
79.54757308023642
100
AcDbArc
 50
234.6412957099823
 51
295.7730228137657
  0
ARC
  5
1AF
330
1F
100
AcDbEntity
  8
vectors
100
AcDbCircle
 10
182.5669830675028
 20
690.2010637095244
 30
0.0
 40
62.09851250724565
100
AcDbArc
 50
175.3370315489916
 51
225.8063145055031
  0
LINE
  5
1B0
330
1F
100
AcDbEntity
  8
vectors
100
AcDbLine
 10
120.6740081075151
 20
695.24932145006
 30
0.0
 11
109.0262703107528
 21
695.2394519487791
 31
0.0
  0
ARC
  5
1B1
330
1F
100
AcDbEntity
  8
vectors
100
AcDbCircle
 10
181.4210400945888
 20
691.2361976632434
 30
0.0
 40
48.99261473511328
100
AcDbArc
 50
176.6223646763611
 51
260.8970487326723
  0
ARC
  5
1B2
330
1F
100
AcDbEntity
  8
vectors
100
AcDbCircle
 10
184.1856974865363
 20
712.4118495658795
 30
0.0
 40
70.34170215237576
100
AcDbArc
 50
261.4023429858371
 51
348.7004762358562
  0
ARC
  5
1B4
330
1F
100
AcDbEntity
  8
vectors
100
AcDbCircle
 10
-1815.99300375318
 20
1482.919009546432
 30
0.0
 40
2212.808352782718
100
AcDbArc
 50
339.2413718139244
 51
340.0813890699655
  0
ARC
  5
1B5
330
1F
100
AcDbEntity
  8
vectors
100
AcDbCircle
 10
95.99126238154711
 20
663.9236753746224
 30
0.0
 40
180.5992849519771
100
AcDbArc
 50
21.13729018403256
 51
51.41571510366674
  0
ARC
  5
1B6
330
1F
100
AcDbEntity
  8
vectors
100
AcDbCircle
 10
-424.2059007970169
 20
737.2166192822787
 30
0.0
 40
636.4607859279386
100
AcDbArc
 50
358.4023834187017
 51
6.12236975994647
  0
ARC
  5
1B7
330
1F
100
AcDbEntity
  8
vectors
100
AcDbCircle
 10
165.3699203687253
 20
721.3792577286003
 30
0.0
 40
46.67653732037311
100
AcDbArc
 50
286.6502035684379
 51
357.6582452971128
  0
ARC
  5
1B8
330
1F
100
AcDbEntity
  8
vectors
100
AcDbCircle
 10
166.6681730441456
 20
698.3240251352659
 30
0.0
 40
24.80254842453156
100
AcDbArc
 50
213.7450430252103
 51
299.1357592449308
  0
ARC
  5
1B9
330
1F
100
AcDbEntity
  8
vectors
100
AcDbCircle
 10
160.8075281430785
 20
693.2996962493659
 30
0.0
 40
17.16310813859962
100
AcDbArc
 50
123.2306715515504
 51
210.6648362666833
  0
ARC
  5
1BA
330
1F
100
AcDbEntity
  8
vectors
100
AcDbCircle
 10
150.3753855423005
 20
744.3382426471401
 30
0.0
 40
36.69646467378158
100
AcDbArc
 50
271.6030360030978
 51
297.408670793913
  0
ARC
  5
1BB
330
1F
100
AcDbEntity
  8
vectors
100
AcDbCircle
 10
150.3875781172664
 20
725.1948743818393
 30
0.0
 40
21.57348602692442
100
AcDbArc
 50
321.4865914627765
 51
34.89415106580602
  0
ARC
  5
1BC
330
1F
100
AcDbEntity
  8
vectors
100
AcDbCircle
 10
153.6710892636976
 20
722.5624977538502
 30
0.0
 40
20.78216377695778
100
AcDbArc
 50
46.09658131947391
 51
136.6290152905963
  0
ARC
  5
1BD
330
1F
100
AcDbEntity
  8
vectors
100
AcDbCircle
 10
144.8830116864763
 20
728.1625773011941
 30
0.0
 40
10.72953365638089
100
AcDbArc
 50
126.0811222913219
 51
207.9088188621468
  0
ARC
  5
1BE
330
1F
100
AcDbEntity
  8
vectors
100
AcDbCircle
 10
125.7892719256991
 20
709.4444672731659
 30
0.0
 40
16.73238663333273
100
AcDbArc
 50
293.6951865522771
 51
54.93803857224104
  0
ARC
  5
1BF
330
1F
100
AcDbEntity
  8
vectors
100
AcDbCircle
 10
154.8851188331426
 20
719.2669209295011
 30
0.0
 40
34.19569864461772
100
AcDbArc
 50
79.39216647746822
 51
166.897025717697
  0
ARC
  5
1C0
330
1F
100
AcDbEntity
  8
vectors
100
AcDbCircle
 10
155.3378159612757
 20
725.4172713906946
 30
0.0
 40
28.07553368134661
100
AcDbArc
 50
332.32184357596
 51
77.98954384338891
  0
ARC
  5
1C1
330
1F
100
AcDbEntity
  8
vectors
100
AcDbCircle
 10
155.2567679276847
 20
725.493757588254
 30
0.0
 40
28.18285169131748
100
AcDbArc
 50
275.0756043407095
 51
332.2606771195831
  0
ARC
  5
1C2
330
1F
100
AcDbEntity
  8
vectors
100
AcDbCircle
 10
162.397008021423
 20
693.4452196187176
 30
0.0
 40
6.115864261308786
100
AcDbArc
 50
139.4474944092032
 51
258.5225462240462
  0
ARC
  5
1C3
330
1F
100
AcDbEntity
  8
vectors
100
AcDbCircle
 10
167.2413382902756
 20
715.9030273693852
 30
0.0
 40
29.08985668953952
100
AcDbArc
 50
257.9735039502105
 51
317.2992925238164
  0
ARC
  5
1C4
330
1F
100
AcDbEntity
  8
vectors
100
AcDbCircle
 10
136.9059669038064
 20
734.4383699906678
 30
0.0
 40
64.33021087788235
100
AcDbArc
 50
323.502106337502
 51
342.580438463401
  0
ARC
  5
1C5
330
1F
100
AcDbEntity
  8
vectors
100
AcDbCircle
 10
-1653.343353033244
 20
708.2668211746693
 30
0.0
 40
1851.642135598756
100
AcDbArc
 50
0.213918270370032
 51
2.982093002414285
  0
ARC
  5
1C9
330
1F
100
AcDbEntity
  8
vectors
100
AcDbCircle
 10
218.3778219240986
 20
659.8037173645618
 30
0.0
 40
146.543710557783
100
AcDbArc
 50
98.86621268195222
 51
120.6283970836157
  0
ARC
  5
1CA
330
1F
100
AcDbEntity
  8
vectors
100
AcDbCircle
 10
177.6262066378099
 20
724.9411914876218
 30
0.0
 40
69.75730951712981
100
AcDbArc
 50
119.0833271766327
 51
178.2983022025315
  0
LINE
  5
1CB
330
1F
100
AcDbEntity
  8
vectors
100
AcDbLine
 10
107.8996614470659
 20
727.0126950072413
 30
0.0
 11
121.5797325501867
 21
727.0191496630072
 31
0.0
  0
ARC
  5
1CD
330
1F
100
AcDbEntity
  8
vectors
100
AcDbCircle
 10
203.2290436462552
 20
704.8022842163146
 30
0.0
 40
109.0230024657808
100
AcDbArc
 50
93.47996340296131
 51
115.7385790102743
  0
ARC
  5
1CE
330
1F
100
AcDbEntity
  8
vectors
100
AcDbCircle
 10
341.1784434880869
 20
814.5069900541781
 30
0.0
 40
144.5697347551998
100
AcDbArc
 50
125.2520999673756
 51
180.3498460718737
  0
ARC
  5
1D0
330
1F
100
AcDbEntity
  8
vectors
100
AcDbCircle
 10
256.5531351792857
 20
934.9200418527688
 30
0.0
 40
2.63506320803225
100
AcDbArc
 50
296.6822400224774
 51
132.5262471083396
  0
ARC
  5
1D1
330
1F
100
AcDbEntity
  8
vectors
100
AcDbCircle
 10
300.5397473094957
 20
799.595009825339
 30
0.0
 40
144.6959253737522
100
AcDbArc
 50
108.4394799296775
 51
178.648202497751
  0
ARC
  5
1D2
330
1F
100
AcDbEntity
  8
vectors
100
AcDbCircle
 10
133.290854031524
 20
806.5455569991319
 30
0.0
 40
37.74428021852394
100
AcDbArc
 50
62.66343013221158
 51
87.49738794883311
  0
ARC
  5
1D4
330
1F
100
AcDbEntity
  8
vectors
100
AcDbCircle
 10
-606.2583853586414
 20
612.2187417430023
 30
0.0
 40
776.668387374119
100
AcDbArc
 50
14.68284570663209
 51
17.38295931761931
  0
ARC
  5
1D5
330
1F
100
AcDbEntity
  8
vectors
100
AcDbCircle
 10
-577.7676724449787
 20
955.130834332173
 30
0.0
 40
737.4224271954109
100
AcDbArc
 50
348.5766729434784
 51
351.0237694761939
  0
ARC
  5
1D6
330
1F
100
AcDbEntity
  8
vectors
100
AcDbCircle
 10
229.433667014731
 20
897.0796461708111
 30
0.0
 40
106.4086895559722
100
AcDbArc
 50
194.3181077346228
 51
204.2105319111788
  0
ARC
  5
1DA
330
1F
100
AcDbEntity
  8
vectors
100
AcDbCircle
 10
125.8760904636392
 20
763.5022110708945
 30
0.0
 40
90.17537804512601
100
AcDbArc
 50
71.00701584196399
 51
85.86128096638095
  0
ARC
  5
1DB
330
1F
100
AcDbEntity
  8
vectors
100
AcDbCircle
 10
253.1811328287307
 20
823.8803003759183
 30
0.0
 40
101.0694596283783
100
AcDbArc
 50
157.357085349905
 51
165.7444904585689
  0
ARC
  5
1DC
330
1F
100
AcDbEntity
  8
vectors
100
AcDbCircle
 10
126.6805768263022
 20
797.5775915056597
 30
0.0
 40
73.18746563092924
100
AcDbArc
 50
63.00447921366838
 51
90.27423209072773
  0
ARC
  5
1DD
330
1F
100
AcDbEntity
  8
vectors
100
AcDbCircle
 10
254.288290039476
 20
830.37368481833
 30
0.0
 40
98.07123659789093
100
AcDbArc
 50
133.6512230492363
 51
154.3422329474744
  0
ARC
  5
1DE
330
1F
100
AcDbEntity
  8
vectors
100
AcDbCircle
 10
181.2829431745213
 20
908.0864112565372
 30
0.0
 40
8.590498857262444
100
AcDbArc
 50
308.1796576264117
 51
134.4846988689035
  0
ARC
  5
1DF
330
1F
100
AcDbEntity
  8
vectors
100
AcDbCircle
 10
286.4006868904656
 20
845.4082540597879
 30
0.0
 40
130.7129966734532
100
AcDbArc
 50
148.2376570906102
 51
167.3610735783078
  0
LINE
  5
1E0
330
1F
100
AcDbEntity
  8
vectors
100
AcDbLine
 10
158.8550842260512
 20
874.0090711866734
 30
0.0
 11
165.8872276467139
 21
872.8380182720707
 31
0.0
  0
LINE
  5
1E1
330
1F
100
AcDbEntity
  8
vectors
100
AcDbLine
 10
149.8695677288076
 20
877.5222270381791
 30
0.0
 11
162.3711567988079
 21
916.1669500816492
 31
0.0
  0
ARC
  5
1E2
330
1F
100
AcDbEntity
  8
vectors
100
AcDbCircle
 10
152.7400534393001
 20
922.8109893033105
 30
0.0
 40
11.70048755823855
100
AcDbArc
 50
325.4000562324255
 51
168.493372312403
  0
LINE
  5
1E3
330
1F
100
AcDbEntity
  8
vectors
100
AcDbLine
 10
141.2747265368206
 20
925.1450176064327
 30
0.0
 11
131.898536459171
 21
880.6450328822513
 31
0.0
  0
ARC
  5
1E5
330
1F
100
AcDbEntity
  8
vectors
100
AcDbCircle
 10
180.3696008904476
 20
895.3559942873926
 30
0.0
 40
56.53754586008218
100
AcDbArc
 50
151.408651190467
 51
185.4222826963161
  0
ARC
  5
1E6
330
1F
100
AcDbEntity
  8
vectors
100
AcDbCircle
 10
112.4430553523991
 20
928.2204073577606
 30
0.0
 40
19.18373965543513
100
AcDbArc
 50
342.3772493947653
 51
37.8003332936113
  0
ARC
  5
1E7
330
1F
100
AcDbEntity
  8
vectors
100
AcDbCircle
 10
120.9647934648384
 20
931.1645392633206
 30
0.0
 40
11.03285697552133
100
AcDbArc
 50
53.02221959931689
 51
172.7248354342481
  0
ARC
  5
1E9
330
1F
100
AcDbEntity
  8
vectors
100
AcDbCircle
 10
653.3300719688358
 20
1020.169220015958
 30
0.0
 40
550.3272592220851
100
AcDbArc
 50
189.1599834437977
 51
193.6804204426706
  0
LINE
  5
1EA
330
1F
100
AcDbEntity
  8
vectors
100
AcDbLine
 10
118.6155985035082
 20
890.0134513785694
 30
0.0
 11
124.0850441528462
 21
890.0134513785692
 31
0.0
  0
ARC
  5
1EB
330
1F
100
AcDbEntity
  8
vectors
100
AcDbCircle
 10
125.8928832992704
 20
792.812892479149
 30
0.0
 40
88.03722370490399
100
AcDbArc
 50
74.19601790697189
 51
86.08840434393178
  0
LINE
  5
1EC
330
1F
100
AcDbEntity
  8
vectors
100
AcDbLine
 10
210.1439776263719
 20
836.2434192329642
 30
0.0
 11
209.5205992209431
 21
816.9346823856553
 31
0.0
  0
ARC
  5
1ED
330
1F
100
AcDbEntity
  8
vectors
100
AcDbCircle
 10
120.4624752131052
 20
678.0252834680878
 30
0.0
 40
165.00657732174
100
AcDbArc
 50
22.88412727440729
 51
57.33510064221653
  0
LINE
  5
1EE
330
1F
100
AcDbEntity
  8
vectors
100
AcDbLine
 10
272.4819078615017
 20
742.1911829528998
 30
0.0
 11
279.3390806703242
 21
757.7627454552364
 31
0.0
  0
ARC
  5
1EF
330
1F
100
AcDbEntity
  8
vectors
100
AcDbCircle
 10
86.52095760403311
 20
657.5026394364748
 30
0.0
 40
217.3267527059213
100
AcDbArc
 50
27.47318772604633
 51
55.3309872428669
  0
ARC
  5
1F3
330
1F
100
AcDbEntity
  8
vectors
100
AcDbCircle
 10
383.9239234703637
 20
740.4693028093344
 30
0.0
 40
53.53470228583155
100
AcDbArc
 50
359.7494005337702
 51
88.79040626701593
  0
ARC
  5
1F4
330
1F
100
AcDbEntity
  8
vectors
100
AcDbCircle
 10
390.097994125569
 20
708.0473401778664
 30
0.0
 40
86.09261930810275
100
AcDbArc
 50
93.35874724369057
 51
169.6737136257622
  0
ARC
  5
1F5
330
1F
100
AcDbEntity
  8
vectors
100
AcDbCircle
 10
451.6006277258685
 20
743.7692476386999
 30
0.0
 40
147.6019589757581
100
AcDbArc
 50
187.9009454168302
 51
230.8954910196361
  0
ARC
  5
1F6
330
1F
100
AcDbEntity
  8
vectors
100
AcDbCircle
 10
1071.6694896559
 20
664.0724840229746
 30
0.0
 40
714.0174562104272
100
AcDbArc
 50
175.4522233555807
 51
182.7969705233836
  0
ARC
  5
1F7
330
1F
100
AcDbEntity
  8
vectors
100
AcDbCircle
 10
397.0047543322928
 20
719.2716171106935
 30
0.0
 40
37.1316746446838
100
AcDbArc
 50
94.42885173519181
 51
177.8151904895647
  0
ARC
  5
1F9
330
1F
100
AcDbEntity
  8
vectors
100
AcDbCircle
 10
399.7864765521752
 20
724.98992497683
 30
0.0
 40
31.80814305181842
100
AcDbArc
 50
58.81111509405268
 51
100.2298960677792
  0
ARC
  5
1FA
330
1F
100
AcDbEntity
  8
vectors
100
AcDbCircle
 10
407.6195416708237
 20
739.4869109313082
 30
0.0
 40
15.37121641321893
100
AcDbArc
 50
321.5715433864457
 51
55.80347727654057
  0
ARC
  5
1FB
330
1F
100
AcDbEntity
  8
vectors
100
AcDbCircle
 10
407.5480365193556
 20
739.5690320798904
 30
0.0
 40
15.47828657201764
100
AcDbArc
 50
275.1722895476941
 51
321.4979191273515
  0
ARC
  5
1FC
330
1F
100
AcDbEntity
  8
vectors
100
AcDbCircle
 10
407.3773151735942
 20
714.8697280167194
 30
0.0
 40
9.415207845769113
100
AcDbArc
 50
80.4250524050326
 51
162.5411555332189
  0
ARC
  5
1FD
330
1F
100
AcDbEntity
  8
vectors
100
AcDbCircle
 10
415.0535253392876
 20
708.7850569512137
 30
0.0
 40
18.89064242019443
100
AcDbArc
 50
151.859726460174
 51
227.4316663192209
  0
ARC
  5
1FE
330
1F
100
AcDbEntity
  8
vectors
100
AcDbCircle
 10
415.2842280652737
 20
710.2796145555904
 30
0.0
 40
20.16495397165986
100
AcDbArc
 50
229.8222686613454
 51
306.231135000679
  0
ARC
  5
1FF
330
1F
100
AcDbEntity
  8
vectors
100
AcDbCircle
 10
418.689962519701
 20
710.6962067131446
 30
0.0
 40
18.7288210274846
100
AcDbArc
 50
297.0341185542269
 51
353.6187920086392
  0
ARC
  5
200
330
1F
100
AcDbEntity
  8
vectors
100
AcDbCircle
 10
442.4893164166673
 20
724.3997896422215
 30
0.0
 40
16.61540768720411
100
AcDbArc
 50
107.6260627080585
 51
251.8109016069398
  0
ARC
  5
201
330
1F
100
AcDbEntity
  8
vectors
100
AcDbCircle
 10
421.3062456373095
 20
722.7819181145634
 30
0.0
 40
136.1932613210462
100
AcDbArc
 50
196.1926799729216
 51
241.3601875933971
  0
LINE
  5
202
330
1F
100
AcDbEntity
  8
vectors
100
AcDbLine
 10
356.0285682336702
 20
603.2518831356965
 30
0.0
 11
357.6744866167796
 21
618.0528609701859
 31
0.0
  0
ARC
  5
203
330
1F
100
AcDbEntity
  8
vectors
100
AcDbCircle
 10
450.194156765808
 20
744.4246961240702
 30
0.0
 40
156.6196989035719
100
AcDbArc
 50
194.2914779105928
 51
233.7913006849644
  0
ARC
  5
204
330
1F
100
AcDbEntity
  8
vectors
100
AcDbCircle
 10
1609.776822057913
 20
199.1911418460577
 30
0.0
 40
1405.797746357541
100
AcDbArc
 50
158.8786572899991
 51
159.7916899829883
  0
ARC
  5
205
330
1F
100
AcDbEntity
  8
vectors
100
AcDbCircle
 10
366.4531647784593
 20
721.0776538994476
 30
0.0
 40
92.73725713511762
100
AcDbArc
 50
272.5673667918607
 51
353.2351855270368
  0
ARC
  5
206
330
1F
100
AcDbEntity
  8
vectors
100
AcDbCircle
 10
453.2641761768123
 20
624.1824992579599
 30
0.0
 40
86.13326993718974
100
AcDbArc
 50
86.48513709397198
 51
94.03512131823914
  0
ARC
  5
207
330
1F
100
AcDbEntity
  8
vectors
100
AcDbCircle
 10
415.2584920972887
 20
710.860886794905
 30
0.0
 40
31.95366931598928
100
AcDbArc
 50
254.4735548132427
 51
358.6395753978984
  0
ARC
  5
208
330
1F
100
AcDbEntity
  8
vectors
100
AcDbCircle
 10
412.2255128829781
 20
705.9482595474685
 30
0.0
 40
26.45730678748166
100
AcDbArc
 50
176.5365380287358
 51
257.9563918282835
  0
ARC
  5
209
330
1F
100
AcDbEntity
  8
vectors
100
AcDbCircle
 10
404.8863915650349
 20
712.8280753396071
 30
0.0
 40
19.7877141154355
100
AcDbArc
 50
97.09570263214082
 51
195.4802899624641
  0
ARC
  5
20A
330
1F
100
AcDbEntity
  8
vectors
100
AcDbCircle
 10
403.8001409205403
 20
741.8380642270039
 30
0.0
 40
9.471691412334067
100
AcDbArc
 50
261.7564214226327
 51
336.1053277163102
  0
ARC
  5
20B
330
1F
100
AcDbEntity
  8
vectors
100
AcDbCircle
 10
405.9632790723091
 20
739.2770809331949
 30
0.0
 40
6.620791780598481
100
AcDbArc
 50
348.8917127011218
 51
74.20247957915782
  0
ARC
  5
20C
330
1F
100
AcDbEntity
  8
vectors
100
AcDbCircle
 10
401.0816254944217
 20
719.1268211123339
 30
0.0
 40
27.35031208379723
100
AcDbArc
 50
75.85432931960195
 51
139.4003580983047
  0
ARC
  5
20D
330
1F
100
AcDbEntity
  8
vectors
100
AcDbCircle
 10
405.4573167644051
 20
709.0639794839854
 30
0.0
 40
37.5285739975996
100
AcDbArc
 50
132.0628801026328
 51
175.340510546954
  0
ARC
  5
20E
330
1F
100
AcDbEntity
  8
vectors
100
AcDbCircle
 10
-1470.933429311587
 20
614.0954153844285
 30
0.0
 40
1841.596484323207
100
AcDbArc
 50
0.4460906755916594
 51
3.050952876748927
  0
ARC
  5
20F
330
1F
100
AcDbEntity
  8
vectors
100
AcDbCircle
 10
367.6083742211781
 20
710.8121478293411
 30
0.0
 40
91.43868341756133
100
AcDbArc
 50
270.2453883883046
 51
297.8047435202521
  0
ARC
  5
210
330
1F
100
AcDbEntity
  8
vectors
100
AcDbCircle
 10
236.6252168536171
 20
614.6148061548212
 30
0.0
 40
131.4609591839143
100
AcDbArc
 50
308.2741090212928
 51
2.074826585305951
  0
ARC
  5
211
330
1F
100
AcDbEntity
  8
vectors
100
AcDbCircle
 10
258.5626897674672
 20
652.8210144346339
 30
0.0
 40
153.4154356118415
100
AcDbArc
 50
292.8169241281592
 51
351.4191777776622
  0
ARC
  5
212
330
1F
100
AcDbEntity
  8
vectors
100
AcDbCircle
 10
468.8343812432942
 20
794.0492483797226
 30
0.0
 40
22.62007131847896
100
AcDbArc
 50
19.97491053879311
 51
157.4233418508646
  0
ARC
  5
213
330
1F
100
AcDbEntity
  8
vectors
100
AcDbCircle
 10
342.8548944264829
 20
721.0026283317841
 30
0.0
 40
133.1332056109583
100
AcDbArc
 50
17.96158558959525
 51
37.87226712646501
  0
ARC
  5
214
330
1F
100
AcDbEntity
  8
vectors
100
AcDbCircle
 10
612.2523081242916
 20
713.2387677379173
 30
0.0
 40
150.8696559445144
100
AcDbArc
 50
144.0662857900793
 51
161.1200399171785
  0
ARC
  5
215
330
1F
100
AcDbEntity
  8
vectors
100
AcDbCircle
 10
382.4544805633133
 20
713.0698550127703
 30
0.0
 40
86.68838997751175
100
AcDbArc
 50
303.2420666868042
 51
351.4762889175313
  0
ARC
  5
216
330
1F
100
AcDbEntity
  8
vectors
100
AcDbCircle
 10
18070.7716530251
 20
5247.990185107519
 30
0.0
 40
18232.55472203469
100
AcDbArc
 50
194.6375259228467
 51
195.0831314028696
  0
ARC
  5
217
330
1F
100
AcDbEntity
  8
vectors
100
AcDbCircle
 10
-959.683041787907
 20
987.9288089563042
 30
0.0
 40
1506.05686886697
100
AcDbArc
 50
341.2374462893505
 51
346.6044685124721
  0
ARC
  5
218
330
1F
100
AcDbEntity
  8
vectors
100
AcDbCircle
 10
562.3055400313737
 20
715.5346826715645
 30
0.0
 40
95.35783158175119
100
AcDbArc
 50
189.2412367324484
 51
233.3619246849749
  0
ARC
  5
219
330
1F
100
AcDbEntity
  8
vectors
100
AcDbCircle
 10
979.2555686954701
 20
476.5673274459971
 30
0.0
 40
578.5188835014984
100
AcDbArc
 50
164.7656537881976
 51
167.9585895663604
  0
ARC
  5
21A
330
1F
100
AcDbEntity
  8
vectors
100
AcDbCircle
 10
439.0035151413003
 20
718.4792645964442
 30
0.0
 40
123.8829416427047
100
AcDbArc
 50
258.1035247329426
 51
266.0950970482093
  0
ARC
  5
21B
330
1F
100
AcDbEntity
  8
vectors
100
AcDbCircle
 10
344.4753054068116
 20
588.8015670844793
 30
0.0
 40
86.30629000341896
100
AcDbArc
 50
4.041216794790047
 51
27.44760578898712
  0
ARC
  5
21E
330
1F
100
AcDbEntity
  8
vectors
100
AcDbCircle
 10
361.5716711173857
 20
595.7586899082152
 30
0.0
 40
46.15316305316635
100
AcDbArc
 50
334.2750744639649
 51
350.7481460715141
  0
ARC
  5
21F
330
1F
100
AcDbEntity
  8
vectors
100
AcDbCircle
 10
439.6276199883319
 20
666.6932823371691
 30
0.0
 40
98.00842245095017
100
AcDbArc
 50
248.1496653262401
 51
268.4904446168081
  0
ARC
  5
220
330
1F
100
AcDbEntity
  8
vectors
100
AcDbCircle
 10
658.419701701652
 20
631.5539529718583
 30
0.0
 40
230.118854762233
100
AcDbArc
 50
192.2487315243724
 51
195.8461318483328
  0
ARC
  5
221
330
1F
100
AcDbEntity
  8
vectors
100
AcDbCircle
 10
495.1669972459231
 20
938.1766892575127
 30
0.0
 40
360.7468567924032
100
AcDbArc
 50
255.8739260507909
 51
260.1637109139971
  0
ARC
  5
229
330
1F
100
AcDbEntity
  8
vectors
100
AcDbCircle
 10
324.7227995888238
 20
598.9089391746546
 30
0.0
 40
80.11526521620755
100
AcDbArc
 50
312.5974669748395
 51
337.2389821294939
  0
ARC
  5
22A
330
1F
100
AcDbEntity
  8
vectors
100
AcDbCircle
 10
388.9394983387862
 20
534.0901865571652
 30
0.0
 40
11.57469478820574
100
AcDbArc
 50
149.6771292570388
 51
192.4784744615546
  0
ARC
  5
22B
330
1F
100
AcDbEntity
  8
vectors
100
AcDbCircle
 10
392.7844166270994
 20
536.0347346446238
 30
0.0
 40
15.78510919438597
100
AcDbArc
 50
196.3573785614637
 51
234.1225876338834
  0
ARC
  5
22C
330
1F
100
AcDbEntity
  8
vectors
100
AcDbCircle
 10
387.9151269689368
 20
530.0389090798599
 30
0.0
 40
8.084721135679902
100
AcDbArc
 50
237.1826247592509
 51
319.8491369796383
  0
ARC
  5
22D
330
1F
100
AcDbEntity
  8
vectors
100
AcDbCircle
 10
260.7310970237157
 20
598.7488397462275
 30
0.0
 40
152.4809871036757
100
AcDbArc
 50
331.000546072792
 51
346.2127262635008
  0
ARC
  5
238
330
1F
100
AcDbEntity
  8
vectors
100
AcDbCircle
 10
415.5916925854344
 20
517.4645132423188
 30
0.0
 40
11.93631504166641
100
AcDbArc
 50
172.0307109665051
 51
349.5245556112437
  0
ARC
  5
239
330
1F
100
AcDbEntity
  8
vectors
100
AcDbCircle
 10
-173.9339974315616
 20
607.471546685154
 30
0.0
 40
608.2876866840264
100
AcDbArc
 50
351.2840741743202
 51
355.3311102770444
  0
ARC
  5
23B
330
1F
100
AcDbEntity
  8
vectors
100
AcDbCircle
 10
-22455.22957324283
 20
7792.171496012329
 30
0.0
 40
23988.14661922636
100
AcDbArc
 50
342.3504815526122
 51
342.4551759809258
  0
ARC
  5
23F
330
1F
100
AcDbEntity
  8
vectors
100
AcDbCircle
 10
446.0689648468928
 20
506.9922059370637
 30
0.0
 40
9.36446308255736
100
AcDbArc
 50
174.2007463322448
 51
30.63117923087442
  0
ARC
  5
240
330
1F
100
AcDbEntity
  8
vectors
100
AcDbCircle
 10
608.4127111761785
 20
574.0252582795769
 30
0.0
 40
166.3751287120127
100
AcDbArc
 50
186.8666998555841
 51
201.9764340783968
  0
ARC
  5
242
330
1F
100
AcDbEntity
  8
vectors
100
AcDbCircle
 10
771.5113188440234
 20
516.8874121841354
 30
0.0
 40
334.8784836992281
100
AcDbArc
 50
173.7252659945542
 51
181.5313028707295
  0
LINE
  5
243
330
1F
100
AcDbEntity
  8
vectors
100
AcDbLine
 10
443.3285872079154
 20
719.0466451989768
 30
0.0
 11
493.2255965578047
 21
719.0466451989768
 31
0.0
  0
ARC
  5
244
330
1F
100
AcDbEntity
  8
vectors
100
AcDbCircle
 10
492.5730474123935
 20
724.6110938247087
 30
0.0
 40
5.602580556813632
100
AcDbArc
 50
276.6885904638533
 51
91.29984168901311
  0
LINE
  5
245
330
1F
100
AcDbEntity
  8
vectors
100
AcDbLine
 10
492.4459552746475
 20
730.2122326807013
 30
0.0
 11
443.0687056302958
 21
730.2122326807014
 31
0.0
  0
ARC
  5
246
330
1F
100
AcDbEntity
  8
vectors
100
AcDbCircle
 10
443.15792609125
 20
724.6284911649851
 30
0.0
 40
5.584454279962035
100
AcDbArc
 50
90.9154293507572
 51
271.7512336672709
  0
ARC
  5
250
330
1F
100
AcDbEntity
  8
vectors
100
AcDbCircle
 10
378.2474529914435
 20
737.3487373727442
 30
0.0
 40
91.80327549290867
100
AcDbArc
 50
57.73267599340656
 51
92.53953424587967
  0
ARC
  5
251
330
1F
100
AcDbEntity
  8
vectors
100
AcDbCircle
 10
374.1197710514855
 20
839.213027028069
 30
0.0
 40
10.15135271494322
100
AcDbArc
 50
89.66137125019528
 51
270.3386287498048
  0
ARC
  5
253
330
1F
100
AcDbEntity
  8
vectors
100
AcDbCircle
 10
289.1893229220428
 20
613.8361490729288
 30
0.0
 40
250.3933695747818
100
AcDbArc
 50
55.73635601737844
 51
70.15799002472714
  0
ARC
  5
255
330
1F
100
AcDbEntity
  8
vectors
100
AcDbCircle
 10
215.8506150132105
 20
581.7553066454022
 30
0.0
 40
323.6428890047947
100
AcDbArc
 50
46.83097009359676
 51
60.62910719793174
  0
ARC
  5
256
330
1F
100
AcDbEntity
  8
vectors
100
AcDbCircle
 10
439.91332899703
 20
819.5693725958179
 30
0.0
 40
3.179013676165952
100
AcDbArc
 50
213.8078665373152
 51
59.82538901744707
  0
ARC
  5
257
330
1F
100
AcDbEntity
  8
vectors
100
AcDbCircle
 10
308.8495801720586
 20
749.7082897369992
 30
0.0
 40
151.2323559975503
100
AcDbArc
 50
28.69309019195412
 51
59.6954077579943
  0
ARC
  5
258
330
1F
100
AcDbEntity
  8
vectors
100
AcDbCircle
 10
380.0515140807093
 20
871.9221857561638
 30
0.0
 40
9.792060291760087
100
AcDbArc
 50
58.54737338113611
 51
236.0634880126808
  0
ARC
  5
259
330
1F
100
AcDbEntity
  8
vectors
100
AcDbCircle
 10
427.4811931736675
 20
818.4896834617479
 30
0.0
 40
3.522225154399587
100
AcDbArc
 50
266.3748308950695
 51
40.4570531701656
  0
ARC
  5
25A
330
1F
100
AcDbEntity
  8
vectors
100
AcDbCircle
 10
297.5664813086898
 20
756.6960931870628
 30
0.0
 40
162.0781424174716
100
AcDbArc
 50
24.35869011512786
 51
56.45043518574434
  0
ARC
  5
25B
330
1F
100
AcDbEntity
  8
vectors
100
AcDbCircle
 10
447.2792147677539
 20
825.925873459632
 30
0.0
 40
3.150157814661456
100
AcDbArc
 50
229.098926781447
 51
26.89311976549032
  0
ARC
  5
25C
330
1F
100
AcDbEntity
  8
vectors
100
AcDbCircle
 10
257.3216194986165
 20
768.7824623892321
 30
0.0
 40
201.468088003842
100
AcDbArc
 50
16.90032674955687
 51
43.0964164812719
  0
ARC
  5
25D
330
1F
100
AcDbEntity
  8
vectors
100
AcDbCircle
 10
395.2556112563763
 20
899.7297320602026
 30
0.0
 40
11.36498819782211
100
AcDbArc
 50
36.13233117740396
 51
224.4334926299242
  0
ARC
  5
25E
330
1F
100
AcDbEntity
  8
vectors
100
AcDbCircle
 10
185.5835967328939
 20
754.7127386360653
 30
0.0
 40
279.8456796176044
100
AcDbArc
 50
15.04474872078758
 51
34.33280186072801
  0
ARC
  5
25F
330
1F
100
AcDbEntity
  8
vectors
100
AcDbCircle
 10
457.5830201532457
 20
828.1951108227653
 30
0.0
 40
1.938287248285011
100
AcDbArc
 50
205.7436791122738
 51
38.16753799926169
  0
ARC
  5
260
330
1F
100
AcDbEntity
  8
vectors
100
AcDbCircle
 10
56.68830510190034
 20
796.8658648147254
 30
0.0
 40
403.7310317505834
100
AcDbArc
 50
4.621106089605055
 51
19.84914444232275
  0
ARC
  5
261
330
1F
100
AcDbEntity
  8
vectors
100
AcDbCircle
 10
426.0595227275156
 20
925.2234311483068
 30
0.0
 40
13.5567801907655
100
AcDbArc
 50
40.07222190503921
 51
143.39631373667
  0
ARC
  5
262
330
1F
100
AcDbEntity
  8
vectors
100
AcDbCircle
 10
430.8171661329015
 20
923.999926106822
 30
0.0
 40
18.20040845677649
100
AcDbArc
 50
149.2450481046911
 51
219.0026100738065
  0
ARC
  5
265
330
1F
100
AcDbEntity
  8
vectors
100
AcDbCircle
 10
-240.5623868093604
 20
790.891298370607
 30
0.0
 40
707.5384195444733
100
AcDbArc
 50
2.908072705611213
 51
11.85156181465317
  0
ARC
  5
266
330
1F
100
AcDbEntity
  8
vectors
100
AcDbCircle
 10
468.6849796810603
 20
833.3917791269353
 30
0.0
 40
7.105207258382722
100
AcDbArc
 50
248.3609641494875
 51
297.4079403009771
  0
ARC
  5
267
330
1F
100
AcDbEntity
  8
vectors
100
AcDbCircle
 10
1290.718502008747
 20
755.8282362075659
 30
0.0
 40
821.8576386295836
100
AcDbArc
 50
167.2470494462072
 51
175.0261535166405
  0
ARC
  5
268
330
1F
100
AcDbEntity
  8
vectors
100
AcDbCircle
 10
470.5779168263285
 20
934.4688585332338
 30
0.0
 40
18.7648397903092
100
AcDbArc
 50
8.527508020952279
 51
174.6964740394319
  0
ARC
  5
269
330
1F
100
AcDbEntity
  8
vectors
100
AcDbCircle
 10
701.6975384711161
 20
820.640302331124
 30
0.0
 40
224.1497410431132
100
AcDbArc
 50
149.7381515023108
 51
178.1719321520625
  0
ARC
  5
26A
330
1F
100
AcDbEntity
  8
vectors
100
AcDbCircle
 10
480.7000641699358
 20
828.6716305826891
 30
0.0
 40
3.163304959985427
100
AcDbArc
 50
196.1685067533422
 51
25.01532524253401
  0
ARC
  5
26B
330
1F
100
AcDbEntity
  8
vectors
100
AcDbCircle
 10
682.7777510246995
 20
784.9830760103633
 30
0.0
 40
204.2362037768967
100
AcDbArc
 50
139.8058653324296
 51
167.2638675168348
  0
ARC
  5
26C
330
1F
100
AcDbEntity
  8
vectors
100
AcDbCircle
 10
516.0774165639824
 20
923.6930430383885
 30
0.0
 40
12.72521912693846
100
AcDbArc
 50
327.1638182990098
 51
128.8656408704683
  0
ARC
  5
26D
330
1F
100
AcDbEntity
  8
vectors
100
AcDbCircle
 10
723.6632824725362
 20
742.2037502478892
 30
0.0
 40
250.7561968779633
100
AcDbArc
 50
138.7599114911435
 51
160.5202192768336
  0
ARC
  5
26E
330
1F
100
AcDbEntity
  8
vectors
100
AcDbCircle
 10
489.284621843078
 20
824.7115284419571
 30
0.0
 40
2.309859318457865
100
AcDbArc
 50
151.1955427978739
 51
343.8302546109781
  0
ARC
  5
26F
330
1F
100
AcDbEntity
  8
vectors
100
AcDbCircle
 10
661.4002860908445
 20
733.6947827238197
 30
0.0
 40
192.4380919298501
100
AcDbArc
 50
125.091654160194
 51
151.9901277711026
  0
ARC
  5
270
330
1F
100
AcDbEntity
  8
vectors
100
AcDbCircle
 10
542.938170304973
 20
899.3300498702961
 30
0.0
 40
11.32205914973013
100
AcDbArc
 50
313.7695152282822
 51
133.7683929156871
  0
ARC
  5
271
330
1F
100
AcDbEntity
  8
vectors
100
AcDbCircle
 10
653.696629754442
 20
721.4945158114731
 30
0.0
 40
185.6364489703295
100
AcDbArc
 50
123.6729122137123
 51
148.0245042130926
  0
ARC
  5
272
330
1F
100
AcDbEntity
  8
vectors
100
AcDbCircle
 10
497.5243724929152
 20
818.6372285058979
 30
0.0
 40
1.742651339578809
100
AcDbArc
 50
138.1670851329337
 51
16.27182527400077
  0
ARC
  5
273
330
1F
100
AcDbEntity
  8
vectors
100
AcDbCircle
 10
599.2761089807343
 20
733.7098993693756
 30
0.0
 40
131.5735947387042
100
AcDbArc
 50
106.6905157031676
 51
139.519813647175
  0
ARC
  5
274
330
1F
100
AcDbEntity
  8
vectors
100
AcDbCircle
 10
557.774882846362
 20
868.9481224872599
 30
0.0
 40
9.9282678501499
100
AcDbArc
 50
291.9616425200277
 51
134.8714395288815
  0
ARC
  5
276
330
1F
100
AcDbEntity
  8
vectors
100
AcDbCircle
 10
565.9777212317952
 20
773.8469580726747
 30
0.0
 40
72.52145638375515
100
AcDbArc
 50
88.27546889501224
 51
139.1586230834017
  0
ARC
  5
278
330
1F
100
AcDbEntity
  8
vectors
100
AcDbCircle
 10
512.4951846853194
 20
820.2264154132361
 30
0.0
 40
1.733625606432274
100
AcDbArc
 50
142.8397708940325
 51
308.3341084457765
  0
ARC
  5
279
330
1F
100
AcDbEntity
  8
vectors
100
AcDbCircle
 10
566.2144235846183
 20
701.2006093333551
 30
0.0
 40
128.9056237830473
100
AcDbArc
 50
88.44049026838561
 51
114.1038329409667
  0
ARC
  5
27A
330
1F
100
AcDbEntity
  8
vectors
100
AcDbCircle
 10
563.7431877564693
 20
837.6980543586913
 30
0.0
 40
9.701370671028936
100
AcDbArc
 50
308.0500101335311
 51
62.91592922658743
  0
ARC
  5
27B
330
1F
100
AcDbEntity
  8
vectors
100
AcDbCircle
 10
576.1414545807232
 20
729.5204880569297
 30
0.0
 40
100.0886699439382
100
AcDbArc
 50
191.667816863707
 51
263.426050954173
  0
ARC
  5
27C
330
1F
100
AcDbEntity
  8
vectors
100
AcDbCircle
 10
-1161.794146374627
 20
730.57249922961
 30
0.0
 40
1729.398520741195
100
AcDbArc
 50
356.6690889812992
 51
359.3503375144714
  0
ARC
  5
27D
330
1F
100
AcDbEntity
  8
vectors
100
AcDbCircle
 10
539.1839216685824
 20
713.6431191124804
 30
0.0
 40
28.4357998335998
100
AcDbArc
 50
354.593177438649
 51
82.77280646520187
  0
ARC
  5
27E
330
1F
100
AcDbEntity
  8
vectors
100
AcDbCircle
 10
530.9486078901856
 20
659.0010804920169
 30
0.0
 40
83.68977996372857
100
AcDbArc
 50
81.88571245837334
 51
89.27865910957242
  0
ARC
  5
27F
330
1F
100
AcDbEntity
  8
vectors
100
AcDbCircle
 10
531.9445448898448
 20
738.4800417052789
 30
0.0
 40
4.204581849295554
100
AcDbArc
 50
89.2140996094943
 51
243.66838303767
  0
ARC
  5
280
330
1F
100
AcDbEntity
  8
vectors
100
AcDbCircle
 10
611.3526149468693
 20
1049.443083231355
 30
0.0
 40
325.0556022183762
100
AcDbArc
 50
255.5208169402801
 51
257.2469505280389
  0
ARC
  5
281
330
1F
100
AcDbEntity
  8
vectors
100
AcDbCircle
 10
530.4657016856057
 20
711.9172036789031
 30
0.0
 40
22.43178239913602
100
AcDbArc
 50
349.2082976097909
 51
65.97966098314626
  0
ARC
  5
282
330
1F
100
AcDbEntity
  8
vectors
100
AcDbCircle
 10
523.7241861806049
 20
705.2068594440235
 30
0.0
 40
28.8858569265602
100
AcDbArc
 50
255.1265461153369
 51
4.985405660110032
  0
ARC
  5
283
330
1F
100
AcDbEntity
  8
vectors
100
AcDbCircle
 10
524.6992041043061
 20
711.6590811531456
 30
0.0
 40
35.37937234050946
100
AcDbArc
 50
183.5294741375779
 51
256.2826637813616
  0
LINE
  5
284
330
1F
100
AcDbEntity
  8
vectors
100
AcDbLine
 10
489.3869371736191
 20
709.4810564920556
 30
0.0
 11
478.1209606520665
 21
709.2788324643461
 31
0.0
  0
ARC
  5
286
330
1F
100
AcDbEntity
  8
vectors
100
AcDbCircle
 10
523.7574561710236
 20
713.6315359394687
 30
0.0
 40
23.05718234275518
100
AcDbArc
 50
192.3849802391998
 51
300.545297209973
  0
ARC
  5
287
330
1F
100
AcDbEntity
  8
vectors
100
AcDbCircle
 10
521.2720750014415
 20
706.9217323195644
 30
0.0
 40
19.35460021355737
100
AcDbArc
 50
317.2106332326454
 51
44.66931197832956
  0
ARC
  5
288
330
1F
100
AcDbEntity
  8
vectors
100
AcDbCircle
 10
534.5162486867541
 20
744.4078660815765
 30
0.0
 40
23.88524973973442
100
AcDbArc
 50
217.8625149069723
 51
271.2483245858499
  0
ARC
  5
289
330
1F
100
AcDbEntity
  8
vectors
100
AcDbCircle
 10
532.9860604614321
 20
738.7620343992938
 30
0.0
 40
19.53141824960904
100
AcDbArc
 50
109.5469217538151
 51
207.4853982633703
  0
ARC
  5
28A
330
1F
100
AcDbEntity
  8
vectors
100
AcDbCircle
 10
536.7782560698699
 20
726.339499575889
 30
0.0
 40
32.51202476062483
100
AcDbArc
 50
50.18942896389503
 51
108.520025656985
  0
ARC
  5
28B
330
1F
100
AcDbEntity
  8
vectors
100
AcDbCircle
 10
526.5060514854662
 20
706.7761251516766
 30
0.0
 40
54.31482971011046
100
AcDbArc
 50
9.323640796869902
 51
55.08447475113261
  0
ARC
  5
28C
330
1F
100
AcDbEntity
  8
vectors
100
AcDbCircle
 10
-403.8705147989222
 20
721.2412831881878
 30
0.0
 40
983.9901507703393
100
AcDbArc
 50
354.7912277833303
 51
359.6701040306427
  0
ARC
  5
28D
330
1F
100
AcDbEntity
  8
vectors
100
AcDbCircle
 10
478.446125486645
 20
751.55139434219
 30
0.0
 40
154.4081500107719
100
AcDbArc
 50
309.2094136418195
 51
349.5117103092368
  0
ARC
  5
28E
330
1F
100
AcDbEntity
  8
vectors
100
AcDbCircle
 10
544.2754677952621
 20
705.0662409255858
 30
0.0
 40
87.94064910393162
100
AcDbArc
 50
12.06238235283394
 51
72.26009217107547
  0
ARC
  5
28F
330
1F
100
AcDbEntity
  8
vectors
100
AcDbCircle
 10
551.8013330571066
 20
742.6732150226418
 30
0.0
 40
50.0131940644179
100
AcDbArc
 50
67.33854984162938
 51
149.5068892479673
  0
ARC
  5
290
330
1F
100
AcDbEntity
  8
vectors
100
AcDbCircle
 10
556.1788435999826
 20
734.9973972035451
 30
0.0
 40
57.84726559623178
100
AcDbArc
 50
145.1517000712593
 51
174.1108363965815
  0
ARC
  5
291
330
1F
100
AcDbEntity
  8
vectors
100
AcDbCircle
 10
492.6386755472205
 20
724.2210778958402
 30
0.0
 40
17.75554894829977
100
AcDbArc
 50
298.9635234678697
 51
70.25579567478733
  0
ARC
  5
29B
330
1F
100
AcDbEntity
  8
vectors
100
AcDbCircle
 10
554.4805289315924
 20
737.4602042261092
 30
0.0
 40
68.04680432432019
100
AcDbArc
 50
89.29133580784872
 51
178.0823967904016
  0
ARC
  5
29C
330
1F
100
AcDbEntity
  8
vectors
100
AcDbCircle
 10
549.8775826617185
 20
723.652615957057
 30
0.0
 40
82.03007256142262
100
AcDbArc
 50
32.61011579139396
 51
86.1943225723275
  0
ARC
  5
29E
330
1F
100
AcDbEntity
  8
vectors
100
AcDbCircle
 10
474.381589810947
 20
660.6955600499977
 30
0.0
 40
179.9774128472666
100
AcDbArc
 50
18.60103450999898
 51
36.54357398044796
  0
ARC
  5
29F
330
1F
100
AcDbEntity
  8
vectors
100
AcDbCircle
 10
878.155187240787
 20
792.5453316625215
 30
0.0
 40
244.791085278641
100
AcDbArc
 50
197.7040877270126
 51
218.4803591953436
  0
ARC
  5
2A0
330
1F
100
AcDbEntity
  8
vectors
100
AcDbCircle
 10
749.6999623638965
 20
706.0507565036864
 30
0.0
 40
91.23485063230237
100
AcDbArc
 50
226.1783112025346
 51
279.5332476932389
  0
ARC
  5
2A1
330
1F
100
AcDbEntity
  8
vectors
100
AcDbCircle
 10
756.1917421122987
 20
681.2561965267009
 30
0.0
 40
65.7476339018268
100
AcDbArc
 50
277.5322936084693
 51
335.0875761374471
  0
ARC
  5
2A2
330
1F
100
AcDbEntity
  8
vectors
100
AcDbCircle
 10
667.5273117913639
 20
704.8297240448066
 30
0.0
 40
156.9066670874837
100
AcDbArc
 50
340.9286333778878
 51
355.355729857687
  0
LINE
  5
2A3
330
1F
100
AcDbEntity
  8
vectors
100
AcDbLine
 10
823.9187937941915
 20
692.1251369416495
 30
0.0
 11
810.6935986759673
 21
692.1251369416495
 31
0.0
  0
ARC
  5
2A4
330
1F
100
AcDbEntity
  8
vectors
100
AcDbCircle
 10
749.4574791160196
 20
690.1817514311055
 30
0.0
 40
61.26694937731743
100
AcDbArc
 50
298.9516659904392
 51
1.817725046266893
  0
ARC
  5
2A5
330
1F
100
AcDbEntity
  8
vectors
100
AcDbCircle
 10
747.9989088000698
 20
697.3568823827606
 30
0.0
 40
68.28679597912634
100
AcDbArc
 50
235.3875538481068
 51
297.1079742141252
  0
ARC
  5
2A6
330
1F
100
AcDbEntity
  8
vectors
100
AcDbCircle
 10
795.9323429087836
 20
745.9432423234946
 30
0.0
 40
136.0185924717967
100
AcDbArc
 50
194.7675794011406
 51
230.3888687360284
  0
ARC
  5
2A7
330
1F
100
AcDbEntity
  8
vectors
100
AcDbCircle
 10
456.9524518374594
 20
645.8212370772163
 30
0.0
 40
217.5341917217331
100
AcDbArc
 50
17.51028966322115
 51
42.57971745835281
  0
ARC
  5
2A8
330
1F
100
AcDbEntity
  8
vectors
100
AcDbCircle
 10
554.7839651139632
 20
728.4329958583407
 30
0.0
 40
89.7613083344178
100
AcDbArc
 50
46.00581970477959
 51
109.007417361593
  0
ARC
  5
2A9
330
1F
100
AcDbEntity
  8
vectors
100
AcDbCircle
 10
553.1293557749882
 20
741.7897241446586
 30
0.0
 40
76.64458927042597
100
AcDbArc
 50
111.0903798864454
 51
181.2090681300285
  0
LINE
  5
2AA
330
1F
100
AcDbEntity
  8
vectors
100
AcDbLine
 10
476.5018309300753
 20
740.1724732134319
 30
0.0
 11
486.4718320170495
 21
739.7372028510919
 31
0.0
  0
ARC
  5
2AB
330
1F
100
AcDbEntity
  8
vectors
100
AcDbCircle
 10
923.1717837444515
 20
502.5000466801587
 30
0.0
 40
427.9299399809241
100
AcDbArc
 50
163.0215908529797
 51
167.6603968584489
  0
ARC
  5
2AC
330
1F
100
AcDbEntity
  8
vectors
100
AcDbCircle
 10
500.6637710763558
 20
652.4347026037681
 30
0.0
 40
58.65372398666065
100
AcDbArc
 50
274.3649395332988
 51
291.223062295886
  0
ARC
  5
2AD
330
1F
100
AcDbEntity
  8
vectors
100
AcDbCircle
 10
385.0274314385504
 20
576.8080376269764
 30
0.0
 40
138.4632039851008
100
AcDbArc
 50
8.702882694458903
 51
21.45796031627278
  0
ARC
  5
2AE
330
1F
100
AcDbEntity
  8
vectors
100
AcDbCircle
 10
506.4336414017994
 20
625.3789668128373
 30
0.0
 40
42.1813360704824
100
AcDbArc
 50
265.2590174651144
 51
297.1890094715746
  0
ARC
  5
2AF
330
1F
100
AcDbEntity
  8
vectors
100
AcDbCircle
 10
483.0883587450897
 20
562.7221232727645
 30
0.0
 40
49.47953032009897
100
AcDbArc
 50
14.26199459897528
 51
30.531742041429
  0
ARC
  5
2B0
330
1F
100
AcDbEntity
  8
vectors
100
AcDbCircle
 10
504.076007749011
 20
629.1283928860849
 30
0.0
 40
60.55296584561465
100
AcDbArc
 50
264.8580880583132
 51
296.4453397155173
  0
ARC
  5
2B1
330
1F
100
AcDbEntity
  8
vectors
100
AcDbCircle
 10
526.422694184709
 20
568.4966333163721
 30
0.0
 40
27.77548954427135
100
AcDbArc
 50
147.6916488669934
 51
179.3347827194996
  0
ARC
  5
2B2
330
1F
100
AcDbEntity
  8
vectors
100
AcDbCircle
 10
1854.151115748043
 20
231.8682679264988
 30
0.0
 40
1400.45400504511
100
AcDbArc
 50
166.8262674720725
 51
168.7358403332535
  0
ARC
  5
2B3
330
1F
100
AcDbEntity
  8
vectors
100
AcDbCircle
 10
487.2316068289749
 20
502.7775593602182
 30
0.0
 40
7.071003015055572
100
AcDbArc
 50
158.032098983542
 51
327.9051849264823
  0
ARC
  5
2B4
330
1F
100
AcDbEntity
  8
vectors
100
AcDbCircle
 10
486.3801611119832
 20
508.4674222197668
 30
0.0
 40
11.6641705039681
100
AcDbArc
 50
305.9135860401735
 51
12.66407580303781
  0
ARC
  5
2B5
330
1F
100
AcDbEntity
  8
vectors
100
AcDbCircle
 10
1268.681967240109
 20
577.3971440868694
 30
0.0
 40
773.7732982291259
100
AcDbArc
 50
181.9521963286147
 51
184.9207500637215
  0
ARC
  5
2B8
330
1F
100
AcDbEntity
  8
vectors
100
AcDbCircle
 10
502.4352235550319
 20
628.5666716988624
 30
0.0
 40
70.75189967848847
100
AcDbArc
 50
270.0575632929252
 51
282.6123982925932
  0
ARC
  5
2B9
330
1F
100
AcDbEntity
  8
vectors
100
AcDbCircle
 10
1644.988587163139
 20
711.6426575989473
 30
0.0
 40
1152.791729092664
100
AcDbArc
 50
187.6683882904833
 51
190.1378493825953
  0
ARC
  5
2BA
330
1F
100
AcDbEntity
  8
vectors
100
AcDbCircle
 10
520.6737395928366
 20
514.9848109390237
 30
0.0
 40
12.20247673136835
100
AcDbArc
 50
210.8271070148589
 51
4.713039140664012
  0
ARC
  5
2BB
330
1F
100
AcDbEntity
  8
vectors
100
AcDbCircle
 10
604.221043330792
 20
564.8374955317015
 30
0.0
 40
86.50030174540361
100
AcDbArc
 50
183.5230477263453
 51
214.3841451411919
  0
ARC
  5
2BD
330
1F
100
AcDbEntity
  8
vectors
100
AcDbCircle
 10
442.9842929956555
 20
654.6975797083256
 30
0.0
 40
97.32339757568059
100
AcDbArc
 50
254.5284138338493
 51
263.718153339036
  0
ARC
  5
2BE
330
1F
100
AcDbEntity
  8
vectors
100
AcDbCircle
 10
3330.692040464726
 20
6000.419027476962
 30
0.0
 40
6173.271986260932
100
AcDbArc
 50
241.6428792705329
 51
241.7506078040882
  0
LINE
  5
2BF
330
1F
100
AcDbEntity
  8
vectors
100
AcDbLine
 10
443.2309916877693
 20
554.133476036869
 30
0.0
 11
438.6390087972179
 21
553.48828715725
 31
0.0
  0
LINE
  5
2C0
330
1F
100
AcDbEntity
  8
vectors
100
AcDbLine
 10
495.3577694154796
 20
551.0380448747708
 30
0.0
 11
490.5521740757929
 21
551.0380448747709
 31
0.0
  0
ARC
  5
2C1
330
1F
100
AcDbEntity
  8
vectors
100
AcDbCircle
 10
778.4829008939555
 20
635.9293909086833
 30
0.0
 40
263.7777938727692
100
AcDbArc
 50
196.5140946181218
 51
204.6292537124058
  0
ARC
  5
2C2
330
1F
100
AcDbEntity
  8
vectors
100
AcDbCircle
 10
546.0752688397719
 20
532.9119385861982
 30
0.0
 40
10.10501734476787
100
AcDbArc
 50
223.1475672166269
 51
345.4302489259426
  0
ARC
  5
2C3
330
1F
100
AcDbEntity
  8
vectors
100
AcDbCircle
 10
549.0136583681628
 20
534.1925786346616
 30
0.0
 40
7.837159409768782
100
AcDbArc
 50
330.806629462643
 51
45.46686826841393
  0
ARC
  5
2C4
330
1F
100
AcDbEntity
  8
vectors
100
AcDbCircle
 10
1423.169399129703
 20
1165.047881483688
 30
0.0
 40
1070.294330824563
100
AcDbArc
 50
214.0793340714636
 51
215.7466701851684
  0
ARC
  5
2C7
330
1F
100
AcDbEntity
  8
vectors
100
AcDbCircle
 10
524.045510547702
 20
581.1467964797929
 30
0.0
 40
20.25522473790057
100
AcDbArc
 50
274.3617343479996
 51
308.6087321171074
  0
ARC
  5
2C8
330
1F
100
AcDbEntity
  8
vectors
100
AcDbCircle
 10
582.9239084907544
 20
727.4329934359302
 30
0.0
 40
113.9406397301864
100
AcDbArc
 50
240.4612894481374
 51
261.3810957689314
  0
ARC
  5
2C9
330
1F
100
AcDbEntity
  8
vectors
100
AcDbCircle
 10
661.6942086726488
 20
636.4247191742199
 30
0.0
 40
135.1885864473125
100
AcDbArc
 50
183.4446383237605
 51
251.1433620102395
  0
ARC
  5
2CA
330
1F
100
AcDbEntity
  8
vectors
100
AcDbCircle
 10
712.9252235515762
 20
621.0071518660348
 30
0.0
 40
147.2084447111425
100
AcDbArc
 50
182.4247820694881
 51
229.8472104558299
  0
ARC
  5
2CB
330
1F
100
AcDbEntity
  8
vectors
100
AcDbCircle
 10
509.0377550765599
 20
724.6955793200363
 30
0.0
 40
141.0625695034571
100
AcDbArc
 50
299.87354038043
 51
345.2635331979805
  0
ARC
  5
2CD
330
1F
100
AcDbEntity
  8
vectors
100
AcDbCircle
 10
717.0616658383851
 20
723.2154597614095
 30
0.0
 40
79.4373756680526
100
AcDbArc
 50
190.122206511401
 51
205.6629640053029
  0
ARC
  5
2CE
330
1F
100
AcDbEntity
  8
vectors
100
AcDbCircle
 10
481.3092474507718
 20
747.3324484459688
 30
0.0
 40
162.087627547431
100
AcDbArc
 50
306.8316845552419
 51
346.4129672083164
  0
LINE
  5
2D0
330
1F
100
AcDbEntity
  8
vectors
100
AcDbLine
 10
578.4753196272184
 20
617.5975132058558
 30
0.0
 11
579.2992361110864
 21
602.3764361013538
 31
0.0
  0
ARC
  5
2D1
330
1F
100
AcDbEntity
  8
vectors
100
AcDbCircle
 10
867.1252029695891
 20
640.9996144868955
 30
0.0
 40
226.9857952974371
100
AcDbArc
 50
127.4212380944758
 51
153.2105351977055
  0
LINE
  5
2D3
330
1F
100
AcDbEntity
  8
vectors
100
AcDbLine
 10
729.1926840516512
 20
821.2693332190294
 30
0.0
 11
726.5250311962854
 21
834.5965429783545
 31
0.0
  0
ARC
  5
2D4
330
1F
100
AcDbEntity
  8
vectors
100
AcDbCircle
 10
868.6670712422793
 20
642.0627538707649
 30
0.0
 40
239.3190746609278
100
AcDbArc
 50
126.4373624947907
 51
151.7602005519155
  0
LINE
  5
2D5
330
1F
100
AcDbEntity
  8
vectors
100
AcDbLine
 10
657.8329516284697
 20
755.2996449585751
 30
0.0
 11
664.5020863541604
 21
743.3051562715925
 31
0.0
  0
ARC
  5
2D6
330
1F
100
AcDbEntity
  8
vectors
100
AcDbCircle
 10
850.5186585226045
 20
653.3925580443955
 30
0.0
 40
195.7041457173214
100
AcDbArc
 50
129.4988235249919
 51
156.7157570240776
  0
ARC
  5
2D7
330
1F
100
AcDbEntity
  8
vectors
100
AcDbCircle
 10
825.0498852885712
 20
764.6544820759653
 30
0.0
 40
157.9767360731253
100
AcDbArc
 50
192.3919336617368
 51
225.2993268388844
  0
ARC
  5
2D8
330
1F
100
AcDbEntity
  8
vectors
100
AcDbCircle
 10
749.2205868765687
 20
695.3661046846654
 30
0.0
 40
55.62854583910531
100
AcDbArc
 50
230.622809085723
 51
303.9290835731925
  0
ARC
  5
2D9
330
1F
100
AcDbEntity
  8
vectors
100
AcDbCircle
 10
738.693072015491
 20
698.4994245311209
 30
0.0
 40
64.48400264629964
100
AcDbArc
 50
310.1486040729447
 51
356.051148645794
  0
ARC
  5
2DA
330
1F
100
AcDbEntity
  8
vectors
100
AcDbCircle
 10
807.2526051056133
 20
710.7441844846503
 30
0.0
 40
17.21300242737513
100
AcDbArc
 50
116.0431111239717
 51
255.7789044874905
  0
ARC
  5
2DB
330
1F
100
AcDbEntity
  8
vectors
100
AcDbCircle
 10
774.8882659437912
 20
709.781514300841
 30
0.0
 40
29.75340392999442
100
AcDbArc
 50
33.51369111594892
 51
87.81140473203828
  0
ARC
  5
2DC
330
1F
100
AcDbEntity
  8
vectors
100
AcDbCircle
 10
777.8349749754112
 20
723.2825029156061
 30
0.0
 40
16.33137325725079
100
AcDbArc
 50
96.36476282688365
 51
217.7896135319879
  0
ARC
  5
2DD
330
1F
100
AcDbEntity
  8
vectors
100
AcDbCircle
 10
788.8719711717923
 20
738.8941929792723
 30
0.0
 40
35.06571929594812
100
AcDbArc
 50
226.9365980733912
 51
254.2491533808695
  0
ARC
  5
2DE
330
1F
100
AcDbEntity
  8
vectors
100
AcDbCircle
 10
769.3288261076786
 20
690.8951174215209
 30
0.0
 40
17.42273844741912
100
AcDbArc
 50
318.1753567125245
 51
54.87497209846022
  0
ARC
  5
2DF
330
1F
100
AcDbEntity
  8
vectors
100
AcDbCircle
 10
763.3539676117274
 20
704.5573915053717
 30
0.0
 40
31.59940178602444
100
AcDbArc
 50
239.3397864209527
 51
306.8663956244305
  0
ARC
  5
2E0
330
1F
100
AcDbEntity
  8
vectors
100
AcDbCircle
 10
773.0988518834644
 20
723.1689577281753
 30
0.0
 40
52.59023464196449
100
AcDbArc
 50
194.9923036268625
 51
240.5473141062508
  0
ARC
  5
2E1
330
1F
100
AcDbEntity
  8
vectors
100
AcDbCircle
 10
-535.1745547518659
 20
806.6444981517536
 30
0.0
 40
1261.215157207457
100
AcDbArc
 50
355.5853799594543
 51
359.898272804466
  0
ARC
  5
2E2
330
1F
100
AcDbEntity
  8
vectors
100
AcDbCircle
 10
591.0679295845443
 20
813.189848053846
 30
0.0
 40
147.7436236890287
100
AcDbArc
 50
0.5178628055340725
 51
52.4207386684984
  0
ARC
  5
2E3
330
1F
100
AcDbEntity
  8
vectors
100
AcDbCircle
 10
725.324227475339
 20
696.2123882633171
 30
0.0
 40
119.0784028718232
100
AcDbArc
 50
63.47029626755452
 51
83.49940282152815
  0
ARC
  5
2E4
330
1F
100
AcDbEntity
  8
vectors
100
AcDbCircle
 10
614.149160149854
 20
785.31552519636
 30
0.0
 40
165.2851388578259
100
AcDbArc
 50
6.055652239324315
 51
64.67325364808063
  0
ARC
  5
2E5
330
1F
100
AcDbEntity
  8
vectors
100
AcDbCircle
 10
683.7024574041694
 20
931.9231947118995
 30
0.0
 40
3.019306153468279
100
AcDbArc
 50
67.5633152775833
 51
213.0124611976629
  0
ARC
  5
2EF
330
1F
100
AcDbEntity
  8
vectors
100
AcDbCircle
 10
730.3177878885398
 20
708.1486384604772
 30
0.0
 40
95.4961929531932
100
AcDbArc
 50
10.59369429077085
 51
83.66129008571858
  0
LINE
  5
2F0
330
1F
100
AcDbEntity
  8
vectors
100
AcDbLine
 10
824.186304387852
 20
725.7049615029554
 30
0.0
 11
808.7783896529495
 21
726.1921641263088
 31
0.0
  0
ARC
  5
2F1
330
1F
100
AcDbEntity
  8
vectors
100
AcDbCircle
 10
780.8131878962455
 20
724.0270409532075
 30
0.0
 40
28.04889066697399
100
AcDbArc
 50
4.427124994865424
 51
83.02822326274069
  0
ARC
  5
2F2
330
1F
100
AcDbEntity
  8
vectors
100
AcDbCircle
 10
776.4311591446648
 20
726.5242092250006
 30
0.0
 40
26.51351474241919
100
AcDbArc
 50
72.92131471756893
 51
157.5607967327682
  0
ARC
  5
2F3
330
1F
100
AcDbEntity
  8
vectors
100
AcDbCircle
 10
792.894340814685
 20
725.2167634871056
 30
0.0
 40
42.53317120855072
100
AcDbArc
 50
164.4143798876411
 51
208.6359488455615
  0
ARC
  5
2F4
330
1F
100
AcDbEntity
  8
vectors
100
AcDbCircle
 10
774.3450858124557
 20
720.8835616553622
 30
0.0
 40
24.70543231761211
100
AcDbArc
 50
220.5171191529017
 51
272.3280921614525
  0
ARC
  5
2F5
330
1F
100
AcDbEntity
  8
vectors
100
AcDbCircle
 10
770.9768789933364
 20
691.4839116428356
 30
0.0
 40
6.429621531361495
100
AcDbArc
 50
323.3140467180902
 51
47.16072392097723
  0
ARC
  5
2F6
330
1F
100
AcDbEntity
  8
vectors
100
AcDbCircle
 10
764.8556631168657
 20
711.6968417912183
 30
0.0
 40
26.56651910705445
100
AcDbArc
 50
234.8500682603235
 51
295.1185054565327
  0
ARC
  5
2F7
330
1F
100
AcDbEntity
  8
vectors
100
AcDbCircle
 10
772.4732988095719
 20
722.5634916607796
 30
0.0
 40
39.83723670991786
100
AcDbArc
 50
188.1969863051809
 51
234.8897341530891
  0
LINE
  5
2F9
330
1F
100
AcDbEntity
  8
vectors
100
AcDbLine
 10
740.861123510299
 20
803.0610240722637
 30
0.0
 11
733.0430499996777
 21
716.8836230468173
 31
0.0
  0
ARC
  5
2FA
330
1F
100
AcDbEntity
  8
vectors
100
AcDbCircle
 10
751.0171815770117
 20
674.6019077768793
 30
0.0
 40
69.68455352698658
100
AcDbArc
 50
259.6084391901891
 51
310.6866722469149
  0
ARC
  5
2FB
330
1F
100
AcDbEntity
  8
vectors
100
AcDbCircle
 10
740.1125649024732
 20
595.0697783076958
 30
0.0
 40
11.11589449719967
100
AcDbArc
 50
98.61284923491464
 51
261.3871507650852
  0
ARC
  5
2FC
330
1F
100
AcDbEntity
  8
vectors
100
AcDbCircle
 10
729.2891630173516
 20
670.5303175089551
 30
0.0
 40
86.93486620734972
100
AcDbArc
 50
276.047417972845
 51
322.3930367844454
  0
ARC
  5
2FD
330
1F
100
AcDbEntity
  8
vectors
100
AcDbCircle
 10
796.9406435474513
 20
619.4749320782664
 30
0.0
 40
2.339037524128743
100
AcDbArc
 50
301.4288653732933
 51
102.2067530712866
  0
ARC
  5
2FE
330
1F
100
AcDbEntity
  8
vectors
100
AcDbCircle
 10
712.0276572832968
 20
684.7373592509955
 30
0.0
 40
114.1004139742601
100
AcDbArc
 50
285.2014123162802
 51
321.0177946047221
  0
ARC
  5
2FF
330
1F
100
AcDbEntity
  8
vectors
100
AcDbCircle
 10
746.4640758561928
 20
565.1430629554822
 30
0.0
 40
10.50712112087274
100
AcDbArc
 50
115.4660413669468
 51
306.5034073202905
  0
ARC
  5
300
330
1F
100
AcDbEntity
  8
vectors
100
AcDbCircle
 10
666.7958179044798
 20
689.7659766995063
 30
0.0
 40
158.3960469772335
100
AcDbArc
 50
302.8491561469979
 51
329.1223765330104
  0
ARC
  5
301
330
1F
100
AcDbEntity
  8
vectors
100
AcDbCircle
 10
794.6984240859392
 20
610.4396125754099
 30
0.0
 40
8.279424404761911
100
AcDbArc
 50
346.2816935597654
 51
14.87642086277037
  0
ARC
  5
302
330
1F
100
AcDbEntity
  8
vectors
100
AcDbCircle
 10
801.7018242600784
 20
612.7137168706601
 30
0.0
 40
1.009493003146995
100
AcDbArc
 50
351.5417136289573
 51
165.9268872994853
  0
ARC
  5
303
330
1F
100
AcDbEntity
  8
vectors
100
AcDbCircle
 10
685.2451972659866
 20
660.5262337820776
 30
0.0
 40
133.873253700387
100
AcDbArc
 50
299.5845487257595
 51
336.3937651119605
  0
ARC
  5
304
330
1F
100
AcDbEntity
  8
vectors
100
AcDbCircle
 10
759.5828001449831
 20
536.0661053889028
 30
0.0
 40
11.51512364432767
100
AcDbArc
 50
135.7149697794356
 51
299.302679335502
  0
ARC
  5
305
330
1F
100
AcDbEntity
  8
vectors
100
AcDbCircle
 10
636.2255189708853
 20
654.5677126603176
 30
0.0
 40
182.1059979565156
100
AcDbArc
 50
315.1000522234754
 51
344.7393558155078
  0
ARC
  5
306
330
1F
100
AcDbEntity
  8
vectors
100
AcDbCircle
 10
809.798401986216
 20
605.1491952106513
 30
0.0
 40
2.582387690679602
100
AcDbArc
 50
35.13879790733287
 51
136.8031745796853
  0
ARC
  5
307
330
1F
100
AcDbEntity
  8
vectors
100
AcDbCircle
 10
598.3652878433852
 20
659.6978201356288
 30
0.0
 40
224.5736653260195
100
AcDbArc
 50
322.7647660512845
 51
345.1237171178428
  0
ARC
  5
308
330
1F
100
AcDbEntity
  8
vectors
100
AcDbCircle
 10
788.2960076657278
 20
515.0850567353481
 30
0.0
 40
14.14631174849303
100
AcDbArc
 50
141.9156128108516
 51
274.2103984301107
  0
ARC
  5
309
330
1F
100
AcDbEntity
  8
vectors
100
AcDbCircle
 10
787.8790608669287
 20
516.218671828549
 30
0.0
 40
15.31109207018035
100
AcDbArc
 50
275.4550935137258
 51
338.4897706158211
  0
ARC
  5
30A
330
1F
100
AcDbEntity
  8
vectors
100
AcDbCircle
 10
443.3796320049715
 20
622.745210109761
 30
0.0
 40
375.8628375492753
100
AcDbArc
 50
342.641163252437
 51
356.8276428021176
  0
ARC
  5
30B
330
1F
100
AcDbEntity
  8
vectors
100
AcDbCircle
 10
816.9954992396267
 20
600.5349390608146
 30
0.0
 40
2.186455907473615
100
AcDbArc
 50
40.16003173395428
 51
136.4128738756186
  0
ARC
  5
30D
330
1F
100
AcDbEntity
  8
vectors
100
AcDbCircle
 10
795.0015223373226
 20
814.9571295005827
 30
0.0
 40
26.83660738867721
100
AcDbArc
 50
84.4108191434987
 51
118.1907735160194
  0
ARC
  5
30E
330
1F
100
AcDbEntity
  8
vectors
100
AcDbCircle
 10
583.4915528234201
 20
790.2616134201405
 30
0.0
 40
204.6260330636085
100
AcDbArc
 50
4.051460233637556
 51
13.66700386564455
  0
ARC
  5
30F
330
1F
100
AcDbEntity
  8
vectors
100
AcDbCircle
 10
-11689.72456387358
 20
4204.673292111668
 30
0.0
 40
12932.26481453842
100
AcDbArc
 50
344.7575078687805
 51
344.9271009690602
  0
ARC
  5
310
330
1F
100
AcDbEntity
  8
vectors
100
AcDbCircle
 10
824.5557114902066
 20
740.8387784849874
 30
0.0
 40
127.5539102516798
100
AcDbArc
 50
98.77111613248391
 51
112.7384063862102
  0
ARC
  5
311
330
1F
100
AcDbEntity
  8
vectors
100
AcDbCircle
 10
987.5186359835828
 20
824.642981424183
 30
0.0
 40
187.2441142583091
100
AcDbArc
 50
166.9568931653246
 51
171.9989606124634
  0
ARC
  5
312
330
1F
100
AcDbEntity
  8
vectors
100
AcDbCircle
 10
542.8278265423511
 20
1961.433990493977
 30
0.0
 40
1140.586686275018
100
AcDbArc
 50
281.8986085104536
 51
283.1388887165261
  0
ARC
  5
313
330
1F
100
AcDbEntity
  8
vectors
100
AcDbCircle
 10
721.4628383247934
 20
840.3950572519375
 30
0.0
 40
56.74870984479887
100
AcDbArc
 50
5.013099450848399
 51
18.58243500814723
  0
ARC
  5
317
330
1F
100
AcDbEntity
  8
vectors
100
AcDbCircle
 10
771.1435486990151
 20
872.6997931120857
 30
0.0
 40
4.954510589646485
100
AcDbArc
 50
218.1885490989849
 51
359.7230532986014
  0
ARC
  5
318
330
1F
100
AcDbEntity
  8
vectors
100
AcDbCircle
 10
-298.8011774963664
 20
535.26455799831
 30
0.0
 40
1126.612010125852
100
AcDbArc
 50
17.42709417871733
 51
19.47132352545923
  0
ARC
  5
319
330
1F
100
AcDbEntity
  8
vectors
100
AcDbCircle
 10
756.6304132427888
 20
906.8939941137047
 30
0.0
 40
7.798614182637604
100
AcDbArc
 50
30.08912475876371
 51
204.8208469193841
  0
ARC
  5
31A
330
1F
100
AcDbEntity
  8
vectors
100
AcDbCircle
 10
621.3570055164729
 20
815.261959922784
 30
0.0
 40
155.6958536938154
100
AcDbArc
 50
20.44063315379449
 51
34.57648618697469
  0
ARC
  5
31B
330
1F
100
AcDbEntity
  8
vectors
100
AcDbCircle
 10
798.6953608360169
 20
842.625043353861
 30
0.0
 40
33.26373453062292
100
AcDbArc
 50
84.14130942804764
 51
111.8242729360882
  0
ARC
  5
31C
330
1F
100
AcDbEntity
  8
vectors
100
AcDbCircle
 10
496.7440762885599
 20
842.3169830033639
 30
0.0
 40
307.1677582296018
100
AcDbArc
 50
6.242053977310906
 51
15.91626992964584
  0
ARC
  5
31D
330
1F
100
AcDbEntity
  8
vectors
100
AcDbCircle
 10
783.5758151417807
 20
921.250635453646
 30
0.0
 40
10.06906277877922
100
AcDbArc
 50
31.77134632679822
 51
171.8145044837401
  0
ARC
  5
31E
330
1F
100
AcDbEntity
  8
vectors
100
AcDbCircle
 10
973.974719575613
 20
948.2723213319324
 30
0.0
 40
201.9926668557888
100
AcDbArc
 50
187.2776805458364
 51
201.724875289367
  0
ARC
  5
31F
330
1F
100
AcDbEntity
  8
vectors
100
AcDbCircle
 10
374.8272093643155
 20
1031.729323199116
 30
0.0
 40
462.518926836912
100
AcDbArc
 50
341.4356674375076
 51
345.8849767139129
  0
ARC
  5
320
330
1F
100
AcDbEntity
  8
vectors
100
AcDbCircle
 10
794.4924348618743
 20
925.1375441779382
 30
0.0
 40
29.54768771821593
100
AcDbArc
 50
347.8828482318371
 51
21.36029369994271
  0
ARC
  5
321
330
1F
100
AcDbEntity
  8
vectors
100
AcDbCircle
 10
814.375167193973
 20
929.1813398262748
 30
0.0
 40
10.17027101055761
100
AcDbArc
 50
41.34505581143344
 51
136.0233008670228
  0
ARC
  5
322
330
1F
100
AcDbEntity
  8
vectors
100
AcDbCircle
 10
831.9049429213352
 20
923.8504831510095
 30
0.0
 40
27.76741821791238
100
AcDbArc
 50
153.4931208591112
 51
194.2658004566563
  0
ARC
  5
323
330
1F
100
AcDbEntity
  8
vectors
100
AcDbCircle
 10
1865.243842213445
 20
1028.905536925081
 30
0.0
 40
1066.138466601593
100
AcDbArc
 50
186.0246254784105
 51
187.7911627517691
  0
ARC
  5
324
330
1F
100
AcDbEntity
  8
vectors
100
AcDbCircle
 10
811.5504834728511
 20
865.6162747492022
 30
0.0
 40
18.94035572520342
100
AcDbArc
 50
84.76144676943016
 51
97.9002462405851
  0
ENDSEC
  0
SECTION
  2
OBJECTS
  0
DICTIONARY
  5
C
330
0
100
AcDbDictionary
281
     1
  3
ACAD_COLOR
350
6B
  3
ACAD_GROUP
350
D
  3
ACAD_IMAGE_DICT
350
108
  3
ACAD_IMAGE_VARS
350
109
  3
ACAD_LAYOUT
350
1A
  3
ACAD_MATERIAL
350
6A
  3
ACAD_MLINESTYLE
350
17
  3
ACAD_PLOTSETTINGS
350
19
  3
ACAD_PLOTSTYLENAME
350
E
  3
ACAD_TABLESTYLE
350
7E
  3
ACDBHEADERROUNDTRIPXREC
350
331
  3
AcDbVariableDictionary
350
5E
  3
DWGPROPS
350
330
  0
DICTIONARY
  5
105
330
2
100
AcDbDictionary
280
     1
281
     1
  3
ACAD_LAYERFILTERS
360
1F2
  3
ACLYDICTIONARY
360
1F1
  0
IMAGEDEF_REACTOR
  5
10B
330
10C
100
AcDbRasterImageDefReactor
 90
        2
330
10C
  0
DICTIONARY
  5
6B
102
{ACAD_REACTORS
330
C
102
}
330
C
100
AcDbDictionary
281
     1
  0
DICTIONARY
  5
D
102
{ACAD_REACTORS
330
C
102
}
330
C
100
AcDbDictionary
281
     1
  0
DICTIONARY
  5
108
102
{ACAD_REACTORS
330
C
102
}
330
C
100
AcDbDictionary
281
     1
  3
untitled1
350
10A
  0
RASTERVARIABLES
  5
109
102
{ACAD_REACTORS
330
C
102
}
330
C
100
AcDbRasterVariables
 90
        0
 70
     1
 71
     1
 72
     1
  0
DICTIONARY
  5
1A
102
{ACAD_REACTORS
330
C
102
}
330
C
100
AcDbDictionary
281
     1
  3
Model
350
22
  3
����1
350
D3
  3
����2
350
D7
  0
DICTIONARY
  5
6A
102
{ACAD_REACTORS
330
C
102
}
330
C
100
AcDbDictionary
281
     1
  0
DICTIONARY
  5
17
102
{ACAD_REACTORS
330
C
102
}
330
C
100
AcDbDictionary
281
     1
  3
Standard
350
18
  0
DICTIONARY
  5
19
102
{ACAD_REACTORS
330
C
102
}
330
C
100
AcDbDictionary
281
     1
  0
ACDBDICTIONARYWDFLT
  5
E
102
{ACAD_REACTORS
330
C
102
}
330
C
100
AcDbDictionary
281
     1
  3
Normal
350
F
100
AcDbDictionaryWithDefault
340
F
  0
DICTIONARY
  5
7E
102
{ACAD_REACTORS
330
C
102
}
330
C
100
AcDbDictionary
281
     1
  3
Standard
350
7F
  0
DICTIONARY
  5
331
102
{ACAD_REACTORS
330
C
102
}
330
C
100
AcDbDictionary
281
     1
  0
DICTIONARY
  5
5E
102
{ACAD_REACTORS
330
C
102
}
330
C
100
AcDbDictionary
281
     1
  3
CTABLESTYLE
350
84
  3
DIMASSOC
350
5F
  3
HIDETEXT
350
63
  3
PROJECTNAME
350
17A
  0
XRECORD
  5
330
102
{ACAD_REACTORS
330
C
102
}
330
C
100
AcDbXrecord
280
     1
  1
DWGPROPS COOKIE
  2

  3

  4

  6

  7

  8
Autodesk
  9

300
=
301
=
302
=
303
=
304
=
305
=
306
=
307
=
308
=
309
=
 40
0.0762518171296296
 41
2454920.32516294
 42
2454920.401411308
  1

 90
        0
  0
DICTIONARY
  5
1F2
102
{ACAD_REACTORS
330
105
102
}
330
105
100
AcDbDictionary
281
     1
  0
DICTIONARY
  5
1F1
102
{ACAD_REACTORS
330
105
102
}
330
105
100
AcDbDictionary
281
     1
1001
ACAD
1000
<All
  0
IMAGEDEF
  5
10A
102
{ACAD_REACTORS
330
108
330
10B
102
}
330
108
100
AcDbRasterImageDef
 90
        0
  1
C:\\Documents and Settings\\Administrator\\Desktop\\untitled1.JPG
 10
512.0
 20
384.0
 11
0.2645833333333333
 21
0.2645833333333333
280
     1
281
     5
  0
LAYOUT
  5
22
102
{ACAD_XDICTIONARY
360
332
102
}
102
{ACAD_REACTORS
330
1A
102
}
330
1A
100
AcDbPlotSettings
  1

  2
none_device
  4
ISO_A4_(210.00_x_297.00_MM)
  6

 40
7.5
 41
20.0
 42
7.5
 43
20.0
 44
210.0
 45
297.0
 46
11.54999923706054
 47
-13.65000009536743
 48
0.0
 49
0.0
140
0.0
141
0.0
142
1.0
143
8.704084754739808
 70
 11952
 72
     1
 73
     0
 74
     0
  7

 75
     0
147
0.1148885871608098
148
0.0
149
0.0
100
AcDbLayout
  1
Model
 70
     1
 71
     0
 10
0.0
 20
0.0
 11
12.0
 21
9.0
 12
0.0
 22
0.0
 32
0.0
 14
0.0
 24
0.0
 34
0.0
 15
0.0
 25
0.0
 35
0.0
146
0.0
 13
0.0
 23
0.0
 33
0.0
 16
1.0
 26
0.0
 36
0.0
 17
0.0
 27
1.0
 37
0.0
 76
     0
330
1F
1001
ACAD_PSEXT
1000
None
1000
None
1000
Not applicable
1000
The layout will not be plotted unless a new plotter configuration name is selected.
1070
     0
  0
LAYOUT
  5
D3
102
{ACAD_XDICTIONARY
360
334
102
}
102
{ACAD_REACTORS
330
1A
102
}
330
1A
100
AcDbPlotSettings
  1

  2
C:\\Documents and Settings\\basas\\Application Data\\Autodesk\\AutoCAD 2005\\R16.1\\enu\\plotters\\Default Windows System Printer.pc3
  4

  6

 40
0.0
 41
0.0
 42
0.0
 43
0.0
 44
0.0
 45
0.0
 46
0.0
 47
0.0
 48
0.0
 49
0.0
140
0.0
141
0.0
142
1.0
143
1.0
 70
   688
 72
     0
 73
     0
 74
     5
  7

 75
    16
147
1.0
148
0.0
149
0.0
100
AcDbLayout
  1
����1
 70
     1
 71
     1
 10
0.0
 20
0.0
 11
12.0
 21
9.0
 12
0.0
 22
0.0
 32
0.0
 14
0.0
 24
0.0
 34
0.0
 15
0.0
 25
0.0
 35
0.0
146
0.0
 13
0.0
 23
0.0
 33
0.0
 16
1.0
 26
0.0
 36
0.0
 17
0.0
 27
1.0
 37
0.0
 76
     0
330
D2
  0
LAYOUT
  5
D7
102
{ACAD_XDICTIONARY
360
336
102
}
102
{ACAD_REACTORS
330
1A
102
}
330
1A
100
AcDbPlotSettings
  1

  2
C:\\Documents and Settings\\basas\\Application Data\\Autodesk\\AutoCAD 2005\\R16.1\\enu\\plotters\\Default Windows System Printer.pc3
  4

  6

 40
0.0
 41
0.0
 42
0.0
 43
0.0
 44
0.0
 45
0.0
 46
0.0
 47
0.0
 48
0.0
 49
0.0
140
0.0
141
0.0
142
1.0
143
1.0
 70
   688
 72
     0
 73
     0
 74
     5
  7

 75
    16
147
1.0
148
0.0
149
0.0
100
AcDbLayout
  1
����2
 70
     1
 71
     2
 10
0.0
 20
0.0
 11
12.0
 21
9.0
 12
0.0
 22
0.0
 32
0.0
 14
0.0
 24
0.0
 34
0.0
 15
0.0
 25
0.0
 35
0.0
146
0.0
 13
0.0
 23
0.0
 33
0.0
 16
1.0
 26
0.0
 36
0.0
 17
0.0
 27
1.0
 37
0.0
 76
     0
330
D6
  0
MLINESTYLE
  5
18
102
{ACAD_REACTORS
330
17
102
}
330
17
100
AcDbMlineStyle
  2
STANDARD
 70
     0
  3

 62
   256
 51
90.0
 52
90.0
 71
     2
 49
0.5
 62
   256
  6
BYLAYER
 49
-0.5
 62
   256
  6
BYLAYER
  0
ACDBPLACEHOLDER
  5
F
102
{ACAD_REACTORS
330
E
102
}
330
E
  0
TABLESTYLE
  5
7F
102
{ACAD_REACTORS
330
7E
102
}
330
7E
100
AcDbTableStyle
  3
Standard
 70
     0
 71
     0
 40
1.5
 41
1.5
280
     0
281
     0
  7
Standard
140
4.5
170
     2
 62
     0
 63
     7
283
     0
274
    -2
284
     1
 64
     0
275
    -2
285
     1
 65
     0
276
    -2
286
     1
 66
     0
277
    -2
287
     1
 67
     0
278
    -2
288
     1
 68
     0
279
    -2
289
     1
 69
     0
  7
Standard
140
6.0
170
     5
 62
     0
 63
     7
283
     0
274
    -2
284
     1
 64
     0
275
    -2
285
     1
 65
     0
276
    -2
286
     1
 66
     0
277
    -2
287
     1
 67
     0
278
    -2
288
     1
 68
     0
279
    -2
289
     1
 69
     0
  7
Standard
140
4.5
170
     5
 62
     0
 63
     7
283
     0
274
    -2
284
     1
 64
     0
275
    -2
285
     1
 65
     0
276
    -2
286
     1
 66
     0
277
    -2
287
     1
 67
     0
278
    -2
288
     1
 68
     0
279
    -2
289
     1
 69
     0
  0
DICTIONARYVAR
  5
84
102
{ACAD_REACTORS
330
5E
102
}
330
5E
100
DictionaryVariables
280
     0
  1
STANDARD
  0
DICTIONARYVAR
  5
5F
102
{ACAD_REACTORS
330
5E
102
}
330
5E
100
DictionaryVariables
280
     0
  1
2
  0
DICTIONARYVAR
  5
63
102
{ACAD_REACTORS
330
5E
102
}
330
5E
100
DictionaryVariables
280
     0
  1
1
  0
DICTIONARYVAR
  5
17A
102
{ACAD_REACTORS
330
5E
102
}
330
5E
100
DictionaryVariables
280
     0
  1

  0
DICTIONARY
  5
332
330
22
100
AcDbDictionary
280
     1
281
     1
  3
ACAD_XREC_ROUNDTRIP
360
333
  0
DICTIONARY
  5
334
330
D3
100
AcDbDictionary
280
     1
281
     1
  3
ACAD_XREC_ROUNDTRIP
360
335
  0
DICTIONARY
  5
336
330
D7
100
AcDbDictionary
280
     1
281
     1
  3
ACAD_XREC_ROUNDTRIP
360
337
  0
XRECORD
  5
333
102
{ACAD_REACTORS
330
332
102
}
330
332
100
AcDbXrecord
280
     1
102
SHADEPLOT
 70
     0
102
SHADEPLOTRESLEVEL
 70
     2
102
SHADEPLOTCUSTOMDPI
 70
   300
  0
XRECORD
  5
335
102
{ACAD_REACTORS
330
334
102
}
330
334
100
AcDbXrecord
280
     1
102
SHADEPLOT
 70
     0
102
SHADEPLOTRESLEVEL
 70
     2
102
SHADEPLOTCUSTOMDPI
 70
   300
  0
XRECORD
  5
337
102
{ACAD_REACTORS
330
336
102
}
330
336
100
AcDbXrecord
280
     1
102
SHADEPLOT
 70
     0
102
SHADEPLOTRESLEVEL
 70
     2
102
SHADEPLOTCUSTOMDPI
 70
   300
  0
ENDSEC
  0
EOF
